  0
SECTION
  2
HEADER
  9
$ACADVER
  1
AC1015
  9
$ACADMAINTVER
 70
     6
  9
$DWGCODEPAGE
  3
ANSI_1252
  9
$INSBASE
 10
0.0
 20
0.0
 30
0.0
  9
$EXTMIN
 10
1.000000E+20
 20
1.000000E+20
 30
1.000000E+20
  9
$EXTMAX
 10
-1.000000E+20
 20
-1.000000E+20
 30
-1.000000E+20
  9
$LIMMIN
 10
0.0
 20
0.0
  9
$LIMMAX
 10
420.0
 20
297.0
  9
$ORTHOMODE
 70
     0
  9
$REGENMODE
 70
     1
  9
$FILLMODE
 70
     1
  9
$QTEXTMODE
 70
     0
  9
$MIRRTEXT
 70
     1
  9
$LTSCALE
 40
1.0
  9
$ATTMODE
 70
     1
  9
$TEXTSIZE
 40
2.5
  9
$TRACEWID
 40
1.0
  9
$TEXTSTYLE
  7
Standard
  9
$CLAYER
  8
0
  9
$CELTYPE
  6
ByLayer
  9
$CECOLOR
 62
   256
  9
$CELTSCALE
 40
1.0
  9
$DISPSILH
 70
     0
  9
$DIMSCALE
 40
1.0
  9
$DIMASZ
 40
2.5
  9
$DIMEXO
 40
0.625
  9
$DIMDLI
 40
3.75
  9
$DIMRND
 40
0.0
  9
$DIMDLE
 40
0.0
  9
$DIMEXE
 40
1.25
  9
$DIMTP
 40
0.0
  9
$DIMTM
 40
0.0
  9
$DIMTXT
 40
2.5
  9
$DIMCEN
 40
2.5
  9
$DIMTSZ
 40
0.0
  9
$DIMTOL
 70
     0
  9
$DIMLIM
 70
     0
  9
$DIMTIH
 70
     0
  9
$DIMTOH
 70
     0
  9
$DIMSE1
 70
     0
  9
$DIMSE2
 70
     0
  9
$DIMTAD
 70
     1
  9
$DIMZIN
 70
     8
  9
$DIMBLK
  1

  9
$DIMASO
 70
     1
  9
$DIMSHO
 70
     1
  9
$DIMPOST
  1

  9
$DIMAPOST
  1

  9
$DIMALT
 70
     0
  9
$DIMALTD
 70
     3
  9
$DIMALTF
 40
0.03937
  9
$DIMLFAC
 40
1.0
  9
$DIMTOFL
 70
     1
  9
$DIMTVP
 40
0.0
  9
$DIMTIX
 70
     0
  9
$DIMSOXD
 70
     0
  9
$DIMSAH
 70
     0
  9
$DIMBLK1
  1

  9
$DIMBLK2
  1

  9
$DIMSTYLE
  2
ISO-25
  9
$DIMCLRD
 70
     0
  9
$DIMCLRE
 70
     0
  9
$DIMCLRT
 70
     0
  9
$DIMTFAC
 40
1.0
  9
$DIMGAP
 40
0.625
  9
$DIMJUST
 70
     0
  9
$DIMSD1
 70
     0
  9
$DIMSD2
 70
     0
  9
$DIMTOLJ
 70
     0
  9
$DIMTZIN
 70
     8
  9
$DIMALTZ
 70
     0
  9
$DIMALTTZ
 70
     0
  9
$DIMUPT
 70
     0
  9
$DIMDEC
 70
     2
  9
$DIMTDEC
 70
     2
  9
$DIMALTU
 70
     2
  9
$DIMALTTD
 70
     3
  9
$DIMTXSTY
  7
Standard
  9
$DIMAUNIT
 70
     0
  9
$DIMADEC
 70
     0
  9
$DIMALTRND
 40
0.0
  9
$DIMAZIN
 70
     0
  9
$DIMDSEP
 70
    44
  9
$DIMATFIT
 70
     3
  9
$DIMFRAC
 70
     0
  9
$DIMLDRBLK
  1

  9
$DIMLUNIT
 70
     2
  9
$DIMLWD
 70
    -2
  9
$DIMLWE
 70
    -2
  9
$DIMTMOVE
 70
     0
  9
$LUNITS
 70
     2
  9
$LUPREC
 70
     4
  9
$SKETCHINC
 40
1.0
  9
$FILLETRAD
 40
10.0
  9
$AUNITS
 70
     0
  9
$AUPREC
 70
     0
  9
$MENU
  1
.
  9
$ELEVATION
 40
0.0
  9
$PELEVATION
 40
0.0
  9
$THICKNESS
 40
0.0
  9
$LIMCHECK
 70
     0
  9
$CHAMFERA
 40
10.0
  9
$CHAMFERB
 40
10.0
  9
$CHAMFERC
 40
20.0
  9
$CHAMFERD
 40
0.0
  9
$SKPOLY
 70
     0
  9
$TDCREATE
 40
2456589.426488958
  9
$TDUCREATE
 40
2456589.343155625
  9
$TDUPDATE
 40
2456589.42648897
  9
$TDUUPDATE
 40
2456589.343155636
  9
$TDINDWG
 40
0.0000000116
  9
$TDUSRTIMER
 40
0.0000000116
  9
$USRTIMER
 70
     1
  9
$ANGBASE
 50
0.0
  9
$ANGDIR
 70
     0
  9
$PDMODE
 70
     0
  9
$PDSIZE
 40
0.0
  9
$PLINEWID
 40
0.0
  9
$SPLFRAME
 70
     0
  9
$SPLINETYPE
 70
     6
  9
$SPLINESEGS
 70
     8
  9
$HANDSEED
  5
257
  9
$SURFTAB1
 70
     6
  9
$SURFTAB2
 70
     6
  9
$SURFTYPE
 70
     6
  9
$SURFU
 70
     6
  9
$SURFV
 70
     6
  9
$UCSBASE
  2

  9
$UCSNAME
  2

  9
$UCSORG
 10
0.0
 20
0.0
 30
0.0
  9
$UCSXDIR
 10
1.0
 20
0.0
 30
0.0
  9
$UCSYDIR
 10
0.0
 20
1.0
 30
0.0
  9
$UCSORTHOREF
  2

  9
$UCSORTHOVIEW
 70
     0
  9
$UCSORGTOP
 10
0.0
 20
0.0
 30
0.0
  9
$UCSORGBOTTOM
 10
0.0
 20
0.0
 30
0.0
  9
$UCSORGLEFT
 10
0.0
 20
0.0
 30
0.0
  9
$UCSORGRIGHT
 10
0.0
 20
0.0
 30
0.0
  9
$UCSORGFRONT
 10
0.0
 20
0.0
 30
0.0
  9
$UCSORGBACK
 10
0.0
 20
0.0
 30
0.0
  9
$PUCSBASE
  2

  9
$PUCSNAME
  2

  9
$PUCSORG
 10
0.0
 20
0.0
 30
0.0
  9
$PUCSXDIR
 10
1.0
 20
0.0
 30
0.0
  9
$PUCSYDIR
 10
0.0
 20
1.0
 30
0.0
  9
$PUCSORTHOREF
  2

  9
$PUCSORTHOVIEW
 70
     0
  9
$PUCSORGTOP
 10
0.0
 20
0.0
 30
0.0
  9
$PUCSORGBOTTOM
 10
0.0
 20
0.0
 30
0.0
  9
$PUCSORGLEFT
 10
0.0
 20
0.0
 30
0.0
  9
$PUCSORGRIGHT
 10
0.0
 20
0.0
 30
0.0
  9
$PUCSORGFRONT
 10
0.0
 20
0.0
 30
0.0
  9
$PUCSORGBACK
 10
0.0
 20
0.0
 30
0.0
  9
$USERI1
 70
     0
  9
$USERI2
 70
     0
  9
$USERI3
 70
     0
  9
$USERI4
 70
     0
  9
$USERI5
 70
     0
  9
$USERR1
 40
0.0
  9
$USERR2
 40
0.0
  9
$USERR3
 40
0.0
  9
$USERR4
 40
0.0
  9
$USERR5
 40
0.0
  9
$WORLDVIEW
 70
     1
  9
$SHADEDGE
 70
     3
  9
$SHADEDIF
 70
    70
  9
$TILEMODE
 70
     1
  9
$MAXACTVP
 70
    64
  9
$PINSBASE
 10
0.0
 20
0.0
 30
0.0
  9
$PLIMCHECK
 70
     0
  9
$PEXTMIN
 10
1.000000E+20
 20
1.000000E+20
 30
1.000000E+20
  9
$PEXTMAX
 10
-1.000000E+20
 20
-1.000000E+20
 30
-1.000000E+20
  9
$PLIMMIN
 10
0.0
 20
0.0
  9
$PLIMMAX
 10
420.0
 20
297.0
  9
$UNITMODE
 70
     0
  9
$VISRETAIN
 70
     1
  9
$PLINEGEN
 70
     0
  9
$PSLTSCALE
 70
     1
  9
$TREEDEPTH
 70
  3020
  9
$CMLSTYLE
  2
Standard
  9
$CMLJUST
 70
     0
  9
$CMLSCALE
 40
20.0
  9
$PROXYGRAPHICS
 70
     1
  9
$MEASUREMENT
 70
     1
  9
$CELWEIGHT
370
    -1
  9
$ENDCAPS
280
     0
  9
$JOINSTYLE
280
     0
  9
$LWDISPLAY
290
     0
  9
$INSUNITS
 70
     4
  9
$HYPERLINKBASE
  1

  9
$STYLESHEET
  1

  9
$XEDIT
290
     1
  9
$CEPSNTYPE
380
     0
  9
$PSTYLEMODE
290
     1
  9
$FINGERPRINTGUID
  2
{D887EDBC-FA66-45AC-B61A-203047EF3705}
  9
$VERSIONGUID
  2
{FAEB1C32-E019-11D5-929B-00C0DF256EC4}
  9
$EXTNAMES
290
     1
  9
$PSVPSCALE
 40
0.0
  9
$OLESTARTUP
290
     0
  0
ENDSEC
  0
SECTION
  2
CLASSES
  0
CLASS
  1
ACDBDICTIONARYWDFLT
  2
AcDbDictionaryWithDefault
  3
ObjectDBX Classes
 90
        0
280
     0
281
     0
  0
CLASS
  1
VISUALSTYLE
  2
AcDbVisualStyle
  3
ObjectDBX Classes
 90
     4095
280
     0
281
     0
  0
CLASS
  1
MATERIAL
  2
AcDbMaterial
  3
ObjectDBX Classes
 90
     1153
280
     0
281
     0
  0
CLASS
  1
DICTIONARYVAR
  2
AcDbDictionaryVar
  3
ObjectDBX Classes
 90
        0
280
     0
281
     0
  0
CLASS
  1
ACDBPLACEHOLDER
  2
AcDbPlaceHolder
  3
ObjectDBX Classes
 90
        0
280
     0
281
     0
  0
CLASS
  1
LAYOUT
  2
AcDbLayout
  3
ObjectDBX Classes
 90
        0
280
     0
281
     0
  0
ENDSEC
  0
SECTION
  2
TABLES
  0
TABLE
  2
VPORT
  5
8
330
0
100
AcDbSymbolTable
 70
     1
  0
VPORT
  5
29
330
8
100
AcDbSymbolTableRecord
100
AcDbViewportTableRecord
  2
*Active
 70
     0
 10
0.0
 20
0.0
 11
1.0
 21
1.0
 12
344.186916
 22
148.5
 13
0.0
 23
0.0
 14
10.0
 24
10.0
 15
10.0
 25
10.0
 16
0.0
 26
0.0
 36
1.0
 17
0.0
 27
0.0
 37
0.0
 40
297.0
 41
1.972973
 42
50.0
 43
0.0
 44
0.0
 50
0.0
 51
0.0
 71
     0
 72
   100
 73
     1
 74
     3
 75
     0
 76
     0
 77
     0
 78
     0
281
     0
 65
     1
110
0.0
120
0.0
130
0.0
111
1.0
121
0.0
131
0.0
112
0.0
122
1.0
132
0.0
 79
     0
146
0.0
  0
ENDTAB
  0
TABLE
  2
LTYPE
  5
5
330
0
100
AcDbSymbolTable
 70
     1
  0
LTYPE
  5
14
330
5
100
AcDbSymbolTableRecord
100
AcDbLinetypeTableRecord
  2
ByBlock
 70
     0
  3

 72
    65
 73
     0
 40
0.0
  0
LTYPE
  5
15
330
5
100
AcDbSymbolTableRecord
100
AcDbLinetypeTableRecord
  2
ByLayer
 70
     0
  3

 72
    65
 73
     0
 40
0.0
  0
LTYPE
  5
16
330
5
100
AcDbSymbolTableRecord
100
AcDbLinetypeTableRecord
  2
Continuous
 70
     0
  3
Solid line
 72
    65
 73
     0
 40
0.0
  0
ENDTAB
  0
TABLE
  2
LAYER
  5
2
330
0
100
AcDbSymbolTable
 70
     1
  0
LAYER
  5
10
330
2
100
AcDbSymbolTableRecord
100
AcDbLayerTableRecord
  2
0
 70
     0
 62
   106
  6
Continuous
370
     0
390
F
  0
ENDTAB
  0
TABLE
  2
STYLE
  5
3
330
0
100
AcDbSymbolTable
 70
     4
  0
STYLE
  5
11
330
3
100
AcDbSymbolTableRecord
100
AcDbTextStyleTableRecord
  2
Standard
 70
     0
 40
0.0
 41
1.0
 50
0.0
 71
     0
 42
2.5
  3
txt
  4

  0
STYLE
  5
3F
330
3
100
AcDbSymbolTableRecord
100
AcDbTextStyleTableRecord
  2
Default
 70
     0
 40
0.0
 41
1.0
 50
0.0
 71
     0
 42
0.2
  3

  4

1001
ACAD
1000
Arial
1071
        0
  0
STYLE
  5
40
330
3
100
AcDbSymbolTableRecord
100
AcDbTextStyleTableRecord
  2
ISO
 70
     0
 40
0.0
 41
1.0
 50
0.0
 71
     0
 42
0.2
  3

  4

1001
ACAD
1000
txt
1071
        0
  0
STYLE
  5
41
330
3
100
AcDbSymbolTableRecord
100
AcDbTextStyleTableRecord
  2
GIANLU
 70
     0
 40
0.0
 41
1.0
 50
0.0
 71
     0
 42
0.2
  3

  4

1001
ACAD
1000
Arial
1071
 33554432
  0
ENDTAB
  0
TABLE
  2
VIEW
  5
6
330
0
100
AcDbSymbolTable
 70
     0
  0
ENDTAB
  0
TABLE
  2
UCS
  5
7
330
0
100
AcDbSymbolTable
 70
     0
  0
ENDTAB
  0
TABLE
  2
APPID
  5
9
330
0
100
AcDbSymbolTable
 70
     1
  0
APPID
  5
12
330
9
100
AcDbSymbolTableRecord
100
AcDbRegAppTableRecord
  2
ACAD
 70
     0
  0
ENDTAB
  0
TABLE
  2
DIMSTYLE
  5
A
330
0
100
AcDbSymbolTable
 70
     6
100
AcDbDimStyleTable
  0
DIMSTYLE
105
27
330
A
100
AcDbSymbolTableRecord
100
AcDbDimStyleTableRecord
  2
ISO-25
 70
     0
 41
2.5
 42
0.625
 43
3.75
 44
1.25
 73
     0
 74
     0
 77
     1
 78
     8
140
2.5
141
2.5
143
0.03937
147
0.625
171
     3
172
     1
271
     2
272
     2
274
     3
278
    44
283
     0
284
     8
340
11
  0
DIMSTYLE
105
42
330
A
100
AcDbSymbolTableRecord
100
AcDbDimStyleTableRecord
  2
Default
 70
     0
  3
<>
 41
4.375
 42
1.05
 44
2.1
 73
     0
 74
     0
 77
     1
 78
     8
140
3.5
146
0.4
147
1.75
172
     1
178
     3
271
     2
272
     3
284
     8
340
3F
341
43
342
43
  0
DIMSTYLE
105
4A
330
A
100
AcDbSymbolTableRecord
100
AcDbDimStyleTableRecord
  2
ISO
 70
     0
  3
<>
 41
4.375
 42
1.05
 44
2.1
 73
     0
 74
     0
 77
     1
 78
     8
140
3.5
146
0.4
147
1.75
172
     1
178
     3
271
     2
272
     3
284
     8
340
40
341
43
342
43
  0
DIMSTYLE
105
4B
330
A
100
AcDbSymbolTableRecord
100
AcDbDimStyleTableRecord
  2
zucchetti_unico
 70
     0
  3
<>
 41
3.5
 42
1.05
 44
2.1
 73
     0
 74
     0
 77
     1
 78
     8
140
3.5
146
0.6
147
1.75
172
     1
176
     3
177
     3
178
     3
271
     2
272
     2
284
     8
340
3F
  0
DIMSTYLE
105
4C
330
A
100
AcDbSymbolTableRecord
100
AcDbDimStyleTableRecord
  2
zucchetti_definitivo
 70
     0
  3
<>
 41
4.375
 42
1.05
 44
2.1
 73
     0
 74
     0
 77
     1
 78
     8
140
3.5
146
0.7
147
1.75
172
     1
176
     3
177
     3
178
     3
271
     2
272
     3
284
     8
340
3F
342
43
  0
DIMSTYLE
105
4D
330
A
100
AcDbSymbolTableRecord
100
AcDbDimStyleTableRecord
  2
SIMONE_DEFINITIVO
 70
     0
  3
<>
 41
3.5
 42
1.05
 44
2.1
 73
     0
 74
     0
 77
     1
 78
     8
140
3.5
146
0.7
147
1.75
172
     1
176
     3
177
     3
178
     3
271
     2
272
     2
284
     8
340
3F
  0
ENDTAB
  0
TABLE
  2
BLOCK_RECORD
  5
1
330
0
100
AcDbSymbolTable
 70
     7
  0
BLOCK_RECORD
  5
1F
330
1
100
AcDbSymbolTableRecord
100
AcDbBlockTableRecord
  2
*Model_Space
340
22
  0
BLOCK_RECORD
  5
1B
330
1
100
AcDbSymbolTableRecord
100
AcDbBlockTableRecord
  2
*Paper_Space
340
1E
  0
BLOCK_RECORD
  5
23
330
1
100
AcDbSymbolTableRecord
100
AcDbBlockTableRecord
  2
*Paper_Space0
340
26
  0
BLOCK_RECORD
  5
43
330
1
100
AcDbSymbolTableRecord
100
AcDbBlockTableRecord
  2
_CLOSED
340
0
  0
BLOCK_RECORD
  5
4E
330
1
100
AcDbSymbolTableRecord
100
AcDbBlockTableRecord
  2
a
340
0
102
{BLKREFS
331
86
102
}
  0
BLOCK_RECORD
  5
87
330
1
100
AcDbSymbolTableRecord
100
AcDbBlockTableRecord
  2
b
340
0
102
{BLKREFS
331
E4
102
}
  0
BLOCK_RECORD
  5
E5
330
1
100
AcDbSymbolTableRecord
100
AcDbBlockTableRecord
  2
c
340
0
102
{BLKREFS
331
161
102
}
  0
BLOCK_RECORD
  5
162
330
1
100
AcDbSymbolTableRecord
100
AcDbBlockTableRecord
  2
d
340
0
102
{BLKREFS
331
19F
102
}
  0
BLOCK_RECORD
  5
1A0
330
1
100
AcDbSymbolTableRecord
100
AcDbBlockTableRecord
  2
e
340
0
102
{BLKREFS
331
229
102
}
  0
ENDTAB
  0
ENDSEC
  0
SECTION
  2
BLOCKS
  0
BLOCK
  5
20
330
1F
100
AcDbEntity
  8
0
100
AcDbBlockBegin
  2
*Model_Space
 70
     0
 10
0.0
 20
0.0
 30
0.0
  3
*Model_Space
  1

  0
ENDBLK
  5
21
330
1F
100
AcDbEntity
  8
0
100
AcDbBlockEnd
  0
BLOCK
  5
1C
330
1B
100
AcDbEntity
 67
     1
  8
0
100
AcDbBlockBegin
  2
*Paper_Space
 70
     0
 10
0.0
 20
0.0
 30
0.0
  3
*Paper_Space
  1

  0
ENDBLK
  5
1D
330
1B
100
AcDbEntity
 67
     1
  8
0
100
AcDbBlockEnd
  0
BLOCK
  5
24
330
23
100
AcDbEntity
  8
0
100
AcDbBlockBegin
  2
*Paper_Space0
 70
     0
 10
0.0
 20
0.0
 30
0.0
  3
*Paper_Space0
  1

  0
ENDBLK
  5
25
330
23
100
AcDbEntity
  8
0
100
AcDbBlockEnd
  0
BLOCK
  5
44
330
43
100
AcDbEntity
  8
0
100
AcDbBlockBegin
  2
_CLOSED
 70
     0
 10
0.0
 20
0.0
 30
0.0
  3
_CLOSED
  1

  0
LINE
  5
46
330
43
100
AcDbEntity
  8
0
  6
ByBlock
 62
     0
370
    -2
100
AcDbLine
 10
-1.0
 20
0.166667
 30
0.0
 11
0.0
 21
0.0
 31
0.0
  0
LINE
  5
47
330
43
100
AcDbEntity
  8
0
  6
ByBlock
 62
     0
370
    -2
100
AcDbLine
 10
0.0
 20
0.0
 30
0.0
 11
-1.0
 21
-0.166667
 31
0.0
  0
LINE
  5
48
330
43
100
AcDbEntity
  8
0
  6
ByBlock
 62
     0
370
    -2
100
AcDbLine
 10
-1.0
 20
0.166667
 30
0.0
 11
-1.0
 21
-0.166667
 31
0.0
  0
LINE
  5
49
330
43
100
AcDbEntity
  8
0
  6
ByBlock
 62
     0
370
    -2
100
AcDbLine
 10
0.0
 20
0.0
 30
0.0
 11
-1.0
 21
0.0
 31
0.0
  0
ENDBLK
  5
45
330
43
100
AcDbEntity
  8
0
100
AcDbBlockEnd
  0
BLOCK
  5
84
330
4E
100
AcDbEntity
  8
0
100
AcDbBlockBegin
  2
a
 70
     0
 10
159.003876
 20
366.090393
 30
0.0
  3
a
  1

  0
LINE
  5
4F
330
4E
100
AcDbEntity
  8
0
  6
Continuous
 62
     0
370
    30
100
AcDbLine
 10
266.843872
 20
612.56772
 30
0.0
 11
266.843872
 21
568.56772
 31
0.0
  0
LINE
  5
50
330
4E
100
AcDbEntity
  8
0
  6
Continuous
 62
     0
370
    30
100
AcDbLine
 10
161.843872
 20
612.56772
 30
0.0
 11
161.843872
 21
568.56772
 31
0.0
  0
ARC
  5
51
330
4E
100
AcDbEntity
  8
0
  6
Continuous
 62
     0
370
    30
100
AcDbCircle
 10
203.594938
 20
590.567759
 30
0.0
 40
14.15106618634793
100
AcDbArc
 50
180.000158
 51
188.349742
  0
ARC
  5
52
330
4E
100
AcDbEntity
  8
0
  6
Continuous
 62
     0
370
    30
100
AcDbCircle
 10
203.593852
 20
590.567708
 30
0.0
 40
14.14997987249771
100
AcDbArc
 50
351.65106
 51
179.99995
  0
LINE
  5
53
330
4E
100
AcDbEntity
  8
0
  6
Continuous
 62
     0
370
    30
100
AcDbLine
 10
161.843872
 20
612.56772
 30
0.0
 11
266.843872
 21
612.56772
 31
0.0
  0
LINE
  5
54
330
4E
100
AcDbEntity
  8
0
  6
Continuous
 62
     0
370
    30
100
AcDbLine
 10
217.593872
 20
568.56772
 30
0.0
 11
266.843872
 21
568.56772
 31
0.0
  0
LINE
  5
55
330
4E
100
AcDbEntity
  8
0
  6
Continuous
 62
     0
370
    30
100
AcDbLine
 10
161.843872
 20
568.56772
 30
0.0
 11
189.593872
 21
568.56772
 31
0.0
  0
ARC
  5
56
330
4E
100
AcDbEntity
  8
0
  6
Continuous
 62
     0
370
    30
100
AcDbCircle
 10
265.343879
 20
590.56772
 30
0.0
 40
20.50512774666887
100
AcDbArc
 50
274.195053
 51
289.983826
  0
ARC
  5
57
330
4E
100
AcDbEntity
  8
0
  6
Continuous
 62
     0
370
    30
100
AcDbCircle
 10
265.343879
 20
590.56772
 30
0.0
 40
20.50512774666887
100
AcDbArc
 50
70.016174
 51
85.804947
  0
ARC
  5
58
330
4E
100
AcDbEntity
  8
0
  6
Continuous
 62
     0
370
    30
100
AcDbCircle
 10
211.843872
 20
590.56772
 30
0.0
 40
24.0
100
AcDbArc
 50
283.86195
 51
284.907153
  0
ARC
  5
59
330
4E
100
AcDbEntity
  8
0
  6
Continuous
 62
     0
370
    30
100
AcDbCircle
 10
211.843872
 20
590.56772
 30
0.0
 40
24.0
100
AcDbArc
 50
66.443536
 51
113.556464
  0
ARC
  5
5A
330
4E
100
AcDbEntity
  8
0
  6
Continuous
 62
     0
370
    30
100
AcDbCircle
 10
211.843872
 20
590.56772
 30
0.0
 40
24.0
100
AcDbArc
 50
284.907153
 51
293.556464
  0
LINE
  5
5B
330
4E
100
AcDbEntity
  8
0
  6
Continuous
 62
     0
370
    30
100
AcDbLine
 10
217.593872
 20
486.06772
 30
0.0
 11
189.593872
 21
486.06772
 31
0.0
  0
LINE
  5
5C
330
4E
100
AcDbEntity
  8
0
  6
Continuous
 62
     0
370
    30
100
AcDbLine
 10
217.593872
 20
486.06772
 30
0.0
 11
217.593872
 21
561.56772
 31
0.0
  0
LINE
  5
5D
330
4E
100
AcDbEntity
  8
0
  6
Continuous
 62
     0
370
     0
100
AcDbLine
 10
217.593872
 20
561.56772
 30
0.0
 11
189.593872
 21
561.56772
 31
0.0
  0
LINE
  5
5E
330
4E
100
AcDbEntity
  8
0
  6
Continuous
 62
     0
370
    30
100
AcDbLine
 10
217.593872
 20
561.56772
 30
0.0
 11
217.593872
 21
590.56772
 31
0.0
  0
ARC
  5
5F
330
4E
100
AcDbEntity
  8
0
  6
Continuous
 62
     0
370
    30
100
AcDbCircle
 10
203.593872
 20
590.56772
 30
0.0
 40
14.0
100
AcDbArc
 50
0.0
 51
180.0
  0
LINE
  5
60
330
4E
100
AcDbEntity
  8
0
  6
Continuous
 62
     0
370
    30
100
AcDbLine
 10
189.593872
 20
561.56772
 30
0.0
 11
189.593872
 21
590.56772
 31
0.0
  0
LINE
  5
61
330
4E
100
AcDbEntity
  8
0
  6
Continuous
 62
     0
370
    30
100
AcDbLine
 10
189.593872
 20
486.06772
 30
0.0
 11
189.593872
 21
561.56772
 31
0.0
  0
LINE
  5
62
330
4E
100
AcDbEntity
  8
0
  6
Continuous
 62
     0
370
    30
100
AcDbLine
 10
217.093872
 20
371.06772
 30
0.0
 11
190.093872
 21
371.06772
 31
0.0
  0
LINE
  5
63
330
4E
100
AcDbEntity
  8
0
  6
Continuous
 62
     0
370
     0
100
AcDbLine
 10
217.593872
 20
371.56772
 30
0.0
 11
189.593872
 21
371.56772
 31
0.0
  0
ARC
  5
64
330
4E
100
AcDbEntity
  8
0
  6
Continuous
 62
     0
370
    30
100
AcDbCircle
 10
217.093872
 20
371.56772
 30
0.0
 40
0.4999999999999716
100
AcDbArc
 50
270.0
 51
360.0
  0
LINE
  5
65
330
4E
100
AcDbEntity
  8
0
  6
Continuous
 62
     0
370
    30
100
AcDbLine
 10
217.593872
 20
485.56772
 30
0.0
 11
189.593872
 21
485.56772
 31
0.0
  0
LINE
  5
66
330
4E
100
AcDbEntity
  8
0
  6
Continuous
 62
     0
370
    30
100
AcDbLine
 10
217.593872
 20
371.56772
 30
0.0
 11
217.593872
 21
485.56772
 31
0.0
  0
LINE
  5
67
330
4E
100
AcDbEntity
  8
0
  6
Continuous
 62
     0
370
    30
100
AcDbLine
 10
217.093872
 20
486.06772
 30
0.0
 11
217.593872
 21
485.56772
 31
0.0
  0
LINE
  5
68
330
4E
100
AcDbEntity
  8
0
  6
Continuous
 62
     0
370
    30
100
AcDbLine
 10
190.093872
 20
486.06772
 30
0.0
 11
189.593872
 21
485.56772
 31
0.0
  0
LINE
  5
69
330
4E
100
AcDbEntity
  8
0
  6
Continuous
 62
     0
370
    30
100
AcDbLine
 10
189.593872
 20
371.56772
 30
0.0
 11
189.593872
 21
485.56772
 31
0.0
  0
ARC
  5
6A
330
4E
100
AcDbEntity
  8
0
  6
Continuous
 62
     0
370
    30
100
AcDbCircle
 10
190.093872
 20
371.56772
 30
0.0
 40
0.4999999999999716
100
AcDbArc
 50
180.0
 51
270.0
  0
ARC
  5
6B
330
4E
100
AcDbEntity
  8
0
  6
Continuous
 62
     0
370
    30
100
AcDbCircle
 10
300.043872
 20
568.86772
 30
0.0
 40
0.300000011920929
100
AcDbArc
 50
270.0
 51
360.0
  0
LWPOLYLINE
  5
6C
330
4E
100
AcDbEntity
  8
0
  6
Continuous
 62
     0
370
     0
100
AcDbPolyline
 90
       26
 70
     0
 43
0.0
 10
300.043884
 20
594.894714
 10
299.461426
 20
594.856323
 10
298.888641
 20
594.75238
 10
298.333801
 20
594.584534
 10
297.804901
 20
594.355286
 10
297.309631
 20
594.067749
 10
296.855408
 20
593.725891
 10
296.44928
 20
593.33429
 10
296.097961
 20
592.898193
 10
295.807678
 20
592.423767
 10
295.584015
 20
591.918152
 10
295.431549
 20
591.389343
 10
295.353882
 20
590.846069
 10
295.353271
 20
590.297852
 10
295.429779
 20
589.754395
 10
295.581085
 20
589.225281
 10
295.803711
 20
588.719238
 10
296.092987
 20
588.244324
 10
296.44339
 20
587.807556
 10
296.848724
 20
587.415222
 10
297.302277
 20
587.072571
 10
297.796967
 20
586.78418
 10
298.325409
 20
586.553955
 10
298.879913
 20
586.385132
 10
299.452454
 20
586.280212
 10
300.043884
 20
586.240723
  0
LWPOLYLINE
  5
6D
330
4E
100
AcDbEntity
  8
0
  6
Continuous
 62
     0
370
     0
100
AcDbPolyline
 90
        6
 70
     0
 43
0.0
 10
300.043884
 20
594.894714
 10
300.13147
 20
594.908447
 10
300.211761
 20
594.908752
 10
300.277557
 20
594.905518
 10
300.322754
 20
594.912964
 10
300.343872
 20
594.9552
  0
ARC
  5
6E
330
4E
100
AcDbEntity
  8
0
  6
Continuous
 62
     0
370
     0
100
AcDbCircle
 10
300.129375
 20
586.708425
 30
0.0
 40
0.4754348667659793
100
AcDbArc
 50
259.639417
 51
267.833733
  0
LWPOLYLINE
  5
6F
330
4E
100
AcDbEntity
  8
0
  6
Continuous
 62
     0
370
     0
100
AcDbPolyline
 90
        5
 70
     0
 43
0.0
 10
300.111389
 20
586.233337
 10
300.199402
 20
586.22998
 10
300.272064
 20
586.232788
 10
300.321808
 20
586.22467
 10
300.343872
 20
586.180237
  0
LINE
  5
70
330
4E
100
AcDbEntity
  8
0
  6
Continuous
 62
     0
370
    30
100
AcDbLine
 10
300.343872
 20
612.26772
 30
0.0
 11
300.343872
 21
594.955203
 31
0.0
  0
LINE
  5
71
330
4E
100
AcDbEntity
  8
0
  6
Continuous
 62
     0
370
    30
100
AcDbLine
 10
300.343872
 20
586.180238
 30
0.0
 11
300.343872
 21
568.86772
 31
0.0
  0
LINE
  5
72
330
4E
100
AcDbEntity
  8
0
  6
Continuous
 62
     0
370
     0
100
AcDbLine
 10
300.043872
 20
612.56772
 30
0.0
 11
300.043872
 21
594.894699
 31
0.0
  0
LINE
  5
73
330
4E
100
AcDbEntity
  8
0
  6
Continuous
 62
     0
370
     0
100
AcDbLine
 10
300.043872
 20
586.240742
 30
0.0
 11
300.043872
 21
568.56772
 31
0.0
  0
ELLIPSE
  5
74
330
4E
100
AcDbEntity
  8
0
  6
Continuous
 62
     0
370
     0
100
AcDbEllipse
 10
300.043872
 20
595.099601
 30
0.0
 11
-0.0688141106164543
 21
1.039524455563093
 31
0.0
210
0.0
220
0.0
230
-1.0
 40
0.013249
 41
3.141592653589533
 42
4.51485555194798
  0
ELLIPSE
  5
75
330
4E
100
AcDbEntity
  8
0
  6
Continuous
 62
     0
370
     0
100
AcDbEllipse
 10
300.043872
 20
586.03584
 30
0.0
 11
0.06881411061436556
 21
1.039524455522207
 31
0.0
210
0.0
220
0.0
230
-0.9999999999999999
 40
0.013249
 41
4.90992240881994
 42
6.28318530717983
  0
ELLIPSE
  5
76
330
4E
100
AcDbEntity
  8
0
  6
Continuous
 62
     0
370
     0
100
AcDbEllipse
 10
300.343872
 20
586.035022
 30
0.0
 11
-4.733811431366967E-15
 21
-1.03269804458167
 31
0.0
210
0.0
220
0.0
230
1.0
 40
0.229376
 41
3.141592653589813
 42
4.519160475362055
  0
CIRCLE
  5
77
330
4E
100
AcDbEntity
  8
0
  6
Continuous
 62
     0
370
     0
100
AcDbCircle
 10
300.343872
 20
590.56772
 30
0.0
 40
3.199999988079084
  0
CIRCLE
  5
78
330
4E
100
AcDbEntity
  8
0
  6
Continuous
 62
     0
370
    30
100
AcDbCircle
 10
300.343872
 20
590.56772
 30
0.0
 40
3.500000000000013
  0
LINE
  5
79
330
4E
100
AcDbEntity
  8
0
  6
Continuous
 62
     0
370
    30
100
AcDbLine
 10
274.223066
 20
568.56772
 30
0.0
 11
300.043872
 21
568.56772
 31
0.0
  0
ELLIPSE
  5
7A
330
4E
100
AcDbEntity
  8
0
  6
Continuous
 62
     0
370
    30
100
AcDbEllipse
 10
274.223066
 20
590.56772
 30
0.0
 11
-1.385809657495408E-15
 21
-22.0
 31
0.0
210
0.0
220
0.0
230
-1.0
 40
0.176327
 41
1.570796326794897
 42
3.141592653589793
  0
ELLIPSE
  5
7B
330
4E
100
AcDbEntity
  8
0
  6
Continuous
 62
     0
370
    30
100
AcDbEllipse
 10
274.223066
 20
590.56772
 30
0.0
 11
-1.385809657495408E-15
 21
-22.0
 31
0.0
210
0.0
220
0.0
230
-1.0
 40
0.176327
 41
0.0
 42
1.570796326794897
  0
LWPOLYLINE
  5
7C
330
4E
100
AcDbEntity
  8
0
  6
Continuous
 62
     0
370
    30
100
AcDbPolyline
 90
       12
 70
     0
 43
0.0
 10
300.343872
 20
586.180237
 10
300.351349
 20
586.302002
 10
300.373627
 20
586.422241
 10
300.41037
 20
586.538818
 10
300.46109
 20
586.649902
 10
300.524933
 20
586.754089
 10
300.601013
 20
586.84967
 10
300.688202
 20
586.935242
 10
300.785156
 20
587.009583
 10
300.890472
 20
587.071533
 10
301.002777
 20
587.120239
 10
301.121735
 20
587.155273
  0
LWPOLYLINE
  5
7D
330
4E
100
AcDbEntity
  8
0
  6
Continuous
 62
     0
370
    30
100
AcDbPolyline
 90
       12
 70
     0
 43
0.0
 10
300.343872
 20
594.9552
 10
300.351318
 20
594.833801
 10
300.373444
 20
594.713928
 10
300.409973
 20
594.597717
 10
300.460388
 20
594.486877
 10
300.523895
 20
594.382935
 10
300.599548
 20
594.287476
 10
300.686249
 20
594.201904
 10
300.782684
 20
594.127563
 10
300.887482
 20
594.06543
 10
300.999237
 20
594.016541
 10
301.121765
 20
593.980164
  0
LINE
  5
7E
330
4E
100
AcDbEntity
  8
0
  6
Continuous
 62
     0
370
    30
100
AcDbLine
 10
274.223066
 20
612.56772
 30
0.0
 11
300.043872
 21
612.56772
 31
0.0
  0
ARC
  5
7F
330
4E
100
AcDbEntity
  8
0
  6
Continuous
 62
     0
370
    30
100
AcDbCircle
 10
300.043872
 20
612.26772
 30
0.0
 40
0.300000011920929
100
AcDbArc
 50
0.0
 51
90.0
  0
LWPOLYLINE
  5
80
330
4E
100
AcDbEntity
  8
0
  6
Continuous
 62
     0
370
     0
100
AcDbPolyline
 90
       18
 70
     0
 43
0.0
 10
289.384399
 20
590.516846
 10
289.354187
 20
590.940125
 10
289.246277
 20
591.350647
 10
289.06427
 20
591.734497
 10
288.814423
 20
592.078613
 10
288.505219
 20
592.371338
 10
288.147186
 20
592.602661
 10
287.752502
 20
592.764709
 10
287.334595
 20
592.85199
 10
286.907654
 20
592.86145
 10
286.486267
 20
592.792908
 10
286.084747
 20
592.648621
 10
285.716766
 20
592.433472
 10
285.394806
 20
592.154846
 10
285.129883
 20
591.822205
 10
284.930969
 20
591.446838
 10
284.80484
 20
591.041504
 10
284.755737
 20
590.61731
  0
LWPOLYLINE
  5
81
330
4E
100
AcDbEntity
  8
0
  6
Continuous
 62
     0
370
     0
100
AcDbPolyline
 90
       18
 70
     0
 43
0.0
 10
284.755737
 20
590.61731
 10
284.78595
 20
590.194092
 10
284.89389
 20
589.783569
 10
285.075867
 20
589.399719
 10
285.325714
 20
589.055603
 10
285.634918
 20
588.762878
 10
285.99295
 20
588.531555
 10
286.387634
 20
588.369507
 10
286.805573
 20
588.282227
 10
287.232483
 20
588.272705
 10
287.65387
 20
588.341309
 10
288.055389
 20
588.485596
 10
288.42337
 20
588.700684
 10
288.745331
 20
588.97937
 10
289.010254
 20
589.312012
 10
289.209167
 20
589.687378
 10
289.335297
 20
590.092712
 10
289.384399
 20
590.516846
  0
LINE
  5
82
330
4E
100
AcDbEntity
  8
0
  6
Continuous
 62
     0
370
     0
100
AcDbLine
 10
284.75575
 20
590.617949
 30
0.0
 11
284.52243
 21
590.623013
 31
0.0
  0
LINE
  5
83
330
4E
100
AcDbEntity
  8
0
  6
Continuous
 62
     0
370
     0
100
AcDbLine
 10
289.384421
 20
590.517491
 30
0.0
 11
289.553455
 21
590.513823
 31
0.0
  0
ENDBLK
  5
85
330
4E
100
AcDbEntity
  8
0
100
AcDbBlockEnd
  0
BLOCK
  5
E2
330
87
100
AcDbEntity
  8
0
100
AcDbBlockBegin
  2
b
 70
     0
 10
0.0
 20
483.411407
 30
0.0
  3
b
  1

  0
LINE
  5
88
330
87
100
AcDbEntity
  8
0
  6
Continuous
 62
     0
370
    30
100
AcDbLine
 10
266.843872
 20
920.340596
 30
0.0
 11
266.843872
 21
876.340596
 31
0.0
  0
LWPOLYLINE
  5
89
330
87
100
AcDbEntity
  8
0
  6
Continuous
 62
     0
370
     0
100
AcDbPolyline
 90
      114
 70
     0
 43
0.0
 10
182.843872
 20
876.340576
 10
182.858353
 20
876.350891
 10
182.901627
 20
876.381531
 10
182.973373
 20
876.432373
 10
183.073318
 20
876.503235
 10
183.201141
 20
876.59375
 10
183.356232
 20
876.703613
 10
183.537888
 20
876.832153
 10
183.745331
 20
876.978943
 10
183.977829
 20
877.143372
 10
184.234528
 20
877.324768
 10
184.514481
 20
877.522522
 10
184.816772
 20
877.73584
 10
185.140457
 20
877.96405
 10
185.484604
 20
878.206482
 10
185.848297
 20
878.462402
 10
186.230637
 20
878.73114
 10
186.630753
 20
879.011963
 10
187.047714
 20
879.30426
 10
187.480652
 20
879.6073
 10
187.928772
 20
879.920471
 10
188.391403
 20
880.243225
 10
188.867874
 20
880.574951
 10
189.357513
 20
880.9151
 10
189.859634
 20
881.263123
 10
190.373566
 20
881.618469
 10
190.898727
 20
881.98053
 10
191.434692
 20
882.348999
 10
191.980972
 20
882.723267
 10
192.537155
 20
883.102966
 10
193.102814
 20
883.48761
 10
193.677597
 20
883.87677
 10
194.261169
 20
884.269958
 10
194.853333
 20
884.666809
 10
195.453873
 20
885.066833
 10
196.062607
 20
885.469666
 10
196.679337
 20
885.874695
 10
197.304001
 20
886.281616
 10
197.936646
 20
886.689819
 10
198.577255
 20
887.098755
 10
199.226028
 20
887.507874
 10
199.883209
 20
887.916504
 10
200.549026
 20
888.323853
 10
201.223984
 20
888.729126
 10
201.908676
 20
889.131287
 10
202.603806
 20
889.529175
 10
203.310486
 20
889.921082
 10
204.029907
 20
890.305359
 10
204.763519
 20
890.679749
 10
205.51326
 20
891.04126
 10
206.281372
 20
891.385864
 10
207.070419
 20
891.708679
 10
207.882965
 20
892.00293
 10
208.72142
 20
892.260132
 10
209.586487
 20
892.469543
 10
210.476089
 20
892.619141
 10
211.383636
 20
892.697571
 10
212.297928
 20
892.697876
 10
213.205536
 20
892.619934
 10
214.095322
 20
892.470764
 10
214.960587
 20
892.261719
 10
215.799133
 20
892.004883
 10
216.611954
 20
891.710754
 10
217.401108
 20
891.388123
 10
218.169357
 20
891.04364
 10
218.91922
 20
890.682251
 10
219.652969
 20
890.307983
 10
220.372437
 20
889.923706
 10
221.079147
 20
889.531738
 10
221.774414
 20
889.133972
 10
222.459152
 20
888.731873
 10
223.134186
 20
888.326599
 10
223.800064
 20
887.91925
 10
224.45726
 20
887.51062
 10
225.106094
 20
887.101501
 10
225.746796
 20
886.692566
 10
226.379532
 20
886.284363
 10
227.004303
 20
885.877502
 10
227.621063
 20
885.472412
 10
228.229736
 20
885.06958
 10
228.830292
 20
884.669495
 10
229.422546
 20
884.272644
 10
230.006226
 20
883.879395
 10
230.58107
 20
883.490234
 10
231.14679
 20
883.105591
 10
231.703064
 20
882.72583
 10
232.249481
 20
882.35144
 10
232.785553
 20
881.982971
 10
233.310776
 20
881.62085
 10
233.824677
 20
881.265503
 10
234.326736
 20
880.91748
 10
234.816422
 20
880.577271
 10
235.29306
 20
880.245483
 10
235.755905
 20
879.922607
 10
236.204208
 20
879.609375
 10
236.637222
 20
879.306274
 10
237.054214
 20
879.013916
 10
237.454422
 20
878.733032
 10
237.836945
 20
878.464172
 10
238.200836
 20
878.20813
 10
238.545166
 20
877.965576
 10
238.868973
 20
877.737244
 10
239.171341
 20
877.523865
 10
239.451324
 20
877.326111
 10
239.708054
 20
877.144714
 10
239.940674
 20
876.980225
 10
240.148392
 20
876.833252
 10
240.330322
 20
876.704407
 10
240.485657
 20
876.594421
 10
240.613602
 20
876.503784
 10
240.713715
 20
876.432861
 10
240.78569
 20
876.381836
 10
240.829178
 20
876.351013
 10
240.843872
 20
876.340576
  0
LWPOLYLINE
  5
8A
330
87
100
AcDbEntity
  8
0
  6
Continuous
 62
     0
370
     0
100
AcDbPolyline
 90
      133
 70
     0
 43
0.0
 10
190.843872
 20
868.340576
 10
190.851562
 20
868.350891
 10
190.874557
 20
868.381531
 10
190.912704
 20
868.432495
 10
190.965881
 20
868.503418
 10
191.033951
 20
868.594238
 10
191.116745
 20
868.704712
 10
191.213974
 20
868.834351
 10
191.325287
 20
868.982788
 10
191.450363
 20
869.149414
 10
191.588837
 20
869.333862
 10
191.740387
 20
869.535645
 10
191.904556
 20
869.754089
 10
192.080948
 20
869.988586
 10
192.269104
 20
870.238647
 10
192.468643
 20
870.503601
 10
192.679108
 20
870.782837
 10
192.900085
 20
871.075806
 10
193.13118
 20
871.381836
 10
193.371994
 20
871.700439
 10
193.622086
 20
872.030945
 10
193.881073
 20
872.372803
 10
194.148544
 20
872.725403
 10
194.424133
 20
873.088257
 10
194.707535
 20
873.460815
 10
194.998459
 20
873.84259
 10
195.29657
 20
874.233154
 10
195.601562
 20
874.632019
 10
195.913162
 20
875.038635
 10
196.231018
 20
875.452637
 10
196.554901
 20
875.873474
 10
196.884583
 20
876.30072
 10
197.219849
 20
876.73407
 10
197.560501
 20
877.173096
 10
197.906342
 20
877.617432
 10
198.257202
 20
878.06665
 10
198.6129
 20
878.520386
 10
198.973297
 20
878.978271
 10
199.338287
 20
879.43988
 10
199.707779
 20
879.904907
 10
200.081665
 20
880.372986
 10
200.459885
 20
880.843689
 10
200.842331
 20
881.31665
 10
201.228989
 20
881.791382
 10
201.619873
 20
882.267578
 10
202.014999
 20
882.74469
 10
202.414383
 20
883.22229
 10
202.818146
 20
883.699829
 10
203.226379
 20
884.176636
 10
203.639236
 20
884.652161
 10
204.056931
 20
885.12561
 10
204.479706
 20
885.596191
 10
204.907883
 20
886.062927
 10
205.341873
 20
886.524597
 10
205.782227
 20
886.979736
 10
206.229492
 20
887.426758
 10
206.684372
 20
887.863647
 10
207.14772
 20
888.287903
 10
207.62056
 20
888.696228
 10
208.104034
 20
889.084656
 10
208.599304
 20
889.448181
 10
209.107559
 20
889.780334
 10
209.629776
 20
890.073242
 10
210.166122
 20
890.317627
 10
210.715668
 20
890.502991
 10
211.275772
 20
890.619507
 10
211.841858
 20
890.659241
 10
212.407928
 20
890.620056
 10
212.968124
 20
890.504089
 10
213.517776
 20
890.319153
 10
214.05423
 20
890.075195
 10
214.576477
 20
889.782593
 10
215.084885
 20
889.450623
 10
215.580246
 20
889.087402
 10
216.063782
 20
888.699036
 10
216.536713
 20
888.290894
 10
217.000122
 20
887.866699
 10
217.455078
 20
887.429932
 10
217.902374
 20
886.982971
 10
218.342728
 20
886.527771
 10
218.776794
 20
886.066162
 10
219.205017
 20
885.599548
 10
219.627838
 20
885.128967
 10
220.045563
 20
884.655518
 10
220.45845
 20
884.179993
 10
220.866699
 20
883.703186
 10
221.270493
 20
883.225708
 10
221.669922
 20
882.748108
 10
222.065094
 20
882.270996
 10
222.456039
 20
881.7948
 10
222.842758
 20
881.320068
 10
223.22522
 20
880.847046
 10
223.603394
 20
880.376343
 10
223.97728
 20
879.908203
 10
224.346786
 20
879.443176
 10
224.711838
 20
878.981506
 10
225.072296
 20
878.523621
 10
225.42804
 20
878.069885
 10
225.778915
 20
877.620605
 10
226.124817
 20
877.17627
 10
226.465546
 20
876.737122
 10
226.800888
 20
876.303711
 10
227.13063
 20
875.876404
 10
227.454514
 20
875.455566
 10
227.772339
 20
875.041626
 10
228.083893
 20
874.63501
 10
228.388901
 20
874.236084
 10
228.687103
 20
873.845459
 10
228.978119
 20
873.463501
 10
229.261642
 20
873.09082
 10
229.537338
 20
872.727905
 10
229.80484
 20
872.375244
 10
230.063843
 20
872.033325
 10
230.313995
 20
871.702759
 10
230.554871
 20
871.384094
 10
230.786087
 20
871.077881
 10
231.007187
 20
870.78479
 10
231.217743
 20
870.505432
 10
231.417343
 20
870.240356
 10
231.60556
 20
869.990295
 10
231.781952
 20
869.755737
 10
231.946121
 20
869.537292
 10
232.097687
 20
869.33551
 10
232.236282
 20
869.150879
 10
232.361511
 20
868.984009
 10
232.472992
 20
868.835388
 10
232.570358
 20
868.705566
 10
232.653244
 20
868.595032
 10
232.72139
 20
868.504089
 10
232.774673
 20
868.432983
 10
232.812943
 20
868.381897
 10
232.83606
 20
868.351013
 10
232.843872
 20
868.340576
  0
LINE
  5
8B
330
87
100
AcDbEntity
  8
0
  6
Continuous
 62
     0
370
    30
100
AcDbLine
 10
240.843872
 20
876.340596
 30
0.0
 11
266.843872
 21
876.340596
 31
0.0
  0
LINE
  5
8C
330
87
100
AcDbEntity
  8
0
  6
Continuous
 62
     0
370
    30
100
AcDbLine
 10
190.843872
 20
868.340596
 30
0.0
 11
190.843872
 21
836.340596
 31
0.0
  0
ARC
  5
8D
330
87
100
AcDbEntity
  8
0
  6
Continuous
 62
     0
370
    30
100
AcDbCircle
 10
240.843872
 20
868.340596
 30
0.0
 40
8.0
100
AcDbArc
 50
90.0
 51
180.0
  0
ARC
  5
8E
330
87
100
AcDbEntity
  8
0
  6
Continuous
 62
     0
370
    30
100
AcDbCircle
 10
182.843872
 20
868.340596
 30
0.0
 40
8.000000000000004
100
AcDbArc
 50
0.0
 51
90.0
  0
LINE
  5
8F
330
87
100
AcDbEntity
  8
0
  6
Continuous
 62
     0
370
    30
100
AcDbLine
 10
161.843872
 20
876.340596
 30
0.0
 11
182.843872
 21
876.340596
 31
0.0
  0
LINE
  5
90
330
87
100
AcDbEntity
  8
0
  6
Continuous
 62
     0
370
    30
100
AcDbLine
 10
161.843872
 20
920.340596
 30
0.0
 11
161.843872
 21
876.340596
 31
0.0
  0
LWPOLYLINE
  5
91
330
87
100
AcDbEntity
  8
0
  6
Continuous
 62
     0
370
    30
100
AcDbPolyline
 90
       48
 70
     0
 43
0.0
 10
217.743835
 20
920.340576
 10
217.710205
 20
920.31897
 10
217.609665
 20
920.254517
 10
217.443466
 20
920.14856
 10
217.213577
 20
920.003296
 10
216.922318
 20
919.821411
 10
216.572632
 20
919.606201
 10
216.167557
 20
919.361328
 10
215.709991
 20
919.09082
 10
215.202759
 20
918.798889
 10
214.648727
 20
918.489746
 10
214.050415
 20
918.167725
 10
213.409775
 20
917.837463
 10
212.728683
 20
917.503601
 10
212.008865
 20
917.171021
 10
211.251709
 20
916.845032
 10
210.458511
 20
916.53125
 10
209.630661
 20
916.235291
 10
208.769943
 20
915.963562
 10
207.878387
 20
915.722656
 10
206.959351
 20
915.519226
 10
206.016815
 20
915.35968
 10
205.056168
 20
915.249634
 10
204.084076
 20
915.19342
 10
203.108063
 20
915.193359
 10
202.135941
 20
915.249268
 10
201.175217
 20
915.35907
 10
200.23259
 20
915.518372
 10
199.313354
 20
915.721619
 10
198.421783
 20
915.962402
 10
197.560867
 20
916.23407
 10
196.732895
 20
916.529724
 10
195.93956
 20
916.843445
 10
195.18222
 20
917.169434
 10
194.462204
 20
917.502136
 10
193.78096
 20
917.835999
 10
193.140167
 20
918.16626
 10
192.541611
 20
918.488281
 10
191.987259
 20
918.797546
 10
191.479782
 20
919.0896
 10
191.022049
 20
919.360229
 10
190.616852
 20
919.605164
 10
190.267044
 20
919.820312
 10
189.97551
 20
920.00238
 10
189.745148
 20
920.14801
 10
189.578659
 20
920.25415
 10
189.477829
 20
920.318787
 10
189.443878
 20
920.340576
  0
LINE
  5
92
330
87
100
AcDbEntity
  8
0
  6
Continuous
 62
     0
370
    30
100
AcDbLine
 10
161.843872
 20
920.340596
 30
0.0
 11
189.443872
 21
920.340596
 31
0.0
  0
LINE
  5
93
330
87
100
AcDbEntity
  8
0
  6
Continuous
 62
     0
370
    30
100
AcDbLine
 10
217.74383
 20
920.340596
 30
0.0
 11
266.843872
 21
920.340596
 31
0.0
  0
LINE
  5
94
330
87
100
AcDbEntity
  8
0
  6
Continuous
 62
     0
370
    30
100
AcDbLine
 10
232.843872
 20
868.340596
 30
0.0
 11
232.843872
 21
836.340596
 31
0.0
  0
ARC
  5
95
330
87
100
AcDbEntity
  8
0
  6
Continuous
 62
     0
370
    30
100
AcDbCircle
 10
265.343879
 20
898.340596
 30
0.0
 40
20.50512774666887
100
AcDbArc
 50
274.195053
 51
305.242108
  0
ARC
  5
96
330
87
100
AcDbEntity
  8
0
  6
Continuous
 62
     0
370
    30
100
AcDbCircle
 10
265.343879
 20
898.340596
 30
0.0
 40
20.50512774666887
100
AcDbArc
 50
74.757892
 51
85.804947
  0
LINE
  5
97
330
87
100
AcDbEntity
  8
0
  6
Continuous
 62
     0
370
    30
100
AcDbLine
 10
187.843872
 20
832.340596
 30
0.0
 11
218.017954
 21
832.340596
 31
0.0
  0
LINE
  5
98
330
87
100
AcDbEntity
  8
0
  6
Continuous
 62
     0
370
    30
100
AcDbLine
 10
218.017954
 20
832.340596
 30
0.0
 11
235.843872
 21
832.340596
 31
0.0
  0
LINE
  5
99
330
87
100
AcDbEntity
  8
0
  6
Continuous
 62
     0
370
    30
100
AcDbLine
 10
187.843872
 20
836.340596
 30
0.0
 11
218.017954
 21
836.340596
 31
0.0
  0
LINE
  5
9A
330
87
100
AcDbEntity
  8
0
  6
Continuous
 62
     0
370
    30
100
AcDbLine
 10
218.017954
 20
836.340596
 30
0.0
 11
235.843872
 21
836.340596
 31
0.0
  0
LINE
  5
9B
330
87
100
AcDbEntity
  8
0
  6
Continuous
 62
     0
370
    30
100
AcDbLine
 10
235.843872
 20
832.340596
 30
0.0
 11
235.843872
 21
836.340596
 31
0.0
  0
LINE
  5
9C
330
87
100
AcDbEntity
  8
0
  6
Continuous
 62
     0
370
    30
100
AcDbLine
 10
187.843872
 20
832.340596
 30
0.0
 11
187.843872
 21
836.340596
 31
0.0
  0
LINE
  5
9D
330
87
100
AcDbEntity
  8
0
  6
Continuous
 62
     0
370
    30
100
AcDbLine
 10
217.593872
 20
1106.340597
 30
0.0
 11
217.593872
 21
1077.340596
 31
0.0
  0
LINE
  5
9E
330
87
100
AcDbEntity
  8
0
  6
Continuous
 62
     0
370
     0
100
AcDbLine
 10
189.593872
 20
1077.340596
 30
0.0
 11
217.593872
 21
1077.340596
 31
0.0
  0
LINE
  5
9F
330
87
100
AcDbEntity
  8
0
  6
Continuous
 62
     0
370
    30
100
AcDbLine
 10
217.593872
 20
1077.340596
 30
0.0
 11
217.593872
 21
920.244399
 31
0.0
  0
LINE
  5
A0
330
87
100
AcDbEntity
  8
0
  6
Continuous
 62
     0
370
    30
100
AcDbLine
 10
189.593872
 20
1077.340596
 30
0.0
 11
189.593872
 21
920.244422
 31
0.0
  0
LINE
  5
A1
330
87
100
AcDbEntity
  8
0
  6
Continuous
 62
     0
370
    30
100
AcDbLine
 10
189.593872
 20
1106.340597
 30
0.0
 11
189.593872
 21
1077.340596
 31
0.0
  0
LINE
  5
A2
330
87
100
AcDbEntity
  8
0
  6
Continuous
 62
     0
370
    30
100
AcDbLine
 10
215.093872
 20
1097.340605
 30
0.0
 11
214.317678
 21
1097.340605
 31
0.0
  0
LINE
  5
A3
330
87
100
AcDbEntity
  8
0
  6
Continuous
 62
     0
370
    30
100
AcDbLine
 10
192.870066
 20
1097.340605
 30
0.0
 11
192.093872
 21
1097.340605
 31
0.0
  0
CIRCLE
  5
A4
330
87
100
AcDbEntity
  8
0
  6
Continuous
 62
     0
370
     0
100
AcDbCircle
 10
203.593872
 20
1106.340605
 30
0.0
 40
13.5
  0
CIRCLE
  5
A5
330
87
100
AcDbEntity
  8
0
  6
Continuous
 62
     0
370
    30
100
AcDbCircle
 10
203.593872
 20
1106.340604
 30
0.0
 40
14.0
  0
LINE
  5
A6
330
87
100
AcDbEntity
  8
0
  6
Continuous
 62
     0
370
    30
100
AcDbLine
 10
214.593872
 20
1087.840605
 30
0.0
 11
214.593872
 21
1092.340605
 31
0.0
  0
LINE
  5
A7
330
87
100
AcDbEntity
  8
0
  6
Continuous
 62
     0
370
    30
100
AcDbLine
 10
214.593872
 20
1092.340605
 30
0.0
 11
215.093872
 21
1092.340605
 31
0.0
  0
LINE
  5
A8
330
87
100
AcDbEntity
  8
0
  6
Continuous
 62
     0
370
    30
100
AcDbLine
 10
214.593872
 20
1087.340605
 30
0.0
 11
214.593872
 21
1087.840605
 31
0.0
  0
LINE
  5
A9
330
87
100
AcDbEntity
  8
0
  6
Continuous
 62
     0
370
    30
100
AcDbLine
 10
214.593872
 20
1087.340605
 30
0.0
 11
192.593872
 21
1087.340605
 31
0.0
  0
LINE
  5
AA
330
87
100
AcDbEntity
  8
0
  6
Continuous
 62
     0
370
    30
100
AcDbLine
 10
214.593872
 20
1087.840605
 30
0.0
 11
192.593872
 21
1087.840605
 31
0.0
  0
LINE
  5
AB
330
87
100
AcDbEntity
  8
0
  6
Continuous
 62
     0
370
    30
100
AcDbLine
 10
192.593872
 20
1087.840605
 30
0.0
 11
192.593872
 21
1092.340605
 31
0.0
  0
LINE
  5
AC
330
87
100
AcDbEntity
  8
0
  6
Continuous
 62
     0
370
    30
100
AcDbLine
 10
192.593872
 20
1092.340605
 30
0.0
 11
192.093872
 21
1092.340605
 31
0.0
  0
LINE
  5
AD
330
87
100
AcDbEntity
  8
0
  6
Continuous
 62
     0
370
    30
100
AcDbLine
 10
192.593872
 20
1087.340605
 30
0.0
 11
192.593872
 21
1087.840605
 31
0.0
  0
LINE
  5
AE
330
87
100
AcDbEntity
  8
0
  6
Continuous
 62
     0
370
    30
100
AcDbLine
 10
215.093872
 20
1097.340605
 30
0.0
 11
215.093872
 21
1092.340605
 31
0.0
  0
LINE
  5
AF
330
87
100
AcDbEntity
  8
0
  6
Continuous
 62
     0
370
    30
100
AcDbLine
 10
192.093872
 20
1097.340605
 30
0.0
 11
192.093872
 21
1092.340605
 31
0.0
  0
LINE
  5
B0
330
87
100
AcDbEntity
  8
0
  6
Continuous
 62
     0
370
     0
100
AcDbLine
 10
300.043872
 20
898.340597
 30
0.0
 11
300.343872
 21
898.340597
 31
0.0
  0
LWPOLYLINE
  5
B1
330
87
100
AcDbEntity
  8
0
  6
Continuous
 62
     0
370
     0
100
AcDbPolyline
 90
       12
 70
     0
 43
0.0
 10
300.112701
 20
875.74884
 10
299.614716
 20
875.689514
 10
299.13916
 20
875.607666
 10
298.694855
 20
875.508423
 10
298.288361
 20
875.397766
 10
297.924896
 20
875.282288
 10
297.608582
 20
875.16864
 10
297.342926
 20
875.06366
 10
297.131104
 20
874.973389
 10
296.975952
 20
874.903381
 10
296.879761
 20
874.858032
 10
296.843872
 20
874.840637
  0
LWPOLYLINE
  5
B2
330
87
100
AcDbEntity
  8
0
  6
Continuous
 62
     0
370
     0
100
AcDbPolyline
 90
       14
 70
     0
 43
0.0
 10
300.043884
 20
876.770325
 10
299.485565
 20
876.763245
 10
298.935822
 20
876.744385
 10
298.401886
 20
876.714966
 10
297.8909
 20
876.676514
 10
297.409668
 20
876.631287
 10
296.964722
 20
876.581726
 10
296.562347
 20
876.53064
 10
296.208588
 20
876.480896
 10
295.909027
 20
876.435181
 10
295.668793
 20
876.396301
 10
295.49234
 20
876.366455
 10
295.383209
 20
876.347473
 10
295.343872
 20
876.340576
  0
LWPOLYLINE
  5
B3
330
87
100
AcDbEntity
  8
0
  6
Continuous
 62
     0
370
     0
100
AcDbPolyline
 90
       15
 70
     0
 43
0.0
 10
301.121643
 20
877.088745
 10
301.079773
 20
880.116882
 10
301.091003
 20
883.14502
 10
301.116394
 20
886.173218
 10
301.123657
 20
889.201782
 10
301.121033
 20
892.230408
 10
301.121399
 20
895.258972
 10
301.122009
 20
898.287598
 10
301.12146
 20
901.316162
 10
301.121002
 20
904.344727
 10
301.123596
 20
907.373413
 10
301.117065
 20
910.401917
 10
301.091858
 20
913.430115
 10
301.079498
 20
916.458252
 10
301.121643
 20
919.592407
  0
LWPOLYLINE
  5
B4
330
87
100
AcDbEntity
  8
0
  6
Continuous
 62
     0
370
     0
100
AcDbPolyline
 90
       12
 70
     0
 43
0.0
 10
296.843872
 20
921.840576
 10
296.874451
 20
921.825745
 10
296.965637
 20
921.782593
 10
297.115967
 20
921.714478
 10
297.323151
 20
921.625732
 10
297.584412
 20
921.521729
 10
297.896637
 20
921.408569
 10
298.256348
 20
921.292969
 10
298.659393
 20
921.181641
 10
299.1008
 20
921.081238
 10
299.574005
 20
920.997742
 10
300.112701
 20
920.932312
  0
LWPOLYLINE
  5
B5
330
87
100
AcDbEntity
  8
0
  6
Continuous
 62
     0
370
     0
100
AcDbPolyline
 90
       14
 70
     0
 43
0.0
 10
295.343872
 20
920.340576
 10
295.379456
 20
920.334351
 10
295.485016
 20
920.315979
 10
295.658112
 20
920.286682
 10
295.895142
 20
920.248169
 10
296.191772
 20
920.20282
 10
296.542877
 20
920.153137
 10
296.942871
 20
920.102051
 10
297.385773
 20
920.052368
 10
297.865295
 20
920.006836
 10
298.374908
 20
919.968018
 10
298.907837
 20
919.938049
 10
299.45694
 20
919.91864
 10
300.043884
 20
919.910889
  0
ARC
  5
B6
330
87
100
AcDbEntity
  8
0
  6
Continuous
 62
     0
370
     0
100
AcDbCircle
 10
300.0315
 20
877.108507
 30
0.0
 40
0.3384237968718395
100
AcDbArc
 50
272.095032
 51
283.656839
  0
ARC
  5
B7
330
87
100
AcDbEntity
  8
0
  6
Continuous
 62
     0
370
     0
100
AcDbCircle
 10
300.071176
 20
876.590238
 30
0.0
 40
0.8424021086216139
100
AcDbArc
 50
272.824434
 51
288.887574
  0
LWPOLYLINE
  5
B8
330
87
100
AcDbEntity
  8
0
  6
Continuous
 62
     0
370
     0
100
AcDbPolyline
 90
        4
 70
     0
 43
0.0
 10
300.111389
 20
876.779663
 10
300.225433
 20
876.834656
 10
300.3078
 20
876.933105
 10
300.343872
 20
877.088745
  0
LWPOLYLINE
  5
B9
330
87
100
AcDbEntity
  8
0
  6
Continuous
 62
     0
370
     0
100
AcDbPolyline
 90
        7
 70
     0
 43
0.0
 10
300.343872
 20
875.793213
 10
300.555237
 20
875.891785
 10
300.745026
 20
876.046509
 10
300.903625
 20
876.251099
 10
301.02298
 20
876.496338
 10
301.096832
 20
876.770447
 10
301.121643
 20
877.088745
  0
ARC
  5
BA
330
87
100
AcDbEntity
  8
0
  6
Continuous
 62
     0
370
     0
100
AcDbCircle
 10
300.0315
 20
919.572685
 30
0.0
 40
0.3384237530588955
100
AcDbArc
 50
76.343161
 51
87.904969
  0
ARC
  5
BB
330
87
100
AcDbEntity
  8
0
  6
Continuous
 62
     0
370
     0
100
AcDbCircle
 10
300.071176
 20
920.090954
 30
0.0
 40
0.8424020933388238
100
AcDbArc
 50
71.112426
 51
87.175566
  0
LWPOLYLINE
  5
BC
330
87
100
AcDbEntity
  8
0
  6
Continuous
 62
     0
370
     0
100
AcDbPolyline
 90
        4
 70
     0
 43
0.0
 10
300.111389
 20
919.90155
 10
300.225433
 20
919.846497
 10
300.3078
 20
919.748108
 10
300.343872
 20
919.592407
  0
LWPOLYLINE
  5
BD
330
87
100
AcDbEntity
  8
0
  6
Continuous
 62
     0
370
     0
100
AcDbPolyline
 90
        7
 70
     0
 43
0.0
 10
300.343872
 20
920.888
 10
300.555237
 20
920.789429
 10
300.745026
 20
920.634644
 10
300.903625
 20
920.430115
 10
301.02298
 20
920.184875
 10
301.096832
 20
919.910767
 10
301.121643
 20
919.592407
  0
LINE
  5
BE
330
87
100
AcDbEntity
  8
0
  6
Continuous
 62
     0
370
     0
100
AcDbLine
 10
300.043872
 20
898.340597
 30
0.0
 11
300.043872
 21
876.77031
 31
0.0
  0
ELLIPSE
  5
BF
330
87
100
AcDbEntity
  8
0
  6
Continuous
 62
     0
370
     0
100
AcDbEllipse
 10
300.043872
 20
875.748859
 30
0.0
 11
-0.01383304064409049
 21
1.041707791290308
 31
0.0
210
0.0
220
0.0
230
1.0
 40
0.066047
 41
4.711511881811258
 42
6.084774780170917
  0
LINE
  5
C0
330
87
100
AcDbEntity
  8
0
  6
Continuous
 62
     0
370
    30
100
AcDbLine
 10
300.343872
 20
898.340597
 30
0.0
 11
300.343872
 21
877.088773
 31
0.0
  0
LINE
  5
C1
330
87
100
AcDbEntity
  8
0
  6
Continuous
 62
     0
370
    30
100
AcDbLine
 10
300.343872
 20
919.59242
 30
0.0
 11
300.343872
 21
898.340597
 31
0.0
  0
LINE
  5
C2
330
87
100
AcDbEntity
  8
0
  6
Continuous
 62
     0
370
     0
100
AcDbLine
 10
301.12165
 20
877.088773
 30
0.0
 11
300.343872
 21
877.088773
 31
0.0
  0
LINE
  5
C3
330
87
100
AcDbEntity
  8
0
  6
Continuous
 62
     0
370
     0
100
AcDbLine
 10
300.043872
 20
919.910882
 30
0.0
 11
300.043872
 21
898.340597
 31
0.0
  0
ELLIPSE
  5
C4
330
87
100
AcDbEntity
  8
0
  6
Continuous
 62
     0
370
     0
100
AcDbEllipse
 10
300.043872
 20
920.932333
 30
0.0
 11
0.01383303461659665
 21
1.041707791370346
 31
0.0
210
0.0
220
0.0
230
1.0
 40
0.066047
 41
3.340003092992113
 42
4.713265991351738
  0
LINE
  5
C5
330
87
100
AcDbEntity
  8
0
  6
Continuous
 62
     0
370
     0
100
AcDbLine
 10
300.343872
 20
875.793194
 30
0.0
 11
300.111404
 21
876.779652
 31
0.0
  0
LINE
  5
C6
330
87
100
AcDbEntity
  8
0
  6
Continuous
 62
     0
370
     0
100
AcDbLine
 10
300.343872
 20
920.887998
 30
0.0
 11
300.111404
 21
919.90154
 31
0.0
  0
LINE
  5
C7
330
87
100
AcDbEntity
  8
0
  6
Continuous
 62
     0
370
     0
100
AcDbLine
 10
301.12165
 20
919.59242
 30
0.0
 11
300.343872
 21
919.59242
 31
0.0
  0
LINE
  5
C8
330
87
100
AcDbEntity
  8
0
  6
Continuous
 62
     0
370
    30
100
AcDbLine
 10
297.143872
 20
967.340596
 30
0.0
 11
300.343872
 21
967.340596
 31
0.0
  0
LINE
  5
C9
330
87
100
AcDbEntity
  8
0
  6
Continuous
 62
     0
370
    30
100
AcDbLine
 10
300.343872
 20
967.340596
 30
0.0
 11
303.543872
 21
967.340596
 31
0.0
  0
LINE
  5
CA
330
87
100
AcDbEntity
  8
0
  6
Continuous
 62
     0
370
     0
100
AcDbLine
 10
296.843872
 20
967.040596
 30
0.0
 11
300.343872
 21
967.040596
 31
0.0
  0
LINE
  5
CB
330
87
100
AcDbEntity
  8
0
  6
Continuous
 62
     0
370
     0
100
AcDbLine
 10
300.343872
 20
967.040596
 30
0.0
 11
303.843872
 21
967.040596
 31
0.0
  0
LINE
  5
CC
330
87
100
AcDbEntity
  8
0
  6
Continuous
 62
     0
370
    30
100
AcDbLine
 10
297.143872
 20
873.340596
 30
0.0
 11
300.343872
 21
873.340596
 31
0.0
  0
LINE
  5
CD
330
87
100
AcDbEntity
  8
0
  6
Continuous
 62
     0
370
    30
100
AcDbLine
 10
300.343872
 20
873.340596
 30
0.0
 11
303.543872
 21
873.340596
 31
0.0
  0
LINE
  5
CE
330
87
100
AcDbEntity
  8
0
  6
Continuous
 62
     0
370
     0
100
AcDbLine
 10
296.843872
 20
873.640596
 30
0.0
 11
300.343872
 21
873.640596
 31
0.0
  0
LINE
  5
CF
330
87
100
AcDbEntity
  8
0
  6
Continuous
 62
     0
370
     0
100
AcDbLine
 10
300.343872
 20
873.640596
 30
0.0
 11
303.843872
 21
873.640596
 31
0.0
  0
LINE
  5
D0
330
87
100
AcDbEntity
  8
0
  6
Continuous
 62
     0
370
    30
100
AcDbLine
 10
278.102259
 20
876.340596
 30
0.0
 11
274.223066
 21
898.340597
 31
0.0
  0
LINE
  5
D1
330
87
100
AcDbEntity
  8
0
  6
Continuous
 62
     0
370
    30
100
AcDbLine
 10
274.223066
 20
898.340597
 30
0.0
 11
270.343872
 21
920.340596
 31
0.0
  0
ARC
  5
D2
330
87
100
AcDbEntity
  8
0
  6
Continuous
 62
     0
370
    30
100
AcDbCircle
 10
287.075659
 20
943.151091
 30
0.0
 40
22.9530120047475
100
AcDbArc
 50
263.61181
 51
269.9465
  0
ARC
  5
D3
330
87
100
AcDbEntity
  8
0
  6
Continuous
 62
     0
370
    30
100
AcDbCircle
 10
287.055912
 20
942.172108
 30
0.0
 40
21.97401865003009
100
AcDbArc
 50
269.995606
 51
276.527909
  0
ARC
  5
D4
330
87
100
AcDbEntity
  8
0
  6
Continuous
 62
     0
370
    30
100
AcDbCircle
 10
303.543872
 20
873.640596
 30
0.0
 40
0.300000011920929
100
AcDbArc
 50
270.0
 51
360.0
  0
ARC
  5
D5
330
87
100
AcDbEntity
  8
0
  6
Continuous
 62
     0
370
    30
100
AcDbCircle
 10
297.143872
 20
873.640596
 30
0.0
 40
0.300000011920929
100
AcDbArc
 50
180.0
 51
270.0
  0
ARC
  5
D6
330
87
100
AcDbEntity
  8
0
  6
Continuous
 62
     0
370
    30
100
AcDbCircle
 10
303.543872
 20
967.040596
 30
0.0
 40
0.300000011920929
100
AcDbArc
 50
0.0
 51
90.0
  0
ARC
  5
D7
330
87
100
AcDbEntity
  8
0
  6
Continuous
 62
     0
370
    30
100
AcDbCircle
 10
297.143872
 20
967.040596
 30
0.0
 40
0.300000011920929
100
AcDbArc
 50
90.0
 51
180.0
  0
LINE
  5
D8
330
87
100
AcDbEntity
  8
0
  6
Continuous
 62
     0
370
    30
100
AcDbLine
 10
303.843872
 20
873.640596
 30
0.0
 11
303.843872
 21
967.040596
 31
0.0
  0
LINE
  5
D9
330
87
100
AcDbEntity
  8
0
  6
Continuous
 62
     0
370
    30
100
AcDbLine
 10
296.843872
 20
873.640596
 30
0.0
 11
296.843872
 21
874.840608
 31
0.0
  0
LINE
  5
DA
330
87
100
AcDbEntity
  8
0
  6
Continuous
 62
     0
370
    30
100
AcDbLine
 10
296.843872
 20
921.840584
 30
0.0
 11
296.843872
 21
967.040596
 31
0.0
  0
ARC
  5
DB
330
87
100
AcDbEntity
  8
0
  6
Continuous
 62
     0
370
    30
100
AcDbCircle
 10
295.343864
 20
921.840603
 30
0.0
 40
1.500008392018225
100
AcDbArc
 50
270.000779
 51
359.999264
  0
ARC
  5
DC
330
87
100
AcDbEntity
  8
0
  6
Continuous
 62
     0
370
    30
100
AcDbCircle
 10
295.343864
 20
874.840589
 30
0.0
 40
1.500008391561084
100
AcDbArc
 50
0.000736
 51
89.999221
  0
LINE
  5
DD
330
87
100
AcDbEntity
  8
0
  6
Continuous
 62
     0
370
    30
100
AcDbLine
 10
278.102259
 20
876.340596
 30
0.0
 11
295.343885
 21
876.340596
 31
0.0
  0
LINE
  5
DE
330
87
100
AcDbEntity
  8
0
  6
Continuous
 62
     0
370
    30
100
AcDbLine
 10
270.343872
 20
920.340596
 30
0.0
 11
284.522201
 21
920.340596
 31
0.0
  0
LINE
  5
DF
330
87
100
AcDbEntity
  8
0
  6
Continuous
 62
     0
370
    30
100
AcDbLine
 10
289.554052
 20
920.340596
 30
0.0
 11
295.343885
 21
920.340596
 31
0.0
  0
LWPOLYLINE
  5
E0
330
87
100
AcDbEntity
  8
0
  6
Continuous
 62
     0
370
     0
100
AcDbPolyline
 90
       15
 70
     0
 43
0.0
 10
289.277435
 20
920.31073
 10
289.109833
 20
920.311707
 10
288.871399
 20
920.312561
 10
288.570496
 20
920.313354
 10
288.217499
 20
920.313904
 10
287.824707
 20
920.314331
 10
287.405731
 20
920.314575
 10
286.975067
 20
920.314636
 10
286.547729
 20
920.314453
 10
286.138519
 20
920.314148
 10
285.761627
 20
920.313599
 10
285.430145
 20
920.312927
 10
285.155579
 20
920.312073
 10
284.947449
 20
920.311157
 10
284.811096
 20
920.31012
  0
LWPOLYLINE
  5
E1
330
87
100
AcDbEntity
  8
0
  6
Continuous
 62
     0
370
     0
100
AcDbPolyline
 90
       15
 70
     0
 43
0.0
 10
284.839111
 20
920.307373
 10
284.984558
 20
920.306458
 10
285.196564
 20
920.305542
 10
285.468323
 20
920.30481
 10
285.791199
 20
920.304199
 10
286.154846
 20
920.303711
 10
286.547729
 20
920.303406
 10
286.957245
 20
920.303284
 10
287.370392
 20
920.303345
 10
287.773926
 20
920.303528
 10
288.155029
 20
920.303955
 10
288.501495
 20
920.304504
 10
288.802307
 20
920.305237
 10
289.047852
 20
920.30603
 10
289.240875
 20
920.307068
  0
ENDBLK
  5
E3
330
87
100
AcDbEntity
  8
0
100
AcDbBlockEnd
  0
BLOCK
  5
15F
330
E5
100
AcDbEntity
  8
0
100
AcDbBlockBegin
  2
c
 70
     0
 10
847.299805
 20
0.0
 30
0.0
  3
c
  1

  0
LWPOLYLINE
  5
E6
330
E5
100
AcDbEntity
  8
0
  6
Continuous
 62
     0
370
     0
100
AcDbPolyline
 90
       63
 70
     0
 43
0.0
 10
748.306946
 20
890.65918
 10
748.315613
 20
890.614502
 10
748.341125
 20
890.483337
 10
748.382568
 20
890.275391
 10
748.43866
 20
890.00293
 10
748.508118
 20
889.678223
 10
748.589966
 20
889.312073
 10
748.683289
 20
888.913391
 10
748.787537
 20
888.489136
 10
748.902222
 20
888.0448
 10
749.027039
 20
887.584656
 10
749.161865
 20
887.112122
 10
749.306396
 20
886.629578
 10
749.460632
 20
886.139404
 10
749.624512
 20
885.64325
 10
749.797974
 20
885.142578
 10
749.981079
 20
884.638611
 10
750.173706
 20
884.132324
 10
750.376038
 20
883.624573
 10
750.588013
 20
883.116211
 10
750.809753
 20
882.60791
 10
751.04126
 20
882.100281
 10
751.282593
 20
881.593933
 10
751.533875
 20
881.089355
 10
751.795166
 20
880.587036
 10
752.066589
 20
880.087524
 10
752.348083
 20
879.591309
 10
752.639893
 20
879.098816
 10
752.942017
 20
878.610413
 10
753.254578
 20
878.126709
 10
753.577698
 20
877.64801
 10
753.911377
 20
877.174805
 10
754.255737
 20
876.707581
 10
754.610901
 20
876.246826
 10
754.976868
 20
875.79303
 10
755.353699
 20
875.346741
 10
755.741577
 20
874.908325
 10
756.140442
 20
874.478394
 10
756.550476
 20
874.057373
 10
756.971497
 20
873.645996
 10
757.403687
 20
873.244751
 10
757.846863
 20
872.85437
 10
758.301086
 20
872.475403
 10
758.766296
 20
872.108521
 10
759.242493
 20
871.754272
 10
759.729553
 20
871.413391
 10
760.227173
 20
871.086609
 10
760.735168
 20
870.774658
 10
761.253235
 20
870.478271
 10
761.781067
 20
870.198242
 10
762.318481
 20
869.935181
 10
762.865173
 20
869.689941
 10
763.420654
 20
869.463135
 10
763.984131
 20
869.255432
 10
764.555054
 20
869.067383
 10
765.132812
 20
868.89978
 10
765.716614
 20
868.753174
 10
766.305969
 20
868.628174
 10
766.899963
 20
868.525391
 10
767.497803
 20
868.444946
 10
768.09845
 20
868.387207
 10
768.700989
 20
868.352295
 10
769.306946
 20
868.340576
  0
LWPOLYLINE
  5
E7
330
E5
100
AcDbEntity
  8
0
  6
Continuous
 62
     0
370
     0
100
AcDbPolyline
 90
       63
 70
     0
 43
0.0
 10
769.306946
 20
868.340576
 10
769.910461
 20
868.352173
 10
770.513
 20
868.386963
 10
771.113586
 20
868.44458
 10
771.711426
 20
868.524902
 10
772.30542
 20
868.627686
 10
772.894836
 20
868.752563
 10
773.478821
 20
868.899048
 10
774.056702
 20
869.066467
 10
774.627686
 20
869.254272
 10
775.19104
 20
869.461975
 10
775.746277
 20
869.688843
 10
776.292908
 20
869.934143
 10
776.830505
 20
870.197144
 10
777.358521
 20
870.477173
 10
777.876648
 20
870.773438
 10
778.384583
 20
871.085205
 10
778.88208
 20
871.411865
 10
779.36908
 20
871.752686
 10
779.845337
 20
872.106873
 10
780.31073
 20
872.473755
 10
780.765015
 20
872.852661
 10
781.208252
 20
873.24292
 10
781.640381
 20
873.644043
 10
782.061401
 20
874.055298
 10
782.471436
 20
874.476257
 10
782.870422
 20
874.906189
 10
783.258362
 20
875.344604
 10
783.635254
 20
875.790955
 10
784.001282
 20
876.24469
 10
784.356445
 20
876.705383
 10
784.700867
 20
877.172546
 10
785.034607
 20
877.64563
 10
785.357727
 20
878.124268
 10
785.670288
 20
878.608032
 10
785.972473
 20
879.096375
 10
786.264343
 20
879.588867
 10
786.545898
 20
880.085022
 10
786.817322
 20
880.584473
 10
787.078674
 20
881.086731
 10
787.330017
 20
881.591309
 10
787.571411
 20
882.097656
 10
787.802979
 20
882.605286
 10
788.024719
 20
883.113586
 10
788.236755
 20
883.621948
 10
788.439087
 20
884.129639
 10
788.631836
 20
884.635925
 10
788.814941
 20
885.139893
 10
788.988464
 20
885.640564
 10
789.152405
 20
886.136841
 10
789.306702
 20
886.627075
 10
789.451294
 20
887.109436
 10
789.586121
 20
887.582092
 10
789.710999
 20
888.042297
 10
789.825806
 20
888.486816
 10
789.930054
 20
888.911072
 10
790.023438
 20
889.309937
 10
790.105347
 20
889.676208
 10
790.174866
 20
890.001221
 10
790.231018
 20
890.274048
 10
790.272583
 20
890.482361
 10
790.298218
 20
890.614014
 10
790.306946
 20
890.65918
  0
LINE
  5
E8
330
E5
100
AcDbEntity
  8
0
  6
Continuous
 62
     0
370
     0
100
AcDbLine
 10
769.306942
 20
873.340565
 30
0.0
 11
769.306942
 21
868.340565
 31
0.0
  0
LWPOLYLINE
  5
E9
330
E5
100
AcDbEntity
  8
0
  6
Continuous
 62
     0
370
    30
100
AcDbPolyline
 90
       37
 70
     0
 43
0.0
 10
790.306946
 20
890.65918
 10
790.307129
 20
890.71814
 10
790.3078
 20
890.7771
 10
790.308899
 20
890.835999
 10
790.310364
 20
890.894958
 10
790.312378
 20
890.953857
 10
790.314758
 20
891.012756
 10
790.317566
 20
891.071655
 10
790.320801
 20
891.130554
 10
790.324524
 20
891.189392
 10
790.328613
 20
891.24823
 10
790.333191
 20
891.307007
 10
790.338196
 20
891.365723
 10
790.343628
 20
891.424438
 10
790.349426
 20
891.483093
 10
790.355713
 20
891.541748
 10
790.362488
 20
891.600281
 10
790.369629
 20
891.658813
 10
790.377197
 20
891.717285
 10
790.385193
 20
891.775696
 10
790.393677
 20
891.834045
 10
790.402527
 20
891.892334
 10
790.411804
 20
891.950562
 10
790.42157
 20
892.008728
 10
790.431702
 20
892.066772
 10
790.442261
 20
892.124695
 10
790.453308
 20
892.182556
 10
790.464722
 20
892.240417
 10
790.476624
 20
892.298279
 10
790.488953
 20
892.356079
 10
790.501648
 20
892.413574
 10
790.514648
 20
892.470459
 10
790.528259
 20
892.527954
 10
790.542725
 20
892.587158
 10
790.557129
 20
892.644409
 10
790.569763
 20
892.693054
 10
790.573486
 20
892.707153
  0
LWPOLYLINE
  5
EA
330
E5
100
AcDbEntity
  8
0
  6
Continuous
 62
     0
370
    30
100
AcDbPolyline
 90
       37
 70
     0
 43
0.0
 10
748.306946
 20
890.65918
 10
748.306763
 20
890.71814
 10
748.306091
 20
890.7771
 10
748.304993
 20
890.835999
 10
748.303467
 20
890.894958
 10
748.301514
 20
890.953857
 10
748.299133
 20
891.012756
 10
748.296326
 20
891.071655
 10
748.293091
 20
891.130554
 10
748.289368
 20
891.189392
 10
748.285278
 20
891.24823
 10
748.280701
 20
891.307007
 10
748.275696
 20
891.365723
 10
748.270264
 20
891.424438
 10
748.264404
 20
891.483093
 10
748.258118
 20
891.541748
 10
748.251404
 20
891.600281
 10
748.244263
 20
891.658813
 10
748.236694
 20
891.717285
 10
748.228699
 20
891.775696
 10
748.220215
 20
891.834045
 10
748.211365
 20
891.892334
 10
748.202087
 20
891.950562
 10
748.192322
 20
892.008728
 10
748.18219
 20
892.066772
 10
748.171631
 20
892.124695
 10
748.160583
 20
892.182556
 10
748.14917
 20
892.240417
 10
748.137268
 20
892.298279
 10
748.124939
 20
892.356079
 10
748.112244
 20
892.413574
 10
748.099243
 20
892.470459
 10
748.085632
 20
892.527954
 10
748.071167
 20
892.587158
 10
748.056763
 20
892.644409
 10
748.044128
 20
892.693054
 10
748.040405
 20
892.707153
  0
LINE
  5
EB
330
E5
100
AcDbEntity
  8
0
  6
Continuous
 62
     0
370
    30
100
AcDbLine
 10
790.306944
 20
890.659182
 30
0.0
 11
790.306941
 21
836.340564
 31
0.0
  0
LINE
  5
EC
330
E5
100
AcDbEntity
  8
0
  6
Continuous
 62
     0
370
    30
100
AcDbLine
 10
748.306944
 20
890.659184
 30
0.0
 11
748.306941
 21
836.340566
 31
0.0
  0
LINE
  5
ED
330
E5
100
AcDbEntity
  8
0
  6
Continuous
 62
     0
370
    30
100
AcDbLine
 10
745.306941
 20
832.340566
 30
0.0
 11
746.114686
 21
832.340566
 31
0.0
  0
LINE
  5
EE
330
E5
100
AcDbEntity
  8
0
  6
Continuous
 62
     0
370
    30
100
AcDbLine
 10
746.114686
 20
832.340566
 30
0.0
 11
793.306941
 21
832.340564
 31
0.0
  0
LINE
  5
EF
330
E5
100
AcDbEntity
  8
0
  6
Continuous
 62
     0
370
    30
100
AcDbLine
 10
745.306941
 20
836.340566
 30
0.0
 11
746.114686
 21
836.340566
 31
0.0
  0
LINE
  5
F0
330
E5
100
AcDbEntity
  8
0
  6
Continuous
 62
     0
370
    30
100
AcDbLine
 10
746.114686
 20
836.340566
 30
0.0
 11
793.306941
 21
836.340564
 31
0.0
  0
LINE
  5
F1
330
E5
100
AcDbEntity
  8
0
  6
Continuous
 62
     0
370
    30
100
AcDbLine
 10
793.306941
 20
832.340564
 30
0.0
 11
793.306941
 21
836.340564
 31
0.0
  0
LINE
  5
F2
330
E5
100
AcDbEntity
  8
0
  6
Continuous
 62
     0
370
    30
100
AcDbLine
 10
745.306941
 20
832.340566
 30
0.0
 11
745.306941
 21
836.340566
 31
0.0
  0
LINE
  5
F3
330
E5
100
AcDbEntity
  8
0
  6
Continuous
 62
     0
370
    30
100
AcDbLine
 10
664.806953
 20
1092.34057
 30
0.0
 11
664.806954
 21
1106.34057
 31
0.0
  0
LINE
  5
F4
330
E5
100
AcDbEntity
  8
0
  6
Continuous
 62
     0
370
    30
100
AcDbLine
 10
664.806954
 20
1106.34057
 30
0.0
 11
664.806954
 21
1120.34057
 31
0.0
  0
LINE
  5
F5
330
E5
100
AcDbEntity
  8
0
  6
Continuous
 62
     0
370
     0
100
AcDbLine
 10
740.306953
 20
1092.340567
 30
0.0
 11
740.306954
 21
1106.340567
 31
0.0
  0
LINE
  5
F6
330
E5
100
AcDbEntity
  8
0
  6
Continuous
 62
     0
370
     0
100
AcDbLine
 10
740.306954
 20
1106.340567
 30
0.0
 11
740.306954
 21
1120.340567
 31
0.0
  0
LINE
  5
F7
330
E5
100
AcDbEntity
  8
0
  6
Continuous
 62
     0
370
     0
100
AcDbLine
 10
755.306952
 20
1077.340566
 30
0.0
 11
769.306952
 21
1077.340565
 31
0.0
  0
LINE
  5
F8
330
E5
100
AcDbEntity
  8
0
  6
Continuous
 62
     0
370
     0
100
AcDbLine
 10
769.306952
 20
1077.340565
 30
0.0
 11
783.306952
 21
1077.340565
 31
0.0
  0
LINE
  5
F9
330
E5
100
AcDbEntity
  8
0
  6
Continuous
 62
     0
370
    30
100
AcDbLine
 10
783.306952
 20
1077.340565
 30
0.0
 11
783.306945
 21
915.311128
 31
0.0
  0
LINE
  5
FA
330
E5
100
AcDbEntity
  8
0
  6
Continuous
 62
     0
370
    30
100
AcDbLine
 10
755.306952
 20
1077.340566
 30
0.0
 11
755.306945
 21
915.311129
 31
0.0
  0
ARC
  5
FB
330
E5
100
AcDbEntity
  8
0
  6
Continuous
 62
     0
370
    30
100
AcDbCircle
 10
740.306952
 20
1077.340567
 30
0.0
 40
43.0
100
AcDbArc
 50
359.999997
 51
89.999997
  0
ARC
  5
FC
330
E5
100
AcDbEntity
  8
0
  6
Continuous
 62
     0
370
    30
100
AcDbCircle
 10
740.306952
 20
1077.340567
 30
0.0
 40
15.0
100
AcDbArc
 50
359.999997
 51
89.999997
  0
LINE
  5
FD
330
E5
100
AcDbEntity
  8
0
  6
Continuous
 62
     0
370
    30
100
AcDbLine
 10
664.806954
 20
1120.34057
 30
0.0
 11
740.306954
 21
1120.340567
 31
0.0
  0
LINE
  5
FE
330
E5
100
AcDbEntity
  8
0
  6
Continuous
 62
     0
370
    30
100
AcDbLine
 10
664.806953
 20
1092.34057
 30
0.0
 11
740.306953
 21
1092.340567
 31
0.0
  0
LINE
  5
FF
330
E5
100
AcDbEntity
  8
0
  6
Continuous
 62
     0
370
    30
100
AcDbLine
 10
569.209805
 20
1097.340574
 30
0.0
 11
562.153643
 21
1097.340574
 31
0.0
  0
LINE
  5
100
330
E5
100
AcDbEntity
  8
0
  6
Continuous
 62
     0
370
    30
100
AcDbLine
 10
570.460263
 20
1097.340574
 30
0.0
 11
569.209805
 21
1097.340574
 31
0.0
  0
LWPOLYLINE
  5
101
330
E5
100
AcDbEntity
  8
0
  6
Continuous
 62
     0
370
    30
100
AcDbPolyline
 90
       19
 70
     0
 43
0.0
 10
570.460266
 20
1097.340576
 10
571.150635
 20
1097.001831
 10
571.811951
 20
1096.642334
 10
572.444885
 20
1096.269653
 10
573.049988
 20
1095.890137
 10
573.627136
 20
1095.508667
 10
574.175842
 20
1095.130371
 10
574.695435
 20
1094.759644
 10
575.18457
 20
1094.400635
 10
575.641235
 20
1094.057373
 10
576.062927
 20
1093.733887
 10
576.446899
 20
1093.434448
 10
576.7901
 20
1093.163086
 10
577.089172
 20
1092.92395
 10
577.340454
 20
1092.721191
 10
577.540649
 20
1092.558472
 10
577.686523
 20
1092.439331
 10
577.775757
 20
1092.366211
 10
577.806946
 20
1092.340576
  0
LWPOLYLINE
  5
102
330
E5
100
AcDbEntity
  8
0
  6
Continuous
 62
     0
370
    30
100
AcDbPolyline
 90
       19
 70
     0
 43
0.0
 10
554.806946
 20
1092.340576
 10
554.836487
 20
1092.364868
 10
554.924255
 20
1092.436768
 10
555.068665
 20
1092.554688
 10
555.267456
 20
1092.716309
 10
555.517517
 20
1092.918091
 10
555.81543
 20
1093.156372
 10
556.157593
 20
1093.427002
 10
556.540588
 20
1093.72583
 10
556.961365
 20
1094.048828
 10
557.417297
 20
1094.391724
 10
557.905701
 20
1094.750366
 10
558.424744
 20
1095.120972
 10
558.972839
 20
1095.499268
 10
559.549316
 20
1095.880737
 10
560.15387
 20
1096.260376
 10
560.786194
 20
1096.633423
 10
561.446899
 20
1096.993408
 10
562.153625
 20
1097.340576
  0
LINE
  5
103
330
E5
100
AcDbEntity
  8
0
  6
Continuous
 62
     0
370
    30
100
AcDbLine
 10
549.806953
 20
1092.840574
 30
0.0
 11
549.806954
 21
1106.340574
 31
0.0
  0
LINE
  5
104
330
E5
100
AcDbEntity
  8
0
  6
Continuous
 62
     0
370
    30
100
AcDbLine
 10
549.806954
 20
1106.340574
 30
0.0
 11
549.806954
 21
1119.840574
 31
0.0
  0
LINE
  5
105
330
E5
100
AcDbEntity
  8
0
  6
Continuous
 62
     0
370
     0
100
AcDbLine
 10
550.306953
 20
1092.340574
 30
0.0
 11
550.306954
 21
1106.340574
 31
0.0
  0
LINE
  5
106
330
E5
100
AcDbEntity
  8
0
  6
Continuous
 62
     0
370
     0
100
AcDbLine
 10
550.306954
 20
1106.340574
 30
0.0
 11
550.306954
 21
1120.340574
 31
0.0
  0
LINE
  5
107
330
E5
100
AcDbEntity
  8
0
  6
Continuous
 62
     0
370
    30
100
AcDbLine
 10
569.083593
 20
1087.340574
 30
0.0
 11
566.306952
 21
1087.340574
 31
0.0
  0
LINE
  5
108
330
E5
100
AcDbEntity
  8
0
  6
Continuous
 62
     0
370
     0
100
AcDbLine
 10
569.083593
 20
1087.340574
 30
0.0
 11
569.176518
 21
1087.708705
 31
0.0
  0
LINE
  5
109
330
E5
100
AcDbEntity
  8
0
  6
Continuous
 62
     0
370
    30
100
AcDbLine
 10
562.95285
 20
1087.840574
 30
0.0
 11
562.952851
 21
1092.340574
 31
0.0
  0
LINE
  5
10A
330
E5
100
AcDbEntity
  8
0
  6
Continuous
 62
     0
370
    30
100
AcDbLine
 10
569.661054
 20
1092.340574
 30
0.0
 11
569.661054
 21
1087.840574
 31
0.0
  0
LINE
  5
10B
330
E5
100
AcDbEntity
  8
0
  6
Continuous
 62
     0
370
    30
100
AcDbLine
 10
569.209804
 20
1092.340574
 30
0.0
 11
569.661054
 21
1092.340574
 31
0.0
  0
LINE
  5
10C
330
E5
100
AcDbEntity
  8
0
  6
Continuous
 62
     0
370
    30
100
AcDbLine
 10
562.952851
 20
1092.340574
 30
0.0
 11
569.209804
 21
1092.340574
 31
0.0
  0
ARC
  5
10D
330
E5
100
AcDbEntity
  8
0
  6
Continuous
 62
     0
370
    30
100
AcDbCircle
 10
565.809699
 20
1101.035806
 30
0.0
 40
13.74580232432871
100
AcDbArc
 50
284.177951
 51
286.271193
  0
LWPOLYLINE
  5
10E
330
E5
100
AcDbEntity
  8
0
  6
Continuous
 62
     0
370
    30
100
AcDbPolyline
 90
        5
 70
     0
 43
0.0
 10
569.176514
 20
1087.70874
 10
568.537781
 20
1087.564575
 10
567.892029
 20
1087.454224
 10
567.241089
 20
1087.380249
 10
566.306946
 20
1087.340576
  0
LWPOLYLINE
  5
10F
330
E5
100
AcDbEntity
  8
0
  6
Continuous
 62
     0
370
    30
100
AcDbPolyline
 90
        5
 70
     0
 43
0.0
 10
566.306946
 20
1087.340576
 10
565.485474
 20
1087.371338
 10
564.66803
 20
1087.462036
 10
563.858948
 20
1087.609741
 10
562.952881
 20
1087.840576
  0
LINE
  5
110
330
E5
100
AcDbEntity
  8
0
  6
Continuous
 62
     0
370
    30
100
AcDbLine
 10
566.306952
 20
1087.340574
 30
0.0
 11
555.306953
 21
1087.340575
 31
0.0
  0
LINE
  5
111
330
E5
100
AcDbEntity
  8
0
  6
Continuous
 62
     0
370
    30
100
AcDbLine
 10
577.306953
 20
1087.340574
 30
0.0
 11
569.083593
 21
1087.340574
 31
0.0
  0
LINE
  5
112
330
E5
100
AcDbEntity
  8
0
  6
Continuous
 62
     0
370
    30
100
AcDbLine
 10
562.95285
 20
1087.840574
 30
0.0
 11
554.806953
 21
1087.840575
 31
0.0
  0
LINE
  5
113
330
E5
100
AcDbEntity
  8
0
  6
Continuous
 62
     0
370
    30
100
AcDbLine
 10
577.806953
 20
1087.840574
 30
0.0
 11
569.661054
 21
1087.840574
 31
0.0
  0
LINE
  5
114
330
E5
100
AcDbEntity
  8
0
  6
Continuous
 62
     0
370
    30
100
AcDbLine
 10
651.556953
 20
1087.840571
 30
0.0
 11
652.806953
 21
1087.84057
 31
0.0
  0
LINE
  5
115
330
E5
100
AcDbEntity
  8
0
  6
Continuous
 62
     0
370
    30
100
AcDbLine
 10
652.806953
 20
1087.84057
 30
0.0
 11
654.056953
 21
1087.84057
 31
0.0
  0
LINE
  5
116
330
E5
100
AcDbEntity
  8
0
  6
Continuous
 62
     0
370
     0
100
AcDbLine
 10
647.598165
 20
1091.269142
 30
0.0
 11
652.806953
 21
1091.269142
 31
0.0
  0
LINE
  5
117
330
E5
100
AcDbEntity
  8
0
  6
Continuous
 62
     0
370
     0
100
AcDbLine
 10
652.806953
 20
1091.269142
 30
0.0
 11
658.01581
 21
1091.269142
 31
0.0
  0
LINE
  5
118
330
E5
100
AcDbEntity
  8
0
  6
Continuous
 62
     0
370
    30
100
AcDbLine
 10
648.093018
 20
1091.840571
 30
0.0
 11
652.806953
 21
1091.84057
 31
0.0
  0
LINE
  5
119
330
E5
100
AcDbEntity
  8
0
  6
Continuous
 62
     0
370
    30
100
AcDbLine
 10
652.806953
 20
1091.84057
 30
0.0
 11
657.520948
 21
1091.84057
 31
0.0
  0
ARC
  5
11A
330
E5
100
AcDbEntity
  8
0
  6
Continuous
 62
     0
370
    30
100
AcDbCircle
 10
652.822745
 20
1078.255021
 30
0.0
 40
14.22915119432844
100
AcDbArc
 50
90.06359
 51
98.143283
  0
ARC
  5
11B
330
E5
100
AcDbEntity
  8
0
  6
Continuous
 62
     0
370
    30
100
AcDbCircle
 10
652.794518
 20
1078.305381
 30
0.0
 40
14.17878707388707
100
AcDbArc
 50
81.840846
 51
89.949751
  0
LINE
  5
11C
330
E5
100
AcDbEntity
  8
0
  6
Continuous
 62
     0
370
    30
100
AcDbLine
 10
664.306953
 20
1092.340569
 30
0.0
 11
664.306954
 21
1106.340569
 31
0.0
  0
LINE
  5
11D
330
E5
100
AcDbEntity
  8
0
  6
Continuous
 62
     0
370
    30
100
AcDbLine
 10
664.306954
 20
1106.340569
 30
0.0
 11
664.306954
 21
1120.340569
 31
0.0
  0
LINE
  5
11E
330
E5
100
AcDbEntity
  8
0
  6
Continuous
 62
     0
370
    30
100
AcDbLine
 10
664.806954
 20
1119.840569
 30
0.0
 11
664.306954
 21
1120.340569
 31
0.0
  0
LINE
  5
11F
330
E5
100
AcDbEntity
  8
0
  6
Continuous
 62
     0
370
    30
100
AcDbLine
 10
664.806953
 20
1092.840569
 30
0.0
 11
664.306953
 21
1092.340569
 31
0.0
  0
LINE
  5
120
330
E5
100
AcDbEntity
  8
0
  6
Continuous
 62
     0
370
    30
100
AcDbLine
 10
550.306954
 20
1120.340574
 30
0.0
 11
664.306954
 21
1120.340569
 31
0.0
  0
LINE
  5
121
330
E5
100
AcDbEntity
  8
0
  6
Continuous
 62
     0
370
    30
100
AcDbLine
 10
550.306953
 20
1092.340574
 30
0.0
 11
554.806966
 21
1092.340574
 31
0.0
  0
LINE
  5
122
330
E5
100
AcDbEntity
  8
0
  6
Continuous
 62
     0
370
    30
100
AcDbLine
 10
577.80694
 20
1092.340573
 30
0.0
 11
650.80719
 21
1092.34057
 31
0.0
  0
LINE
  5
123
330
E5
100
AcDbEntity
  8
0
  6
Continuous
 62
     0
370
    30
100
AcDbLine
 10
654.806731
 20
1092.340569
 30
0.0
 11
664.306953
 21
1092.340569
 31
0.0
  0
ARC
  5
124
330
E5
100
AcDbEntity
  8
0
  6
Continuous
 62
     0
370
    30
100
AcDbCircle
 10
648.09303
 20
1091.340575
 30
0.0
 40
0.4999954887297839
100
AcDbArc
 50
90.001529
 51
188.213805
  0
ARC
  5
125
330
E5
100
AcDbEntity
  8
0
  6
Continuous
 62
     0
370
    30
100
AcDbCircle
 10
657.520939
 20
1091.34057
 30
0.0
 40
0.4999998458196842
100
AcDbArc
 50
351.786766
 51
89.998899
  0
ARC
  5
126
330
E5
100
AcDbEntity
  8
0
  6
Continuous
 62
     0
370
    30
100
AcDbCircle
 10
654.056953
 20
1091.84057
 30
0.0
 40
4.0
100
AcDbArc
 50
269.999997
 51
351.786787
  0
ARC
  5
127
330
E5
100
AcDbEntity
  8
0
  6
Continuous
 62
     0
370
    30
100
AcDbCircle
 10
651.556953
 20
1091.840571
 30
0.0
 40
4.0
100
AcDbArc
 50
188.213208
 51
269.999997
  0
LINE
  5
128
330
E5
100
AcDbEntity
  8
0
  6
Continuous
 62
     0
370
    30
100
AcDbLine
 10
654.806953
 20
1091.84057
 30
0.0
 11
654.806953
 21
1092.340656
 31
0.0
  0
LINE
  5
129
330
E5
100
AcDbEntity
  8
0
  6
Continuous
 62
     0
370
    30
100
AcDbLine
 10
650.806953
 20
1091.840571
 30
0.0
 11
650.806953
 21
1092.340749
 31
0.0
  0
LINE
  5
12A
330
E5
100
AcDbEntity
  8
0
  6
Continuous
 62
     0
370
    30
100
AcDbLine
 10
577.306953
 20
1087.340574
 30
0.0
 11
577.806953
 21
1087.840574
 31
0.0
  0
LINE
  5
12B
330
E5
100
AcDbEntity
  8
0
  6
Continuous
 62
     0
370
    30
100
AcDbLine
 10
555.306953
 20
1087.340575
 30
0.0
 11
554.806953
 21
1087.840575
 31
0.0
  0
ARC
  5
12C
330
E5
100
AcDbEntity
  8
0
  6
Continuous
 62
     0
370
    30
100
AcDbCircle
 10
550.306954
 20
1119.840574
 30
0.0
 40
0.4999999999999716
100
AcDbArc
 50
89.999997
 51
179.999997
  0
ARC
  5
12D
330
E5
100
AcDbEntity
  8
0
  6
Continuous
 62
     0
370
    30
100
AcDbCircle
 10
550.306953
 20
1092.840574
 30
0.0
 40
0.4999999999999716
100
AcDbArc
 50
179.999997
 51
269.999997
  0
LINE
  5
12E
330
E5
100
AcDbEntity
  8
0
  6
Continuous
 62
     0
370
    30
100
AcDbLine
 10
554.806953
 20
1092.340586
 30
0.0
 11
554.806953
 21
1087.840575
 31
0.0
  0
LINE
  5
12F
330
E5
100
AcDbEntity
  8
0
  6
Continuous
 62
     0
370
    30
100
AcDbLine
 10
577.806953
 20
1092.340585
 30
0.0
 11
577.806953
 21
1087.840574
 31
0.0
  0
LINE
  5
130
330
E5
100
AcDbEntity
  8
0
  6
Continuous
 62
     0
370
     0
100
AcDbLine
 10
747.30694
 20
898.340566
 30
0.0
 11
747.60694
 21
898.340566
 31
0.0
  0
LWPOLYLINE
  5
131
330
E5
100
AcDbEntity
  8
0
  6
Continuous
 62
     0
370
     0
100
AcDbPolyline
 90
        8
 70
     0
 43
0.0
 10
772.719421
 20
877.088745
 10
772.726318
 20
883.085999
 10
772.718994
 20
889.083679
 10
772.719482
 20
895.081909
 10
772.719482
 20
901.080078
 10
772.719055
 20
907.078308
 10
772.725342
 20
913.07605
 10
772.719421
 20
919.592407
  0
LWPOLYLINE
  5
132
330
E5
100
AcDbEntity
  8
0
  6
Continuous
 62
     0
370
     0
100
AcDbPolyline
 90
       17
 70
     0
 43
0.0
 10
773.694397
 20
877.088745
 10
773.641479
 20
879.740112
 10
773.646973
 20
882.392334
 10
773.67627
 20
885.044067
 10
773.69574
 20
887.695984
 10
773.695679
 20
890.348145
 10
773.693481
 20
893.000366
 10
773.694275
 20
895.652527
 10
773.694885
 20
898.304688
 10
773.694336
 20
900.956787
 10
773.69342
 20
903.608948
 10
773.695557
 20
906.261169
 10
773.695923
 20
908.913391
 10
773.677063
 20
911.565247
 10
773.647644
 20
914.217041
 10
773.640991
 20
916.869202
 10
773.694397
 20
919.592407
  0
LWPOLYLINE
  5
133
330
E5
100
AcDbEntity
  8
0
  6
Continuous
 62
     0
370
     0
100
AcDbPolyline
 90
        5
 70
     0
 43
0.0
 10
773.633911
 20
876.770264
 10
773.648865
 20
876.795776
 10
773.645569
 20
876.859863
 10
773.650635
 20
876.958801
 10
773.694397
 20
877.088745
  0
LWPOLYLINE
  5
134
330
E5
100
AcDbEntity
  8
0
  6
Continuous
 62
     0
370
     0
100
AcDbPolyline
 90
        7
 70
     0
 43
0.0
 10
772.806885
 20
875.782471
 10
772.801453
 20
875.877502
 10
772.785156
 20
876.030334
 10
772.763062
 20
876.234558
 10
772.741211
 20
876.480957
 10
772.725281
 20
876.757446
 10
772.719421
 20
877.088745
  0
LWPOLYLINE
  5
135
330
E5
100
AcDbEntity
  8
0
  6
Continuous
 62
     0
370
     0
100
AcDbPolyline
 90
        8
 70
     0
 43
0.0
 10
765.89447
 20
877.088745
 10
765.887573
 20
883.085999
 10
765.894897
 20
889.083679
 10
765.894409
 20
895.081909
 10
765.894409
 20
901.080078
 10
765.894836
 20
907.078308
 10
765.88855
 20
913.07605
 10
765.89447
 20
919.592407
  0
LWPOLYLINE
  5
136
330
E5
100
AcDbEntity
  8
0
  6
Continuous
 62
     0
370
     0
100
AcDbPolyline
 90
       17
 70
     0
 43
0.0
 10
764.919434
 20
877.088745
 10
764.972412
 20
879.740112
 10
764.966919
 20
882.392334
 10
764.937622
 20
885.044067
 10
764.918152
 20
887.695984
 10
764.918213
 20
890.348145
 10
764.92041
 20
893.000366
 10
764.919617
 20
895.652527
 10
764.919006
 20
898.304688
 10
764.919556
 20
900.956787
 10
764.92041
 20
903.608948
 10
764.918274
 20
906.261169
 10
764.917969
 20
908.913391
 10
764.936768
 20
911.565247
 10
764.966248
 20
914.217041
 10
764.972839
 20
916.869202
 10
764.919434
 20
919.592407
  0
LWPOLYLINE
  5
137
330
E5
100
AcDbEntity
  8
0
  6
Continuous
 62
     0
370
     0
100
AcDbPolyline
 90
        5
 70
     0
 43
0.0
 10
773.633911
 20
919.910828
 10
773.648865
 20
919.885315
 10
773.645569
 20
919.821289
 10
773.650635
 20
919.72229
 10
773.694397
 20
919.592407
  0
LWPOLYLINE
  5
138
330
E5
100
AcDbEntity
  8
0
  6
Continuous
 62
     0
370
     0
100
AcDbPolyline
 90
        7
 70
     0
 43
0.0
 10
772.806885
 20
920.898682
 10
772.801453
 20
920.803589
 10
772.785156
 20
920.650757
 10
772.763062
 20
920.446533
 10
772.741211
 20
920.200195
 10
772.725281
 20
919.923706
 10
772.719421
 20
919.592407
  0
LWPOLYLINE
  5
139
330
E5
100
AcDbEntity
  8
0
  6
Continuous
 62
     0
370
     0
100
AcDbPolyline
 90
        2
 70
     0
 43
0.0
 10
764.97998
 20
876.770264
 10
764.972534
 20
876.779602
  0
LWPOLYLINE
  5
13A
330
E5
100
AcDbEntity
  8
0
  6
Continuous
 62
     0
370
     0
100
AcDbPolyline
 90
        5
 70
     0
 43
0.0
 10
764.972534
 20
876.779602
 10
764.969177
 20
876.815063
 10
764.971924
 20
876.874207
 10
764.965759
 20
876.954712
 10
764.919434
 20
877.088745
  0
LWPOLYLINE
  5
13B
330
E5
100
AcDbEntity
  8
0
  6
Continuous
 62
     0
370
     0
100
AcDbPolyline
 90
        7
 70
     0
 43
0.0
 10
765.806946
 20
875.793152
 10
765.813354
 20
875.891907
 10
765.830078
 20
876.047058
 10
765.852112
 20
876.252197
 10
765.873596
 20
876.497986
 10
765.888977
 20
876.772766
 10
765.89447
 20
877.088745
  0
LWPOLYLINE
  5
13C
330
E5
100
AcDbEntity
  8
0
  6
Continuous
 62
     0
370
     0
100
AcDbPolyline
 90
        2
 70
     0
 43
0.0
 10
764.97998
 20
919.910828
 10
764.972534
 20
919.901489
  0
LWPOLYLINE
  5
13D
330
E5
100
AcDbEntity
  8
0
  6
Continuous
 62
     0
370
     0
100
AcDbPolyline
 90
        5
 70
     0
 43
0.0
 10
764.972534
 20
919.901489
 10
764.969177
 20
919.866089
 10
764.971924
 20
919.806946
 10
764.965759
 20
919.726379
 10
764.919434
 20
919.592407
  0
LWPOLYLINE
  5
13E
330
E5
100
AcDbEntity
  8
0
  6
Continuous
 62
     0
370
     0
100
AcDbPolyline
 90
        7
 70
     0
 43
0.0
 10
765.806946
 20
920.887939
 10
765.813354
 20
920.789185
 10
765.830078
 20
920.634033
 10
765.852112
 20
920.428955
 10
765.873596
 20
920.183105
 10
765.888977
 20
919.908386
 10
765.89447
 20
919.592407
  0
ARC
  5
13F
330
E5
100
AcDbEntity
  8
0
  6
Continuous
 62
     0
370
     0
100
AcDbCircle
 10
769.30694
 20
898.340565
 30
0.0
 40
21.69999998807907
100
AcDbArc
 50
281.664941
 51
78.335054
  0
LINE
  5
140
330
E5
100
AcDbEntity
  8
0
  6
Continuous
 62
     0
370
     0
100
AcDbLine
 10
773.694423
 20
919.592389
 30
0.0
 11
772.719427
 21
919.592389
 31
0.0
  0
LINE
  5
141
330
E5
100
AcDbEntity
  8
0
  6
Continuous
 62
     0
370
     0
100
AcDbLine
 10
772.719425
 20
877.088742
 30
0.0
 11
773.694422
 21
877.088742
 31
0.0
  0
ARC
  5
142
330
E5
100
AcDbEntity
  8
0
  6
Continuous
 62
     0
370
    30
100
AcDbCircle
 10
769.30694
 20
898.340565
 30
0.0
 40
22.0
100
AcDbArc
 50
179.999997
 51
258.657066
  0
ELLIPSE
  5
143
330
E5
100
AcDbEntity
  8
0
  6
Continuous
 62
     0
370
    30
100
AcDbEllipse
 10
764.775058
 20
875.748828
 30
0.0
 11
-0.2049019563433128
 21
-1.021450764224628
 31
0.0
210
0.0
220
0.0
230
0.9999999999999998
 40
0.997729
 41
2.716735218364496
 42
3.141592525965144
  0
ELLIPSE
  5
144
330
E5
100
AcDbEntity
  8
0
  6
Continuous
 62
     0
370
    30
100
AcDbEllipse
 10
773.83882
 20
875.748828
 30
0.0
 11
-0.2049021271872533
 21
1.021450729995245
 31
0.0
210
0.0
220
0.0
230
1.0
 40
0.997729
 41
6.283185179554834
 42
7.560808132031675
  0
ARC
  5
145
330
E5
100
AcDbEntity
  8
0
  6
Continuous
 62
     0
370
     0
100
AcDbCircle
 10
769.30694
 20
898.340565
 30
0.0
 40
21.69999998807907
100
AcDbArc
 50
179.999997
 51
258.335054
  0
ARC
  5
146
330
E5
100
AcDbEntity
  8
0
  6
Continuous
 62
     0
370
     0
100
AcDbCircle
 10
769.30694
 20
898.340565
 30
0.0
 40
21.69999998807907
100
AcDbArc
 50
101.664941
 51
179.999997
  0
LINE
  5
147
330
E5
100
AcDbEntity
  8
0
  6
Continuous
 62
     0
370
     0
100
AcDbLine
 10
765.894453
 20
877.088742
 30
0.0
 11
764.919457
 21
877.088742
 31
0.0
  0
ARC
  5
148
330
E5
100
AcDbEntity
  8
0
  6
Continuous
 62
     0
370
    30
100
AcDbCircle
 10
769.30694
 20
898.340565
 30
0.0
 40
22.0
100
AcDbArc
 50
281.342929
 51
78.657066
  0
ARC
  5
149
330
E5
100
AcDbEntity
  8
0
  6
Continuous
 62
     0
370
    30
100
AcDbCircle
 10
769.30694
 20
898.340565
 30
0.0
 40
22.0
100
AcDbArc
 50
101.342929
 51
179.999997
  0
ELLIPSE
  5
14A
330
E5
100
AcDbEntity
  8
0
  6
Continuous
 62
     0
370
    30
100
AcDbEllipse
 10
773.838822
 20
920.932302
 30
0.0
 11
0.2049022164853773
 21
1.021450712082115
 31
0.0
210
0.0
220
0.0
230
1.0
 40
0.997729
 41
1.863969828738379
 42
3.141592781214602
  0
ELLIPSE
  5
14B
330
E5
100
AcDbEntity
  8
0
  6
Continuous
 62
     0
370
    30
100
AcDbEllipse
 10
764.77506
 20
920.932303
 30
0.0
 11
0.2049018670453161
 21
-1.021450782137706
 31
0.0
210
0.0
220
0.0
230
0.9999999999999998
 40
0.997729
 41
0.0000001276245909
 42
0.4248574354554817
  0
ELLIPSE
  5
14C
330
E5
100
AcDbEntity
  8
0
  6
Continuous
 62
     0
370
     0
100
AcDbEllipse
 10
764.774241
 20
875.793164
 30
0.0
 11
-1.032698044581663
 21
-1.464098967387270E-7
 31
0.0
210
0.0
220
0.0
230
1.0
 40
0.973338
 41
3.141592463023338
 42
4.519160284795594
  0
ELLIPSE
  5
14D
330
E5
100
AcDbEntity
  8
0
  6
Continuous
 62
     0
370
     0
100
AcDbEllipse
 10
764.774243
 20
920.887967
 30
0.0
 11
-1.032698044581643
 21
2.366912447151049E-7
 31
0.0
210
0.0
220
0.0
230
-1.0
 40
0.973338
 41
3.141592463023321
 42
4.519160284795586
  0
LINE
  5
14E
330
E5
100
AcDbEntity
  8
0
  6
Continuous
 62
     0
370
     0
100
AcDbLine
 10
765.894455
 20
919.592389
 30
0.0
 11
764.919459
 21
919.592389
 31
0.0
  0
LINE
  5
14F
330
E5
100
AcDbEntity
  8
0
  6
Continuous
 62
     0
370
    30
100
AcDbLine
 10
766.106943
 20
967.340566
 30
0.0
 11
772.506943
 21
967.340565
 31
0.0
  0
LINE
  5
150
330
E5
100
AcDbEntity
  8
0
  6
Continuous
 62
     0
370
     0
100
AcDbLine
 10
765.806943
 20
967.040566
 30
0.0
 11
772.806943
 21
967.040565
 31
0.0
  0
LINE
  5
151
330
E5
100
AcDbEntity
  8
0
  6
Continuous
 62
     0
370
    30
100
AcDbLine
 10
766.106939
 20
873.340566
 30
0.0
 11
772.506939
 21
873.340565
 31
0.0
  0
LINE
  5
152
330
E5
100
AcDbEntity
  8
0
  6
Continuous
 62
     0
370
     0
100
AcDbLine
 10
765.806939
 20
873.640566
 30
0.0
 11
772.806939
 21
873.640565
 31
0.0
  0
LINE
  5
153
330
E5
100
AcDbEntity
  8
0
  6
Continuous
 62
     0
370
    30
100
AcDbLine
 10
765.806943
 20
967.040566
 30
0.0
 11
765.806941
 21
920.887967
 31
0.0
  0
ARC
  5
154
330
E5
100
AcDbEntity
  8
0
  6
Continuous
 62
     0
370
    30
100
AcDbCircle
 10
766.106943
 20
967.040565
 30
0.0
 40
0.300000011920929
100
AcDbArc
 50
89.999997
 51
179.999997
  0
LINE
  5
155
330
E5
100
AcDbEntity
  8
0
  6
Continuous
 62
     0
370
    30
100
AcDbLine
 10
765.806939
 20
873.640566
 30
0.0
 11
765.806939
 21
875.793164
 31
0.0
  0
ARC
  5
156
330
E5
100
AcDbEntity
  8
0
  6
Continuous
 62
     0
370
    30
100
AcDbCircle
 10
766.106939
 20
873.640566
 30
0.0
 40
0.300000011920929
100
AcDbArc
 50
179.999997
 51
269.999997
  0
ARC
  5
157
330
E5
100
AcDbEntity
  8
0
  6
Continuous
 62
     0
370
    30
100
AcDbCircle
 10
772.506939
 20
873.640565
 30
0.0
 40
0.300000011920929
100
AcDbArc
 50
269.999997
 51
359.999997
  0
ARC
  5
158
330
E5
100
AcDbEntity
  8
0
  6
Continuous
 62
     0
370
    30
100
AcDbCircle
 10
772.506943
 20
967.040565
 30
0.0
 40
0.300000011920929
100
AcDbArc
 50
359.999997
 51
89.999997
  0
LINE
  5
159
330
E5
100
AcDbEntity
  8
0
  6
Continuous
 62
     0
370
    30
100
AcDbLine
 10
772.806939
 20
873.640565
 30
0.0
 11
772.806939
 21
875.788153
 31
0.0
  0
LINE
  5
15A
330
E5
100
AcDbEntity
  8
0
  6
Continuous
 62
     0
370
    30
100
AcDbLine
 10
772.806941
 20
920.892977
 30
0.0
 11
772.806943
 21
967.040565
 31
0.0
  0
ARC
  5
15B
330
E5
100
AcDbEntity
  8
0
  6
Continuous
 62
     0
370
    30
100
AcDbCircle
 10
764.795229
 20
920.910537
 30
0.0
 40
1.011963919116748
100
AcDbArc
 50
305.426515
 51
358.722061
  0
ARC
  5
15C
330
E5
100
AcDbEntity
  8
0
  6
Continuous
 62
     0
370
    30
100
AcDbCircle
 10
764.795227
 20
875.770594
 30
0.0
 40
1.011963919352195
100
AcDbArc
 50
1.277934
 51
54.57348
  0
LWPOLYLINE
  5
15D
330
E5
100
AcDbEntity
  8
0
  6
Continuous
 62
     0
370
    30
100
AcDbPolyline
 90
       10
 70
     0
 43
0.0
 10
773.633911
 20
919.910828
 10
773.481567
 20
919.953735
 10
773.337463
 20
920.019348
 10
773.2052
 20
920.106018
 10
773.087769
 20
920.211731
 10
772.988098
 20
920.333801
 10
772.908569
 20
920.468872
 10
772.851257
 20
920.612671
 10
772.817627
 20
920.757446
 10
772.806946
 20
920.892944
  0
LWPOLYLINE
  5
15E
330
E5
100
AcDbEntity
  8
0
  6
Continuous
 62
     0
370
    30
100
AcDbPolyline
 90
       10
 70
     0
 43
0.0
 10
773.633911
 20
876.770264
 10
773.481567
 20
876.727417
 10
773.337463
 20
876.661743
 10
773.2052
 20
876.575073
 10
773.087769
 20
876.469421
 10
772.988098
 20
876.347351
 10
772.908569
 20
876.212219
 10
772.851257
 20
876.06842
 10
772.817627
 20
875.923645
 10
772.806946
 20
875.788147
  0
ENDBLK
  5
160
330
E5
100
AcDbEntity
  8
0
100
AcDbBlockEnd
  0
BLOCK
  5
19D
330
162
100
AcDbEntity
  8
0
100
AcDbBlockBegin
  2
d
 70
     0
 10
-635.980164
 20
0.0
 30
0.0
  3
d
  1

  0
LWPOLYLINE
  5
163
330
162
100
AcDbEntity
  8
0
  6
Continuous
 62
     0
370
     0
100
AcDbPolyline
 90
       63
 70
     0
 43
0.0
 10
-299.166351
 20
868.340576
 10
-298.562866
 20
868.352173
 10
-297.960327
 20
868.386963
 10
-297.35968
 20
868.44458
 10
-296.761871
 20
868.524902
 10
-296.167847
 20
868.627686
 10
-295.578461
 20
868.752563
 10
-294.994476
 20
868.899048
 10
-294.416595
 20
869.066467
 10
-293.845612
 20
869.254272
 10
-293.282227
 20
869.461975
 10
-292.72702
 20
869.688843
 10
-292.180389
 20
869.934143
 10
-291.642792
 20
870.197144
 10
-291.114746
 20
870.477173
 10
-290.596649
 20
870.773438
 10
-290.088715
 20
871.085266
 10
-289.591187
 20
871.411865
 10
-289.104218
 20
871.752686
 10
-288.62796
 20
872.106873
 10
-288.162598
 20
872.473755
 10
-287.708282
 20
872.852661
 10
-287.265076
 20
873.242981
 10
-286.832947
 20
873.644043
 10
-286.411865
 20
874.055298
 10
-286.001862
 20
874.476257
 10
-285.602905
 20
874.906189
 10
-285.214966
 20
875.344604
 10
-284.838013
 20
875.790955
 10
-284.471985
 20
876.24469
 10
-284.116821
 20
876.705383
 10
-283.77243
 20
877.172546
 10
-283.438721
 20
877.64563
 10
-283.115601
 20
878.124268
 10
-282.802979
 20
878.608032
 10
-282.500793
 20
879.096375
 10
-282.208954
 20
879.588867
 10
-281.927368
 20
880.085022
 10
-281.655945
 20
880.584473
 10
-281.394623
 20
881.086731
 10
-281.14328
 20
881.591309
 10
-280.901886
 20
882.097656
 10
-280.670319
 20
882.605286
 10
-280.448578
 20
883.113586
 10
-280.236542
 20
883.621948
 10
-280.03418
 20
884.129639
 10
-279.841461
 20
884.635925
 10
-279.658356
 20
885.139893
 10
-279.484833
 20
885.640564
 10
-279.320923
 20
886.136841
 10
-279.166626
 20
886.627075
 10
-279.022003
 20
887.109436
 10
-278.887177
 20
887.582092
 10
-278.762268
 20
888.042297
 10
-278.647522
 20
888.486816
 10
-278.543243
 20
888.911072
 10
-278.449829
 20
889.309937
 10
-278.36795
 20
889.67627
 10
-278.298431
 20
890.001221
 10
-278.242249
 20
890.274048
 10
-278.200745
 20
890.482361
 10
-278.175079
 20
890.614014
 10
-278.166382
 20
890.65918
  0
LWPOLYLINE
  5
164
330
162
100
AcDbEntity
  8
0
  6
Continuous
 62
     0
370
     0
100
AcDbPolyline
 90
       63
 70
     0
 43
0.0
 10
-320.166321
 20
890.65918
 10
-320.157715
 20
890.614502
 10
-320.132172
 20
890.483337
 10
-320.090729
 20
890.275391
 10
-320.034637
 20
890.00293
 10
-319.965179
 20
889.678223
 10
-319.883362
 20
889.312073
 10
-319.790039
 20
888.913391
 10
-319.685791
 20
888.489136
 10
-319.571075
 20
888.0448
 10
-319.446228
 20
887.584656
 10
-319.311462
 20
887.112122
 10
-319.16687
 20
886.629578
 10
-319.012634
 20
886.139404
 10
-318.848755
 20
885.64325
 10
-318.675293
 20
885.142578
 10
-318.492249
 20
884.638611
 10
-318.299561
 20
884.132324
 10
-318.09726
 20
883.624573
 10
-317.885254
 20
883.116211
 10
-317.663544
 20
882.60791
 10
-317.432037
 20
882.100281
 10
-317.190704
 20
881.593933
 10
-316.939392
 20
881.089355
 10
-316.678101
 20
880.587036
 10
-316.406738
 20
880.087524
 10
-316.125183
 20
879.591309
 10
-315.833374
 20
879.098755
 10
-315.53125
 20
878.610413
 10
-315.218689
 20
878.126709
 10
-314.89563
 20
877.64801
 10
-314.56192
 20
877.174805
 10
-314.21756
 20
876.707581
 10
-313.862427
 20
876.246826
 10
-313.49646
 20
875.79303
 10
-313.119568
 20
875.346741
 10
-312.73172
 20
874.908325
 10
-312.332825
 20
874.478394
 10
-311.922852
 20
874.057373
 10
-311.50177
 20
873.645996
 10
-311.069641
 20
873.244751
 10
-310.626434
 20
872.85437
 10
-310.172211
 20
872.475403
 10
-309.707001
 20
872.108521
 10
-309.230774
 20
871.754272
 10
-308.743744
 20
871.413391
 10
-308.246094
 20
871.086609
 10
-307.738129
 20
870.774658
 10
-307.220062
 20
870.478271
 10
-306.6922
 20
870.198242
 10
-306.154785
 20
869.935181
 10
-305.608093
 20
869.689941
 10
-305.052673
 20
869.463135
 10
-304.489166
 20
869.255371
 10
-303.918213
 20
869.067383
 10
-303.340515
 20
868.89978
 10
-302.756653
 20
868.753174
 10
-302.167358
 20
868.628174
 10
-301.573334
 20
868.525391
 10
-300.975525
 20
868.444946
 10
-300.374847
 20
868.387207
 10
-299.772308
 20
868.352295
 10
-299.166351
 20
868.340576
  0
LINE
  5
165
330
162
100
AcDbEntity
  8
0
  6
Continuous
 62
     0
370
     0
100
AcDbLine
 10
-299.166351
 20
868.340565
 30
0.0
 11
-299.166351
 21
876.340565
 31
0.0
  0
CIRCLE
  5
166
330
162
100
AcDbEntity
  8
0
  6
Continuous
 62
     0
370
    30
100
AcDbCircle
 10
-299.166352
 20
898.340565
 30
0.0
 40
22.0
  0
LWPOLYLINE
  5
167
330
162
100
AcDbEntity
  8
0
  6
Continuous
 62
     0
370
    30
100
AcDbPolyline
 90
       37
 70
     0
 43
0.0
 10
-320.166321
 20
890.65918
 10
-320.166534
 20
890.71814
 10
-320.167206
 20
890.7771
 10
-320.168274
 20
890.835999
 10
-320.1698
 20
890.894958
 10
-320.171753
 20
890.953857
 10
-320.174133
 20
891.012756
 10
-320.176971
 20
891.071655
 10
-320.180237
 20
891.130554
 10
-320.183929
 20
891.189392
 10
-320.188049
 20
891.24823
 10
-320.192596
 20
891.307007
 10
-320.197571
 20
891.365723
 10
-320.203003
 20
891.424438
 10
-320.208862
 20
891.483093
 10
-320.215149
 20
891.541748
 10
-320.221863
 20
891.600281
 10
-320.229034
 20
891.658813
 10
-320.236603
 20
891.717285
 10
-320.244629
 20
891.775696
 10
-320.253052
 20
891.834045
 10
-320.261932
 20
891.892334
 10
-320.27124
 20
891.950562
 10
-320.280975
 20
892.008728
 10
-320.291107
 20
892.066772
 10
-320.301697
 20
892.124695
 10
-320.312683
 20
892.182556
 10
-320.324127
 20
892.240417
 10
-320.336029
 20
892.298279
 10
-320.348358
 20
892.356079
 10
-320.361053
 20
892.413574
 10
-320.374054
 20
892.470459
 10
-320.387634
 20
892.527954
 10
-320.40213
 20
892.587158
 10
-320.416565
 20
892.644409
 10
-320.429169
 20
892.693054
 10
-320.432892
 20
892.707153
  0
LWPOLYLINE
  5
168
330
162
100
AcDbEntity
  8
0
  6
Continuous
 62
     0
370
    30
100
AcDbPolyline
 90
       37
 70
     0
 43
0.0
 10
-278.166382
 20
890.65918
 10
-278.166168
 20
890.71814
 10
-278.165497
 20
890.7771
 10
-278.164429
 20
890.835999
 10
-278.162903
 20
890.894958
 10
-278.16095
 20
890.953857
 10
-278.158569
 20
891.012756
 10
-278.155731
 20
891.071655
 10
-278.152496
 20
891.130554
 10
-278.148804
 20
891.189392
 10
-278.144684
 20
891.24823
 10
-278.140106
 20
891.307007
 10
-278.135132
 20
891.365723
 10
-278.1297
 20
891.424438
 10
-278.12384
 20
891.483093
 10
-278.117554
 20
891.541748
 10
-278.11084
 20
891.600281
 10
-278.103699
 20
891.658813
 10
-278.0961
 20
891.717285
 10
-278.088104
 20
891.775696
 10
-278.079651
 20
891.834045
 10
-278.07077
 20
891.892334
 10
-278.061462
 20
891.950562
 10
-278.051727
 20
892.008728
 10
-278.041595
 20
892.066772
 10
-278.031006
 20
892.124695
 10
-278.02002
 20
892.182556
 10
-278.008575
 20
892.240417
 10
-277.996674
 20
892.298279
 10
-277.984344
 20
892.356079
 10
-277.971649
 20
892.413574
 10
-277.958649
 20
892.470459
 10
-277.945068
 20
892.527954
 10
-277.930573
 20
892.587158
 10
-277.916138
 20
892.644409
 10
-277.903534
 20
892.693054
 10
-277.899811
 20
892.707153
  0
LINE
  5
169
330
162
100
AcDbEntity
  8
0
  6
Continuous
 62
     0
370
    30
100
AcDbLine
 10
-320.166353
 20
890.659182
 30
0.0
 11
-320.166351
 21
836.340564
 31
0.0
  0
LINE
  5
16A
330
162
100
AcDbEntity
  8
0
  6
Continuous
 62
     0
370
    30
100
AcDbLine
 10
-278.166353
 20
890.659184
 30
0.0
 11
-278.166351
 21
836.340566
 31
0.0
  0
LINE
  5
16B
330
162
100
AcDbEntity
  8
0
  6
Continuous
 62
     0
370
    30
100
AcDbLine
 10
-323.166351
 20
832.340564
 30
0.0
 11
-275.166351
 21
832.340566
 31
0.0
  0
LINE
  5
16C
330
162
100
AcDbEntity
  8
0
  6
Continuous
 62
     0
370
    30
100
AcDbLine
 10
-323.166351
 20
836.340564
 30
0.0
 11
-275.166351
 21
836.340566
 31
0.0
  0
LINE
  5
16D
330
162
100
AcDbEntity
  8
0
  6
Continuous
 62
     0
370
    30
100
AcDbLine
 10
-323.166351
 20
832.340564
 30
0.0
 11
-323.166351
 21
836.340564
 31
0.0
  0
LINE
  5
16E
330
162
100
AcDbEntity
  8
0
  6
Continuous
 62
     0
370
    30
100
AcDbLine
 10
-275.166351
 20
832.340566
 30
0.0
 11
-275.166351
 21
836.340566
 31
0.0
  0
LINE
  5
16F
330
162
100
AcDbEntity
  8
0
  6
Continuous
 62
     0
370
    30
100
AcDbLine
 10
-194.666363
 20
1120.34057
 30
0.0
 11
-194.666362
 21
1092.34057
 31
0.0
  0
LINE
  5
170
330
162
100
AcDbEntity
  8
0
  6
Continuous
 62
     0
370
     0
100
AcDbLine
 10
-270.166363
 20
1120.340567
 30
0.0
 11
-270.166362
 21
1092.340567
 31
0.0
  0
LINE
  5
171
330
162
100
AcDbEntity
  8
0
  6
Continuous
 62
     0
370
     0
100
AcDbLine
 10
-313.166361
 20
1077.340565
 30
0.0
 11
-285.166361
 21
1077.340566
 31
0.0
  0
LINE
  5
172
330
162
100
AcDbEntity
  8
0
  6
Continuous
 62
     0
370
    30
100
AcDbLine
 10
-313.166361
 20
1077.340565
 30
0.0
 11
-313.166354
 21
915.311128
 31
0.0
  0
LINE
  5
173
330
162
100
AcDbEntity
  8
0
  6
Continuous
 62
     0
370
    30
100
AcDbLine
 10
-285.166361
 20
1077.340566
 30
0.0
 11
-285.166354
 21
915.311129
 31
0.0
  0
ARC
  5
174
330
162
100
AcDbEntity
  8
0
  6
Continuous
 62
     0
370
    30
100
AcDbCircle
 10
-270.166361
 20
1077.340567
 30
0.0
 40
43.0
100
AcDbArc
 50
90.000003
 51
180.000003
  0
ARC
  5
175
330
162
100
AcDbEntity
  8
0
  6
Continuous
 62
     0
370
    30
100
AcDbCircle
 10
-270.166361
 20
1077.340567
 30
0.0
 40
15.0
100
AcDbArc
 50
90.000003
 51
180.000003
  0
LINE
  5
176
330
162
100
AcDbEntity
  8
0
  6
Continuous
 62
     0
370
    30
100
AcDbLine
 10
-194.666363
 20
1120.34057
 30
0.0
 11
-270.166363
 21
1120.340567
 31
0.0
  0
LINE
  5
177
330
162
100
AcDbEntity
  8
0
  6
Continuous
 62
     0
370
    30
100
AcDbLine
 10
-194.666362
 20
1092.34057
 30
0.0
 11
-270.166362
 21
1092.340567
 31
0.0
  0
LINE
  5
178
330
162
100
AcDbEntity
  8
0
  6
Continuous
 62
     0
370
    30
100
AcDbLine
 10
-92.013052
 20
1097.340574
 30
0.0
 11
-100.319671
 21
1097.340574
 31
0.0
  0
LWPOLYLINE
  5
179
330
162
100
AcDbEntity
  8
0
  6
Continuous
 62
     0
370
    30
100
AcDbPolyline
 90
       19
 70
     0
 43
0.0
 10
-107.666351
 20
1092.340576
 10
-107.636841
 20
1092.364868
 10
-107.549072
 20
1092.436768
 10
-107.404671
 20
1092.554688
 10
-107.205849
 20
1092.716309
 10
-106.955795
 20
1092.918091
 10
-106.65789
 20
1093.156372
 10
-106.315712
 20
1093.427002
 10
-105.932739
 20
1093.72583
 10
-105.511925
 20
1094.048828
 10
-105.056
 20
1094.391724
 10
-104.567596
 20
1094.750366
 10
-104.048599
 20
1095.120972
 10
-103.500496
 20
1095.499268
 10
-102.924011
 20
1095.880737
 10
-102.319466
 20
1096.260376
 10
-101.687103
 20
1096.633423
 10
-101.026413
 20
1096.993408
 10
-100.319672
 20
1097.340576
  0
LWPOLYLINE
  5
17A
330
162
100
AcDbEntity
  8
0
  6
Continuous
 62
     0
370
    30
100
AcDbPolyline
 90
       19
 70
     0
 43
0.0
 10
-92.013054
 20
1097.340576
 10
-91.322662
 20
1097.001831
 10
-90.661369
 20
1096.642334
 10
-90.02845
 20
1096.269653
 10
-89.423294
 20
1095.890137
 10
-88.846176
 20
1095.508667
 10
-88.297485
 20
1095.130371
 10
-87.777847
 20
1094.759644
 10
-87.288727
 20
1094.400635
 10
-86.832054
 20
1094.057373
 10
-86.410393
 20
1093.733887
 10
-86.026443
 20
1093.434448
 10
-85.683189
 20
1093.163086
 10
-85.384148
 20
1092.92395
 10
-85.132851
 20
1092.721191
 10
-84.932655
 20
1092.558472
 10
-84.786766
 20
1092.439331
 10
-84.697563
 20
1092.366211
 10
-84.666374
 20
1092.340576
  0
LINE
  5
17B
330
162
100
AcDbEntity
  8
0
  6
Continuous
 62
     0
370
    30
100
AcDbLine
 10
-79.666363
 20
1119.840574
 30
0.0
 11
-79.666362
 21
1092.840574
 31
0.0
  0
LINE
  5
17C
330
162
100
AcDbEntity
  8
0
  6
Continuous
 62
     0
370
     0
100
AcDbLine
 10
-80.166363
 20
1120.340574
 30
0.0
 11
-80.166362
 21
1092.340574
 31
0.0
  0
LINE
  5
17D
330
162
100
AcDbEntity
  8
0
  6
Continuous
 62
     0
370
    30
100
AcDbLine
 10
-85.166362
 20
1087.340575
 30
0.0
 11
-96.166361
 21
1087.340574
 31
0.0
  0
LINE
  5
17E
330
162
100
AcDbEntity
  8
0
  6
Continuous
 62
     0
370
    30
100
AcDbLine
 10
-96.166361
 20
1087.340574
 30
0.0
 11
-107.166362
 21
1087.340574
 31
0.0
  0
LINE
  5
17F
330
162
100
AcDbEntity
  8
0
  6
Continuous
 62
     0
370
    30
100
AcDbLine
 10
-84.666362
 20
1087.840575
 30
0.0
 11
-92.812259
 21
1087.840574
 31
0.0
  0
LINE
  5
180
330
162
100
AcDbEntity
  8
0
  6
Continuous
 62
     0
370
    30
100
AcDbLine
 10
-99.520463
 20
1087.840574
 30
0.0
 11
-107.666362
 21
1087.840574
 31
0.0
  0
LINE
  5
181
330
162
100
AcDbEntity
  8
0
  6
Continuous
 62
     0
370
    30
100
AcDbLine
 10
-92.812259
 20
1087.840574
 30
0.0
 11
-92.812259
 21
1092.340574
 31
0.0
  0
LINE
  5
182
330
162
100
AcDbEntity
  8
0
  6
Continuous
 62
     0
370
    30
100
AcDbLine
 10
-99.520463
 20
1092.340574
 30
0.0
 11
-99.520463
 21
1087.840574
 31
0.0
  0
LINE
  5
183
330
162
100
AcDbEntity
  8
0
  6
Continuous
 62
     0
370
    30
100
AcDbLine
 10
-92.812259
 20
1092.340574
 30
0.0
 11
-99.520463
 21
1092.340574
 31
0.0
  0
LWPOLYLINE
  5
184
330
162
100
AcDbEntity
  8
0
  6
Continuous
 62
     0
370
    30
100
AcDbPolyline
 90
        5
 70
     0
 43
0.0
 10
-99.520462
 20
1087.840576
 10
-98.724289
 20
1087.634155
 10
-97.916206
 20
1087.478882
 10
-97.09919
 20
1087.380249
 10
-96.166359
 20
1087.340576
  0
LWPOLYLINE
  5
185
330
162
100
AcDbEntity
  8
0
  6
Continuous
 62
     0
370
    30
100
AcDbPolyline
 90
        5
 70
     0
 43
0.0
 10
-96.166359
 20
1087.340576
 10
-95.344772
 20
1087.371338
 10
-94.527115
 20
1087.462036
 10
-93.71788
 20
1087.609863
 10
-92.812256
 20
1087.840576
  0
LINE
  5
186
330
162
100
AcDbEntity
  8
0
  6
Continuous
 62
     0
370
    30
100
AcDbLine
 10
-183.916362
 20
1087.84057
 30
0.0
 11
-181.416362
 21
1087.840571
 31
0.0
  0
LWPOLYLINE
  5
187
330
162
100
AcDbEntity
  8
0
  6
Continuous
 62
     0
370
     0
100
AcDbPolyline
 90
       27
 70
     0
 43
0.0
 10
-187.875214
 20
1091.269165
 10
-187.837463
 20
1091.269165
 10
-187.724243
 20
1091.269165
 10
-187.537384
 20
1091.269165
 10
-187.279678
 20
1091.269165
 10
-186.954758
 20
1091.269165
 10
-186.56749
 20
1091.269165
 10
-186.123398
 20
1091.269165
 10
-185.628906
 20
1091.269165
 10
-185.091156
 20
1091.269165
 10
-184.518295
 20
1091.269165
 10
-183.918686
 20
1091.269165
 10
-183.300735
 20
1091.269165
 10
-182.673447
 20
1091.269165
 10
-182.046005
 20
1091.269165
 10
-181.427643
 20
1091.269165
 10
-180.827316
 20
1091.269165
 10
-180.253769
 20
1091.269165
 10
-179.715332
 20
1091.269165
 10
-179.21991
 20
1091.269165
 10
-178.774551
 20
1091.269165
 10
-178.385864
 20
1091.269165
 10
-178.059586
 20
1091.269165
 10
-177.800674
 20
1091.269165
 10
-177.612244
 20
1091.269165
 10
-177.497055
 20
1091.269165
 10
-177.457581
 20
1091.269165
  0
LWPOLYLINE
  5
188
330
162
100
AcDbEntity
  8
0
  6
Continuous
 62
     0
370
    30
100
AcDbPolyline
 90
       26
 70
     0
 43
0.0
 10
-187.380356
 20
1091.840576
 10
-187.34343
 20
1091.840576
 10
-187.232758
 20
1091.840576
 10
-187.050278
 20
1091.840576
 10
-186.798904
 20
1091.840576
 10
-186.482483
 20
1091.840576
 10
-186.106079
 20
1091.840576
 10
-185.675568
 20
1091.840576
 10
-185.197617
 20
1091.840576
 10
-184.679825
 20
1091.840576
 10
-184.130585
 20
1091.840576
 10
-183.558365
 20
1091.840576
 10
-182.971954
 20
1091.840576
 10
-182.380707
 20
1091.840576
 10
-181.794052
 20
1091.840576
 10
-181.221222
 20
1091.840576
 10
-180.670975
 20
1091.840576
 10
-180.151947
 20
1091.840576
 10
-179.672607
 20
1091.840576
 10
-179.240372
 20
1091.840576
 10
-178.861969
 20
1091.840576
 10
-178.543457
 20
1091.840576
 10
-178.290115
 20
1091.840576
 10
-178.105347
 20
1091.840576
 10
-177.991928
 20
1091.840576
 10
-177.952423
 20
1091.840576
  0
ARC
  5
189
330
162
100
AcDbEntity
  8
0
  6
Continuous
 62
     0
370
    30
100
AcDbCircle
 10
-182.666236
 20
1078.474997
 30
0.0
 40
14.00914678108927
100
AcDbArc
 50
81.793726
 51
98.207775
  0
LINE
  5
18A
330
162
100
AcDbEntity
  8
0
  6
Continuous
 62
     0
370
    30
100
AcDbLine
 10
-194.166363
 20
1120.340569
 30
0.0
 11
-194.166362
 21
1092.340569
 31
0.0
  0
LINE
  5
18B
330
162
100
AcDbEntity
  8
0
  6
Continuous
 62
     0
370
    30
100
AcDbLine
 10
-194.666363
 20
1119.840569
 30
0.0
 11
-194.166363
 21
1120.340569
 31
0.0
  0
LINE
  5
18C
330
162
100
AcDbEntity
  8
0
  6
Continuous
 62
     0
370
    30
100
AcDbLine
 10
-194.666362
 20
1092.840569
 30
0.0
 11
-194.166362
 21
1092.340569
 31
0.0
  0
LINE
  5
18D
330
162
100
AcDbEntity
  8
0
  6
Continuous
 62
     0
370
    30
100
AcDbLine
 10
-80.166363
 20
1120.340574
 30
0.0
 11
-194.166363
 21
1120.340569
 31
0.0
  0
LINE
  5
18E
330
162
100
AcDbEntity
  8
0
  6
Continuous
 62
     0
370
    30
100
AcDbLine
 10
-80.166362
 20
1092.340574
 30
0.0
 11
-84.666374
 21
1092.340574
 31
0.0
  0
LINE
  5
18F
330
162
100
AcDbEntity
  8
0
  6
Continuous
 62
     0
370
    30
100
AcDbLine
 10
-107.666349
 20
1092.340573
 30
0.0
 11
-180.666599
 21
1092.34057
 31
0.0
  0
LINE
  5
190
330
162
100
AcDbEntity
  8
0
  6
Continuous
 62
     0
370
    30
100
AcDbLine
 10
-184.66614
 20
1092.340569
 30
0.0
 11
-194.166362
 21
1092.340569
 31
0.0
  0
ARC
  5
191
330
162
100
AcDbEntity
  8
0
  6
Continuous
 62
     0
370
    30
100
AcDbCircle
 10
-177.952439
 20
1091.340575
 30
0.0
 40
0.4999954887408283
100
AcDbArc
 50
351.786195
 51
89.998471
  0
ARC
  5
192
330
162
100
AcDbEntity
  8
0
  6
Continuous
 62
     0
370
    30
100
AcDbCircle
 10
-187.380348
 20
1091.34057
 30
0.0
 40
0.4999998459548288
100
AcDbArc
 50
90.001101
 51
188.213234
  0
ARC
  5
193
330
162
100
AcDbEntity
  8
0
  6
Continuous
 62
     0
370
    30
100
AcDbCircle
 10
-183.916362
 20
1091.84057
 30
0.0
 40
4.0
100
AcDbArc
 50
188.213213
 51
270.000003
  0
ARC
  5
194
330
162
100
AcDbEntity
  8
0
  6
Continuous
 62
     0
370
    30
100
AcDbCircle
 10
-181.416362
 20
1091.840571
 30
0.0
 40
4.0
100
AcDbArc
 50
270.000003
 51
351.786792
  0
LINE
  5
195
330
162
100
AcDbEntity
  8
0
  6
Continuous
 62
     0
370
    30
100
AcDbLine
 10
-184.666362
 20
1091.84057
 30
0.0
 11
-184.666362
 21
1092.340656
 31
0.0
  0
LINE
  5
196
330
162
100
AcDbEntity
  8
0
  6
Continuous
 62
     0
370
    30
100
AcDbLine
 10
-180.666362
 20
1091.840571
 30
0.0
 11
-180.666362
 21
1092.340749
 31
0.0
  0
LINE
  5
197
330
162
100
AcDbEntity
  8
0
  6
Continuous
 62
     0
370
    30
100
AcDbLine
 10
-107.166362
 20
1087.340574
 30
0.0
 11
-107.666362
 21
1087.840574
 31
0.0
  0
LINE
  5
198
330
162
100
AcDbEntity
  8
0
  6
Continuous
 62
     0
370
    30
100
AcDbLine
 10
-85.166362
 20
1087.340575
 30
0.0
 11
-84.666362
 21
1087.840575
 31
0.0
  0
ARC
  5
199
330
162
100
AcDbEntity
  8
0
  6
Continuous
 62
     0
370
    30
100
AcDbCircle
 10
-80.166363
 20
1119.840574
 30
0.0
 40
0.4999999999999716
100
AcDbArc
 50
0.000003
 51
90.000003
  0
ARC
  5
19A
330
162
100
AcDbEntity
  8
0
  6
Continuous
 62
     0
370
    30
100
AcDbCircle
 10
-80.166362
 20
1092.840574
 30
0.0
 40
0.4999999999999716
100
AcDbArc
 50
270.000003
 51
0.000003
  0
LINE
  5
19B
330
162
100
AcDbEntity
  8
0
  6
Continuous
 62
     0
370
    30
100
AcDbLine
 10
-84.666362
 20
1092.340586
 30
0.0
 11
-84.666362
 21
1087.840575
 31
0.0
  0
LINE
  5
19C
330
162
100
AcDbEntity
  8
0
  6
Continuous
 62
     0
370
    30
100
AcDbLine
 10
-107.666362
 20
1092.340585
 30
0.0
 11
-107.666362
 21
1087.840574
 31
0.0
  0
ENDBLK
  5
19E
330
162
100
AcDbEntity
  8
0
100
AcDbBlockEnd
  0
BLOCK
  5
227
330
1A0
100
AcDbEntity
  8
0
100
AcDbBlockBegin
  2
e
 70
     0
 10
580.978394
 20
367.481567
 30
0.0
  3
e
  1

  0
ELLIPSE
  5
1A1
330
1A0
100
AcDbEntity
  8
0
  6
Continuous
 62
     0
370
    30
100
AcDbEllipse
 10
805.706435
 20
433.143834
 30
0.0
 11
8.024254956554756
 21
20.48441681845511
 31
0.0
210
0.0
220
0.0
230
0.9999999999999999
 40
0.748293
 41
6.206407429057086
 42
9.635390467160889
  0
ELLIPSE
  5
1A2
330
1A0
100
AcDbEntity
  8
0
  6
Continuous
 62
     0
370
    30
100
AcDbEllipse
 10
771.491458
 20
387.400611
 30
0.0
 11
20.99982187268997
 21
-0.08649459689523477
 31
0.0
210
0.0
220
0.0
230
-1.0
 40
0.304725
 41
6.283185272172444
 42
9.424777925762239
  0
LWPOLYLINE
  5
1A3
330
1A0
100
AcDbEntity
  8
0
  6
Continuous
 62
     0
370
     0
100
AcDbPolyline
 90
       78
 70
     0
 43
0.0
 10
747.949768
 20
432.140869
 10
747.776123
 20
432.218536
 10
747.625183
 20
432.306213
 10
747.49646
 20
432.403412
 10
747.389465
 20
432.509735
 10
747.303772
 20
432.624756
 10
747.238831
 20
432.747986
 10
747.194153
 20
432.879059
 10
747.16925
 20
433.017487
 10
747.163635
 20
433.162903
 10
747.17688
 20
433.31485
 10
747.208557
 20
433.472931
 10
747.25824
 20
433.63678
 10
747.325623
 20
433.805969
 10
747.410217
 20
433.980103
 10
747.511719
 20
434.158783
 10
747.629883
 20
434.341553
 10
747.764526
 20
434.527954
 10
747.915283
 20
434.717529
 10
748.08197
 20
434.909851
 10
748.264526
 20
435.10434
 10
748.462769
 20
435.300446
 10
748.676697
 20
435.497528
 10
748.906372
 20
435.694855
 10
749.151917
 20
435.891541
 10
749.413452
 20
436.086731
 10
749.691406
 20
436.279205
 10
749.986145
 20
436.467712
 10
750.298279
 20
436.650452
 10
750.628845
 20
436.825256
 10
750.978699
 20
436.989685
 10
751.349365
 20
437.140381
 10
751.742554
 20
437.272949
 10
752.160522
 20
437.381744
 10
752.605713
 20
437.459442
 10
753.080688
 20
437.496765
 10
753.587524
 20
437.482483
 10
754.126404
 20
437.404358
 10
754.694519
 20
437.251984
 10
755.284973
 20
437.020782
 10
755.888306
 20
436.714294
 10
756.495972
 20
436.343353
 10
757.10199
 20
435.921814
 10
757.703857
 20
435.462677
 10
758.301208
 20
434.976624
 10
758.894775
 20
434.471558
 10
759.485901
 20
433.953461
 10
760.075867
 20
433.426483
 10
760.665894
 20
432.893921
 10
761.256897
 20
432.358002
 10
761.849915
 20
431.820679
 10
762.445618
 20
431.283447
 10
763.044617
 20
430.747437
 10
763.647339
 20
430.213715
 10
764.25415
 20
429.683075
 10
764.865417
 20
429.156342
 10
765.481323
 20
428.634186
 10
766.102173
 20
428.117249
 10
766.727966
 20
427.60611
 10
767.358765
 20
427.101349
 10
767.99469
 20
426.603577
 10
768.635803
 20
426.113281
 10
769.281982
 20
425.631104
 10
769.933228
 20
425.157532
 10
770.589478
 20
424.693176
 10
771.25061
 20
424.238617
 10
771.916443
 20
423.794434
 10
772.586853
 20
423.361298
 10
773.261536
 20
422.93985
 10
773.940186
 20
422.530792
 10
774.62262
 20
422.134796
 10
775.308533
 20
421.752563
 10
775.997559
 20
421.384827
 10
776.689148
 20
421.032471
 10
777.382751
 20
420.696289
 10
778.07782
 20
420.377167
 10
778.773865
 20
420.075958
 10
779.470703
 20
419.793335
  0
LWPOLYLINE
  5
1A4
330
1A0
100
AcDbEntity
  8
0
  6
Continuous
 62
     0
370
     0
100
AcDbPolyline
 90
       92
 70
     0
 43
0.0
 10
750.658264
 20
427.935486
 10
750.66449
 20
428.248505
 10
750.681702
 20
428.565887
 10
750.709717
 20
428.887177
 10
750.748474
 20
429.211975
 10
750.797729
 20
429.539917
 10
750.857483
 20
429.870483
 10
750.927673
 20
430.203247
 10
751.00824
 20
430.537659
 10
751.099121
 20
430.873169
 10
751.200439
 20
431.209137
 10
751.312134
 20
431.544861
 10
751.434326
 20
431.879639
 10
751.5672
 20
432.212524
 10
751.710815
 20
432.54245
 10
751.865479
 20
432.868378
 10
752.031494
 20
433.188568
 10
752.209412
 20
433.501282
 10
752.399597
 20
433.804565
 10
752.602783
 20
434.095673
 10
752.819763
 20
434.371277
 10
753.051575
 20
434.627014
 10
753.299316
 20
434.857758
 10
753.56427
 20
435.056702
 10
753.8479
 20
435.215637
 10
754.151184
 20
435.324707
 10
754.474487
 20
435.373047
 10
754.817078
 20
435.350494
 10
755.176636
 20
435.249481
 10
755.549072
 20
435.069031
 10
755.930115
 20
434.812927
 10
756.315735
 20
434.490967
 10
756.703247
 20
434.114746
 10
757.091248
 20
433.695404
 10
757.479309
 20
433.242645
 10
757.867371
 20
432.764404
 10
758.255981
 20
432.266693
 10
758.645569
 20
431.754395
 10
759.036743
 20
431.231079
 10
759.429993
 20
430.699738
 10
759.825684
 20
430.162445
 10
760.224365
 20
429.621155
 10
760.626221
 20
429.077362
 10
761.031616
 20
428.532288
 10
761.440796
 20
427.986969
 10
761.854004
 20
427.442291
 10
762.271301
 20
426.899048
 10
762.692993
 20
426.35791
 10
763.11908
 20
425.81955
 10
763.549744
 20
425.284515
 10
763.985046
 20
424.753357
 10
764.424988
 20
424.226593
 10
764.86969
 20
423.704651
 10
765.319153
 20
423.188049
 10
765.773438
 20
422.677246
 10
766.232544
 20
422.172699
 10
766.696472
 20
421.674866
 10
767.165222
 20
421.184204
 10
767.638672
 20
420.701172
 10
768.116943
 20
420.226196
 10
768.599854
 20
419.759796
 10
769.087402
 20
419.302429
 10
769.579529
 20
418.854675
 10
770.075989
 20
418.416992
 10
770.576782
 20
417.98999
 10
771.081787
 20
417.574127
 10
771.59082
 20
417.169952
 10
772.103821
 20
416.778046
 10
772.620483
 20
416.399109
 10
773.140564
 20
416.033752
 10
773.663757
 20
415.682648
 10
774.18988
 20
415.346436
 10
774.718628
 20
415.025757
 10
775.249756
 20
414.721313
 10
775.782837
 20
414.433807
 10
776.317383
 20
414.163971
 10
776.852844
 20
413.912537
 10
777.388855
 20
413.680298
 10
777.924744
 20
413.467987
 10
778.460144
 20
413.276306
 10
778.994507
 20
413.106018
 10
779.5271
 20
412.957703
 10
780.057129
 20
412.83194
 10
780.583862
 20
412.72934
 10
781.106628
 20
412.650391
 10
781.624512
 20
412.595764
 10
782.136841
 20
412.565979
 10
782.642883
 20
412.561371
 10
783.141785
 20
412.582123
 10
783.63269
 20
412.628265
 10
784.114807
 20
412.699951
 10
784.588013
 20
412.797363
  0
LWPOLYLINE
  5
1A5
330
1A0
100
AcDbEntity
  8
0
  6
Continuous
 62
     0
370
     0
100
AcDbPolyline
 90
        9
 70
     0
 43
0.0
 10
784.588013
 20
412.797363
 10
785.279358
 20
412.991913
 10
785.945129
 20
413.243195
 10
786.58313
 20
413.549805
 10
787.191467
 20
413.910217
 10
787.768738
 20
414.322296
 10
788.313904
 20
414.783417
 10
788.825867
 20
415.291107
 10
789.36438
 20
415.917725
  0
ELLIPSE
  5
1A6
330
1A0
100
AcDbEntity
  8
0
  6
Continuous
 62
     0
370
     0
100
AcDbEllipse
 10
789.529372
 20
410.86172
 30
0.0
 11
1.834578835736224
 21
-7.78680425434393
 31
0.0
210
0.0
220
0.0
230
1.0
 40
0.589236
 41
3.612775937599038
 42
4.325668448953026
  0
ELLIPSE
  5
1A7
330
1A0
100
AcDbEntity
  8
0
  6
Continuous
 62
     0
370
    30
100
AcDbEllipse
 10
740.851263
 20
458.549215
 30
0.0
 11
8.024254956554756
 21
20.48441681845511
 31
0.0
210
0.0
220
0.0
230
0.9999999999999999
 40
0.748293
 41
6.283185300002985
 42
9.424777953592775
  0
LWPOLYLINE
  5
1A8
330
1A0
100
AcDbEntity
  8
0
  6
Continuous
 62
     0
370
    30
100
AcDbPolyline
 90
       51
 70
     0
 43
0.0
 10
780.780884
 20
466.535492
 10
780.659912
 20
466.570801
 10
780.484985
 20
466.600891
 10
780.255981
 20
466.622681
 10
779.972717
 20
466.633301
 10
779.635132
 20
466.630127
 10
779.243164
 20
466.610748
 10
778.79718
 20
466.572906
 10
778.298035
 20
466.51474
 10
777.747375
 20
466.434967
 10
777.147034
 20
466.332367
 10
776.499451
 20
466.206238
 10
775.808044
 20
466.05661
 10
775.076782
 20
465.883972
 10
774.310242
 20
465.689453
 10
773.513062
 20
465.474518
 10
772.690125
 20
465.241302
 10
771.846497
 20
464.992096
 10
770.986816
 20
464.729614
 10
770.115479
 20
464.456757
 10
769.236877
 20
464.176514
 10
768.354126
 20
463.892029
 10
767.470398
 20
463.606537
 10
766.588623
 20
463.323273
 10
765.711426
 20
463.045593
 10
764.840698
 20
462.777069
 10
763.978333
 20
462.521301
 10
763.126099
 20
462.282013
 10
762.28595
 20
462.063629
 10
761.459656
 20
461.870667
 10
760.64917
 20
461.707642
 10
759.856812
 20
461.579651
 10
759.08551
 20
461.492096
 10
758.338562
 20
461.450348
 10
757.620056
 20
461.459412
 10
756.934387
 20
461.523895
 10
756.286438
 20
461.647095
 10
755.681213
 20
461.830658
 10
755.123291
 20
462.074432
 10
754.616577
 20
462.376068
 10
754.164001
 20
462.731506
 10
753.767456
 20
463.135284
 10
753.427734
 20
463.581146
 10
753.145081
 20
464.062439
 10
752.918945
 20
464.572601
 10
752.748718
 20
465.105133
 10
752.633728
 20
465.654388
 10
752.573486
 20
466.215088
 10
752.567444
 20
466.782043
 10
752.615173
 20
467.350128
 10
752.718994
 20
467.925354
  0
LWPOLYLINE
  5
1A9
330
1A0
100
AcDbEntity
  8
0
  6
Continuous
 62
     0
370
    30
100
AcDbPolyline
 90
       15
 70
     0
 43
0.0
 10
750.658264
 20
427.950439
 10
750.647949
 20
428.249481
 10
750.609863
 20
428.586243
 10
750.537476
 20
428.954071
 10
750.426514
 20
429.343079
 10
750.273926
 20
429.742218
 10
750.080017
 20
430.139374
 10
749.848145
 20
430.522583
 10
749.584167
 20
430.881226
 10
749.296448
 20
431.20575
 10
748.996643
 20
431.488434
 10
748.698303
 20
431.723389
 10
748.416382
 20
431.908722
 10
748.166504
 20
432.044922
 10
747.949768
 20
432.140869
  0
LINE
  5
1AA
330
1A0
100
AcDbEntity
  8
0
  6
Continuous
 62
     0
370
    30
100
AcDbLine
 10
748.875518
 20
479.033632
 30
0.0
 11
752.758509
 21
477.512569
 31
0.0
  0
LINE
  5
1AB
330
1A0
100
AcDbEntity
  8
0
  6
Continuous
 62
     0
370
    30
100
AcDbLine
 10
780.780705
 20
466.535578
 30
0.0
 11
813.73069
 21
453.62825
 31
0.0
  0
LINE
  5
1AC
330
1A0
100
AcDbEntity
  8
0
  6
Continuous
 62
     0
370
    30
100
AcDbLine
 10
732.827008
 20
438.064799
 30
0.0
 11
747.949731
 21
432.140852
 31
0.0
  0
LINE
  5
1AD
330
1A0
100
AcDbEntity
  8
0
  6
Continuous
 62
     0
370
    30
100
AcDbLine
 10
779.471115
 20
419.793143
 30
0.0
 11
797.68218
 21
412.659417
 31
0.0
  0
LINE
  5
1AE
330
1A0
100
AcDbEntity
  8
0
  6
Continuous
 62
     0
370
    30
100
AcDbLine
 10
792.603867
 20
414.648718
 30
0.0
 11
792.49128
 21
387.314116
 31
0.0
  0
LINE
  5
1AF
330
1A0
100
AcDbEntity
  8
0
  6
Continuous
 62
     0
370
    30
100
AcDbLine
 10
750.658296
 20
427.950014
 30
0.0
 11
750.491636
 21
387.487105
 31
0.0
  0
ELLIPSE
  5
1B0
330
1A0
100
AcDbEntity
  8
0
  6
Continuous
 62
     0
370
    30
100
AcDbEllipse
 10
805.706435
 20
433.143834
 30
0.0
 11
-7.458979152325647
 21
-19.04137378780515
 31
0.0
210
0.0
220
0.0
230
-1.0
 40
0.748293
 41
6.251020843836748
 42
8.970350136197055
  0
ELLIPSE
  5
1B1
330
1A0
100
AcDbEntity
  8
0
  6
Continuous
 62
     0
370
    30
100
AcDbEllipse
 10
771.475767
 20
383.590881
 30
0.0
 11
-23.99979642593139
 21
0.09885096788026826
 31
0.0
210
0.0
220
0.0
230
1.0
 40
0.304725
 41
0.000000035007143
 42
0.927214398782267
  0
ELLIPSE
  5
1B2
330
1A0
100
AcDbEntity
  8
0
  6
Continuous
 62
     0
370
    30
100
AcDbEllipse
 10
771.475767
 20
383.590881
 30
0.0
 11
-23.99979642593139
 21
0.09885096788026826
 31
0.0
210
0.0
220
0.0
230
1.0
 40
0.304725
 41
0.927214398782267
 42
3.141592688596934
  0
ELLIPSE
  5
1B3
330
1A0
100
AcDbEntity
  8
0
  6
Continuous
 62
     0
370
    30
100
AcDbEllipse
 10
771.491458
 20
387.400611
 30
0.0
 11
-23.99979642593139
 21
0.09885096788026826
 31
0.0
210
0.0
220
0.0
230
1.0
 40
0.304725
 41
5.777824831902565
 42
7.210399705961851
  0
ELLIPSE
  5
1B4
330
1A0
100
AcDbEntity
  8
0
  6
Continuous
 62
     0
370
    30
100
AcDbEllipse
 10
771.491458
 20
387.400611
 30
0.0
 11
-23.99979642593139
 21
0.09885096788026826
 31
0.0
210
0.0
220
0.0
230
1.0
 40
0.304725
 41
0.9272143987822643
 42
3.646953198881094
  0
LINE
  5
1B5
330
1A0
100
AcDbEntity
  8
0
  6
Continuous
 62
     0
370
    30
100
AcDbLine
 10
795.475563
 20
383.492031
 30
0.0
 11
795.491255
 21
387.30176
 31
0.0
  0
LINE
  5
1B6
330
1A0
100
AcDbEntity
  8
0
  6
Continuous
 62
     0
370
    30
100
AcDbLine
 10
747.47597
 20
383.689732
 30
0.0
 11
747.491662
 21
387.499461
 31
0.0
  0
ELLIPSE
  5
1B7
330
1A0
100
AcDbEntity
  8
0
  6
Continuous
 62
     0
370
    30
100
AcDbEllipse
 10
685.273054
 20
627.191355
 30
0.0
 11
3.210512962538396
 21
-13.62690744510188
 31
0.0
210
0.0
220
0.0
230
0.9999999999999999
 40
0.589236
 41
6.258698426912879
 42
7.46726110254282
  0
ELLIPSE
  5
1B8
330
1A0
100
AcDbEntity
  8
0
  6
Continuous
 62
     0
370
    30
100
AcDbEllipse
 10
685.273054
 20
627.191355
 30
0.0
 11
3.210512962538396
 21
-13.62690744510188
 31
0.0
210
0.0
220
0.0
230
0.9999999999999999
 40
0.589236
 41
1.184075795363234
 42
3.166082109226545
  0
ELLIPSE
  5
1B9
330
1A0
100
AcDbEntity
  8
0
  6
Continuous
 62
     0
370
     0
100
AcDbEllipse
 10
744.648439
 20
641.180255
 30
0.0
 11
3.210512962538396
 21
-13.62690744510188
 31
0.0
210
0.0
220
0.0
230
0.9999999999999999
 40
0.589236
 41
6.283185288165622
 42
7.46726110254282
  0
ELLIPSE
  5
1BA
330
1A0
100
AcDbEntity
  8
0
  6
Continuous
 62
     0
370
     0
100
AcDbEllipse
 10
744.648439
 20
641.180255
 30
0.0
 11
3.210512962538396
 21
-13.62690744510188
 31
0.0
210
0.0
220
0.0
230
0.9999999999999999
 40
0.589236
 41
1.184075795363234
 42
3.14159263457583
  0
ELLIPSE
  5
1BB
330
1A0
100
AcDbEntity
  8
0
  6
Continuous
 62
     0
370
     0
100
AcDbEllipse
 10
767.341114
 20
618.932938
 30
0.0
 11
-13.99988124845998
 21
0.05766306459682032
 31
0.0
210
0.0
220
0.0
230
1.0
 40
0.304725
 41
6.283185263246194
 42
8.521017136767675
  0
ELLIPSE
  5
1BC
330
1A0
100
AcDbEntity
  8
0
  6
Continuous
 62
     0
370
     0
100
AcDbEllipse
 10
767.341114
 20
618.932938
 30
0.0
 11
-13.99988124845998
 21
0.05766306459682032
 31
0.0
210
0.0
220
0.0
230
1.0
 40
0.304725
 41
2.237831829588089
 42
3.141592688596938
  0
LINE
  5
1BD
330
1A0
100
AcDbEntity
  8
0
  6
Continuous
 62
     0
370
    30
100
AcDbLine
 10
781.340996
 20
618.875275
 30
0.0
 11
780.713625
 21
466.557425
 31
0.0
  0
LINE
  5
1BE
330
1A0
100
AcDbEntity
  8
0
  6
Continuous
 62
     0
370
    30
100
AcDbLine
 10
753.341233
 20
618.990601
 30
0.0
 11
752.708085
 21
465.26998
 31
0.0
  0
LWPOLYLINE
  5
1BF
330
1A0
100
AcDbEntity
  8
0
  6
Continuous
 62
     0
370
    30
100
AcDbPolyline
 90
       41
 70
     0
 43
0.0
 10
781.341003
 20
618.875305
 10
781.319092
 20
620.520264
 10
781.239563
 20
622.157166
 10
781.102234
 20
623.783264
 10
780.906677
 20
625.396057
 10
780.652954
 20
626.993225
 10
780.340881
 20
628.57251
 10
779.970337
 20
630.131714
 10
779.54126
 20
631.668457
 10
779.053711
 20
633.180542
 10
778.507812
 20
634.665466
 10
777.903687
 20
636.12085
 10
777.241577
 20
637.544189
 10
776.521973
 20
638.932983
 10
775.745483
 20
640.284546
 10
774.912659
 20
641.596375
 10
774.02417
 20
642.865784
 10
773.080994
 20
644.090149
 10
772.084412
 20
645.266724
 10
771.035828
 20
646.392761
 10
769.936707
 20
647.465515
 10
768.788757
 20
648.482422
 10
767.594238
 20
649.440979
 10
766.35553
 20
650.338562
 10
765.074829
 20
651.172791
 10
763.754822
 20
651.941467
 10
762.398621
 20
652.6427
 10
761.009338
 20
653.274658
 10
759.590088
 20
653.83551
 10
758.144165
 20
654.323914
 10
756.67511
 20
654.739197
 10
755.18634
 20
655.080566
 10
753.681396
 20
655.34729
 10
752.163818
 20
655.539001
 10
750.637024
 20
655.655762
 10
749.104309
 20
655.697876
 10
747.569031
 20
655.665833
 10
746.034302
 20
655.560425
 10
744.503113
 20
655.382446
 10
742.978394
 20
655.132874
 10
741.437927
 20
654.80719
  0
LWPOLYLINE
  5
1C0
330
1A0
100
AcDbEntity
  8
0
  6
Continuous
 62
     0
370
    30
100
AcDbPolyline
 90
       27
 70
     0
 43
0.0
 10
753.341248
 20
618.990601
 10
753.320312
 20
619.965759
 10
753.251221
 20
620.897522
 10
753.137756
 20
621.778381
 10
752.984802
 20
622.602112
 10
752.797485
 20
623.362732
 10
752.582336
 20
624.055481
 10
752.346436
 20
624.676819
 10
752.097107
 20
625.225342
 10
751.841919
 20
625.700684
 10
751.587952
 20
626.105286
 10
751.341797
 20
626.442932
 10
751.107727
 20
626.719604
 10
750.888977
 20
626.942627
 10
750.687439
 20
627.119629
 10
750.501953
 20
627.259094
 10
750.329773
 20
627.368896
 10
750.166199
 20
627.456238
 10
750.004944
 20
627.526672
 10
749.838745
 20
627.584351
 10
749.659241
 20
627.631348
 10
749.458008
 20
627.66748
 10
749.226807
 20
627.690979
 10
748.958191
 20
627.697876
 10
748.646057
 20
627.682434
 10
748.285828
 20
627.637939
 10
747.858948
 20
627.553345
  0
LINE
  5
1C1
330
1A0
100
AcDbEntity
  8
0
  6
Continuous
 62
     0
370
    30
100
AcDbLine
 10
682.062541
 20
640.818263
 30
0.0
 11
741.437926
 21
654.807163
 31
0.0
  0
LINE
  5
1C2
330
1A0
100
AcDbEntity
  8
0
  6
Continuous
 62
     0
370
    30
100
AcDbLine
 10
688.483567
 20
613.564448
 30
0.0
 11
747.858952
 21
627.553348
 31
0.0
  0
ELLIPSE
  5
1C3
330
1A0
100
AcDbEntity
  8
0
  6
Continuous
 62
     0
370
    30
100
AcDbEllipse
 10
675.779024
 20
611.157685
 30
0.0
 11
-1.999983035494283
 21
0.008237580656689864
 31
0.0
210
0.0
220
0.0
230
1.0
 40
0.304725
 41
1.525345207851037
 42
2.237831829588073
  0
ELLIPSE
  5
1C4
330
1A0
100
AcDbEntity
  8
0
  6
Continuous
 62
     0
370
    30
100
AcDbEllipse
 10
675.779024
 20
611.157685
 30
0.0
 11
-1.999983035494283
 21
0.008237580656689864
 31
0.0
210
0.0
220
0.0
230
1.0
 40
0.304725
 41
2.237831829588073
 42
2.950318451325138
  0
ELLIPSE
  5
1C5
330
1A0
100
AcDbEntity
  8
0
  6
Continuous
 62
     0
370
    30
100
AcDbEllipse
 10
607.774497
 20
600.369045
 30
0.0
 11
11.49990245409212
 21
-0.04736608877596681
 31
0.0
210
0.0
220
0.0
230
-1.0
 40
0.304725
 41
0.6485784333808994
 42
1.273269573069618
  0
ELLIPSE
  5
1C6
330
1A0
100
AcDbEntity
  8
0
  6
Continuous
 62
     0
370
    30
100
AcDbEllipse
 10
607.774497
 20
600.369045
 30
0.0
 11
11.49990245409212
 21
-0.04736608877596681
 31
0.0
210
0.0
220
0.0
230
-1.0
 40
0.304725
 41
0.5342520749338
 42
0.6485784333808994
  0
LWPOLYLINE
  5
1C7
330
1A0
100
AcDbEntity
  8
0
  6
Continuous
 62
     0
370
    30
100
AcDbPolyline
 90
        8
 70
     0
 43
0.0
 10
617.664551
 20
598.543884
 10
618.088013
 20
598.394714
 10
618.444458
 20
598.225403
 10
618.736389
 20
598.047363
 10
618.9646
 20
597.869446
 10
619.128906
 20
597.69928
 10
619.228821
 20
597.544128
 10
619.26239
 20
597.406311
  0
LWPOLYLINE
  5
1C8
330
1A0
100
AcDbEntity
  8
0
  6
Continuous
 62
     0
370
    30
100
AcDbPolyline
 90
       10
 70
     0
 43
0.0
 10
602.986084
 20
593.421143
 10
603.862854
 20
593.65741
 10
604.751953
 20
593.951538
 10
605.648499
 20
594.295654
 10
606.54834
 20
594.681946
 10
607.449097
 20
595.102661
 10
608.349304
 20
595.549683
 10
609.247986
 20
596.014343
 10
610.144531
 20
596.487122
 10
611.131958
 20
597.004822
  0
LINE
  5
1C9
330
1A0
100
AcDbEntity
  8
0
  6
Continuous
 62
     0
370
    30
100
AcDbLine
 10
617.664535
 20
598.543896
 30
0.0
 11
611.131969
 21
597.004816
 31
0.0
  0
ELLIPSE
  5
1CA
330
1A0
100
AcDbEntity
  8
0
  6
Continuous
 62
     0
370
     0
100
AcDbEllipse
 10
594.833725
 20
605.883759
 30
0.0
 11
3.095851785304862
 21
-13.14023217920539
 31
0.0
210
0.0
220
0.0
230
1.0
 40
0.589236
 41
0.0
 42
6.283185307179586
  0
ELLIPSE
  5
1CB
330
1A0
100
AcDbEntity
  8
0
  6
Continuous
 62
     0
370
     0
100
AcDbEllipse
 10
595.22694
 20
605.9764
 30
0.0
 11
3.210512962538375
 21
-13.62690744510188
 31
0.0
210
0.0
220
0.0
230
1.0
 40
0.589236
 41
6.283185123361969
 42
7.467261102542821
  0
ELLIPSE
  5
1CC
330
1A0
100
AcDbEntity
  8
0
  6
Continuous
 62
     0
370
     0
100
AcDbEllipse
 10
595.22694
 20
605.9764
 30
0.0
 11
3.210512962538375
 21
-13.62690744510188
 31
0.0
210
0.0
220
0.0
230
1.0
 40
0.589236
 41
1.184075795363235
 42
3.141611763230169
  0
ELLIPSE
  5
1CD
330
1A0
100
AcDbEntity
  8
0
  6
Continuous
 62
     0
370
    30
100
AcDbEllipse
 10
607.735268
 20
590.844722
 30
0.0
 11
10.99990669521855
 21
-0.04530669361179417
 31
0.0
210
0.0
220
0.0
230
-1.0
 40
0.304725
 41
0.6485784333808933
 42
0.9037608240017078
  0
LINE
  5
1CE
330
1A0
100
AcDbEntity
  8
0
  6
Continuous
 62
     0
370
     0
100
AcDbLine
 10
616.49323
 20
588.783859
 30
0.0
 11
616.787772
 21
589.065509
 31
0.0
  0
LINE
  5
1CF
330
1A0
100
AcDbEntity
  8
0
  6
Continuous
 62
     0
370
    30
100
AcDbLine
 10
611.893817
 20
588.037963
 30
0.0
 11
611.91147
 21
592.323908
 31
0.0
  0
LINE
  5
1D0
330
1A0
100
AcDbEntity
  8
0
  6
Continuous
 62
     0
370
    30
100
AcDbLine
 10
617.186996
 20
593.566827
 30
0.0
 11
617.169343
 21
589.280882
 31
0.0
  0
ELLIPSE
  5
1D1
330
1A0
100
AcDbEntity
  8
0
  6
Continuous
 62
     0
370
    30
100
AcDbEllipse
 10
607.754882
 20
595.606884
 30
0.0
 11
-11.49990245409212
 21
0.04736608877596681
 31
0.0
210
0.0
220
0.0
230
1.0
 40
0.304725
 41
2.493014220208894
 42
2.53379475108559
  0
ELLIPSE
  5
1D2
330
1A0
100
AcDbEntity
  8
0
  6
Continuous
 62
     0
370
    30
100
AcDbEllipse
 10
607.754882
 20
595.606884
 30
0.0
 11
-11.49990245409212
 21
0.04736608877596681
 31
0.0
210
0.0
220
0.0
230
1.0
 40
0.304725
 41
1.941868908090585
 42
2.493014220208894
  0
ARC
  5
1D3
330
1A0
100
AcDbEntity
  8
0
  6
Continuous
 62
     0
370
    30
100
AcDbCircle
 10
610.981375
 20
599.798263
 30
0.0
 40
12.20271488668992
100
AcDbArc
 50
298.413293
 51
300.470697
  0
LWPOLYLINE
  5
1D4
330
1A0
100
AcDbEntity
  8
0
  6
Continuous
 62
     0
370
    30
100
AcDbPolyline
 90
        5
 70
     0
 43
0.0
 10
616.787781
 20
589.065491
 10
616.290649
 20
588.812622
 10
615.78833
 20
588.589905
 10
615.282104
 20
588.400024
 10
614.529602
 20
588.183228
  0
ARC
  5
1D5
330
1A0
100
AcDbEntity
  8
0
  6
Continuous
 62
     0
370
    30
100
AcDbCircle
 10
612.804685
 20
595.497218
 30
0.0
 40
7.514663344833425
100
AcDbArc
 50
263.037946
 51
283.270136
  0
ELLIPSE
  5
1D6
330
1A0
100
AcDbEntity
  8
0
  6
Continuous
 62
     0
370
    30
100
AcDbEllipse
 10
607.735268
 20
590.844722
 30
0.0
 11
10.99990669521855
 21
-0.04530669361179417
 31
0.0
210
0.0
220
0.0
230
-1.0
 40
0.304725
 41
0.9037608240017078
 42
2.815925205449514
  0
ELLIPSE
  5
1D7
330
1A0
100
AcDbEntity
  8
0
  6
Continuous
 62
     0
370
    30
100
AcDbEllipse
 10
607.735268
 20
590.844722
 30
0.0
 11
10.99990669521855
 21
-0.04530669361179417
 31
0.0
210
0.0
220
0.0
230
-1.0
 40
0.304725
 41
0.3256673781259983
 42
0.6485784333808933
  0
ELLIPSE
  5
1D8
330
1A0
100
AcDbEntity
  8
0
  6
Continuous
 62
     0
370
    30
100
AcDbEllipse
 10
607.737229
 20
591.320938
 30
0.0
 11
11.49990245409212
 21
-0.04736608877596681
 31
0.0
210
0.0
220
0.0
230
-1.0
 40
0.304725
 41
1.199723745499214
 42
3.141592618582655
  0
ELLIPSE
  5
1D9
330
1A0
100
AcDbEntity
  8
0
  6
Continuous
 62
     0
370
    30
100
AcDbEllipse
 10
607.737229
 20
591.320938
 30
0.0
 11
11.49990245409212
 21
-0.04736608877596681
 31
0.0
210
0.0
220
0.0
230
-1.0
 40
0.304725
 41
6.283185272172432
 42
6.890983209683796
  0
LWPOLYLINE
  5
1DA
330
1A0
100
AcDbEntity
  8
0
  6
Continuous
 62
     0
370
     0
100
AcDbPolyline
 90
       12
 70
     0
 43
0.0
 10
671.749512
 20
609.621887
 10
672.252991
 20
609.457764
 10
672.825928
 20
609.316406
 10
673.457397
 20
609.200806
 10
674.134888
 20
609.113159
 10
674.844788
 20
609.055237
 10
675.57312
 20
609.028076
 10
676.305481
 20
609.032349
 10
677.027405
 20
609.067871
 10
677.724609
 20
609.134033
 10
678.38324
 20
609.229431
 10
678.994202
 20
609.353088
  0
LWPOLYLINE
  5
1DB
330
1A0
100
AcDbEntity
  8
0
  6
Continuous
 62
     0
370
     0
100
AcDbPolyline
 90
        8
 70
     0
 43
0.0
 10
678.994202
 20
609.353088
 10
679.469727
 20
609.480225
 10
679.890198
 20
609.624207
 10
680.249207
 20
609.78302
 10
680.541504
 20
609.954224
 10
680.762634
 20
610.135254
 10
680.909363
 20
610.323425
 10
680.979858
 20
610.518555
  0
LWPOLYLINE
  5
1DC
330
1A0
100
AcDbEntity
  8
0
  6
Continuous
 62
     0
370
     0
100
AcDbPolyline
 90
        9
 70
     0
 43
0.0
 10
673.202759
 20
609.964294
 10
673.84137
 20
609.855347
 10
674.526184
 20
609.777527
 10
675.240845
 20
609.732605
 10
675.968323
 20
609.721619
 10
676.691345
 20
609.744934
 10
677.392456
 20
609.801941
 10
678.055298
 20
609.891235
 10
678.690796
 20
610.01709
  0
LWPOLYLINE
  5
1DD
330
1A0
100
AcDbEntity
  8
0
  6
Continuous
 62
     0
370
     0
100
AcDbPolyline
 90
       11
 70
     0
 43
0.0
 10
678.690796
 20
610.01709
 10
679.126221
 20
610.133667
 10
679.510437
 20
610.26593
 10
679.837585
 20
610.411804
 10
680.1026
 20
610.569092
 10
680.301453
 20
610.735413
 10
680.431152
 20
610.908142
 10
680.489624
 20
611.084778
 10
680.475769
 20
611.262451
 10
680.390259
 20
611.438538
 10
680.224915
 20
611.618713
  0
ELLIPSE
  5
1DE
330
1A0
100
AcDbEntity
  8
0
  6
Continuous
 62
     0
370
    30
100
AcDbEllipse
 10
685.273054
 20
627.191355
 30
0.0
 11
3.09585178530486
 21
-13.14023217920538
 31
0.0
210
0.0
220
0.0
230
1.0
 40
0.589236
 41
0.8000647435304433
 42
1.184075795363231
  0
ELLIPSE
  5
1DF
330
1A0
100
AcDbEntity
  8
0
  6
Continuous
 62
     0
370
    30
100
AcDbEllipse
 10
685.273054
 20
627.191355
 30
0.0
 11
3.09585178530486
 21
-13.14023217920538
 31
0.0
210
0.0
220
0.0
230
1.0
 40
0.589236
 41
1.184075795363231
 42
2.341527872031443
  0
ELLIPSE
  5
1E0
330
1A0
100
AcDbEntity
  8
0
  6
Continuous
 62
     0
370
    30
100
AcDbEllipse
 10
684.879839
 20
627.098713
 30
0.0
 11
3.210512962538375
 21
-13.62690744510188
 31
0.0
210
0.0
220
0.0
230
1.0
 40
0.589236
 41
6.283185288165623
 42
7.467261102542819
  0
ELLIPSE
  5
1E1
330
1A0
100
AcDbEntity
  8
0
  6
Continuous
 62
     0
370
    30
100
AcDbEllipse
 10
684.879839
 20
627.098713
 30
0.0
 11
3.210512962538375
 21
-13.62690744510188
 31
0.0
210
0.0
220
0.0
230
1.0
 40
0.589236
 41
1.184075795363233
 42
3.14159263457584
  0
LINE
  5
1E2
330
1A0
100
AcDbEntity
  8
0
  6
Continuous
 62
     0
370
    30
100
AcDbLine
 10
693.037919
 20
619.531083
 30
0.0
 11
692.932292
 21
619.154728
 31
0.0
  0
LINE
  5
1E3
330
1A0
100
AcDbEntity
  8
0
  6
Continuous
 62
     0
370
    30
100
AcDbLine
 10
688.801517
 20
637.512345
 30
0.0
 11
688.538986
 21
637.801962
 31
0.0
  0
LINE
  5
1E4
330
1A0
100
AcDbEntity
  8
0
  6
Continuous
 62
     0
370
    30
100
AcDbLine
 10
592.016427
 20
619.603308
 30
0.0
 11
681.669326
 21
640.72562
 31
0.0
  0
LINE
  5
1E5
330
1A0
100
AcDbEntity
  8
0
  6
Continuous
 62
     0
370
    30
100
AcDbLine
 10
598.437452
 20
592.349493
 30
0.0
 11
602.986057
 21
593.421149
 31
0.0
  0
LINE
  5
1E6
330
1A0
100
AcDbEntity
  8
0
  6
Continuous
 62
     0
370
    30
100
AcDbLine
 10
619.261771
 20
597.255723
 30
0.0
 11
688.090352
 21
613.471805
 31
0.0
  0
LWPOLYLINE
  5
1E7
330
1A0
100
AcDbEntity
  8
0
  6
Continuous
 62
     0
370
    30
100
AcDbPolyline
 90
        7
 70
     0
 43
0.0
 10
680.377014
 20
611.654541
 10
680.553284
 20
611.517883
 10
680.706543
 20
611.365723
 10
680.83374
 20
611.19458
 10
680.928711
 20
611.002258
 10
680.982361
 20
610.791016
 10
680.979858
 20
610.518555
  0
LWPOLYLINE
  5
1E8
330
1A0
100
AcDbEntity
  8
0
  6
Continuous
 62
     0
370
    30
100
AcDbPolyline
 90
       15
 70
     0
 43
0.0
 10
677.468384
 20
606.961853
 10
676.945618
 20
606.861267
 10
676.409668
 20
606.800354
 10
675.86499
 20
606.777039
 10
675.318726
 20
606.790771
 10
674.779358
 20
606.841614
 10
674.251892
 20
606.931152
 10
673.738831
 20
607.062378
 10
673.240967
 20
607.240417
 10
672.761719
 20
607.470276
 10
672.308228
 20
607.754883
 10
671.889526
 20
608.09375
 10
671.514709
 20
608.483765
 10
671.191772
 20
608.919617
 10
670.913147
 20
609.424866
  0
LWPOLYLINE
  5
1E9
330
1A0
100
AcDbEntity
  8
0
  6
Continuous
 62
     0
370
    30
100
AcDbPolyline
 90
       11
 70
     0
 43
0.0
 10
680.979126
 20
610.513977
 10
680.862671
 20
609.994324
 10
680.68042
 20
609.494263
 10
680.43573
 20
609.022095
 10
680.133728
 20
608.585388
 10
679.78009
 20
608.190857
 10
679.382019
 20
607.844116
 10
678.947754
 20
607.548828
 10
678.486023
 20
607.306396
 10
678.004333
 20
607.115173
 10
677.468384
 20
606.961853
  0
LINE
  5
1EA
330
1A0
100
AcDbEntity
  8
0
  6
Continuous
 62
     0
370
    30
100
AcDbLine
 10
618.152574
 20
589.729372
 30
0.0
 11
618.628049
 21
590.15489
 31
0.0
  0
LINE
  5
1EB
330
1A0
100
AcDbEntity
  8
0
  6
Continuous
 62
     0
370
    30
100
AcDbLine
 10
596.837173
 20
590.244643
 30
0.0
 11
597.309127
 21
589.815222
 31
0.0
  0
LWPOLYLINE
  5
1EC
330
1A0
100
AcDbEntity
  8
0
  6
Continuous
 62
     0
370
    30
100
AcDbPolyline
 90
       44
 70
     0
 43
0.0
 10
592.016418
 20
619.603333
 10
591.406372
 20
619.419495
 10
590.818787
 20
619.161133
 10
590.257874
 20
618.830688
 10
589.727234
 20
618.430908
 10
589.229248
 20
617.964966
 10
588.766052
 20
617.436157
 10
588.340027
 20
616.847839
 10
587.952942
 20
616.203369
 10
587.606079
 20
615.506165
 10
587.300659
 20
614.759949
 10
587.037659
 20
613.968567
 10
586.818176
 20
613.136108
 10
586.643127
 20
612.266602
 10
586.513306
 20
611.36438
 10
586.429016
 20
610.434143
 10
586.390808
 20
609.480652
 10
586.398682
 20
608.508789
 10
586.452393
 20
607.523621
 10
586.551758
 20
606.530334
 10
586.696289
 20
605.533997
 10
586.885071
 20
604.539795
 10
587.117188
 20
603.553101
 10
587.391418
 20
602.579041
 10
587.706299
 20
601.62262
 10
588.060181
 20
600.688965
 10
588.451294
 20
599.78302
 10
588.877686
 20
598.909424
 10
589.337036
 20
598.072632
 10
589.827209
 20
597.277161
 10
590.345764
 20
596.5271
 10
590.890198
 20
595.826294
 10
591.457886
 20
595.178528
 10
592.046204
 20
594.586975
 10
592.652405
 20
594.054688
 10
593.273804
 20
593.584656
 10
593.907654
 20
593.179626
 10
594.551331
 20
592.842285
 10
595.201782
 20
592.574829
 10
595.85553
 20
592.37915
 10
596.508911
 20
592.257141
 10
597.158325
 20
592.210571
 10
597.799622
 20
592.240601
 10
598.437439
 20
592.349487
  0
LINE
  5
1ED
330
1A0
100
AcDbEntity
  8
0
  6
Continuous
 62
     0
370
    30
100
AcDbLine
 10
596.241156
 20
592.298162
 30
0.0
 11
596.237327
 21
591.368304
 31
0.0
  0
LINE
  5
1EE
330
1A0
100
AcDbEntity
  8
0
  6
Continuous
 62
     0
370
    30
100
AcDbLine
 10
619.262405
 20
597.409651
 30
0.0
 11
619.237131
 21
591.273572
 31
0.0
  0
ELLIPSE
  5
1EF
330
1A0
100
AcDbEntity
  8
0
  6
Continuous
 62
     0
370
     0
100
AcDbEllipse
 10
809.147514
 20
421.090243
 30
0.0
 11
-0.2999974672449702
 21
0.001235637147603398
 31
0.0
210
0.0
220
0.0
230
1.0
 40
0.304725
 41
0.667035502793202
 42
2.237831829587871
  0
LWPOLYLINE
  5
1F0
330
1A0
100
AcDbEntity
  8
0
  6
Continuous
 62
     0
370
     0
100
AcDbPolyline
 90
        6
 70
     0
 43
0.0
 10
823.42041
 20
402.930054
 10
823.206482
 20
402.994476
 10
823.037964
 20
403.049103
 10
822.915833
 20
403.094543
 10
822.839844
 20
403.132172
 10
822.808228
 20
403.169586
  0
LWPOLYLINE
  5
1F1
330
1A0
100
AcDbEntity
  8
0
  6
Continuous
 62
     0
370
     0
100
AcDbPolyline
 90
       14
 70
     0
 43
0.0
 10
824.111694
 20
403.976929
 10
824.09082
 20
407.084625
 10
824.116028
 20
410.180725
 10
824.148682
 20
413.274994
 10
824.163757
 20
416.374084
 10
824.174927
 20
419.474213
 10
824.188416
 20
422.5737
 10
824.201233
 20
425.673401
 10
824.213257
 20
428.773254
 10
824.227417
 20
431.87262
 10
824.238708
 20
434.972656
 10
824.2323
 20
438.076904
 10
824.231079
 20
441.179626
 10
824.278442
 20
444.458771
  0
LWPOLYLINE
  5
1F2
330
1A0
100
AcDbEntity
  8
0
  6
Continuous
 62
     0
370
     0
100
AcDbPolyline
 90
       16
 70
     0
 43
0.0
 10
822.864502
 20
403.984467
 10
822.91803
 20
406.679993
 10
822.921509
 20
409.364502
 10
822.907715
 20
412.044525
 10
822.906799
 20
414.727783
 10
822.919739
 20
417.414581
 10
822.931519
 20
420.101074
 10
822.941711
 20
422.78714
 10
822.952759
 20
425.473419
 10
822.964661
 20
428.159882
 10
822.975281
 20
430.846069
 10
822.984131
 20
433.531921
 10
823.005737
 20
436.22052
 10
823.041626
 20
438.912231
 10
823.062561
 20
441.60083
 10
823.03125
 20
444.466309
  0
LWPOLYLINE
  5
1F3
330
1A0
100
AcDbEntity
  8
0
  6
Continuous
 62
     0
370
     0
100
AcDbPolyline
 90
        6
 70
     0
 43
0.0
 10
822.988464
 20
446.935852
 10
823.009949
 20
446.726044
 10
823.076843
 20
446.521698
 10
823.190125
 20
446.327759
 10
823.35022
 20
446.148987
 10
823.597656
 20
445.964264
  0
LWPOLYLINE
  5
1F4
330
1A0
100
AcDbEntity
  8
0
  6
Continuous
 62
     0
370
     0
100
AcDbPolyline
 90
       12
 70
     0
 43
0.0
 10
822.989075
 20
447.084076
 10
822.623718
 20
446.930786
 10
822.323792
 20
446.75
 10
822.093933
 20
446.546997
 10
821.937073
 20
446.327637
 10
821.854858
 20
446.098328
 10
821.847656
 20
445.865509
 10
821.914795
 20
445.635559
 10
822.054749
 20
445.414581
 10
822.265259
 20
445.20813
 10
822.542908
 20
445.02124
 10
822.894775
 20
444.853424
  0
ARC
  5
1F5
330
1A0
100
AcDbEntity
  8
0
  6
Continuous
 62
     0
370
     0
100
AcDbCircle
 10
823.519129
 20
403.196289
 30
0.0
 40
0.2839351494117324
100
AcDbArc
 50
249.654616
 51
277.740206
  0
LWPOLYLINE
  5
1F6
330
1A0
100
AcDbEntity
  8
0
  6
Continuous
 62
     0
370
     0
100
AcDbPolyline
 90
        5
 70
     0
 43
0.0
 10
822.763367
 20
403.756073
 10
822.814758
 20
403.770386
 10
822.861267
 20
403.812958
 10
822.885376
 20
403.879974
 10
822.864502
 20
403.984467
  0
LWPOLYLINE
  5
1F7
330
1A0
100
AcDbEntity
  8
0
  6
Continuous
 62
     0
370
     0
100
AcDbPolyline
 90
        7
 70
     0
 43
0.0
 10
823.557373
 20
402.914948
 10
823.693115
 20
402.95874
 10
823.823914
 20
403.063019
 10
823.93988
 20
403.223114
 10
824.031433
 20
403.431244
 10
824.090454
 20
403.676727
 10
824.111694
 20
403.976929
  0
LINE
  5
1F8
330
1A0
100
AcDbEntity
  8
0
  6
Continuous
 62
     0
370
     0
100
AcDbLine
 10
822.894779
 20
444.853414
 30
0.0
 11
822.930626
 21
444.826804
 31
0.0
  0
LWPOLYLINE
  5
1F9
330
1A0
100
AcDbEntity
  8
0
  6
Continuous
 62
     0
370
     0
100
AcDbPolyline
 90
        3
 70
     0
 43
0.0
 10
823.597656
 20
445.964264
 10
823.600525
 20
445.962738
 10
823.734253
 20
445.864685
  0
LWPOLYLINE
  5
1FA
330
1A0
100
AcDbEntity
  8
0
  6
Continuous
 62
     0
370
     0
100
AcDbPolyline
 90
        5
 70
     0
 43
0.0
 10
822.930603
 20
444.826813
 10
822.982361
 20
444.769318
 10
823.029236
 20
444.692413
 10
823.053162
 20
444.597412
 10
823.03125
 20
444.466309
  0
LWPOLYLINE
  5
1FB
330
1A0
100
AcDbEntity
  8
0
  6
Continuous
 62
     0
370
     0
100
AcDbPolyline
 90
        7
 70
     0
 43
0.0
 10
823.734253
 20
445.864685
 10
823.868835
 20
445.721649
 10
823.998047
 20
445.532593
 10
824.112183
 20
445.304932
 10
824.201904
 20
445.048035
 10
824.259094
 20
444.773468
 10
824.278442
 20
444.458771
  0
ELLIPSE
  5
1FC
330
1A0
100
AcDbEntity
  8
0
  6
Continuous
 62
     0
370
     0
100
AcDbEllipse
 10
826.398323
 20
425.038307
 30
0.0
 11
7.914833293708256
 21
20.20508385074012
 31
0.0
210
0.0
220
0.0
230
0.9999999999999998
 40
0.748293
 41
3.825630764653109
 42
6.553697273549595
  0
ELLIPSE
  5
1FD
330
1A0
100
AcDbEntity
  8
0
  6
Continuous
 62
     0
370
     0
100
AcDbEllipse
 10
826.213022
 20
425.110894
 30
0.0
 11
8.024254956554755
 21
20.48441681845511
 31
0.0
210
0.0
220
0.0
230
0.9999999999999999
 40
0.748293
 41
2.048071365511558
 42
3.141592785379764
  0
ELLIPSE
  5
1FE
330
1A0
100
AcDbEntity
  8
0
  6
Continuous
 62
     0
370
     0
100
AcDbEllipse
 10
822.560395
 20
402.754111
 30
0.0
 11
0.4091652724968888
 21
0.9580867681118131
 31
0.0
210
0.0
220
0.0
230
1.0
 40
0.789549
 41
5.212523161694446
 42
6.422377477676746
  0
ELLIPSE
  5
1FF
330
1A0
100
AcDbEntity
  8
0
  6
Continuous
 62
     0
370
     0
100
AcDbEllipse
 10
826.398323
 20
425.038307
 30
0.0
 11
7.914833293708256
 21
20.20508385074012
 31
0.0
210
0.0
220
0.0
230
0.9999999999999998
 40
0.748293
 41
2.048071365511559
 42
3.415276020153145
  0
ELLIPSE
  5
200
330
1A0
100
AcDbEntity
  8
0
  6
Continuous
 62
     0
370
     0
100
AcDbEllipse
 10
826.398323
 20
425.038307
 30
0.0
 11
7.914833293708256
 21
20.20508385074012
 31
0.0
210
0.0
220
0.0
230
0.9999999999999998
 40
0.748293
 41
0.6808667108699726
 42
2.048071365511559
  0
ELLIPSE
  5
201
330
1A0
100
AcDbEntity
  8
0
  6
Continuous
 62
     0
370
     0
100
AcDbEllipse
 10
823.482179
 20
403.7425
 30
0.0
 11
-0.9999915177471411
 21
0.004118790328345131
 31
0.0
210
0.0
220
0.0
230
1.0
 40
0.304725
 41
4.032721248684346
 42
5.379424483177894
  0
ELLIPSE
  5
202
330
1A0
100
AcDbEntity
  8
0
  6
Continuous
 62
     0
370
     0
100
AcDbEllipse
 10
826.213022
 20
425.110894
 30
0.0
 11
8.024254956554755
 21
20.48441681845511
 31
0.0
210
0.0
220
0.0
230
0.9999999999999999
 40
0.748293
 41
6.283185300002986
 42
6.545579138547859
  0
ELLIPSE
  5
203
330
1A0
100
AcDbEntity
  8
0
  6
Continuous
 62
     0
370
     0
100
AcDbEllipse
 10
826.213022
 20
425.110894
 30
0.0
 11
8.024254956554755
 21
20.48441681845511
 31
0.0
210
0.0
220
0.0
230
0.9999999999999999
 40
0.748293
 41
0.6752465344958143
 42
2.048071365511558
  0
ELLIPSE
  5
204
330
1A0
100
AcDbEntity
  8
0
  6
Continuous
 62
     0
370
     0
100
AcDbEllipse
 10
822.737645
 20
445.788312
 30
0.0
 11
0.4445833344381706
 21
0.9421741527914175
 31
0.0
210
0.0
220
0.0
230
1.0
 40
0.781474
 41
3.868540960939229
 42
5.241803859298786
  0
ELLIPSE
  5
205
330
1A0
100
AcDbEntity
  8
0
  6
Continuous
 62
     0
370
     0
100
AcDbEllipse
 10
822.745226
 20
402.723599
 30
0.0
 11
0.02921421588516836
 21
1.032284738273809
 31
0.0
210
0.0
220
0.0
230
0.9999999999999998
 40
0.798239
 41
4.921363403921205
 42
6.296619590025439
  0
ELLIPSE
  5
206
330
1A0
100
AcDbEntity
  8
0
  6
Continuous
 62
     0
370
     0
100
AcDbEllipse
 10
822.922129
 20
445.673348
 30
0.0
 11
-0.6229026779384351
 21
-0.8236853192208365
 31
0.0
210
0.0
220
0.0
230
-1.0
 40
0.658446
 41
4.040914363693593
 42
5.418482185465964
  0
ELLIPSE
  5
207
330
1A0
100
AcDbEntity
  8
0
  6
Continuous
 62
     0
370
     0
100
AcDbEllipse
 10
823.648917
 20
444.224347
 30
0.0
 11
-0.9999915177471413
 21
0.004118790328342239
 31
0.0
210
0.0
220
0.0
230
1.0
 40
0.304725
 41
4.032721248684339
 42
5.379424483177893
  0
ELLIPSE
  5
208
330
1A0
100
AcDbEntity
  8
0
  6
Continuous
 62
     0
370
     0
100
AcDbEllipse
 10
826.669003
 20
490.756137
 30
0.0
 11
-3.199972844870037
 21
0.01318012900160522
 31
0.0
210
0.0
220
0.0
230
1.0
 40
0.304725
 41
0.0
 42
6.283185307179586
  0
ELLIPSE
  5
209
330
1A0
100
AcDbEntity
  8
0
  6
Continuous
 62
     0
370
     0
100
AcDbEllipse
 10
826.667826
 20
490.470408
 30
0.0
 11
-3.499970312115007
 21
0.01441576614920861
 31
0.0
210
0.0
220
0.0
230
1.0
 40
0.304725
 41
6.283173332845378
 42
6.95022080997281
  0
ELLIPSE
  5
20A
330
1A0
100
AcDbEntity
  8
0
  6
Continuous
 62
     0
370
     0
100
AcDbEllipse
 10
826.667826
 20
490.470408
 30
0.0
 11
-3.499970312115007
 21
0.01441576614920861
 31
0.0
210
0.0
220
0.0
230
1.0
 40
0.304725
 41
0.6670355027932242
 42
3.141593945079055
  0
ELLIPSE
  5
20B
330
1A0
100
AcDbEntity
  8
0
  6
Continuous
 62
     0
370
     0
100
AcDbEllipse
 10
826.301427
 20
401.513229
 30
0.0
 11
-3.499970312115007
 21
0.01441576614920861
 31
0.0
210
0.0
220
0.0
230
1.0
 40
0.304725
 41
0.0000000350071394
 42
0.6670355027931842
  0
ELLIPSE
  5
20C
330
1A0
100
AcDbEntity
  8
0
  6
Continuous
 62
     0
370
     0
100
AcDbEllipse
 10
826.301427
 20
401.513229
 30
0.0
 11
-3.499970312115007
 21
0.01441576614920861
 31
0.0
210
0.0
220
0.0
230
1.0
 40
0.304725
 41
0.6670355027931842
 42
3.141592688596978
  0
ELLIPSE
  5
20D
330
1A0
100
AcDbEntity
  8
0
  6
Continuous
 62
     0
370
    30
100
AcDbEllipse
 10
810.264329
 20
431.358393
 30
0.0
 11
-2.292326525039883
 21
-22.19654260814342
 31
0.0
210
0.0
220
0.0
230
-1.0
 40
0.77957
 41
2.877168083120847
 42
3.35444313866972
  0
ELLIPSE
  5
20E
330
1A0
100
AcDbEntity
  8
0
  6
Continuous
 62
     0
370
    30
100
AcDbEllipse
 10
810.264329
 20
431.358393
 30
0.0
 11
-2.292326525039883
 21
-22.19654260814342
 31
0.0
210
0.0
220
0.0
230
-1.0
 40
0.77957
 41
0.2128504754243187
 42
1.30637175632595
  0
ELLIPSE
  5
20F
330
1A0
100
AcDbEntity
  8
0
  6
Continuous
 62
     0
370
    30
100
AcDbEllipse
 10
810.264329
 20
431.358393
 30
0.0
 11
-2.292326525039883
 21
-22.19654260814342
 31
0.0
210
0.0
220
0.0
230
-1.0
 40
0.77957
 41
1.30637175632595
 42
2.877168083120847
  0
LWPOLYLINE
  5
210
330
1A0
100
AcDbEntity
  8
0
  6
Continuous
 62
     0
370
    30
100
AcDbPolyline
 90
       15
 70
     0
 43
0.0
 10
818.795227
 20
449.873505
 10
818.361328
 20
449.916534
 10
817.923706
 20
449.934875
 10
817.495544
 20
449.926178
 10
817.090393
 20
449.888855
 10
816.721375
 20
449.822296
 10
816.400452
 20
449.728394
 10
816.137939
 20
449.610657
 10
815.941528
 20
449.473969
 10
815.816772
 20
449.324371
 10
815.766663
 20
449.168427
 10
815.792114
 20
449.012909
 10
815.892029
 20
448.864319
 10
816.06366
 20
448.728729
 10
816.309387
 20
448.608398
  0
LWPOLYLINE
  5
211
330
1A0
100
AcDbEntity
  8
0
  6
Continuous
 62
     0
370
    30
100
AcDbPolyline
 90
       19
 70
     0
 43
0.0
 10
816.309387
 20
448.608398
 10
816.60376
 20
448.515259
 10
816.948059
 20
448.446136
 10
817.331604
 20
448.402435
 10
817.74292
 20
448.383575
 10
818.170227
 20
448.388489
 10
818.60083
 20
448.414978
 10
819.021729
 20
448.460052
 10
819.420471
 20
448.520813
 10
819.785583
 20
448.594391
 10
820.105774
 20
448.678101
 10
820.371582
 20
448.769653
 10
820.575562
 20
448.867554
 10
820.710754
 20
448.970306
 10
820.773315
 20
449.07666
 10
820.76178
 20
449.185547
 10
820.675781
 20
449.295868
 10
820.518188
 20
449.405945
 10
820.285767
 20
449.517059
  0
LWPOLYLINE
  5
212
330
1A0
100
AcDbEntity
  8
0
  6
Continuous
 62
     0
370
    30
100
AcDbPolyline
 90
       21
 70
     0
 43
0.0
 10
823.675415
 20
400.640991
 10
823.961304
 20
400.542114
 10
824.279785
 20
400.456024
 10
824.627136
 20
400.383301
 10
824.998657
 20
400.324646
 10
825.389404
 20
400.28067
 10
825.793884
 20
400.251953
 10
826.205872
 20
400.238861
 10
826.619263
 20
400.241638
 10
827.027893
 20
400.260193
 10
827.425659
 20
400.294281
 10
827.806763
 20
400.343506
 10
828.165771
 20
400.407227
 10
828.497864
 20
400.484802
 10
828.799133
 20
400.575623
 10
829.066467
 20
400.679565
 10
829.298096
 20
400.797363
 10
829.493164
 20
400.931946
 10
829.649719
 20
401.089661
 10
829.759094
 20
401.278687
 10
829.801392
 20
401.49881
  0
LWPOLYLINE
  5
213
330
1A0
100
AcDbEntity
  8
0
  6
Continuous
 62
     0
370
    30
100
AcDbPolyline
 90
        7
 70
     0
 43
0.0
 10
822.801453
 20
401.527649
 10
822.835022
 20
401.326477
 10
822.927002
 20
401.147919
 10
823.061646
 20
400.996216
 10
823.229919
 20
400.865601
 10
823.429443
 20
400.750305
 10
823.675415
 20
400.640991
  0
LWPOLYLINE
  5
214
330
1A0
100
AcDbEntity
  8
0
  6
Continuous
 62
     0
370
    30
100
AcDbPolyline
 90
       27
 70
     0
 43
0.0
 10
830.167786
 20
490.455994
 10
830.129578
 20
490.67038
 10
830.025574
 20
490.858429
 10
829.875122
 20
491.016144
 10
829.687012
 20
491.15152
 10
829.463318
 20
491.270691
 10
829.205017
 20
491.376038
 10
828.913452
 20
491.469269
 10
828.591553
 20
491.55011
 10
828.242859
 20
491.617798
 10
827.871948
 20
491.671722
 10
827.483826
 20
491.711273
 10
827.083923
 20
491.735962
 10
826.677979
 20
491.745453
 10
826.271973
 20
491.739685
 10
825.871765
 20
491.718658
 10
825.48291
 20
491.682648
 10
825.111023
 20
491.632111
 10
824.761414
 20
491.567657
 10
824.438416
 20
491.489929
 10
824.145203
 20
491.399292
 10
823.884766
 20
491.296112
 10
823.659302
 20
491.179474
 10
823.469299
 20
491.046051
 10
823.316589
 20
490.890228
 10
823.209717
 20
490.703857
 10
823.167847
 20
490.484833
  0
LINE
  5
215
330
1A0
100
AcDbEntity
  8
0
  6
Continuous
 62
     0
370
    30
100
AcDbLine
 10
829.801397
 20
401.498813
 30
0.0
 11
830.167796
 21
490.455992
 31
0.0
  0
LINE
  5
216
330
1A0
100
AcDbEntity
  8
0
  6
Continuous
 62
     0
370
    30
100
AcDbLine
 10
822.801457
 20
401.527644
 30
0.0
 11
822.808219
 21
403.169586
 31
0.0
  0
LINE
  5
217
330
1A0
100
AcDbEntity
  8
0
  6
Continuous
 62
     0
370
    30
100
AcDbLine
 10
822.988485
 20
446.93586
 30
0.0
 11
823.167856
 21
490.484824
 31
0.0
  0
LINE
  5
218
330
1A0
100
AcDbEntity
  8
0
  6
Continuous
 62
     0
370
    30
100
AcDbLine
 10
822.763368
 20
403.756085
 30
0.0
 11
822.773885
 21
403.755899
 31
0.0
  0
ARC
  5
219
330
1A0
100
AcDbEntity
  8
0
  6
Continuous
 62
     0
370
    30
100
AcDbCircle
 10
822.758732
 20
403.22916
 30
0.0
 40
0.5269554333233953
100
AcDbArc
 50
69.083758
 51
88.478206
  0
LWPOLYLINE
  5
21A
330
1A0
100
AcDbEntity
  8
0
  6
Continuous
 62
     0
370
    30
100
AcDbPolyline
 90
        4
 70
     0
 43
0.0
 10
822.956848
 20
446.821808
 10
822.964661
 20
446.835327
 10
822.978455
 20
446.8703
 10
822.988464
 20
446.935852
  0
LWPOLYLINE
  5
21B
330
1A0
100
AcDbEntity
  8
0
  6
Continuous
 62
     0
370
    30
100
AcDbPolyline
 90
        4
 70
     0
 43
0.0
 10
822.808228
 20
403.169586
 10
822.792236
 20
403.367279
 10
822.746277
 20
403.548889
 10
822.648193
 20
403.757477
  0
LINE
  5
21C
330
1A0
100
AcDbEntity
  8
0
  6
Continuous
 62
     0
370
    30
100
AcDbLine
 10
804.368369
 20
410.04027
 30
0.0
 11
818.188767
 21
404.626477
 31
0.0
  0
LINE
  5
21D
330
1A0
100
AcDbEntity
  8
0
  6
Continuous
 62
     0
370
    30
100
AcDbLine
 10
829.989876
 20
447.259123
 30
0.0
 11
834.237277
 21
445.595311
 31
0.0
  0
LINE
  5
21E
330
1A0
100
AcDbEntity
  8
0
  6
Continuous
 62
     0
370
    30
100
AcDbLine
 10
816.160288
 20
452.676516
 30
0.0
 11
823.001092
 21
449.996804
 31
0.0
  0
LWPOLYLINE
  5
21F
330
1A0
100
AcDbEntity
  8
0
  6
Continuous
 62
     0
370
    30
100
AcDbPolyline
 90
       42
 70
     0
 43
0.0
 10
834.237305
 20
445.595306
 10
835.147278
 20
445.196259
 10
836.02533
 20
444.724762
 10
836.867676
 20
444.182709
 10
837.671326
 20
443.572296
 10
838.433472
 20
442.895752
 10
839.151245
 20
442.155487
 10
839.822205
 20
441.35434
 10
840.44397
 20
440.49527
 10
841.014343
 20
439.58136
 10
841.531433
 20
438.616089
 10
841.993347
 20
437.602783
 10
842.39856
 20
436.545105
 10
842.745789
 20
435.446899
 10
843.033813
 20
434.312073
 10
843.261597
 20
433.144623
 10
843.428345
 20
431.948669
 10
843.533752
 20
430.728516
 10
843.577393
 20
429.488495
 10
843.559082
 20
428.232971
 10
843.478821
 20
426.96637
 10
843.337036
 20
425.693237
 10
843.134216
 20
424.41806
 10
842.871094
 20
423.145386
 10
842.548645
 20
421.87973
 10
842.167969
 20
420.62561
 10
841.730591
 20
419.387451
 10
841.237793
 20
418.169708
 10
840.691528
 20
416.976654
 10
840.09375
 20
415.812561
 10
839.446472
 20
414.68161
 10
838.752014
 20
413.587799
 10
838.012817
 20
412.535004
 10
837.231567
 20
411.526978
 10
836.411011
 20
410.567352
 10
835.553955
 20
409.659515
 10
834.663513
 20
408.806702
 10
833.742737
 20
408.011993
 10
832.794983
 20
407.278198
 10
831.823425
 20
406.608002
 10
830.831604
 20
406.003754
 10
829.817749
 20
405.464905
  0
LWPOLYLINE
  5
220
330
1A0
100
AcDbEntity
  8
0
  6
Continuous
 62
     0
370
    30
100
AcDbPolyline
 90
        6
 70
     0
 43
0.0
 10
822.763367
 20
403.756073
 10
821.833191
 20
403.795746
 10
820.915955
 20
403.899841
 10
820.014343
 20
404.068176
 10
819.131165
 20
404.300232
 10
818.188782
 20
404.626465
  0
LWPOLYLINE
  5
221
330
1A0
100
AcDbEntity
  8
0
  6
Continuous
 62
     0
370
     0
100
AcDbPolyline
 90
       18
 70
     0
 43
0.0
 10
819.675171
 20
448.603912
 10
819.989319
 20
448.690613
 10
820.245483
 20
448.793732
 10
820.434998
 20
448.90979
 10
820.551331
 20
449.03479
 10
820.590576
 20
449.16449
 10
820.551392
 20
449.294495
 10
820.435181
 20
449.42038
 10
820.245789
 20
449.537842
 10
819.989685
 20
449.642914
 10
819.675598
 20
449.732025
 10
819.314209
 20
449.802094
 10
818.917847
 20
449.8508
 10
818.499939
 20
449.876434
 10
818.074768
 20
449.878143
 10
817.656677
 20
449.855896
 10
817.26001
 20
449.810425
 10
816.895203
 20
449.742584
  0
LWPOLYLINE
  5
222
330
1A0
100
AcDbEntity
  8
0
  6
Continuous
 62
     0
370
     0
100
AcDbPolyline
 90
       18
 70
     0
 43
0.0
 10
816.895203
 20
449.742584
 10
816.581116
 20
449.655884
 10
816.324951
 20
449.552734
 10
816.135437
 20
449.436707
 10
816.019104
 20
449.311707
 10
815.979858
 20
449.182007
 10
816.018982
 20
449.052002
 10
816.135254
 20
448.926117
 10
816.324646
 20
448.808655
 10
816.58075
 20
448.703583
 10
816.894836
 20
448.614471
 10
817.256226
 20
448.544403
 10
817.652588
 20
448.495697
 10
818.070496
 20
448.470062
 10
818.495667
 20
448.468323
 10
818.913696
 20
448.490601
 10
819.310364
 20
448.536072
 10
819.675171
 20
448.603912
  0
ELLIPSE
  5
223
330
1A0
100
AcDbEntity
  8
0
  6
Continuous
 62
     0
370
     0
100
AcDbEllipse
 10
816.894731
 20
449.504583
 30
0.0
 11
0.05558044186156474
 21
-0.243743337308891
 31
0.0
210
0.0
220
0.0
230
1.0
 40
0.572106
 41
2.759045435313543
 42
3.141596721006297
  0
ELLIPSE
  5
224
330
1A0
100
AcDbEntity
  8
0
  6
Continuous
 62
     0
370
     0
100
AcDbEllipse
 10
819.67471
 20
448.365916
 30
0.0
 11
-0.05558044186156824
 21
0.2437433373089047
 31
0.0
210
0.0
220
0.0
230
-0.9999999999999999
 40
0.572106
 41
0.382547218276549
 42
0.653995537774634
  0
LWPOLYLINE
  5
225
330
1A0
100
AcDbEntity
  8
0
  6
Continuous
 62
     0
370
    30
100
AcDbPolyline
 90
        7
 70
     0
 43
0.0
 10
815.766052
 20
449.126923
 10
815.857544
 20
449.27713
 10
815.986572
 20
449.400055
 10
816.145874
 20
449.503632
 10
816.334229
 20
449.593109
 10
816.551086
 20
449.671082
 10
816.839172
 20
449.748322
  0
LWPOLYLINE
  5
226
330
1A0
100
AcDbEntity
  8
0
  6
Continuous
 62
     0
370
    30
100
AcDbPolyline
 90
       13
 70
     0
 43
0.0
 10
816.839172
 20
449.748322
 10
817.18335
 20
449.813721
 10
817.556396
 20
449.860016
 10
817.948303
 20
449.88623
 10
818.348877
 20
449.891785
 10
818.747437
 20
449.876709
 10
819.133423
 20
449.84137
 10
819.496582
 20
449.78653
 10
819.828552
 20
449.713379
 10
820.122437
 20
449.623138
 10
820.372925
 20
449.515625
 10
820.578186
 20
449.387512
 10
820.746033
 20
449.214996
  0
ENDBLK
  5
228
330
1A0
100
AcDbEntity
  8
0
100
AcDbBlockEnd
  0
ENDSEC
  0
SECTION
  2
ENTITIES
  0
INSERT
  5
86
330
1F
100
AcDbEntity
  8
0
  6
Continuous
 62
     7
370
     0
100
AcDbBlockReference
  2
a
 10
159.003876
 20
366.090393
 30
0.0
  0
INSERT
  5
E4
330
1F
100
AcDbEntity
  8
0
  6
Continuous
 62
     7
370
     0
100
AcDbBlockReference
  2
b
 10
0.0
 20
483.411407
 30
0.0
  0
INSERT
  5
161
330
1F
100
AcDbEntity
  8
0
  6
Continuous
 62
     7
370
     0
100
AcDbBlockReference
  2
c
 10
847.299805
 20
0.0
 30
0.0
  0
INSERT
  5
19F
330
1F
100
AcDbEntity
  8
0
  6
Continuous
 62
     7
370
     0
100
AcDbBlockReference
  2
d
 10
-635.980164
 20
0.0
 30
0.0
  0
INSERT
  5
229
330
1F
100
AcDbEntity
  8
0
  6
Continuous
 62
     7
370
     0
100
AcDbBlockReference
  2
e
 10
580.978394
 20
367.481567
 30
0.0
  0
ENDSEC
  0
SECTION
  2
OBJECTS
  0
DICTIONARY
  5
C
330
0
100
AcDbDictionary
281
     1
  3
ACAD_GROUP
350
D
  3
ACAD_LAYOUT
350
1A
  3
ACAD_MATERIAL
350
3B
  3
ACAD_MLEADERSTYLE
350
22C
  3
ACAD_MLINESTYLE
350
17
  3
ACAD_PLOTSETTINGS
350
19
  3
ACAD_PLOTSTYLENAME
350
E
  3
ACAD_VISUALSTYLE
350
2A
  3
AcDbVariableDictionary
350
22A
  0
DICTIONARY
  5
D
102
{ACAD_REACTORS
330
C
102
}
330
C
100
AcDbDictionary
281
     1
  0
DICTIONARY
  5
1A
102
{ACAD_REACTORS
330
C
102
}
330
C
100
AcDbDictionary
281
     1
  3
Layout1
350
1E
  3
Layout2
350
26
  3
Model
350
22
  0
DICTIONARY
  5
3B
102
{ACAD_REACTORS
330
C
102
}
330
C
100
AcDbDictionary
281
     1
  3
ByBlock
350
3D
  3
ByLayer
350
3C
  3
Global
350
3E
  0
DICTIONARY
  5
22C
102
{ACAD_REACTORS
330
C
102
}
330
C
100
AcDbDictionary
281
     1
  0
DICTIONARY
  5
17
102
{ACAD_REACTORS
330
C
102
}
330
C
100
AcDbDictionary
281
     1
  3
Standard
350
18
  0
DICTIONARY
  5
19
102
{ACAD_REACTORS
330
C
102
}
330
C
100
AcDbDictionary
281
     1
  0
ACDBDICTIONARYWDFLT
  5
E
102
{ACAD_REACTORS
330
C
102
}
330
C
100
AcDbDictionary
281
     1
  3
Normal
350
F
100
AcDbDictionaryWithDefault
340
F
  0
DICTIONARY
  5
2A
102
{ACAD_REACTORS
330
C
102
}
330
C
100
AcDbDictionary
281
     1
  3
2dWireframe
350
2F
  3
3D Hidden
350
31
  3
3dWireframe
350
30
  3
Basic
350
32
  3
Brighten
350
36
  3
ColorChange
350
3A
  3
Conceptual
350
34
  3
Dim
350
35
  3
Facepattern
350
39
  3
Flat
350
2B
  3
FlatWithEdges
350
2C
  3
Gouraud
350
2D
  3
GouraudWithEdges
350
2E
  3
Linepattern
350
38
  3
Realistic
350
33
  3
Thicken
350
37
  0
DICTIONARY
  5
22A
102
{ACAD_REACTORS
330
C
102
}
330
C
100
AcDbDictionary
281
     1
  3
DIMASSOC
350
22F
  3
HIDETEXT
350
230
  3
PSOLHEIGHT
350
22E
  3
PSOLWIDTH
350
22D
  0
LAYOUT
  5
1E
102
{ACAD_REACTORS
330
1A
102
}
330
1A
100
AcDbPlotSettings
  1

  2
none_device
  4

  6

 40
0.0
 41
0.0
 42
0.0
 43
0.0
 44
0.0
 45
0.0
 46
0.0
 47
0.0
 48
0.0
 49
0.0
140
0.0
141
0.0
142
1.0
143
1.0
 70
   688
 72
     0
 73
     0
 74
     5
  7

 75
    16
147
1.0
148
0.0
149
0.0
100
AcDbLayout
  1
Layout1
 70
     1
 71
     1
 10
0.0
 20
0.0
 11
420.0
 21
297.0
 12
0.0
 22
0.0
 32
0.0
 14
1.000000E+20
 24
1.000000E+20
 34
1.000000E+20
 15
-1.000000E+20
 25
-1.000000E+20
 35
-1.000000E+20
146
0.0
 13
0.0
 23
0.0
 33
0.0
 16
1.0
 26
0.0
 36
0.0
 17
0.0
 27
1.0
 37
0.0
 76
     0
330
1B
  0
LAYOUT
  5
26
102
{ACAD_REACTORS
330
1A
102
}
330
1A
100
AcDbPlotSettings
  1

  2
none_device
  4

  6

 40
0.0
 41
0.0
 42
0.0
 43
0.0
 44
0.0
 45
0.0
 46
0.0
 47
0.0
 48
0.0
 49
0.0
140
0.0
141
0.0
142
1.0
143
1.0
 70
   688
 72
     0
 73
     0
 74
     5
  7

 75
    16
147
1.0
148
0.0
149
0.0
100
AcDbLayout
  1
Layout2
 70
     1
 71
     2
 10
0.0
 20
0.0
 11
0.0
 21
0.0
 12
0.0
 22
0.0
 32
0.0
 14
0.0
 24
0.0
 34
0.0
 15
0.0
 25
0.0
 35
0.0
146
0.0
 13
0.0
 23
0.0
 33
0.0
 16
1.0
 26
0.0
 36
0.0
 17
0.0
 27
1.0
 37
0.0
 76
     0
330
23
  0
LAYOUT
  5
22
102
{ACAD_REACTORS
330
1A
102
}
330
1A
100
AcDbPlotSettings
  1

  2
none_device
  4

  6

 40
0.0
 41
0.0
 42
0.0
 43
0.0
 44
0.0
 45
0.0
 46
0.0
 47
0.0
 48
0.0
 49
0.0
140
0.0
141
0.0
142
1.0
143
1.0
 70
  1712
 72
     0
 73
     0
 74
     0
  7

 75
     0
147
1.0
148
0.0
149
0.0
100
AcDbLayout
  1
Model
 70
     1
 71
     0
 10
0.0
 20
0.0
 11
420.0
 21
297.0
 12
0.0
 22
0.0
 32
0.0
 14
1.000000E+20
 24
1.000000E+20
 34
1.000000E+20
 15
-1.000000E+20
 25
-1.000000E+20
 35
-1.000000E+20
146
0.0
 13
0.0
 23
0.0
 33
0.0
 16
1.0
 26
0.0
 36
0.0
 17
0.0
 27
1.0
 37
0.0
 76
     0
330
1F
331
29
  0
MATERIAL
  5
3D
102
{ACAD_REACTORS
330
3B
102
}
102
{ACAD_XDICTIONARY
360
253
102
}
330
3B
100
AcDbMaterial
  1
ByBlock
  0
MATERIAL
  5
3C
102
{ACAD_REACTORS
330
3B
102
}
102
{ACAD_XDICTIONARY
360
251
102
}
330
3B
100
AcDbMaterial
  1
ByLayer
  0
MATERIAL
  5
3E
102
{ACAD_REACTORS
330
3B
102
}
102
{ACAD_XDICTIONARY
360
255
102
}
330
3B
100
AcDbMaterial
  1
Global
  0
MLINESTYLE
  5
18
102
{ACAD_REACTORS
330
17
102
}
330
17
100
AcDbMlineStyle
  2
Standard
 70
     0
  3

 62
   256
 51
90.0
 52
90.0
 71
     2
 49
0.5
 62
   256
  6
BYLAYER
 49
-0.5
 62
   256
  6
BYLAYER
  0
ACDBPLACEHOLDER
  5
F
102
{ACAD_REACTORS
330
E
102
}
330
E
  0
VISUALSTYLE
  5
2F
102
{ACAD_REACTORS
330
2A
102
}
102
{ACAD_XDICTIONARY
360
239
102
}
330
2A
100
AcDbVisualStyle
  2
2dWireframe
 70
     4
 71
     0
 72
     2
 73
     0
 90
        0
 40
-0.6
 41
-30.0
 62
     5
 63
     7
 74
     1
 91
        4
 64
     7
 65
   257
 75
     1
175
     1
 42
1.0
 92
        0
 66
   257
 43
1.0
 76
     1
 77
     6
 78
     2
 67
     7
 79
     5
170
     0
171
     0
290
     0
174
     0
 93
        1
 44
0.0
173
     0
291
     0
 45
0.0
1001
ACAD
1000
AcDbSavedByObjectVersion
1070
     0
  0
VISUALSTYLE
  5
31
102
{ACAD_REACTORS
330
2A
102
}
102
{ACAD_XDICTIONARY
360
23D
102
}
330
2A
100
AcDbVisualStyle
  2
3D Hidden
 70
     6
 71
     1
 72
     2
 73
     2
 90
        0
 40
-0.6
 41
-30.0
 62
     5
 63
     7
 74
     2
 91
        2
 64
     7
 65
   257
 75
     2
175
     1
 42
40.0
 92
        0
 66
   257
 43
1.0
 76
     1
 77
     6
 78
     2
 67
     7
 79
     3
170
     0
171
     0
290
     0
174
     0
 93
        1
 44
0.0
173
     0
291
     0
 45
0.0
1001
ACAD
1000
AcDbSavedByObjectVersion
1070
     0
  0
VISUALSTYLE
  5
30
102
{ACAD_REACTORS
330
2A
102
}
102
{ACAD_XDICTIONARY
360
23B
102
}
330
2A
100
AcDbVisualStyle
  2
3dWireframe
 70
     5
 71
     0
 72
     2
 73
     0
 90
        0
 40
-0.6
 41
-30.0
 62
     5
 63
     7
 74
     1
 91
        4
 64
     7
 65
   257
 75
     1
175
     1
 42
1.0
 92
        0
 66
   257
 43
1.0
 76
     1
 77
     6
 78
     2
 67
     7
 79
     5
170
     0
171
     0
290
     0
174
     0
 93
        1
 44
0.0
173
     0
291
     0
 45
0.0
1001
ACAD
1000
AcDbSavedByObjectVersion
1070
     0
  0
VISUALSTYLE
  5
32
102
{ACAD_REACTORS
330
2A
102
}
102
{ACAD_XDICTIONARY
360
23F
102
}
330
2A
100
AcDbVisualStyle
  2
Basic
 70
     7
 71
     1
 72
     0
 73
     1
 90
        0
 40
-0.6
 41
-30.0
 62
     5
 63
     7
 74
     0
 91
        4
 64
     7
 65
   257
 75
     1
175
     1
 42
1.0
 92
        8
 66
     7
 43
1.0
 76
     1
 77
     6
 78
     2
 67
     7
 79
     5
170
     0
171
     0
290
     0
174
     0
 93
        1
 44
0.0
173
     0
291
     1
 45
0.0
1001
ACAD
1000
AcDbSavedByObjectVersion
1070
     0
  0
VISUALSTYLE
  5
36
102
{ACAD_REACTORS
330
2A
102
}
102
{ACAD_XDICTIONARY
360
247
102
}
330
2A
100
AcDbVisualStyle
  2
Brighten
 70
    12
 71
     2
 72
     2
 73
     0
 90
        0
 40
-0.6
 41
-30.0
 62
     5
 63
     7
 74
     1
 91
        4
 64
     7
 65
   257
 75
     1
175
     1
 42
1.0
 92
        8
 66
     7
 43
1.0
 76
     1
 77
     6
 78
     2
 67
     7
 79
     5
170
     0
171
     0
290
     0
174
     0
 93
        1
 44
50.0
173
     0
291
     1
 45
0.0
1001
ACAD
1000
AcDbSavedByObjectVersion
1070
     0
  0
VISUALSTYLE
  5
3A
102
{ACAD_REACTORS
330
2A
102
}
102
{ACAD_XDICTIONARY
360
24F
102
}
330
2A
100
AcDbVisualStyle
  2
ColorChange
 70
    16
 71
     2
 72
     2
 73
     3
 90
        0
 40
-0.6
 41
-30.0
 62
     5
 63
     8
 74
     1
 91
        4
 64
     7
 65
   257
 75
     1
175
     1
 42
1.0
 92
        8
 66
     8
 43
1.0
 76
     1
 77
     6
 78
     2
 67
     7
 79
     5
170
     0
171
     0
290
     0
174
     0
 93
        1
 44
0.0
173
     0
291
     1
 45
0.0
1001
ACAD
1000
AcDbSavedByObjectVersion
1070
     0
  0
VISUALSTYLE
  5
34
102
{ACAD_REACTORS
330
2A
102
}
102
{ACAD_XDICTIONARY
360
243
102
}
330
2A
100
AcDbVisualStyle
  2
Conceptual
 70
     9
 71
     3
 72
     2
 73
     0
 90
        0
 40
-0.6
 41
-30.0
 62
     5
 63
     7
 74
     2
 91
        2
 64
     7
 65
   257
 75
     1
175
     1
 42
40.0
 92
        8
 66
     7
 43
1.0
 76
     1
 77
     6
 78
     2
 67
     7
 79
     3
170
     0
171
     0
290
     0
174
     0
 93
        1
 44
0.0
173
     0
291
     0
 45
0.0
1001
ACAD
1000
AcDbSavedByObjectVersion
1070
     0
  0
VISUALSTYLE
  5
35
102
{ACAD_REACTORS
330
2A
102
}
102
{ACAD_XDICTIONARY
360
245
102
}
330
2A
100
AcDbVisualStyle
  2
Dim
 70
    11
 71
     2
 72
     2
 73
     0
 90
        0
 40
-0.6
 41
-30.0
 62
     5
 63
     7
 74
     1
 91
        4
 64
     7
 65
   257
 75
     1
175
     1
 42
1.0
 92
        8
 66
     7
 43
1.0
 76
     1
 77
     6
 78
     2
 67
     7
 79
     5
170
     0
171
     0
290
     0
174
     0
 93
        1
 44
-50.0
173
     0
291
     1
 45
0.0
1001
ACAD
1000
AcDbSavedByObjectVersion
1070
     0
  0
VISUALSTYLE
  5
39
102
{ACAD_REACTORS
330
2A
102
}
102
{ACAD_XDICTIONARY
360
24D
102
}
330
2A
100
AcDbVisualStyle
  2
Facepattern
 70
    15
 71
     2
 72
     2
 73
     0
 90
        0
 40
-0.6
 41
-30.0
 62
     5
 63
     7
 74
     1
 91
        4
 64
     7
 65
   257
 75
     1
175
     1
 42
1.0
 92
        8
 66
     7
 43
1.0
 76
     1
 77
     6
 78
     2
 67
     7
 79
     5
170
     0
171
     0
290
     0
174
     0
 93
        1
 44
0.0
173
     0
291
     1
 45
0.0
1001
ACAD
1000
AcDbSavedByObjectVersion
1070
     0
  0
VISUALSTYLE
  5
2B
102
{ACAD_REACTORS
330
2A
102
}
102
{ACAD_XDICTIONARY
360
231
102
}
330
2A
100
AcDbVisualStyle
  2
Flat
 70
     0
 71
     2
 72
     1
 73
     1
 90
        2
 40
-0.6
 41
30.0
 62
     5
 63
     7
 74
     0
 91
        4
 64
     7
 65
   257
 75
     1
175
     1
 42
1.0
 92
        8
 66
     7
 43
1.0
 76
     1
 77
     6
 78
     2
 67
     7
 79
     5
170
     0
171
     0
290
     0
174
     0
 93
       13
 44
0.0
173
     0
291
     1
 45
0.0
1001
ACAD
1000
AcDbSavedByObjectVersion
1070
     0
  0
VISUALSTYLE
  5
2C
102
{ACAD_REACTORS
330
2A
102
}
102
{ACAD_XDICTIONARY
360
233
102
}
330
2A
100
AcDbVisualStyle
  2
FlatWithEdges
 70
     1
 71
     2
 72
     1
 73
     1
 90
        2
 40
-0.6
 41
30.0
 62
     5
 63
     7
 74
     1
 91
        4
 64
     7
 65
   257
 75
     1
175
     1
 42
1.0
 92
        0
 66
   257
 43
1.0
 76
     1
 77
     6
 78
     2
 67
     7
 79
     5
170
     0
171
     0
290
     0
174
     0
 93
       13
 44
0.0
173
     0
291
     1
 45
0.0
1001
ACAD
1000
AcDbSavedByObjectVersion
1070
     0
  0
VISUALSTYLE
  5
2D
102
{ACAD_REACTORS
330
2A
102
}
102
{ACAD_XDICTIONARY
360
235
102
}
330
2A
100
AcDbVisualStyle
  2
Gouraud
 70
     2
 71
     2
 72
     2
 73
     1
 90
        2
 40
-0.6
 41
30.0
 62
     5
 63
     7
 74
     0
 91
        4
 64
     7
 65
   257
 75
     1
175
     1
 42
1.0
 92
        0
 66
     7
 43
1.0
 76
     1
 77
     6
 78
     2
 67
     7
 79
     5
170
     0
171
     0
290
     0
174
     0
 93
       13
 44
0.0
173
     0
291
     1
 45
0.0
1001
ACAD
1000
AcDbSavedByObjectVersion
1070
     0
  0
VISUALSTYLE
  5
2E
102
{ACAD_REACTORS
330
2A
102
}
102
{ACAD_XDICTIONARY
360
237
102
}
330
2A
100
AcDbVisualStyle
  2
GouraudWithEdges
 70
     3
 71
     2
 72
     2
 73
     1
 90
        2
 40
-0.6
 41
30.0
 62
     5
 63
     7
 74
     1
 91
        4
 64
     7
 65
   257
 75
     1
175
     1
 42
1.0
 92
        0
 66
   257
 43
1.0
 76
     1
 77
     6
 78
     2
 67
     7
 79
     5
170
     0
171
     0
290
     0
174
     0
 93
       13
 44
0.0
173
     0
291
     1
 45
0.0
1001
ACAD
1000
AcDbSavedByObjectVersion
1070
     0
  0
VISUALSTYLE
  5
38
102
{ACAD_REACTORS
330
2A
102
}
102
{ACAD_XDICTIONARY
360
24B
102
}
330
2A
100
AcDbVisualStyle
  2
Linepattern
 70
    14
 71
     2
 72
     2
 73
     0
 90
        0
 40
-0.6
 41
-30.0
 62
     5
 63
     7
 74
     1
 91
        4
 64
     7
 65
   257
 75
     7
175
     7
 42
1.0
 92
        8
 66
     7
 43
1.0
 76
     1
 77
     6
 78
     2
 67
     7
 79
     5
170
     0
171
     0
290
     0
174
     0
 93
        1
 44
0.0
173
     0
291
     1
 45
0.0
1001
ACAD
1000
AcDbSavedByObjectVersion
1070
     0
  0
VISUALSTYLE
  5
33
102
{ACAD_REACTORS
330
2A
102
}
102
{ACAD_XDICTIONARY
360
241
102
}
330
2A
100
AcDbVisualStyle
  2
Realistic
 70
     8
 71
     2
 72
     2
 73
     0
 90
        0
 40
-0.6
 41
-30.0
 62
     5
 63
     7
 74
     1
 91
        0
 64
     7
 65
   257
 75
     1
175
     1
 42
1.0
 92
        8
 66
     8
 43
1.0
 76
     1
 77
     6
 78
     2
 67
     7
 79
     5
170
     0
171
     0
290
     0
174
     0
 93
       13
 44
0.0
173
     0
291
     0
 45
0.0
1001
ACAD
1000
AcDbSavedByObjectVersion
1070
     0
  0
VISUALSTYLE
  5
37
102
{ACAD_REACTORS
330
2A
102
}
102
{ACAD_XDICTIONARY
360
249
102
}
330
2A
100
AcDbVisualStyle
  2
Thicken
 70
    13
 71
     2
 72
     2
 73
     0
 90
        0
 40
-0.6
 41
-30.0
 62
     5
 63
     7
 74
     1
 91
        4
 64
     7
 65
   257
 75
     1
175
     1
 42
1.0
 92
       12
 66
     7
 43
1.0
 76
     1
 77
     6
 78
     2
 67
     7
 79
     5
170
     0
171
     0
290
     0
174
     0
 93
        1
 44
0.0
173
     0
291
     1
 45
0.0
1001
ACAD
1000
AcDbSavedByObjectVersion
1070
     0
  0
DICTIONARYVAR
  5
22F
102
{ACAD_REACTORS
330
22A
102
}
330
22A
100
DictionaryVariables
280
     0
  1
2
  0
DICTIONARYVAR
  5
230
102
{ACAD_REACTORS
330
22A
102
}
330
22A
100
DictionaryVariables
280
     0
  1
1
  0
DICTIONARYVAR
  5
22E
102
{ACAD_REACTORS
330
22A
102
}
330
22A
100
DictionaryVariables
280
     0
  1
80.000000
  0
DICTIONARYVAR
  5
22D
102
{ACAD_REACTORS
330
22A
102
}
330
22A
100
DictionaryVariables
280
     0
  1
5.000000
  0
DICTIONARY
  5
253
330
3D
100
AcDbDictionary
280
     1
281
     1
  3
ACAD_XREC_ROUNDTRIP
360
254
  0
DICTIONARY
  5
251
330
3C
100
AcDbDictionary
280
     1
281
     1
  3
ACAD_XREC_ROUNDTRIP
360
252
  0
DICTIONARY
  5
255
330
3E
100
AcDbDictionary
280
     1
281
     1
  3
ACAD_XREC_ROUNDTRIP
360
256
  0
DICTIONARY
  5
239
330
2F
100
AcDbDictionary
280
     1
281
     1
  3
ACAD_XREC_ROUNDTRIP
360
23A
  0
DICTIONARY
  5
23D
330
31
100
AcDbDictionary
280
     1
281
     1
  3
ACAD_XREC_ROUNDTRIP
360
23E
  0
DICTIONARY
  5
23B
330
30
100
AcDbDictionary
280
     1
281
     1
  3
ACAD_XREC_ROUNDTRIP
360
23C
  0
DICTIONARY
  5
23F
330
32
100
AcDbDictionary
280
     1
281
     1
  3
ACAD_XREC_ROUNDTRIP
360
240
  0
DICTIONARY
  5
247
330
36
100
AcDbDictionary
280
     1
281
     1
  3
ACAD_XREC_ROUNDTRIP
360
248
  0
DICTIONARY
  5
24F
330
3A
100
AcDbDictionary
280
     1
281
     1
  3
ACAD_XREC_ROUNDTRIP
360
250
  0
DICTIONARY
  5
243
330
34
100
AcDbDictionary
280
     1
281
     1
  3
ACAD_XREC_ROUNDTRIP
360
244
  0
DICTIONARY
  5
245
330
35
100
AcDbDictionary
280
     1
281
     1
  3
ACAD_XREC_ROUNDTRIP
360
246
  0
DICTIONARY
  5
24D
330
39
100
AcDbDictionary
280
     1
281
     1
  3
ACAD_XREC_ROUNDTRIP
360
24E
  0
DICTIONARY
  5
231
330
2B
100
AcDbDictionary
280
     1
281
     1
  3
ACAD_XREC_ROUNDTRIP
360
232
  0
DICTIONARY
  5
233
330
2C
100
AcDbDictionary
280
     1
281
     1
  3
ACAD_XREC_ROUNDTRIP
360
234
  0
DICTIONARY
  5
235
330
2D
100
AcDbDictionary
280
     1
281
     1
  3
ACAD_XREC_ROUNDTRIP
360
236
  0
DICTIONARY
  5
237
330
2E
100
AcDbDictionary
280
     1
281
     1
  3
ACAD_XREC_ROUNDTRIP
360
238
  0
DICTIONARY
  5
24B
330
38
100
AcDbDictionary
280
     1
281
     1
  3
ACAD_XREC_ROUNDTRIP
360
24C
  0
DICTIONARY
  5
241
330
33
100
AcDbDictionary
280
     1
281
     1
  3
ACAD_XREC_ROUNDTRIP
360
242
  0
DICTIONARY
  5
249
330
37
100
AcDbDictionary
280
     1
281
     1
  3
ACAD_XREC_ROUNDTRIP
360
24A
  0
XRECORD
  5
254
102
{ACAD_REACTORS
330
253
102
}
330
253
100
AcDbXrecord
280
     1
102
MATERIAL
148
0.0
149
0.0
149
0.0
 93
        0
 94
      127
282
     0
 72
     1
 77
     1
171
     1
175
     1
179
     1
273
     0
  0
XRECORD
  5
252
102
{ACAD_REACTORS
330
251
102
}
330
251
100
AcDbXrecord
280
     1
102
MATERIAL
148
0.0
149
0.0
149
0.0
 93
        0
 94
      127
282
     0
 72
     1
 77
     1
171
     1
175
     1
179
     1
273
     0
  0
XRECORD
  5
256
102
{ACAD_REACTORS
330
255
102
}
330
255
100
AcDbXrecord
280
     1
102
MATERIAL
148
0.0
149
0.0
149
0.0
 93
        0
 94
      127
282
     0
 72
     1
 77
     1
171
     1
175
     1
179
     1
273
     0
  0
XRECORD
  5
23A
102
{ACAD_REACTORS
330
239
102
}
330
239
100
AcDbXrecord
280
     1
102
RTVSPropertyOp0
 70
     1
102
RTVSPropertyOp1
 70
     1
102
RTVSPropertyOp2
 70
     1
102
RTVSPropertyOp3
 70
     1
102
RTVSPropertyOp4
 70
     1
102
RTVSPropertyOp5
 70
     1
102
RTVSPropertyOp6
 70
     1
102
RTVSPropertyOp7
 70
     1
102
RTVSPropertyOp8
 70
     1
102
RTVSPropertyOp9
 70
     1
102
RTVSPropertyOp10
 70
     1
102
RTVSPropertyOp11
 70
     1
102
RTVSPropertyOp12
 70
     1
102
RTVSPropertyOp13
 70
     1
102
RTVSPropertyOp14
 70
     1
102
RTVSPropertyOp15
 70
     1
102
RTVSPropertyOp16
 70
     1
102
RTVSPropertyOp17
 70
     1
102
RTVSPropertyOp18
 70
     1
102
RTVSPropertyOp19
 70
     1
102
RTVSPropertyOp20
 70
     1
102
RTVSPropertyOp21
 70
     1
102
RTVSPropertyOp22
 70
     1
102
RTVSPropertyOp23
 70
     1
102
RTVSPropertyOp24
 70
     1
102
RTVSPropertyOp25
 70
     1
102
RTVSPropertyOp26
 70
     1
102
RTVSPropertyOp27
 70
     1
  0
XRECORD
  5
23E
102
{ACAD_REACTORS
330
23D
102
}
330
23D
100
AcDbXrecord
280
     1
102
RTVSPropertyOp0
 70
     1
102
RTVSPropertyOp1
 70
     1
102
RTVSPropertyOp2
 70
     1
102
RTVSPropertyOp3
 70
     1
102
RTVSPropertyOp4
 70
     1
102
RTVSPropertyOp5
 70
     1
102
RTVSPropertyOp6
 70
     1
102
RTVSPropertyOp7
 70
     1
102
RTVSPropertyOp8
 70
     1
102
RTVSPropertyOp9
 70
     1
102
RTVSPropertyOp10
 70
     1
102
RTVSPropertyOp11
 70
     1
102
RTVSPropertyOp12
 70
     1
102
RTVSPropertyOp13
 70
     1
102
RTVSPropertyOp14
 70
     1
102
RTVSPropertyOp15
 70
     1
102
RTVSPropertyOp16
 70
     1
102
RTVSPropertyOp17
 70
     1
102
RTVSPropertyOp18
 70
     1
102
RTVSPropertyOp19
 70
     1
102
RTVSPropertyOp20
 70
     1
102
RTVSPropertyOp21
 70
     1
102
RTVSPropertyOp22
 70
     1
102
RTVSPropertyOp23
 70
     1
102
RTVSPropertyOp24
 70
     1
102
RTVSPropertyOp25
 70
     1
102
RTVSPropertyOp26
 70
     1
102
RTVSPropertyOp27
 70
     1
  0
XRECORD
  5
23C
102
{ACAD_REACTORS
330
23B
102
}
330
23B
100
AcDbXrecord
280
     1
102
RTVSPropertyOp0
 70
     1
102
RTVSPropertyOp1
 70
     1
102
RTVSPropertyOp2
 70
     1
102
RTVSPropertyOp3
 70
     1
102
RTVSPropertyOp4
 70
     1
102
RTVSPropertyOp5
 70
     1
102
RTVSPropertyOp6
 70
     1
102
RTVSPropertyOp7
 70
     1
102
RTVSPropertyOp8
 70
     1
102
RTVSPropertyOp9
 70
     1
102
RTVSPropertyOp10
 70
     1
102
RTVSPropertyOp11
 70
     1
102
RTVSPropertyOp12
 70
     1
102
RTVSPropertyOp13
 70
     1
102
RTVSPropertyOp14
 70
     1
102
RTVSPropertyOp15
 70
     1
102
RTVSPropertyOp16
 70
     1
102
RTVSPropertyOp17
 70
     1
102
RTVSPropertyOp18
 70
     1
102
RTVSPropertyOp19
 70
     1
102
RTVSPropertyOp20
 70
     1
102
RTVSPropertyOp21
 70
     1
102
RTVSPropertyOp22
 70
     1
102
RTVSPropertyOp23
 70
     1
102
RTVSPropertyOp24
 70
     1
102
RTVSPropertyOp25
 70
     1
102
RTVSPropertyOp26
 70
     1
102
RTVSPropertyOp27
 70
     1
  0
XRECORD
  5
240
102
{ACAD_REACTORS
330
23F
102
}
330
23F
100
AcDbXrecord
280
     1
102
RTVSPropertyOp0
 70
     1
102
RTVSPropertyOp1
 70
     1
102
RTVSPropertyOp2
 70
     1
102
RTVSPropertyOp3
 70
     1
102
RTVSPropertyOp4
 70
     1
102
RTVSPropertyOp5
 70
     1
102
RTVSPropertyOp6
 70
     1
102
RTVSPropertyOp7
 70
     1
102
RTVSPropertyOp8
 70
     1
102
RTVSPropertyOp9
 70
     1
102
RTVSPropertyOp10
 70
     1
102
RTVSPropertyOp11
 70
     1
102
RTVSPropertyOp12
 70
     1
102
RTVSPropertyOp13
 70
     1
102
RTVSPropertyOp14
 70
     1
102
RTVSPropertyOp15
 70
     1
102
RTVSPropertyOp16
 70
     1
102
RTVSPropertyOp17
 70
     1
102
RTVSPropertyOp18
 70
     1
102
RTVSPropertyOp19
 70
     1
102
RTVSPropertyOp20
 70
     1
102
RTVSPropertyOp21
 70
     1
102
RTVSPropertyOp22
 70
     1
102
RTVSPropertyOp23
 70
     1
102
RTVSPropertyOp24
 70
     1
102
RTVSPropertyOp25
 70
     1
102
RTVSPropertyOp26
 70
     1
102
RTVSPropertyOp27
 70
     1
  0
XRECORD
  5
248
102
{ACAD_REACTORS
330
247
102
}
330
247
100
AcDbXrecord
280
     1
102
RTVSPropertyOp0
 70
     1
102
RTVSPropertyOp1
 70
     1
102
RTVSPropertyOp2
 70
     1
102
RTVSPropertyOp3
 70
     1
102
RTVSPropertyOp4
 70
     1
102
RTVSPropertyOp5
 70
     1
102
RTVSPropertyOp6
 70
     1
102
RTVSPropertyOp7
 70
     1
102
RTVSPropertyOp8
 70
     1
102
RTVSPropertyOp9
 70
     1
102
RTVSPropertyOp10
 70
     1
102
RTVSPropertyOp11
 70
     1
102
RTVSPropertyOp12
 70
     1
102
RTVSPropertyOp13
 70
     1
102
RTVSPropertyOp14
 70
     1
102
RTVSPropertyOp15
 70
     1
102
RTVSPropertyOp16
 70
     1
102
RTVSPropertyOp17
 70
     1
102
RTVSPropertyOp18
 70
     1
102
RTVSPropertyOp19
 70
     1
102
RTVSPropertyOp20
 70
     1
102
RTVSPropertyOp21
 70
     1
102
RTVSPropertyOp22
 70
     1
102
RTVSPropertyOp23
 70
     1
102
RTVSPropertyOp24
 70
     1
102
RTVSPropertyOp25
 70
     1
102
RTVSPropertyOp26
 70
     1
102
RTVSPropertyOp27
 70
     1
  0
XRECORD
  5
250
102
{ACAD_REACTORS
330
24F
102
}
330
24F
100
AcDbXrecord
280
     1
102
RTVSPropertyOp0
 70
     1
102
RTVSPropertyOp1
 70
     1
102
RTVSPropertyOp2
 70
     1
102
RTVSPropertyOp3
 70
     1
102
RTVSPropertyOp4
 70
     1
102
RTVSPropertyOp5
 70
     1
102
RTVSPropertyOp6
 70
     1
102
RTVSPropertyOp7
 70
     1
102
RTVSPropertyOp8
 70
     1
102
RTVSPropertyOp9
 70
     1
102
RTVSPropertyOp10
 70
     1
102
RTVSPropertyOp11
 70
     1
102
RTVSPropertyOp12
 70
     1
102
RTVSPropertyOp13
 70
     1
102
RTVSPropertyOp14
 70
     1
102
RTVSPropertyOp15
 70
     1
102
RTVSPropertyOp16
 70
     1
102
RTVSPropertyOp17
 70
     1
102
RTVSPropertyOp18
 70
     1
102
RTVSPropertyOp19
 70
     1
102
RTVSPropertyOp20
 70
     1
102
RTVSPropertyOp21
 70
     1
102
RTVSPropertyOp22
 70
     1
102
RTVSPropertyOp23
 70
     1
102
RTVSPropertyOp24
 70
     1
102
RTVSPropertyOp25
 70
     1
102
RTVSPropertyOp26
 70
     1
102
RTVSPropertyOp27
 70
     1
  0
XRECORD
  5
244
102
{ACAD_REACTORS
330
243
102
}
330
243
100
AcDbXrecord
280
     1
102
RTVSPropertyOp0
 70
     1
102
RTVSPropertyOp1
 70
     1
102
RTVSPropertyOp2
 70
     1
102
RTVSPropertyOp3
 70
     1
102
RTVSPropertyOp4
 70
     1
102
RTVSPropertyOp5
 70
     1
102
RTVSPropertyOp6
 70
     1
102
RTVSPropertyOp7
 70
     1
102
RTVSPropertyOp8
 70
     1
102
RTVSPropertyOp9
 70
     1
102
RTVSPropertyOp10
 70
     1
102
RTVSPropertyOp11
 70
     1
102
RTVSPropertyOp12
 70
     1
102
RTVSPropertyOp13
 70
     1
102
RTVSPropertyOp14
 70
     1
102
RTVSPropertyOp15
 70
     1
102
RTVSPropertyOp16
 70
     1
102
RTVSPropertyOp17
 70
     1
102
RTVSPropertyOp18
 70
     1
102
RTVSPropertyOp19
 70
     1
102
RTVSPropertyOp20
 70
     1
102
RTVSPropertyOp21
 70
     1
102
RTVSPropertyOp22
 70
     1
102
RTVSPropertyOp23
 70
     1
102
RTVSPropertyOp24
 70
     1
102
RTVSPropertyOp25
 70
     1
102
RTVSPropertyOp26
 70
     1
102
RTVSPropertyOp27
 70
     1
  0
XRECORD
  5
246
102
{ACAD_REACTORS
330
245
102
}
330
245
100
AcDbXrecord
280
     1
102
RTVSPropertyOp0
 70
     1
102
RTVSPropertyOp1
 70
     1
102
RTVSPropertyOp2
 70
     1
102
RTVSPropertyOp3
 70
     1
102
RTVSPropertyOp4
 70
     1
102
RTVSPropertyOp5
 70
     1
102
RTVSPropertyOp6
 70
     1
102
RTVSPropertyOp7
 70
     1
102
RTVSPropertyOp8
 70
     1
102
RTVSPropertyOp9
 70
     1
102
RTVSPropertyOp10
 70
     1
102
RTVSPropertyOp11
 70
     1
102
RTVSPropertyOp12
 70
     1
102
RTVSPropertyOp13
 70
     1
102
RTVSPropertyOp14
 70
     1
102
RTVSPropertyOp15
 70
     1
102
RTVSPropertyOp16
 70
     1
102
RTVSPropertyOp17
 70
     1
102
RTVSPropertyOp18
 70
     1
102
RTVSPropertyOp19
 70
     1
102
RTVSPropertyOp20
 70
     1
102
RTVSPropertyOp21
 70
     1
102
RTVSPropertyOp22
 70
     1
102
RTVSPropertyOp23
 70
     1
102
RTVSPropertyOp24
 70
     1
102
RTVSPropertyOp25
 70
     1
102
RTVSPropertyOp26
 70
     1
102
RTVSPropertyOp27
 70
     1
  0
XRECORD
  5
24E
102
{ACAD_REACTORS
330
24D
102
}
330
24D
100
AcDbXrecord
280
     1
102
RTVSPropertyOp0
 70
     1
102
RTVSPropertyOp1
 70
     1
102
RTVSPropertyOp2
 70
     1
102
RTVSPropertyOp3
 70
     1
102
RTVSPropertyOp4
 70
     1
102
RTVSPropertyOp5
 70
     1
102
RTVSPropertyOp6
 70
     1
102
RTVSPropertyOp7
 70
     1
102
RTVSPropertyOp8
 70
     1
102
RTVSPropertyOp9
 70
     1
102
RTVSPropertyOp10
 70
     1
102
RTVSPropertyOp11
 70
     1
102
RTVSPropertyOp12
 70
     1
102
RTVSPropertyOp13
 70
     1
102
RTVSPropertyOp14
 70
     1
102
RTVSPropertyOp15
 70
     1
102
RTVSPropertyOp16
 70
     1
102
RTVSPropertyOp17
 70
     1
102
RTVSPropertyOp18
 70
     1
102
RTVSPropertyOp19
 70
     1
102
RTVSPropertyOp20
 70
     1
102
RTVSPropertyOp21
 70
     1
102
RTVSPropertyOp22
 70
     1
102
RTVSPropertyOp23
 70
     1
102
RTVSPropertyOp24
 70
     1
102
RTVSPropertyOp25
 70
     1
102
RTVSPropertyOp26
 70
     1
102
RTVSPropertyOp27
 70
     1
  0
XRECORD
  5
232
102
{ACAD_REACTORS
330
231
102
}
330
231
100
AcDbXrecord
280
     1
102
RTVSPropertyOp0
 70
     1
102
RTVSPropertyOp1
 70
     1
102
RTVSPropertyOp2
 70
     1
102
RTVSPropertyOp3
 70
     1
102
RTVSPropertyOp4
 70
     1
102
RTVSPropertyOp5
 70
     1
102
RTVSPropertyOp6
 70
     1
102
RTVSPropertyOp7
 70
     1
102
RTVSPropertyOp8
 70
     1
102
RTVSPropertyOp9
 70
     1
102
RTVSPropertyOp10
 70
     1
102
RTVSPropertyOp11
 70
     1
102
RTVSPropertyOp12
 70
     1
102
RTVSPropertyOp13
 70
     1
102
RTVSPropertyOp14
 70
     1
102
RTVSPropertyOp15
 70
     1
102
RTVSPropertyOp16
 70
     1
102
RTVSPropertyOp17
 70
     1
102
RTVSPropertyOp18
 70
     1
102
RTVSPropertyOp19
 70
     1
102
RTVSPropertyOp20
 70
     1
102
RTVSPropertyOp21
 70
     1
102
RTVSPropertyOp22
 70
     1
102
RTVSPropertyOp23
 70
     1
102
RTVSPropertyOp24
 70
     1
102
RTVSPropertyOp25
 70
     1
102
RTVSPropertyOp26
 70
     1
102
RTVSPropertyOp27
 70
     1
  0
XRECORD
  5
234
102
{ACAD_REACTORS
330
233
102
}
330
233
100
AcDbXrecord
280
     1
102
RTVSPropertyOp0
 70
     1
102
RTVSPropertyOp1
 70
     1
102
RTVSPropertyOp2
 70
     1
102
RTVSPropertyOp3
 70
     1
102
RTVSPropertyOp4
 70
     1
102
RTVSPropertyOp5
 70
     1
102
RTVSPropertyOp6
 70
     1
102
RTVSPropertyOp7
 70
     1
102
RTVSPropertyOp8
 70
     1
102
RTVSPropertyOp9
 70
     1
102
RTVSPropertyOp10
 70
     1
102
RTVSPropertyOp11
 70
     1
102
RTVSPropertyOp12
 70
     1
102
RTVSPropertyOp13
 70
     1
102
RTVSPropertyOp14
 70
     1
102
RTVSPropertyOp15
 70
     1
102
RTVSPropertyOp16
 70
     1
102
RTVSPropertyOp17
 70
     1
102
RTVSPropertyOp18
 70
     1
102
RTVSPropertyOp19
 70
     1
102
RTVSPropertyOp20
 70
     1
102
RTVSPropertyOp21
 70
     1
102
RTVSPropertyOp22
 70
     1
102
RTVSPropertyOp23
 70
     1
102
RTVSPropertyOp24
 70
     1
102
RTVSPropertyOp25
 70
     1
102
RTVSPropertyOp26
 70
     1
102
RTVSPropertyOp27
 70
     1
  0
XRECORD
  5
236
102
{ACAD_REACTORS
330
235
102
}
330
235
100
AcDbXrecord
280
     1
102
RTVSPropertyOp0
 70
     1
102
RTVSPropertyOp1
 70
     1
102
RTVSPropertyOp2
 70
     1
102
RTVSPropertyOp3
 70
     1
102
RTVSPropertyOp4
 70
     1
102
RTVSPropertyOp5
 70
     1
102
RTVSPropertyOp6
 70
     1
102
RTVSPropertyOp7
 70
     1
102
RTVSPropertyOp8
 70
     1
102
RTVSPropertyOp9
 70
     1
102
RTVSPropertyOp10
 70
     1
102
RTVSPropertyOp11
 70
     1
102
RTVSPropertyOp12
 70
     1
102
RTVSPropertyOp13
 70
     1
102
RTVSPropertyOp14
 70
     1
102
RTVSPropertyOp15
 70
     1
102
RTVSPropertyOp16
 70
     1
102
RTVSPropertyOp17
 70
     1
102
RTVSPropertyOp18
 70
     1
102
RTVSPropertyOp19
 70
     1
102
RTVSPropertyOp20
 70
     1
102
RTVSPropertyOp21
 70
     1
102
RTVSPropertyOp22
 70
     1
102
RTVSPropertyOp23
 70
     1
102
RTVSPropertyOp24
 70
     1
102
RTVSPropertyOp25
 70
     1
102
RTVSPropertyOp26
 70
     1
102
RTVSPropertyOp27
 70
     1
  0
XRECORD
  5
238
102
{ACAD_REACTORS
330
237
102
}
330
237
100
AcDbXrecord
280
     1
102
RTVSPropertyOp0
 70
     1
102
RTVSPropertyOp1
 70
     1
102
RTVSPropertyOp2
 70
     1
102
RTVSPropertyOp3
 70
     1
102
RTVSPropertyOp4
 70
     1
102
RTVSPropertyOp5
 70
     1
102
RTVSPropertyOp6
 70
     1
102
RTVSPropertyOp7
 70
     1
102
RTVSPropertyOp8
 70
     1
102
RTVSPropertyOp9
 70
     1
102
RTVSPropertyOp10
 70
     1
102
RTVSPropertyOp11
 70
     1
102
RTVSPropertyOp12
 70
     1
102
RTVSPropertyOp13
 70
     1
102
RTVSPropertyOp14
 70
     1
102
RTVSPropertyOp15
 70
     1
102
RTVSPropertyOp16
 70
     1
102
RTVSPropertyOp17
 70
     1
102
RTVSPropertyOp18
 70
     1
102
RTVSPropertyOp19
 70
     1
102
RTVSPropertyOp20
 70
     1
102
RTVSPropertyOp21
 70
     1
102
RTVSPropertyOp22
 70
     1
102
RTVSPropertyOp23
 70
     1
102
RTVSPropertyOp24
 70
     1
102
RTVSPropertyOp25
 70
     1
102
RTVSPropertyOp26
 70
     1
102
RTVSPropertyOp27
 70
     1
  0
XRECORD
  5
24C
102
{ACAD_REACTORS
330
24B
102
}
330
24B
100
AcDbXrecord
280
     1
102
RTVSPropertyOp0
 70
     1
102
RTVSPropertyOp1
 70
     1
102
RTVSPropertyOp2
 70
     1
102
RTVSPropertyOp3
 70
     1
102
RTVSPropertyOp4
 70
     1
102
RTVSPropertyOp5
 70
     1
102
RTVSPropertyOp6
 70
     1
102
RTVSPropertyOp7
 70
     1
102
RTVSPropertyOp8
 70
     1
102
RTVSPropertyOp9
 70
     1
102
RTVSPropertyOp10
 70
     1
102
RTVSPropertyOp11
 70
     1
102
RTVSPropertyOp12
 70
     1
102
RTVSPropertyOp13
 70
     1
102
RTVSPropertyOp14
 70
     1
102
RTVSPropertyOp15
 70
     1
102
RTVSPropertyOp16
 70
     1
102
RTVSPropertyOp17
 70
     1
102
RTVSPropertyOp18
 70
     1
102
RTVSPropertyOp19
 70
     1
102
RTVSPropertyOp20
 70
     1
102
RTVSPropertyOp21
 70
     1
102
RTVSPropertyOp22
 70
     1
102
RTVSPropertyOp23
 70
     1
102
RTVSPropertyOp24
 70
     1
102
RTVSPropertyOp25
 70
     1
102
RTVSPropertyOp26
 70
     1
102
RTVSPropertyOp27
 70
     1
  0
XRECORD
  5
242
102
{ACAD_REACTORS
330
241
102
}
330
241
100
AcDbXrecord
280
     1
102
RTVSPropertyOp0
 70
     1
102
RTVSPropertyOp1
 70
     1
102
RTVSPropertyOp2
 70
     1
102
RTVSPropertyOp3
 70
     1
102
RTVSPropertyOp4
 70
     1
102
RTVSPropertyOp5
 70
     1
102
RTVSPropertyOp6
 70
     1
102
RTVSPropertyOp7
 70
     1
102
RTVSPropertyOp8
 70
     1
102
RTVSPropertyOp9
 70
     1
102
RTVSPropertyOp10
 70
     1
102
RTVSPropertyOp11
 70
     1
102
RTVSPropertyOp12
 70
     1
102
RTVSPropertyOp13
 70
     1
102
RTVSPropertyOp14
 70
     1
102
RTVSPropertyOp15
 70
     1
102
RTVSPropertyOp16
 70
     1
102
RTVSPropertyOp17
 70
     1
102
RTVSPropertyOp18
 70
     1
102
RTVSPropertyOp19
 70
     1
102
RTVSPropertyOp20
 70
     1
102
RTVSPropertyOp21
 70
     1
102
RTVSPropertyOp22
 70
     1
102
RTVSPropertyOp23
 70
     1
102
RTVSPropertyOp24
 70
     1
102
RTVSPropertyOp25
 70
     1
102
RTVSPropertyOp26
 70
     1
102
RTVSPropertyOp27
 70
     1
  0
XRECORD
  5
24A
102
{ACAD_REACTORS
330
249
102
}
330
249
100
AcDbXrecord
280
     1
102
RTVSPropertyOp0
 70
     1
102
RTVSPropertyOp1
 70
     1
102
RTVSPropertyOp2
 70
     1
102
RTVSPropertyOp3
 70
     1
102
RTVSPropertyOp4
 70
     1
102
RTVSPropertyOp5
 70
     1
102
RTVSPropertyOp6
 70
     1
102
RTVSPropertyOp7
 70
     1
102
RTVSPropertyOp8
 70
     1
102
RTVSPropertyOp9
 70
     1
102
RTVSPropertyOp10
 70
     1
102
RTVSPropertyOp11
 70
     1
102
RTVSPropertyOp12
 70
     1
102
RTVSPropertyOp13
 70
     1
102
RTVSPropertyOp14
 70
     1
102
RTVSPropertyOp15
 70
     1
102
RTVSPropertyOp16
 70
     1
102
RTVSPropertyOp17
 70
     1
102
RTVSPropertyOp18
 70
     1
102
RTVSPropertyOp19
 70
     1
102
RTVSPropertyOp20
 70
     1
102
RTVSPropertyOp21
 70
     1
102
RTVSPropertyOp22
 70
     1
102
RTVSPropertyOp23
 70
     1
102
RTVSPropertyOp24
 70
     1
102
RTVSPropertyOp25
 70
     1
102
RTVSPropertyOp26
 70
     1
102
RTVSPropertyOp27
 70
     1
  0
ENDSEC
  0
EOF
