  0
SECTION
  2
HEADER
  9
$ACADVER
  1
AC1015
  9
$ACADMAINTVER
 70
     6
  9
$DWGCODEPAGE
  3
ANSI_1252
  9
$INSBASE
 10
0.0
 20
0.0
 30
0.0
  9
$EXTMIN
 10
39.000687
 20
490.934753
 30
0.0
  9
$EXTMAX
 10
280.932465
 20
873.226868
 30
0.0
  9
$LIMMIN
 10
39.000687
 20
490.934753
  9
$LIMMAX
 10
280.932465
 20
873.226868
  9
$ORTHOMODE
 70
     0
  9
$REGENMODE
 70
     1
  9
$FILLMODE
 70
     1
  9
$QTEXTMODE
 70
     0
  9
$MIRRTEXT
 70
     1
  9
$LTSCALE
 40
1.0
  9
$ATTMODE
 70
     1
  9
$TEXTSIZE
 40
2.5
  9
$TRACEWID
 40
1.0
  9
$TEXTSTYLE
  7
Standard
  9
$CLAYER
  8
0
  9
$CELTYPE
  6
ByLayer
  9
$CECOLOR
 62
   256
  9
$CELTSCALE
 40
1.0
  9
$DISPSILH
 70
     0
  9
$DIMSCALE
 40
1.0
  9
$DIMASZ
 40
2.5
  9
$DIMEXO
 40
0.625
  9
$DIMDLI
 40
3.75
  9
$DIMRND
 40
0.0
  9
$DIMDLE
 40
0.0
  9
$DIMEXE
 40
1.25
  9
$DIMTP
 40
0.0
  9
$DIMTM
 40
0.0
  9
$DIMTXT
 40
2.5
  9
$DIMCEN
 40
2.5
  9
$DIMTSZ
 40
0.0
  9
$DIMTOL
 70
     0
  9
$DIMLIM
 70
     0
  9
$DIMTIH
 70
     0
  9
$DIMTOH
 70
     0
  9
$DIMSE1
 70
     0
  9
$DIMSE2
 70
     0
  9
$DIMTAD
 70
     1
  9
$DIMZIN
 70
     8
  9
$DIMBLK
  1

  9
$DIMASO
 70
     1
  9
$DIMSHO
 70
     1
  9
$DIMPOST
  1

  9
$DIMAPOST
  1

  9
$DIMALT
 70
     0
  9
$DIMALTD
 70
     3
  9
$DIMALTF
 40
0.03937
  9
$DIMLFAC
 40
1.0
  9
$DIMTOFL
 70
     1
  9
$DIMTVP
 40
0.0
  9
$DIMTIX
 70
     0
  9
$DIMSOXD
 70
     0
  9
$DIMSAH
 70
     0
  9
$DIMBLK1
  1

  9
$DIMBLK2
  1

  9
$DIMSTYLE
  2
ISO-25
  9
$DIMCLRD
 70
     0
  9
$DIMCLRE
 70
     0
  9
$DIMCLRT
 70
     0
  9
$DIMTFAC
 40
1.0
  9
$DIMGAP
 40
0.625
  9
$DIMJUST
 70
     0
  9
$DIMSD1
 70
     0
  9
$DIMSD2
 70
     0
  9
$DIMTOLJ
 70
     0
  9
$DIMTZIN
 70
     8
  9
$DIMALTZ
 70
     0
  9
$DIMALTTZ
 70
     0
  9
$DIMUPT
 70
     0
  9
$DIMDEC
 70
     2
  9
$DIMTDEC
 70
     2
  9
$DIMALTU
 70
     2
  9
$DIMALTTD
 70
     3
  9
$DIMTXSTY
  7
Standard
  9
$DIMAUNIT
 70
     0
  9
$DIMADEC
 70
     0
  9
$DIMALTRND
 40
0.0
  9
$DIMAZIN
 70
     0
  9
$DIMDSEP
 70
    44
  9
$DIMATFIT
 70
     3
  9
$DIMFRAC
 70
     0
  9
$DIMLDRBLK
  1

  9
$DIMLUNIT
 70
     2
  9
$DIMLWD
 70
    -2
  9
$DIMLWE
 70
    -2
  9
$DIMTMOVE
 70
     0
  9
$LUNITS
 70
     2
  9
$LUPREC
 70
     4
  9
$SKETCHINC
 40
1.0
  9
$FILLETRAD
 40
10.0
  9
$AUNITS
 70
     0
  9
$AUPREC
 70
     0
  9
$MENU
  1
.
  9
$ELEVATION
 40
0.0
  9
$PELEVATION
 40
0.0
  9
$THICKNESS
 40
0.0
  9
$LIMCHECK
 70
     0
  9
$CHAMFERA
 40
0.0
  9
$CHAMFERB
 40
0.0
  9
$CHAMFERC
 40
0.0
  9
$CHAMFERD
 40
0.0
  9
$SKPOLY
 70
     0
  9
$TDCREATE
 40
2459228.428559815
  9
$TDUCREATE
 40
2459228.386893148
  9
$TDUPDATE
 40
2459228.428560359
  9
$TDUUPDATE
 40
2459228.386893692
  9
$TDINDWG
 40
0.0000000116
  9
$TDUSRTIMER
 40
0.0000000116
  9
$USRTIMER
 70
     1
  9
$ANGBASE
 50
0.0
  9
$ANGDIR
 70
     0
  9
$PDMODE
 70
     0
  9
$PDSIZE
 40
0.0
  9
$PLINEWID
 40
0.0
  9
$SPLFRAME
 70
     0
  9
$SPLINETYPE
 70
     6
  9
$SPLINESEGS
 70
     8
  9
$HANDSEED
  5
1CA
  9
$SURFTAB1
 70
     6
  9
$SURFTAB2
 70
     6
  9
$SURFTYPE
 70
     6
  9
$SURFU
 70
     6
  9
$SURFV
 70
     6
  9
$UCSBASE
  2

  9
$UCSNAME
  2

  9
$UCSORG
 10
0.0
 20
0.0
 30
0.0
  9
$UCSXDIR
 10
1.0
 20
0.0
 30
0.0
  9
$UCSYDIR
 10
0.0
 20
1.0
 30
0.0
  9
$UCSORTHOREF
  2

  9
$UCSORTHOVIEW
 70
     0
  9
$UCSORGTOP
 10
0.0
 20
0.0
 30
0.0
  9
$UCSORGBOTTOM
 10
0.0
 20
0.0
 30
0.0
  9
$UCSORGLEFT
 10
0.0
 20
0.0
 30
0.0
  9
$UCSORGRIGHT
 10
0.0
 20
0.0
 30
0.0
  9
$UCSORGFRONT
 10
0.0
 20
0.0
 30
0.0
  9
$UCSORGBACK
 10
0.0
 20
0.0
 30
0.0
  9
$PUCSBASE
  2

  9
$PUCSNAME
  2

  9
$PUCSORG
 10
0.0
 20
0.0
 30
0.0
  9
$PUCSXDIR
 10
1.0
 20
0.0
 30
0.0
  9
$PUCSYDIR
 10
0.0
 20
1.0
 30
0.0
  9
$PUCSORTHOREF
  2

  9
$PUCSORTHOVIEW
 70
     0
  9
$PUCSORGTOP
 10
0.0
 20
0.0
 30
0.0
  9
$PUCSORGBOTTOM
 10
0.0
 20
0.0
 30
0.0
  9
$PUCSORGLEFT
 10
0.0
 20
0.0
 30
0.0
  9
$PUCSORGRIGHT
 10
0.0
 20
0.0
 30
0.0
  9
$PUCSORGFRONT
 10
0.0
 20
0.0
 30
0.0
  9
$PUCSORGBACK
 10
0.0
 20
0.0
 30
0.0
  9
$USERI1
 70
     0
  9
$USERI2
 70
     0
  9
$USERI3
 70
     0
  9
$USERI4
 70
     0
  9
$USERI5
 70
     0
  9
$USERR1
 40
0.0
  9
$USERR2
 40
0.0
  9
$USERR3
 40
0.0
  9
$USERR4
 40
0.0
  9
$USERR5
 40
0.0
  9
$WORLDVIEW
 70
     1
  9
$SHADEDGE
 70
     3
  9
$SHADEDIF
 70
    70
  9
$TILEMODE
 70
     1
  9
$MAXACTVP
 70
    64
  9
$PINSBASE
 10
0.0
 20
0.0
 30
0.0
  9
$PLIMCHECK
 70
     0
  9
$PEXTMIN
 10
1.000000E+20
 20
1.000000E+20
 30
1.000000E+20
  9
$PEXTMAX
 10
-1.000000E+20
 20
-1.000000E+20
 30
-1.000000E+20
  9
$PLIMMIN
 10
0.0
 20
0.0
  9
$PLIMMAX
 10
420.0
 20
297.0
  9
$UNITMODE
 70
     0
  9
$VISRETAIN
 70
     1
  9
$PLINEGEN
 70
     0
  9
$PSLTSCALE
 70
     1
  9
$TREEDEPTH
 70
  3020
  9
$CMLSTYLE
  2
Standard
  9
$CMLJUST
 70
     0
  9
$CMLSCALE
 40
20.0
  9
$PROXYGRAPHICS
 70
     1
  9
$MEASUREMENT
 70
     1
  9
$CELWEIGHT
370
    -1
  9
$ENDCAPS
280
     0
  9
$JOINSTYLE
280
     0
  9
$LWDISPLAY
290
     0
  9
$INSUNITS
 70
     4
  9
$HYPERLINKBASE
  1

  9
$STYLESHEET
  1

  9
$XEDIT
290
     1
  9
$CEPSNTYPE
380
     0
  9
$PSTYLEMODE
290
     1
  9
$FINGERPRINTGUID
  2
{3919693e-a981-4a98-80b6-2942e56af36b}
  9
$VERSIONGUID
  2
{FAEB1C32-E019-11D5-929B-00C0DF256EC4}
  9
$EXTNAMES
290
     1
  9
$PSVPSCALE
 40
0.0
  9
$OLESTARTUP
290
     0
  0
ENDSEC
  0
SECTION
  2
CLASSES
  0
CLASS
  1
ACDBDICTIONARYWDFLT
  2
AcDbDictionaryWithDefault
  3
ObjectDBX Classes
 90
        0
280
     0
281
     0
  0
CLASS
  1
VISUALSTYLE
  2
AcDbVisualStyle
  3
ObjectDBX Classes
 90
     4095
280
     0
281
     0
  0
CLASS
  1
MATERIAL
  2
AcDbMaterial
  3
ObjectDBX Classes
 90
     1153
280
     0
281
     0
  0
CLASS
  1
SCALE
  2
AcDbScale
  3
ObjectDBX Classes
 90
     1153
280
     0
281
     0
  0
CLASS
  1
TABLESTYLE
  2
AcDbTableStyle
  3
ObjectDBX Classes
 90
     4095
280
     0
281
     0
  0
CLASS
  1
MLEADERSTYLE
  2
AcDbMLeaderStyle
  3
ACDB_MLEADERSTYLE_CLASS
 90
     4095
280
     0
281
     0
  0
CLASS
  1
SUN
  2
AcDbSun
  3
SCENEOE
 90
     1153
280
     0
281
     0
  0
CLASS
  1
DICTIONARYVAR
  2
AcDbDictionaryVar
  3
ObjectDBX Classes
 90
        0
280
     0
281
     0
  0
CLASS
  1
ACDBPLACEHOLDER
  2
AcDbPlaceHolder
  3
ObjectDBX Classes
 90
        0
280
     0
281
     0
  0
CLASS
  1
LAYOUT
  2
AcDbLayout
  3
ObjectDBX Classes
 90
        0
280
     0
281
     0
  0
ENDSEC
  0
SECTION
  2
TABLES
  0
TABLE
  2
VPORT
  5
8
102
{ACAD_XDICTIONARY
360
18D
102
}
330
0
100
AcDbSymbolTable
 70
     1
  0
VPORT
  5
29
330
8
100
AcDbSymbolTableRecord
100
AcDbViewportTableRecord
  2
*Active
 70
     0
 10
0.0
 20
0.0
 11
1.0
 21
1.0
 12
344.186916
 22
148.5
 13
0.0
 23
0.0
 14
10.0
 24
10.0
 15
10.0
 25
10.0
 16
0.0
 26
0.0
 36
1.0
 17
0.0
 27
0.0
 37
0.0
 40
297.0
 41
1.972973
 42
50.0
 43
0.0
 44
0.0
 50
0.0
 51
0.0
 71
     0
 72
   100
 73
     1
 74
     3
 75
     0
 76
     0
 77
     0
 78
     0
281
     0
 65
     1
110
0.0
120
0.0
130
0.0
111
1.0
121
0.0
131
0.0
112
0.0
122
1.0
132
0.0
 79
     0
146
0.0
  0
ENDTAB
  0
TABLE
  2
LTYPE
  5
5
330
0
100
AcDbSymbolTable
 70
     1
  0
LTYPE
  5
14
330
5
100
AcDbSymbolTableRecord
100
AcDbLinetypeTableRecord
  2
ByBlock
 70
     0
  3

 72
    65
 73
     0
 40
0.0
  0
LTYPE
  5
15
330
5
100
AcDbSymbolTableRecord
100
AcDbLinetypeTableRecord
  2
ByLayer
 70
     0
  3

 72
    65
 73
     0
 40
0.0
  0
LTYPE
  5
16
330
5
100
AcDbSymbolTableRecord
100
AcDbLinetypeTableRecord
  2
Continuous
 70
     0
  3
Solid line
 72
    65
 73
     0
 40
0.0
  0
ENDTAB
  0
TABLE
  2
LAYER
  5
2
330
0
100
AcDbSymbolTable
 70
     1
  0
LAYER
  5
10
330
2
100
AcDbSymbolTableRecord
100
AcDbLayerTableRecord
  2
0
 70
     0
 62
   106
  6
Continuous
370
     0
390
F
  0
ENDTAB
  0
TABLE
  2
STYLE
  5
3
330
0
100
AcDbSymbolTable
 70
     4
  0
STYLE
  5
11
330
3
100
AcDbSymbolTableRecord
100
AcDbTextStyleTableRecord
  2
Standard
 70
     0
 40
0.0
 41
1.0
 50
0.0
 71
     0
 42
2.5
  3
txt
  4

  0
STYLE
  5
6E
330
3
100
AcDbSymbolTableRecord
100
AcDbTextStyleTableRecord
  2
Default
 70
     0
 40
0.0
 41
1.0
 50
0.0
 71
     0
 42
2.5
  3

  4

1001
ACAD
1000
txt
1071
        0
  0
STYLE
  5
6F
330
3
100
AcDbSymbolTableRecord
100
AcDbTextStyleTableRecord
  2
ISO
 70
     0
 40
0.0
 41
1.0
 50
0.0
 71
     0
 42
2.5
  3

  4

1001
ACAD
1000
txt
1071
        0
  0
STYLE
  5
70
330
3
100
AcDbSymbolTableRecord
100
AcDbTextStyleTableRecord
  2
zucchetti
 70
     0
 40
0.0
 41
1.0
 50
0.0
 71
     0
 42
2.5
  3

  4

1001
ACAD
1000
Arial
1071
        0
  0
ENDTAB
  0
TABLE
  2
VIEW
  5
6
330
0
100
AcDbSymbolTable
 70
     0
  0
ENDTAB
  0
TABLE
  2
UCS
  5
7
330
0
100
AcDbSymbolTable
 70
     0
  0
ENDTAB
  0
TABLE
  2
APPID
  5
9
330
0
100
AcDbSymbolTable
 70
     2
  0
APPID
  5
12
330
9
100
AcDbSymbolTableRecord
100
AcDbRegAppTableRecord
  2
ACAD
 70
     0
  0
APPID
  5
1C7
330
9
100
AcDbSymbolTableRecord
100
AcDbRegAppTableRecord
  2
ACAD_MLEADERVER
 70
     0
  0
ENDTAB
  0
TABLE
  2
DIMSTYLE
  5
A
330
0
100
AcDbSymbolTable
 70
     4
100
AcDbDimStyleTable
  0
DIMSTYLE
105
27
330
A
100
AcDbSymbolTableRecord
100
AcDbDimStyleTableRecord
  2
ISO-25
 70
     0
 41
2.5
 42
0.625
 43
3.75
 44
1.25
 73
     0
 74
     0
 77
     1
 78
     8
140
2.5
141
2.5
143
0.03937
147
0.625
171
     3
172
     1
178
     0
271
     2
272
     2
274
     3
278
    44
283
     0
284
     8
340
11
  0
DIMSTYLE
105
71
330
A
100
AcDbSymbolTableRecord
100
AcDbDimStyleTableRecord
  2
Default
 70
     0
  3
<>
 41
4.375
 42
1.05
 44
2.1
 73
     0
 74
     0
 77
     1
 78
     8
140
3.5
146
0.4
147
1.75
172
     1
271
     2
178
     3
271
     2
272
     3
284
     8
340
6E
341
72
342
72
  0
DIMSTYLE
105
79
330
A
100
AcDbSymbolTableRecord
100
AcDbDimStyleTableRecord
  2
ISO
 70
     0
  3
<>
 41
4.375
 42
1.05
 44
2.1
 73
     0
 74
     0
 77
     1
 78
     8
140
3.5
146
0.4
147
1.75
172
     1
271
     2
178
     3
271
     2
272
     3
284
     8
340
6F
341
72
342
72
  0
DIMSTYLE
105
7A
330
A
100
AcDbSymbolTableRecord
100
AcDbDimStyleTableRecord
  2
zucchetti
 70
     0
  3
<>
 41
3.0
 42
0.9
 44
1.8
 73
     0
 74
     0
 77
     1
 78
     8
140
3.0
146
0.6
147
1.5
172
     1
176
     3
177
     3
271
     2
178
     3
271
     2
272
     2
284
     8
340
70
  0
ENDTAB
  0
TABLE
  2
BLOCK_RECORD
  5
1
330
0
100
AcDbSymbolTable
 70
     4
  0
BLOCK_RECORD
  5
1F
330
1
100
AcDbSymbolTableRecord
100
AcDbBlockTableRecord
  2
*Model_Space
340
22
  0
BLOCK_RECORD
  5
1B
330
1
100
AcDbSymbolTableRecord
100
AcDbBlockTableRecord
  2
*Paper_Space
340
1E
  0
BLOCK_RECORD
  5
23
330
1
100
AcDbSymbolTableRecord
100
AcDbBlockTableRecord
  2
*Paper_Space0
340
26
  0
BLOCK_RECORD
  5
72
330
1
100
AcDbSymbolTableRecord
100
AcDbBlockTableRecord
  2
_Closed
340
0
  0
BLOCK_RECORD
  5
7B
330
1
100
AcDbSymbolTableRecord
100
AcDbBlockTableRecord
  2
a
340
0
102
{BLKREFS
331
C2
102
}
  0
BLOCK_RECORD
  5
C3
330
1
100
AcDbSymbolTableRecord
100
AcDbBlockTableRecord
  2
c
340
0
102
{BLKREFS
331
181
102
}
  0
ENDTAB
  0
ENDSEC
  0
SECTION
  2
BLOCKS
  0
BLOCK
  5
20
330
1F
100
AcDbEntity
  8
0
100
AcDbBlockBegin
  2
*Model_Space
 70
     0
 10
0.0
 20
0.0
 30
0.0
  3
*Model_Space
  1

  0
ENDBLK
  5
21
330
1F
100
AcDbEntity
  8
0
100
AcDbBlockEnd
  0
BLOCK
  5
1C
330
1B
100
AcDbEntity
 67
     1
  8
0
100
AcDbBlockBegin
  2
*Paper_Space
 70
     0
 10
0.0
 20
0.0
 30
0.0
  3
*Paper_Space
  1

  0
ENDBLK
  5
1D
330
1B
100
AcDbEntity
 67
     1
  8
0
100
AcDbBlockEnd
  0
BLOCK
  5
24
330
23
100
AcDbEntity
  8
0
100
AcDbBlockBegin
  2
*Paper_Space0
 70
     0
 10
0.0
 20
0.0
 30
0.0
  3
*Paper_Space0
  1

  0
ENDBLK
  5
25
330
23
100
AcDbEntity
  8
0
100
AcDbBlockEnd
  0
BLOCK
  5
73
330
72
100
AcDbEntity
  8
0
100
AcDbBlockBegin
  2
_Closed
 70
     0
 10
0.0
 20
0.0
 30
0.0
  3
_Closed
  1

  0
LINE
  5
75
330
72
100
AcDbEntity
  8
0
  6
ByBlock
 62
     0
370
    -2
100
AcDbLine
 10
-1.0
 20
0.166667
 30
0.0
 11
0.0
 21
0.0
 31
0.0
  0
LINE
  5
76
330
72
100
AcDbEntity
  8
0
  6
ByBlock
 62
     0
370
    -2
100
AcDbLine
 10
0.0
 20
0.0
 30
0.0
 11
-1.0
 21
-0.166667
 31
0.0
  0
LINE
  5
77
330
72
100
AcDbEntity
  8
0
  6
ByBlock
 62
     0
370
    -2
100
AcDbLine
 10
-1.0
 20
0.166667
 30
0.0
 11
-1.0
 21
-0.166667
 31
0.0
  0
LINE
  5
78
330
72
100
AcDbEntity
  8
0
  6
ByBlock
 62
     0
370
    -2
100
AcDbLine
 10
0.0
 20
0.0
 30
0.0
 11
-1.0
 21
0.0
 31
0.0
  0
ENDBLK
  5
74
330
72
100
AcDbEntity
  8
0
100
AcDbBlockEnd
  0
BLOCK
  5
C0
330
7B
100
AcDbEntity
  8
0
100
AcDbBlockBegin
  2
a
 70
     0
 10
11.420481
 20
88.84539
 30
0.0
  3
a
  1

  0
ARC
  5
7C
330
7B
100
AcDbEntity
  8
0
  6
Continuous
 62
     0
370
    30
100
AcDbCircle
 10
79.001436
 20
579.22699
 30
0.0
 40
21.5
100
AcDbArc
 50
270.0
 51
90.0
  0
ARC
  5
7D
330
7B
100
AcDbEntity
  8
0
  6
Continuous
 62
     0
370
    30
100
AcDbCircle
 10
79.001436
 20
579.22699
 30
0.0
 40
21.5
100
AcDbArc
 50
90.0
 51
270.0
  0
ARC
  5
7E
330
7B
100
AcDbEntity
  8
0
  6
Continuous
 62
     0
370
    30
100
AcDbCircle
 10
79.001436
 20
579.22699
 30
0.0
 40
22.0
100
AcDbArc
 50
270.0
 51
90.0
  0
ARC
  5
7F
330
7B
100
AcDbEntity
  8
0
  6
Continuous
 62
     0
370
    30
100
AcDbCircle
 10
79.001436
 20
579.22699
 30
0.0
 40
22.0
100
AcDbArc
 50
90.0
 51
270.0
  0
LINE
  5
80
330
7B
100
AcDbEntity
  8
0
  6
Continuous
 62
     0
370
    30
100
AcDbLine
 10
82.451436
 20
609.05699
 30
0.0
 11
79.001436
 21
609.05699
 31
0.0
  0
LINE
  5
81
330
7B
100
AcDbEntity
  8
0
  6
Continuous
 62
     0
370
    30
100
AcDbLine
 10
79.001436
 20
609.05699
 30
0.0
 11
75.551436
 21
609.05699
 31
0.0
  0
SPLINE
  5
82
330
7B
100
AcDbEntity
  8
0
  6
Continuous
 62
     0
370
    30
100
AcDbSpline
210
0.0
220
0.0
230
1.0
 70
     8
 71
     3
 72
    12
 73
     8
 74
     0
 42
0.000000001
 43
0.0
 40
0.5
 40
0.5
 40
0.5
 40
0.5
 40
0.571755453842353
 40
0.714762811817824
 40
0.857107008533019
 40
0.9523690028443401
 40
1.0
 40
1.0
 40
1.0
 40
1.0
 10
82.95098148177767
 20
608.5569935760852
 30
0.0
 10
82.95101844304725
 20
608.5569945976754
 30
0.0
 10
82.85167747940298
 20
608.5569964767899
 30
0.0
 10
82.19100202553682
 20
608.5569789224048
 30
0.0
 10
80.93342468100232
 20
608.5570326335057
 30
0.0
 10
79.78290250373024
 20
608.5569896697998
 30
0.0
 10
79.19680280107224
 20
608.5569896697998
 30
0.0
 10
79.00143623351966
 20
608.5569896697998
 30
0.0
  0
LINE
  5
83
330
7B
100
AcDbEntity
  8
0
  6
Continuous
 62
     0
370
    30
100
AcDbLine
 10
79.001436
 20
608.55699
 30
0.0
 11
75.051891
 21
608.556993
 31
0.0
  0
LINE
  5
84
330
7B
100
AcDbEntity
  8
0
  6
Continuous
 62
     0
370
    30
100
AcDbLine
 10
75.051436
 20
608.55699
 30
0.0
 11
75.051436
 21
600.869722
 31
0.0
  0
LINE
  5
85
330
7B
100
AcDbEntity
  8
0
  6
Continuous
 62
     0
370
    30
100
AcDbLine
 10
82.951436
 20
608.55699
 30
0.0
 11
82.951436
 21
600.869849
 31
0.0
  0
LINE
  5
86
330
7B
100
AcDbEntity
  8
0
  6
Continuous
 62
     0
370
    30
100
AcDbLine
 10
75.551379
 20
609.056933
 30
0.0
 11
75.051484
 21
608.557037
 31
0.0
  0
LINE
  5
87
330
7B
100
AcDbEntity
  8
0
  6
Continuous
 62
     0
370
    30
100
AcDbLine
 10
82.951389
 20
608.557037
 30
0.0
 11
82.451493
 21
609.056933
 31
0.0
  0
LINE
  5
88
330
7B
100
AcDbEntity
  8
0
  6
Continuous
 62
     0
370
    30
100
AcDbLine
 10
119.000687
 20
505.226846
 30
0.0
 11
39.000687
 21
505.226846
 31
0.0
  0
LINE
  5
89
330
7B
100
AcDbEntity
  8
0
  6
Continuous
 62
     0
370
    30
100
AcDbLine
 10
119.000687
 20
873.226846
 30
0.0
 11
119.000687
 21
505.226846
 31
0.0
  0
LINE
  5
8A
330
7B
100
AcDbEntity
  8
0
  6
Continuous
 62
     0
370
    30
100
AcDbLine
 10
39.000687
 20
873.226846
 30
0.0
 11
119.000687
 21
873.226846
 31
0.0
  0
LINE
  5
8B
330
7B
100
AcDbEntity
  8
0
  6
Continuous
 62
     0
370
    30
100
AcDbLine
 10
39.000687
 20
505.226846
 30
0.0
 11
39.000687
 21
873.226846
 31
0.0
  0
ARC
  5
8C
330
7B
100
AcDbEntity
  8
0
  6
Continuous
 62
     0
370
    30
100
AcDbCircle
 10
78.999803
 20
699.224271
 30
0.0
 40
19.49999963236619
100
AcDbArc
 50
118.025786
 51
61.974244
  0
SPLINE
  5
8D
330
7B
100
AcDbEntity
  8
0
  6
Continuous
 62
     0
370
     0
100
AcDbSpline
210
0.0
220
0.0
230
1.0
 70
     8
 71
     3
 72
    12
 73
     8
 74
     0
 42
0.000000001
 43
0.0
 40
0.0000002552592966
 40
0.0000002552592966
 40
0.0000002552592966
 40
0.0000002552592966
 40
0.111111658793602
 40
0.333334976380807
 40
0.6666683097141349
 40
0.8888894365713791
 40
1.0
 40
1.0
 40
1.0
 40
1.0
 10
70.30683878296801
 20
715.1135315373541
 30
0.0
 10
70.26901454087053
 20
715.1863851532949
 30
0.0
 10
70.15872996577323
 20
715.4049460019579
 30
0.0
 10
69.96245575268932
 20
715.8331384543342
 30
0.0
 10
69.82523872074933
 20
716.2201345822243
 30
0.0
 10
69.80655150570664
 20
716.3982019762733
 30
0.0
 10
69.82726719244255
 20
716.4322534585983
 30
0.0
 10
69.83735546324664
 20
716.43762399766
 30
0.0
  0
SPLINE
  5
8E
330
7B
100
AcDbEntity
  8
0
  6
Continuous
 62
     0
370
     0
100
AcDbSpline
210
0.0
220
0.0
230
1.0
 70
     8
 71
     3
 72
    13
 73
     9
 74
     0
 42
0.000000001
 43
0.0
 40
0.0000123588535272
 40
0.0000123588535272
 40
0.0000123588535272
 40
0.0000123588535272
 40
2.992803358709377
 40
6.013014739974031
 40
8.43015363108694
 40
9.63994460077731
 40
10.44744378805638
 40
12.19204675732173
 40
12.19204675732173
 40
12.19204675732173
 40
12.19204675732173
 10
76.5584044729197
 20
725.000528682964
 30
0.0
 10
76.5353245496924
 20
724.0031852159982
 30
0.0
 10
76.21977628713034
 20
722.0052483087853
 30
0.0
 10
75.04961912812846
 20
719.4106343250608
 30
0.0
 10
73.66526577793326
 20
717.639118705693
 30
0.0
 10
72.57124414539379
 20
716.618866247846
 30
0.0
 10
71.56634260065567
 20
715.8375484257737
 30
0.0
 10
70.82993945260378
 20
715.3841353556571
 30
0.0
 10
70.30683904365202
 20
715.1135310352482
 30
0.0
  0
ELLIPSE
  5
8F
330
7B
100
AcDbEntity
  8
0
  6
Continuous
 62
     0
370
     0
100
AcDbEllipse
 10
76.623042
 20
725.000529
 30
0.0
 11
1.499619335520125
 21
-0.03379124937286914
 31
0.0
210
0.0
220
0.0
230
-1.0
 40
0.000972
 41
1.613891338454551
 42
3.164155209905763
  0
ARC
  5
90
330
7B
100
AcDbEntity
  8
0
  6
Continuous
 62
     0
370
     0
100
AcDbCircle
 10
-8584.848756
 20
925.789811
 30
0.0
 40
8663.73420052521
100
AcDbArc
 50
358.672004
 51
358.734045
  0
ELLIPSE
  5
91
330
7B
100
AcDbEntity
  8
0
  6
Continuous
 62
     0
370
     0
100
AcDbEllipse
 10
76.829761
 20
734.37946
 30
0.0
 11
1.499654140177965
 21
-0.03220962351672976
 31
0.0
210
0.0
220
0.0
230
-1.0
 40
0.000846
 41
1.610141286606395
 42
3.159796784683297
  0
SPLINE
  5
92
330
7B
100
AcDbEntity
  8
0
  6
Continuous
 62
     0
370
     0
100
AcDbSpline
210
0.0
220
0.0
230
1.0
 70
     8
 71
     3
 72
    18
 73
    14
 74
     0
 42
0.000000001
 43
0.0
 40
0.0
 40
0.0
 40
0.0
 40
0.0
 40
0.7027370259286991
 40
1.293683266474542
 40
1.630891291109695
 40
1.880691461960285
 40
2.083632206119296
 40
2.396523650565952
 40
2.757413614616584
 40
3.276994358666676
 40
3.724776255592948
 40
4.73901773150989
 40
6.510094996432836
 40
6.510094996432836
 40
6.510094996432836
 40
6.510094996432836
 10
78.99981429136946
 20
739.6770463353469
 30
0.0
 10
78.75919703613016
 20
739.6770463768758
 30
0.0
 10
78.31493918786305
 20
739.6180472946861
 30
0.0
 10
77.80510318569486
 20
739.3827626534663
 30
0.0
 10
77.48550019351117
 20
739.1423405211469
 30
0.0
 10
77.29139818173311
 20
738.9570831065544
 30
0.0
 10
77.15477283201349
 20
738.7375073382332
 30
0.0
 10
77.04979654389962
 20
738.4626929308965
 30
0.0
 10
76.96066175748308
 20
738.0738310640367
 30
0.0
 10
76.90968099427545
 20
737.6334208249842
 30
0.0
 10
76.86678969372801
 20
736.9742176713379
 30
0.0
 10
76.81430032379049
 20
735.8976772766008
 30
0.0
 10
76.78376681360945
 20
734.9696830327224
 30
0.0
 10
76.77074516004944
 20
734.3794602763924
 30
0.0
  0
LINE
  5
93
330
7B
100
AcDbEntity
  8
0
  6
Continuous
 62
     0
370
     0
100
AcDbLine
 10
78.999805
 20
741.177046
 30
0.0
 11
78.999805
 21
739.677046
 31
0.0
  0
SPLINE
  5
94
330
7B
100
AcDbEntity
  8
0
  6
Continuous
 62
     0
370
     0
100
AcDbSpline
210
0.0
220
0.0
230
1.0
 70
     8
 71
     3
 72
    18
 73
    14
 74
     0
 42
0.000000001
 43
0.0
 40
0.0
 40
0.0
 40
0.0
 40
0.0
 40
0.7027396030835431
 40
1.293683513966321
 40
1.630890113499688
 40
1.880689862114117
 40
2.083631079056739
 40
2.396523634479162
 40
2.75741634684073
 40
3.277001564642871
 40
3.724787057023509
 40
4.739029134248826
 40
6.510091641996262
 40
6.510091641996262
 40
6.510091641996262
 40
6.510091641996262
 10
78.99981583574296
 20
739.6770463353464
 30
0.0
 10
79.24043397340023
 20
739.6770462261029
 30
0.0
 10
79.68469180602875
 20
739.6180466148892
 30
0.0
 10
80.19452631159533
 20
739.3827606096226
 30
0.0
 10
80.51412717697409
 20
739.142338483417
 30
0.0
 10
80.70822802175576
 20
738.957080822876
 30
0.0
 10
80.84485304789152
 20
738.7375045325283
 30
0.0
 10
80.94982959581654
 20
738.4626887387745
 30
0.0
 10
81.03896483157453
 20
738.073824145641
 30
0.0
 10
81.08994593419226
 20
737.6334103241238
 30
0.0
 10
81.1328377080859
 20
736.9742043096176
 30
0.0
 10
81.18532769588097
 20
735.8976674698425
 30
0.0
 10
81.21586122953968
 20
734.9696779523574
 30
0.0
 10
81.22888269127333
 20
734.3794601126679
 30
0.0
  0
ELLIPSE
  5
95
330
7B
100
AcDbEntity
  8
0
  6
Continuous
 62
     0
370
     0
100
AcDbEllipse
 10
81.169846
 20
734.37946
 30
0.0
 11
-1.499654143804199
 21
-0.032209454681747
 31
0.0
210
0.0
220
0.0
230
1.0
 40
0.000846
 41
1.610155425166685
 42
3.159798021025408
  0
ARC
  5
96
330
7B
100
AcDbEntity
  8
0
  6
Continuous
 62
     0
370
     0
100
AcDbCircle
 10
8742.846948
 20
925.788554
 30
0.0
 40
8663.732738099507
100
AcDbArc
 50
181.265947
 51
181.327988
  0
ELLIPSE
  5
97
330
7B
100
AcDbEntity
  8
0
  6
Continuous
 62
     0
370
     0
100
AcDbEllipse
 10
81.376564
 20
725.00053
 30
0.0
 11
-1.499619339223566
 21
-0.03379108501773134
 31
0.0
210
0.0
220
0.0
230
1.0
 40
0.000972
 41
1.6139041616186
 42
3.164137163690805
  0
SPLINE
  5
98
330
7B
100
AcDbEntity
  8
0
  6
Continuous
 62
     0
370
     0
100
AcDbSpline
210
0.0
220
0.0
230
1.0
 70
     8
 71
     3
 72
    13
 73
     9
 74
     0
 42
0.000000001
 43
0.0
 40
0.0
 40
0.0
 40
0.0
 40
0.0
 40
1.735206470757562
 40
2.540312532369392
 40
3.746514832259412
 40
5.960462971079514
 40
8.979739629099337
 40
12.19204218860281
 40
12.19204218860281
 40
12.19204218860281
 40
12.19204218860281
 10
87.69277531898837
 20
715.1135364585657
 30
0.0
 10
87.17249223623128
 20
715.3826830604944
 30
0.0
 10
86.4393592358991
 20
715.8336871737388
 30
0.0
 10
85.43780892660476
 20
716.6108977223303
 30
0.0
 10
84.39426755598157
 20
717.5818109011497
 30
0.0
 10
83.03673270006274
 20
719.2829558649034
 30
0.0
 10
81.81378196161364
 20
721.8599743415904
 30
0.0
 10
81.46599279723543
 20
723.9300477709692
 30
0.0
 10
81.44122177093428
 20
725.00054319899
 30
0.0
  0
ELLIPSE
  5
99
330
7B
100
AcDbEntity
  8
0
  6
Continuous
 62
     0
370
     0
100
AcDbEllipse
 10
87.457435
 20
715.113527
 30
0.0
 11
0.704802626604872
 21
1.324104700365826
 31
0.0
210
0.0
220
0.0
230
-1.0
 40
0.138885
 41
-0.0000000000000169
 42
1.4970038733664
  0
SPLINE
  5
9A
330
7B
100
AcDbEntity
  8
0
  6
Continuous
 62
     0
370
     0
100
AcDbSpline
210
0.0
220
0.0
230
1.0
 70
     8
 71
     3
 72
    42
 73
    38
 74
     0
 42
0.000000001
 43
0.0
 40
0.0
 40
0.0
 40
0.0
 40
0.0
 40
4.726589141693007
 40
9.201614532002623
 40
13.20212686915214
 40
16.92203874283866
 40
20.3653019599159
 40
23.91111070304355
 40
27.30608913422157
 40
30.9682392554012
 40
34.24921792804013
 40
37.85068856298625
 40
39.91383326414524
 40
41.12804045713447
 40
41.59381843061748
 40
42.09462190348889
 40
42.75500960595274
 40
44.69606412910785
 40
46.12420232045444
 40
48.0518360759988
 40
49.99269947025343
 40
51.46192063953115
 40
53.42034377808636
 40
54.58720818292066
 40
55.09398862054752
 40
56.47437906945545
 40
58.71585406942724
 40
62.89972084250932
 40
67.20212528935113
 40
71.99865048165356
 40
75.52677566947948
 40
79.08092659373875
 40
82.47057370021248
 40
86.03290898663475
 40
89.75717742726508
 40
93.16707003430801
 40
96.23208308543599
 40
96.23208308543599
 40
96.23208308543599
 40
96.23208308543599
 10
87.69279467417587
 20
715.1135267456148
 30
0.0
 10
89.11002276794912
 20
714.3804096482077
 30
0.0
 10
91.66201129043444
 20
712.6092327437557
 30
0.0
 10
94.54624747442205
 20
709.2678829242918
 30
0.0
 10
96.41502320893636
 20
705.6513345455978
 30
0.0
 10
97.37452374948057
 20
702.041629467028
 30
0.0
 10
97.57759543912192
 20
698.4597810615136
 30
0.0
 10
97.08551418621639
 20
695.0171701134599
 30
0.0
 10
95.91082413416513
 20
691.6778571304864
 30
0.0
 10
94.15104692100334
 20
688.7150913813958
 30
0.0
 10
91.81101204329863
 20
686.0910340417036
 30
0.0
 10
89.42690659764426
 20
684.2642205114221
 30
0.0
 10
87.38737161659537
 20
683.1524756546298
 30
0.0
 10
86.22341842788944
 20
682.6463857667418
 30
0.0
 10
85.52997854119573
 20
682.3821368918487
 30
0.0
 10
85.00962059131561
 20
682.1983104756749
 30
0.0
 10
84.00413783186565
 20
681.8787025352217
 30
0.0
 10
82.66724685992077
 20
681.5549603682381
 30
0.0
 10
80.87456032692529
 20
681.290657236628
 30
0.0
 10
79.06142375408109
 20
681.1896745693405
 30
0.0
 10
77.23335554199872
 20
681.2793973890309
 30
0.0
 10
75.41497244029316
 20
681.5380143008377
 30
0.0
 10
73.8882369536637
 20
681.9017985664034
 30
0.0
 10
72.71695827687648
 20
682.2884860196536
 30
0.0
 10
71.74587214540847
 20
682.6569833475912
 30
0.0
 10
70.46397764512272
 20
683.2202498003185
 30
0.0
 10
68.1681792855837
 20
684.5119137781437
 30
0.0
 10
65.38585477988173
 20
686.799187186515
 30
0.0
 10
62.70304904117532
 20
690.3313772649362
 30
0.0
 10
61.07088621165332
 20
694.2342962270831
 30
0.0
 10
60.43440036013484
 20
698.160534984435
 30
0.0
 10
60.57635500535713
 20
701.6670992417276
 30
0.0
 10
61.40275178974281
 20
705.0813558025395
 30
0.0
 10
62.89787781642494
 20
708.3134367181452
 30
0.0
 10
65.01680484128096
 20
711.1817557744448
 30
0.0
 10
67.5403601724258
 20
713.4770200995808
 30
0.0
 10
69.38780365673989
 20
714.6381226115684
 30
0.0
 10
70.30682148708158
 20
715.1135223310023
 30
0.0
  0
ARC
  5
9B
330
7B
100
AcDbEntity
  8
0
  6
Continuous
 62
     0
370
    30
100
AcDbCircle
 10
92.869905
 20
725.255886
 30
0.0
 40
9.996187261613418
100
AcDbArc
 50
181.270058
 51
241.904258
  0
ARC
  5
9C
330
7B
100
AcDbEntity
  8
0
  6
Continuous
 62
     0
370
    30
100
AcDbCircle
 10
8939.672477
 20
924.932761
 30
0.0
 40
8859.051874793018
100
AcDbArc
 50
181.232287
 51
181.29295
  0
SPLINE
  5
9D
330
7B
100
AcDbEntity
  8
0
  6
Continuous
 62
     0
370
    30
100
AcDbSpline
210
0.0
220
0.0
230
1.0
 70
     8
 71
     3
 72
    19
 73
    15
 74
     0
 42
0.000000001
 43
0.0
 40
0.0
 40
0.0
 40
0.0
 40
0.0
 40
1.003620293491545
 40
1.849679648837704
 40
2.26450991269905
 40
2.674498565650568
 40
2.962075365376246
 40
3.263828819740265
 40
3.9186880920172
 40
4.624602637833409
 40
5.027323689331357
 40
6.036605692111922
 40
7.005418112429148
 40
8.833454599553155
 40
8.833454599553155
 40
8.833454599553155
 40
8.833454599553155
 10
78.9998052967097
 20
741.1770245760631
 30
0.0
 10
79.33341523124585
 20
741.1773947566153
 30
0.0
 10
79.95187832061214
 20
741.1003808344235
 30
0.0
 10
80.65876988018607
 20
740.8217791757868
 30
0.0
 10
81.13348661917502
 20
740.5286176394827
 30
0.0
 10
81.42627675787796
 20
740.3004051463346
 30
0.0
 10
81.67064837400201
 20
740.0735548210482
 30
0.0
 10
81.94224152291719
 20
739.7589469181984
 30
0.0
 10
82.21826032928902
 20
739.2734497514211
 30
0.0
 10
82.38862927812812
 20
738.7080464854814
 30
0.0
 10
82.5132154976734
 20
738.0127077858181
 30
0.0
 10
82.56582279067021
 20
737.2197494493316
 30
0.0
 10
82.62674419717212
 20
735.9528805276775
 30
0.0
 10
82.65600905070448
 20
735.0208552493784
 30
0.0
 10
82.66949429983413
 20
734.4116700045354
 30
0.0
  0
SPLINE
  5
9E
330
7B
100
AcDbEntity
  8
0
  6
Continuous
 62
     0
370
    30
100
AcDbSpline
210
0.0
220
0.0
230
1.0
 70
     8
 71
     3
 72
    19
 73
    15
 74
     0
 42
0.000000001
 43
0.0
 40
0.0
 40
0.0
 40
0.0
 40
0.0
 40
1.003620733051292
 40
1.8496811490703
 40
2.264512569986501
 40
2.674502182748369
 40
2.962079504856631
 40
3.263833547256618
 40
3.918693000355904
 40
4.624606164407658
 40
5.027327473074108
 40
6.036610066833889
 40
7.005423261226484
 40
8.833458884852973
 40
8.833458884852973
 40
8.833458884852973
 40
8.833458884852973
 10
78.99980335982605
 20
741.177024576064
 30
0.0
 10
78.666193276614
 20
741.1773949665858
 30
0.0
 10
78.04772963727822
 20
741.1003813537379
 30
0.0
 10
77.3408368885323
 20
740.8217801995003
 30
0.0
 10
76.86611879111899
 20
740.5286187552867
 30
0.0
 10
76.57332762534512
 20
740.300406101873
 30
0.0
 10
76.32895514743049
 20
740.0735556440213
 30
0.0
 10
76.05736171152972
 20
739.7589473930316
 30
0.0
 10
75.78134302854232
 20
739.2734503779621
 30
0.0
 10
75.61097452779933
 20
738.7080472766265
 30
0.0
 10
75.48638894922291
 20
738.0127086360212
 30
0.0
 10
75.43378256770256
 20
737.2197496890492
 30
0.0
 10
75.37286218006568
 20
735.9528805545266
 30
0.0
 10
75.34359765126473
 20
735.020855298513
 30
0.0
 10
75.3301123584263
 20
734.4116703415677
 30
0.0
  0
ARC
  5
9F
330
7B
100
AcDbEntity
  8
0
  6
Continuous
 62
     0
370
    30
100
AcDbCircle
 10
-8781.699184
 20
924.934326
 30
0.0
 40
8859.078216447615
100
AcDbArc
 50
358.707044
 51
358.767706
  0
ARC
  5
A0
330
7B
100
AcDbEntity
  8
0
  6
Continuous
 62
     0
370
    30
100
AcDbCircle
 10
65.12953
 20
725.255991
 30
0.0
 40
9.996360579876693
100
AcDbArc
 50
298.096237
 51
358.729355
  0
ARC
  5
A1
330
7B
100
AcDbEntity
  8
0
  6
Continuous
 62
     0
370
    30
100
AcDbCircle
 10
79.000687
 20
799.226846
 30
0.0
 40
19.49999963236613
100
AcDbArc
 50
118.025786
 51
61.974244
  0
SPLINE
  5
A2
330
7B
100
AcDbEntity
  8
0
  6
Continuous
 62
     0
370
     0
100
AcDbSpline
210
0.0
220
0.0
230
1.0
 70
     8
 71
     3
 72
    12
 73
     8
 74
     0
 42
0.000000001
 43
0.0
 40
0.0000002552593098
 40
0.0000002552593098
 40
0.0000002552593098
 40
0.0000002552593098
 40
0.111111658793604
 40
0.333334976380811
 40
0.6666683097141339
 40
0.888889436571378
 40
1.0
 40
1.0
 40
1.0
 40
1.0
 10
70.30772245374726
 20
815.1161068274896
 30
0.0
 10
70.26989821164977
 20
815.1889604434303
 30
0.0
 10
70.15961363655256
 20
815.4075212920934
 30
0.0
 10
69.96333942346854
 20
815.8357137444696
 30
0.0
 10
69.82612239152868
 20
816.2227098723598
 30
0.0
 10
69.80743517648594
 20
816.4007772664089
 30
0.0
 10
69.82815086322182
 20
816.4348287487339
 30
0.0
 10
69.83823913402588
 20
816.4401992877955
 30
0.0
  0
SPLINE
  5
A3
330
7B
100
AcDbEntity
  8
0
  6
Continuous
 62
     0
370
     0
100
AcDbSpline
210
0.0
220
0.0
230
1.0
 70
     8
 71
     3
 72
    13
 73
     9
 74
     0
 42
0.000000001
 43
0.0
 40
0.0000123588534981
 40
0.0000123588534981
 40
0.0000123588534981
 40
0.0000123588534981
 40
2.992803358709377
 40
6.013014739974031
 40
8.43015363108694
 40
9.63994460077731
 40
10.44744378805638
 40
12.19204675732173
 40
12.19204675732173
 40
12.19204675732173
 40
12.19204675732173
 10
76.559288143699
 20
825.0031039730995
 30
0.0
 10
76.53620822047168
 20
824.0057605061338
 30
0.0
 10
76.22065995790959
 20
822.0078235989208
 30
0.0
 10
75.05050279890776
 20
819.4132096151961
 30
0.0
 10
73.66614944871253
 20
817.6416939958286
 30
0.0
 10
72.57212781617301
 20
816.6214415379815
 30
0.0
 10
71.56722627143492
 20
815.8401237159092
 30
0.0
 10
70.83082312338306
 20
815.3867106457927
 30
0.0
 10
70.30772271443129
 20
815.1161063253837
 30
0.0
  0
ELLIPSE
  5
A4
330
7B
100
AcDbEntity
  8
0
  6
Continuous
 62
     0
370
     0
100
AcDbEllipse
 10
76.623925
 20
825.003104
 30
0.0
 11
1.499619335520125
 21
-0.03379124937286914
 31
0.0
210
0.0
220
0.0
230
-1.0
 40
0.000972
 41
1.613891338454486
 42
3.164155209905763
  0
ARC
  5
A5
330
7B
100
AcDbEntity
  8
0
  6
Continuous
 62
     0
370
     0
100
AcDbCircle
 10
-8584.847872
 20
1025.792387
 30
0.0
 40
8663.734200438757
100
AcDbArc
 50
358.672004
 51
358.734045
  0
ELLIPSE
  5
A6
330
7B
100
AcDbEntity
  8
0
  6
Continuous
 62
     0
370
     0
100
AcDbEllipse
 10
76.830645
 20
834.382036
 30
0.0
 11
1.499654140177965
 21
-0.03220962351672976
 31
0.0
210
0.0
220
0.0
230
-1.0
 40
0.000846
 41
1.610141286606395
 42
3.159796784683297
  0
SPLINE
  5
A7
330
7B
100
AcDbEntity
  8
0
  6
Continuous
 62
     0
370
     0
100
AcDbSpline
210
0.0
220
0.0
230
1.0
 70
     8
 71
     3
 72
    18
 73
    14
 74
     0
 42
0.000000001
 43
0.0
 40
0.0
 40
0.0
 40
0.0
 40
0.0
 40
0.7027370259286991
 40
1.293683266474542
 40
1.630891291109695
 40
1.880691461960285
 40
2.083632206119296
 40
2.396523650565952
 40
2.757413614616584
 40
3.276994358666676
 40
3.724776255592948
 40
4.73901773150989
 40
6.510094996432836
 40
6.510094996432836
 40
6.510094996432836
 40
6.510094996432836
 10
79.00069796214873
 20
839.6796216254825
 30
0.0
 10
78.76008070690946
 20
839.6796216670112
 30
0.0
 10
78.31582285864229
 20
839.6206225848217
 30
0.0
 10
77.80598685647414
 20
839.3853379436018
 30
0.0
 10
77.48638386429045
 20
839.1449158112824
 30
0.0
 10
77.29228185251239
 20
838.9596583966899
 30
0.0
 10
77.15565650279274
 20
838.7400826283687
 30
0.0
 10
77.05068021467892
 20
838.4652682210321
 30
0.0
 10
76.96154542826238
 20
838.0764063541723
 30
0.0
 10
76.91056466505475
 20
837.6359961151198
 30
0.0
 10
76.86767336450731
 20
836.9767929614734
 30
0.0
 10
76.81518399456976
 20
835.9002525667363
 30
0.0
 10
76.78465048438869
 20
834.9722583228579
 30
0.0
 10
76.77162883082869
 20
834.382035566528
 30
0.0
  0
LINE
  5
A8
330
7B
100
AcDbEntity
  8
0
  6
Continuous
 62
     0
370
     0
100
AcDbLine
 10
79.000689
 20
841.179622
 30
0.0
 11
79.000688
 21
839.679622
 31
0.0
  0
SPLINE
  5
A9
330
7B
100
AcDbEntity
  8
0
  6
Continuous
 62
     0
370
     0
100
AcDbSpline
210
0.0
220
0.0
230
1.0
 70
     8
 71
     3
 72
    18
 73
    14
 74
     0
 42
0.000000001
 43
0.0
 40
0.0
 40
0.0
 40
0.0
 40
0.0
 40
0.7027396030835431
 40
1.293683513966321
 40
1.630890113499688
 40
1.880689862114117
 40
2.083631079056739
 40
2.396523634479162
 40
2.75741634684073
 40
3.277001564642871
 40
3.724787057023509
 40
4.739029134248826
 40
6.510091641996262
 40
6.510091641996262
 40
6.510091641996262
 40
6.510091641996262
 10
79.00069950652221
 20
839.679621625482
 30
0.0
 10
79.2413176441795
 20
839.6796215162386
 30
0.0
 10
79.68557547680797
 20
839.6206219050248
 30
0.0
 10
80.19540998237454
 20
839.385335899758
 30
0.0
 10
80.51501084775333
 20
839.1449137735525
 30
0.0
 10
80.709111692535
 20
838.9596561130115
 30
0.0
 10
80.84573671867079
 20
838.7400798226638
 30
0.0
 10
80.95071326659587
 20
838.46526402891
 30
0.0
 10
81.0398485023538
 20
838.0763994357766
 30
0.0
 10
81.09082960497156
 20
837.6359856142593
 30
0.0
 10
81.13372137886523
 20
836.9767795997532
 30
0.0
 10
81.1862113666603
 20
835.9002427599781
 30
0.0
 10
81.21674490031893
 20
834.972253242493
 30
0.0
 10
81.22976636205266
 20
834.3820354028032
 30
0.0
  0
ELLIPSE
  5
AA
330
7B
100
AcDbEntity
  8
0
  6
Continuous
 62
     0
370
     0
100
AcDbEllipse
 10
81.170729
 20
834.382035
 30
0.0
 11
-1.499654143804199
 21
-0.032209454681747
 31
0.0
210
0.0
220
0.0
230
1.0
 40
0.000846
 41
1.610155425166707
 42
3.159798021025408
  0
ARC
  5
AB
330
7B
100
AcDbEntity
  8
0
  6
Continuous
 62
     0
370
     0
100
AcDbCircle
 10
8742.847832
 20
1025.791129
 30
0.0
 40
8663.732737809169
100
AcDbArc
 50
181.265947
 51
181.327988
  0
ELLIPSE
  5
AC
330
7B
100
AcDbEntity
  8
0
  6
Continuous
 62
     0
370
     0
100
AcDbEllipse
 10
81.377448
 20
825.003106
 30
0.0
 11
-1.499619339223566
 21
-0.03379108501773134
 31
0.0
210
0.0
220
0.0
230
1.0
 40
0.000972
 41
1.613904161618579
 42
3.164137163690805
  0
SPLINE
  5
AD
330
7B
100
AcDbEntity
  8
0
  6
Continuous
 62
     0
370
     0
100
AcDbSpline
210
0.0
220
0.0
230
1.0
 70
     8
 71
     3
 72
    13
 73
     9
 74
     0
 42
0.000000001
 43
0.0
 40
0.0
 40
0.0
 40
0.0
 40
0.0
 40
1.735206470757562
 40
2.540312532369392
 40
3.746514832259412
 40
5.960462971079514
 40
8.979739629099337
 40
12.19204218860281
 40
12.19204218860281
 40
12.19204218860281
 40
12.19204218860281
 10
87.6936589897677
 20
815.1161117487013
 30
0.0
 10
87.17337590701058
 20
815.38525835063
 30
0.0
 10
86.4402429066784
 20
815.8362624638743
 30
0.0
 10
85.43869259738398
 20
816.6134730124659
 30
0.0
 10
84.39515122676082
 20
817.5843861912851
 30
0.0
 10
83.03761637084204
 20
819.2855311550389
 30
0.0
 10
81.81466563239297
 20
821.8625496317259
 30
0.0
 10
81.46687646801473
 20
823.9326230611047
 30
0.0
 10
81.44210544171352
 20
825.0031184891258
 30
0.0
  0
ELLIPSE
  5
AE
330
7B
100
AcDbEntity
  8
0
  6
Continuous
 62
     0
370
     0
100
AcDbEllipse
 10
87.458318
 20
815.116102
 30
0.0
 11
0.704802626604872
 21
1.324104700365826
 31
0.0
210
0.0
220
0.0
230
-1.0
 40
0.138885
 41
-0.0000000000000169
 42
1.497003873366336
  0
SPLINE
  5
AF
330
7B
100
AcDbEntity
  8
0
  6
Continuous
 62
     0
370
     0
100
AcDbSpline
210
0.0
220
0.0
230
1.0
 70
     8
 71
     3
 72
    42
 73
    38
 74
     0
 42
0.000000001
 43
0.0
 40
0.0
 40
0.0
 40
0.0
 40
0.0
 40
4.726589141693007
 40
9.201614532002623
 40
13.20212686915214
 40
16.92203874283866
 40
20.3653019599159
 40
23.91111070304355
 40
27.30608913422157
 40
30.9682392554012
 40
34.24921792804013
 40
37.85068856298625
 40
39.91383326414524
 40
41.12804045713447
 40
41.59381843061748
 40
42.09462190348889
 40
42.75500960595274
 40
44.69606412910785
 40
46.12420232045444
 40
48.0518360759988
 40
49.99269947025343
 40
51.46192063953115
 40
53.42034377808636
 40
54.58720818292066
 40
55.09398862054752
 40
56.47437906945545
 40
58.71585406942724
 40
62.89972084250932
 40
67.20212528935113
 40
71.99865048165356
 40
75.52677566947948
 40
79.08092659373875
 40
82.47057370021248
 40
86.03290898663475
 40
89.75717742726508
 40
93.16707003430801
 40
96.23208308543599
 40
96.23208308543599
 40
96.23208308543599
 40
96.23208308543599
 10
87.69367834495515
 20
815.1161020357503
 30
0.0
 10
89.11090643872836
 20
814.3829849383432
 30
0.0
 10
91.66289496121368
 20
812.6118080338912
 30
0.0
 10
94.54713114520135
 20
809.2704582144274
 30
0.0
 10
96.41590687971558
 20
805.6539098357334
 30
0.0
 10
97.37540742025982
 20
802.0442047571635
 30
0.0
 10
97.57847910990125
 20
798.4623563516492
 30
0.0
 10
97.08639785699569
 20
795.0197454035954
 30
0.0
 10
95.91170780494443
 20
791.6804324206219
 30
0.0
 10
94.15193059178267
 20
788.7176666715314
 30
0.0
 10
91.81189571407793
 20
786.093609331839
 30
0.0
 10
89.42779026842356
 20
784.2667958015576
 30
0.0
 10
87.38825528737465
 20
783.1550509447654
 30
0.0
 10
86.22430209866872
 20
782.6489610568773
 30
0.0
 10
85.530862211975
 20
782.3847121819842
 30
0.0
 10
85.01050426209488
 20
782.2008857658105
 30
0.0
 10
84.00502150264492
 20
781.8812778253573
 30
0.0
 10
82.66813053070004
 20
781.5575356583736
 30
0.0
 10
80.87544399770454
 20
781.2932325267636
 30
0.0
 10
79.06230742486036
 20
781.1922498594761
 30
0.0
 10
77.234239212778
 20
781.2819726791664
 30
0.0
 10
75.41585611107243
 20
781.5405895909734
 30
0.0
 10
73.88912062444291
 20
781.9043738565389
 30
0.0
 10
72.71784194765581
 20
782.2910613097891
 30
0.0
 10
71.74675581618777
 20
782.6595586377268
 30
0.0
 10
70.46486131590206
 20
783.2228250904541
 30
0.0
 10
68.169062956363
 20
784.5144890682792
 30
0.0
 10
65.38673845066097
 20
786.8017624766505
 30
0.0
 10
62.70393271195456
 20
790.3339525550718
 30
0.0
 10
61.07176988243262
 20
794.2368715172186
 30
0.0
 10
60.43528403091409
 20
798.1631102745705
 30
0.0
 10
60.57723867613637
 20
801.669674531863
 30
0.0
 10
61.40363546052208
 20
805.083931092675
 30
0.0
 10
62.89876148720421
 20
808.3160120082807
 30
0.0
 10
65.0176885120602
 20
811.1843310645803
 30
0.0
 10
67.54124384320508
 20
813.4795953897165
 30
0.0
 10
69.38868732751914
 20
814.6406979017039
 30
0.0
 10
70.30770515786085
 20
815.1160976211379
 30
0.0
  0
ARC
  5
B0
330
7B
100
AcDbEntity
  8
0
  6
Continuous
 62
     0
370
    30
100
AcDbCircle
 10
92.870789
 20
825.258462
 30
0.0
 40
9.996187261613098
100
AcDbArc
 50
181.270058
 51
241.904258
  0
ARC
  5
B1
330
7B
100
AcDbEntity
  8
0
  6
Continuous
 62
     0
370
    30
100
AcDbCircle
 10
8939.673361
 20
1024.935336
 30
0.0
 40
8859.051874999594
100
AcDbArc
 50
181.232287
 51
181.29295
  0
SPLINE
  5
B2
330
7B
100
AcDbEntity
  8
0
  6
Continuous
 62
     0
370
    30
100
AcDbSpline
210
0.0
220
0.0
230
1.0
 70
     8
 71
     3
 72
    19
 73
    15
 74
     0
 42
0.000000001
 43
0.0
 40
0.0
 40
0.0
 40
0.0
 40
0.0
 40
1.003620293492097
 40
1.849679648838017
 40
2.264509912698779
 40
2.674498565649919
 40
2.962075365375425
 40
3.263828819739512
 40
3.9186880920163
 40
4.624602637832274
 40
5.02732368933025
 40
6.036605692111078
 40
7.005418112428446
 40
8.833454599552994
 40
8.833454599552994
 40
8.833454599552994
 40
8.833454599552994
 10
79.00068896748911
 20
841.1795998661987
 30
0.0
 10
79.33429890202547
 20
841.1799700467502
 30
0.0
 10
79.95276199139181
 20
841.1029561245592
 30
0.0
 10
80.65965355096563
 20
840.824354465922
 30
0.0
 10
81.1343702899542
 20
840.5311929296183
 30
0.0
 10
81.42716042865689
 20
840.3029804364703
 30
0.0
 10
81.67153204478106
 20
840.0761301111844
 30
0.0
 10
81.94312519369595
 20
839.7615222083343
 30
0.0
 10
82.21914400006804
 20
839.2760250415574
 30
0.0
 10
82.38951294890705
 20
838.7106217756179
 30
0.0
 10
82.51409916845262
 20
838.0152830759544
 30
0.0
 10
82.56670646144948
 20
837.2223247394679
 30
0.0
 10
82.62762786795122
 20
835.9554558178133
 30
0.0
 10
82.6568927214837
 20
835.0234305395142
 30
0.0
 10
82.67037797061337
 20
834.4142452946709
 30
0.0
  0
SPLINE
  5
B3
330
7B
100
AcDbEntity
  8
0
  6
Continuous
 62
     0
370
    30
100
AcDbSpline
210
0.0
220
0.0
230
1.0
 70
     8
 71
     3
 72
    19
 73
    15
 74
     0
 42
0.000000001
 43
0.0
 40
0.0
 40
0.0
 40
0.0
 40
0.0
 40
1.00362073305268
 40
1.849681149072627
 40
2.264512569988986
 40
2.674502182750778
 40
2.962079504858951
 40
3.263833547258671
 40
3.91869300035748
 40
4.624606164409114
 40
5.027327473075569
 40
6.036610066835193
 40
7.005423261227786
 40
8.833458884852885
 40
8.833458884852885
 40
8.833458884852885
 40
8.833458884852885
 10
79.00068703060535
 20
841.1795998661995
 30
0.0
 10
78.66707694739284
 20
841.1799702567205
 30
0.0
 10
78.04861330805636
 20
841.1029566438735
 30
0.0
 10
77.34172055930964
 20
840.824355489635
 30
0.0
 10
76.86700246189633
 20
840.531194045421
 30
0.0
 10
76.57421129612251
 20
840.3029813920072
 30
0.0
 10
76.32983881820826
 20
840.0761309341552
 30
0.0
 10
76.05824538230777
 20
839.7615226831656
 30
0.0
 10
75.78222669932094
 20
839.2760256680963
 30
0.0
 10
75.61185819857832
 20
838.7106225667608
 30
0.0
 10
75.48727262000196
 20
838.0152839261553
 30
0.0
 10
75.43466623848184
 20
837.2223249791834
 30
0.0
 10
75.37374585084484
 20
835.9554558446614
 30
0.0
 10
75.34448132204437
 20
835.0234305886482
 30
0.0
 10
75.33099602920555
 20
834.4142456317034
 30
0.0
  0
ARC
  5
B4
330
7B
100
AcDbEntity
  8
0
  6
Continuous
 62
     0
370
    30
100
AcDbCircle
 10
-8781.698301
 20
1024.936901
 30
0.0
 40
8859.078217158854
100
AcDbArc
 50
358.707044
 51
358.767706
  0
ARC
  5
B5
330
7B
100
AcDbEntity
  8
0
  6
Continuous
 62
     0
370
    30
100
AcDbCircle
 10
65.130413
 20
825.258566
 30
0.0
 40
9.996360579873407
100
AcDbArc
 50
298.096237
 51
358.729355
  0
LINE
  5
B6
330
7B
100
AcDbEntity
  8
0
  6
Continuous
 62
     0
370
    30
100
AcDbLine
 10
83.505141
 20
680.251866
 30
0.0
 11
83.649949
 21
680.251866
 31
0.0
  0
LINE
  5
B7
330
7B
100
AcDbEntity
  8
0
  6
Continuous
 62
     0
370
    30
100
AcDbLine
 10
74.349656
 20
680.251866
 30
0.0
 11
74.494485
 21
680.251866
 31
0.0
  0
LINE
  5
B8
330
7B
100
AcDbEntity
  8
0
  6
Continuous
 62
     0
370
    30
100
AcDbLine
 10
74.494485
 20
680.251866
 30
0.0
 11
74.348757
 21
680.251866
 31
0.0
  0
SPLINE
  5
B9
330
7B
100
AcDbEntity
  8
0
  6
Continuous
 62
     0
370
    30
100
AcDbSpline
210
0.0
220
0.0
230
1.0
 70
    24
 71
     3
 72
     9
 73
     5
 74
     0
 42
0.000000001
 43
0.0
 40
0.2896773866260746
 40
0.2896773866260746
 40
0.2896773866260746
 40
0.2896773866260746
 40
0.3
 40
0.3292190466162315
 40
0.3292190466162315
 40
0.3292190466162315
 40
0.3292190466162315
 10
83.65077657810323
 20
680.2518658173047
 30
0.0
 10
83.65077657962894
 20
680.2518658173047
 30
0.0
 10
83.63809963017749
 20
680.2518658173047
 30
0.0
 10
83.57609018344445
 20
680.2518658173047
 30
0.0
 10
83.50514091730668
 20
680.2518658173047
 30
0.0
  0
LINE
  5
BA
330
7B
100
AcDbEntity
  8
0
  6
Continuous
 62
     0
370
    30
100
AcDbLine
 10
74.495369
 20
780.254441
 30
0.0
 11
74.35054
 21
780.254441
 31
0.0
  0
SPLINE
  5
BB
330
7B
100
AcDbEntity
  8
0
  6
Continuous
 62
     0
370
    30
100
AcDbSpline
210
0.0
220
0.0
230
1.0
 70
    28
 71
     2
 72
     6
 73
     3
 74
     0
 42
0.000000001
 43
0.0
 40
0.2916666666666667
 40
0.2916666666666667
 40
0.2916666666666667
 40
0.3313243871708129
 40
0.3313243871708129
 40
0.3313243871708129
 10
83.65083251829785
 20
780.254441129308
 30
0.0
 41
0.9186407725518189
 10
83.6515252529783
 20
780.2544411293081
 30
0.0
 41
0.8876661661271159
 10
83.50602468016741
 20
780.2544411293081
 30
0.0
 41
0.8714321471142146
  0
ARC
  5
BC
330
7B
100
AcDbEntity
  8
0
  6
Continuous
 62
     0
370
    30
100
AcDbCircle
 10
78.996078
 20
794.29466
 30
0.0
 40
14.79170438665361
100
AcDbArc
 50
270.202195
 51
288.341921
  0
ARC
  5
BD
330
7B
100
AcDbEntity
  8
0
  6
Continuous
 62
     0
370
    30
100
AcDbCircle
 10
79.004925
 20
794.29239
 30
0.0
 40
14.78943343062155
100
AcDbArc
 50
251.656671
 51
269.98358
  0
ARC
  5
BE
330
7B
100
AcDbEntity
  8
0
  6
Continuous
 62
     0
370
    30
100
AcDbCircle
 10
78.995195
 20
694.292085
 30
0.0
 40
14.79170438666017
100
AcDbArc
 50
270.202195
 51
288.341921
  0
ARC
  5
BF
330
7B
100
AcDbEntity
  8
0
  6
Continuous
 62
     0
370
    30
100
AcDbCircle
 10
79.004041
 20
694.289815
 30
0.0
 40
14.78943343062613
100
AcDbArc
 50
251.656671
 51
269.98358
  0
ENDBLK
  5
C1
330
7B
100
AcDbEntity
  8
0
100
AcDbBlockEnd
  0
BLOCK
  5
17F
330
C3
100
AcDbEntity
  8
0
100
AcDbBlockBegin
  2
c
 70
     0
 10
11.420481
 20
88.84539
 30
0.0
  3
c
  1

  0
LINE
  5
C4
330
C3
100
AcDbEntity
  8
0
  6
Continuous
 62
     0
370
    30
100
AcDbLine
 10
280.932452
 20
557.726959
 30
0.0
 11
280.932452
 21
600.726959
 31
0.0
  0
LINE
  5
C5
330
C3
100
AcDbEntity
  8
0
  6
Continuous
 62
     0
370
    30
100
AcDbLine
 10
280.932452
 20
557.726959
 30
0.0
 11
280.432452
 21
557.226959
 31
0.0
  0
LINE
  5
C6
330
C3
100
AcDbEntity
  8
0
  6
Continuous
 62
     0
370
    30
100
AcDbLine
 10
280.432452
 20
557.226959
 30
0.0
 11
280.432452
 21
601.226959
 31
0.0
  0
LINE
  5
C7
330
C3
100
AcDbEntity
  8
0
  6
Continuous
 62
     0
370
    30
100
AcDbLine
 10
267.182452
 20
557.226959
 30
0.0
 11
230.932452
 21
557.226959
 31
0.0
  0
LINE
  5
C8
330
C3
100
AcDbEntity
  8
0
  6
Continuous
 62
     0
370
    30
100
AcDbLine
 10
230.932452
 20
601.226959
 30
0.0
 11
230.932452
 21
557.226959
 31
0.0
  0
SPLINE
  5
C9
330
C3
100
AcDbEntity
  8
0
  6
Continuous
 62
     0
370
     0
100
AcDbSpline
210
0.0
220
0.0
230
1.0
 70
     8
 71
     3
 72
    24
 73
    20
 74
     0
 42
0.000000001
 43
0.0
 40
0.0
 40
0.0
 40
0.0
 40
0.0
 40
0.018584924447234
 40
0.055754773341702
 40
0.081804832373189
 40
0.118407724601889
 40
0.170476904286106
 40
0.245862245642373
 40
0.358759051815003
 40
0.454342536345224
 40
0.5456562086992379
 40
0.641239206821889
 40
0.7541351802452729
 40
0.8295249270934658
 40
0.881600431068801
 40
0.9181821384176029
 40
0.944255003342431
 40
0.9814183344474771
 40
1.0
 40
1.0
 40
1.0
 40
1.0
 10
267.1824523208551
 20
557.2269592285156
 30
0.0
 10
267.183223580196
 20
557.2269592285156
 30
0.0
 10
267.189597083257
 20
557.2287073102491
 30
0.0
 10
267.2384312560998
 20
557.2389848450296
 30
0.0
 10
267.3447755942645
 20
557.2615319693346
 30
0.0
 10
267.521503482889
 20
557.2980424910625
 30
0.0
 10
267.8792712456842
 20
557.3684856173616
 30
0.0
 10
268.6078835705015
 20
557.4971358882154
 30
0.0
 10
269.7736755767122
 20
557.6534003281832
 30
0.0
 10
271.2195185493987
 20
557.7493298905422
 30
0.0
 10
272.6453718429383
 20
557.749332292733
 30
0.0
 10
274.09121708575
 20
557.6534079326163
 30
0.0
 10
275.2570308178126
 20
557.4971436401872
 30
0.0
 10
275.9856722682679
 20
557.3684812588876
 30
0.0
 10
276.3432595304677
 20
557.2980413780684
 30
0.0
 10
276.5202390661992
 20
557.2615324395003
 30
0.0
 10
276.6263869064325
 20
557.238983270594
 30
0.0
 10
276.6752903187792
 20
557.2287066959134
 30
0.0
 10
276.6816769944277
 20
557.2269592285156
 30
0.0
 10
276.6824523208551
 20
557.2269592285156
 30
0.0
  0
LINE
  5
CA
330
C3
100
AcDbEntity
  8
0
  6
Continuous
 62
     0
370
    30
100
AcDbLine
 10
276.682452
 20
557.226959
 30
0.0
 11
280.432452
 21
557.226959
 31
0.0
  0
SPLINE
  5
CB
330
C3
100
AcDbEntity
  8
0
  6
Continuous
 62
     0
370
     0
100
AcDbSpline
210
0.0
220
0.0
230
1.0
 70
     8
 71
     3
 72
    24
 73
    20
 74
     0
 42
0.000000001
 43
0.0
 40
0.0
 40
0.0
 40
0.0
 40
0.0
 40
0.01863668698043
 40
0.055910060941291
 40
0.08197980755346
 40
0.118515250696554
 40
0.170558331363784
 40
0.245898782828103
 40
0.3587147753289371
 40
0.4543242884535449
 40
0.5457051194251229
 40
0.6413160178973569
 40
0.7541243467554002
 40
0.8294703504639498
 40
0.8815373060217231
 40
0.918147231170306
 40
0.9442054678077451
 40
0.9814018226025819
 40
1.0
 40
1.0
 40
1.0
 40
1.0
 10
276.032055111408
 20
601.2269592284883
 30
0.0
 10
276.0313835356531
 20
601.2269593544446
 30
0.0
 10
276.0258615185618
 20
601.225652124864
 30
0.0
 10
275.983843208997
 20
601.2179701015199
 30
0.0
 10
275.8921504758853
 20
601.2011452527803
 30
0.0
 10
275.7392348247213
 20
601.1739722613096
 30
0.0
 10
275.4306999851133
 20
601.1215820495692
 30
0.0
 10
274.8018579997419
 20
601.0259035945498
 30
0.0
 10
273.7948465812058
 20
600.9099805031071
 30
0.0
 10
272.5473130167652
 20
600.8389437955334
 30
0.0
 10
271.3172038455842
 20
600.8390294220276
 30
0.0
 10
270.0697603376605
 20
600.9100326942039
 30
0.0
 10
269.062588346352
 20
601.0259278501633
 30
0.0
 10
268.4337941307991
 20
601.1216159028215
 30
0.0
 10
268.125071438663
 20
601.1740318470362
 30
0.0
 10
267.9725515716972
 20
601.2012113339657
 30
0.0
 10
267.8807505060764
 20
601.2180020610209
 30
0.0
 10
267.8386162114475
 20
601.2256570180259
 30
0.0
 10
267.8331173694824
 20
601.2269592285156
 30
0.0
 10
267.8324523208551
 20
601.2269592285156
 30
0.0
  0
SPLINE
  5
CC
330
C3
100
AcDbEntity
  8
0
  6
Continuous
 62
     0
370
    30
100
AcDbSpline
210
0.0
220
0.0
230
1.0
 70
    28
 71
     2
 72
     8
 73
     5
 74
     0
 42
0.000000001
 43
0.0
 40
0.0
 40
0.0
 40
0.0
 40
0.5
 40
0.5
 40
1.0
 40
1.0
 40
1.0
 10
275.3824523208551
 20
609.0569591522217
 30
0.0
 41
1.0
 10
275.3824524716593
 20
609.0569591522217
 30
0.0
 41
0.707106781186548
 10
271.9324524716594
 20
609.0569591522217
 30
0.0
 41
1.0
 10
268.4824524716594
 20
609.0569591522217
 30
0.0
 41
0.707106781186548
 10
268.4824523208551
 20
609.0569591522217
 30
0.0
 41
1.0
  0
LINE
  5
CD
330
C3
100
AcDbEntity
  8
0
  6
Continuous
 62
     0
370
    30
100
AcDbLine
 10
275.382452
 20
609.056959
 30
0.0
 11
275.882452
 21
608.556959
 31
0.0
  0
SPLINE
  5
CE
330
C3
100
AcDbEntity
  8
0
  6
Continuous
 62
     0
370
    30
100
AcDbSpline
210
0.0
220
0.0
230
1.0
 70
     8
 71
     3
 72
    16
 73
    12
 74
     0
 42
0.000000001
 43
0.0
 40
0.0
 40
0.0
 40
0.0
 40
0.0
 40
0.04763099675901
 40
0.14289299027703
 40
0.28523718580685
 40
0.428244545806745
 40
0.571172638337005
 40
0.7141139409365771
 40
0.857056401413549
 40
0.9523521338045171
 40
1.0
 40
1.0
 40
1.0
 40
1.0
 10
275.8824523208551
 20
608.5569591522217
 30
0.0
 10
275.8824523293949
 20
608.5569591522217
 30
0.0
 10
275.8374716840568
 20
608.5569591522217
 30
0.0
 10
275.4875528120914
 20
608.5570021029441
 30
0.0
 10
274.4814697765951
 20
608.5569484825048
 30
0.0
 10
272.8460028216746
 20
608.5569691699832
 30
0.0
 10
271.0267504640911
 20
608.5569574832894
 30
0.0
 10
269.3871553097936
 20
608.5569596032869
 30
0.0
 10
268.3790935748378
 20
608.5569592611807
 30
0.0
 10
268.0265392177437
 20
608.556959319775
 30
0.0
 10
267.982452477841
 20
608.5569593006647
 30
0.0
 10
267.9824523208551
 20
608.5569591522217
 30
0.0
  0
LINE
  5
CF
330
C3
100
AcDbEntity
  8
0
  6
Continuous
 62
     0
370
    30
100
AcDbLine
 10
275.882452
 20
601.226959
 30
0.0
 11
275.882452
 21
608.556959
 31
0.0
  0
SPLINE
  5
D0
330
C3
100
AcDbEntity
  8
0
  6
Continuous
 62
     0
370
    30
100
AcDbSpline
210
0.0
220
0.0
230
1.0
 70
     8
 71
     3
 72
    16
 73
    12
 74
     0
 42
0.000000001
 43
0.0
 40
0.5
 40
0.5
 40
0.5
 40
0.5
 40
0.50000110892867
 40
0.571419917372153
 40
0.6428607778721701
 40
0.7142929566362282
 40
0.785706640232745
 40
0.857138931915021
 40
0.9285802809968668
 40
0.9761934269989562
 40
1.0
 40
1.0
 40
1.0
 40
1.0
 10
267.9824523208447
 20
601.2268831997833
 30
0.0
 10
267.9824523208687
 20
601.2268831999119
 30
0.0
 10
267.9824559745492
 20
601.2268910881148
 30
0.0
 10
268.2539691284281
 20
601.1758463789005
 30
0.0
 10
269.3848327236846
 20
601.0038020113179
 30
0.0
 10
271.020395780803
 20
600.8640764195126
 30
0.0
 10
272.8444585197709
 20
600.8640657885419
 30
0.0
 10
274.4803391730164
 20
601.0038596884388
 30
0.0
 10
275.484458861312
 20
601.1566206407382
 30
0.0
 10
275.8388304834282
 20
601.2186649042211
 30
0.0
 10
275.8824523294085
 20
601.2269592285156
 30
0.0
 10
275.8824523208551
 20
601.2269592285156
 30
0.0
  0
LINE
  5
D1
330
C3
100
AcDbEntity
  8
0
  6
Continuous
 62
     0
370
    30
100
AcDbLine
 10
267.182452
 20
557.226959
 30
0.0
 11
276.682452
 21
557.226959
 31
0.0
  0
LINE
  5
D2
330
C3
100
AcDbEntity
  8
0
  6
Continuous
 62
     0
370
    30
100
AcDbLine
 10
275.882452
 20
601.226959
 30
0.0
 11
276.032055
 21
601.226959
 31
0.0
  0
LINE
  5
D3
330
C3
100
AcDbEntity
  8
0
  6
Continuous
 62
     0
370
    30
100
AcDbLine
 10
267.982452
 20
608.556959
 30
0.0
 11
267.982452
 21
601.226883
 31
0.0
  0
LINE
  5
D4
330
C3
100
AcDbEntity
  8
0
  6
Continuous
 62
     0
370
    30
100
AcDbLine
 10
268.482452
 20
609.056959
 30
0.0
 11
267.982452
 21
608.556959
 31
0.0
  0
LINE
  5
D5
330
C3
100
AcDbEntity
  8
0
  6
Continuous
 62
     0
370
    30
100
AcDbLine
 10
230.932452
 20
601.226959
 30
0.0
 11
267.832452
 21
601.226959
 31
0.0
  0
LINE
  5
D6
330
C3
100
AcDbEntity
  8
0
  6
Continuous
 62
     0
370
    30
100
AcDbLine
 10
280.432452
 20
601.226959
 30
0.0
 11
276.032055
 21
601.226959
 31
0.0
  0
LINE
  5
D7
330
C3
100
AcDbEntity
  8
0
  6
Continuous
 62
     0
370
    30
100
AcDbLine
 10
280.932452
 20
600.726959
 30
0.0
 11
280.432452
 21
601.226959
 31
0.0
  0
SPLINE
  5
D8
330
C3
100
AcDbEntity
  8
0
  6
Continuous
 62
     0
370
    30
100
AcDbSpline
210
0.0
220
0.0
230
1.0
 70
     8
 71
     3
 72
    18
 73
    14
 74
     0
 42
0.000000001
 43
0.0
 40
50.26909665648908
 40
50.26909665648908
 40
50.26909665648908
 40
50.26909665648908
 40
51.34852973154879
 40
53.17522302435439
 40
56.33368274125549
 40
59.48403434448655
 40
62.78416741764998
 40
65.93400671407747
 40
69.08366762508942
 40
72.24626700647093
 40
75.40941931188561
 40
78.55439778159521
 40
80.26010153813792
 40
80.26010153813792
 40
80.26010153813792
 40
80.26010153813792
 10
230.4323805091522
 20
704.0012198548889
 30
0.0
 10
230.426102117101
 20
703.6579359954477
 30
0.0
 10
230.4091936730232
 20
702.723675674086
 30
0.0
 10
230.3741302910301
 20
700.7314617693759
 30
0.0
 10
230.3284258502368
 20
698.0074618290888
 30
0.0
 10
230.278533663579
 20
694.8380235754647
 30
0.0
 10
230.2348360802433
 20
691.8456292047817
 30
0.0
 10
230.1991006464023
 20
689.1515368088924
 30
0.0
 10
230.1728986756785
 20
686.8855518395385
 30
0.0
 10
230.1567293265709
 20
685.0951180879495
 30
0.0
 10
230.151284415937
 20
683.8548545796743
 30
0.0
 10
230.1558981123525
 20
683.3096135206544
 30
0.0
 10
230.1629005110821
 20
683.2241361371207
 30
0.0
 10
230.1658666862875
 20
683.2243271133809
 30
0.0
  0
LINE
  5
D9
330
C3
100
AcDbEntity
  8
0
  6
Continuous
 62
     0
370
    30
100
AcDbLine
 10
230.432381
 20
704.090788
 30
0.0
 11
230.432381
 21
704.00122
 31
0.0
  0
LINE
  5
DA
330
C3
100
AcDbEntity
  8
0
  6
Continuous
 62
     0
370
     0
100
AcDbLine
 10
230.432381
 20
704.359493
 30
0.0
 11
230.432381
 21
704.090788
 31
0.0
  0
SPLINE
  5
DB
330
C3
100
AcDbEntity
  8
0
  6
Continuous
 62
     0
370
     0
100
AcDbSpline
210
0.0
220
0.0
230
1.0
 70
     8
 71
     3
 72
    31
 73
    27
 74
     0
 42
0.000000001
 43
0.0
 40
15.32813771036088
 40
15.32813771036088
 40
15.32813771036088
 40
15.32813771036088
 40
15.51986675377279
 40
17.29373133776561
 40
19.06759592175842
 40
20.72484435273388
 40
22.38209278370935
 40
23.98914882251212
 40
25.59620486131488
 40
27.35827577344467
 40
29.12034668557445
 40
30.83629195100925
 40
32.55223721644407
 40
34.33840770994256
 40
36.12457820344106
 40
37.89820160738812
 40
39.67182501133518
 40
41.36497722916518
 40
43.05812944699517
 40
44.7693306390904
 40
46.4805318311856
 40
48.2523276796901
 40
50.02412352819457
 40
52.03170136852293
 40
54.03927920885126
 40
54.04451950318705
 40
54.04451950318705
 40
54.04451950318705
 40
54.04451950318705
 10
230.1987880179841
 20
683.2242398818069
 30
0.0
 10
230.1980868383394
 20
683.200740270217
 30
0.0
 10
230.1909480753231
 20
682.963227328424
 30
0.0
 10
230.1783455800654
 20
682.5781081168797
 30
0.0
 10
230.1634357628092
 20
682.2145227996712
 30
0.0
 10
230.1515116457141
 20
682.026678613654
 30
0.0
 10
230.142550635096
 20
682.0025012143834
 30
0.0
 10
230.1362807006533
 20
682.1330062046214
 30
0.0
 10
230.1325356065798
 20
682.4198476128744
 30
0.0
 10
230.1315973348094
 20
682.8796195125553
 30
0.0
 10
230.1337560482467
 20
683.5185204031899
 30
0.0
 10
230.1389389184496
 20
684.3117992801192
 30
0.0
 10
230.1470958030016
 20
685.2586675093363
 30
0.0
 10
230.1583442572751
 20
686.3643121524838
 30
0.0
 10
230.1726516911224
 20
687.6197943604267
 30
0.0
 10
230.1897070060641
 20
688.9965694542732
 30
0.0
 10
230.2089957329039
 20
690.4559784590889
 30
0.0
 10
230.2302385355245
 20
691.9811712553205
 30
0.0
 10
230.2531823893545
 20
693.5580453014529
 30
0.0
 10
230.2779675671641
 20
695.1961500173536
 30
0.0
 10
230.3046735957829
 20
696.899571040409
 30
0.0
 10
230.3330114428711
 20
698.6469851593558
 30
0.0
 10
230.3640449845418
 20
700.4993349590152
 30
0.0
 10
230.397247863326
 20
702.4151281289824
 30
0.0
 10
230.4206505076491
 20
703.7181365943198
 30
0.0
 10
230.4323500883403
 20
704.3578273320882
 30
0.0
 10
230.4323805592131
 20
704.3594933691783
 30
0.0
  0
LINE
  5
DC
330
C3
100
AcDbEntity
  8
0
  6
Continuous
 62
     0
370
     0
100
AcDbLine
 10
230.132335
 20
704.449062
 30
0.0
 11
228.232426
 21
704.449062
 31
0.0
  0
SPLINE
  5
DD
330
C3
100
AcDbEntity
  8
0
  6
Continuous
 62
     0
370
     0
100
AcDbSpline
210
0.0
220
0.0
230
1.0
 70
     8
 71
     3
 72
    19
 73
    15
 74
     0
 42
0.000000001
 43
0.0
 40
0.0
 40
0.0
 40
0.0
 40
0.0
 40
0.023318075111569
 40
0.069954225334706
 40
0.105069162762441
 40
0.140283163225278
 40
0.210998146606018
 40
0.282354916961713
 40
0.318346447764536
 40
0.354500068764808
 40
0.4270889148248179
 40
0.500000000000018
 40
0.572911085175215
 40
0.5965176030722322
 40
0.5965176030722322
 40
0.5965176030722322
 40
0.5965176030722322
 10
228.2324262820754
 20
704.4490617273653
 30
0.0
 10
228.2397447181587
 20
704.041930309012
 30
0.0
 10
228.2617000341871
 20
702.8065651360466
 30
0.0
 10
228.2945684837495
 20
700.8937424805526
 30
0.0
 10
228.3299391768128
 20
698.7522650708557
 30
0.0
 10
228.3710435094813
 20
696.1756153669389
 30
0.0
 10
228.4188527798639
 20
693.0041572923229
 30
0.0
 10
228.4591421346886
 20
690.0764610928532
 30
0.0
 10
228.4856177355512
 20
687.9673206323388
 30
0.0
 10
228.5080045410996
 20
686.0322255825874
 30
0.0
 10
228.5273842855258
 20
684.0107298831165
 30
0.0
 10
228.5353032029415
 20
682.3757122533184
 30
0.0
 10
228.5291599761896
 20
681.7891427005732
 30
0.0
 10
228.5211512242783
 20
681.7242824464093
 30
0.0
 10
228.5189304248948
 20
681.7244494085386
 30
0.0
  0
SPLINE
  5
DE
330
C3
100
AcDbEntity
  8
0
  6
Continuous
 62
     0
370
     0
100
AcDbSpline
210
0.0
220
0.0
230
1.0
 70
     8
 71
     3
 72
    19
 73
    15
 74
     0
 42
0.000000001
 43
0.0
 40
0.4034824142384074
 40
0.4034824142384074
 40
0.4034824142384074
 40
0.4034824142384074
 40
0.42708891836834
 40
0.499999996303494
 40
0.57291107571774
 40
0.6454999154717019
 40
0.681653534321903
 40
0.717645065424837
 40
0.7890018421048379
 40
0.8597168288403509
 40
0.894930827873293
 40
0.9300457620995981
 40
0.9766819206998658
 40
1.0
 40
1.0
 40
1.0
 40
1.0
 10
229.8458297415742
 20
681.7244494081269
 30
0.0
 10
229.8436089847293
 20
681.7242824698437
 30
0.0
 10
229.8356004265008
 20
681.7891427688122
 30
0.0
 10
229.8294577313425
 20
682.3757122276033
 30
0.0
 10
229.8373768530883
 20
684.0107296339582
 30
0.0
 10
229.8567568179273
 20
686.0322250642597
 30
0.0
 10
229.8791437955859
 20
687.9673199068333
 30
0.0
 10
229.9056194596846
 20
690.0764603440886
 30
0.0
 10
229.9459086689688
 20
693.0041566457968
 30
0.0
 10
229.9937179236655
 20
696.175614845821
 30
0.0
 10
230.034822269553
 20
698.7522645190284
 30
0.0
 10
230.0701929549271
 20
700.8937419968797
 30
0.0
 10
230.1030613209167
 20
702.8065648364578
 30
0.0
 10
230.125016488171
 20
704.0419302352337
 30
0.0
 10
230.1323348613925
 20
704.4490617273653
 30
0.0
  0
SPLINE
  5
DF
330
C3
100
AcDbEntity
  8
0
  6
Continuous
 62
     0
370
     0
100
AcDbSpline
210
0.0
220
0.0
230
1.0
 70
     8
 71
     3
 72
    65
 73
    61
 74
     0
 42
0.000000001
 43
0.0
 40
-27.01691344909239
 40
-27.01691344909239
 40
-27.01691344909239
 40
-27.01691344909239
 40
-27.01621157198858
 40
-26.05134687298899
 40
-25.0864821739894
 40
-24.12161747498981
 40
-23.15675277599022
 40
-22.19188807699061
 40
-21.22702337799102
 40
-20.26215867899144
 40
-19.29729397999185
 40
-18.33242928099225
 40
-17.36756458199266
 40
-16.40269988299307
 40
-15.43783518399348
 40
-14.47297048499389
 40
-13.5081057859943
 40
-12.54324108699471
 40
-11.57837638799512
 40
-10.61351168899552
 40
-9.648646989995937
 40
-8.683782290996344
 40
-7.718917591996754
 40
-6.75405289299716
 40
-5.78918819399757
 40
-4.824323494997979
 40
-3.85945879599839
 40
-2.894594096998798
 40
-1.929729397999207
 40
-0.9648646989996159
 40
-0.0000000000000249
 40
0.9648646989995662
 40
1.929729397999157
 40
2.894594096998752
 40
3.859458795998343
 40
4.824323494997933
 40
5.789188193997527
 40
6.754052892997119
 40
7.718917591996709
 40
8.683782290996298
 40
9.648646989995889
 40
10.61351168899548
 40
11.57837638799507
 40
12.54324108699466
 40
13.50810578599425
 40
14.47297048499385
 40
15.43783518399344
 40
16.40269988299303
 40
17.36756458199262
 40
18.33242928099222
 40
19.2972939799918
 40
20.26215867899138
 40
21.22702337799098
 40
22.19188807699058
 40
23.15675277599016
 40
24.12161747498977
 40
25.08648217398935
 40
26.05134687298893
 40
27.01621157198853
 40
27.01691344905056
 40
27.01691344905056
 40
27.01691344905056
 40
27.01691344905056
 10
227.9324596995609
 20
704.3551662165532
 30
0.0
 10
227.9324637827647
 20
704.3549429541292
 30
0.0
 10
227.9380810051788
 20
704.0478013991702
 30
0.0
 10
227.9493151711598
 20
703.4281767548946
 30
0.0
 10
227.9661042422062
 20
702.4859715204107
 30
0.0
 10
227.9827883096181
 20
701.5334513300566
 30
0.0
 10
227.9993138416351
 20
700.5736595960869
 30
0.0
 10
228.0156291208199
 20
699.6096037371462
 30
0.0
 10
228.0316827387783
 20
698.644320363253
 30
0.0
 10
228.0474242048484
 20
697.6808457197811
 30
0.0
 10
228.062803985206
 20
696.7222114937534
 30
0.0
 10
228.0777736908051
 20
695.7714338389738
 30
0.0
 10
228.0922862210298
 20
694.831504270882
 30
0.0
 10
228.1062959141937
 20
693.9053801510353
 30
0.0
 10
228.1197586905914
 20
692.9959754097813
 30
0.0
 10
228.1326321913551
 20
692.1061513705529
 30
0.0
 10
228.1448759116865
 20
691.2387077490691
 30
0.0
 10
228.1564513283125
 20
690.3963738438628
 30
0.0
 10
228.1673220206895
 20
689.5817999490395
 30
0.0
 10
228.1774537855977
 20
688.797549015434
 30
0.0
 10
228.1868147447563
 20
688.0460885866287
 30
0.0
 10
228.1953754451245
 20
687.3297830351462
 30
0.0
 10
228.2031089515718
 20
686.650886123259
 30
0.0
 10
228.2099909316258
 20
686.0115339118195
 30
0.0
 10
228.2159997320312
 20
685.4137380394224
 30
0.0
 10
228.2211164468789
 20
684.8593793930455
 30
0.0
 10
228.2253249770908
 20
684.3502021900832
 30
0.0
 10
228.2286120810741
 20
683.8878084903936
 30
0.0
 10
228.2309674163834
 20
683.4736531556248
 30
0.0
 10
228.2323835722625
 20
683.1090392716831
 30
0.0
 10
228.2328560929611
 20
682.7951140487412
 30
0.0
 10
228.2323834917541
 20
682.5328652116917
 30
0.0
 10
228.2309672556199
 20
682.3231178923988
 30
0.0
 10
228.2286118405614
 20
682.1665320335279
 30
0.0
 10
228.2253246575856
 20
682.0636003121222
 30
0.0
 10
228.2211160493863
 20
682.0146465894584
 30
0.0
 10
228.2159992578021
 20
682.0198248920591
 30
0.0
 10
228.2099903821522
 20
682.0791189270684
 30
0.0
 10
228.2031083285826
 20
682.1923421335158
 30
0.0
 10
228.1953747505798
 20
682.3591382693049
 30
0.0
 10
228.1868139808414
 20
682.5789825320842
 30
0.0
 10
228.1774529547162
 20
682.8511832104681
 30
0.0
 10
228.1673211254556
 20
683.1748838604183
 30
0.0
 10
228.1564503715429
 20
683.5490659999315
 30
0.0
 10
228.1448748963917
 20
683.9725523135653
 30
0.0
 10
228.1326311207295
 20
684.444010356693
 30
0.0
 10
228.1197575680036
 20
684.9619567479224
 30
0.0
 10
228.1062947431758
 20
685.5247618361573
 30
0.0
 10
228.0922850052662
 20
686.1306548288491
 30
0.0
 10
228.0777724341211
 20
686.7777293607035
 30
0.0
 10
228.0628026915555
 20
687.4639495024951
 30
0.0
 10
228.0474228783018
 20
688.1871561269753
 30
0.0
 10
228.0316813835094
 20
688.9450738511184
 30
0.0
 10
228.0156277410929
 20
689.7353176398655
 30
0.0
 10
227.999312441791
 20
690.5554023833043
 30
0.0
 10
227.9827868940614
 20
691.4027429792886
 30
0.0
 10
227.9661028153912
 20
692.2746913399742
 30
0.0
 10
227.9493137375736
 20
693.1684369687431
 30
0.0
 10
227.9380795700908
 20
693.7773123345636
 30
0.0
 10
227.9324623476745
 20
694.0844359902406
 30
0.0
 10
227.9324582644709
 20
694.0846592420922
 30
0.0
  0
SPLINE
  5
E0
330
C3
100
AcDbEntity
  8
0
  6
Continuous
 62
     0
370
     0
100
AcDbSpline
210
0.0
220
0.0
230
1.0
 70
    12
 71
     2
 72
     8
 73
     5
 74
     0
 42
0.000000001
 43
0.0
 40
0.0001144916891451
 40
0.0001144916891451
 40
0.0001144916891451
 40
0.5
 40
0.5
 40
0.9998855222485873
 40
0.9998855222485873
 40
0.9998855222485873
 10
227.9324583979677
 20
695.0400554720526
 30
0.0
 41
0.9998658953605138
 10
228.1767503447063
 20
681.684269442972
 30
0.0
 41
0.7071738558330543
 10
228.1767509333813
 20
685.8627731330391
 30
0.0
 41
1.0
 10
228.1767515220564
 20
690.0412769878528
 30
0.0
 41
0.7071738476685197
 10
227.9324595660642
 20
703.3997699865911
 30
0.0
 41
0.9998659116821048
  0
SPLINE
  5
E1
330
C3
100
AcDbEntity
  8
0
  6
Continuous
 62
     0
370
     0
100
AcDbSpline
210
0.0
220
0.0
230
1.0
 70
     8
 71
     3
 72
    14
 73
    10
 74
     0
 42
0.000000001
 43
0.0
 40
44.92283353420851
 40
44.92283353420851
 40
44.92283353420851
 40
44.92283353420851
 40
45.37035808752793
 40
47.25436468279624
 40
49.13837127806457
 40
50.77200767273273
 40
52.40564406740092
 40
54.03928046206909
 40
54.03998274579996
 40
54.03998274579996
 40
54.03998274579996
 40
54.03998274579996
 10
228.0842349321372
 20
711.9580357015411
 30
0.0
 10
228.0819885854659
 20
711.8577254265645
 30
0.0
 10
228.0701962103035
 20
711.3276370198905
 30
0.0
 10
228.0480696313036
 20
710.3001981213864
 30
0.0
 10
228.0183981378878
 20
708.8572741466185
 30
0.0
 10
227.9892358191722
 20
707.3832922885605
 30
0.0
 10
227.9609847848393
 20
705.9079456408905
 30
0.0
 10
227.9419660849353
 20
704.8835861850314
 30
0.0
 10
227.9324637826478
 20
704.36404377391
 30
0.0
 10
227.9324596994425
 20
704.363820521688
 30
0.0
  0
SPLINE
  5
E2
330
C3
100
AcDbEntity
  8
0
  6
Continuous
 62
     0
370
     0
100
AcDbSpline
210
0.0
220
0.0
230
1.0
 70
     8
 71
     3
 72
    16
 73
    12
 74
     0
 42
0.000000001
 43
0.0
 40
0.0
 40
0.0
 40
0.0
 40
0.0
 40
0.023318075111572
 40
0.069954225334717
 40
0.105069162762465
 40
0.140283163225319
 40
0.210998146606102
 40
0.282354916961848
 40
0.318346447764697
 40
0.354500068764993
 40
0.4035835574864994
 40
0.4035835574864994
 40
0.4035835574864994
 40
0.4035835574864994
 10
230.1323348613925
 20
704.4490617273653
 30
0.0
 10
230.1250164253092
 20
704.8561931457189
 30
0.0
 10
230.1030611053765
 20
706.0636164825553
 30
0.0
 10
230.0701926322415
 20
707.807736730132
 30
0.0
 10
230.034821890616
 20
709.6016682988443
 30
0.0
 10
229.9937174769182
 20
711.5984135473923
 30
0.0
 10
229.9459080635301
 20
713.7464212822056
 30
0.0
 10
229.905618516784
 20
715.3005888908524
 30
0.0
 10
229.879142738217
 20
716.1379477956842
 30
0.0
 10
229.8603914744784
 20
716.6035094080064
 30
0.0
 10
229.850413616386
 20
716.7239701373732
 30
0.0
 10
229.8458007226429
 20
716.7240316183651
 30
0.0
  0
SPLINE
  5
E3
330
C3
100
AcDbEntity
  8
0
  6
Continuous
 62
     0
370
     0
100
AcDbSpline
210
0.0
220
0.0
230
1.0
 70
     8
 71
     3
 72
    16
 73
    12
 74
     0
 42
0.000000001
 43
0.0
 40
0.5964170915178119
 40
0.5964170915178119
 40
0.5964170915178119
 40
0.5964170915178119
 40
0.645499919277634
 40
0.681653536662926
 40
0.7176450652553539
 40
0.7890018382977038
 40
0.859716831114682
 40
0.8949308226302481
 40
0.93004573351407
 40
0.9766819111713569
 40
1.0
 40
1.0
 40
1.0
 40
1.0
 10
228.5189582893241
 20
716.7240316159317
 30
0.0
 10
228.5143455127936
 20
716.7239683035103
 30
0.0
 10
228.5043678122883
 20
716.6035069686767
 30
0.0
 10
228.4856167232862
 20
716.137948013266
 30
0.0
 10
228.4591411474542
 20
715.3005892601683
 30
0.0
 10
228.4188521203392
 20
713.7464217160035
 30
0.0
 10
228.3710431480973
 20
711.5984140176381
 30
0.0
 10
228.3299387919956
 20
709.6016691945681
 30
0.0
 10
228.2945677906828
 20
707.8077378662543
 30
0.0
 10
228.2616992518396
 20
706.0636174353144
 30
0.0
 10
228.2397444547539
 20
704.8561933891965
 30
0.0
 10
228.2324262820754
 20
704.4490617273653
 30
0.0
  0
SPLINE
  5
E4
330
C3
100
AcDbEntity
  8
0
  6
Continuous
 62
     0
370
     0
100
AcDbSpline
210
0.0
220
0.0
230
1.0
 70
     8
 71
     3
 72
    20
 73
    16
 74
     0
 42
0.000000001
 43
0.0
 40
-81.05387102730326
 40
-81.05387102730326
 40
-81.05387102730326
 40
-81.05387102730326
 40
-81.04863471563898
 40
-80.08377001663936
 40
-79.11890531763977
 40
-78.15404061864017
 40
-77.1891759196406
 40
-76.224311220641
 40
-75.25944652164142
 40
-74.29458182264179
 40
-73.32971712364224
 40
-72.36485242464262
 40
-71.39998772564306
 40
-70.43512302664344
 40
-70.39470280898922
 40
-70.39470280898922
 40
-70.39470280898922
 40
-70.39470280898922
 10
230.4323805592131
 20
704.3594933690067
 30
0.0
 10
230.4323500941416
 20
704.3611591259848
 30
0.0
 10
230.4267065014511
 20
704.6697372276424
 30
0.0
 10
230.4154459457729
 20
705.2800427948707
 30
0.0
 10
230.3986568679553
 20
706.1737884236396
 30
0.0
 10
230.3819727892852
 20
707.0457367843252
 30
0.0
 10
230.3654472415556
 20
707.8930773803094
 30
0.0
 10
230.3491319422538
 20
708.7131621237484
 30
0.0
 10
230.3330782998374
 20
709.5034059124953
 30
0.0
 10
230.3173368050451
 20
710.2613236366384
 30
0.0
 10
230.3019569917915
 20
710.9845302611187
 30
0.0
 10
230.2869872492261
 20
711.6707504029102
 30
0.0
 10
230.2724746780812
 20
712.3178249347646
 30
0.0
 10
230.2629392203166
 20
712.7302143084308
 30
0.0
 10
230.2581726244504
 20
712.9328437498746
 30
0.0
 10
230.2579811309697
 20
712.9409783938237
 30
0.0
  0
SPLINE
  5
E5
330
C3
100
AcDbEntity
  8
0
  6
Continuous
 62
     0
370
     0
100
AcDbSpline
210
0.0
220
0.0
230
1.0
 70
     8
 71
     3
 72
    14
 73
    10
 74
     0
 42
0.000000001
 43
0.0
 40
30.15569303446848
 40
30.15569303446848
 40
30.15569303446848
 40
30.15569303446848
 40
31.59593334783597
 40
34.75546558253617
 40
37.91506750920887
 40
41.07474118996232
 40
44.23447496150394
 40
47.39424471803433
 40
50.55401721052969
 40
50.55401721052969
 40
50.55401721052969
 40
50.55401721052969
 10
230.4608812741668
 20
715.2241778276851
 30
0.0
 10
230.463414617386
 20
715.2242097416695
 30
0.0
 10
230.4726611057432
 20
715.1562183650522
 30
0.0
 10
230.4943148354787
 20
714.6743877366894
 30
0.0
 10
230.5299134444026
 20
713.4922794994716
 30
0.0
 10
230.5732896517741
 20
711.7621690867395
 30
0.0
 10
230.6227846417914
 20
709.5501202598991
 30
0.0
 10
230.676469147411
 20
706.9426071142777
 30
0.0
 10
230.7137469034224
 20
705.0036504771374
 30
0.0
 10
230.7323348295511
 20
704.0061245638819
 30
0.0
  0
SPLINE
  5
E6
330
C3
100
AcDbEntity
  8
0
  6
Continuous
 62
     0
370
    30
100
AcDbSpline
210
0.0
220
0.0
230
1.0
 70
     8
 71
     3
 72
    11
 73
     7
 74
     0
 42
0.000000001
 43
0.0
 40
0.0
 40
0.0
 40
0.0
 40
0.0
 40
0.116433977529987
 40
0.232867955059973
 40
0.34930193258997
 40
0.465735910119958
 40
0.465735910119958
 40
0.465735910119958
 40
0.465735910119958
 10
230.7323348295511
 20
704.0061245638819
 30
0.0
 10
230.6933228436795
 20
704.0054747306198
 30
0.0
 10
230.6144448596997
 20
704.0088266192795
 30
0.0
 10
230.5147447455172
 20
704.0271195081896
 30
0.0
 10
230.4479903205395
 20
704.0558091424757
 30
0.0
 10
230.4323807387366
 20
704.0791267833675
 30
0.0
 10
230.4323805216674
 20
704.0907879818881
 30
0.0
  0
SPLINE
  5
E7
330
C3
100
AcDbEntity
  8
0
  6
Continuous
 62
     0
370
     0
100
AcDbSpline
210
0.0
220
0.0
230
1.0
 70
     8
 71
     3
 72
    12
 73
     8
 74
     0
 42
0.000000001
 43
0.0
 40
0.0
 40
0.0
 40
0.0
 40
0.0
 40
0.111131828689864
 40
0.333395486069591
 40
0.6666040183922181
 40
0.888868006130739
 40
1.0
 40
1.0
 40
1.0
 40
1.0
 10
230.432380559214
 20
704.3594934188562
 30
0.0
 10
230.4323805600196
 20
704.3646462863868
 30
0.0
 10
230.427798034887
 20
704.3801042555937
 30
0.0
 10
230.3914085546167
 20
704.4103126872259
 30
0.0
 10
230.3025497548075
 20
704.4368433335272
 30
0.0
 10
230.2013710196642
 20
704.4476979010359
 30
0.0
 10
230.1495939064062
 20
704.4490620446483
 30
0.0
 10
230.1323348685796
 20
704.4490620349187
 30
0.0
  0
SPLINE
  5
E8
330
C3
100
AcDbEntity
  8
0
  6
Continuous
 62
     0
370
     0
100
AcDbSpline
210
0.0
220
0.0
230
1.0
 70
     8
 71
     3
 72
    12
 73
     8
 74
     0
 42
0.000000001
 43
0.0
 40
0.0
 40
0.0
 40
0.0
 40
0.0
 40
0.111131868317539
 40
0.333395604952616
 40
0.6666041133082179
 40
0.888868037769406
 40
0.985392376989704
 40
0.985392376989704
 40
0.985392376989704
 40
0.985392376989704
 10
228.2324252776664
 20
704.4490617902308
 30
0.0
 10
228.2151663059076
 20
704.4490616658516
 30
0.0
 10
228.1633893832683
 20
704.4476912291611
 30
0.0
 10
228.0622108855612
 20
704.4368262506208
 30
0.0
 10
227.9733524156385
 20
704.4103137628962
 30
0.0
 10
227.9377604801697
 20
704.3807660323215
 30
0.0
 10
227.9328082598961
 20
704.3660001542813
 30
0.0
 10
227.9324596997858
 20
704.3615252457669
 30
0.0
  0
LINE
  5
E9
330
C3
100
AcDbEntity
  8
0
  6
Continuous
 62
     0
370
    30
100
AcDbLine
 10
230.432381
 20
704.00122
 30
0.0
 11
230.73232
 21
704.006124
 31
0.0
  0
LINE
  5
EA
330
C3
100
AcDbEntity
  8
0
  6
Continuous
 62
     0
370
     0
100
AcDbLine
 10
230.432381
 20
704.00122
 30
0.0
 11
231.082378
 21
704.00122
 31
0.0
  0
LINE
  5
EB
330
C3
100
AcDbEntity
  8
0
  6
Continuous
 62
     0
370
    30
100
AcDbLine
 10
230.165869
 20
683.22424
 30
0.0
 11
231.082378
 21
683.22424
 31
0.0
  0
LINE
  5
EC
330
C3
100
AcDbEntity
  8
0
  6
Continuous
 62
     0
370
    30
100
AcDbLine
 10
230.460892
 20
715.22424
 30
0.0
 11
231.082378
 21
715.22424
 31
0.0
  0
SPLINE
  5
ED
330
C3
100
AcDbEntity
  8
0
  6
Continuous
 62
     0
370
    30
100
AcDbSpline
210
0.0
220
0.0
230
1.0
 70
     8
 71
     3
 72
    26
 73
    22
 74
     0
 42
0.000000001
 43
0.0
 40
10.88869276470711
 40
10.88869276470711
 40
10.88869276470711
 40
10.88869276470711
 40
12.36117641066779
 40
14.62119888736623
 40
15.91272337427918
 40
16.88140869965483
 40
17.50849241509805
 40
18.11687432180806
 40
19.02953708514022
 40
19.63806946900675
 40
20.02525877114917
 40
20.4125354828554
 40
20.79998615853943
 40
21.18796808392345
 40
21.37247351621343
 40
21.56083418510361
 40
21.68300131242573
 40
21.74145028293138
 40
21.82444196497387
 40
21.94752027995866
 40
22.03558657774383
 40
22.03558657774383
 40
22.03558657774383
 40
22.03558657774383
 10
228.1100167292053
 20
685.3701174136773
 30
0.0
 10
228.1169280469484
 20
685.078876942013
 30
0.0
 10
228.1339001212736
 20
684.383345655397
 30
0.0
 10
228.15465631043
 20
683.6024558357873
 30
0.0
 10
228.1713034601926
 20
683.0417069509676
 30
0.0
 10
228.1810674051943
 20
682.7427080703582
 30
0.0
 10
228.1880361874698
 20
682.546989531411
 30
0.0
 10
228.1944593135022
 20
682.3808712172649
 30
0.0
 10
228.2003803843509
 20
682.2462705443874
 30
0.0
 10
228.2053107678223
 20
682.1522804971424
 30
0.0
 10
228.208770091996
 20
682.096234955663
 30
0.0
 10
228.2116188264623
 20
682.0565945039078
 30
0.0
 10
228.2147552605163
 20
682.0226217440336
 30
0.0
 10
228.217575370497
 20
681.9972184481232
 30
0.0
 10
228.2228995712949
 20
681.9679999671928
 30
0.0
 10
228.22974004699
 20
681.9374713741195
 30
0.0
 10
228.2502328972687
 20
681.8855842954188
 30
0.0
 10
228.2859960007764
 20
681.8321500577924
 30
0.0
 10
228.3398511811393
 20
681.777432549573
 30
0.0
 10
228.4232639968106
 20
681.7338668918636
 30
0.0
 10
228.4909623251153
 20
681.724307858328
 30
0.0
 10
228.5189570820169
 20
681.7243078757045
 30
0.0
  0
SPLINE
  5
EE
330
C3
100
AcDbEntity
  8
0
  6
Continuous
 62
     0
370
    30
100
AcDbSpline
210
0.0
220
0.0
230
1.0
 70
     8
 71
     3
 72
    24
 73
    20
 74
     0
 42
0.000000001
 43
0.0
 40
15.32504651806381
 40
15.32504651806381
 40
15.32504651806381
 40
15.32504651806381
 40
15.91547332206672
 40
16.88416156238528
 40
17.5112787548435
 40
18.11972543865863
 40
19.03248467558732
 40
19.64108131652024
 40
20.02789719420195
 40
20.41480083652739
 40
20.80187917473289
 40
21.18949166215334
 40
21.37338744686141
 40
21.56114348870399
 40
21.68314007658931
 40
21.74166322997038
 40
21.8247070576869
 40
21.9477633228546
 40
22.03554943914771
 40
22.03554943914771
 40
22.03554943914771
 40
22.03554943914771
 10
230.1988154652356
 20
683.2242398818069
 30
0.0
 10
230.1966513250897
 20
683.1516573444937
 30
0.0
 10
230.1910563126663
 20
682.9682417643808
 30
0.0
 10
230.1836649527567
 20
682.7419604748281
 30
0.0
 10
230.1766976366006
 20
682.54634803702
 30
0.0
 10
230.170275644719
 20
682.3803251117467
 30
0.0
 10
230.1643556121909
 20
682.2458198334307
 30
0.0
 10
230.1594271381212
 20
682.1519385409852
 30
0.0
 10
230.1559699794224
 20
682.0959841096827
 30
0.0
 10
230.1531239584559
 20
682.0564236072457
 30
0.0
 10
230.1499880219844
 20
682.0225053691139
 30
0.0
 10
230.1471679720586
 20
681.9971315242838
 30
0.0
 10
230.1418313267596
 20
681.9678974461233
 30
0.0
 10
230.1349736227772
 20
681.9373589925599
 30
0.0
 10
230.1144584602097
 20
681.8854892192707
 30
0.0
 10
230.0786501997687
 20
681.8320398839351
 30
0.0
 10
230.0246988219851
 20
681.7773106775602
 30
0.0
 10
229.9413106243853
 20
681.7338596182874
 30
0.0
 10
229.8737093281053
 20
681.7243439197941
 30
0.0
 10
229.8458028238971
 20
681.7243439229658
 30
0.0
  0
SPLINE
  5
EF
330
C3
100
AcDbEntity
  8
0
  6
Continuous
 62
     0
370
    30
100
AcDbSpline
210
0.0
220
0.0
230
1.0
 70
     8
 71
     3
 72
    30
 73
    26
 74
     0
 42
0.000000001
 43
0.0
 40
0.0042877365872816
 40
0.0042877365872816
 40
0.0042877365872816
 40
0.0042877365872816
 40
2.355010570422431
 40
5.587449337206596
 40
7.202498642279611
 40
8.492725343897375
 40
12.36393330087764
 40
14.62395124221597
 40
15.91547712800073
 40
16.88416502493982
 40
17.51128156552914
 40
18.11972717635536
 40
19.03248479964061
 40
19.64108036385443
 40
20.02789641846696
 40
20.41480023823204
 40
20.80187875438886
 40
21.18949141990882
 40
21.37338732725003
 40
21.56114349073911
 40
21.68314009252195
 40
21.74166325611061
 40
21.82470708989667
 40
21.94776335520462
 40
22.03554948134015
 40
22.03554948134015
 40
22.03554948134015
 40
22.03554948134015
 10
227.9324596995125
 20
704.3640592611322
 30
0.0
 10
227.9461246224164
 20
705.1112053394161
 30
0.0
 10
227.9786224741174
 20
706.8500079493405
 30
0.0
 10
228.0195650947283
 20
708.924346442517
 30
0.0
 10
228.0528774990985
 20
710.5238294839857
 30
0.0
 10
228.0883040295854
 20
712.1637427149651
 30
0.0
 10
228.1240287086163
 20
713.6938134738682
 30
0.0
 10
228.1546896576327
 20
714.8471725085236
 30
0.0
 10
228.1713330880058
 20
715.4076734757373
 30
0.0
 10
228.1810947642525
 20
715.7065202284767
 30
0.0
 10
228.1880620718657
 20
715.9021323489815
 30
0.0
 10
228.1944840522812
 20
716.0681549170237
 30
0.0
 10
228.2004040736705
 20
716.2026599107979
 30
0.0
 10
228.2053325413646
 20
716.2965410861648
 30
0.0
 10
228.2087896983821
 20
716.3524955042171
 30
0.0
 10
228.2116357205133
 20
716.3920560341838
 30
0.0
 10
228.2147716580683
 20
716.4259742929659
 30
0.0
 10
228.2175917074252
 20
716.4513481453109
 30
0.0
 10
228.2229283526952
 20
716.4805822286928
 30
0.0
 10
228.2297860493199
 20
716.5111206698743
 30
0.0
 10
228.250301213621
 20
716.5629904603912
 30
0.0
 10
228.2861094724477
 20
716.6164398012952
 30
0.0
 10
228.3400608515667
 20
716.6711690147638
 30
0.0
 10
228.4234490531123
 20
716.7146200792695
 30
0.0
 10
228.4910503526721
 20
716.7241357788489
 30
0.0
 10
228.5189568597649
 20
716.7241357754455
 30
0.0
  0
SPLINE
  5
F0
330
C3
100
AcDbEntity
  8
0
  6
Continuous
 62
     0
370
    30
100
AcDbSpline
210
0.0
220
0.0
230
1.0
 70
     8
 71
     3
 72
    30
 73
    26
 74
     0
 42
0.000000001
 43
0.0
 40
0.0
 40
0.0
 40
0.0
 40
0.0
 40
2.35478933149588
 40
5.585770284708524
 40
7.200224510372001
 40
8.490332847149494
 40
12.36118992441436
 40
14.62121341674946
 40
15.91273847875842
 40
16.88142422606455
 40
17.5085069104771
 40
18.11688646607266
 40
19.02954569440173
 40
19.63807571593675
 40
20.02526481103358
 40
20.41254131934615
 40
20.79999179668779
 40
21.18797353335741
 40
21.37247763410455
 40
21.5608369692799
 40
21.68300336437315
 40
21.74145220415329
 40
21.82444380915239
 40
21.9475221228547
 40
22.03558817425201
 40
22.03558817425201
 40
22.03558817425201
 40
22.03558817425201
 10
230.4323761939235
 20
704.3599706881697
 30
0.0
 10
230.4186876861018
 20
705.1084880823237
 30
0.0
 10
230.3861736692817
 20
706.848271992143
 30
0.0
 10
230.3452193538822
 20
708.9232153272142
 30
0.0
 10
230.3119176474716
 20
710.5222290432985
 30
0.0
 10
230.2764942504974
 20
712.162093694004
 30
0.0
 10
230.2407679693158
 20
713.6923604239528
 30
0.0
 10
230.2101032054444
 20
714.8460298941495
 30
0.0
 10
230.1934560624333
 20
715.4067780563173
 30
0.0
 10
230.183692130206
 20
715.7057760678671
 30
0.0
 10
230.1767233681528
 20
715.9014936253121
 30
0.0
 10
230.1703002702498
 20
716.0676109119541
 30
0.0
 10
230.1643792271176
 20
716.2022107308344
 30
0.0
 10
230.1594488623639
 20
716.2962002544435
 30
0.0
 10
230.1559895450247
 20
716.3522455348077
 30
0.0
 10
230.1531408124888
 20
716.3918858072642
 30
0.0
 10
230.1500043685632
 20
716.4258584464544
 30
0.0
 10
230.1471842731645
 20
716.4512616321958
 30
0.0
 10
230.1418599899757
 20
716.4804802874906
 30
0.0
 10
230.1350195530508
 20
716.5110086733414
 30
0.0
 10
230.1145265394927
 20
716.5628958890801
 30
0.0
 10
230.0787634714136
 20
716.6163299287268
 30
0.0
 10
230.024908272237
 20
716.6710473580227
 30
0.0
 10
229.9414955141204
 20
716.714612896471
 30
0.0
 10
229.8737972697442
 20
716.724171890914
 30
0.0
 10
229.8458025920595
 20
716.7241718735477
 30
0.0
  0
SPLINE
  5
F1
330
C3
100
AcDbEntity
  8
0
  6
Continuous
 62
     0
370
    30
100
AcDbSpline
210
0.0
220
0.0
230
1.0
 70
     8
 71
     3
 72
    12
 73
     8
 74
     0
 42
0.000000001
 43
0.0
 40
20.49066355046707
 40
20.49066355046707
 40
20.49066355046707
 40
20.49066355046707
 40
20.52106661233291
 40
20.62167294804466
 40
20.68519711240205
 40
20.77617288291384
 40
20.87227360511864
 40
20.87227360511864
 40
20.87227360511864
 40
20.87227360511864
 10
230.1938411497987
 20
715.3882004846315
 30
0.0
 10
230.1963219911736
 20
715.383299874841
 30
0.0
 10
230.2085601938415
 20
715.3607577971987
 30
0.0
 10
230.2390239293907
 20
715.3180211872507
 30
0.0
 10
230.2983688858826
 20
715.2687289406217
 30
0.0
 10
230.3699555656309
 20
715.2335912987159
 30
0.0
 10
230.430231302782
 20
715.224177842925
 30
0.0
 10
230.4608869874802
 20
715.2241778635123
 30
0.0
  0
LINE
  5
F2
330
C3
100
AcDbEntity
  8
0
  6
Continuous
 62
     0
370
    30
100
AcDbLine
 10
229.845784
 20
716.72424
 30
0.0
 11
228.518976
 21
716.72424
 31
0.0
  0
LINE
  5
F3
330
C3
100
AcDbEntity
  8
0
  6
Continuous
 62
     0
370
    30
100
AcDbLine
 10
228.518976
 20
681.72424
 30
0.0
 11
229.845784
 21
681.72424
 31
0.0
  0
SPLINE
  5
F4
330
C3
100
AcDbEntity
  8
0
  6
Continuous
 62
     0
370
     0
100
AcDbSpline
210
0.0
220
0.0
230
1.0
 70
     8
 71
     3
 72
    65
 73
    61
 74
     0
 42
0.000000001
 43
0.0
 40
-32.51445735250433
 40
-32.51445735250433
 40
-32.51445735250433
 40
-32.51445735250433
 40
-32.5118392466036
 40
-31.35070213065347
 40
-30.18956501470334
 40
-29.02842789875323
 40
-27.86729078280307
 40
-26.70615366685296
 40
-25.54501655090282
 40
-24.3838794349527
 40
-23.22274231900256
 40
-22.06160520305244
 40
-20.90046808710232
 40
-19.73933097115218
 40
-18.57819385520205
 40
-17.41705673925193
 40
-16.2559196233018
 40
-15.09478250735167
 40
-13.93364539140154
 40
-12.77250827545141
 40
-11.61137115950128
 40
-10.45023404355116
 40
-9.289096927601033
 40
-8.127959811650896
 40
-6.966822695700769
 40
-5.805685579750644
 40
-4.644548463800511
 40
-3.483411347850384
 40
-2.322274231900259
 40
-1.161137115950126
 40
0.0
 40
1.161137115950126
 40
2.322274231900257
 40
3.483411347850384
 40
4.644548463800511
 40
5.805685579750641
 40
6.966822695700769
 40
8.127959811650896
 40
9.289096927601026
 40
10.45023404355116
 40
11.61137115950128
 40
12.77250827545141
 40
13.93364539140154
 40
15.09478250735167
 40
16.2559196233018
 40
17.41705673925193
 40
18.57819385520205
 40
19.73933097115218
 40
20.90046808710232
 40
22.06160520305244
 40
23.22274231900256
 40
24.3838794349527
 40
25.54501655090282
 40
26.70615366685295
 40
27.86729078280307
 40
29.0284278987532
 40
30.18956501470333
 40
31.35070213065347
 40
32.5118392466036
 40
32.51445735250433
 40
32.51445735250433
 40
32.51445735250433
 40
32.51445735250433
 10
227.9324524916267
 20
599.5549441837147
 30
0.0
 10
227.9324601076387
 20
599.5547794883223
 30
0.0
 10
227.9358451497104
 20
599.4815783403731
 30
0.0
 10
227.942609920956
 20
599.3139502606932
 30
0.0
 10
227.9527119194819
 20
598.9995784601658
 30
0.0
 10
227.9627507397309
 20
598.622995856121
 30
0.0
 10
227.9726941694536
 20
598.1853838598606
 30
0.0
 10
227.9825110907867
 20
597.6881202868974
 30
0.0
 10
227.9921705710897
 20
597.1327694642081
 30
0.0
 10
228.0016422301146
 20
596.521078797444
 30
0.0
 10
228.0108962632891
 20
595.8549728739273
 30
0.0
 10
228.0199035548662
 20
595.1365475141033
 30
0.0
 10
228.0286357643425
 20
594.3680631486664
 30
0.0
 10
228.0370654170185
 20
593.5519377140852
 30
0.0
 10
228.0451659900715
 20
592.6907390428219
 30
0.0
 10
228.0529119961062
 20
591.787176784534
 30
0.0
 10
228.0602790633208
 20
590.8440938803654
 30
0.0
 10
228.0672440121965
 20
589.8644576180413
 30
0.0
 10
228.0737849284273
 20
588.8513502956731
 30
0.0
 10
228.0798812318709
 20
587.8079595237107
 30
0.0
 10
228.0855137413012
 20
586.73756819554
 30
0.0
 10
228.0906647347596
 20
585.643544158286
 30
0.0
 10
228.0953180053152
 20
584.5293296163201
 30
0.0
 10
228.0994589120572
 20
583.3984303008108
 30
0.0
 10
228.103074426161
 20
582.2544044393969
 30
0.0
 10
228.1061531718815
 20
581.1008515606877
 30
0.0
 10
228.1086854623458
 20
579.941401168813
 30
0.0
 10
228.1106633300312
 20
578.7797013236606
 30
0.0
 10
228.1120805518343
 20
577.6194071627311
 30
0.0
 10
228.1129326686508
 20
576.4641694007224
 30
0.0
 10
228.113216999406
 20
575.3176228430304
 30
0.0
 10
228.1129326494903
 20
574.1833749493072
 30
0.0
 10
228.1120805135735
 20
573.0649944830575
 30
0.0
 10
228.1106632727907
 20
571.9660002829893
 30
0.0
 10
228.1086853863056
 20
570.8898501914445
 30
0.0
 10
228.1061530772808
 20
569.8399301747482
 30
0.0
 10
228.1030743132974
 20
568.8195436697063
 30
0.0
 10
228.0994587812859
 20
567.83190118977
 30
0.0
 10
228.0953178570476
 20
566.8801102235736
 30
0.0
 10
228.0906645694623
 20
565.9671654576259
 30
0.0
 10
228.0855135594942
 20
565.0959393539174
 30
0.0
 10
228.0798810341263
 20
564.2691731120929
 30
0.0
 10
228.0737847153672
 20
563.4894680446233
 30
0.0
 10
228.0672437844913
 20
562.7592773921137
 30
0.0
 10
228.0602788216869
 20
562.0808986045026
 30
0.0
 10
228.052911741304
 20
561.4564661124277
 30
0.0
 10
228.0451657229026
 20
560.8879446115423
 30
0.0
 10
228.0370651383235
 20
560.3771228807625
 30
0.0
 10
228.0286354749983
 20
559.9256081544568
 30
0.0
 10
228.0199032557832
 20
559.5348210641868
 30
0.0
 10
228.0108959554083
 20
559.2059911737454
 30
0.0
 10
228.0016419144048
 20
558.9401530923162
 30
0.0
 10
227.9921702485441
 20
558.7381432870523
 30
0.0
 10
227.9825107624203
 20
558.6005971980528
 30
0.0
 10
227.9726938362995
 20
558.5279481839393
 30
0.0
 10
227.9627504028372
 20
558.5204226319199
 30
0.0
 10
227.9527115799087
 20
558.5780524062982
 30
0.0
 10
227.9426095797716
 20
558.7006256314203
 30
0.0
 10
227.9358448081676
 20
558.8255963855654
 30
0.0
 10
227.932459766096
 20
558.8988095508922
 30
0.0
 10
227.932452150084
 20
558.8989742733163
 30
0.0
  0
SPLINE
  5
F5
330
C3
100
AcDbEntity
  8
0
  6
Continuous
 62
     0
370
     0
100
AcDbSpline
210
0.0
220
0.0
230
1.0
 70
    12
 71
     2
 72
     8
 73
     5
 74
     0
 42
0.000000001
 43
0.0
 40
0.0
 40
0.0
 40
0.0
 40
0.5
 40
0.5
 40
1.0
 40
1.0
 40
1.0
 10
227.9324521636962
 20
560.5193209018432
 30
0.0
 41
1.0
 10
228.0986998128469
 20
556.9239393868409
 30
0.0
 41
0.7071067811865471
 10
228.0986999700061
 20
575.6315777135131
 30
0.0
 41
1.0
 10
228.0987001271652
 20
594.3392160401854
 30
0.0
 41
0.7071067811865471
 10
227.9324524780145
 20
597.9345975551878
 30
0.0
 41
1.0
  0
SPLINE
  5
F6
330
C3
100
AcDbEntity
  8
0
  6
Continuous
 62
     0
370
     0
100
AcDbSpline
210
0.0
220
0.0
230
1.0
 70
     8
 71
     3
 72
    26
 73
    22
 74
     0
 42
0.000000001
 43
0.0
 40
0.0604519026183763
 40
0.0604519026183763
 40
0.0604519026183763
 40
0.0604519026183763
 40
0.070850911399067
 40
0.106364943631365
 40
0.141917937930064
 40
0.213065784764732
 40
0.2844568007505889
 40
0.3203034603569451
 40
0.356208927000576
 40
0.428047847799608
 40
0.500000000000001
 40
0.571952152200393
 40
0.6437910729994248
 40
0.679696539643056
 40
0.7155431992494121
 40
0.7869342152352681
 40
0.858082062069936
 40
0.8936350563686359
 40
0.9291490886009338
 40
0.9763830295336451
 40
1.0
 40
1.0
 40
1.0
 40
1.0
 10
230.0983282892714
 20
558.2271040826756
 30
0.0
 10
230.0963939475384
 20
558.2270800612594
 30
0.0
 10
230.087883436812
 20
558.2434761419292
 30
0.0
 10
230.0730735036128
 20
558.4021920451376
 30
0.0
 10
230.0481827783938
 20
559.0232581388528
 30
0.0
 10
230.0193831121486
 20
560.4400096428155
 30
0.0
 10
229.9952569891929
 20
562.6445888953358
 30
0.0
 10
229.979506629232
 20
564.8141072046228
 30
0.0
 10
229.9662828931906
 20
567.2331246080721
 30
0.0
 10
229.9548846348919
 20
570.6704028041838
 30
0.0
 10
229.9502453686807
 20
575.2296563592522
 30
0.0
 10
229.954884713202
 20
579.9921443014598
 30
0.0
 10
229.9662830334541
 20
583.9295694488655
 30
0.0
 10
229.9795068150144
 20
586.9289569327323
 30
0.0
 10
229.9952572172338
 20
589.7897262541817
 30
0.0
 10
230.0193833861228
 20
593.0528835937507
 30
0.0
 10
230.0481830867875
 20
595.7332962605037
 30
0.0
 10
230.0730738316178
 20
597.4466823692948
 30
0.0
 10
230.0945800995999
 20
598.6208543135798
 30
0.0
 10
230.1146006105637
 20
599.4015467350928
 30
0.0
 10
230.1279809317654
 20
599.7516944969886
 30
0.0
 10
230.1324410586645
 20
599.8495526594929
 30
0.0
  0
LINE
  5
F7
330
C3
100
AcDbEntity
  8
0
  6
Continuous
 62
     0
370
     0
100
AcDbLine
 10
230.132441
 20
599.849553
 30
0.0
 11
228.232464
 21
599.849553
 31
0.0
  0
SPLINE
  5
F8
330
C3
100
AcDbEntity
  8
0
  6
Continuous
 62
     0
370
     0
100
AcDbSpline
210
0.0
220
0.0
230
1.0
 70
     8
 71
     3
 72
    26
 73
    22
 74
     0
 42
0.000000001
 43
0.0
 40
0.0
 40
0.0
 40
0.0
 40
0.0
 40
0.023616970466355
 40
0.070850911399066
 40
0.106364943631365
 40
0.141917937930064
 40
0.21306578476473
 40
0.2844568007505889
 40
0.3203034603569451
 40
0.3562089270005749
 40
0.428047847799608
 40
0.500000000000001
 40
0.5719521522003921
 40
0.6437910729994248
 40
0.679696539643057
 40
0.715543199249413
 40
0.7869342152352671
 40
0.8580820620699369
 40
0.8936350563686372
 40
0.929149088600935
 40
0.9395480736874171
 40
0.9395480736874171
 40
0.9395480736874171
 40
0.9395480736874171
 10
228.2324639295387
 20
599.8495526594929
 30
0.0
 10
228.2369241009517
 20
599.7516944969886
 30
0.0
 10
228.2503045547446
 20
599.4015467350928
 30
0.0
 10
228.2703252597752
 20
598.6208543135798
 30
0.0
 10
228.2918317305914
 20
597.4466823692948
 30
0.0
 10
228.3167227042487
 20
595.7332962605037
 30
0.0
 10
228.3455226579022
 20
593.0528835937507
 30
0.0
 10
228.3696490216219
 20
589.7897262541817
 30
0.0
 10
228.3853995388016
 20
586.9289569327323
 30
0.0
 10
228.3986234068428
 20
583.9295694488655
 30
0.0
 10
228.4100217788954
 20
579.9921443014598
 30
0.0
 10
228.4146610913303
 20
575.2296563592521
 30
0.0
 10
228.4100217005853
 20
570.6704028041838
 30
0.0
 10
228.3986232665793
 20
567.2331246080721
 30
0.0
 10
228.3853993530191
 20
564.8141072046226
 30
0.0
 10
228.369648793581
 20
562.6445888953357
 30
0.0
 10
228.3455223839279
 20
560.4400096428154
 30
0.0
 10
228.316722395855
 20
559.0232581388528
 30
0.0
 10
228.2918314025864
 20
558.4021920451376
 30
0.0
 10
228.2770213177643
 20
558.2434761880914
 30
0.0
 10
228.2685107231669
 20
558.2270800781823
 30
0.0
 10
228.2665763658548
 20
558.2271040825115
 30
0.0
  0
SPLINE
  5
F9
330
C3
100
AcDbEntity
  8
0
  6
Continuous
 62
     0
370
     0
100
AcDbSpline
210
0.0
220
0.0
230
1.0
 70
     8
 71
     3
 72
     9
 73
     5
 74
     0
 42
0.000000001
 43
0.0
 40
0.0
 40
0.0
 40
0.0
 40
0.0
 40
0.047255179972674
 40
0.1209752114669879
 40
0.1209752114669879
 40
0.1209752114669879
 40
0.1209752114669879
 10
230.1324410586645
 20
599.8495526594929
 30
0.0
 10
230.1279808123748
 20
599.9474109511714
 30
0.0
 10
230.11656240549
 20
600.1496554509199
 30
0.0
 10
230.1051839353673
 20
600.2268297195762
 30
0.0
 10
230.0983279181378
 20
600.2268619103866
 30
0.0
  0
SPLINE
  5
FA
330
C3
100
AcDbEntity
  8
0
  6
Continuous
 62
     0
370
     0
100
AcDbSpline
210
0.0
220
0.0
230
1.0
 70
     8
 71
     3
 72
     9
 73
     5
 74
     0
 42
0.000000001
 43
0.0
 40
0.8790247840099065
 40
0.8790247840099065
 40
0.8790247840099065
 40
0.8790247840099065
 40
0.9527448200273259
 40
1.0
 40
1.0
 40
1.0
 40
1.0
 10
228.2665767246372
 20
600.2268619103925
 30
0.0
 10
228.2597207779475
 20
600.2268297253472
 30
0.0
 10
228.2483424238575
 20
600.1496554584816
 30
0.0
 10
228.2369241313144
 20
599.9474109511714
 30
0.0
 10
228.2324639295387
 20
599.8495526594929
 30
0.0
  0
LINE
  5
FB
330
C3
100
AcDbEntity
  8
0
  6
Continuous
 62
     0
370
     0
100
AcDbLine
 10
230.432452
 20
558.898974
 30
0.0
 11
230.432452
 21
559.310864
 31
0.0
  0
LINE
  5
FC
330
C3
100
AcDbEntity
  8
0
  6
Continuous
 62
     0
370
     0
100
AcDbLine
 10
230.432452
 20
598.916626
 30
0.0
 11
230.432452
 21
599.554944
 31
0.0
  0
SPLINE
  5
FD
330
C3
100
AcDbEntity
  8
0
  6
Continuous
 62
     0
370
     0
100
AcDbSpline
210
0.0
220
0.0
230
1.0
 70
     8
 71
     3
 72
    65
 73
    61
 74
     0
 42
0.000000001
 43
0.0
 40
-97.53813584571155
 40
-97.53813584571155
 40
-97.53813584571155
 40
-97.53813584571155
 40
-97.53551773981079
 40
-96.37438062386067
 40
-95.21324350791056
 40
-94.05210639196041
 40
-92.89096927601025
 40
-91.72983216006017
 40
-90.56869504411003
 40
-89.40755792815989
 40
-88.24642081220975
 40
-87.08528369625961
 40
-85.9241465803095
 40
-84.76300946435934
 40
-83.60187234840927
 40
-82.44073523245913
 40
-81.27959811650899
 40
-80.11846100055884
 40
-78.95732388460871
 40
-77.7961867686586
 40
-76.63504965270846
 40
-75.47391253675833
 40
-74.31277542080821
 40
-73.15163830485808
 40
-71.99050118890798
 40
-70.82936407295782
 40
-69.66822695700769
 40
-68.50708984105758
 40
-67.34595272510744
 40
-66.18481560915731
 40
-65.0236784932072
 40
-63.86254137725706
 40
-62.70140426130691
 40
-61.54026714535679
 40
-60.3791300294067
 40
-59.21799291345657
 40
-58.05685579750646
 40
-56.89571868155629
 40
-55.73458156560615
 40
-54.57344444965602
 40
-53.41230733370592
 40
-52.25117021775577
 40
-51.09003310180566
 40
-49.92889598585551
 40
-48.76775886990539
 40
-47.60662175395528
 40
-46.44548463800513
 40
-45.28434752205501
 40
-44.12321040610487
 40
-42.96207329015474
 40
-41.80093617420464
 40
-40.63979905825448
 40
-39.47866194230433
 40
-38.31752482635419
 40
-37.15638771040409
 40
-35.99525059445396
 40
-34.83411347850384
 40
-33.67297636255373
 40
-32.5118392466036
 40
-32.50922114070288
 40
-32.50922114070288
 40
-32.50922114070288
 40
-32.50922114070288
 10
230.432452150084
 20
558.8989742733163
 30
0.0
 10
230.4324445341469
 20
558.8988095508922
 30
0.0
 10
230.4290595253758
 20
558.8255963855656
 30
0.0
 10
230.4222948206791
 20
558.7006256314202
 30
0.0
 10
230.4121929215324
 20
558.5780524062982
 30
0.0
 10
230.4021542000411
 20
558.5204226319199
 30
0.0
 10
230.3922108681375
 20
558.5279481839393
 30
0.0
 10
230.3823940433792
 20
558.6005971980528
 30
0.0
 10
230.3727346581021
 20
558.7381432870523
 30
0.0
 10
230.3632630922554
 20
558.9401530923162
 30
0.0
 10
230.3540091501182
 20
559.2059911737454
 30
0.0
 10
230.345001947151
 20
559.5348210641868
 30
0.0
 10
230.3362698235786
 20
559.9256081544568
 30
0.0
 10
230.32784025383
 20
560.3771228807624
 30
0.0
 10
230.319739760467
 20
560.8879446115423
 30
0.0
 10
230.3119938306343
 20
561.4564661124277
 30
0.0
 10
230.3046268358938
 20
562.0808986045026
 30
0.0
 10
230.2976619555364
 20
562.7592773921137
 30
0.0
 10
230.2911211036524
 20
563.4894680446233
 30
0.0
 10
230.2850248601817
 20
564.2691731120929
 30
0.0
 10
230.2793924061618
 20
565.0959393539174
 30
0.0
 10
230.2742414633767
 20
565.9671654576259
 30
0.0
 10
230.2695882385981
 20
566.8801102235736
 30
0.0
 10
230.2654473725927
 20
567.83190118977
 30
0.0
 10
230.2618318940569
 20
568.8195436697063
 30
0.0
 10
230.2587531786238
 20
569.8399301747482
 30
0.0
 10
230.2562209130712
 20
570.8898501914445
 30
0.0
 10
230.2542430648433
 20
571.9660002829893
 30
0.0
 10
230.2528258569824
 20
573.0649944830575
 30
0.0
 10
230.2519737485487
 20
574.1833749493072
 30
0.0
 10
230.2516894205907
 20
575.3176228430304
 30
0.0
 10
230.2519737677092
 20
576.4641694007224
 30
0.0
 10
230.2528258952431
 20
577.6194071627311
 30
0.0
 10
230.2542431220838
 20
578.7797013236606
 30
0.0
 10
230.2562209891115
 20
579.941401168813
 30
0.0
 10
230.2587532732246
 20
581.1008515606877
 30
0.0
 10
230.2618320069205
 20
582.2544044393969
 30
0.0
 10
230.265447503364
 20
583.3984303008107
 30
0.0
 10
230.2695883868656
 20
584.5293296163201
 30
0.0
 10
230.274241628674
 20
585.643544158286
 30
0.0
 10
230.2793925879688
 20
586.73756819554
 30
0.0
 10
230.2850250579264
 20
587.8079595237107
 30
0.0
 10
230.2911213167125
 20
588.8513502956732
 30
0.0
 10
230.2976621832416
 20
589.8644576180413
 30
0.0
 10
230.3046270775277
 20
590.8440938803654
 30
0.0
 10
230.3119940854365
 20
591.787176784534
 30
0.0
 10
230.3197400276359
 20
592.6907390428219
 30
0.0
 10
230.327840532525
 20
593.5519377140852
 30
0.0
 10
230.3362701129227
 20
594.3680631486664
 30
0.0
 10
230.345002246234
 20
595.1365475141033
 30
0.0
 10
230.354009457999
 20
595.8549728739273
 30
0.0
 10
230.3632634079652
 20
596.521078797444
 30
0.0
 10
230.3727349806477
 20
597.1327694642082
 30
0.0
 10
230.3823943717457
 20
597.6881202868974
 30
0.0
 10
230.3922112012918
 20
598.1853838598606
 30
0.0
 10
230.4021545369347
 20
598.622995856121
 30
0.0
 10
230.4121932611056
 20
598.9995784601659
 30
0.0
 10
230.4222951618635
 20
599.3139502606929
 30
0.0
 10
230.4290598669185
 20
599.481578340374
 30
0.0
 10
230.4324448756896
 20
599.5547794883223
 30
0.0
 10
230.4324524916267
 20
599.5549441837147
 30
0.0
  0
SPLINE
  5
FE
330
C3
100
AcDbEntity
  8
0
  6
Continuous
 62
     0
370
     0
100
AcDbSpline
210
0.0
220
0.0
230
1.0
 70
     8
 71
     3
 72
    62
 73
    58
 74
     0
 42
0.000000001
 43
0.0
 40
-94.47019259877507
 40
-94.47019259877507
 40
-94.47019259877507
 40
-94.47019259877507
 40
-93.34560977420308
 40
-92.22102694963108
 40
-91.09644412505907
 40
-89.971861300487
 40
-88.84727847591505
 40
-87.72269565134306
 40
-86.59811282677107
 40
-85.47353000219907
 40
-84.34894717762707
 40
-83.22436435305505
 40
-82.09978152848308
 40
-80.97519870391105
 40
-79.85061587933907
 40
-78.72603305476707
 40
-77.60145023019507
 40
-76.47686740562308
 40
-75.3522845810511
 40
-74.22770175647905
 40
-73.10311893190706
 40
-71.97853610733509
 40
-70.85395328276309
 40
-69.72937045819108
 40
-68.60478763361907
 40
-67.48020480904708
 40
-66.35562198447509
 40
-65.23103915990312
 40
-64.1064563353311
 40
-62.9818735107591
 40
-61.85729068618709
 40
-60.73270786161508
 40
-59.6081250370431
 40
-58.48354221247111
 40
-57.35895938789912
 40
-56.23437656332711
 40
-55.10979373875509
 40
-53.9852109141831
 40
-52.86062808961111
 40
-51.7360452650391
 40
-50.61146244046713
 40
-49.48687961589511
 40
-48.36229679132312
 40
-47.23771396675112
 40
-46.11313114217911
 40
-44.98854831760713
 40
-43.86396549303511
 40
-42.73938266846314
 40
-41.61479984389111
 40
-40.49021701931912
 40
-39.36563419474712
 40
-38.24105137017513
 40
-37.11646854560314
 40
-35.99188572103107
 40
-34.86730289645909
 40
-33.74272007188709
 40
-33.39632440739571
 40
-33.39632440739571
 40
-33.39632440739571
 40
-33.39632440739571
 10
230.4324524862643
 20
598.9166256576685
 30
0.0
 10
230.4291807738424
 20
598.8458206749208
 30
0.0
 10
230.4226373734184
 20
598.6835535173382
 30
0.0
 10
230.4128532204764
 20
598.3789468548741
 30
0.0
 10
230.4031307953121
 20
598.014092526038
 30
0.0
 10
230.3935006830178
 20
597.5901383030568
 30
0.0
 10
230.3839931784994
 20
597.1084178820568
 30
0.0
 10
230.3746381908996
 20
596.5704466815347
 30
0.0
 10
230.3654651495818
 20
595.9779170766717
 30
0.0
 10
230.35650291153
 20
595.3326930749541
 30
0.0
 10
230.3477796705745
 20
594.6368044524045
 30
0.0
 10
230.3393228686971
 20
593.8924403681867
 30
0.0
 10
230.3311591097028
 20
593.1019424778542
 30
0.0
 10
230.3233140755288
 20
592.2677975668572
 30
0.0
 10
230.3158124454527
 20
591.3926297274973
 30
0.0
 10
230.3086778184552
 20
590.4791921039334
 30
0.0
 10
230.3019326389815
 20
589.5303582312126
 30
0.0
 10
230.2955981263347
 20
588.5491129955672
 30
0.0
 10
230.2896942079225
 20
587.5385432444198
 30
0.0
 10
230.2842394565692
 20
586.5018280756333
 30
0.0
 10
230.2792510320883
 20
585.4422288365556
 30
0.0
 10
230.2747446273
 20
584.3630788643193
 30
0.0
 10
230.2707344186647
 20
583.2677729996728
 30
0.0
 10
230.2672330216853
 20
582.1597569073317
 30
0.0
 10
230.2642514512212
 20
581.0425162364429
 30
0.0
 10
230.2617990868369
 20
579.919565655267
 30
0.0
 10
230.2598836432956
 20
578.7944377945685
 30
0.0
 10
230.2585111462899
 20
577.6706721345008
 30
0.0
 10
230.2576859134853
 20
576.551803869942
 30
0.0
 10
230.2574105409381
 20
575.4413527893134
 30
0.0
 10
230.257685894928
 20
574.3428122018631
 30
0.0
 10
230.2585111092337
 20
573.2596379482491
 30
0.0
 10
230.2598835878571
 20
572.1952375289937
 30
0.0
 10
230.2617990131904
 20
571.1529593850082
 30
0.0
 10
230.2642513595984
 20
570.1360823639093
 30
0.0
 10
230.2672329123745
 20
569.1478054052665
 30
0.0
 10
230.2707342920098
 20
568.1912374772274
 30
0.0
 10
230.2747444836994
 20
567.2693877961797
 30
0.0
 10
230.2792508719936
 20
566.3851563602161
 30
0.0
 10
230.2842392804842
 20
565.5413248261845
 30
0.0
 10
230.2896940164011
 20
564.7405477590205
 30
0.0
 10
230.2955979199794
 20
563.9853442808928
 30
0.0
 10
230.3019324184415
 20
563.2780901464296
 30
0.0
 10
230.3086775844241
 20
562.6210102689582
 30
0.0
 10
230.3158121986669
 20
562.0161717212679
 30
0.0
 10
230.3233138167647
 20
561.4654772329152
 30
0.0
 10
230.3311588397743
 20
560.9706592045276
 30
0.0
 10
230.3393225884534
 20
560.5332742579365
 30
0.0
 10
230.3477793808972
 20
560.1546983392824
 30
0.0
 10
230.3565026133304
 20
559.8361223904993
 30
0.0
 10
230.365464843798
 20
559.5785486027949
 30
0.0
 10
230.3746378784935
 20
559.3827872639022
 30
0.0
 10
230.3839928604538
 20
559.2494542090694
 30
0.0
 10
230.3935003603332
 20
559.1789688836219
 30
0.0
 10
230.4031304690037
 20
559.1715530238764
 30
0.0
 10
230.4106103223734
 20
559.2143875438232
 30
0.0
 10
230.4148669703993
 20
559.2566042643111
 30
0.0
 10
230.41587017999
 20
559.2675388260523
 30
0.0
  0
SPLINE
  5
FF
330
C3
100
AcDbEntity
  8
0
  6
Continuous
 62
     0
370
     0
100
AcDbSpline
210
0.0
220
0.0
230
1.0
 70
     8
 71
     3
 72
     8
 73
     4
 74
     0
 42
0.000000001
 43
0.0
 40
27.39253094820027
 40
27.39253094820027
 40
27.39253094820027
 40
27.39253094820027
 40
31.16137198884254
 40
31.16137198884254
 40
31.16137198884254
 40
31.16137198884254
 10
230.6994222969434
 20
598.9769467869686
 30
0.0
 10
230.7103086776847
 20
598.9769467740259
 30
0.0
 10
230.7214011334831
 20
598.8576884646906
 30
0.0
 10
230.7324639192263
 20
598.6220173362127
 30
0.0
  0
ARC
  5
100
330
C3
100
AcDbEntity
  8
0
  6
Continuous
 62
     0
370
     0
100
AcDbCircle
 10
230.729416
 20
598.918974
 30
0.0
 40
0.2969726101869107
100
AcDbArc
 50
180.45314
 51
270.588091
  0
SPLINE
  5
101
330
C3
100
AcDbEntity
  8
0
  6
Continuous
 62
     0
370
     0
100
AcDbSpline
210
0.0
220
0.0
230
1.0
 70
     8
 71
     3
 72
    23
 73
    19
 74
     0
 42
0.000000001
 43
0.0
 40
0.001006631034243
 40
0.001006631034243
 40
0.001006631034243
 40
0.001006631034243
 40
3.895306262554279
 40
7.79063606555885
 40
11.68596107986965
 40
15.58127328266519
 40
19.47656825063716
 40
23.37184559072276
 40
27.26710869605196
 40
31.16236388803833
 40
35.05761908002217
 40
38.9528821853451
 40
42.84815952542125
 40
46.74345449338324
 40
50.63876669616975
 40
54.53409171047554
 40
58.4294215130047
 40
58.55869688286361
 40
58.55869688286361
 40
58.55869688286361
 40
58.55869688286361
 10
230.7324639192263
 20
598.622017336181
 30
0.0
 10
230.7210329420456
 20
598.3784998586325
 30
0.0
 10
230.6981045636105
 20
597.6400794111564
 30
0.0
 10
230.6650815437368
 20
595.8259920258199
 30
0.0
 10
230.6346316022623
 20
593.3735198615998
 30
0.0
 10
230.6079451603673
 20
590.3774481233845
 30
0.0
 10
230.5860432293339
 20
586.9528177635148
 30
0.0
 10
230.5697687528679
 20
583.2312727462325
 30
0.0
 10
230.5597469141883
 20
579.3558305666247
 30
0.0
 10
230.5563629159831
 20
575.4754351912419
 30
0.0
 10
230.5597468550741
 20
571.7392189347595
 30
0.0
 10
230.5697685852481
 20
568.2907706137653
 30
0.0
 10
230.5860431663047
 20
565.2626260415932
 30
0.0
 10
230.6079444293926
 20
562.7711506501628
 30
0.0
 10
230.6346331246319
 20
560.9121304465039
 30
0.0
 10
230.6650744630648
 20
559.7568922029471
 30
0.0
 10
230.6874787583457
 20
559.4813047187996
 30
0.0
 10
230.6990808165905
 20
559.4769484752414
 30
0.0
 10
230.6994537070144
 20
559.4769484749622
 30
0.0
  0
LINE
  5
102
330
C3
100
AcDbEntity
  8
0
  6
Continuous
 62
     0
370
     0
100
AcDbLine
 10
230.432147
 20
558.88584
 30
0.0
 11
230.432452
 21
558.898974
 31
0.0
  0
ARC
  5
103
330
C3
100
AcDbEntity
  8
0
  6
Continuous
 62
     0
370
     0
100
AcDbCircle
 10
230.135142
 20
599.552243
 30
0.0
 40
0.2973226615433847
100
AcDbArc
 50
0.520648
 51
90.520514
  0
ARC
  5
104
330
C3
100
AcDbEntity
  8
0
  6
Continuous
 62
     0
370
     0
100
AcDbCircle
 10
228.229447
 20
599.552549
 30
0.0
 40
0.2970189093482722
100
AcDbArc
 50
89.417941
 51
179.166218
  0
LINE
  5
105
330
C3
100
AcDbEntity
  8
0
  6
Continuous
 62
     0
370
     0
100
AcDbLine
 10
230.732464
 20
598.622017
 30
0.0
 11
230.932452
 21
598.622017
 31
0.0
  0
LINE
  5
106
330
C3
100
AcDbEntity
  8
0
  6
Continuous
 62
     0
370
    30
100
AcDbLine
 10
230.69944
 20
559.476959
 30
0.0
 11
230.932452
 21
559.476959
 31
0.0
  0
LINE
  5
107
330
C3
100
AcDbEntity
  8
0
  6
Continuous
 62
     0
370
    30
100
AcDbLine
 10
230.69944
 20
598.976959
 30
0.0
 11
230.932452
 21
598.976959
 31
0.0
  0
SPLINE
  5
108
330
C3
100
AcDbEntity
  8
0
  6
Continuous
 62
     0
370
    30
100
AcDbSpline
210
0.0
220
0.0
230
1.0
 70
     8
 71
     3
 72
    18
 73
    14
 74
     0
 42
0.000000001
 43
0.0
 40
0.0
 40
0.0
 40
0.0
 40
0.0
 40
0.134313484565063
 40
0.2875733347174163
 40
0.3697619796670405
 40
0.4749576905396534
 40
0.6340973745682976
 40
0.9265696309785622
 40
1.263185121166725
 40
1.599099638783644
 40
2.104951548088839
 40
2.610431034849998
 40
4.096204594425654
 40
4.096204594425654
 40
4.096204594425654
 40
4.096204594425654
 10
228.2665763040501
 20
558.226971939667
 30
0.0
 10
228.2283697073975
 20
558.2269719899095
 30
0.0
 10
228.1448083920899
 20
558.2435061655508
 30
0.0
 10
228.0643884650941
 20
558.3001202826858
 30
0.0
 10
228.0200517689333
 20
558.3522120458742
 30
0.0
 10
227.9937061580588
 20
558.3960582542229
 30
0.0
 10
227.9756070148251
 20
558.441201956907
 30
0.0
 10
227.9664851790296
 20
558.4773752019665
 30
0.0
 10
227.9606158880559
 20
558.509081543257
 30
0.0
 10
227.9556350246673
 20
558.5451538939001
 30
0.0
 10
227.9509758148259
 20
558.5894351551045
 30
0.0
 10
227.9430554976654
 20
558.6861386255378
 30
0.0
 10
227.9371535771673
 20
558.7906826212879
 30
0.0
 10
227.9327562932939
 20
558.8858442877271
 30
0.0
  0
SPLINE
  5
109
330
C3
100
AcDbEntity
  8
0
  6
Continuous
 62
     0
370
    30
100
AcDbSpline
210
0.0
220
0.0
230
1.0
 70
     8
 71
     3
 72
    18
 73
    14
 74
     0
 42
0.000000001
 43
0.0
 40
0.0
 40
0.0
 40
0.0
 40
0.0
 40
1.375840573725362
 40
2.126558651164184
 40
2.712524416509232
 40
2.922995608681533
 40
3.133813409238628
 40
3.476857858125679
 40
3.611307554436296
 40
3.745930520015503
 40
3.895981261688178
 40
4.002809575432353
 40
4.096221703681701
 40
4.096221703681701
 40
4.096221703681701
 40
4.096221703681701
 10
227.9327568286723
 20
599.5680782295253
 30
0.0
 10
227.93682884998
 20
599.656199681828
 30
0.0
 10
227.9431478915877
 20
599.7697550488732
 30
0.0
 10
227.9517054841885
 20
599.8739974721996
 30
0.0
 10
227.9572806409325
 20
599.9220931770692
 30
0.0
 10
227.9621792394424
 20
599.9535661894768
 30
0.0
 10
227.9674782844635
 20
599.9799637269462
 30
0.0
 10
227.9741964326102
 20
600.0100094910015
 30
0.0
 10
227.9951881025686
 20
600.0602971052779
 30
0.0
 10
228.0267342521221
 20
600.1141829778551
 30
0.0
 10
228.0929712467528
 20
600.1790822180536
 30
0.0
 10
228.1819391771356
 20
600.2190499570164
 30
0.0
 10
228.2399438261406
 20
600.2269461504459
 30
0.0
 10
228.2665763019847
 20
600.2269461817428
 30
0.0
  0
SPLINE
  5
10A
330
C3
100
AcDbEntity
  8
0
  6
Continuous
 62
     0
370
    30
100
AcDbSpline
210
0.0
220
0.0
230
1.0
 70
     8
 71
     3
 72
    17
 73
    13
 74
     0
 42
0.000000001
 43
0.0
 40
0.0
 40
0.0
 40
0.0
 40
0.0
 40
0.1701113728856953
 40
0.3299949377464005
 40
0.4236265496703397
 40
0.5554767732600847
 40
0.7806433187707744
 40
0.9260205975877444
 40
1.258684527702084
 40
1.590655865450755
 40
2.590105418182366
 40
4.096204581636399
 40
4.096204581636399
 40
4.096204581636399
 40
4.096204581636399
 10
230.0983283408733
 20
600.2269461825778
 30
0.0
 10
230.1465852838389
 20
600.2269461258411
 30
0.0
 10
230.2424876315623
 20
600.2020771797061
 30
0.0
 10
230.3222266746598
 20
600.1321806839703
 30
0.0
 10
230.3605593825943
 20
600.077590216043
 30
0.0
 10
230.382654887514
 20
600.0318737802545
 30
0.0
 10
230.3916466038513
 20
600.0024773585367
 30
0.0
 10
230.3994646002675
 20
599.9717246852972
 30
0.0
 10
230.4041518527939
 20
599.945321260991
 30
0.0
 10
230.4113314788861
 20
599.8943020106797
 30
0.0
 10
230.4201246662563
 20
599.7961800902116
 30
0.0
 10
230.4276909575943
 20
599.6645366462681
 30
0.0
 10
230.4321483724056
 20
599.5680735194762
 30
0.0
  0
SPLINE
  5
10B
330
C3
100
AcDbEntity
  8
0
  6
Continuous
 62
     0
370
    30
100
AcDbSpline
210
0.0
220
0.0
230
1.0
 70
     8
 71
     3
 72
    16
 73
    12
 74
     0
 42
0.000000001
 43
0.0
 40
0.0
 40
0.0
 40
0.0
 40
0.0
 40
1.861463973585781
 40
2.552531477830966
 40
3.245419071927997
 40
3.408365397349774
 40
3.624130696584474
 40
3.729449334818125
 40
3.835711498289951
 40
3.961979269201807
 40
4.096131920788037
 40
4.096131920788037
 40
4.096131920788037
 40
4.096131920788037
 10
230.4321478127135
 20
558.8858401535317
 30
0.0
 10
230.4266391065808
 20
558.766627853194
 30
0.0
 10
230.419684911464
 20
558.641503452115
 30
0.0
 10
230.4075906840221
 20
558.5327236303983
 30
0.0
 10
230.4026673958186
 20
558.490972903955
 30
0.0
 10
230.3874979644953
 20
558.4378340236464
 30
0.0
 10
230.3749807419397
 20
558.402261562162
 30
0.0
 10
230.3422008801447
 20
558.3479216955502
 30
0.0
 10
230.2947513836636
 20
558.294735084977
 30
0.0
 10
230.2120677800914
 20
558.2419303658414
 30
0.0
 10
230.1364896154351
 20
558.2269715894836
 30
0.0
 10
230.0983283446074
 20
558.2269715177376
 30
0.0
  0
SPLINE
  5
10C
330
C3
100
AcDbEntity
  8
0
  6
Continuous
 62
     0
370
    30
100
AcDbSpline
210
0.0
220
0.0
230
1.0
 70
     8
 71
     3
 72
    15
 73
    11
 74
     0
 42
0.000000001
 43
0.0
 40
0.0
 40
0.0
 40
0.0
 40
0.0
 40
0.0985601064684433
 40
0.2039045941136425
 40
0.2825255945132525
 40
0.3621853646501966
 40
0.4636752048115749
 40
0.6133489208894152
 40
0.8923636924730223
 40
1.152095166226563
 40
1.152095166226563
 40
1.152095166226563
 40
1.152095166226563
 10
230.6994537070144
 20
559.4769484749622
 30
0.0
 10
230.6712033564458
 20
559.4769484961166
 30
0.0
 10
230.6117225725572
 20
559.4682464815431
 30
0.0
 10
230.5407750038912
 20
559.434674112329
 30
0.0
 10
230.4904375028525
 20
559.3936915993279
 30
0.0
 10
230.4567524490633
 20
559.3540696331493
 30
0.0
 10
230.4324735083861
 20
559.3133145200902
 30
0.0
 10
230.4174018850546
 20
559.2752252786893
 30
0.0
 10
230.4130732394126
 20
559.2562044540614
 30
0.0
 10
230.4124605261625
 20
559.2528627035206
 30
0.0
 10
230.4124653479256
 20
559.2529200906015
 30
0.0
  0
SPLINE
  5
10D
330
C3
100
AcDbEntity
  8
0
  6
Continuous
 62
     0
370
    30
100
AcDbSpline
210
0.0
220
0.0
230
1.0
 70
     8
 71
     3
 72
    12
 73
     8
 74
     0
 42
0.000000001
 43
0.0
 40
3.453232554228476
 40
3.453232554228476
 40
3.453232554228476
 40
3.453232554228476
 40
3.482066766103508
 40
3.611353389071335
 40
3.757022692807548
 40
3.861784745653846
 40
3.953597375279415
 40
3.953597375279415
 40
3.953597375279415
 40
3.953597375279415
 10
230.4324523362747
 20
599.1430071130255
 30
0.0
 10
230.4337123144969
 20
599.1404411465876
 30
0.0
 10
230.4412655879354
 20
599.1255420309578
 30
0.0
 10
230.4634606674073
 20
599.0873581204869
 30
0.0
 10
230.5283248377678
 20
599.0239267079709
 30
0.0
 10
230.6158516997683
 20
598.984726537288
 30
0.0
 10
230.6730990542
 20
598.9769468173962
 30
0.0
 10
230.6994222969433
 20
598.9769467869687
 30
0.0
  0
LINE
  5
10E
330
C3
100
AcDbEntity
  8
0
  6
Continuous
 62
     0
370
    30
100
AcDbLine
 10
230.098347
 20
600.226959
 30
0.0
 11
228.266558
 21
600.226959
 31
0.0
  0
LINE
  5
10F
330
C3
100
AcDbEntity
  8
0
  6
Continuous
 62
     0
370
    30
100
AcDbLine
 10
230.098345
 20
558.226959
 30
0.0
 11
228.26656
 21
558.226959
 31
0.0
  0
SPLINE
  5
110
330
C3
100
AcDbEntity
  8
0
  6
Continuous
 62
     0
370
    30
100
AcDbSpline
210
0.0
220
0.0
230
1.0
 70
     8
 71
     3
 72
    18
 73
    14
 74
     0
 42
0.000000001
 43
0.0
 40
50.26909665648908
 40
50.26909665648908
 40
50.26909665648908
 40
50.26909665648908
 40
51.34852973154879
 40
53.17522302435439
 40
56.33368274125549
 40
59.48403434448655
 40
62.78416741764998
 40
65.93400671407747
 40
69.08366762508942
 40
72.24626700647093
 40
75.40941931188561
 40
78.55439778159521
 40
80.26010153813522
 40
80.26010153813522
 40
80.26010153813522
 40
80.26010153813522
 10
230.4324596493912
 20
804.0037951450245
 30
0.0
 10
230.42618125734
 20
803.6605112855833
 30
0.0
 10
230.4092728132622
 20
802.7262509642215
 30
0.0
 10
230.3742094312691
 20
800.7340370595114
 30
0.0
 10
230.3285049904759
 20
798.0100371192243
 30
0.0
 10
230.278612803818
 20
794.8405988656004
 30
0.0
 10
230.2349152204823
 20
791.8482044949172
 30
0.0
 10
230.1991797866413
 20
789.1541120990279
 30
0.0
 10
230.1729778159175
 20
786.888127129674
 30
0.0
 10
230.1568084668098
 20
785.097693378085
 30
0.0
 10
230.1513635561761
 20
783.85742986981
 30
0.0
 10
230.1559772525915
 20
783.3121888107901
 30
0.0
 10
230.1629796513211
 20
783.2267114272565
 30
0.0
 10
230.1659458265265
 20
783.2269024035165
 30
0.0
  0
LINE
  5
111
330
C3
100
AcDbEntity
  8
0
  6
Continuous
 62
     0
370
    30
100
AcDbLine
 10
230.43246
 20
804.093363
 30
0.0
 11
230.43246
 21
804.003795
 31
0.0
  0
LINE
  5
112
330
C3
100
AcDbEntity
  8
0
  6
Continuous
 62
     0
370
     0
100
AcDbLine
 10
230.43246
 20
804.362069
 30
0.0
 11
230.43246
 21
804.093363
 31
0.0
  0
SPLINE
  5
113
330
C3
100
AcDbEntity
  8
0
  6
Continuous
 62
     0
370
     0
100
AcDbSpline
210
0.0
220
0.0
230
1.0
 70
     8
 71
     3
 72
    31
 73
    27
 74
     0
 42
0.000000001
 43
0.0
 40
15.3281377103608
 40
15.3281377103608
 40
15.3281377103608
 40
15.3281377103608
 40
15.51986675377279
 40
17.29373133776561
 40
19.06759592175842
 40
20.72484435273388
 40
22.38209278370935
 40
23.98914882251212
 40
25.59620486131488
 40
27.35827577344467
 40
29.12034668557445
 40
30.83629195100925
 40
32.55223721644407
 40
34.33840770994256
 40
36.12457820344106
 40
37.89820160738812
 40
39.67182501133518
 40
41.36497722916518
 40
43.05812944699517
 40
44.7693306390904
 40
46.4805318311856
 40
48.2523276796901
 40
50.02412352819457
 40
52.03170136852293
 40
54.03927920885126
 40
54.04451950318705
 40
54.04451950318705
 40
54.04451950318705
 40
54.04451950318705
 10
230.1988671582231
 20
783.2268151719425
 30
0.0
 10
230.1981659785784
 20
783.2033155603526
 30
0.0
 10
230.1910272155621
 20
782.9658026185596
 30
0.0
 10
230.1784247203044
 20
782.5806834070153
 30
0.0
 10
230.1635149030482
 20
782.2170980898068
 30
0.0
 10
230.1515907859531
 20
782.0292539037896
 30
0.0
 10
230.142629775335
 20
782.0050765045189
 30
0.0
 10
230.1363598408923
 20
782.1355814947569
 30
0.0
 10
230.1326147468188
 20
782.4224229030098
 30
0.0
 10
230.1316764750484
 20
782.882194802691
 30
0.0
 10
230.1338351884857
 20
783.5210956933255
 30
0.0
 10
230.1390180586886
 20
784.3143745702548
 30
0.0
 10
230.1471749432406
 20
785.2612427994718
 30
0.0
 10
230.1584233975141
 20
786.3668874426193
 30
0.0
 10
230.1727308313614
 20
787.6223696505624
 30
0.0
 10
230.1897861463031
 20
788.9991447444087
 30
0.0
 10
230.2090748731429
 20
790.4585537492244
 30
0.0
 10
230.2303176757636
 20
791.983746545456
 30
0.0
 10
230.2532615295935
 20
793.5606205915884
 30
0.0
 10
230.2780467074031
 20
795.1987253074892
 30
0.0
 10
230.3047527360219
 20
796.9021463305445
 30
0.0
 10
230.3330905831101
 20
798.6495604494912
 30
0.0
 10
230.3641241247808
 20
800.5019102491508
 30
0.0
 10
230.397327003565
 20
802.4177034191179
 30
0.0
 10
230.4207296478881
 20
803.7207118844553
 30
0.0
 10
230.4324292285793
 20
804.3604026222237
 30
0.0
 10
230.4324596994521
 20
804.3620686593139
 30
0.0
  0
LINE
  5
114
330
C3
100
AcDbEntity
  8
0
  6
Continuous
 62
     0
370
     0
100
AcDbLine
 10
230.132414
 20
804.451637
 30
0.0
 11
228.232505
 21
804.451637
 31
0.0
  0
SPLINE
  5
115
330
C3
100
AcDbEntity
  8
0
  6
Continuous
 62
     0
370
     0
100
AcDbSpline
210
0.0
220
0.0
230
1.0
 70
     8
 71
     3
 72
    19
 73
    15
 74
     0
 42
0.000000001
 43
0.0
 40
0.0
 40
0.0
 40
0.0
 40
0.0
 40
0.023318075111569
 40
0.069954225334706
 40
0.105069162762441
 40
0.140283163225278
 40
0.210998146606018
 40
0.282354916961713
 40
0.318346447764536
 40
0.354500068764808
 40
0.4270889148248179
 40
0.500000000000018
 40
0.572911085175215
 40
0.5965176030718282
 40
0.5965176030718282
 40
0.5965176030718282
 40
0.5965176030718282
 10
228.2325054223144
 20
804.4516370175008
 30
0.0
 10
228.2398238583977
 20
804.0445055991476
 30
0.0
 10
228.2617791744261
 20
802.8091404261821
 30
0.0
 10
228.2946476239885
 20
800.8963177706881
 30
0.0
 10
228.3300183170519
 20
798.7548403609914
 30
0.0
 10
228.3711226497203
 20
796.1781906570744
 30
0.0
 10
228.4189319201029
 20
793.0067325824585
 30
0.0
 10
228.4592212749276
 20
790.0790363829888
 30
0.0
 10
228.4856968757902
 20
787.9698959224743
 30
0.0
 10
228.5080836813387
 20
786.0348008727229
 30
0.0
 10
228.5274634257648
 20
784.013305173252
 30
0.0
 10
228.5353823431805
 20
782.378287543454
 30
0.0
 10
228.5292391164286
 20
781.79171799071
 30
0.0
 10
228.5212303645174
 20
781.7268577365455
 30
0.0
 10
228.5190095651339
 20
781.7270246986741
 30
0.0
  0
SPLINE
  5
116
330
C3
100
AcDbEntity
  8
0
  6
Continuous
 62
     0
370
     0
100
AcDbSpline
210
0.0
220
0.0
230
1.0
 70
     8
 71
     3
 72
    19
 73
    15
 74
     0
 42
0.000000001
 43
0.0
 40
0.4034824142378177
 40
0.4034824142378177
 40
0.4034824142378177
 40
0.4034824142378177
 40
0.42708891836834
 40
0.499999996303494
 40
0.57291107571774
 40
0.6454999154717019
 40
0.681653534321903
 40
0.717645065424837
 40
0.7890018421048379
 40
0.8597168288403509
 40
0.894930827873293
 40
0.9300457620995981
 40
0.9766819206998658
 40
1.0
 40
1.0
 40
1.0
 40
1.0
 10
229.8459088818133
 20
781.7270246982625
 30
0.0
 10
229.8436881249684
 20
781.7268577599787
 30
0.0
 10
229.8356795667398
 20
781.7917180589459
 30
0.0
 10
229.8295368715815
 20
782.378287517739
 30
0.0
 10
229.8374559933273
 20
784.0133049240937
 30
0.0
 10
229.8568359581663
 20
786.0348003543953
 30
0.0
 10
229.8792229358249
 20
787.9698951969688
 30
0.0
 10
229.9056985999236
 20
790.0790356342242
 30
0.0
 10
229.9459878092078
 20
793.0067319359324
 30
0.0
 10
229.9937970639045
 20
796.1781901359566
 30
0.0
 10
230.0349014097921
 20
798.7548398091639
 30
0.0
 10
230.0702720951662
 20
800.8963172870154
 30
0.0
 10
230.1031404611557
 20
802.8091401265933
 30
0.0
 10
230.12509562841
 20
804.0445055253692
 30
0.0
 10
230.1324140016314
 20
804.4516370175008
 30
0.0
  0
SPLINE
  5
117
330
C3
100
AcDbEntity
  8
0
  6
Continuous
 62
     0
370
     0
100
AcDbSpline
210
0.0
220
0.0
230
1.0
 70
     8
 71
     3
 72
    65
 73
    61
 74
     0
 42
0.000000001
 43
0.0
 40
-27.02144788365261
 40
-27.02144788365261
 40
-27.02144788365261
 40
-27.02144788365261
 40
-27.01621157198858
 40
-26.05134687298899
 40
-25.0864821739894
 40
-24.12161747498981
 40
-23.15675277599022
 40
-22.19188807699061
 40
-21.22702337799102
 40
-20.26215867899144
 40
-19.29729397999185
 40
-18.33242928099225
 40
-17.36756458199266
 40
-16.40269988299307
 40
-15.43783518399348
 40
-14.47297048499389
 40
-13.5081057859943
 40
-12.54324108699471
 40
-11.57837638799512
 40
-10.61351168899552
 40
-9.648646989995937
 40
-8.683782290996344
 40
-7.718917591996754
 40
-6.75405289299716
 40
-5.78918819399757
 40
-4.824323494997979
 40
-3.85945879599839
 40
-2.894594096998798
 40
-1.929729397999207
 40
-0.9648646989996159
 40
-0.0000000000000249
 40
0.9648646989995662
 40
1.929729397999157
 40
2.894594096998752
 40
3.859458795998343
 40
4.824323494997933
 40
5.789188193997527
 40
6.754052892997119
 40
7.718917591996709
 40
8.683782290996298
 40
9.648646989995889
 40
10.61351168899548
 40
11.57837638799507
 40
12.54324108699466
 40
13.50810578599425
 40
14.47297048499385
 40
15.43783518399344
 40
16.40269988299303
 40
17.36756458199262
 40
18.33242928099222
 40
19.2972939799918
 40
20.26215867899138
 40
21.22702337799098
 40
22.19188807699058
 40
23.15675277599016
 40
24.12161747498977
 40
25.08648217398935
 40
26.05134687298893
 40
27.01621157198853
 40
27.02144788365258
 40
27.02144788365258
 40
27.02144788365258
 40
27.02144788365258
 10
227.9324596994631
 20
804.3620686591424
 30
0.0
 10
227.9324901645346
 20
804.360402941562
 30
0.0
 10
227.9381337572262
 20
804.0518321399284
 30
0.0
 10
227.9493943113988
 20
803.4307520450301
 30
0.0
 10
227.9661833824452
 20
802.4885468105462
 30
0.0
 10
227.9828674498572
 20
801.5360266201922
 30
0.0
 10
227.9993929818741
 20
800.5762348862226
 30
0.0
 10
228.015708261059
 20
799.6121790272817
 30
0.0
 10
228.0317618790173
 20
798.6468956533886
 30
0.0
 10
228.0475033450874
 20
797.6834210099166
 30
0.0
 10
228.062883125445
 20
796.724786783889
 30
0.0
 10
228.0778528310441
 20
795.7740091291092
 30
0.0
 10
228.0923653612688
 20
794.8340795610176
 30
0.0
 10
228.1063750544327
 20
793.9079554411709
 30
0.0
 10
228.1198378308304
 20
792.9985506999169
 30
0.0
 10
228.1327113315941
 20
792.1087266606884
 30
0.0
 10
228.1449550519256
 20
791.2412830392046
 30
0.0
 10
228.1565304685515
 20
790.3989491339984
 30
0.0
 10
228.1674011609285
 20
789.5843752391751
 30
0.0
 10
228.1775329258367
 20
788.8001243055695
 30
0.0
 10
228.1868938849953
 20
788.0486638767642
 30
0.0
 10
228.1954545853635
 20
787.3323583252817
 30
0.0
 10
228.2031880918108
 20
786.6534614133946
 30
0.0
 10
228.2100700718648
 20
786.014109201955
 30
0.0
 10
228.2160788722702
 20
785.416313329558
 30
0.0
 10
228.2211955871179
 20
784.8619546831812
 30
0.0
 10
228.2254041173298
 20
784.3527774802188
 30
0.0
 10
228.2286912213131
 20
783.8903837805292
 30
0.0
 10
228.2310465566224
 20
783.4762284457604
 30
0.0
 10
228.2324627125015
 20
783.1116145618187
 30
0.0
 10
228.2329352332001
 20
782.7976893388768
 30
0.0
 10
228.2324626319931
 20
782.5354405018273
 30
0.0
 10
228.231046395859
 20
782.3256931825345
 30
0.0
 10
228.2286909808004
 20
782.1691073236634
 30
0.0
 10
228.2254037978246
 20
782.0661756022577
 30
0.0
 10
228.2211951896253
 20
782.017221879594
 30
0.0
 10
228.2160783980411
 20
782.0224001821947
 30
0.0
 10
228.2100695223912
 20
782.081694217204
 30
0.0
 10
228.2031874688216
 20
782.1949174236513
 30
0.0
 10
228.1954538908188
 20
782.3617135594404
 30
0.0
 10
228.1868931210804
 20
782.5815578222197
 30
0.0
 10
228.1775320949552
 20
782.8537585006036
 30
0.0
 10
228.1674002656946
 20
783.1774591505537
 30
0.0
 10
228.156529511782
 20
783.551641290067
 30
0.0
 10
228.1449540366307
 20
783.9751276037009
 30
0.0
 10
228.1327102609685
 20
784.4465856468286
 30
0.0
 10
228.1198367082426
 20
784.964532038058
 30
0.0
 10
228.1063738834148
 20
785.5273371262928
 30
0.0
 10
228.0923641455052
 20
786.1332301189847
 30
0.0
 10
228.0778515743601
 20
786.780304650839
 30
0.0
 10
228.0628818317945
 20
787.4665247926306
 30
0.0
 10
228.0475020185408
 20
788.1897314171108
 30
0.0
 10
228.0317605237484
 20
788.9476491412539
 30
0.0
 10
228.0157068813319
 20
789.7378929300011
 30
0.0
 10
227.9993915820301
 20
790.55797767344
 30
0.0
 10
227.9828660343004
 20
791.4053182694241
 30
0.0
 10
227.9661819556302
 20
792.2772666301097
 30
0.0
 10
227.9493928778126
 20
793.1710122588786
 30
0.0
 10
227.9381323221344
 20
793.7813178261068
 30
0.0
 10
227.9324887294439
 20
794.0898959277644
 30
0.0
 10
227.9324582643724
 20
794.0915616847424
 30
0.0
  0
SPLINE
  5
118
330
C3
100
AcDbEntity
  8
0
  6
Continuous
 62
     0
370
     0
100
AcDbSpline
210
0.0
220
0.0
230
1.0
 70
    12
 71
     2
 72
     8
 73
     5
 74
     0
 42
0.000000001
 43
0.0
 40
0.0
 40
0.0
 40
0.0
 40
0.5
 40
0.5
 40
1.000000013938759
 40
1.000000013938759
 40
1.000000013938759
 10
227.9324583978692
 20
795.0469576954956
 30
0.0
 41
1.0
 10
228.1768294847546
 20
781.6854912925091
 30
0.0
 41
0.7071067881559279
 10
228.1768300736204
 20
785.8653484231746
 30
0.0
 41
1.0
 10
228.1768306624861
 20
790.04520571863
 30
0.0
 41
0.707106779990792
 10
227.9324595659663
 20
803.4066726483892
 30
0.0
 41
1.000000016330272
  0
SPLINE
  5
119
330
C3
100
AcDbEntity
  8
0
  6
Continuous
 62
     0
370
     0
100
AcDbSpline
210
0.0
220
0.0
230
1.0
 70
     8
 71
     3
 72
    14
 73
    10
 74
     0
 42
0.000000001
 43
0.0
 40
44.92283353398965
 40
44.92283353398965
 40
44.92283353398965
 40
44.92283353398965
 40
45.37035808752793
 40
47.25436468279624
 40
49.13837127806457
 40
50.77200767273273
 40
52.40564406740092
 40
54.03928046206909
 40
54.04451952580687
 40
54.04451952580687
 40
54.04451952580687
 40
54.04451952580687
 10
228.0843140723795
 20
811.960610991824
 30
0.0
 10
228.0820677257071
 20
811.8603007167995
 30
0.0
 10
228.0702753505437
 20
811.3302123100794
 30
0.0
 10
228.0481487715427
 20
810.302773411522
 30
0.0
 10
228.0184772781268
 20
808.8598494367541
 30
0.0
 10
227.9893149594112
 20
807.3858675786961
 30
0.0
 10
227.9610639250783
 20
805.910520931026
 30
0.0
 10
227.942018822385
 20
804.8847394038856
 30
0.0
 10
227.932490167851
 20
804.3637346003496
 30
0.0
 10
227.9324596994631
 20
804.362068659345
 30
0.0
  0
SPLINE
  5
11A
330
C3
100
AcDbEntity
  8
0
  6
Continuous
 62
     0
370
     0
100
AcDbSpline
210
0.0
220
0.0
230
1.0
 70
     8
 71
     3
 72
    16
 73
    12
 74
     0
 42
0.000000001
 43
0.0
 40
0.0
 40
0.0
 40
0.0
 40
0.0
 40
0.023318075111572
 40
0.069954225334717
 40
0.105069162762465
 40
0.140283163225319
 40
0.210998146606102
 40
0.282354916961848
 40
0.318346447764697
 40
0.354500068764993
 40
0.403583557486437
 40
0.403583557486437
 40
0.403583557486437
 40
0.403583557486437
 10
230.1324140016315
 20
804.4516370175008
 30
0.0
 10
230.1250955655482
 20
804.8587684358544
 30
0.0
 10
230.1031402456155
 20
806.0661917726909
 30
0.0
 10
230.0702717724805
 20
807.8103120202677
 30
0.0
 10
230.034901030855
 20
809.6042435889799
 30
0.0
 10
229.9937966171572
 20
811.6009888375278
 30
0.0
 10
229.9459872037692
 20
813.7489965723412
 30
0.0
 10
229.905697657023
 20
815.303164180988
 30
0.0
 10
229.879221878456
 20
816.1405230858198
 30
0.0
 10
229.8604706147174
 20
816.6060846981417
 30
0.0
 10
229.850492756625
 20
816.7265454275085
 30
0.0
 10
229.8458798628819
 20
816.7266069085006
 30
0.0
  0
SPLINE
  5
11B
330
C3
100
AcDbEntity
  8
0
  6
Continuous
 62
     0
370
     0
100
AcDbSpline
210
0.0
220
0.0
230
1.0
 70
     8
 71
     3
 72
    16
 73
    12
 74
     0
 42
0.000000001
 43
0.0
 40
0.5964170915177517
 40
0.5964170915177517
 40
0.5964170915177517
 40
0.5964170915177517
 40
0.645499919277634
 40
0.681653536662926
 40
0.7176450652553539
 40
0.7890018382977038
 40
0.859716831114682
 40
0.8949308226302481
 40
0.93004573351407
 40
0.9766819111713569
 40
1.0
 40
1.0
 40
1.0
 40
1.0
 10
228.5190374295632
 20
816.7266069060672
 30
0.0
 10
228.5144246530326
 20
816.7265435936459
 30
0.0
 10
228.5044469525273
 20
816.6060822588124
 30
0.0
 10
228.4856958635252
 20
816.1405233034017
 30
0.0
 10
228.4592202876932
 20
815.3031645503038
 30
0.0
 10
228.4189312605782
 20
813.7489970061389
 30
0.0
 10
228.3711222883363
 20
811.6009893077737
 30
0.0
 10
228.3300179322347
 20
809.6042444847036
 30
0.0
 10
228.2946469309218
 20
807.81031315639
 30
0.0
 10
228.2617783920787
 20
806.06619272545
 30
0.0
 10
228.2398235949929
 20
804.8587686793321
 30
0.0
 10
228.2325054223144
 20
804.4516370175008
 30
0.0
  0
SPLINE
  5
11C
330
C3
100
AcDbEntity
  8
0
  6
Continuous
 62
     0
370
     0
100
AcDbSpline
210
0.0
220
0.0
230
1.0
 70
     8
 71
     3
 72
    19
 73
    15
 74
     0
 42
0.000000001
 43
0.0
 40
-81.05387102730326
 40
-81.05387102730326
 40
-81.05387102730326
 40
-81.05387102730326
 40
-81.04863471563898
 40
-80.08377001663936
 40
-79.11890531763977
 40
-78.15404061864017
 40
-77.1891759196406
 40
-76.224311220641
 40
-75.25944652164142
 40
-74.29458182264179
 40
-73.32971712364224
 40
-72.36485242464262
 40
-71.39998772564306
 40
-70.47975315618267
 40
-70.47975315618267
 40
-70.47975315618267
 40
-70.47975315618267
 10
230.4324596994521
 20
804.3620686591423
 30
0.0
 10
230.4324292343806
 20
804.3637344161203
 30
0.0
 10
230.4267856416901
 20
804.672312517778
 30
0.0
 10
230.4155250860119
 20
805.2826180850062
 30
0.0
 10
230.3987360081943
 20
806.1763637137751
 30
0.0
 10
230.3820519295242
 20
807.0483120744607
 30
0.0
 10
230.3655263817946
 20
807.8956526704449
 30
0.0
 10
230.3492110824928
 20
808.7157374138837
 30
0.0
 10
230.3331574400764
 20
809.5059812026308
 30
0.0
 10
230.3174159452841
 20
810.2638989267741
 30
0.0
 10
230.3020361320305
 20
810.9871055512542
 30
0.0
 10
230.2870663894651
 20
811.6733256930459
 30
0.0
 10
230.2727775795483
 20
812.310423344132
 30
0.0
 10
230.2636461890005
 20
812.705630350429
 30
0.0
 10
230.2592711930884
 20
812.8920365827958
 30
0.0
  0
SPLINE
  5
11D
330
C3
100
AcDbEntity
  8
0
  6
Continuous
 62
     0
370
     0
100
AcDbSpline
210
0.0
220
0.0
230
1.0
 70
     8
 71
     3
 72
    14
 73
    10
 74
     0
 42
0.000000001
 43
0.0
 40
30.15569303446879
 40
30.15569303446879
 40
30.15569303446879
 40
30.15569303446879
 40
31.59593334783597
 40
34.75546558253617
 40
37.91506750920887
 40
41.07474118996232
 40
44.23447496150394
 40
47.39424471803433
 40
50.55401721052969
 40
50.55401721052969
 40
50.55401721052969
 40
50.55401721052969
 10
230.4609604144058
 20
815.2267531178206
 30
0.0
 10
230.4634937576249
 20
815.226785031805
 30
0.0
 10
230.4727402459822
 20
815.1587936551878
 30
0.0
 10
230.4943939757177
 20
814.6769630268249
 30
0.0
 10
230.5299925846417
 20
813.4948547896072
 30
0.0
 10
230.5733687920131
 20
811.7647443768749
 30
0.0
 10
230.6228637820304
 20
809.5526955500346
 30
0.0
 10
230.67654828765
 20
806.9451824044132
 30
0.0
 10
230.7138260436614
 20
805.0062257672729
 30
0.0
 10
230.7324139697901
 20
804.0086998540176
 30
0.0
  0
SPLINE
  5
11E
330
C3
100
AcDbEntity
  8
0
  6
Continuous
 62
     0
370
    30
100
AcDbSpline
210
0.0
220
0.0
230
1.0
 70
     8
 71
     3
 72
    11
 73
     7
 74
     0
 42
0.000000001
 43
0.0
 40
0.0
 40
0.0
 40
0.0
 40
0.0
 40
0.116433977529987
 40
0.232867955059973
 40
0.34930193258997
 40
0.465735910119958
 40
0.465735910119958
 40
0.465735910119958
 40
0.465735910119958
 10
230.7324139697901
 20
804.0086998540176
 30
0.0
 10
230.6934019839185
 20
804.0080500207553
 30
0.0
 10
230.6145239999387
 20
804.0114019094151
 30
0.0
 10
230.5148238857562
 20
804.0296947983253
 30
0.0
 10
230.4480694607785
 20
804.0583844326113
 30
0.0
 10
230.4324598789756
 20
804.0817020735032
 30
0.0
 10
230.4324596619064
 20
804.0933632720237
 30
0.0
  0
SPLINE
  5
11F
330
C3
100
AcDbEntity
  8
0
  6
Continuous
 62
     0
370
     0
100
AcDbSpline
210
0.0
220
0.0
230
1.0
 70
     8
 71
     3
 72
    12
 73
     8
 74
     0
 42
0.000000001
 43
0.0
 40
0.0
 40
0.0
 40
0.0
 40
0.0
 40
0.111131828689864
 40
0.333395486069591
 40
0.6666040183922181
 40
0.888868006130739
 40
1.0
 40
1.0
 40
1.0
 40
1.0
 10
230.432459699453
 20
804.3620687089917
 30
0.0
 10
230.4324597002586
 20
804.3672215765224
 30
0.0
 10
230.427877175126
 20
804.3826795457293
 30
0.0
 10
230.3914876948557
 20
804.4128879773613
 30
0.0
 10
230.3026288950465
 20
804.4394186236628
 30
0.0
 10
230.2014501599032
 20
804.4502731911715
 30
0.0
 10
230.1496730466452
 20
804.4516373347838
 30
0.0
 10
230.1324140088186
 20
804.4516373250542
 30
0.0
  0
SPLINE
  5
120
330
C3
100
AcDbEntity
  8
0
  6
Continuous
 62
     0
370
     0
100
AcDbSpline
210
0.0
220
0.0
230
1.0
 70
     8
 71
     3
 72
    12
 73
     8
 74
     0
 42
0.000000001
 43
0.0
 40
0.0
 40
0.0
 40
0.0
 40
0.0
 40
0.111131868317539
 40
0.333395604952616
 40
0.6666041133082179
 40
0.888868037769406
 40
1.0
 40
1.0
 40
1.0
 40
1.0
 10
228.2325044179054
 20
804.4516370803665
 30
0.0
 10
228.2152454461466
 20
804.4516369559872
 30
0.0
 10
228.1634685235073
 20
804.4502665192967
 30
0.0
 10
228.0622900258002
 20
804.4394015407563
 30
0.0
 10
227.9734315558775
 20
804.4128890530317
 30
0.0
 10
227.9370422030014
 20
804.3826793220799
 30
0.0
 10
227.9324596969485
 20
804.3672215610487
 30
0.0
 10
227.9324596994624
 20
804.3620687005806
 30
0.0
  0
LINE
  5
121
330
C3
100
AcDbEntity
  8
0
  6
Continuous
 62
     0
370
    30
100
AcDbLine
 10
230.43246
 20
804.003795
 30
0.0
 11
230.7324
 21
804.0087
 31
0.0
  0
LINE
  5
122
330
C3
100
AcDbEntity
  8
0
  6
Continuous
 62
     0
370
     0
100
AcDbLine
 10
230.43246
 20
804.003795
 30
0.0
 11
231.082457
 21
804.003795
 31
0.0
  0
LINE
  5
123
330
C3
100
AcDbEntity
  8
0
  6
Continuous
 62
     0
370
    30
100
AcDbLine
 10
230.165948
 20
783.226815
 30
0.0
 11
231.082457
 21
783.226815
 31
0.0
  0
LINE
  5
124
330
C3
100
AcDbEntity
  8
0
  6
Continuous
 62
     0
370
    30
100
AcDbLine
 10
230.460972
 20
815.226815
 30
0.0
 11
231.082457
 21
815.226815
 31
0.0
  0
SPLINE
  5
125
330
C3
100
AcDbEntity
  8
0
  6
Continuous
 62
     0
370
    30
100
AcDbSpline
210
0.0
220
0.0
230
1.0
 70
     8
 71
     3
 72
    26
 73
    22
 74
     0
 42
0.000000001
 43
0.0
 40
10.57363447556256
 40
10.57363447556256
 40
10.57363447556256
 40
10.57363447556256
 40
12.36117641067133
 40
14.62119888736902
 40
15.9127233742815
 40
16.88140869965683
 40
17.50849241509952
 40
18.1168743218087
 40
19.02953708513958
 40
19.63806946900526
 40
20.02525877114796
 40
20.41253548285446
 40
20.79998615853878
 40
21.18796808392302
 40
21.37247351621323
 40
21.56083418510362
 40
21.68300131242595
 40
21.74145028293177
 40
21.82444196497429
 40
21.94752027995913
 40
22.03558657775057
 40
22.03558657775057
 40
22.03558657775057
 40
22.03558657775057
 10
228.1056301676479
 20
785.5619410938073
 30
0.0
 10
228.1141309292981
 20
785.1996929782331
 30
0.0
 10
228.1326776353975
 20
784.4348907527828
 30
0.0
 10
228.1547354506691
 20
783.6050311259216
 30
0.0
 10
228.1713826004316
 20
783.0442822411023
 30
0.0
 10
228.1811465454333
 20
782.7452833604932
 30
0.0
 10
228.1881153277089
 20
782.5495648215461
 30
0.0
 10
228.1945384537412
 20
782.3834465074004
 30
0.0
 10
228.2004595245899
 20
782.248845834523
 30
0.0
 10
228.2053899080613
 20
782.1548557872782
 30
0.0
 10
228.208849232235
 20
782.0988102457989
 30
0.0
 10
228.2116979667013
 20
782.0591697940433
 30
0.0
 10
228.2148344007553
 20
782.0251970341692
 30
0.0
 10
228.217654510736
 20
781.9997937382587
 30
0.0
 10
228.2229787115339
 20
781.9705752573283
 30
0.0
 10
228.229819187229
 20
781.9400466642549
 30
0.0
 10
228.2503120375077
 20
781.8881595855544
 30
0.0
 10
228.2860751410154
 20
781.8347253479278
 30
0.0
 10
228.3399303213786
 20
781.7800078397083
 30
0.0
 10
228.4233431370517
 20
781.7364421819979
 30
0.0
 10
228.4910414653586
 20
781.7268831484636
 30
0.0
 10
228.5190362222622
 20
781.72688316584
 30
0.0
  0
SPLINE
  5
126
330
C3
100
AcDbEntity
  8
0
  6
Continuous
 62
     0
370
    30
100
AcDbSpline
210
0.0
220
0.0
230
1.0
 70
     8
 71
     3
 72
    24
 73
    20
 74
     0
 42
0.000000001
 43
0.0
 40
15.32504651806374
 40
15.32504651806374
 40
15.32504651806374
 40
15.32504651806374
 40
15.91547332206171
 40
16.88416156237994
 40
17.51127875483728
 40
18.11972543865083
 40
19.03248467557708
 40
19.64108131650845
 40
20.02789719419145
 40
20.41480083651822
 40
20.80187917472501
 40
21.18949166214676
 40
21.37338744685729
 40
21.56114348870232
 40
21.68314007658845
 40
21.74166322996993
 40
21.82470705768672
 40
21.94776332285438
 40
22.03554943914767
 40
22.03554943914767
 40
22.03554943914767
 40
22.03554943914767
 10
230.1988946054745
 20
783.2268151719423
 30
0.0
 10
230.1967304653287
 20
783.1542326346298
 30
0.0
 10
230.1911354529053
 20
782.9708170545175
 30
0.0
 10
230.1837440929957
 20
782.7445357649653
 30
0.0
 10
230.1767767768397
 20
782.5489233271571
 30
0.0
 10
230.1703547849581
 20
782.3829004018841
 30
0.0
 10
230.16443475243
 20
782.2483951235679
 30
0.0
 10
230.1595062783603
 20
782.1545138311221
 30
0.0
 10
230.1560491196615
 20
782.0985593998196
 30
0.0
 10
230.1532030986949
 20
782.058998897382
 30
0.0
 10
230.1500671622234
 20
782.0250806592501
 30
0.0
 10
230.1472471122977
 20
781.9997068144199
 30
0.0
 10
230.1419104669987
 20
781.9704727362594
 30
0.0
 10
230.1350527630163
 20
781.939934282696
 30
0.0
 10
230.114537600449
 20
781.8880645094067
 30
0.0
 10
230.078729340008
 20
781.8346151740708
 30
0.0
 10
230.0247779622243
 20
781.7798859676957
 30
0.0
 10
229.9413897646244
 20
781.736434908423
 30
0.0
 10
229.8737884683444
 20
781.7269192099296
 30
0.0
 10
229.8458819641361
 20
781.7269192131013
 30
0.0
  0
SPLINE
  5
127
330
C3
100
AcDbEntity
  8
0
  6
Continuous
 62
     0
370
    30
100
AcDbSpline
210
0.0
220
0.0
230
1.0
 70
     8
 71
     3
 72
    30
 73
    26
 74
     0
 42
0.000000001
 43
0.0
 40
0.0
 40
0.0
 40
0.0
 40
0.0
 40
2.355010570422427
 40
5.587449337207472
 40
7.202498642280798
 40
8.492725343898462
 40
12.36393330087846
 40
14.62395124221691
 40
15.91547712800177
 40
16.88416502494089
 40
17.51128156552771
 40
18.11972717634895
 40
19.03248479962669
 40
19.64108036383553
 40
20.02789641845
 40
20.41480023821705
 40
20.80187875437579
 40
21.18949141989764
 40
21.37338732724321
 40
21.56114349073663
 40
21.68314009252072
 40
21.74166325610991
 40
21.82470708989636
 40
21.94776335520423
 40
22.03554948133995
 40
22.03554948133995
 40
22.03554948133995
 40
22.03554948133995
 10
227.9324640651567
 20
804.3625460005242
 30
0.0
 10
227.946153847049
 20
805.1111098340629
 30
0.0
 10
227.978677226189
 20
806.8513476245203
 30
0.0
 10
228.0196442349672
 20
808.926921732653
 30
0.0
 10
228.0529566393376
 20
810.5264047741219
 30
0.0
 10
228.0883831698244
 20
812.1663180051012
 30
0.0
 10
228.1241078488554
 20
813.6963887640043
 30
0.0
 10
228.1547687978717
 20
814.8497477986598
 30
0.0
 10
228.1714122282448
 20
815.4102487658732
 30
0.0
 10
228.1811739044915
 20
815.7090955186122
 30
0.0
 10
228.1881412121047
 20
815.9047076391165
 30
0.0
 10
228.1945631925202
 20
816.0707302071576
 30
0.0
 10
228.2004832139094
 20
816.2052352009312
 30
0.0
 10
228.2054116816034
 20
816.2991163762981
 30
0.0
 10
228.208868838621
 20
816.3550707943508
 30
0.0
 10
228.2117148607521
 20
816.394631324318
 30
0.0
 10
228.2148507983073
 20
816.4285495831003
 30
0.0
 10
228.2176708476641
 20
816.4539234354456
 30
0.0
 10
228.223007492934
 20
816.4831575188273
 30
0.0
 10
228.2298651895585
 20
816.5136959600088
 30
0.0
 10
228.2503803538596
 20
816.5655657505259
 30
0.0
 10
228.2861886126863
 20
816.6190150914304
 30
0.0
 10
228.3401399918053
 20
816.6737443048991
 30
0.0
 10
228.4235281933509
 20
816.7171953694049
 30
0.0
 10
228.4911294929109
 20
816.7267110689844
 30
0.0
 10
228.5190360000039
 20
816.7267110655811
 30
0.0
  0
SPLINE
  5
128
330
C3
100
AcDbEntity
  8
0
  6
Continuous
 62
     0
370
    30
100
AcDbSpline
210
0.0
220
0.0
230
1.0
 70
     8
 71
     3
 72
    30
 73
    26
 74
     0
 42
0.000000001
 43
0.0
 40
0.0
 40
0.0
 40
0.0
 40
0.0
 40
2.354789331496666
 40
5.585770284712747
 40
7.200224510377654
 40
8.490332847155097
 40
12.36118992441972
 40
14.62121341675466
 40
15.91273847876357
 40
16.88142422606965
 40
17.50850691048215
 40
18.11688646607751
 40
19.0295456944062
 40
19.63807571594106
 40
20.02526481103754
 40
20.41254131934964
 40
20.79999179669091
 40
21.18797353336014
 40
21.3724776341063
 40
21.56083696928064
 40
21.68300336437401
 40
21.74145220415432
 40
21.82444380915345
 40
21.94752212285564
 40
22.03558817425241
 40
22.03558817425241
 40
22.03558817425241
 40
22.03558817425241
 10
230.4324553341625
 20
804.3625459783052
 30
0.0
 10
230.4187668263408
 20
805.1110633724594
 30
0.0
 10
230.3862528095207
 20
806.8508472822801
 30
0.0
 10
230.3452984941212
 20
808.9257906173527
 30
0.0
 10
230.3119967877105
 20
810.5248043334379
 30
0.0
 10
230.2765733907364
 20
812.1646689841434
 30
0.0
 10
230.2408471095547
 20
813.6949357140912
 30
0.0
 10
230.2101823456834
 20
814.8486051842873
 30
0.0
 10
230.1935352026722
 20
815.4093533464546
 30
0.0
 10
230.183771270445
 20
815.7083513580039
 30
0.0
 10
230.1768025083917
 20
815.9040689154489
 30
0.0
 10
230.1703794104887
 20
816.0701862020908
 30
0.0
 10
230.1644583673566
 20
816.2047860209707
 30
0.0
 10
230.1595280026029
 20
816.2987755445796
 30
0.0
 10
230.1560686852637
 20
816.3548208249439
 30
0.0
 10
230.1532199527278
 20
816.3944610974
 30
0.0
 10
230.1500835088022
 20
816.4284337365904
 30
0.0
 10
230.1472634134034
 20
816.4538369223317
 30
0.0
 10
230.1419391302147
 20
816.4830555776266
 30
0.0
 10
230.1350986932896
 20
816.5135839634773
 30
0.0
 10
230.1146056797316
 20
816.5654711792159
 30
0.0
 10
230.0788426116524
 20
816.6189052188626
 30
0.0
 10
230.0249874124756
 20
816.6736226481587
 30
0.0
 10
229.941574654359
 20
816.7171881866066
 30
0.0
 10
229.873876409983
 20
816.7267471810496
 30
0.0
 10
229.8458817322985
 20
816.7267471636833
 30
0.0
  0
SPLINE
  5
129
330
C3
100
AcDbEntity
  8
0
  6
Continuous
 62
     0
370
    30
100
AcDbSpline
210
0.0
220
0.0
230
1.0
 70
     8
 71
     3
 72
    12
 73
     8
 74
     0
 42
0.000000001
 43
0.0
 40
20.49066355046718
 40
20.49066355046718
 40
20.49066355046718
 40
20.49066355046718
 40
20.52106661233245
 40
20.62167294804473
 40
20.68519711240224
 40
20.77617288291388
 40
20.87227360511882
 40
20.87227360511882
 40
20.87227360511882
 40
20.87227360511882
 10
230.1939202900377
 20
815.3907757747668
 30
0.0
 10
230.1964011314125
 20
815.3858751649764
 30
0.0
 10
230.2086393340804
 20
815.3633330873342
 30
0.0
 10
230.2391030696296
 20
815.3205964773863
 30
0.0
 10
230.2984480261215
 20
815.2713042307573
 30
0.0
 10
230.3700347058699
 20
815.2361665888513
 30
0.0
 10
230.4303104430211
 20
815.2267531330606
 30
0.0
 10
230.4609661277192
 20
815.2267531536479
 30
0.0
  0
LINE
  5
12A
330
C3
100
AcDbEntity
  8
0
  6
Continuous
 62
     0
370
    30
100
AcDbLine
 10
229.845863
 20
816.726815
 30
0.0
 11
228.519055
 21
816.726815
 31
0.0
  0
LINE
  5
12B
330
C3
100
AcDbEntity
  8
0
  6
Continuous
 62
     0
370
    30
100
AcDbLine
 10
228.519055
 20
781.726815
 30
0.0
 11
229.845863
 21
781.726815
 31
0.0
  0
LINE
  5
12C
330
C3
100
AcDbEntity
  8
0
  6
Continuous
 62
     0
370
    30
100
AcDbLine
 10
227.932461
 20
505.226815
 30
0.0
 11
225.932461
 21
505.226815
 31
0.0
  0
LINE
  5
12D
330
C3
100
AcDbEntity
  8
0
  6
Continuous
 62
     0
370
    30
100
AcDbLine
 10
225.932461
 20
873.226815
 30
0.0
 11
227.932461
 21
873.226815
 31
0.0
  0
LINE
  5
12E
330
C3
100
AcDbEntity
  8
0
  6
Continuous
 62
     0
370
    30
100
AcDbLine
 10
225.932461
 20
873.226815
 30
0.0
 11
225.932461
 21
505.226815
 31
0.0
  0
LINE
  5
12F
330
C3
100
AcDbEntity
  8
0
  6
Continuous
 62
     0
370
    30
100
AcDbLine
 10
227.932461
 20
505.226815
 30
0.0
 11
227.932461
 21
873.226815
 31
0.0
  0
SPLINE
  5
130
330
C3
100
AcDbEntity
  8
0
  6
Continuous
 62
     0
370
    30
100
AcDbSpline
210
0.0
220
0.0
230
1.0
 70
     8
 71
     3
 72
    21
 73
    17
 74
     0
 42
0.000000001
 43
0.0
 40
16.09258609041324
 40
16.09258609041324
 40
16.09258609041324
 40
16.09258609041324
 40
16.68296553050425
 40
17.82582011803247
 40
18.89077636179021
 40
21.01089954021437
 40
22.04058364918787
 40
23.06369113039104
 40
24.17786325261785
 40
25.21667631261344
 40
26.37053811615329
 40
27.33861115892126
 40
28.78277416065152
 40
29.5354389420275
 40
31.14328486763593
 40
32.18517218082648
 40
32.18517218082648
 40
32.18517218082648
 40
32.18517218082648
 10
256.1824007416025
 20
679.7242602792566
 30
0.0
 10
256.1824040612111
 20
679.7242638472691
 30
0.0
 10
256.2157904147662
 20
679.7329655352764
 30
0.0
 10
256.4276367488228
 20
679.7879841846396
 30
0.0
 10
257.0468226196446
 20
679.9374780814361
 30
0.0
 10
258.0186771897963
 20
680.1373760960109
 30
0.0
 10
259.2299503100308
 20
680.2991204744538
 30
0.0
 10
260.2369411790858
 20
680.3837015354262
 30
0.0
 10
261.2965250330317
 20
680.4134079601289
 30
0.0
 10
262.3978535036183
 20
680.3802300392036
 30
0.0
 10
263.3996121157986
 20
680.2922846405074
 30
0.0
 10
264.4219004134169
 20
680.15127608231
 30
0.0
 10
265.182679218792
 20
680.0068113773674
 30
0.0
 10
265.8866690416019
 20
679.8510181245654
 30
0.0
 10
266.2918862276302
 20
679.7480570615897
 30
0.0
 10
266.382377568013
 20
679.724239881807
 30
0.0
 10
266.3823775528598
 20
679.724239881807
 30
0.0
  0
LINE
  5
131
330
C3
100
AcDbEntity
  8
0
  6
Continuous
 62
     0
370
    30
100
AcDbLine
 10
231.082378
 20
718.72424
 30
0.0
 11
231.082378
 21
679.72424
 31
0.0
  0
LINE
  5
132
330
C3
100
AcDbEntity
  8
0
  6
Continuous
 62
     0
370
    30
100
AcDbLine
 10
253.514537
 20
718.72424
 30
0.0
 11
231.082378
 21
718.72424
 31
0.0
  0
SPLINE
  5
133
330
C3
100
AcDbEntity
  8
0
  6
Continuous
 62
     0
370
     0
100
AcDbSpline
210
0.0
220
0.0
230
1.0
 70
     8
 71
     3
 72
    21
 73
    17
 74
     0
 42
0.000000001
 43
0.0
 40
51.97474983210939
 40
51.97474983210939
 40
51.97474983210939
 40
51.97474983210939
 40
55.58895464716998
 40
58.06179089973438
 40
59.51229951582349
 40
63.42462365129829
 40
67.94401930168148
 40
72.59145885887423
 40
77.7726456094925
 40
81.58371190119517
 40
85.42289108616475
 40
89.08437392493263
 40
92.93239382419043
 40
96.95533324944493
 40
100.6386851945144
 40
103.9494996642188
 40
103.9494996642188
 40
103.9494996642188
 40
103.9494996642188
 10
271.6330918582662
 20
679.7242406659421
 30
0.0
 10
271.6330816769248
 20
679.7242614603417
 30
0.0
 10
271.5754888166335
 20
679.9141964907129
 30
0.0
 10
271.3921795551098
 20
680.5355551953921
 30
0.0
 10
271.1379820061865
 20
681.428760735262
 30
0.0
 10
270.7061074169932
 20
682.9669552471595
 30
0.0
 10
270.0169112402996
 20
685.7637497448659
 30
0.0
 10
269.2848359356022
 20
689.5902669948574
 30
0.0
 10
268.7728198951811
 20
693.8184354306917
 30
0.0
 10
268.563111501178
 20
698.0718594742857
 30
0.0
 10
268.610415044096
 20
701.8706377236058
 30
0.0
 10
268.8789087756216
 20
705.569415587996
 30
0.0
 10
269.3360466815636
 20
709.0708365896114
 30
0.0
 10
269.9164650470643
 20
712.178182271045
 30
0.0
 10
270.4982854536073
 20
714.6647184753605
 30
0.0
 10
270.8346609856914
 20
715.9225798616853
 30
0.0
 10
270.9765448441173
 20
716.4375962241602
 30
0.0
  0
SPLINE
  5
134
330
C3
100
AcDbEntity
  8
0
  6
Continuous
 62
     0
370
     0
100
AcDbSpline
210
0.0
220
0.0
230
1.0
 70
     8
 71
     3
 72
    17
 73
    13
 74
     0
 42
0.000000001
 43
0.0
 40
0.0
 40
0.0
 40
0.0
 40
0.0
 40
1.067693523343622
 40
1.798593597800864
 40
2.620475066972124
 40
4.152043643643437
 40
5.63710078793205
 40
8.018694264867879
 40
10.06459629685089
 40
10.79122461295514
 40
11.25944837701471
 40
11.45467460271952
 40
11.45467460271952
 40
11.45467460271952
 40
11.45467460271952
 10
260.0442069325164
 20
717.2847038085014
 30
0.0
 10
260.3496010504306
 20
717.2391512187473
 30
0.0
 10
260.8760565568776
 20
717.165688113125
 30
0.0
 10
261.6655520513166
 20
717.0671798007952
 30
0.0
 10
262.6053833814894
 20
716.9545781852158
 30
0.0
 10
263.7988161790703
 20
716.8250095789772
 30
0.0
 10
265.5170629202722
 20
716.6689473753493
 30
0.0
 10
267.4462493346924
 20
716.5440883298654
 30
0.0
 10
269.1508371379303
 20
716.4753386883681
 30
0.0
 10
270.2279341844629
 20
716.4494078374742
 30
0.0
 10
270.6905617661437
 20
716.441143211337
 30
0.0
 10
270.911516706103
 20
716.4383430813238
 30
0.0
 10
270.976544844132
 20
716.4375965467301
 30
0.0
  0
SPLINE
  5
135
330
C3
100
AcDbEntity
  8
0
  6
Continuous
 62
     0
370
     0
100
AcDbSpline
210
0.0
220
0.0
230
1.0
 70
     8
 71
     3
 72
    11
 73
     7
 74
     0
 42
0.000000001
 43
0.0
 40
0.0
 40
0.0
 40
0.0
 40
0.0
 40
2.578604891925422
 40
5.034653086088559
 40
7.76576722573639
 40
10.58924660279556
 40
10.58924660279556
 40
10.58924660279556
 40
10.58924660279556
 10
253.5145366188694
 20
718.7242398817602
 30
0.0
 10
253.5145361553178
 20
718.7242382680292
 30
0.0
 10
253.7846286857238
 20
718.6405104422344
 30
0.0
 10
255.0288934172992
 20
718.2931241388678
 30
0.0
 10
257.0955665684855
 20
717.7937994382655
 30
0.0
 10
258.9954510756837
 20
717.4411362428414
 30
0.0
 10
260.0442069325164
 20
717.2847038085014
 30
0.0
  0
SPLINE
  5
136
330
C3
100
AcDbEntity
  8
0
  6
Continuous
 62
     0
370
     0
100
AcDbSpline
210
0.0
220
0.0
230
1.0
 70
     8
 71
     3
 72
    12
 73
     8
 74
     0
 42
0.000000001
 43
0.0
 40
0.0000002552592966
 40
0.0000002552592966
 40
0.0000002552592966
 40
0.0000002552592966
 40
0.111111658793602
 40
0.333334976380807
 40
0.6666683097141349
 40
0.8888894365713791
 40
1.0
 40
1.0
 40
1.0
 40
1.0
 10
272.4579706259785
 20
715.113501019776
 30
0.0
 10
272.4519610483308
 20
715.1863546357167
 30
0.0
 10
272.4138608965494
 20
715.4049154843798
 30
0.0
 10
272.2146311412594
 20
715.833107936756
 30
0.0
 10
271.7816507280963
 20
716.2201040646462
 30
0.0
 10
271.3025836753723
 20
716.3981714586952
 30
0.0
 10
271.0580567870602
 20
716.4322229410202
 30
0.0
 10
270.9765477727011
 20
716.4375934800819
 30
0.0
  0
SPLINE
  5
137
330
C3
100
AcDbEntity
  8
0
  6
Continuous
 62
     0
370
     0
100
AcDbSpline
210
0.0
220
0.0
230
1.0
 70
     8
 71
     3
 72
    13
 73
     9
 74
     0
 42
0.000000001
 43
0.0
 40
0.0000123588535272
 40
0.0000123588535272
 40
0.0000123588535272
 40
0.0000123588535272
 40
2.992803358709377
 40
6.013014739974031
 40
8.43015363108694
 40
9.63994460077731
 40
10.44744378805638
 40
12.19204675732173
 40
12.19204675732173
 40
12.19204675732173
 40
12.19204675732173
 10
273.0804763583207
 20
725.0004981653859
 30
0.0
 10
273.0794808178782
 20
724.0031546984201
 30
0.0
 10
273.0667698518248
 20
722.0052177912072
 30
0.0
 10
273.0016186855519
 20
719.4106038074826
 30
0.0
 10
272.8864946401568
 20
717.6390881881149
 30
0.0
 10
272.7691586764359
 20
716.6188357302678
 30
0.0
 10
272.6463266865975
 20
715.8375179081955
 30
0.0
 10
272.5410712238529
 20
715.384104838079
 30
0.0
 10
272.4579706673962
 20
715.1135005176701
 30
0.0
  0
ELLIPSE
  5
138
330
C3
100
AcDbEntity
  8
0
  6
Continuous
 62
     0
370
     0
100
AcDbEllipse
 10
271.58187
 20
725.000498
 30
0.0
 11
1.499999291464616
 21
-0.001457945695645045
 31
0.0
210
0.0
220
0.0
230
1.0
 40
0.022527
 41
0.0431168638737081
 42
1.593380735319827
  0
SPLINE
  5
139
330
C3
100
AcDbEntity
  8
0
  6
Continuous
 62
     0
370
     0
100
AcDbSpline
210
0.0
220
0.0
230
1.0
 70
     8
 71
     3
 72
    11
 73
     7
 74
     0
 42
0.000000001
 43
0.0
 40
0.0
 40
0.0
 40
0.0
 40
0.0
 40
3.128288052126564
 40
5.229773639684233
 40
7.858009375319223
 40
10.60393484403136
 40
10.60393484403136
 40
10.60393484403136
 40
10.60393484403136
 10
271.5480495339157
 20
725.0343133886461
 30
0.0
 10
271.5494410027588
 20
723.9920008058477
 30
0.0
 10
271.5401245043374
 20
722.2559483835756
 30
0.0
 10
271.4705112000704
 20
719.8741463361339
 30
0.0
 10
271.3247167339796
 20
717.916767519125
 30
0.0
 10
271.1175243642326
 20
716.8631886797411
 30
0.0
 10
270.9765484957039
 20
716.4375956627581
 30
0.0
  0
LINE
  5
13A
330
C3
100
AcDbEntity
  8
0
  6
Continuous
 62
     0
370
     0
100
AcDbLine
 10
271.563093
 20
734.411657
 30
0.0
 11
271.548029
 21
725.034314
 31
0.0
  0
LINE
  5
13B
330
C3
100
AcDbEntity
  8
0
  6
Continuous
 62
     0
370
     0
100
AcDbLine
 10
273.089237
 20
734.37943
 30
0.0
 11
273.080476
 21
725.000498
 31
0.0
  0
ELLIPSE
  5
13C
330
C3
100
AcDbEntity
  8
0
  6
Continuous
 62
     0
370
     0
100
AcDbEllipse
 10
271.590398
 20
734.37943
 30
0.0
 11
1.499999463555632
 21
-0.001268594819279126
 31
0.0
210
0.0
220
0.0
230
1.0
 40
0.021473
 41
0.0393630765375494
 42
1.589018574608817
  0
SPLINE
  5
13D
330
C3
100
AcDbEntity
  8
0
  6
Continuous
 62
     0
370
     0
100
AcDbSpline
210
0.0
220
0.0
230
1.0
 70
     8
 71
     3
 72
    30
 73
    26
 74
     0
 42
0.000000001
 43
0.0
 40
0.0
 40
0.0
 40
0.0
 40
0.0
 40
0.833173827866103
 40
1.42713910123683
 40
1.644081864451156
 40
1.864405188867038
 40
1.978236205656798
 40
2.095405359914696
 40
2.210762702599838
 40
2.370724444407108
 40
2.465149140873634
 40
2.549380551520835
 40
2.635074394646276
 40
2.824477874359148
 40
3.105081980859271
 40
3.402453172979178
 40
3.737825573087401
 40
4.075208738590731
 40
4.637571367059405
 40
5.049138753933359
 40
5.649022280442507
 40
6.036769206398661
 40
6.810554705583646
 40
7.58104948574852
 40
8.824791257976925
 40
8.824791257976925
 40
8.824791257976925
 40
8.824791257976925
 10
271.578416407111
 20
741.1760189641241
 30
0.0
 10
271.5784182687518
 20
741.1760190007394
 30
0.0
 10
271.560962861131
 20
741.109499343472
 30
0.0
 10
271.5103828508959
 20
740.8599949137538
 30
0.0
 10
271.4750687745903
 20
740.6478715941146
 30
0.0
 10
271.4560470782926
 20
740.5201665464787
 30
0.0
 10
271.4412545050914
 20
740.4109131170985
 30
0.0
 10
271.4304673493199
 20
740.3265905693528
 30
0.0
 10
271.4183077806795
 20
740.2256597115759
 30
0.0
 10
271.4061141222056
 20
740.115977790806
 30
0.0
 10
271.3940262607113
 20
739.9775699752782
 30
0.0
 10
271.3858982527315
 20
739.8453013294684
 30
0.0
 10
271.3789995725734
 20
739.6633809866445
 30
0.0
 10
271.3769722660907
 20
739.3932166098241
 30
0.0
 10
271.3850738509364
 20
739.0624221884456
 30
0.0
 10
271.4001878177685
 20
738.7152735438422
 30
0.0
 10
271.4185373153334
 20
738.3816903394849
 30
0.0
 10
271.4429453571638
 20
737.9865771486652
 30
0.0
 10
271.4666682281259
 20
737.6100214159691
 30
0.0
 10
271.4894943195716
 20
737.1985238895478
 30
0.0
 10
271.5062722217862
 20
736.848513375013
 30
0.0
 10
271.5249338891957
 20
736.407308857752
 30
0.0
 10
271.5419345190538
 20
735.9238192514146
 30
0.0
 10
271.5590536143588
 20
735.2263216147121
 30
0.0
 10
271.5636122924541
 20
734.7225513003202
 30
0.0
 10
271.5630933477702
 20
734.4116571978205
 30
0.0
  0
SPLINE
  5
13E
330
C3
100
AcDbEntity
  8
0
  6
Continuous
 62
     0
370
     0
100
AcDbSpline
210
0.0
220
0.0
230
1.0
 70
     8
 71
     3
 72
    18
 73
    14
 74
     0
 42
0.000000001
 43
0.0
 40
0.0
 40
0.0
 40
0.0
 40
0.0
 40
0.7027370259286991
 40
1.293683266474542
 40
1.630891291109695
 40
1.880691461960285
 40
2.083632206119296
 40
2.396523650565952
 40
2.757413614616584
 40
3.276994358666676
 40
3.724776255592948
 40
4.73901773150989
 40
6.510094996432836
 40
6.510094996432836
 40
6.510094996432836
 40
6.510094996432836
 10
273.1330952139444
 20
739.6770158177687
 30
0.0
 10
273.13309701932
 20
739.6770158592976
 30
0.0
 10
273.1301768279234
 20
739.618016777108
 30
0.0
 10
273.1209729537578
 20
739.3827321358882
 30
0.0
 10
273.1130164960897
 20
739.1423100035688
 30
0.0
 10
273.1074003286774
 20
738.9570525889762
 30
0.0
 10
273.103094039775
 20
738.737476820655
 30
0.0
 10
273.0995621518647
 20
738.4626624133184
 30
0.0
 10
273.0964124989127
 20
738.0738005464585
 30
0.0
 10
273.0945397587076
 20
737.6333903074061
 30
0.0
 10
273.0929428903133
 20
736.9741871537598
 30
0.0
 10
273.0909453124098
 20
735.8976467590227
 30
0.0
 10
273.089749304722
 20
734.9696525151443
 30
0.0
 10
273.0892365581226
 20
734.3794297588142
 30
0.0
  0
ARC
  5
13F
330
C3
100
AcDbEntity
  8
0
  6
Continuous
 62
     0
370
    30
100
AcDbCircle
 10
271.633095
 20
739.677016
 30
0.0
 40
1.500000000000003
100
AcDbArc
 50
359.999997
 51
1.924266
  0
SPLINE
  5
140
330
C3
100
AcDbEntity
  8
0
  6
Continuous
 62
     0
370
     0
100
AcDbSpline
210
0.0
220
0.0
230
1.0
 70
     8
 71
     3
 72
    24
 73
    20
 74
     0
 42
0.000000001
 43
0.0
 40
48.11604154271799
 40
48.11604154271799
 40
48.11604154271799
 40
48.11604154271799
 40
49.99269947025343
 40
51.46192063953115
 40
53.42034377808636
 40
54.58720818292066
 40
55.09398862054752
 40
56.47437906945545
 40
58.71585406942724
 40
62.89972084250932
 40
67.20212528935113
 40
71.99865048165356
 40
75.52677566947948
 40
79.08092659373875
 40
82.47057370021248
 40
86.03290898663475
 40
89.75717742726508
 40
93.16707003430801
 40
96.23208308543599
 40
96.23208308543599
 40
96.23208308543599
 40
96.23208308543599
 10
273.1330921873286
 20
681.224240189671
 30
0.0
 10
273.1330922498062
 20
681.2242424500871
 30
0.0
 10
273.1135256406967
 20
681.2824598388928
 30
0.0
 10
273.0285139322743
 20
681.5379837832596
 30
0.0
 10
272.9090838996416
 20
681.9017680488253
 30
0.0
 10
272.7857102685961
 20
682.2884555020755
 30
0.0
 10
272.6691710412445
 20
682.6569528300131
 30
0.0
 10
272.491847822526
 20
683.2202192827403
 30
0.0
 10
272.0988755536541
 20
684.5118832605656
 30
0.0
 10
271.4720526551179
 20
686.7991566689369
 30
0.0
 10
270.7221121592578
 20
690.3313467473581
 30
0.0
 10
270.1985156648359
 20
694.2342657095049
 30
0.0
 10
269.9842071894058
 20
698.1605044668569
 30
0.0
 10
270.0325408678848
 20
701.6670687241494
 30
0.0
 10
270.3069772639385
 20
705.0813252849614
 30
0.0
 10
270.7746050943034
 20
708.3134062005671
 30
0.0
 10
271.3691312421071
 20
711.1817252568667
 30
0.0
 10
271.9661497523119
 20
713.4769895820027
 30
0.0
 10
272.3119709409438
 20
714.6380920939903
 30
0.0
 10
272.4579678783288
 20
715.1134918134242
 30
0.0
  0
SPLINE
  5
141
330
C3
100
AcDbEntity
  8
0
  6
Continuous
 62
     0
370
    30
100
AcDbSpline
210
0.0
220
0.0
230
1.0
 70
     8
 71
     3
 72
    16
 73
    12
 74
     0
 42
0.000000001
 43
0.0
 40
0.0
 40
0.0
 40
0.0
 40
0.0
 40
0.047571747463253
 40
0.142715242389758
 40
0.285500142816446
 40
0.428364121306231
 40
0.5712386589033891
 40
0.7141386353145182
 40
0.857021354959439
 40
0.9523404516531471
 40
1.0
 40
1.0
 40
1.0
 40
1.0
 10
265.3467338050034
 20
739.1192262547768
 30
0.0
 10
265.4204189655383
 20
739.19624455403
 30
0.0
 10
265.6494606846727
 20
739.4196588365046
 30
0.0
 10
266.1520759608518
 20
739.8208049528556
 30
0.0
 10
266.8928654941526
 20
740.2507179336161
 30
0.0
 10
267.7877255861517
 20
740.6064419010527
 30
0.0
 10
268.7160940231934
 20
740.8584342404655
 30
0.0
 10
269.6628261649466
 20
741.0259741696981
 30
0.0
 10
270.5122468666024
 20
741.117734704024
 30
0.0
 10
271.1516272704663
 20
741.1584778475808
 30
0.0
 10
271.4717011526483
 20
741.1721263351661
 30
0.0
 10
271.5784164070991
 20
741.1760189641235
 30
0.0
  0
LINE
  5
142
330
C3
100
AcDbEntity
  8
0
  6
Continuous
 62
     0
370
     0
100
AcDbLine
 10
271.432854
 20
734.411656
 30
0.0
 11
271.563093
 21
734.411657
 31
0.0
  0
LINE
  5
143
330
C3
100
AcDbEntity
  8
0
  6
Continuous
 62
     0
370
     0
100
AcDbLine
 10
265.161127
 20
734.411647
 30
0.0
 11
265.346734
 21
739.119226
 31
0.0
  0
LINE
  5
144
330
C3
100
AcDbEntity
  8
0
  6
Continuous
 62
     0
370
     0
100
AcDbLine
 10
271.432854
 20
734.411656
 30
0.0
 11
265.161127
 21
734.411647
 31
0.0
  0
SPLINE
  5
145
330
C3
100
AcDbEntity
  8
0
  6
Continuous
 62
     0
370
     0
100
AcDbSpline
210
0.0
220
0.0
230
1.0
 70
     8
 71
     3
 72
    37
 73
    33
 74
     0
 42
0.000000001
 43
0.0
 40
0.0
 40
0.0
 40
0.0
 40
0.0
 40
0.34683732744123
 40
0.460838424918714
 40
0.6867205404174311
 40
0.805836463582031
 40
1.000491094374343
 40
1.156821822431933
 40
1.229111397935566
 40
1.374073811346492
 40
1.526524116929811
 40
1.685440638907337
 40
2.008807295086724
 40
2.17246128867793
 40
2.337382819334108
 40
3.007089927858771
 40
3.176280919184187
 40
3.625677982342092
 40
3.954008800926969
 40
4.580254423418745
 40
5.157474442448222
 40
5.719332768876882
 40
5.907571661727383
 40
6.096252574487083
 40
6.473360432507119
 40
6.6600614527565
 40
6.940714199302541
 40
7.087158077204935
 40
7.241866982625917
 40
7.397210001473519
 40
7.539792604003336
 40
7.589961048668743
 40
7.589961048668743
 40
7.589961048668743
 40
7.589961048668743
 10
264.839825633178
 20
726.257628313133
 30
0.0
 10
264.882045471898
 20
726.2258377881304
 30
0.0
 10
264.9400155003456
 20
726.1844713919669
 30
0.0
 10
265.037000237329
 20
726.1243454966082
 30
0.0
 10
265.1092273163616
 20
726.0847895090155
 30
0.0
 10
265.2110121439763
 20
726.0385583772929
 30
0.0
 10
265.3188231539125
 20
725.9981418274338
 30
0.0
 10
265.4434868416545
 20
725.9611156623921
 30
0.0
 10
265.5619085710125
 20
725.9284605378823
 30
0.0
 10
265.6795454069789
 20
725.8965297157592
 30
0.0
 10
265.8160135954558
 20
725.8581924445363
 30
0.0
 10
265.998567571007
 20
725.8062000052961
 30
0.0
 10
266.1836973606219
 20
725.7549926537457
 30
0.0
 10
266.3694218640917
 20
725.7051411461895
 30
0.0
 10
266.652882884528
 20
725.6307319723277
 30
0.0
 10
266.9360901890986
 20
725.5609226329843
 30
0.0
 10
267.3002061672018
 20
725.4782923616223
 30
0.0
 10
267.5685994820874
 20
725.4213973513544
 30
0.0
 10
267.9700539187217
 20
725.3444705334596
 30
0.0
 10
268.4310922836226
 20
725.2701934989173
 30
0.0
 10
269.0252715966366
 20
725.1970311508128
 30
0.0
 10
269.4842667007658
 20
725.1511288222455
 30
0.0
 10
269.8058467099853
 20
725.1232208540783
 30
0.0
 10
270.0638971213133
 20
725.1026451896498
 30
0.0
 10
270.3222875534352
 20
725.0848610819054
 30
0.0
 10
270.6125816024139
 20
725.0680139483311
 30
0.0
 10
270.8390922056645
 20
725.0572931540405
 30
0.0
 10
271.0396541644983
 20
725.0488817255405
 30
0.0
 10
271.1867474798227
 20
725.0433933415773
 30
0.0
 10
271.3312304465517
 20
725.0390001328158
 30
0.0
 10
271.4515685190624
 20
725.0361963349999
 30
0.0
 10
271.5275068801864
 20
725.0347022222967
 30
0.0
 10
271.5480288144057
 20
725.0343137820305
 30
0.0
  0
LINE
  5
146
330
C3
100
AcDbEntity
  8
0
  6
Continuous
 62
     0
370
     0
100
AcDbLine
 10
264.839826
 20
726.257628
 30
0.0
 11
265.161127
 21
734.411647
 31
0.0
  0
ELLIPSE
  5
147
330
C3
100
AcDbEntity
  8
0
  6
Continuous
 62
     0
370
     0
100
AcDbEllipse
 10
260.044207
 20
726.54648
 30
0.0
 11
2.201178132921488
 21
9.754732944942591
 31
0.0
210
0.0
220
0.0
230
1.0
 40
0.475584
 41
3.584611831058748
 42
4.789849798484916
  0
ARC
  5
148
330
C3
100
AcDbEntity
  8
0
  6
Continuous
 62
     0
370
     0
100
AcDbCircle
 10
253.514537
 20
728.72424
 30
0.0
 40
9.999999999999996
100
AcDbArc
 50
270.0
 51
357.274228
  0
SPLINE
  5
149
330
C3
100
AcDbEntity
  8
0
  6
Continuous
 62
     0
370
     0
100
AcDbSpline
210
0.0
220
0.0
230
1.0
 70
     8
 71
     3
 72
    14
 73
    10
 74
     0
 42
0.000000001
 43
0.0
 40
0.0
 40
0.0
 40
0.0
 40
0.0
 40
0.5895158262977761
 40
1.04965145955659
 40
1.696107647469175
 40
2.090726781736508
 40
2.481965535142718
 40
2.9175757042511
 40
3.567376309117678
 40
3.567376309117678
 40
3.567376309117678
 40
3.567376309117678
 10
263.5032224700134
 20
728.2486823487671
 30
0.0
 10
263.5032223341179
 20
728.2486807008042
 30
0.0
 10
263.5296885802842
 20
728.2007071548385
 30
0.0
 10
263.6273222920173
 20
727.992948364112
 30
0.0
 10
263.759398180834
 20
727.7046776229258
 30
0.0
 10
263.9297491558029
 20
727.3689339864341
 30
0.0
 10
264.1086527026808
 20
727.0592963828705
 30
0.0
 10
264.3776113178749
 20
726.6753498711151
 30
0.0
 10
264.6437172597688
 20
726.4052932104204
 30
0.0
 10
264.839825633178
 20
726.257628313133
 30
0.0
  0
LINE
  5
14A
330
C3
100
AcDbEntity
  8
0
  6
Continuous
 62
     0
370
     0
100
AcDbLine
 10
265.161127
 20
734.411647
 30
0.0
 11
263.796639
 21
734.411651
 31
0.0
  0
LINE
  5
14B
330
C3
100
AcDbEntity
  8
0
  6
Continuous
 62
     0
370
    30
100
AcDbLine
 10
263.503222
 20
728.248682
 30
0.0
 11
263.796639
 21
734.411651
 31
0.0
  0
SPLINE
  5
14C
330
C3
100
AcDbEntity
  8
0
  6
Continuous
 62
     0
370
    30
100
AcDbSpline
210
0.0
220
0.0
230
1.0
 70
     8
 71
     3
 72
    12
 73
     8
 74
     0
 42
0.000000001
 43
0.0
 40
0.0
 40
0.0
 40
0.0
 40
0.0
 40
0.048067340464532
 40
0.144202021393597
 40
0.286711675972471
 40
0.4277378088241459
 40
0.5381109800870792
 40
0.5381109800870792
 40
0.5381109800870792
 40
0.5381109800870792
 10
263.796638964725
 20
734.411650843469
 30
0.0
 10
263.8004934398501
 20
734.4926109488218
 30
0.0
 10
263.8120569843917
 20
734.7354931779537
 30
0.0
 10
263.8523443527383
 20
735.2175091013185
 30
0.0
 10
263.929528663282
 20
735.8533111936724
 30
0.0
 10
264.0546605812131
 20
736.5063042848276
 30
0.0
 10
264.1646262295849
 20
736.9161125440556
 30
0.0
 10
264.2197562619568
 20
737.0939454806156
 30
0.0
  0
SPLINE
  5
14D
330
C3
100
AcDbEntity
  8
0
  6
Continuous
 62
     0
370
    30
100
AcDbSpline
210
0.0
220
0.0
230
1.0
 70
     8
 71
     3
 72
    14
 73
    10
 74
     0
 42
0.000000001
 43
0.0
 40
0.0
 40
0.0
 40
0.0
 40
0.0
 40
0.603606819606344
 40
1.102402920117364
 40
1.567951805762503
 40
1.876859881045935
 40
2.030952754055781
 40
2.184848559416433
 40
2.338585572644472
 40
2.338585572644472
 40
2.338585572644472
 40
2.338585572644472
 10
265.346730072232
 20
739.119226988355
 30
0.0
 10
265.207793155991
 20
738.9739491281501
 30
0.0
 10
264.9742868611381
 20
738.6885846591238
 30
0.0
 10
264.6968004386559
 20
738.2448640596607
 30
0.0
 10
264.507358603202
 20
737.8645733939896
 30
0.0
 10
264.3886947657244
 20
737.5786139442181
 30
0.0
 10
264.3165340391579
 20
737.3860148913508
 30
0.0
 10
264.267014774716
 20
737.2403207893194
 30
0.0
 10
264.2333964829973
 20
737.1433433140628
 30
0.0
 10
264.2197307932736
 20
737.0939533761828
 30
0.0
  0
LINE
  5
14E
330
C3
100
AcDbEntity
  8
0
  6
Continuous
 62
     0
370
    30
100
AcDbLine
 10
263.79665
 20
734.41165
 30
0.0
 11
263.798602
 21
734.450505
 31
0.0
  0
LINE
  5
14F
330
C3
100
AcDbEntity
  8
0
  6
Continuous
 62
     0
370
    30
100
AcDbLine
 10
273.133083
 20
739.677016
 30
0.0
 11
273.133081
 21
681.224309
 31
0.0
  0
ARC
  5
150
330
C3
100
AcDbEntity
  8
0
  6
Continuous
 62
     0
370
    30
100
AcDbCircle
 10
271.633076
 20
681.224257
 30
0.0
 40
1.500015853190673
100
AcDbArc
 50
270.001938
 51
359.99706
  0
ARC
  5
151
330
C3
100
AcDbEntity
  8
0
  6
Continuous
 62
     0
370
    30
100
AcDbCircle
 10
271.633053
 20
739.676993
 30
0.0
 40
1.50002337774672
100
AcDbArc
 50
1.92507
 51
92.087539
  0
LINE
  5
152
330
C3
100
AcDbEntity
  8
0
  6
Continuous
 62
     0
370
    30
100
AcDbLine
 10
231.082374
 20
679.72424
 30
0.0
 11
256.182401
 21
679.72424
 31
0.0
  0
LINE
  5
153
330
C3
100
AcDbEntity
  8
0
  6
Continuous
 62
     0
370
    30
100
AcDbLine
 10
271.633079
 20
679.72424
 30
0.0
 11
266.382378
 21
679.72424
 31
0.0
  0
SPLINE
  5
154
330
C3
100
AcDbEntity
  8
0
  6
Continuous
 62
     0
370
    30
100
AcDbSpline
210
0.0
220
0.0
230
1.0
 70
     8
 71
     3
 72
    21
 73
    17
 74
     0
 42
0.000000001
 43
0.0
 40
16.09258609041324
 40
16.09258609041324
 40
16.09258609041324
 40
16.09258609041324
 40
16.68296553050425
 40
17.82582011803247
 40
18.89077636179021
 40
21.01089954021437
 40
22.04058364918787
 40
23.06369113039104
 40
24.17786325261785
 40
25.21667631261344
 40
26.37053811615329
 40
27.33861115892126
 40
28.78277416065152
 40
29.5354389420275
 40
31.14328486763593
 40
32.18517218082648
 40
32.18517218082648
 40
32.18517218082648
 40
32.18517218082648
 10
256.1824798818415
 20
779.726835569392
 30
0.0
 10
256.1824832014501
 20
779.7268391374046
 30
0.0
 10
256.2158695550052
 20
779.735540825412
 30
0.0
 10
256.4277158890618
 20
779.7905594747751
 30
0.0
 10
257.0469017598837
 20
779.9400533715716
 30
0.0
 10
258.0187563300353
 20
780.1399513861463
 30
0.0
 10
259.2300294502699
 20
780.3016957645893
 30
0.0
 10
260.2370203193249
 20
780.3862768255617
 30
0.0
 10
261.2966041732707
 20
780.4159832502644
 30
0.0
 10
262.3979326438573
 20
780.3828053293392
 30
0.0
 10
263.3996912560377
 20
780.2948599306429
 30
0.0
 10
264.4219795536559
 20
780.1538513724455
 30
0.0
 10
265.182758359031
 20
780.009386667503
 30
0.0
 10
265.8867481818409
 20
779.853593414701
 30
0.0
 10
266.2919653678692
 20
779.7506323517252
 30
0.0
 10
266.382456708252
 20
779.7268151719425
 30
0.0
 10
266.3824566930988
 20
779.7268151719425
 30
0.0
  0
LINE
  5
155
330
C3
100
AcDbEntity
  8
0
  6
Continuous
 62
     0
370
    30
100
AcDbLine
 10
231.082457
 20
818.726815
 30
0.0
 11
231.082457
 21
779.726815
 31
0.0
  0
LINE
  5
156
330
C3
100
AcDbEntity
  8
0
  6
Continuous
 62
     0
370
    30
100
AcDbLine
 10
253.514616
 20
818.726815
 30
0.0
 11
231.082457
 21
818.726815
 31
0.0
  0
SPLINE
  5
157
330
C3
100
AcDbEntity
  8
0
  6
Continuous
 62
     0
370
     0
100
AcDbSpline
210
0.0
220
0.0
230
1.0
 70
     8
 71
     3
 72
    21
 73
    17
 74
     0
 42
0.000000001
 43
0.0
 40
51.97474983210939
 40
51.97474983210939
 40
51.97474983210939
 40
51.97474983210939
 40
55.58895464716998
 40
58.06179089973438
 40
59.51229951582349
 40
63.42462365129829
 40
67.94401930168148
 40
72.59145885887423
 40
77.7726456094925
 40
81.58371190119517
 40
85.42289108616475
 40
89.08437392493263
 40
92.93239382419043
 40
96.95533324944493
 40
100.6386851945144
 40
103.9494996642188
 40
103.9494996642188
 40
103.9494996642188
 40
103.9494996642188
 10
271.6331709985052
 20
779.7268159560778
 30
0.0
 10
271.6331608171637
 20
779.7268367504773
 30
0.0
 10
271.5755679568725
 20
779.9167717808484
 30
0.0
 10
271.3922586953489
 20
780.5381304855277
 30
0.0
 10
271.1380611464255
 20
781.4313360253975
 30
0.0
 10
270.7061865572322
 20
782.9695305372951
 30
0.0
 10
270.0169903805386
 20
785.7663250350014
 30
0.0
 10
269.2849150758412
 20
789.5928422849929
 30
0.0
 10
268.7728990354201
 20
793.8210107208273
 30
0.0
 10
268.563190641417
 20
798.0744347644212
 30
0.0
 10
268.6104941843351
 20
801.8732130137413
 30
0.0
 10
268.8789879158606
 20
805.5719908781315
 30
0.0
 10
269.3361258218026
 20
809.0734118797469
 30
0.0
 10
269.9165441873033
 20
812.1807575611805
 30
0.0
 10
270.4983645938462
 20
814.6672937654961
 30
0.0
 10
270.8347401259304
 20
815.9251551518208
 30
0.0
 10
270.9766239843563
 20
816.4401715142957
 30
0.0
  0
SPLINE
  5
158
330
C3
100
AcDbEntity
  8
0
  6
Continuous
 62
     0
370
     0
100
AcDbSpline
210
0.0
220
0.0
230
1.0
 70
     8
 71
     3
 72
    17
 73
    13
 74
     0
 42
0.000000001
 43
0.0
 40
0.0
 40
0.0
 40
0.0
 40
0.0
 40
1.067693523343622
 40
1.798593597800864
 40
2.620475066972124
 40
4.152043643643437
 40
5.63710078793205
 40
8.018694264867879
 40
10.06459629685089
 40
10.79122461295514
 40
11.25944837701471
 40
11.45467460271952
 40
11.45467460271952
 40
11.45467460271952
 40
11.45467460271952
 10
260.0442860727554
 20
817.2872790986369
 30
0.0
 10
260.3496801906696
 20
817.241726508883
 30
0.0
 10
260.8761356971166
 20
817.1682634032607
 30
0.0
 10
261.6656311915556
 20
817.0697550909308
 30
0.0
 10
262.6054625217284
 20
816.9571534753514
 30
0.0
 10
263.7988953193093
 20
816.8275848691127
 30
0.0
 10
265.5171420605112
 20
816.6715226654849
 30
0.0
 10
267.4463284749314
 20
816.5466636200009
 30
0.0
 10
269.1509162781693
 20
816.4779139785037
 30
0.0
 10
270.228013324702
 20
816.4519831276098
 30
0.0
 10
270.6906409063827
 20
816.4437185014726
 30
0.0
 10
270.911595846342
 20
816.4409183714594
 30
0.0
 10
270.976623984371
 20
816.4401718368656
 30
0.0
  0
SPLINE
  5
159
330
C3
100
AcDbEntity
  8
0
  6
Continuous
 62
     0
370
     0
100
AcDbSpline
210
0.0
220
0.0
230
1.0
 70
     8
 71
     3
 72
    11
 73
     7
 74
     0
 42
0.000000001
 43
0.0
 40
0.0
 40
0.0
 40
0.0
 40
0.0
 40
2.578604891925422
 40
5.034653086088559
 40
7.76576722573639
 40
10.58924660279556
 40
10.58924660279556
 40
10.58924660279556
 40
10.58924660279556
 10
253.5146157591084
 20
818.7268151718959
 30
0.0
 10
253.5146152955568
 20
818.7268135581647
 30
0.0
 10
253.7847078259628
 20
818.6430857323699
 30
0.0
 10
255.0289725575382
 20
818.2956994290034
 30
0.0
 10
257.0956457087245
 20
817.7963747284011
 30
0.0
 10
258.9955302159227
 20
817.4437115329769
 30
0.0
 10
260.0442860727554
 20
817.2872790986369
 30
0.0
  0
SPLINE
  5
15A
330
C3
100
AcDbEntity
  8
0
  6
Continuous
 62
     0
370
     0
100
AcDbSpline
210
0.0
220
0.0
230
1.0
 70
     8
 71
     3
 72
    12
 73
     8
 74
     0
 42
0.000000001
 43
0.0
 40
0.0000002552593098
 40
0.0000002552593098
 40
0.0000002552593098
 40
0.0000002552593098
 40
0.111111658793604
 40
0.333334976380811
 40
0.6666683097141339
 40
0.888889436571378
 40
1.0
 40
1.0
 40
1.0
 40
1.0
 10
272.4580497662175
 20
815.1160763099115
 30
0.0
 10
272.4520401885699
 20
815.1889299258522
 30
0.0
 10
272.4139400367884
 20
815.4074907745153
 30
0.0
 10
272.2147102814984
 20
815.8356832268914
 30
0.0
 10
271.7817298683352
 20
816.2226793547817
 30
0.0
 10
271.3026628156114
 20
816.4007467488308
 30
0.0
 10
271.0581359272992
 20
816.4347982311558
 30
0.0
 10
270.9766269129401
 20
816.4401687702174
 30
0.0
  0
SPLINE
  5
15B
330
C3
100
AcDbEntity
  8
0
  6
Continuous
 62
     0
370
     0
100
AcDbSpline
210
0.0
220
0.0
230
1.0
 70
     8
 71
     3
 72
    13
 73
     9
 74
     0
 42
0.000000001
 43
0.0
 40
0.0000123588534981
 40
0.0000123588534981
 40
0.0000123588534981
 40
0.0000123588534981
 40
2.992803358709377
 40
6.013014739974031
 40
8.43015363108694
 40
9.63994460077731
 40
10.44744378805638
 40
12.19204675732173
 40
12.19204675732173
 40
12.19204675732173
 40
12.19204675732173
 10
273.0805554985597
 20
825.0030734555214
 30
0.0
 10
273.0795599581172
 20
824.0057299885557
 30
0.0
 10
273.0668489920638
 20
822.0077930813427
 30
0.0
 10
273.0016978257909
 20
819.413179097618
 30
0.0
 10
272.8865737803958
 20
817.6416634782505
 30
0.0
 10
272.7692378166749
 20
816.6214110204033
 30
0.0
 10
272.6464058268366
 20
815.840093198331
 30
0.0
 10
272.5411503640919
 20
815.3866801282146
 30
0.0
 10
272.4580498076353
 20
815.1160758078056
 30
0.0
  0
ELLIPSE
  5
15C
330
C3
100
AcDbEntity
  8
0
  6
Continuous
 62
     0
370
     0
100
AcDbEllipse
 10
271.581949
 20
825.003074
 30
0.0
 11
1.499999291464616
 21
-0.001457945695645045
 31
0.0
210
0.0
220
0.0
230
1.0
 40
0.022527
 41
0.0431168638737081
 42
1.593380735319827
  0
SPLINE
  5
15D
330
C3
100
AcDbEntity
  8
0
  6
Continuous
 62
     0
370
     0
100
AcDbSpline
210
0.0
220
0.0
230
1.0
 70
     8
 71
     3
 72
    11
 73
     7
 74
     0
 42
0.000000001
 43
0.0
 40
0.0
 40
0.0
 40
0.0
 40
0.0
 40
3.128288052126564
 40
5.229773639684233
 40
7.858009375319223
 40
10.60393484403129
 40
10.60393484403129
 40
10.60393484403129
 40
10.60393484403129
 10
271.5481286741547
 20
825.0368886787817
 30
0.0
 10
271.5495201429978
 20
823.9945760959832
 30
0.0
 10
271.5402036445764
 20
822.2585236737111
 30
0.0
 10
271.4705903403094
 20
819.8767216262695
 30
0.0
 10
271.3247958742186
 20
817.9193428092606
 30
0.0
 10
271.1176035044717
 20
816.8657639698768
 30
0.0
 10
270.9766276359429
 20
816.4401709528937
 30
0.0
  0
LINE
  5
15E
330
C3
100
AcDbEntity
  8
0
  6
Continuous
 62
     0
370
     0
100
AcDbLine
 10
271.563172
 20
834.414232
 30
0.0
 11
271.548108
 21
825.036889
 31
0.0
  0
LINE
  5
15F
330
C3
100
AcDbEntity
  8
0
  6
Continuous
 62
     0
370
     0
100
AcDbLine
 10
273.089316
 20
834.382005
 30
0.0
 11
273.080555
 21
825.003073
 31
0.0
  0
ELLIPSE
  5
160
330
C3
100
AcDbEntity
  8
0
  6
Continuous
 62
     0
370
     0
100
AcDbEllipse
 10
271.590477
 20
834.382005
 30
0.0
 11
1.499999463555632
 21
-0.001268594819279126
 31
0.0
210
0.0
220
0.0
230
1.0
 40
0.021473
 41
0.0393630765375494
 42
1.589018574608817
  0
SPLINE
  5
161
330
C3
100
AcDbEntity
  8
0
  6
Continuous
 62
     0
370
     0
100
AcDbSpline
210
0.0
220
0.0
230
1.0
 70
     8
 71
     3
 72
    30
 73
    26
 74
     0
 42
0.000000001
 43
0.0
 40
0.0
 40
0.0
 40
0.0
 40
0.0
 40
0.833173827866103
 40
1.42713910123683
 40
1.644081864451156
 40
1.864405188867038
 40
1.978236205656798
 40
2.095405359914696
 40
2.210762702599838
 40
2.370724444407108
 40
2.465149140873634
 40
2.549380551520835
 40
2.635074394646276
 40
2.824477874359148
 40
3.105081980859271
 40
3.402453172979178
 40
3.737825573087401
 40
4.075208738590731
 40
4.637571367059405
 40
5.049138753933359
 40
5.649022280442507
 40
6.036769206398661
 40
6.810554705583646
 40
7.58104948574852
 40
8.824791257976925
 40
8.824791257976925
 40
8.824791257976925
 40
8.824791257976925
 10
271.57849554735
 20
841.1785942542596
 30
0.0
 10
271.5784974089908
 20
841.178594290875
 30
0.0
 10
271.5610420013701
 20
841.1120746336074
 30
0.0
 10
271.5104619911349
 20
840.8625702038893
 30
0.0
 10
271.4751479148293
 20
840.6504468842501
 30
0.0
 10
271.4561262185316
 20
840.5227418366142
 30
0.0
 10
271.4413336453305
 20
840.413488407234
 30
0.0
 10
271.4305464895589
 20
840.3291658594883
 30
0.0
 10
271.4183869209185
 20
840.2282350017114
 30
0.0
 10
271.4061932624446
 20
840.1185530809416
 30
0.0
 10
271.3941054009504
 20
839.9801452654137
 30
0.0
 10
271.3859773929706
 20
839.8478766196039
 30
0.0
 10
271.3790787128125
 20
839.66595627678
 30
0.0
 10
271.3770514063297
 20
839.3957918999597
 30
0.0
 10
271.3851529911755
 20
839.0649974785812
 30
0.0
 10
271.4002669580075
 20
838.7178488339777
 30
0.0
 10
271.4186164555724
 20
838.3842656296204
 30
0.0
 10
271.4430244974029
 20
837.9891524388008
 30
0.0
 10
271.4667473683649
 20
837.6125967061046
 30
0.0
 10
271.4895734598107
 20
837.2010991796833
 30
0.0
 10
271.5063513620252
 20
836.8510886651485
 30
0.0
 10
271.5250130294347
 20
836.4098841478875
 30
0.0
 10
271.5420136592928
 20
835.9263945415502
 30
0.0
 10
271.5591327545977
 20
835.2288969048477
 30
0.0
 10
271.5636914326931
 20
834.7251265904558
 30
0.0
 10
271.5631724880092
 20
834.414232487956
 30
0.0
  0
SPLINE
  5
162
330
C3
100
AcDbEntity
  8
0
  6
Continuous
 62
     0
370
     0
100
AcDbSpline
210
0.0
220
0.0
230
1.0
 70
     8
 71
     3
 72
    18
 73
    14
 74
     0
 42
0.000000001
 43
0.0
 40
0.0
 40
0.0
 40
0.0
 40
0.0
 40
0.7027370259286991
 40
1.293683266474542
 40
1.630891291109695
 40
1.880691461960285
 40
2.083632206119296
 40
2.396523650565952
 40
2.757413614616584
 40
3.276994358666676
 40
3.724776255592948
 40
4.73901773150989
 40
6.510094996432836
 40
6.510094996432836
 40
6.510094996432836
 40
6.510094996432836
 10
273.1331743541834
 20
839.6795911079043
 30
0.0
 10
273.133176159559
 20
839.6795911494331
 30
0.0
 10
273.1302559681623
 20
839.6205920672436
 30
0.0
 10
273.1210520939968
 20
839.3853074260237
 30
0.0
 10
273.1130956363287
 20
839.1448852937043
 30
0.0
 10
273.1074794689164
 20
838.9596278791117
 30
0.0
 10
273.103173180014
 20
838.7400521107905
 30
0.0
 10
273.0996412921037
 20
838.465237703454
 30
0.0
 10
273.0964916391517
 20
838.0763758365941
 30
0.0
 10
273.0946188989466
 20
837.6359655975417
 30
0.0
 10
273.0930220305523
 20
836.9767624438953
 30
0.0
 10
273.0910244526488
 20
835.9002220491582
 30
0.0
 10
273.089828444961
 20
834.9722278052798
 30
0.0
 10
273.0893156983617
 20
834.3820050489498
 30
0.0
  0
ARC
  5
163
330
C3
100
AcDbEntity
  8
0
  6
Continuous
 62
     0
370
    30
100
AcDbCircle
 10
271.633174
 20
839.679591
 30
0.0
 40
1.500000000000003
100
AcDbArc
 50
359.999997
 51
1.924266
  0
SPLINE
  5
164
330
C3
100
AcDbEntity
  8
0
  6
Continuous
 62
     0
370
     0
100
AcDbSpline
210
0.0
220
0.0
230
1.0
 70
     8
 71
     3
 72
    24
 73
    20
 74
     0
 42
0.000000001
 43
0.0
 40
48.11604154271799
 40
48.11604154271799
 40
48.11604154271799
 40
48.11604154271799
 40
49.99269947025343
 40
51.46192063953115
 40
53.42034377808636
 40
54.58720818292066
 40
55.09398862054752
 40
56.47437906945545
 40
58.71585406942724
 40
62.89972084250932
 40
67.20212528935113
 40
71.99865048165356
 40
75.52677566947948
 40
79.08092659373875
 40
82.47057370021248
 40
86.03290898663475
 40
89.75717742726508
 40
93.16707003430801
 40
96.23208308543599
 40
96.23208308543599
 40
96.23208308543599
 40
96.23208308543599
 10
273.1331713275675
 20
781.2268154798068
 30
0.0
 10
273.1331713900451
 20
781.2268177402228
 30
0.0
 10
273.1136047809356
 20
781.2850351290283
 30
0.0
 10
273.0285930725133
 20
781.5405590733952
 30
0.0
 10
272.9091630398806
 20
781.9043433389608
 30
0.0
 10
272.7857894088351
 20
782.291030792211
 30
0.0
 10
272.6692501814834
 20
782.6595281201487
 30
0.0
 10
272.491926962765
 20
783.222794572876
 30
0.0
 10
272.0989546938931
 20
784.5144585507011
 30
0.0
 10
271.4721317953569
 20
786.8017319590724
 30
0.0
 10
270.7221912994968
 20
790.3339220374937
 30
0.0
 10
270.1985948050749
 20
794.2368409996404
 30
0.0
 10
269.9842863296448
 20
798.1630797569924
 30
0.0
 10
270.0326200081238
 20
801.6696440142849
 30
0.0
 10
270.3070564041775
 20
805.0839005750969
 30
0.0
 10
270.7746842345424
 20
808.3159814907026
 30
0.0
 10
271.3692103823461
 20
811.1843005470022
 30
0.0
 10
271.9662288925509
 20
813.4795648721383
 30
0.0
 10
272.3120500811827
 20
814.6406673841258
 30
0.0
 10
272.4580470185678
 20
815.1160671035598
 30
0.0
  0
SPLINE
  5
165
330
C3
100
AcDbEntity
  8
0
  6
Continuous
 62
     0
370
    30
100
AcDbSpline
210
0.0
220
0.0
230
1.0
 70
     8
 71
     3
 72
    16
 73
    12
 74
     0
 42
0.000000001
 43
0.0
 40
0.0
 40
0.0
 40
0.0
 40
0.0
 40
0.047571747463253
 40
0.142715242389758
 40
0.285500142816445
 40
0.428364121306234
 40
0.57123865890339
 40
0.7141386353145169
 40
0.8570213549594401
 40
0.9523404516531471
 40
1.0
 40
1.0
 40
1.0
 40
1.0
 10
265.3468129452424
 20
839.1218015449124
 30
0.0
 10
265.4204981057773
 20
839.1988198441657
 30
0.0
 10
265.6495398249118
 20
839.4222341266401
 30
0.0
 10
266.1521551010908
 20
839.8233802429911
 30
0.0
 10
266.8929446343916
 20
840.2532932237516
 30
0.0
 10
267.7878047263907
 20
840.6090171911883
 30
0.0
 10
268.7161731634324
 20
840.8610095306011
 30
0.0
 10
269.6629053051856
 20
841.0285494598337
 30
0.0
 10
270.5123260068414
 20
841.1203099941594
 30
0.0
 10
271.1517064107053
 20
841.1610531377164
 30
0.0
 10
271.4717802928873
 20
841.1747016253016
 30
0.0
 10
271.5784955473381
 20
841.178594254259
 30
0.0
  0
LINE
  5
166
330
C3
100
AcDbEntity
  8
0
  6
Continuous
 62
     0
370
     0
100
AcDbLine
 10
271.432933
 20
834.414231
 30
0.0
 11
271.563172
 21
834.414232
 31
0.0
  0
LINE
  5
167
330
C3
100
AcDbEntity
  8
0
  6
Continuous
 62
     0
370
     0
100
AcDbLine
 10
265.161206
 20
834.414222
 30
0.0
 11
265.346813
 21
839.121802
 31
0.0
  0
LINE
  5
168
330
C3
100
AcDbEntity
  8
0
  6
Continuous
 62
     0
370
     0
100
AcDbLine
 10
271.432933
 20
834.414231
 30
0.0
 11
265.161206
 21
834.414222
 31
0.0
  0
SPLINE
  5
169
330
C3
100
AcDbEntity
  8
0
  6
Continuous
 62
     0
370
     0
100
AcDbSpline
210
0.0
220
0.0
230
1.0
 70
     8
 71
     3
 72
    37
 73
    33
 74
     0
 42
0.000000001
 43
0.0
 40
0.0
 40
0.0
 40
0.0
 40
0.0
 40
0.34683732744123
 40
0.460838424918714
 40
0.6867205404174311
 40
0.805836463582031
 40
1.000491094374343
 40
1.156821822431933
 40
1.229111397935566
 40
1.374073811346492
 40
1.526524116929811
 40
1.685440638907337
 40
2.008807295086724
 40
2.17246128867793
 40
2.337382819334108
 40
3.007089927858771
 40
3.176280919184187
 40
3.625677982342092
 40
3.954008800926969
 40
4.580254423418745
 40
5.157474442448222
 40
5.719332768876882
 40
5.907571661727383
 40
6.096252574487083
 40
6.473360432507119
 40
6.6600614527565
 40
6.940714199302541
 40
7.087158077204935
 40
7.241866982625917
 40
7.397210001473519
 40
7.539792604003336
 40
7.589961048668743
 40
7.589961048668743
 40
7.589961048668743
 40
7.589961048668743
 10
264.8399047734169
 20
826.2602036032686
 30
0.0
 10
264.882124612137
 20
826.228413078266
 30
0.0
 10
264.9400946405846
 20
826.1870466821024
 30
0.0
 10
265.037079377568
 20
826.1269207867437
 30
0.0
 10
265.1093064566006
 20
826.0873647991511
 30
0.0
 10
265.2110912842153
 20
826.0411336674285
 30
0.0
 10
265.3189022941516
 20
826.0007171175693
 30
0.0
 10
265.4435659818935
 20
825.9636909525277
 30
0.0
 10
265.5619877112515
 20
825.9310358280178
 30
0.0
 10
265.6796245472179
 20
825.8991050058949
 30
0.0
 10
265.8160927356948
 20
825.8607677346718
 30
0.0
 10
265.9986467112461
 20
825.8087752954316
 30
0.0
 10
266.1837765008609
 20
825.7575679438812
 30
0.0
 10
266.3695010043308
 20
825.7077164363251
 30
0.0
 10
266.652962024767
 20
825.6333072624632
 30
0.0
 10
266.9361693293376
 20
825.5634979231198
 30
0.0
 10
267.3002853074408
 20
825.4808676517578
 30
0.0
 10
267.5686786223264
 20
825.42397264149
 30
0.0
 10
267.9701330589608
 20
825.3470458235951
 30
0.0
 10
268.4311714238616
 20
825.2727687890529
 30
0.0
 10
269.0253507368757
 20
825.1996064409484
 30
0.0
 10
269.4843458410048
 20
825.1537041123811
 30
0.0
 10
269.8059258502243
 20
825.1257961442138
 30
0.0
 10
270.0639762615523
 20
825.1052204797854
 30
0.0
 10
270.3223666936742
 20
825.0874363720409
 30
0.0
 10
270.6126607426528
 20
825.0705892384666
 30
0.0
 10
270.8391713459035
 20
825.0598684441761
 30
0.0
 10
271.0397333047373
 20
825.0514570156761
 30
0.0
 10
271.1868266200616
 20
825.0459686317129
 30
0.0
 10
271.3313095867907
 20
825.0415754229514
 30
0.0
 10
271.4516476593014
 20
825.0387716251354
 30
0.0
 10
271.5275860204255
 20
825.0372775124323
 30
0.0
 10
271.5481079546447
 20
825.036889072166
 30
0.0
  0
LINE
  5
16A
330
C3
100
AcDbEntity
  8
0
  6
Continuous
 62
     0
370
     0
100
AcDbLine
 10
264.839905
 20
826.260204
 30
0.0
 11
265.161206
 21
834.414222
 31
0.0
  0
ELLIPSE
  5
16B
330
C3
100
AcDbEntity
  8
0
  6
Continuous
 62
     0
370
     0
100
AcDbEllipse
 10
260.044286
 20
826.549055
 30
0.0
 11
2.201178132921488
 21
9.754732944942591
 31
0.0
210
0.0
220
0.0
230
1.0
 40
0.475584
 41
3.584611831058742
 42
4.789849798484907
  0
ARC
  5
16C
330
C3
100
AcDbEntity
  8
0
  6
Continuous
 62
     0
370
     0
100
AcDbCircle
 10
253.514616
 20
828.726815
 30
0.0
 40
9.999999999999996
100
AcDbArc
 50
270.0
 51
357.274228
  0
SPLINE
  5
16D
330
C3
100
AcDbEntity
  8
0
  6
Continuous
 62
     0
370
     0
100
AcDbSpline
210
0.0
220
0.0
230
1.0
 70
     8
 71
     3
 72
    14
 73
    10
 74
     0
 42
0.000000001
 43
0.0
 40
0.0
 40
0.0
 40
0.0
 40
0.0
 40
0.5895158262977761
 40
1.04965145955659
 40
1.696107647469175
 40
2.090726781736508
 40
2.481965535142718
 40
2.9175757042511
 40
3.567376309117678
 40
3.567376309117678
 40
3.567376309117678
 40
3.567376309117678
 10
263.5033016102524
 20
828.2512576389026
 30
0.0
 10
263.5033014743569
 20
828.2512559909399
 30
0.0
 10
263.5297677205232
 20
828.2032824449741
 30
0.0
 10
263.6274014322563
 20
827.9955236542474
 30
0.0
 10
263.759477321073
 20
827.7072529130613
 30
0.0
 10
263.9298282960419
 20
827.3715092765696
 30
0.0
 10
264.1087318429198
 20
827.0618716730061
 30
0.0
 10
264.3776904581139
 20
826.6779251612506
 30
0.0
 10
264.6437964000078
 20
826.4078685005559
 30
0.0
 10
264.8399047734169
 20
826.2602036032686
 30
0.0
  0
LINE
  5
16E
330
C3
100
AcDbEntity
  8
0
  6
Continuous
 62
     0
370
     0
100
AcDbLine
 10
265.161206
 20
834.414222
 30
0.0
 11
263.796718
 21
834.414226
 31
0.0
  0
LINE
  5
16F
330
C3
100
AcDbEntity
  8
0
  6
Continuous
 62
     0
370
    30
100
AcDbLine
 10
263.503302
 20
828.251258
 30
0.0
 11
263.796718
 21
834.414226
 31
0.0
  0
SPLINE
  5
170
330
C3
100
AcDbEntity
  8
0
  6
Continuous
 62
     0
370
    30
100
AcDbSpline
210
0.0
220
0.0
230
1.0
 70
     8
 71
     3
 72
    12
 73
     8
 74
     0
 42
0.000000001
 43
0.0
 40
0.0
 40
0.0
 40
0.0
 40
0.0
 40
0.048067340464532
 40
0.144202021393597
 40
0.286711675972466
 40
0.427737808824147
 40
0.538110980086532
 40
0.538110980086532
 40
0.538110980086532
 40
0.538110980086532
 10
263.7967181049641
 20
834.4142261336046
 30
0.0
 10
263.8005725800891
 20
834.4951862389573
 30
0.0
 10
263.8121361246307
 20
834.7380684680892
 30
0.0
 10
263.8524234929773
 20
835.2200843914541
 30
0.0
 10
263.929607803521
 20
835.8558864838079
 30
0.0
 10
264.0547397214519
 20
836.5088795749621
 30
0.0
 10
264.1647053698235
 20
836.9186878341893
 30
0.0
 10
264.219835402195
 20
837.0965207707484
 30
0.0
  0
SPLINE
  5
171
330
C3
100
AcDbEntity
  8
0
  6
Continuous
 62
     0
370
    30
100
AcDbSpline
210
0.0
220
0.0
230
1.0
 70
     8
 71
     3
 72
    14
 73
    10
 74
     0
 42
0.000000001
 43
0.0
 40
0.0
 40
0.0
 40
0.0
 40
0.0
 40
0.6036068196088338
 40
1.102402920120455
 40
1.567951805765473
 40
1.876859881048878
 40
2.030952754058758
 40
2.184848559419417
 40
2.338585572647439
 40
2.338585572647439
 40
2.338585572647439
 40
2.338585572647439
 10
265.3468092124712
 20
839.1218022784906
 30
0.0
 10
265.2078722962313
 20
838.9765244182837
 30
0.0
 10
264.9743660013754
 20
838.6911599492586
 30
0.0
 10
264.6968795788937
 20
838.2474393497937
 30
0.0
 10
264.5074377434397
 20
837.8671486841225
 30
0.0
 10
264.3887739059624
 20
837.5811892343511
 30
0.0
 10
264.3166131793959
 20
837.3885901814836
 30
0.0
 10
264.2670939149541
 20
837.2428960794523
 30
0.0
 10
264.2334756232354
 20
837.1459186041957
 30
0.0
 10
264.2198099335118
 20
837.0965286663156
 30
0.0
  0
LINE
  5
172
330
C3
100
AcDbEntity
  8
0
  6
Continuous
 62
     0
370
    30
100
AcDbLine
 10
263.796729
 20
834.414226
 30
0.0
 11
263.798681
 21
834.453081
 31
0.0
  0
LINE
  5
173
330
C3
100
AcDbEntity
  8
0
  6
Continuous
 62
     0
370
    30
100
AcDbLine
 10
273.133162
 20
839.679591
 30
0.0
 11
273.13316
 21
781.226885
 31
0.0
  0
ARC
  5
174
330
C3
100
AcDbEntity
  8
0
  6
Continuous
 62
     0
370
    30
100
AcDbCircle
 10
271.633155
 20
781.226832
 30
0.0
 40
1.50001585318884
100
AcDbArc
 50
270.001938
 51
359.99706
  0
ARC
  5
175
330
C3
100
AcDbEntity
  8
0
  6
Continuous
 62
     0
370
    30
100
AcDbCircle
 10
271.633133
 20
839.679569
 30
0.0
 40
1.500023377737504
100
AcDbArc
 50
1.92507
 51
92.087539
  0
LINE
  5
176
330
C3
100
AcDbEntity
  8
0
  6
Continuous
 62
     0
370
    30
100
AcDbLine
 10
231.082453
 20
779.726815
 30
0.0
 11
256.18248
 21
779.726815
 31
0.0
  0
LINE
  5
177
330
C3
100
AcDbEntity
  8
0
  6
Continuous
 62
     0
370
    30
100
AcDbLine
 10
271.633158
 20
779.726815
 30
0.0
 11
266.382457
 21
779.726815
 31
0.0
  0
LINE
  5
178
330
C3
100
AcDbEntity
  8
0
  6
Continuous
 62
     0
370
    30
100
AcDbLine
 10
263.672401
 20
680.251835
 30
0.0
 11
258.892482
 21
680.251835
 31
0.0
  0
LINE
  5
179
330
C3
100
AcDbEntity
  8
0
  6
Continuous
 62
     0
370
    30
100
AcDbLine
 10
263.672401
 20
680.251835
 30
0.0
 11
258.892482
 21
680.251835
 31
0.0
  0
LINE
  5
17A
330
C3
100
AcDbEntity
  8
0
  6
Continuous
 62
     0
370
    30
100
AcDbLine
 10
263.67248
 20
780.254411
 30
0.0
 11
258.892561
 21
780.254411
 31
0.0
  0
ARC
  5
17B
330
C3
100
AcDbEntity
  8
0
  6
Continuous
 62
     0
370
    30
100
AcDbCircle
 10
261.286883
 20
794.293521
 30
0.0
 40
14.79059534531117
100
AcDbArc
 50
254.878588
 51
269.798493
  0
ARC
  5
17C
330
C3
100
AcDbEntity
  8
0
  6
Continuous
 62
     0
370
    30
100
AcDbCircle
 10
261.278006
 20
794.293711
 30
0.0
 40
14.79078484464429
100
AcDbArc
 50
270.017242
 51
285.121184
  0
ARC
  5
17D
330
C3
100
AcDbEntity
  8
0
  6
Continuous
 62
     0
370
    30
100
AcDbCircle
 10
261.286424
 20
694.288301
 30
0.0
 40
14.78794859914854
100
AcDbArc
 50
254.877288
 51
269.799931
  0
ARC
  5
17E
330
C3
100
AcDbEntity
  8
0
  6
Continuous
 62
     0
370
    30
100
AcDbCircle
 10
261.277927
 20
694.291136
 30
0.0
 40
14.79078484464949
100
AcDbArc
 50
270.017242
 51
285.121184
  0
ENDBLK
  5
180
330
C3
100
AcDbEntity
  8
0
100
AcDbBlockEnd
  0
ENDSEC
  0
SECTION
  2
ENTITIES
  0
INSERT
  5
C2
330
1F
100
AcDbEntity
  8
0
  6
Continuous
 62
     7
370
     0
100
AcDbBlockReference
  2
a
 10
11.420481
 20
88.84539
 30
0.0
  0
INSERT
  5
181
330
1F
100
AcDbEntity
  8
0
  6
Continuous
 62
     7
370
     0
100
AcDbBlockReference
  2
c
 10
11.420481
 20
88.84539
 30
0.0
  0
ENDSEC
  0
SECTION
  2
OBJECTS
  0
DICTIONARY
  5
C
330
0
100
AcDbDictionary
281
     1
  3
ACAD_GROUP
350
D
  3
ACAD_LAYOUT
350
1A
  3
ACAD_MATERIAL
350
43
  3
ACAD_MLEADERSTYLE
350
6B
  3
ACAD_MLINESTYLE
350
17
  3
ACAD_PLOTSETTINGS
350
19
  3
ACAD_PLOTSTYLENAME
350
E
  3
ACAD_SCALELIST
350
47
  3
ACAD_TABLESTYLE
350
69
  3
ACAD_VISUALSTYLE
350
2A
  3
AcDbVariableDictionary
350
182
  0
DICTIONARY
  5
18D
330
8
100
AcDbDictionary
280
     1
281
     1
  3
ACAD_XREC_ROUNDTRIP
360
18E
  0
DICTIONARY
  5
D
102
{ACAD_REACTORS
330
C
102
}
330
C
100
AcDbDictionary
281
     1
  0
DICTIONARY
  5
1A
102
{ACAD_REACTORS
330
C
102
}
330
C
100
AcDbDictionary
281
     1
  3
Layout1
350
1E
  3
Layout2
350
26
  3
Model
350
22
  0
DICTIONARY
  5
43
102
{ACAD_REACTORS
330
C
102
}
330
C
100
AcDbDictionary
281
     1
  3
ByBlock
350
45
  3
ByLayer
350
44
  3
Global
350
46
  0
DICTIONARY
  5
6B
102
{ACAD_REACTORS
330
C
102
}
330
C
100
AcDbDictionary
281
     1
  3
Standard
350
6C
  0
DICTIONARY
  5
17
102
{ACAD_REACTORS
330
C
102
}
330
C
100
AcDbDictionary
281
     1
  3
Standard
350
18
  0
DICTIONARY
  5
19
102
{ACAD_REACTORS
330
C
102
}
330
C
100
AcDbDictionary
281
     1
  0
ACDBDICTIONARYWDFLT
  5
E
102
{ACAD_REACTORS
330
C
102
}
330
C
100
AcDbDictionary
281
     1
  3
Normal
350
F
100
AcDbDictionaryWithDefault
340
F
  0
DICTIONARY
  5
47
102
{ACAD_REACTORS
330
C
102
}
330
C
100
AcDbDictionary
281
     1
  3
A0
350
48
  3
A1
350
49
  3
A2
350
4A
  3
A3
350
4B
  3
A4
350
4C
  3
A5
350
4D
  3
A6
350
4E
  3
A7
350
4F
  3
A8
350
50
  3
A9
350
51
  3
B0
350
52
  3
B1
350
53
  3
B2
350
54
  3
B3
350
55
  3
B4
350
56
  3
B5
350
57
  3
B6
350
58
  3
B7
350
59
  3
B8
350
5A
  3
B9
350
5B
  3
C0
350
5C
  3
C1
350
5D
  3
C2
350
5E
  3
C3
350
5F
  3
C4
350
60
  3
C5
350
61
  3
C6
350
62
  3
C7
350
63
  3
C8
350
64
  3
C9
350
65
  3
D0
350
66
  3
D1
350
67
  3
D2
350
68
  0
DICTIONARY
  5
69
102
{ACAD_REACTORS
330
C
102
}
330
C
100
AcDbDictionary
281
     1
  3
Standard
350
6A
  0
DICTIONARY
  5
2A
102
{ACAD_REACTORS
330
C
102
}
330
C
100
AcDbDictionary
281
     1
  3
2dWireframe
350
2F
  3
Basic
350
32
  3
Brighten
350
36
  3
ColorChange
350
3A
  3
Conceptual
350
34
  3
Dim
350
35
  3
EdgeColorOff
350
3D
  3
Facepattern
350
39
  3
Flat
350
2B
  3
FlatWithEdges
350
2C
  3
Gouraud
350
2D
  3
GouraudWithEdges
350
2E
  3
Hidden
350
31
  3
JitterOff
350
3B
  3
Linepattern
350
38
  3
OverhangOff
350
3C
  3
Realistic
350
33
  3
Shaded
350
42
  3
Shaded with edges
350
41
  3
Shades of Gray
350
3E
  3
Sketchy
350
3F
  3
Thicken
350
37
  3
Wireframe
350
30
  3
X-Ray
350
40
  0
DICTIONARY
  5
182
102
{ACAD_REACTORS
330
C
102
}
330
C
100
AcDbDictionary
281
     1
  3
CANNOSCALE
350
18F
  3
CENTEREXE
350
189
  3
CENTERLTYPEFILE
350
18A
  3
CMLEADERSTYLE
350
184
  3
CTABLESTYLE
350
183
  3
DIMASSOC
350
18B
  3
HIDETEXT
350
18C
  3
MSLTSCALE
350
190
  3
PSOLHEIGHT
350
186
  3
PSOLWIDTH
350
185
  0
XRECORD
  5
18E
102
{ACAD_REACTORS
330
18D
102
}
330
18D
100
AcDbXrecord
280
     1
102
VTR_0.000_0.000_1.000_1.000_VISUALSTYLE
340
2F
102
VTR_0.000_0.000_1.000_1.000_GRIDDISPLAY
 70
     3
102
VTR_0.000_0.000_1.000_1.000_GRIDMAJOR
 70
     5
102
VTR_0.000_0.000_1.000_1.000_DEFAULTLIGHTING
280
     1
102
VTR_0.000_0.000_1.000_1.000_DEFAULTLIGHTINGTYPE
 70
     1
102
VTR_0.000_0.000_1.000_1.000_BRIGHTNESS
141
0.0
102
VTR_0.000_0.000_1.000_1.000_CONTRAST
142
0.0
  0
LAYOUT
  5
1E
102
{ACAD_REACTORS
330
1A
102
}
330
1A
100
AcDbPlotSettings
  1

  2
none_device
  4

  6

 40
0.0
 41
0.0
 42
0.0
 43
0.0
 44
0.0
 45
0.0
 46
0.0
 47
0.0
 48
0.0
 49
0.0
140
0.0
141
0.0
142
1.0
143
1.0
 70
   688
 72
     1
 73
     0
 74
     5
  7

 75
    16
147
1.0
148
0.0
149
0.0
100
AcDbLayout
  1
Layout1
 70
     1
 71
     1
 10
0.0
 20
0.0
 11
420.0
 21
297.0
 12
0.0
 22
0.0
 32
0.0
 14
1.000000E+20
 24
1.000000E+20
 34
1.000000E+20
 15
-1.000000E+20
 25
-1.000000E+20
 35
-1.000000E+20
146
0.0
 13
0.0
 23
0.0
 33
0.0
 16
1.0
 26
0.0
 36
0.0
 17
0.0
 27
1.0
 37
0.0
 76
     0
330
1B
  0
LAYOUT
  5
26
102
{ACAD_REACTORS
330
1A
102
}
330
1A
100
AcDbPlotSettings
  1

  2
none_device
  4

  6

 40
0.0
 41
0.0
 42
0.0
 43
0.0
 44
0.0
 45
0.0
 46
0.0
 47
0.0
 48
0.0
 49
0.0
140
0.0
141
0.0
142
1.0
143
1.0
 70
   688
 72
     1
 73
     0
 74
     5
  7

 75
    16
147
1.0
148
0.0
149
0.0
100
AcDbLayout
  1
Layout2
 70
     1
 71
     2
 10
0.0
 20
0.0
 11
0.0
 21
0.0
 12
0.0
 22
0.0
 32
0.0
 14
0.0
 24
0.0
 34
0.0
 15
0.0
 25
0.0
 35
0.0
146
0.0
 13
0.0
 23
0.0
 33
0.0
 16
1.0
 26
0.0
 36
0.0
 17
0.0
 27
1.0
 37
0.0
 76
     0
330
23
  0
LAYOUT
  5
22
102
{ACAD_REACTORS
330
1A
102
}
330
1A
100
AcDbPlotSettings
  1

  2
none_device
  4
Letter_(8.50_x_11.00_Inches)
  6

 40
6.35
 41
6.35
 42
6.350005
 43
6.350005
 44
215.9
 45
279.4
 46
0.0
 47
0.0
 48
0.0
 49
0.0
140
0.0
141
0.0
142
1.0
143
1.0
 70
  1712
 72
     1
 73
     0
 74
     0
  7

 75
     0
147
1.0
148
0.0
149
0.0
100
AcDbLayout
  1
Model
 70
     1
 71
     0
 10
39.000687
 20
490.934753
 11
280.932465
 21
873.226868
 12
0.0
 22
0.0
 32
0.0
 14
39.000687
 24
490.934753
 34
0.0
 15
280.932465
 25
873.226868
 35
0.0
146
0.0
 13
0.0
 23
0.0
 33
0.0
 16
1.0
 26
0.0
 36
0.0
 17
0.0
 27
1.0
 37
0.0
 76
     0
330
1F
331
29
  0
MATERIAL
  5
45
102
{ACAD_REACTORS
330
43
102
}
102
{ACAD_XDICTIONARY
360
1C3
102
}
330
43
100
AcDbMaterial
  1
ByBlock
  0
MATERIAL
  5
44
102
{ACAD_REACTORS
330
43
102
}
102
{ACAD_XDICTIONARY
360
1C1
102
}
330
43
100
AcDbMaterial
  1
ByLayer
  0
MATERIAL
  5
46
102
{ACAD_REACTORS
330
43
102
}
102
{ACAD_XDICTIONARY
360
1C5
102
}
330
43
100
AcDbMaterial
  1
Global
  0
MLEADERSTYLE
  5
6C
102
{ACAD_REACTORS
330
6B
102
}
102
{ACAD_XDICTIONARY
360
1C8
102
}
330
6B
100
AcDbMLeaderStyle
170
     2
171
     1
172
     0
 90
        2
 40
0.0
 41
0.0
173
     1
 91
-1056964608
340
14
 92
       -2
290
     1
 42
2.0
291
     1
 43
8.0
  3
Standard
341
0
 44
4.0
300

342
11
174
     1
178
     6
175
     1
176
     0
 93
-1056964608
 45
4.0
292
     0
297
     0
 46
4.0
343
0
 94
-1056964608
 47
1.0
 49
1.0
140
1.0
293
     1
141
0.0
294
     1
177
     0
142
1.0
295
     0
296
     0
143
3.75
1001
ACAD_MLEADERVER
1070
     2
  0
MLINESTYLE
  5
18
102
{ACAD_REACTORS
330
17
102
}
330
17
100
AcDbMlineStyle
  2
Standard
 70
     0
  3

 62
   256
 51
90.0
 52
90.0
 71
     2
 49
0.5
 62
   256
  6
BYLAYER
 49
-0.5
 62
   256
  6
BYLAYER
  0
ACDBPLACEHOLDER
  5
F
102
{ACAD_REACTORS
330
E
102
}
330
E
  0
SCALE
  5
48
102
{ACAD_REACTORS
330
47
102
}
330
47
100
AcDbScale
 70
     0
300
1:1
140
1.0
141
1.0
290
     1
  0
SCALE
  5
49
102
{ACAD_REACTORS
330
47
102
}
330
47
100
AcDbScale
 70
     0
300
1:2
140
1.0
141
2.0
290
     0
  0
SCALE
  5
4A
102
{ACAD_REACTORS
330
47
102
}
330
47
100
AcDbScale
 70
     0
300
1:4
140
1.0
141
4.0
290
     0
  0
SCALE
  5
4B
102
{ACAD_REACTORS
330
47
102
}
330
47
100
AcDbScale
 70
     0
300
1:5
140
1.0
141
5.0
290
     0
  0
SCALE
  5
4C
102
{ACAD_REACTORS
330
47
102
}
330
47
100
AcDbScale
 70
     0
300
1:8
140
1.0
141
8.0
290
     0
  0
SCALE
  5
4D
102
{ACAD_REACTORS
330
47
102
}
330
47
100
AcDbScale
 70
     0
300
1:10
140
1.0
141
10.0
290
     0
  0
SCALE
  5
4E
102
{ACAD_REACTORS
330
47
102
}
330
47
100
AcDbScale
 70
     0
300
1:16
140
1.0
141
16.0
290
     0
  0
SCALE
  5
4F
102
{ACAD_REACTORS
330
47
102
}
330
47
100
AcDbScale
 70
     0
300
1:20
140
1.0
141
20.0
290
     0
  0
SCALE
  5
50
102
{ACAD_REACTORS
330
47
102
}
330
47
100
AcDbScale
 70
     0
300
1:30
140
1.0
141
30.0
290
     0
  0
SCALE
  5
51
102
{ACAD_REACTORS
330
47
102
}
330
47
100
AcDbScale
 70
     0
300
1:40
140
1.0
141
40.0
290
     0
  0
SCALE
  5
52
102
{ACAD_REACTORS
330
47
102
}
330
47
100
AcDbScale
 70
     0
300
1:50
140
1.0
141
50.0
290
     0
  0
SCALE
  5
53
102
{ACAD_REACTORS
330
47
102
}
330
47
100
AcDbScale
 70
     0
300
1:100
140
1.0
141
100.0
290
     0
  0
SCALE
  5
54
102
{ACAD_REACTORS
330
47
102
}
330
47
100
AcDbScale
 70
     0
300
2:1
140
2.0
141
1.0
290
     0
  0
SCALE
  5
55
102
{ACAD_REACTORS
330
47
102
}
330
47
100
AcDbScale
 70
     0
300
4:1
140
4.0
141
1.0
290
     0
  0
SCALE
  5
56
102
{ACAD_REACTORS
330
47
102
}
330
47
100
AcDbScale
 70
     0
300
8:1
140
8.0
141
1.0
290
     0
  0
SCALE
  5
57
102
{ACAD_REACTORS
330
47
102
}
330
47
100
AcDbScale
 70
     0
300
10:1
140
10.0
141
1.0
290
     0
  0
SCALE
  5
58
102
{ACAD_REACTORS
330
47
102
}
330
47
100
AcDbScale
 70
     0
300
100:1
140
100.0
141
1.0
290
     0
  0
SCALE
  5
59
102
{ACAD_REACTORS
330
47
102
}
330
47
100
AcDbScale
 70
     0
300
1/128" = 1'-0"
140
0.007812
141
12.0
290
     0
  0
SCALE
  5
5A
102
{ACAD_REACTORS
330
47
102
}
330
47
100
AcDbScale
 70
     0
300
1/64" = 1'-0"
140
0.015625
141
12.0
290
     0
  0
SCALE
  5
5B
102
{ACAD_REACTORS
330
47
102
}
330
47
100
AcDbScale
 70
     0
300
1/32" = 1'-0"
140
0.03125
141
12.0
290
     0
  0
SCALE
  5
5C
102
{ACAD_REACTORS
330
47
102
}
330
47
100
AcDbScale
 70
     0
300
1/16" = 1'-0"
140
0.0625
141
12.0
290
     0
  0
SCALE
  5
5D
102
{ACAD_REACTORS
330
47
102
}
330
47
100
AcDbScale
 70
     0
300
3/32" = 1'-0"
140
0.09375
141
12.0
290
     0
  0
SCALE
  5
5E
102
{ACAD_REACTORS
330
47
102
}
330
47
100
AcDbScale
 70
     0
300
1/8" = 1'-0"
140
0.125
141
12.0
290
     0
  0
SCALE
  5
5F
102
{ACAD_REACTORS
330
47
102
}
330
47
100
AcDbScale
 70
     0
300
3/16" = 1'-0"
140
0.1875
141
12.0
290
     0
  0
SCALE
  5
60
102
{ACAD_REACTORS
330
47
102
}
330
47
100
AcDbScale
 70
     0
300
1/4" = 1'-0"
140
0.25
141
12.0
290
     0
  0
SCALE
  5
61
102
{ACAD_REACTORS
330
47
102
}
330
47
100
AcDbScale
 70
     0
300
3/8" = 1'-0"
140
0.375
141
12.0
290
     0
  0
SCALE
  5
62
102
{ACAD_REACTORS
330
47
102
}
330
47
100
AcDbScale
 70
     0
300
1/2" = 1'-0"
140
0.5
141
12.0
290
     0
  0
SCALE
  5
63
102
{ACAD_REACTORS
330
47
102
}
330
47
100
AcDbScale
 70
     0
300
3/4" = 1'-0"
140
0.75
141
12.0
290
     0
  0
SCALE
  5
64
102
{ACAD_REACTORS
330
47
102
}
330
47
100
AcDbScale
 70
     0
300
1" = 1'-0"
140
1.0
141
12.0
290
     0
  0
SCALE
  5
65
102
{ACAD_REACTORS
330
47
102
}
330
47
100
AcDbScale
 70
     0
300
1-1/2" = 1'-0"
140
1.5
141
12.0
290
     0
  0
SCALE
  5
66
102
{ACAD_REACTORS
330
47
102
}
330
47
100
AcDbScale
 70
     0
300
3" = 1'-0"
140
3.0
141
12.0
290
     0
  0
SCALE
  5
67
102
{ACAD_REACTORS
330
47
102
}
330
47
100
AcDbScale
 70
     0
300
6" = 1'-0"
140
6.0
141
12.0
290
     0
  0
SCALE
  5
68
102
{ACAD_REACTORS
330
47
102
}
330
47
100
AcDbScale
 70
     0
300
1'-0" = 1'-0"
140
12.0
141
12.0
290
     0
  0
TABLESTYLE
  5
6A
102
{ACAD_REACTORS
330
69
102
}
330
69
100
AcDbTableStyle
  3
Standard
 70
     0
 71
     0
 40
1.5
 41
1.5
280
     0
281
     0
  7
Standard
140
4.5
170
     2
 62
     0
 63
   257
283
     0
274
    -2
284
     1
 64
     0
275
    -2
285
     1
 65
     0
276
    -2
286
     1
 66
     0
277
    -2
287
     1
 67
     0
278
    -2
288
     1
 68
     0
279
    -2
289
     1
 69
     0
  7
Standard
140
6.0
170
     5
 62
     0
 63
   257
283
     0
274
    -2
284
     1
 64
     0
275
    -2
285
     1
 65
     0
276
    -2
286
     1
 66
     0
277
    -2
287
     1
 67
     0
278
    -2
288
     1
 68
     0
279
    -2
289
     1
 69
     0
  7
Standard
140
4.5
170
     5
 62
     0
 63
   257
283
     0
274
    -2
284
     1
 64
     0
275
    -2
285
     1
 65
     0
276
    -2
286
     1
 66
     0
277
    -2
287
     1
 67
     0
278
    -2
288
     1
 68
     0
279
    -2
289
     1
 69
     0
  0
VISUALSTYLE
  5
2F
102
{ACAD_REACTORS
330
2A
102
}
102
{ACAD_XDICTIONARY
360
199
102
}
330
2A
100
AcDbVisualStyle
  2
2dWireframe
 70
     4
 71
     0
 72
     2
 73
     0
 90
        0
 40
0.6
 41
30.0
 62
     5
 63
     7
 74
     1
 91
        4
 64
     7
 65
   257
 75
     1
175
     1
 42
1.0
 92
        0
 66
   257
 43
1.0
 76
     1
 77
     6
 78
     2
 67
     7
 79
     5
170
     0
171
     0
290
     0
174
     0
 93
        1
 44
0.0
173
     0
291
     0
 45
0.0
1001
ACAD
1000
AcDbSavedByObjectVersion
1070
     0
  0
VISUALSTYLE
  5
32
102
{ACAD_REACTORS
330
2A
102
}
102
{ACAD_XDICTIONARY
360
19F
102
}
330
2A
100
AcDbVisualStyle
  2
Basic
 70
     7
 71
     1
 72
     0
 73
     1
 90
        0
 40
0.6
 41
30.0
 62
     5
 63
     7
 74
     0
 91
        4
 64
     7
 65
   257
 75
     1
175
     1
 42
1.0
 92
        8
 66
     7
 43
1.0
 76
     1
 77
     6
 78
     2
 67
     7
 79
     5
170
     0
171
     0
290
     0
174
     0
 93
        1
 44
0.0
173
     0
291
     1
 45
0.0
1001
ACAD
1000
AcDbSavedByObjectVersion
1070
     0
  0
VISUALSTYLE
  5
36
102
{ACAD_REACTORS
330
2A
102
}
102
{ACAD_XDICTIONARY
360
1A7
102
}
330
2A
100
AcDbVisualStyle
  2
Brighten
 70
    12
 71
     2
 72
     2
 73
     0
 90
        0
 40
0.6
 41
30.0
 62
     5
 63
     7
 74
     1
 91
        4
 64
     7
 65
   257
 75
     1
175
     1
 42
1.0
 92
        8
 66
     7
 43
1.0
 76
     1
 77
     6
 78
     2
 67
     7
 79
     5
170
     0
171
     0
290
     0
174
     0
 93
        1
 44
50.0
173
     0
291
     1
 45
0.0
1001
ACAD
1000
AcDbSavedByObjectVersion
1070
     0
  0
VISUALSTYLE
  5
3A
102
{ACAD_REACTORS
330
2A
102
}
102
{ACAD_XDICTIONARY
360
1AF
102
}
330
2A
100
AcDbVisualStyle
  2
ColorChange
 70
    16
 71
     2
 72
     2
 73
     3
 90
        0
 40
0.6
 41
30.0
 62
     5
 63
     8
 74
     1
 91
        4
 64
     7
 65
   257
 75
     1
175
     1
 42
1.0
 92
        8
 66
     8
 43
1.0
 76
     1
 77
     6
 78
     2
 67
     7
 79
     5
170
     0
171
     0
290
     0
174
     0
 93
        1
 44
0.0
173
     0
291
     1
 45
0.0
1001
ACAD
1000
AcDbSavedByObjectVersion
1070
     0
  0
VISUALSTYLE
  5
34
102
{ACAD_REACTORS
330
2A
102
}
102
{ACAD_XDICTIONARY
360
1A3
102
}
330
2A
100
AcDbVisualStyle
  2
Conceptual
 70
     9
 71
     3
 72
     2
 73
     0
 90
        0
 40
0.6
 41
30.0
 62
     5
 63
     7
 74
     2
 91
        2
 64
     7
 65
   257
 75
     1
175
     1
 42
179.0
 92
        8
 66
     7
 43
1.0
 76
     1
 77
     6
 78
     2
 67
     7
 79
     3
170
     0
171
     0
290
     0
174
     0
 93
        1
 44
0.0
173
     0
291
     0
 45
0.0
1001
ACAD
1000
AcDbSavedByObjectVersion
1070
     0
  0
VISUALSTYLE
  5
35
102
{ACAD_REACTORS
330
2A
102
}
102
{ACAD_XDICTIONARY
360
1A5
102
}
330
2A
100
AcDbVisualStyle
  2
Dim
 70
    11
 71
     2
 72
     2
 73
     0
 90
        0
 40
0.6
 41
30.0
 62
     5
 63
     7
 74
     1
 91
        4
 64
     7
 65
   257
 75
     1
175
     1
 42
1.0
 92
        8
 66
     7
 43
1.0
 76
     1
 77
     6
 78
     2
 67
     7
 79
     5
170
     0
171
     0
290
     0
174
     0
 93
        1
 44
-50.0
173
     0
291
     1
 45
0.0
1001
ACAD
1000
AcDbSavedByObjectVersion
1070
     0
  0
VISUALSTYLE
  5
3D
102
{ACAD_REACTORS
330
2A
102
}
102
{ACAD_XDICTIONARY
360
1B5
102
}
330
2A
100
AcDbVisualStyle
  2
EdgeColorOff
 70
    22
 71
     2
 72
     2
 73
     0
 90
        0
 40
0.6
 41
30.0
 62
     5
 63
     7
 74
     1
 91
        4
 64
     7
 65
   257
 75
     1
175
     1
 42
1.0
 92
        8
 66
     7
 43
1.0
 76
     1
 77
     6
 78
     2
 67
     7
 79
     5
170
     0
171
     0
290
     0
174
     0
 93
        1
 44
0.0
173
     0
291
     1
 45
0.0
1001
ACAD
1000
AcDbSavedByObjectVersion
1070
     0
  0
VISUALSTYLE
  5
39
102
{ACAD_REACTORS
330
2A
102
}
102
{ACAD_XDICTIONARY
360
1AD
102
}
330
2A
100
AcDbVisualStyle
  2
Facepattern
 70
    15
 71
     2
 72
     2
 73
     0
 90
        0
 40
0.6
 41
30.0
 62
     5
 63
     7
 74
     1
 91
        4
 64
     7
 65
   257
 75
     1
175
     1
 42
1.0
 92
        8
 66
     7
 43
1.0
 76
     1
 77
     6
 78
     2
 67
     7
 79
     5
170
     0
171
     0
290
     0
174
     0
 93
        1
 44
0.0
173
     0
291
     1
 45
0.0
1001
ACAD
1000
AcDbSavedByObjectVersion
1070
     0
  0
VISUALSTYLE
  5
2B
102
{ACAD_REACTORS
330
2A
102
}
102
{ACAD_XDICTIONARY
360
191
102
}
330
2A
100
AcDbVisualStyle
  2
Flat
 70
     0
 71
     2
 72
     1
 73
     1
 90
        2
 40
0.6
 41
30.0
 62
     5
 63
     7
 74
     0
 91
        0
 64
     7
 65
   257
 75
     1
175
     1
 42
1.0
 92
        8
 66
     7
 43
1.0
 76
     1
 77
     6
 78
     2
 67
     7
 79
     5
170
     0
171
     0
290
     0
174
     0
 93
       13
 44
0.0
173
     0
291
     1
 45
0.0
1001
ACAD
1000
AcDbSavedByObjectVersion
1070
     0
  0
VISUALSTYLE
  5
2C
102
{ACAD_REACTORS
330
2A
102
}
102
{ACAD_XDICTIONARY
360
193
102
}
330
2A
100
AcDbVisualStyle
  2
FlatWithEdges
 70
     1
 71
     2
 72
     1
 73
     1
 90
        2
 40
0.6
 41
30.0
 62
     5
 63
     7
 74
     1
 91
        0
 64
     7
 65
   257
 75
     1
175
     1
 42
1.0
 92
        0
 66
   257
 43
1.0
 76
     1
 77
     6
 78
     2
 67
     7
 79
     5
170
     0
171
     0
290
     0
174
     0
 93
       13
 44
0.0
173
     0
291
     1
 45
0.0
1001
ACAD
1000
AcDbSavedByObjectVersion
1070
     0
  0
VISUALSTYLE
  5
2D
102
{ACAD_REACTORS
330
2A
102
}
102
{ACAD_XDICTIONARY
360
195
102
}
330
2A
100
AcDbVisualStyle
  2
Gouraud
 70
     2
 71
     2
 72
     2
 73
     1
 90
        2
 40
0.6
 41
30.0
 62
     5
 63
     7
 74
     0
 91
        0
 64
     7
 65
   257
 75
     1
175
     1
 42
1.0
 92
        0
 66
     7
 43
1.0
 76
     1
 77
     6
 78
     2
 67
     7
 79
     5
170
     0
171
     0
290
     0
174
     0
 93
       13
 44
0.0
173
     0
291
     1
 45
0.0
1001
ACAD
1000
AcDbSavedByObjectVersion
1070
     0
  0
VISUALSTYLE
  5
2E
102
{ACAD_REACTORS
330
2A
102
}
102
{ACAD_XDICTIONARY
360
197
102
}
330
2A
100
AcDbVisualStyle
  2
GouraudWithEdges
 70
     3
 71
     2
 72
     2
 73
     1
 90
        2
 40
0.6
 41
30.0
 62
     5
 63
     7
 74
     1
 91
        0
 64
     7
 65
   257
 75
     1
175
     1
 42
1.0
 92
        0
 66
   257
 43
1.0
 76
     1
 77
     6
 78
     2
 67
     7
 79
     5
170
     0
171
     0
290
     0
174
     0
 93
       13
 44
0.0
173
     0
291
     1
 45
0.0
1001
ACAD
1000
AcDbSavedByObjectVersion
1070
     0
  0
VISUALSTYLE
  5
31
102
{ACAD_REACTORS
330
2A
102
}
102
{ACAD_XDICTIONARY
360
19D
102
}
330
2A
100
AcDbVisualStyle
  2
Hidden
 70
     6
 71
     1
 72
     2
 73
     2
 90
        0
 40
0.6
 41
30.0
 62
     5
 63
     7
 74
     2
 91
        2
 64
     7
 65
   257
 75
     2
175
     1
 42
40.0
 92
        0
 66
   257
 43
1.0
 76
     1
 77
     6
 78
     2
 67
     7
 79
     3
170
     0
171
     0
290
     0
174
     0
 93
        1
 44
0.0
173
     0
291
     0
 45
0.0
1001
ACAD
1000
AcDbSavedByObjectVersion
1070
     0
  0
VISUALSTYLE
  5
3B
102
{ACAD_REACTORS
330
2A
102
}
102
{ACAD_XDICTIONARY
360
1B1
102
}
330
2A
100
AcDbVisualStyle
  2
JitterOff
 70
    20
 71
     2
 72
     2
 73
     0
 90
        0
 40
0.6
 41
30.0
 62
     5
 63
     7
 74
     1
 91
        4
 64
     7
 65
   257
 75
     1
175
     1
 42
1.0
 92
       10
 66
     7
 43
1.0
 76
     1
 77
     6
 78
     2
 67
     7
 79
     5
170
     0
171
     0
290
     0
174
     0
 93
        1
 44
0.0
173
     0
291
     1
 45
0.0
1001
ACAD
1000
AcDbSavedByObjectVersion
1070
     0
  0
VISUALSTYLE
  5
38
102
{ACAD_REACTORS
330
2A
102
}
102
{ACAD_XDICTIONARY
360
1AB
102
}
330
2A
100
AcDbVisualStyle
  2
Linepattern
 70
    14
 71
     2
 72
     2
 73
     0
 90
        0
 40
0.6
 41
30.0
 62
     5
 63
     7
 74
     1
 91
        4
 64
     7
 65
   257
 75
     7
175
     7
 42
1.0
 92
        8
 66
     7
 43
1.0
 76
     1
 77
     6
 78
     2
 67
     7
 79
     5
170
     0
171
     0
290
     0
174
     0
 93
        1
 44
0.0
173
     0
291
     1
 45
0.0
1001
ACAD
1000
AcDbSavedByObjectVersion
1070
     0
  0
VISUALSTYLE
  5
3C
102
{ACAD_REACTORS
330
2A
102
}
102
{ACAD_XDICTIONARY
360
1B3
102
}
330
2A
100
AcDbVisualStyle
  2
OverhangOff
 70
    21
 71
     2
 72
     2
 73
     0
 90
        0
 40
0.6
 41
30.0
 62
     5
 63
     7
 74
     1
 91
        4
 64
     7
 65
   257
 75
     1
175
     1
 42
1.0
 92
        9
 66
     7
 43
1.0
 76
     1
 77
     6
 78
     2
 67
     7
 79
     5
170
     0
171
     0
290
     0
174
     0
 93
        1
 44
0.0
173
     0
291
     1
 45
0.0
1001
ACAD
1000
AcDbSavedByObjectVersion
1070
     0
  0
VISUALSTYLE
  5
33
102
{ACAD_REACTORS
330
2A
102
}
102
{ACAD_XDICTIONARY
360
1A1
102
}
330
2A
100
AcDbVisualStyle
  2
Realistic
 70
     8
 71
     2
 72
     3
 73
     0
 90
        2
 40
0.6
 41
30.0
 62
     5
 63
     7
 74
     0
 91
        0
 64
     7
 65
   257
 75
     1
175
     1
 42
1.0
 92
        8
 66
   257
 43
1.0
 76
     1
 77
     6
 78
     2
 67
     7
 79
     3
170
     0
171
     0
290
     0
174
     0
 93
       13
 44
0.0
173
     0
291
     0
 45
0.0
1001
ACAD
1000
AcDbSavedByObjectVersion
1070
     0
  0
VISUALSTYLE
  5
42
102
{ACAD_REACTORS
330
2A
102
}
102
{ACAD_XDICTIONARY
360
1BF
102
}
330
2A
100
AcDbVisualStyle
  2
Shaded
 70
    27
 71
     2
 72
     2
 73
     1
 90
        2
 40
0.6
 41
30.0
 62
     5
 63
     7
 74
     0
 91
        4
 64
     7
 65
   257
 75
     1
175
     1
 42
1.0
 92
        8
 66
   257
 43
1.0
 76
     1
 77
     6
 78
     2
 67
     8
 79
     3
170
     0
171
     0
290
     0
174
     0
 93
        5
 44
0.0
173
     0
291
     0
 45
0.0
1001
ACAD
1000
AcDbSavedByObjectVersion
1070
     0
  0
VISUALSTYLE
  5
41
102
{ACAD_REACTORS
330
2A
102
}
102
{ACAD_XDICTIONARY
360
1BD
102
}
330
2A
100
AcDbVisualStyle
  2
Shaded with edges
 70
    26
 71
     2
 72
     2
 73
     1
 90
        2
 40
0.6
 41
30.0
 62
     5
 63
     7
 74
     1
 91
       10
 64
     7
 65
   257
 75
     2
175
     1
 42
1.0
 92
        8
 66
   257
 43
1.0
 76
     1
 77
     6
 78
     2
 67
     7
 79
     3
170
     0
171
     0
290
     0
174
     0
 93
        5
 44
0.0
173
     0
291
     0
 45
0.0
1001
ACAD
1000
AcDbSavedByObjectVersion
1070
     0
  0
VISUALSTYLE
  5
3E
102
{ACAD_REACTORS
330
2A
102
}
102
{ACAD_XDICTIONARY
360
1B7
102
}
330
2A
100
AcDbVisualStyle
  2
Shades of Gray
 70
    23
 71
     2
 72
     2
 73
     3
 90
        0
 40
0.6
 41
30.0
 62
     5
 63
     7
 74
     2
 91
        2
 64
     7
 65
     7
 75
     1
175
     1
 42
40.0
 92
        8
 66
     7
 43
1.0
 76
     1
 77
     6
 78
     2
 67
     7
 79
     3
170
     0
171
     0
290
     0
174
     0
 93
        1
 44
0.0
173
     0
291
     0
 45
0.0
1001
ACAD
1000
AcDbSavedByObjectVersion
1070
     0
  0
VISUALSTYLE
  5
3F
102
{ACAD_REACTORS
330
2A
102
}
102
{ACAD_XDICTIONARY
360
1B9
102
}
330
2A
100
AcDbVisualStyle
  2
Sketchy
 70
    24
 71
     1
 72
     2
 73
     2
 90
        0
 40
0.6
 41
30.0
 62
     5
 63
     7
 74
     2
 91
        2
 64
     7
 65
     7
 75
     1
175
     1
 42
40.0
 92
       11
 66
     7
 43
1.0
 76
     1
 77
     6
 78
     2
 67
     7
 79
     6
170
     0
171
     0
290
     0
174
     0
 93
        1
 44
0.0
173
     0
291
     0
 45
0.0
1001
ACAD
1000
AcDbSavedByObjectVersion
1070
     0
  0
VISUALSTYLE
  5
37
102
{ACAD_REACTORS
330
2A
102
}
102
{ACAD_XDICTIONARY
360
1A9
102
}
330
2A
100
AcDbVisualStyle
  2
Thicken
 70
    13
 71
     2
 72
     2
 73
     0
 90
        0
 40
0.6
 41
30.0
 62
     5
 63
     7
 74
     1
 91
        4
 64
     7
 65
   257
 75
     1
175
     1
 42
1.0
 92
       12
 66
     7
 43
1.0
 76
     1
 77
     6
 78
     2
 67
     7
 79
     5
170
     0
171
     0
290
     0
174
     0
 93
        1
 44
0.0
173
     0
291
     1
 45
0.0
1001
ACAD
1000
AcDbSavedByObjectVersion
1070
     0
  0
VISUALSTYLE
  5
30
102
{ACAD_REACTORS
330
2A
102
}
102
{ACAD_XDICTIONARY
360
19B
102
}
330
2A
100
AcDbVisualStyle
  2
Wireframe
 70
     5
 71
     0
 72
     2
 73
     0
 90
        0
 40
0.6
 41
30.0
 62
     5
 63
     7
 74
     1
 91
        4
 64
     7
 65
   257
 75
     1
175
     1
 42
1.0
 92
        0
 66
   257
 43
1.0
 76
     1
 77
     6
 78
     2
 67
     7
 79
     3
170
     0
171
     0
290
     0
174
     0
 93
        1
 44
0.0
173
     0
291
     0
 45
0.0
1001
ACAD
1000
AcDbSavedByObjectVersion
1070
     0
  0
VISUALSTYLE
  5
40
102
{ACAD_REACTORS
330
2A
102
}
102
{ACAD_XDICTIONARY
360
1BB
102
}
330
2A
100
AcDbVisualStyle
  2
X-Ray
 70
    25
 71
     2
 72
     2
 73
     1
 90
        1
 40
0.5
 41
30.0
 62
     5
 63
     7
 74
     1
 91
        0
 64
     7
 65
   257
 75
     1
175
     1
 42
1.0
 92
        8
 66
     7
 43
1.0
 76
     1
 77
     6
 78
     2
 67
     7
 79
     3
170
     0
171
     0
290
     0
174
     0
 93
       13
 44
0.0
173
     0
291
     0
 45
0.0
1001
ACAD
1000
AcDbSavedByObjectVersion
1070
     0
  0
DICTIONARYVAR
  5
18F
102
{ACAD_REACTORS
330
182
102
}
330
182
100
DictionaryVariables
280
     0
  1
1:1
  0
DICTIONARYVAR
  5
189
102
{ACAD_REACTORS
330
182
102
}
330
182
100
DictionaryVariables
280
     0
  1
3.500000
  0
DICTIONARYVAR
  5
18A
102
{ACAD_REACTORS
330
182
102
}
330
182
100
DictionaryVariables
280
     0
  1
acadiso.lin
  0
DICTIONARYVAR
  5
184
102
{ACAD_REACTORS
330
182
102
}
330
182
100
DictionaryVariables
280
     0
  1
Standard
  0
DICTIONARYVAR
  5
183
102
{ACAD_REACTORS
330
182
102
}
330
182
100
DictionaryVariables
280
     0
  1
Standard
  0
DICTIONARYVAR
  5
18B
102
{ACAD_REACTORS
330
182
102
}
330
182
100
DictionaryVariables
280
     0
  1
2
  0
DICTIONARYVAR
  5
18C
102
{ACAD_REACTORS
330
182
102
}
330
182
100
DictionaryVariables
280
     0
  1
1
  0
DICTIONARYVAR
  5
190
102
{ACAD_REACTORS
330
182
102
}
330
182
100
DictionaryVariables
280
     0
  1
1
  0
DICTIONARYVAR
  5
186
102
{ACAD_REACTORS
330
182
102
}
330
182
100
DictionaryVariables
280
     0
  1
80.000000
  0
DICTIONARYVAR
  5
185
102
{ACAD_REACTORS
330
182
102
}
330
182
100
DictionaryVariables
280
     0
  1
5.000000
  0
DICTIONARY
  5
1C3
330
45
100
AcDbDictionary
280
     1
281
     1
  3
ACAD_XREC_ROUNDTRIP
360
1C4
  0
DICTIONARY
  5
1C1
330
44
100
AcDbDictionary
280
     1
281
     1
  3
ACAD_XREC_ROUNDTRIP
360
1C2
  0
DICTIONARY
  5
1C5
330
46
100
AcDbDictionary
280
     1
281
     1
  3
ACAD_XREC_ROUNDTRIP
360
1C6
  0
DICTIONARY
  5
1C8
330
6C
100
AcDbDictionary
280
     1
281
     1
  3
ACAD_XREC_ROUNDTRIP
360
1C9
  0
DICTIONARY
  5
199
330
2F
100
AcDbDictionary
280
     1
281
     1
  3
ACAD_XREC_ROUNDTRIP
360
19A
  0
DICTIONARY
  5
19F
330
32
100
AcDbDictionary
280
     1
281
     1
  3
ACAD_XREC_ROUNDTRIP
360
1A0
  0
DICTIONARY
  5
1A7
330
36
100
AcDbDictionary
280
     1
281
     1
  3
ACAD_XREC_ROUNDTRIP
360
1A8
  0
DICTIONARY
  5
1AF
330
3A
100
AcDbDictionary
280
     1
281
     1
  3
ACAD_XREC_ROUNDTRIP
360
1B0
  0
DICTIONARY
  5
1A3
330
34
100
AcDbDictionary
280
     1
281
     1
  3
ACAD_XREC_ROUNDTRIP
360
1A4
  0
DICTIONARY
  5
1A5
330
35
100
AcDbDictionary
280
     1
281
     1
  3
ACAD_XREC_ROUNDTRIP
360
1A6
  0
DICTIONARY
  5
1B5
330
3D
100
AcDbDictionary
280
     1
281
     1
  3
ACAD_XREC_ROUNDTRIP
360
1B6
  0
DICTIONARY
  5
1AD
330
39
100
AcDbDictionary
280
     1
281
     1
  3
ACAD_XREC_ROUNDTRIP
360
1AE
  0
DICTIONARY
  5
191
330
2B
100
AcDbDictionary
280
     1
281
     1
  3
ACAD_XREC_ROUNDTRIP
360
192
  0
DICTIONARY
  5
193
330
2C
100
AcDbDictionary
280
     1
281
     1
  3
ACAD_XREC_ROUNDTRIP
360
194
  0
DICTIONARY
  5
195
330
2D
100
AcDbDictionary
280
     1
281
     1
  3
ACAD_XREC_ROUNDTRIP
360
196
  0
DICTIONARY
  5
197
330
2E
100
AcDbDictionary
280
     1
281
     1
  3
ACAD_XREC_ROUNDTRIP
360
198
  0
DICTIONARY
  5
19D
330
31
100
AcDbDictionary
280
     1
281
     1
  3
ACAD_XREC_ROUNDTRIP
360
19E
  0
DICTIONARY
  5
1B1
330
3B
100
AcDbDictionary
280
     1
281
     1
  3
ACAD_XREC_ROUNDTRIP
360
1B2
  0
DICTIONARY
  5
1AB
330
38
100
AcDbDictionary
280
     1
281
     1
  3
ACAD_XREC_ROUNDTRIP
360
1AC
  0
DICTIONARY
  5
1B3
330
3C
100
AcDbDictionary
280
     1
281
     1
  3
ACAD_XREC_ROUNDTRIP
360
1B4
  0
DICTIONARY
  5
1A1
330
33
100
AcDbDictionary
280
     1
281
     1
  3
ACAD_XREC_ROUNDTRIP
360
1A2
  0
DICTIONARY
  5
1BF
330
42
100
AcDbDictionary
280
     1
281
     1
  3
ACAD_XREC_ROUNDTRIP
360
1C0
  0
DICTIONARY
  5
1BD
330
41
100
AcDbDictionary
280
     1
281
     1
  3
ACAD_XREC_ROUNDTRIP
360
1BE
  0
DICTIONARY
  5
1B7
330
3E
100
AcDbDictionary
280
     1
281
     1
  3
ACAD_XREC_ROUNDTRIP
360
1B8
  0
DICTIONARY
  5
1B9
330
3F
100
AcDbDictionary
280
     1
281
     1
  3
ACAD_XREC_ROUNDTRIP
360
1BA
  0
DICTIONARY
  5
1A9
330
37
100
AcDbDictionary
280
     1
281
     1
  3
ACAD_XREC_ROUNDTRIP
360
1AA
  0
DICTIONARY
  5
19B
330
30
100
AcDbDictionary
280
     1
281
     1
  3
ACAD_XREC_ROUNDTRIP
360
19C
  0
DICTIONARY
  5
1BB
330
40
100
AcDbDictionary
280
     1
281
     1
  3
ACAD_XREC_ROUNDTRIP
360
1BC
  0
XRECORD
  5
1C4
102
{ACAD_REACTORS
330
1C3
102
}
330
1C3
100
AcDbXrecord
280
     1
102
MATERIAL
148
0.0
149
0.0
149
0.0
 93
        0
 94
      127
282
     0
 72
     1
 77
     1
171
     1
175
     1
179
     1
273
     0
  0
XRECORD
  5
1C2
102
{ACAD_REACTORS
330
1C1
102
}
330
1C1
100
AcDbXrecord
280
     1
102
MATERIAL
148
0.0
149
0.0
149
0.0
 93
        0
 94
      127
282
     0
 72
     1
 77
     1
171
     1
175
     1
179
     1
273
     0
  0
XRECORD
  5
1C6
102
{ACAD_REACTORS
330
1C5
102
}
330
1C5
100
AcDbXrecord
280
     1
102
MATERIAL
148
0.0
149
0.0
149
0.0
 93
        0
 94
      127
282
     0
 72
     1
 77
     1
171
     1
175
     1
179
     1
273
     0
  0
XRECORD
  5
1C9
102
{ACAD_REACTORS
330
1C8
102
}
330
1C8
100
AcDbXrecord
280
     1
102
ACAD_ROUNDTRIP_2010_MLEADER_STYLE
  0
XRECORD
  5
19A
102
{ACAD_REACTORS
330
199
102
}
330
199
100
AcDbXrecord
280
     1
102
RTVSPropertyOp0
 70
     1
102
RTVSPropertyOp1
 70
     1
102
RTVSPropertyOp2
 70
     1
102
RTVSPropertyOp3
 70
     1
102
RTVSPropertyOp4
 70
     1
102
RTVSPropertyOp5
 70
     1
102
RTVSPropertyOp6
 70
     1
102
RTVSPropertyOp7
 70
     1
102
RTVSPropertyOp8
 70
     1
102
RTVSPropertyOp9
 70
     1
102
RTVSPropertyOp10
 70
     1
102
RTVSPropertyOp11
 70
     1
102
RTVSPropertyOp12
 70
     1
102
RTVSPropertyOp13
 70
     1
102
RTVSPropertyOp14
 70
     1
102
RTVSPropertyOp15
 70
     1
102
RTVSPropertyOp16
 70
     1
102
RTVSPropertyOp17
 70
     1
102
RTVSPropertyOp18
 70
     1
102
RTVSPropertyOp19
 70
     1
102
RTVSPropertyOp20
 70
     1
102
RTVSPropertyOp21
 70
     1
102
RTVSPropertyOp22
 70
     1
102
RTVSPropertyOp23
 70
     1
102
RTVSPropertyOp24
 70
     1
102
RTVSPropertyOp25
 70
     1
102
RTVSPropertyOp26
 70
     1
102
RTVSPropertyOp27
 70
     1
102
RTVSPropertyOp28
 70
     1
102
RTVSPropertyOp29
 70
     1
102
RTVSPropertyOp30
 70
     1
102
RTVSPropertyOp31
 70
     1
102
RTVSPropertyOp32
 70
     1
102
RTVSPropertyOp33
 70
     1
102
RTVSPropertyOp34
 70
     1
102
RTVSPropertyOp35
 70
     1
102
RTVSPropertyOp36
 70
     1
102
RTVSPropertyOp37
 70
     1
102
RTVSPropertyOp38
 70
     1
102
RTVSPropertyOp39
 70
     1
102
RTVSPropertyOp40
 70
     1
102
RTVSPropertyOp41
 70
     1
102
RTVSPropertyOp42
 70
     1
102
RTVSPropertyOp43
 70
     1
102
RTVSPropertyOp44
 70
     1
102
RTVSPropertyOp45
 70
     1
102
RTVSPropertyOp46
 70
     1
102
RTVSPropertyOp47
 70
     1
102
RTVSPropertyOp48
 70
     1
102
RTVSPropertyOp49
 70
     1
102
RTVSPropertyOp50
 70
     1
102
RTVSPropertyOp51
 70
     0
102
RTVSPropertyOp52
 70
     0
102
RTVSPropertyOp53
 70
     1
102
RTVSPropertyOp54
 70
     1
102
RTVSPropertyOp55
 70
     1
102
RTVSPropertyOp56
 70
     1
102
RTVSPropertyOp57
 70
     1
102
RTVSPost2010Prop28
280
     1
102
RTVSPost2010PropOp28
 70
     1
102
RTVSPost2010Prop29
280
     1
102
RTVSPost2010PropOp29
 70
     1
102
RTVSPost2010Prop30
280
     0
102
RTVSPost2010PropOp30
 70
     1
102
RTVSPost2010Prop31
280
     0
102
RTVSPost2010PropOp31
 70
     1
102
RTVSPost2010Prop32
280
     0
102
RTVSPost2010PropOp32
 70
     1
102
RTVSPost2010Prop33
280
     0
102
RTVSPost2010PropOp33
 70
     1
102
RTVSPost2010Prop34
280
     0
102
RTVSPost2010PropOp34
 70
     1
102
RTVSPost2010Prop35
280
     0
102
RTVSPost2010PropOp35
 70
     1
102
RTVSPost2010Prop36
280
     0
102
RTVSPost2010PropOp36
 70
     1
102
RTVSPost2010Prop37
 90
       50
102
RTVSPost2010PropOp37
 70
     1
102
RTVSPost2010Prop38
140
0.0
102
RTVSPost2010PropOp38
 70
     1
102
RTVSPost2010Prop39
140
1.0
102
RTVSPost2010PropOp39
 70
     1
102
RTVSPost2010Prop40
 90
        0
102
RTVSPost2010PropOp40
 70
     1
102
RTVSPost2010Prop41ColorIndex
 90
       18
102
RTVSPost2010Prop41ColorRGB
 90
        0
102
RTVSPost2010PropOp41
 70
     1
102
RTVSPost2010Prop42
 90
       50
102
RTVSPost2010PropOp42
 70
     1
102
RTVSPost2010Prop43
 90
        3
102
RTVSPost2010PropOp43
 70
     1
102
RTVSPost2010Prop44ColorIndex
 90
        5
102
RTVSPost2010Prop44ColorRGB
 90
      255
102
RTVSPost2010PropOp44
 70
     1
102
RTVSPost2010Prop45
280
     0
102
RTVSPost2010PropOp45
 70
     1
102
RTVSPost2010Prop46
 90
       50
102
RTVSPost2010PropOp46
 70
     1
102
RTVSPost2010Prop47
 90
       50
102
RTVSPost2010PropOp47
 70
     1
102
RTVSPost2010Prop48
 90
       50
102
RTVSPost2010PropOp48
 70
     1
102
RTVSPost2010Prop49
280
     0
102
RTVSPost2010PropOp49
 70
     1
102
RTVSPost2010Prop50
 90
       50
102
RTVSPost2010PropOp50
 70
     1
102
RTVSPost2010Prop51ColorIndex
 90
      256
102
RTVSPost2010Prop51ColorRGB
 90
-16777216
102
RTVSPost2010PropOp51
 70
     0
102
RTVSPost2010Prop52
140
1.0
102
RTVSPost2010PropOp52
 70
     0
102
RTVSPost2010Prop53
 90
        2
102
RTVSPost2010PropOp53
 70
     1
102
RTVSPost2010Prop54
  1
strokes_ogs.tif
102
RTVSPost2010PropOp54
 70
     1
102
RTVSPost2010Prop55
280
     0
102
RTVSPost2010PropOp55
 70
     1
102
RTVSPost2010Prop56
140
1.0
102
RTVSPost2010PropOp56
 70
     1
102
RTVSPost2010Prop57
140
1.0
102
RTVSPost2010PropOp57
 70
     1
  0
XRECORD
  5
1A0
102
{ACAD_REACTORS
330
19F
102
}
330
19F
100
AcDbXrecord
280
     1
102
RTVSPropertyOp0
 70
     1
102
RTVSPropertyOp1
 70
     1
102
RTVSPropertyOp2
 70
     1
102
RTVSPropertyOp3
 70
     1
102
RTVSPropertyOp4
 70
     1
102
RTVSPropertyOp5
 70
     1
102
RTVSPropertyOp6
 70
     1
102
RTVSPropertyOp7
 70
     1
102
RTVSPropertyOp8
 70
     1
102
RTVSPropertyOp9
 70
     1
102
RTVSPropertyOp10
 70
     1
102
RTVSPropertyOp11
 70
     1
102
RTVSPropertyOp12
 70
     1
102
RTVSPropertyOp13
 70
     1
102
RTVSPropertyOp14
 70
     1
102
RTVSPropertyOp15
 70
     1
102
RTVSPropertyOp16
 70
     1
102
RTVSPropertyOp17
 70
     1
102
RTVSPropertyOp18
 70
     1
102
RTVSPropertyOp19
 70
     1
102
RTVSPropertyOp20
 70
     1
102
RTVSPropertyOp21
 70
     1
102
RTVSPropertyOp22
 70
     1
102
RTVSPropertyOp23
 70
     1
102
RTVSPropertyOp24
 70
     1
102
RTVSPropertyOp25
 70
     1
102
RTVSPropertyOp26
 70
     1
102
RTVSPropertyOp27
 70
     1
102
RTVSPropertyOp28
 70
     1
102
RTVSPropertyOp29
 70
     1
102
RTVSPropertyOp30
 70
     1
102
RTVSPropertyOp31
 70
     1
102
RTVSPropertyOp32
 70
     1
102
RTVSPropertyOp33
 70
     1
102
RTVSPropertyOp34
 70
     1
102
RTVSPropertyOp35
 70
     1
102
RTVSPropertyOp36
 70
     1
102
RTVSPropertyOp37
 70
     1
102
RTVSPropertyOp38
 70
     1
102
RTVSPropertyOp39
 70
     1
102
RTVSPropertyOp40
 70
     1
102
RTVSPropertyOp41
 70
     1
102
RTVSPropertyOp42
 70
     1
102
RTVSPropertyOp43
 70
     1
102
RTVSPropertyOp44
 70
     1
102
RTVSPropertyOp45
 70
     1
102
RTVSPropertyOp46
 70
     1
102
RTVSPropertyOp47
 70
     1
102
RTVSPropertyOp48
 70
     1
102
RTVSPropertyOp49
 70
     1
102
RTVSPropertyOp50
 70
     1
102
RTVSPropertyOp51
 70
     0
102
RTVSPropertyOp52
 70
     0
102
RTVSPropertyOp53
 70
     1
102
RTVSPropertyOp54
 70
     1
102
RTVSPropertyOp55
 70
     1
102
RTVSPropertyOp56
 70
     1
102
RTVSPropertyOp57
 70
     1
102
RTVSPost2010Prop28
280
     0
102
RTVSPost2010PropOp28
 70
     1
102
RTVSPost2010Prop29
280
     1
102
RTVSPost2010PropOp29
 70
     1
102
RTVSPost2010Prop30
280
     1
102
RTVSPost2010PropOp30
 70
     1
102
RTVSPost2010Prop31
280
     0
102
RTVSPost2010PropOp31
 70
     1
102
RTVSPost2010Prop32
280
     0
102
RTVSPost2010PropOp32
 70
     1
102
RTVSPost2010Prop33
280
     0
102
RTVSPost2010PropOp33
 70
     1
102
RTVSPost2010Prop34
280
     0
102
RTVSPost2010PropOp34
 70
     1
102
RTVSPost2010Prop35
280
     0
102
RTVSPost2010PropOp35
 70
     1
102
RTVSPost2010Prop36
280
     0
102
RTVSPost2010PropOp36
 70
     1
102
RTVSPost2010Prop37
 90
       50
102
RTVSPost2010PropOp37
 70
     1
102
RTVSPost2010Prop38
140
0.0
102
RTVSPost2010PropOp38
 70
     1
102
RTVSPost2010Prop39
140
1.0
102
RTVSPost2010PropOp39
 70
     1
102
RTVSPost2010Prop40
 90
        0
102
RTVSPost2010PropOp40
 70
     1
102
RTVSPost2010Prop41ColorIndex
 90
       18
102
RTVSPost2010Prop41ColorRGB
 90
        0
102
RTVSPost2010PropOp41
 70
     1
102
RTVSPost2010Prop42
 90
       50
102
RTVSPost2010PropOp42
 70
     1
102
RTVSPost2010Prop43
 90
        3
102
RTVSPost2010PropOp43
 70
     1
102
RTVSPost2010Prop44ColorIndex
 90
        5
102
RTVSPost2010Prop44ColorRGB
 90
      255
102
RTVSPost2010PropOp44
 70
     1
102
RTVSPost2010Prop45
280
     0
102
RTVSPost2010PropOp45
 70
     1
102
RTVSPost2010Prop46
 90
       50
102
RTVSPost2010PropOp46
 70
     1
102
RTVSPost2010Prop47
 90
       50
102
RTVSPost2010PropOp47
 70
     1
102
RTVSPost2010Prop48
 90
       50
102
RTVSPost2010PropOp48
 70
     1
102
RTVSPost2010Prop49
280
     0
102
RTVSPost2010PropOp49
 70
     1
102
RTVSPost2010Prop50
 90
       50
102
RTVSPost2010PropOp50
 70
     1
102
RTVSPost2010Prop51ColorIndex
 90
      256
102
RTVSPost2010Prop51ColorRGB
 90
-16777216
102
RTVSPost2010PropOp51
 70
     0
102
RTVSPost2010Prop52
140
1.0
102
RTVSPost2010PropOp52
 70
     0
102
RTVSPost2010Prop53
 90
        2
102
RTVSPost2010PropOp53
 70
     1
102
RTVSPost2010Prop54
  1
strokes_ogs.tif
102
RTVSPost2010PropOp54
 70
     1
102
RTVSPost2010Prop55
280
     0
102
RTVSPost2010PropOp55
 70
     1
102
RTVSPost2010Prop56
140
1.0
102
RTVSPost2010PropOp56
 70
     1
102
RTVSPost2010Prop57
140
1.0
102
RTVSPost2010PropOp57
 70
     1
  0
XRECORD
  5
1A8
102
{ACAD_REACTORS
330
1A7
102
}
330
1A7
100
AcDbXrecord
280
     1
102
RTVSPropertyOp0
 70
     1
102
RTVSPropertyOp1
 70
     1
102
RTVSPropertyOp2
 70
     1
102
RTVSPropertyOp3
 70
     1
102
RTVSPropertyOp4
 70
     1
102
RTVSPropertyOp5
 70
     1
102
RTVSPropertyOp6
 70
     1
102
RTVSPropertyOp7
 70
     1
102
RTVSPropertyOp8
 70
     1
102
RTVSPropertyOp9
 70
     1
102
RTVSPropertyOp10
 70
     1
102
RTVSPropertyOp11
 70
     1
102
RTVSPropertyOp12
 70
     1
102
RTVSPropertyOp13
 70
     1
102
RTVSPropertyOp14
 70
     1
102
RTVSPropertyOp15
 70
     1
102
RTVSPropertyOp16
 70
     1
102
RTVSPropertyOp17
 70
     1
102
RTVSPropertyOp18
 70
     1
102
RTVSPropertyOp19
 70
     1
102
RTVSPropertyOp20
 70
     1
102
RTVSPropertyOp21
 70
     1
102
RTVSPropertyOp22
 70
     1
102
RTVSPropertyOp23
 70
     1
102
RTVSPropertyOp24
 70
     1
102
RTVSPropertyOp25
 70
     1
102
RTVSPropertyOp26
 70
     1
102
RTVSPropertyOp27
 70
     1
102
RTVSPropertyOp28
 70
     1
102
RTVSPropertyOp29
 70
     1
102
RTVSPropertyOp30
 70
     1
102
RTVSPropertyOp31
 70
     1
102
RTVSPropertyOp32
 70
     1
102
RTVSPropertyOp33
 70
     1
102
RTVSPropertyOp34
 70
     1
102
RTVSPropertyOp35
 70
     1
102
RTVSPropertyOp36
 70
     1
102
RTVSPropertyOp37
 70
     1
102
RTVSPropertyOp38
 70
     1
102
RTVSPropertyOp39
 70
     1
102
RTVSPropertyOp40
 70
     1
102
RTVSPropertyOp41
 70
     1
102
RTVSPropertyOp42
 70
     1
102
RTVSPropertyOp43
 70
     1
102
RTVSPropertyOp44
 70
     1
102
RTVSPropertyOp45
 70
     1
102
RTVSPropertyOp46
 70
     1
102
RTVSPropertyOp47
 70
     1
102
RTVSPropertyOp48
 70
     1
102
RTVSPropertyOp49
 70
     1
102
RTVSPropertyOp50
 70
     1
102
RTVSPropertyOp51
 70
     0
102
RTVSPropertyOp52
 70
     0
102
RTVSPropertyOp53
 70
     1
102
RTVSPropertyOp54
 70
     1
102
RTVSPropertyOp55
 70
     1
102
RTVSPropertyOp56
 70
     1
102
RTVSPropertyOp57
 70
     1
102
RTVSPost2010Prop28
280
     0
102
RTVSPost2010PropOp28
 70
     1
102
RTVSPost2010Prop29
280
     1
102
RTVSPost2010PropOp29
 70
     1
102
RTVSPost2010Prop30
280
     1
102
RTVSPost2010PropOp30
 70
     1
102
RTVSPost2010Prop31
280
     0
102
RTVSPost2010PropOp31
 70
     1
102
RTVSPost2010Prop32
280
     0
102
RTVSPost2010PropOp32
 70
     1
102
RTVSPost2010Prop33
280
     0
102
RTVSPost2010PropOp33
 70
     1
102
RTVSPost2010Prop34
280
     0
102
RTVSPost2010PropOp34
 70
     1
102
RTVSPost2010Prop35
280
     0
102
RTVSPost2010PropOp35
 70
     1
102
RTVSPost2010Prop36
280
     0
102
RTVSPost2010PropOp36
 70
     1
102
RTVSPost2010Prop37
 90
       50
102
RTVSPost2010PropOp37
 70
     1
102
RTVSPost2010Prop38
140
0.0
102
RTVSPost2010PropOp38
 70
     1
102
RTVSPost2010Prop39
140
1.0
102
RTVSPost2010PropOp39
 70
     1
102
RTVSPost2010Prop40
 90
        0
102
RTVSPost2010PropOp40
 70
     1
102
RTVSPost2010Prop41ColorIndex
 90
       18
102
RTVSPost2010Prop41ColorRGB
 90
        0
102
RTVSPost2010PropOp41
 70
     1
102
RTVSPost2010Prop42
 90
       50
102
RTVSPost2010PropOp42
 70
     1
102
RTVSPost2010Prop43
 90
        3
102
RTVSPost2010PropOp43
 70
     1
102
RTVSPost2010Prop44ColorIndex
 90
        5
102
RTVSPost2010Prop44ColorRGB
 90
      255
102
RTVSPost2010PropOp44
 70
     1
102
RTVSPost2010Prop45
280
     0
102
RTVSPost2010PropOp45
 70
     1
102
RTVSPost2010Prop46
 90
       50
102
RTVSPost2010PropOp46
 70
     1
102
RTVSPost2010Prop47
 90
       50
102
RTVSPost2010PropOp47
 70
     1
102
RTVSPost2010Prop48
 90
       50
102
RTVSPost2010PropOp48
 70
     1
102
RTVSPost2010Prop49
280
     0
102
RTVSPost2010PropOp49
 70
     1
102
RTVSPost2010Prop50
 90
       50
102
RTVSPost2010PropOp50
 70
     1
102
RTVSPost2010Prop51ColorIndex
 90
      256
102
RTVSPost2010Prop51ColorRGB
 90
-16777216
102
RTVSPost2010PropOp51
 70
     0
102
RTVSPost2010Prop52
140
1.0
102
RTVSPost2010PropOp52
 70
     0
102
RTVSPost2010Prop53
 90
        2
102
RTVSPost2010PropOp53
 70
     1
102
RTVSPost2010Prop54
  1
strokes_ogs.tif
102
RTVSPost2010PropOp54
 70
     1
102
RTVSPost2010Prop55
280
     0
102
RTVSPost2010PropOp55
 70
     1
102
RTVSPost2010Prop56
140
1.0
102
RTVSPost2010PropOp56
 70
     1
102
RTVSPost2010Prop57
140
1.0
102
RTVSPost2010PropOp57
 70
     1
  0
XRECORD
  5
1B0
102
{ACAD_REACTORS
330
1AF
102
}
330
1AF
100
AcDbXrecord
280
     1
102
RTVSPropertyOp0
 70
     1
102
RTVSPropertyOp1
 70
     1
102
RTVSPropertyOp2
 70
     1
102
RTVSPropertyOp3
 70
     1
102
RTVSPropertyOp4
 70
     1
102
RTVSPropertyOp5
 70
     1
102
RTVSPropertyOp6
 70
     1
102
RTVSPropertyOp7
 70
     1
102
RTVSPropertyOp8
 70
     1
102
RTVSPropertyOp9
 70
     1
102
RTVSPropertyOp10
 70
     1
102
RTVSPropertyOp11
 70
     1
102
RTVSPropertyOp12
 70
     1
102
RTVSPropertyOp13
 70
     1
102
RTVSPropertyOp14
 70
     1
102
RTVSPropertyOp15
 70
     1
102
RTVSPropertyOp16
 70
     1
102
RTVSPropertyOp17
 70
     1
102
RTVSPropertyOp18
 70
     1
102
RTVSPropertyOp19
 70
     1
102
RTVSPropertyOp20
 70
     1
102
RTVSPropertyOp21
 70
     1
102
RTVSPropertyOp22
 70
     1
102
RTVSPropertyOp23
 70
     1
102
RTVSPropertyOp24
 70
     1
102
RTVSPropertyOp25
 70
     1
102
RTVSPropertyOp26
 70
     1
102
RTVSPropertyOp27
 70
     1
102
RTVSPropertyOp28
 70
     1
102
RTVSPropertyOp29
 70
     1
102
RTVSPropertyOp30
 70
     1
102
RTVSPropertyOp31
 70
     1
102
RTVSPropertyOp32
 70
     1
102
RTVSPropertyOp33
 70
     1
102
RTVSPropertyOp34
 70
     1
102
RTVSPropertyOp35
 70
     1
102
RTVSPropertyOp36
 70
     1
102
RTVSPropertyOp37
 70
     1
102
RTVSPropertyOp38
 70
     1
102
RTVSPropertyOp39
 70
     1
102
RTVSPropertyOp40
 70
     1
102
RTVSPropertyOp41
 70
     1
102
RTVSPropertyOp42
 70
     1
102
RTVSPropertyOp43
 70
     1
102
RTVSPropertyOp44
 70
     1
102
RTVSPropertyOp45
 70
     1
102
RTVSPropertyOp46
 70
     1
102
RTVSPropertyOp47
 70
     1
102
RTVSPropertyOp48
 70
     1
102
RTVSPropertyOp49
 70
     1
102
RTVSPropertyOp50
 70
     1
102
RTVSPropertyOp51
 70
     0
102
RTVSPropertyOp52
 70
     0
102
RTVSPropertyOp53
 70
     1
102
RTVSPropertyOp54
 70
     1
102
RTVSPropertyOp55
 70
     1
102
RTVSPropertyOp56
 70
     1
102
RTVSPropertyOp57
 70
     1
102
RTVSPost2010Prop28
280
     0
102
RTVSPost2010PropOp28
 70
     1
102
RTVSPost2010Prop29
280
     1
102
RTVSPost2010PropOp29
 70
     1
102
RTVSPost2010Prop30
280
     1
102
RTVSPost2010PropOp30
 70
     1
102
RTVSPost2010Prop31
280
     0
102
RTVSPost2010PropOp31
 70
     1
102
RTVSPost2010Prop32
280
     0
102
RTVSPost2010PropOp32
 70
     1
102
RTVSPost2010Prop33
280
     0
102
RTVSPost2010PropOp33
 70
     1
102
RTVSPost2010Prop34
280
     0
102
RTVSPost2010PropOp34
 70
     1
102
RTVSPost2010Prop35
280
     0
102
RTVSPost2010PropOp35
 70
     1
102
RTVSPost2010Prop36
280
     0
102
RTVSPost2010PropOp36
 70
     1
102
RTVSPost2010Prop37
 90
       50
102
RTVSPost2010PropOp37
 70
     1
102
RTVSPost2010Prop38
140
0.0
102
RTVSPost2010PropOp38
 70
     1
102
RTVSPost2010Prop39
140
1.0
102
RTVSPost2010PropOp39
 70
     1
102
RTVSPost2010Prop40
 90
        0
102
RTVSPost2010PropOp40
 70
     1
102
RTVSPost2010Prop41ColorIndex
 90
       18
102
RTVSPost2010Prop41ColorRGB
 90
        0
102
RTVSPost2010PropOp41
 70
     1
102
RTVSPost2010Prop42
 90
       50
102
RTVSPost2010PropOp42
 70
     1
102
RTVSPost2010Prop43
 90
        3
102
RTVSPost2010PropOp43
 70
     1
102
RTVSPost2010Prop44ColorIndex
 90
        5
102
RTVSPost2010Prop44ColorRGB
 90
      255
102
RTVSPost2010PropOp44
 70
     1
102
RTVSPost2010Prop45
280
     0
102
RTVSPost2010PropOp45
 70
     1
102
RTVSPost2010Prop46
 90
       50
102
RTVSPost2010PropOp46
 70
     1
102
RTVSPost2010Prop47
 90
       50
102
RTVSPost2010PropOp47
 70
     1
102
RTVSPost2010Prop48
 90
       50
102
RTVSPost2010PropOp48
 70
     1
102
RTVSPost2010Prop49
280
     0
102
RTVSPost2010PropOp49
 70
     1
102
RTVSPost2010Prop50
 90
       50
102
RTVSPost2010PropOp50
 70
     1
102
RTVSPost2010Prop51ColorIndex
 90
      256
102
RTVSPost2010Prop51ColorRGB
 90
-16777216
102
RTVSPost2010PropOp51
 70
     0
102
RTVSPost2010Prop52
140
1.0
102
RTVSPost2010PropOp52
 70
     0
102
RTVSPost2010Prop53
 90
        2
102
RTVSPost2010PropOp53
 70
     1
102
RTVSPost2010Prop54
  1
strokes_ogs.tif
102
RTVSPost2010PropOp54
 70
     1
102
RTVSPost2010Prop55
280
     0
102
RTVSPost2010PropOp55
 70
     1
102
RTVSPost2010Prop56
140
1.0
102
RTVSPost2010PropOp56
 70
     1
102
RTVSPost2010Prop57
140
1.0
102
RTVSPost2010PropOp57
 70
     1
  0
XRECORD
  5
1A4
102
{ACAD_REACTORS
330
1A3
102
}
330
1A3
100
AcDbXrecord
280
     1
102
RTVSPropertyOp0
 70
     1
102
RTVSPropertyOp1
 70
     1
102
RTVSPropertyOp2
 70
     1
102
RTVSPropertyOp3
 70
     1
102
RTVSPropertyOp4
 70
     1
102
RTVSPropertyOp5
 70
     1
102
RTVSPropertyOp6
 70
     1
102
RTVSPropertyOp7
 70
     1
102
RTVSPropertyOp8
 70
     1
102
RTVSPropertyOp9
 70
     1
102
RTVSPropertyOp10
 70
     1
102
RTVSPropertyOp11
 70
     1
102
RTVSPropertyOp12
 70
     1
102
RTVSPropertyOp13
 70
     1
102
RTVSPropertyOp14
 70
     1
102
RTVSPropertyOp15
 70
     1
102
RTVSPropertyOp16
 70
     1
102
RTVSPropertyOp17
 70
     1
102
RTVSPropertyOp18
 70
     1
102
RTVSPropertyOp19
 70
     1
102
RTVSPropertyOp20
 70
     1
102
RTVSPropertyOp21
 70
     1
102
RTVSPropertyOp22
 70
     1
102
RTVSPropertyOp23
 70
     1
102
RTVSPropertyOp24
 70
     1
102
RTVSPropertyOp25
 70
     1
102
RTVSPropertyOp26
 70
     1
102
RTVSPropertyOp27
 70
     1
102
RTVSPropertyOp28
 70
     1
102
RTVSPropertyOp29
 70
     1
102
RTVSPropertyOp30
 70
     1
102
RTVSPropertyOp31
 70
     1
102
RTVSPropertyOp32
 70
     1
102
RTVSPropertyOp33
 70
     1
102
RTVSPropertyOp34
 70
     1
102
RTVSPropertyOp35
 70
     1
102
RTVSPropertyOp36
 70
     1
102
RTVSPropertyOp37
 70
     1
102
RTVSPropertyOp38
 70
     1
102
RTVSPropertyOp39
 70
     1
102
RTVSPropertyOp40
 70
     1
102
RTVSPropertyOp41
 70
     1
102
RTVSPropertyOp42
 70
     1
102
RTVSPropertyOp43
 70
     1
102
RTVSPropertyOp44
 70
     1
102
RTVSPropertyOp45
 70
     1
102
RTVSPropertyOp46
 70
     1
102
RTVSPropertyOp47
 70
     1
102
RTVSPropertyOp48
 70
     1
102
RTVSPropertyOp49
 70
     1
102
RTVSPropertyOp50
 70
     1
102
RTVSPropertyOp51
 70
     0
102
RTVSPropertyOp52
 70
     0
102
RTVSPropertyOp53
 70
     1
102
RTVSPropertyOp54
 70
     1
102
RTVSPropertyOp55
 70
     1
102
RTVSPropertyOp56
 70
     1
102
RTVSPropertyOp57
 70
     1
102
RTVSPost2010Prop28
280
     0
102
RTVSPost2010PropOp28
 70
     1
102
RTVSPost2010Prop29
280
     1
102
RTVSPost2010PropOp29
 70
     1
102
RTVSPost2010Prop30
280
     1
102
RTVSPost2010PropOp30
 70
     1
102
RTVSPost2010Prop31
280
     0
102
RTVSPost2010PropOp31
 70
     1
102
RTVSPost2010Prop32
280
     0
102
RTVSPost2010PropOp32
 70
     1
102
RTVSPost2010Prop33
280
     0
102
RTVSPost2010PropOp33
 70
     1
102
RTVSPost2010Prop34
280
     0
102
RTVSPost2010PropOp34
 70
     1
102
RTVSPost2010Prop35
280
     0
102
RTVSPost2010PropOp35
 70
     1
102
RTVSPost2010Prop36
280
     0
102
RTVSPost2010PropOp36
 70
     1
102
RTVSPost2010Prop37
 90
       50
102
RTVSPost2010PropOp37
 70
     1
102
RTVSPost2010Prop38
140
0.0
102
RTVSPost2010PropOp38
 70
     1
102
RTVSPost2010Prop39
140
1.0
102
RTVSPost2010PropOp39
 70
     1
102
RTVSPost2010Prop40
 90
        0
102
RTVSPost2010PropOp40
 70
     1
102
RTVSPost2010Prop41ColorIndex
 90
       18
102
RTVSPost2010Prop41ColorRGB
 90
        0
102
RTVSPost2010PropOp41
 70
     1
102
RTVSPost2010Prop42
 90
       50
102
RTVSPost2010PropOp42
 70
     1
102
RTVSPost2010Prop43
 90
        3
102
RTVSPost2010PropOp43
 70
     1
102
RTVSPost2010Prop44ColorIndex
 90
        5
102
RTVSPost2010Prop44ColorRGB
 90
      255
102
RTVSPost2010PropOp44
 70
     1
102
RTVSPost2010Prop45
280
     0
102
RTVSPost2010PropOp45
 70
     1
102
RTVSPost2010Prop46
 90
       50
102
RTVSPost2010PropOp46
 70
     1
102
RTVSPost2010Prop47
 90
       50
102
RTVSPost2010PropOp47
 70
     1
102
RTVSPost2010Prop48
 90
       50
102
RTVSPost2010PropOp48
 70
     1
102
RTVSPost2010Prop49
280
     0
102
RTVSPost2010PropOp49
 70
     1
102
RTVSPost2010Prop50
 90
       50
102
RTVSPost2010PropOp50
 70
     1
102
RTVSPost2010Prop51ColorIndex
 90
      256
102
RTVSPost2010Prop51ColorRGB
 90
-16777216
102
RTVSPost2010PropOp51
 70
     0
102
RTVSPost2010Prop52
140
1.0
102
RTVSPost2010PropOp52
 70
     0
102
RTVSPost2010Prop53
 90
        2
102
RTVSPost2010PropOp53
 70
     1
102
RTVSPost2010Prop54
  1
strokes_ogs.tif
102
RTVSPost2010PropOp54
 70
     1
102
RTVSPost2010Prop55
280
     0
102
RTVSPost2010PropOp55
 70
     1
102
RTVSPost2010Prop56
140
1.0
102
RTVSPost2010PropOp56
 70
     1
102
RTVSPost2010Prop57
140
1.0
102
RTVSPost2010PropOp57
 70
     1
  0
XRECORD
  5
1A6
102
{ACAD_REACTORS
330
1A5
102
}
330
1A5
100
AcDbXrecord
280
     1
102
RTVSPropertyOp0
 70
     1
102
RTVSPropertyOp1
 70
     1
102
RTVSPropertyOp2
 70
     1
102
RTVSPropertyOp3
 70
     1
102
RTVSPropertyOp4
 70
     1
102
RTVSPropertyOp5
 70
     1
102
RTVSPropertyOp6
 70
     1
102
RTVSPropertyOp7
 70
     1
102
RTVSPropertyOp8
 70
     1
102
RTVSPropertyOp9
 70
     1
102
RTVSPropertyOp10
 70
     1
102
RTVSPropertyOp11
 70
     1
102
RTVSPropertyOp12
 70
     1
102
RTVSPropertyOp13
 70
     1
102
RTVSPropertyOp14
 70
     1
102
RTVSPropertyOp15
 70
     1
102
RTVSPropertyOp16
 70
     1
102
RTVSPropertyOp17
 70
     1
102
RTVSPropertyOp18
 70
     1
102
RTVSPropertyOp19
 70
     1
102
RTVSPropertyOp20
 70
     1
102
RTVSPropertyOp21
 70
     1
102
RTVSPropertyOp22
 70
     1
102
RTVSPropertyOp23
 70
     1
102
RTVSPropertyOp24
 70
     1
102
RTVSPropertyOp25
 70
     1
102
RTVSPropertyOp26
 70
     1
102
RTVSPropertyOp27
 70
     1
102
RTVSPropertyOp28
 70
     1
102
RTVSPropertyOp29
 70
     1
102
RTVSPropertyOp30
 70
     1
102
RTVSPropertyOp31
 70
     1
102
RTVSPropertyOp32
 70
     1
102
RTVSPropertyOp33
 70
     1
102
RTVSPropertyOp34
 70
     1
102
RTVSPropertyOp35
 70
     1
102
RTVSPropertyOp36
 70
     1
102
RTVSPropertyOp37
 70
     1
102
RTVSPropertyOp38
 70
     1
102
RTVSPropertyOp39
 70
     1
102
RTVSPropertyOp40
 70
     1
102
RTVSPropertyOp41
 70
     1
102
RTVSPropertyOp42
 70
     1
102
RTVSPropertyOp43
 70
     1
102
RTVSPropertyOp44
 70
     1
102
RTVSPropertyOp45
 70
     1
102
RTVSPropertyOp46
 70
     1
102
RTVSPropertyOp47
 70
     1
102
RTVSPropertyOp48
 70
     1
102
RTVSPropertyOp49
 70
     1
102
RTVSPropertyOp50
 70
     1
102
RTVSPropertyOp51
 70
     0
102
RTVSPropertyOp52
 70
     0
102
RTVSPropertyOp53
 70
     1
102
RTVSPropertyOp54
 70
     1
102
RTVSPropertyOp55
 70
     1
102
RTVSPropertyOp56
 70
     1
102
RTVSPropertyOp57
 70
     1
102
RTVSPost2010Prop28
280
     0
102
RTVSPost2010PropOp28
 70
     1
102
RTVSPost2010Prop29
280
     1
102
RTVSPost2010PropOp29
 70
     1
102
RTVSPost2010Prop30
280
     1
102
RTVSPost2010PropOp30
 70
     1
102
RTVSPost2010Prop31
280
     0
102
RTVSPost2010PropOp31
 70
     1
102
RTVSPost2010Prop32
280
     0
102
RTVSPost2010PropOp32
 70
     1
102
RTVSPost2010Prop33
280
     0
102
RTVSPost2010PropOp33
 70
     1
102
RTVSPost2010Prop34
280
     0
102
RTVSPost2010PropOp34
 70
     1
102
RTVSPost2010Prop35
280
     0
102
RTVSPost2010PropOp35
 70
     1
102
RTVSPost2010Prop36
280
     0
102
RTVSPost2010PropOp36
 70
     1
102
RTVSPost2010Prop37
 90
       50
102
RTVSPost2010PropOp37
 70
     1
102
RTVSPost2010Prop38
140
0.0
102
RTVSPost2010PropOp38
 70
     1
102
RTVSPost2010Prop39
140
1.0
102
RTVSPost2010PropOp39
 70
     1
102
RTVSPost2010Prop40
 90
        0
102
RTVSPost2010PropOp40
 70
     1
102
RTVSPost2010Prop41ColorIndex
 90
       18
102
RTVSPost2010Prop41ColorRGB
 90
        0
102
RTVSPost2010PropOp41
 70
     1
102
RTVSPost2010Prop42
 90
       50
102
RTVSPost2010PropOp42
 70
     1
102
RTVSPost2010Prop43
 90
        3
102
RTVSPost2010PropOp43
 70
     1
102
RTVSPost2010Prop44ColorIndex
 90
        5
102
RTVSPost2010Prop44ColorRGB
 90
      255
102
RTVSPost2010PropOp44
 70
     1
102
RTVSPost2010Prop45
280
     0
102
RTVSPost2010PropOp45
 70
     1
102
RTVSPost2010Prop46
 90
       50
102
RTVSPost2010PropOp46
 70
     1
102
RTVSPost2010Prop47
 90
       50
102
RTVSPost2010PropOp47
 70
     1
102
RTVSPost2010Prop48
 90
       50
102
RTVSPost2010PropOp48
 70
     1
102
RTVSPost2010Prop49
280
     0
102
RTVSPost2010PropOp49
 70
     1
102
RTVSPost2010Prop50
 90
       50
102
RTVSPost2010PropOp50
 70
     1
102
RTVSPost2010Prop51ColorIndex
 90
      256
102
RTVSPost2010Prop51ColorRGB
 90
-16777216
102
RTVSPost2010PropOp51
 70
     0
102
RTVSPost2010Prop52
140
1.0
102
RTVSPost2010PropOp52
 70
     0
102
RTVSPost2010Prop53
 90
        2
102
RTVSPost2010PropOp53
 70
     1
102
RTVSPost2010Prop54
  1
strokes_ogs.tif
102
RTVSPost2010PropOp54
 70
     1
102
RTVSPost2010Prop55
280
     0
102
RTVSPost2010PropOp55
 70
     1
102
RTVSPost2010Prop56
140
1.0
102
RTVSPost2010PropOp56
 70
     1
102
RTVSPost2010Prop57
140
1.0
102
RTVSPost2010PropOp57
 70
     1
  0
XRECORD
  5
1B6
102
{ACAD_REACTORS
330
1B5
102
}
330
1B5
100
AcDbXrecord
280
     1
102
RTVSPropertyOp0
 70
     0
102
RTVSPropertyOp1
 70
     0
102
RTVSPropertyOp2
 70
     0
102
RTVSPropertyOp3
 70
     0
102
RTVSPropertyOp4
 70
     0
102
RTVSPropertyOp5
 70
     0
102
RTVSPropertyOp6
 70
     0
102
RTVSPropertyOp7
 70
     0
102
RTVSPropertyOp8
 70
     0
102
RTVSPropertyOp9
 70
     0
102
RTVSPropertyOp10
 70
     0
102
RTVSPropertyOp11
 70
     0
102
RTVSPropertyOp12
 70
     0
102
RTVSPropertyOp13
 70
     0
102
RTVSPropertyOp14
 70
     2
102
RTVSPropertyOp15
 70
     0
102
RTVSPropertyOp16
 70
     0
102
RTVSPropertyOp17
 70
     0
102
RTVSPropertyOp18
 70
     0
102
RTVSPropertyOp19
 70
     0
102
RTVSPropertyOp20
 70
     0
102
RTVSPropertyOp21
 70
     0
102
RTVSPropertyOp22
 70
     0
102
RTVSPropertyOp23
 70
     0
102
RTVSPropertyOp24
 70
     0
102
RTVSPropertyOp25
 70
     0
102
RTVSPropertyOp26
 70
     0
102
RTVSPropertyOp27
 70
     0
102
RTVSPropertyOp28
 70
     0
102
RTVSPropertyOp29
 70
     0
102
RTVSPropertyOp30
 70
     0
102
RTVSPropertyOp31
 70
     0
102
RTVSPropertyOp32
 70
     0
102
RTVSPropertyOp33
 70
     0
102
RTVSPropertyOp34
 70
     0
102
RTVSPropertyOp35
 70
     0
102
RTVSPropertyOp36
 70
     0
102
RTVSPropertyOp37
 70
     0
102
RTVSPropertyOp38
 70
     0
102
RTVSPropertyOp39
 70
     0
102
RTVSPropertyOp40
 70
     0
102
RTVSPropertyOp41
 70
     0
102
RTVSPropertyOp42
 70
     0
102
RTVSPropertyOp43
 70
     0
102
RTVSPropertyOp44
 70
     0
102
RTVSPropertyOp45
 70
     0
102
RTVSPropertyOp46
 70
     0
102
RTVSPropertyOp47
 70
     0
102
RTVSPropertyOp48
 70
     0
102
RTVSPropertyOp49
 70
     0
102
RTVSPropertyOp50
 70
     0
102
RTVSPropertyOp51
 70
     0
102
RTVSPropertyOp52
 70
     0
102
RTVSPropertyOp53
 70
     0
102
RTVSPropertyOp54
 70
     0
102
RTVSPropertyOp55
 70
     0
102
RTVSPropertyOp56
 70
     0
102
RTVSPropertyOp57
 70
     0
102
RTVSPost2010Prop28
280
     0
102
RTVSPost2010PropOp28
 70
     0
102
RTVSPost2010Prop29
280
     1
102
RTVSPost2010PropOp29
 70
     0
102
RTVSPost2010Prop30
280
     1
102
RTVSPost2010PropOp30
 70
     0
102
RTVSPost2010Prop31
280
     0
102
RTVSPost2010PropOp31
 70
     0
102
RTVSPost2010Prop32
280
     0
102
RTVSPost2010PropOp32
 70
     0
102
RTVSPost2010Prop33
280
     0
102
RTVSPost2010PropOp33
 70
     0
102
RTVSPost2010Prop34
280
     0
102
RTVSPost2010PropOp34
 70
     0
102
RTVSPost2010Prop35
280
     0
102
RTVSPost2010PropOp35
 70
     0
102
RTVSPost2010Prop36
280
     0
102
RTVSPost2010PropOp36
 70
     0
102
RTVSPost2010Prop37
 90
       50
102
RTVSPost2010PropOp37
 70
     0
102
RTVSPost2010Prop38
140
0.0
102
RTVSPost2010PropOp38
 70
     0
102
RTVSPost2010Prop39
140
1.0
102
RTVSPost2010PropOp39
 70
     0
102
RTVSPost2010Prop40
 90
        0
102
RTVSPost2010PropOp40
 70
     0
102
RTVSPost2010Prop41ColorIndex
 90
       18
102
RTVSPost2010Prop41ColorRGB
 90
        0
102
RTVSPost2010PropOp41
 70
     0
102
RTVSPost2010Prop42
 90
       50
102
RTVSPost2010PropOp42
 70
     0
102
RTVSPost2010Prop43
 90
        3
102
RTVSPost2010PropOp43
 70
     0
102
RTVSPost2010Prop44ColorIndex
 90
        5
102
RTVSPost2010Prop44ColorRGB
 90
      255
102
RTVSPost2010PropOp44
 70
     0
102
RTVSPost2010Prop45
280
     0
102
RTVSPost2010PropOp45
 70
     0
102
RTVSPost2010Prop46
 90
       50
102
RTVSPost2010PropOp46
 70
     0
102
RTVSPost2010Prop47
 90
       50
102
RTVSPost2010PropOp47
 70
     0
102
RTVSPost2010Prop48
 90
       50
102
RTVSPost2010PropOp48
 70
     0
102
RTVSPost2010Prop49
280
     0
102
RTVSPost2010PropOp49
 70
     0
102
RTVSPost2010Prop50
 90
       50
102
RTVSPost2010PropOp50
 70
     0
102
RTVSPost2010Prop51ColorIndex
 90
      256
102
RTVSPost2010Prop51ColorRGB
 90
-16777216
102
RTVSPost2010PropOp51
 70
     0
102
RTVSPost2010Prop52
140
1.0
102
RTVSPost2010PropOp52
 70
     0
102
RTVSPost2010Prop53
 90
        2
102
RTVSPost2010PropOp53
 70
     0
102
RTVSPost2010Prop54
  1
strokes_ogs.tif
102
RTVSPost2010PropOp54
 70
     0
102
RTVSPost2010Prop55
280
     0
102
RTVSPost2010PropOp55
 70
     0
102
RTVSPost2010Prop56
140
1.0
102
RTVSPost2010PropOp56
 70
     0
102
RTVSPost2010Prop57
140
1.0
102
RTVSPost2010PropOp57
 70
     0
  0
XRECORD
  5
1AE
102
{ACAD_REACTORS
330
1AD
102
}
330
1AD
100
AcDbXrecord
280
     1
102
RTVSPropertyOp0
 70
     1
102
RTVSPropertyOp1
 70
     1
102
RTVSPropertyOp2
 70
     1
102
RTVSPropertyOp3
 70
     1
102
RTVSPropertyOp4
 70
     1
102
RTVSPropertyOp5
 70
     1
102
RTVSPropertyOp6
 70
     1
102
RTVSPropertyOp7
 70
     1
102
RTVSPropertyOp8
 70
     1
102
RTVSPropertyOp9
 70
     1
102
RTVSPropertyOp10
 70
     1
102
RTVSPropertyOp11
 70
     1
102
RTVSPropertyOp12
 70
     1
102
RTVSPropertyOp13
 70
     1
102
RTVSPropertyOp14
 70
     1
102
RTVSPropertyOp15
 70
     1
102
RTVSPropertyOp16
 70
     1
102
RTVSPropertyOp17
 70
     1
102
RTVSPropertyOp18
 70
     1
102
RTVSPropertyOp19
 70
     1
102
RTVSPropertyOp20
 70
     1
102
RTVSPropertyOp21
 70
     1
102
RTVSPropertyOp22
 70
     1
102
RTVSPropertyOp23
 70
     1
102
RTVSPropertyOp24
 70
     1
102
RTVSPropertyOp25
 70
     1
102
RTVSPropertyOp26
 70
     1
102
RTVSPropertyOp27
 70
     1
102
RTVSPropertyOp28
 70
     1
102
RTVSPropertyOp29
 70
     1
102
RTVSPropertyOp30
 70
     1
102
RTVSPropertyOp31
 70
     1
102
RTVSPropertyOp32
 70
     1
102
RTVSPropertyOp33
 70
     1
102
RTVSPropertyOp34
 70
     1
102
RTVSPropertyOp35
 70
     1
102
RTVSPropertyOp36
 70
     1
102
RTVSPropertyOp37
 70
     1
102
RTVSPropertyOp38
 70
     1
102
RTVSPropertyOp39
 70
     1
102
RTVSPropertyOp40
 70
     1
102
RTVSPropertyOp41
 70
     1
102
RTVSPropertyOp42
 70
     1
102
RTVSPropertyOp43
 70
     1
102
RTVSPropertyOp44
 70
     1
102
RTVSPropertyOp45
 70
     1
102
RTVSPropertyOp46
 70
     1
102
RTVSPropertyOp47
 70
     1
102
RTVSPropertyOp48
 70
     1
102
RTVSPropertyOp49
 70
     1
102
RTVSPropertyOp50
 70
     1
102
RTVSPropertyOp51
 70
     0
102
RTVSPropertyOp52
 70
     0
102
RTVSPropertyOp53
 70
     1
102
RTVSPropertyOp54
 70
     1
102
RTVSPropertyOp55
 70
     1
102
RTVSPropertyOp56
 70
     1
102
RTVSPropertyOp57
 70
     1
102
RTVSPost2010Prop28
280
     0
102
RTVSPost2010PropOp28
 70
     1
102
RTVSPost2010Prop29
280
     1
102
RTVSPost2010PropOp29
 70
     1
102
RTVSPost2010Prop30
280
     1
102
RTVSPost2010PropOp30
 70
     1
102
RTVSPost2010Prop31
280
     0
102
RTVSPost2010PropOp31
 70
     1
102
RTVSPost2010Prop32
280
     0
102
RTVSPost2010PropOp32
 70
     1
102
RTVSPost2010Prop33
280
     0
102
RTVSPost2010PropOp33
 70
     1
102
RTVSPost2010Prop34
280
     0
102
RTVSPost2010PropOp34
 70
     1
102
RTVSPost2010Prop35
280
     0
102
RTVSPost2010PropOp35
 70
     1
102
RTVSPost2010Prop36
280
     0
102
RTVSPost2010PropOp36
 70
     1
102
RTVSPost2010Prop37
 90
       50
102
RTVSPost2010PropOp37
 70
     1
102
RTVSPost2010Prop38
140
0.0
102
RTVSPost2010PropOp38
 70
     1
102
RTVSPost2010Prop39
140
1.0
102
RTVSPost2010PropOp39
 70
     1
102
RTVSPost2010Prop40
 90
        0
102
RTVSPost2010PropOp40
 70
     1
102
RTVSPost2010Prop41ColorIndex
 90
       18
102
RTVSPost2010Prop41ColorRGB
 90
        0
102
RTVSPost2010PropOp41
 70
     1
102
RTVSPost2010Prop42
 90
       50
102
RTVSPost2010PropOp42
 70
     1
102
RTVSPost2010Prop43
 90
        3
102
RTVSPost2010PropOp43
 70
     1
102
RTVSPost2010Prop44ColorIndex
 90
        5
102
RTVSPost2010Prop44ColorRGB
 90
      255
102
RTVSPost2010PropOp44
 70
     1
102
RTVSPost2010Prop45
280
     0
102
RTVSPost2010PropOp45
 70
     1
102
RTVSPost2010Prop46
 90
       50
102
RTVSPost2010PropOp46
 70
     1
102
RTVSPost2010Prop47
 90
       50
102
RTVSPost2010PropOp47
 70
     1
102
RTVSPost2010Prop48
 90
       50
102
RTVSPost2010PropOp48
 70
     1
102
RTVSPost2010Prop49
280
     0
102
RTVSPost2010PropOp49
 70
     1
102
RTVSPost2010Prop50
 90
       50
102
RTVSPost2010PropOp50
 70
     1
102
RTVSPost2010Prop51ColorIndex
 90
      256
102
RTVSPost2010Prop51ColorRGB
 90
-16777216
102
RTVSPost2010PropOp51
 70
     0
102
RTVSPost2010Prop52
140
1.0
102
RTVSPost2010PropOp52
 70
     0
102
RTVSPost2010Prop53
 90
        2
102
RTVSPost2010PropOp53
 70
     1
102
RTVSPost2010Prop54
  1
strokes_ogs.tif
102
RTVSPost2010PropOp54
 70
     1
102
RTVSPost2010Prop55
280
     0
102
RTVSPost2010PropOp55
 70
     1
102
RTVSPost2010Prop56
140
1.0
102
RTVSPost2010PropOp56
 70
     1
102
RTVSPost2010Prop57
140
1.0
102
RTVSPost2010PropOp57
 70
     1
  0
XRECORD
  5
192
102
{ACAD_REACTORS
330
191
102
}
330
191
100
AcDbXrecord
280
     1
102
RTVSPropertyOp0
 70
     1
102
RTVSPropertyOp1
 70
     1
102
RTVSPropertyOp2
 70
     1
102
RTVSPropertyOp3
 70
     1
102
RTVSPropertyOp4
 70
     1
102
RTVSPropertyOp5
 70
     1
102
RTVSPropertyOp6
 70
     1
102
RTVSPropertyOp7
 70
     1
102
RTVSPropertyOp8
 70
     1
102
RTVSPropertyOp9
 70
     1
102
RTVSPropertyOp10
 70
     1
102
RTVSPropertyOp11
 70
     1
102
RTVSPropertyOp12
 70
     1
102
RTVSPropertyOp13
 70
     1
102
RTVSPropertyOp14
 70
     1
102
RTVSPropertyOp15
 70
     1
102
RTVSPropertyOp16
 70
     1
102
RTVSPropertyOp17
 70
     1
102
RTVSPropertyOp18
 70
     1
102
RTVSPropertyOp19
 70
     1
102
RTVSPropertyOp20
 70
     1
102
RTVSPropertyOp21
 70
     1
102
RTVSPropertyOp22
 70
     1
102
RTVSPropertyOp23
 70
     1
102
RTVSPropertyOp24
 70
     1
102
RTVSPropertyOp25
 70
     1
102
RTVSPropertyOp26
 70
     1
102
RTVSPropertyOp27
 70
     1
102
RTVSPropertyOp28
 70
     1
102
RTVSPropertyOp29
 70
     1
102
RTVSPropertyOp30
 70
     1
102
RTVSPropertyOp31
 70
     1
102
RTVSPropertyOp32
 70
     1
102
RTVSPropertyOp33
 70
     1
102
RTVSPropertyOp34
 70
     1
102
RTVSPropertyOp35
 70
     1
102
RTVSPropertyOp36
 70
     1
102
RTVSPropertyOp37
 70
     1
102
RTVSPropertyOp38
 70
     1
102
RTVSPropertyOp39
 70
     1
102
RTVSPropertyOp40
 70
     1
102
RTVSPropertyOp41
 70
     1
102
RTVSPropertyOp42
 70
     1
102
RTVSPropertyOp43
 70
     1
102
RTVSPropertyOp44
 70
     1
102
RTVSPropertyOp45
 70
     1
102
RTVSPropertyOp46
 70
     1
102
RTVSPropertyOp47
 70
     1
102
RTVSPropertyOp48
 70
     1
102
RTVSPropertyOp49
 70
     1
102
RTVSPropertyOp50
 70
     1
102
RTVSPropertyOp51
 70
     0
102
RTVSPropertyOp52
 70
     0
102
RTVSPropertyOp53
 70
     1
102
RTVSPropertyOp54
 70
     1
102
RTVSPropertyOp55
 70
     1
102
RTVSPropertyOp56
 70
     1
102
RTVSPropertyOp57
 70
     1
102
RTVSPost2010Prop28
280
     0
102
RTVSPost2010PropOp28
 70
     1
102
RTVSPost2010Prop29
280
     1
102
RTVSPost2010PropOp29
 70
     1
102
RTVSPost2010Prop30
280
     1
102
RTVSPost2010PropOp30
 70
     1
102
RTVSPost2010Prop31
280
     0
102
RTVSPost2010PropOp31
 70
     1
102
RTVSPost2010Prop32
280
     0
102
RTVSPost2010PropOp32
 70
     1
102
RTVSPost2010Prop33
280
     0
102
RTVSPost2010PropOp33
 70
     1
102
RTVSPost2010Prop34
280
     0
102
RTVSPost2010PropOp34
 70
     1
102
RTVSPost2010Prop35
280
     0
102
RTVSPost2010PropOp35
 70
     1
102
RTVSPost2010Prop36
280
     0
102
RTVSPost2010PropOp36
 70
     1
102
RTVSPost2010Prop37
 90
       50
102
RTVSPost2010PropOp37
 70
     1
102
RTVSPost2010Prop38
140
0.0
102
RTVSPost2010PropOp38
 70
     1
102
RTVSPost2010Prop39
140
1.0
102
RTVSPost2010PropOp39
 70
     1
102
RTVSPost2010Prop40
 90
        0
102
RTVSPost2010PropOp40
 70
     1
102
RTVSPost2010Prop41ColorIndex
 90
       18
102
RTVSPost2010Prop41ColorRGB
 90
        0
102
RTVSPost2010PropOp41
 70
     1
102
RTVSPost2010Prop42
 90
       50
102
RTVSPost2010PropOp42
 70
     1
102
RTVSPost2010Prop43
 90
        3
102
RTVSPost2010PropOp43
 70
     1
102
RTVSPost2010Prop44ColorIndex
 90
        5
102
RTVSPost2010Prop44ColorRGB
 90
      255
102
RTVSPost2010PropOp44
 70
     1
102
RTVSPost2010Prop45
280
     0
102
RTVSPost2010PropOp45
 70
     1
102
RTVSPost2010Prop46
 90
       50
102
RTVSPost2010PropOp46
 70
     1
102
RTVSPost2010Prop47
 90
       50
102
RTVSPost2010PropOp47
 70
     1
102
RTVSPost2010Prop48
 90
       50
102
RTVSPost2010PropOp48
 70
     1
102
RTVSPost2010Prop49
280
     0
102
RTVSPost2010PropOp49
 70
     1
102
RTVSPost2010Prop50
 90
       50
102
RTVSPost2010PropOp50
 70
     1
102
RTVSPost2010Prop51ColorIndex
 90
      256
102
RTVSPost2010Prop51ColorRGB
 90
-16777216
102
RTVSPost2010PropOp51
 70
     0
102
RTVSPost2010Prop52
140
1.0
102
RTVSPost2010PropOp52
 70
     0
102
RTVSPost2010Prop53
 90
        2
102
RTVSPost2010PropOp53
 70
     1
102
RTVSPost2010Prop54
  1
strokes_ogs.tif
102
RTVSPost2010PropOp54
 70
     1
102
RTVSPost2010Prop55
280
     0
102
RTVSPost2010PropOp55
 70
     1
102
RTVSPost2010Prop56
140
1.0
102
RTVSPost2010PropOp56
 70
     1
102
RTVSPost2010Prop57
140
1.0
102
RTVSPost2010PropOp57
 70
     1
  0
XRECORD
  5
194
102
{ACAD_REACTORS
330
193
102
}
330
193
100
AcDbXrecord
280
     1
102
RTVSPropertyOp0
 70
     1
102
RTVSPropertyOp1
 70
     1
102
RTVSPropertyOp2
 70
     1
102
RTVSPropertyOp3
 70
     1
102
RTVSPropertyOp4
 70
     1
102
RTVSPropertyOp5
 70
     1
102
RTVSPropertyOp6
 70
     1
102
RTVSPropertyOp7
 70
     1
102
RTVSPropertyOp8
 70
     1
102
RTVSPropertyOp9
 70
     1
102
RTVSPropertyOp10
 70
     1
102
RTVSPropertyOp11
 70
     1
102
RTVSPropertyOp12
 70
     1
102
RTVSPropertyOp13
 70
     1
102
RTVSPropertyOp14
 70
     1
102
RTVSPropertyOp15
 70
     1
102
RTVSPropertyOp16
 70
     1
102
RTVSPropertyOp17
 70
     1
102
RTVSPropertyOp18
 70
     1
102
RTVSPropertyOp19
 70
     1
102
RTVSPropertyOp20
 70
     1
102
RTVSPropertyOp21
 70
     1
102
RTVSPropertyOp22
 70
     1
102
RTVSPropertyOp23
 70
     1
102
RTVSPropertyOp24
 70
     1
102
RTVSPropertyOp25
 70
     1
102
RTVSPropertyOp26
 70
     1
102
RTVSPropertyOp27
 70
     1
102
RTVSPropertyOp28
 70
     1
102
RTVSPropertyOp29
 70
     1
102
RTVSPropertyOp30
 70
     1
102
RTVSPropertyOp31
 70
     1
102
RTVSPropertyOp32
 70
     1
102
RTVSPropertyOp33
 70
     1
102
RTVSPropertyOp34
 70
     1
102
RTVSPropertyOp35
 70
     1
102
RTVSPropertyOp36
 70
     1
102
RTVSPropertyOp37
 70
     1
102
RTVSPropertyOp38
 70
     1
102
RTVSPropertyOp39
 70
     1
102
RTVSPropertyOp40
 70
     1
102
RTVSPropertyOp41
 70
     1
102
RTVSPropertyOp42
 70
     1
102
RTVSPropertyOp43
 70
     1
102
RTVSPropertyOp44
 70
     1
102
RTVSPropertyOp45
 70
     1
102
RTVSPropertyOp46
 70
     1
102
RTVSPropertyOp47
 70
     1
102
RTVSPropertyOp48
 70
     1
102
RTVSPropertyOp49
 70
     1
102
RTVSPropertyOp50
 70
     1
102
RTVSPropertyOp51
 70
     0
102
RTVSPropertyOp52
 70
     0
102
RTVSPropertyOp53
 70
     1
102
RTVSPropertyOp54
 70
     1
102
RTVSPropertyOp55
 70
     1
102
RTVSPropertyOp56
 70
     1
102
RTVSPropertyOp57
 70
     1
102
RTVSPost2010Prop28
280
     0
102
RTVSPost2010PropOp28
 70
     1
102
RTVSPost2010Prop29
280
     1
102
RTVSPost2010PropOp29
 70
     1
102
RTVSPost2010Prop30
280
     1
102
RTVSPost2010PropOp30
 70
     1
102
RTVSPost2010Prop31
280
     0
102
RTVSPost2010PropOp31
 70
     1
102
RTVSPost2010Prop32
280
     0
102
RTVSPost2010PropOp32
 70
     1
102
RTVSPost2010Prop33
280
     0
102
RTVSPost2010PropOp33
 70
     1
102
RTVSPost2010Prop34
280
     0
102
RTVSPost2010PropOp34
 70
     1
102
RTVSPost2010Prop35
280
     0
102
RTVSPost2010PropOp35
 70
     1
102
RTVSPost2010Prop36
280
     0
102
RTVSPost2010PropOp36
 70
     1
102
RTVSPost2010Prop37
 90
       50
102
RTVSPost2010PropOp37
 70
     1
102
RTVSPost2010Prop38
140
0.0
102
RTVSPost2010PropOp38
 70
     1
102
RTVSPost2010Prop39
140
1.0
102
RTVSPost2010PropOp39
 70
     1
102
RTVSPost2010Prop40
 90
        0
102
RTVSPost2010PropOp40
 70
     1
102
RTVSPost2010Prop41ColorIndex
 90
       18
102
RTVSPost2010Prop41ColorRGB
 90
        0
102
RTVSPost2010PropOp41
 70
     1
102
RTVSPost2010Prop42
 90
       50
102
RTVSPost2010PropOp42
 70
     1
102
RTVSPost2010Prop43
 90
        3
102
RTVSPost2010PropOp43
 70
     1
102
RTVSPost2010Prop44ColorIndex
 90
        5
102
RTVSPost2010Prop44ColorRGB
 90
      255
102
RTVSPost2010PropOp44
 70
     1
102
RTVSPost2010Prop45
280
     0
102
RTVSPost2010PropOp45
 70
     1
102
RTVSPost2010Prop46
 90
       50
102
RTVSPost2010PropOp46
 70
     1
102
RTVSPost2010Prop47
 90
       50
102
RTVSPost2010PropOp47
 70
     1
102
RTVSPost2010Prop48
 90
       50
102
RTVSPost2010PropOp48
 70
     1
102
RTVSPost2010Prop49
280
     0
102
RTVSPost2010PropOp49
 70
     1
102
RTVSPost2010Prop50
 90
       50
102
RTVSPost2010PropOp50
 70
     1
102
RTVSPost2010Prop51ColorIndex
 90
      256
102
RTVSPost2010Prop51ColorRGB
 90
-16777216
102
RTVSPost2010PropOp51
 70
     0
102
RTVSPost2010Prop52
140
1.0
102
RTVSPost2010PropOp52
 70
     0
102
RTVSPost2010Prop53
 90
        2
102
RTVSPost2010PropOp53
 70
     1
102
RTVSPost2010Prop54
  1
strokes_ogs.tif
102
RTVSPost2010PropOp54
 70
     1
102
RTVSPost2010Prop55
280
     0
102
RTVSPost2010PropOp55
 70
     1
102
RTVSPost2010Prop56
140
1.0
102
RTVSPost2010PropOp56
 70
     1
102
RTVSPost2010Prop57
140
1.0
102
RTVSPost2010PropOp57
 70
     1
  0
XRECORD
  5
196
102
{ACAD_REACTORS
330
195
102
}
330
195
100
AcDbXrecord
280
     1
102
RTVSPropertyOp0
 70
     1
102
RTVSPropertyOp1
 70
     1
102
RTVSPropertyOp2
 70
     1
102
RTVSPropertyOp3
 70
     1
102
RTVSPropertyOp4
 70
     1
102
RTVSPropertyOp5
 70
     1
102
RTVSPropertyOp6
 70
     1
102
RTVSPropertyOp7
 70
     1
102
RTVSPropertyOp8
 70
     1
102
RTVSPropertyOp9
 70
     1
102
RTVSPropertyOp10
 70
     1
102
RTVSPropertyOp11
 70
     1
102
RTVSPropertyOp12
 70
     1
102
RTVSPropertyOp13
 70
     1
102
RTVSPropertyOp14
 70
     1
102
RTVSPropertyOp15
 70
     1
102
RTVSPropertyOp16
 70
     1
102
RTVSPropertyOp17
 70
     1
102
RTVSPropertyOp18
 70
     1
102
RTVSPropertyOp19
 70
     1
102
RTVSPropertyOp20
 70
     1
102
RTVSPropertyOp21
 70
     1
102
RTVSPropertyOp22
 70
     1
102
RTVSPropertyOp23
 70
     1
102
RTVSPropertyOp24
 70
     1
102
RTVSPropertyOp25
 70
     1
102
RTVSPropertyOp26
 70
     1
102
RTVSPropertyOp27
 70
     1
102
RTVSPropertyOp28
 70
     1
102
RTVSPropertyOp29
 70
     1
102
RTVSPropertyOp30
 70
     1
102
RTVSPropertyOp31
 70
     1
102
RTVSPropertyOp32
 70
     1
102
RTVSPropertyOp33
 70
     1
102
RTVSPropertyOp34
 70
     1
102
RTVSPropertyOp35
 70
     1
102
RTVSPropertyOp36
 70
     1
102
RTVSPropertyOp37
 70
     1
102
RTVSPropertyOp38
 70
     1
102
RTVSPropertyOp39
 70
     1
102
RTVSPropertyOp40
 70
     1
102
RTVSPropertyOp41
 70
     1
102
RTVSPropertyOp42
 70
     1
102
RTVSPropertyOp43
 70
     1
102
RTVSPropertyOp44
 70
     1
102
RTVSPropertyOp45
 70
     1
102
RTVSPropertyOp46
 70
     1
102
RTVSPropertyOp47
 70
     1
102
RTVSPropertyOp48
 70
     1
102
RTVSPropertyOp49
 70
     1
102
RTVSPropertyOp50
 70
     1
102
RTVSPropertyOp51
 70
     0
102
RTVSPropertyOp52
 70
     0
102
RTVSPropertyOp53
 70
     1
102
RTVSPropertyOp54
 70
     1
102
RTVSPropertyOp55
 70
     1
102
RTVSPropertyOp56
 70
     1
102
RTVSPropertyOp57
 70
     1
102
RTVSPost2010Prop28
280
     0
102
RTVSPost2010PropOp28
 70
     1
102
RTVSPost2010Prop29
280
     1
102
RTVSPost2010PropOp29
 70
     1
102
RTVSPost2010Prop30
280
     1
102
RTVSPost2010PropOp30
 70
     1
102
RTVSPost2010Prop31
280
     0
102
RTVSPost2010PropOp31
 70
     1
102
RTVSPost2010Prop32
280
     0
102
RTVSPost2010PropOp32
 70
     1
102
RTVSPost2010Prop33
280
     0
102
RTVSPost2010PropOp33
 70
     1
102
RTVSPost2010Prop34
280
     0
102
RTVSPost2010PropOp34
 70
     1
102
RTVSPost2010Prop35
280
     0
102
RTVSPost2010PropOp35
 70
     1
102
RTVSPost2010Prop36
280
     0
102
RTVSPost2010PropOp36
 70
     1
102
RTVSPost2010Prop37
 90
       50
102
RTVSPost2010PropOp37
 70
     1
102
RTVSPost2010Prop38
140
0.0
102
RTVSPost2010PropOp38
 70
     1
102
RTVSPost2010Prop39
140
1.0
102
RTVSPost2010PropOp39
 70
     1
102
RTVSPost2010Prop40
 90
        0
102
RTVSPost2010PropOp40
 70
     1
102
RTVSPost2010Prop41ColorIndex
 90
       18
102
RTVSPost2010Prop41ColorRGB
 90
        0
102
RTVSPost2010PropOp41
 70
     1
102
RTVSPost2010Prop42
 90
       50
102
RTVSPost2010PropOp42
 70
     1
102
RTVSPost2010Prop43
 90
        3
102
RTVSPost2010PropOp43
 70
     1
102
RTVSPost2010Prop44ColorIndex
 90
        5
102
RTVSPost2010Prop44ColorRGB
 90
      255
102
RTVSPost2010PropOp44
 70
     1
102
RTVSPost2010Prop45
280
     0
102
RTVSPost2010PropOp45
 70
     1
102
RTVSPost2010Prop46
 90
       50
102
RTVSPost2010PropOp46
 70
     1
102
RTVSPost2010Prop47
 90
       50
102
RTVSPost2010PropOp47
 70
     1
102
RTVSPost2010Prop48
 90
       50
102
RTVSPost2010PropOp48
 70
     1
102
RTVSPost2010Prop49
280
     0
102
RTVSPost2010PropOp49
 70
     1
102
RTVSPost2010Prop50
 90
       50
102
RTVSPost2010PropOp50
 70
     1
102
RTVSPost2010Prop51ColorIndex
 90
      256
102
RTVSPost2010Prop51ColorRGB
 90
-16777216
102
RTVSPost2010PropOp51
 70
     0
102
RTVSPost2010Prop52
140
1.0
102
RTVSPost2010PropOp52
 70
     0
102
RTVSPost2010Prop53
 90
        2
102
RTVSPost2010PropOp53
 70
     1
102
RTVSPost2010Prop54
  1
strokes_ogs.tif
102
RTVSPost2010PropOp54
 70
     1
102
RTVSPost2010Prop55
280
     0
102
RTVSPost2010PropOp55
 70
     1
102
RTVSPost2010Prop56
140
1.0
102
RTVSPost2010PropOp56
 70
     1
102
RTVSPost2010Prop57
140
1.0
102
RTVSPost2010PropOp57
 70
     1
  0
XRECORD
  5
198
102
{ACAD_REACTORS
330
197
102
}
330
197
100
AcDbXrecord
280
     1
102
RTVSPropertyOp0
 70
     1
102
RTVSPropertyOp1
 70
     1
102
RTVSPropertyOp2
 70
     1
102
RTVSPropertyOp3
 70
     1
102
RTVSPropertyOp4
 70
     1
102
RTVSPropertyOp5
 70
     1
102
RTVSPropertyOp6
 70
     1
102
RTVSPropertyOp7
 70
     1
102
RTVSPropertyOp8
 70
     1
102
RTVSPropertyOp9
 70
     1
102
RTVSPropertyOp10
 70
     1
102
RTVSPropertyOp11
 70
     1
102
RTVSPropertyOp12
 70
     1
102
RTVSPropertyOp13
 70
     1
102
RTVSPropertyOp14
 70
     1
102
RTVSPropertyOp15
 70
     1
102
RTVSPropertyOp16
 70
     1
102
RTVSPropertyOp17
 70
     1
102
RTVSPropertyOp18
 70
     1
102
RTVSPropertyOp19
 70
     1
102
RTVSPropertyOp20
 70
     1
102
RTVSPropertyOp21
 70
     1
102
RTVSPropertyOp22
 70
     1
102
RTVSPropertyOp23
 70
     1
102
RTVSPropertyOp24
 70
     1
102
RTVSPropertyOp25
 70
     1
102
RTVSPropertyOp26
 70
     1
102
RTVSPropertyOp27
 70
     1
102
RTVSPropertyOp28
 70
     1
102
RTVSPropertyOp29
 70
     1
102
RTVSPropertyOp30
 70
     1
102
RTVSPropertyOp31
 70
     1
102
RTVSPropertyOp32
 70
     1
102
RTVSPropertyOp33
 70
     1
102
RTVSPropertyOp34
 70
     1
102
RTVSPropertyOp35
 70
     1
102
RTVSPropertyOp36
 70
     1
102
RTVSPropertyOp37
 70
     1
102
RTVSPropertyOp38
 70
     1
102
RTVSPropertyOp39
 70
     1
102
RTVSPropertyOp40
 70
     1
102
RTVSPropertyOp41
 70
     1
102
RTVSPropertyOp42
 70
     1
102
RTVSPropertyOp43
 70
     1
102
RTVSPropertyOp44
 70
     1
102
RTVSPropertyOp45
 70
     1
102
RTVSPropertyOp46
 70
     1
102
RTVSPropertyOp47
 70
     1
102
RTVSPropertyOp48
 70
     1
102
RTVSPropertyOp49
 70
     1
102
RTVSPropertyOp50
 70
     1
102
RTVSPropertyOp51
 70
     0
102
RTVSPropertyOp52
 70
     0
102
RTVSPropertyOp53
 70
     1
102
RTVSPropertyOp54
 70
     1
102
RTVSPropertyOp55
 70
     1
102
RTVSPropertyOp56
 70
     1
102
RTVSPropertyOp57
 70
     1
102
RTVSPost2010Prop28
280
     0
102
RTVSPost2010PropOp28
 70
     1
102
RTVSPost2010Prop29
280
     1
102
RTVSPost2010PropOp29
 70
     1
102
RTVSPost2010Prop30
280
     1
102
RTVSPost2010PropOp30
 70
     1
102
RTVSPost2010Prop31
280
     0
102
RTVSPost2010PropOp31
 70
     1
102
RTVSPost2010Prop32
280
     0
102
RTVSPost2010PropOp32
 70
     1
102
RTVSPost2010Prop33
280
     0
102
RTVSPost2010PropOp33
 70
     1
102
RTVSPost2010Prop34
280
     0
102
RTVSPost2010PropOp34
 70
     1
102
RTVSPost2010Prop35
280
     0
102
RTVSPost2010PropOp35
 70
     1
102
RTVSPost2010Prop36
280
     0
102
RTVSPost2010PropOp36
 70
     1
102
RTVSPost2010Prop37
 90
       50
102
RTVSPost2010PropOp37
 70
     1
102
RTVSPost2010Prop38
140
0.0
102
RTVSPost2010PropOp38
 70
     1
102
RTVSPost2010Prop39
140
1.0
102
RTVSPost2010PropOp39
 70
     1
102
RTVSPost2010Prop40
 90
        0
102
RTVSPost2010PropOp40
 70
     1
102
RTVSPost2010Prop41ColorIndex
 90
       18
102
RTVSPost2010Prop41ColorRGB
 90
        0
102
RTVSPost2010PropOp41
 70
     1
102
RTVSPost2010Prop42
 90
       50
102
RTVSPost2010PropOp42
 70
     1
102
RTVSPost2010Prop43
 90
        3
102
RTVSPost2010PropOp43
 70
     1
102
RTVSPost2010Prop44ColorIndex
 90
        5
102
RTVSPost2010Prop44ColorRGB
 90
      255
102
RTVSPost2010PropOp44
 70
     1
102
RTVSPost2010Prop45
280
     0
102
RTVSPost2010PropOp45
 70
     1
102
RTVSPost2010Prop46
 90
       50
102
RTVSPost2010PropOp46
 70
     1
102
RTVSPost2010Prop47
 90
       50
102
RTVSPost2010PropOp47
 70
     1
102
RTVSPost2010Prop48
 90
       50
102
RTVSPost2010PropOp48
 70
     1
102
RTVSPost2010Prop49
280
     0
102
RTVSPost2010PropOp49
 70
     1
102
RTVSPost2010Prop50
 90
       50
102
RTVSPost2010PropOp50
 70
     1
102
RTVSPost2010Prop51ColorIndex
 90
      256
102
RTVSPost2010Prop51ColorRGB
 90
-16777216
102
RTVSPost2010PropOp51
 70
     0
102
RTVSPost2010Prop52
140
1.0
102
RTVSPost2010PropOp52
 70
     0
102
RTVSPost2010Prop53
 90
        2
102
RTVSPost2010PropOp53
 70
     1
102
RTVSPost2010Prop54
  1
strokes_ogs.tif
102
RTVSPost2010PropOp54
 70
     1
102
RTVSPost2010Prop55
280
     0
102
RTVSPost2010PropOp55
 70
     1
102
RTVSPost2010Prop56
140
1.0
102
RTVSPost2010PropOp56
 70
     1
102
RTVSPost2010Prop57
140
1.0
102
RTVSPost2010PropOp57
 70
     1
  0
XRECORD
  5
19E
102
{ACAD_REACTORS
330
19D
102
}
330
19D
100
AcDbXrecord
280
     1
102
RTVSPropertyOp0
 70
     1
102
RTVSPropertyOp1
 70
     1
102
RTVSPropertyOp2
 70
     1
102
RTVSPropertyOp3
 70
     1
102
RTVSPropertyOp4
 70
     1
102
RTVSPropertyOp5
 70
     1
102
RTVSPropertyOp6
 70
     1
102
RTVSPropertyOp7
 70
     1
102
RTVSPropertyOp8
 70
     1
102
RTVSPropertyOp9
 70
     1
102
RTVSPropertyOp10
 70
     1
102
RTVSPropertyOp11
 70
     1
102
RTVSPropertyOp12
 70
     1
102
RTVSPropertyOp13
 70
     1
102
RTVSPropertyOp14
 70
     1
102
RTVSPropertyOp15
 70
     1
102
RTVSPropertyOp16
 70
     1
102
RTVSPropertyOp17
 70
     1
102
RTVSPropertyOp18
 70
     1
102
RTVSPropertyOp19
 70
     1
102
RTVSPropertyOp20
 70
     1
102
RTVSPropertyOp21
 70
     1
102
RTVSPropertyOp22
 70
     1
102
RTVSPropertyOp23
 70
     1
102
RTVSPropertyOp24
 70
     1
102
RTVSPropertyOp25
 70
     1
102
RTVSPropertyOp26
 70
     1
102
RTVSPropertyOp27
 70
     1
102
RTVSPropertyOp28
 70
     1
102
RTVSPropertyOp29
 70
     1
102
RTVSPropertyOp30
 70
     1
102
RTVSPropertyOp31
 70
     1
102
RTVSPropertyOp32
 70
     1
102
RTVSPropertyOp33
 70
     1
102
RTVSPropertyOp34
 70
     1
102
RTVSPropertyOp35
 70
     1
102
RTVSPropertyOp36
 70
     1
102
RTVSPropertyOp37
 70
     1
102
RTVSPropertyOp38
 70
     1
102
RTVSPropertyOp39
 70
     1
102
RTVSPropertyOp40
 70
     1
102
RTVSPropertyOp41
 70
     1
102
RTVSPropertyOp42
 70
     1
102
RTVSPropertyOp43
 70
     1
102
RTVSPropertyOp44
 70
     1
102
RTVSPropertyOp45
 70
     1
102
RTVSPropertyOp46
 70
     1
102
RTVSPropertyOp47
 70
     1
102
RTVSPropertyOp48
 70
     1
102
RTVSPropertyOp49
 70
     1
102
RTVSPropertyOp50
 70
     1
102
RTVSPropertyOp51
 70
     0
102
RTVSPropertyOp52
 70
     0
102
RTVSPropertyOp53
 70
     1
102
RTVSPropertyOp54
 70
     1
102
RTVSPropertyOp55
 70
     1
102
RTVSPropertyOp56
 70
     1
102
RTVSPropertyOp57
 70
     1
102
RTVSPost2010Prop28
280
     0
102
RTVSPost2010PropOp28
 70
     1
102
RTVSPost2010Prop29
280
     1
102
RTVSPost2010PropOp29
 70
     1
102
RTVSPost2010Prop30
280
     1
102
RTVSPost2010PropOp30
 70
     1
102
RTVSPost2010Prop31
280
     0
102
RTVSPost2010PropOp31
 70
     1
102
RTVSPost2010Prop32
280
     0
102
RTVSPost2010PropOp32
 70
     1
102
RTVSPost2010Prop33
280
     0
102
RTVSPost2010PropOp33
 70
     1
102
RTVSPost2010Prop34
280
     0
102
RTVSPost2010PropOp34
 70
     1
102
RTVSPost2010Prop35
280
     0
102
RTVSPost2010PropOp35
 70
     1
102
RTVSPost2010Prop36
280
     0
102
RTVSPost2010PropOp36
 70
     1
102
RTVSPost2010Prop37
 90
       50
102
RTVSPost2010PropOp37
 70
     1
102
RTVSPost2010Prop38
140
0.0
102
RTVSPost2010PropOp38
 70
     1
102
RTVSPost2010Prop39
140
1.0
102
RTVSPost2010PropOp39
 70
     1
102
RTVSPost2010Prop40
 90
        0
102
RTVSPost2010PropOp40
 70
     1
102
RTVSPost2010Prop41ColorIndex
 90
       18
102
RTVSPost2010Prop41ColorRGB
 90
        0
102
RTVSPost2010PropOp41
 70
     1
102
RTVSPost2010Prop42
 90
       50
102
RTVSPost2010PropOp42
 70
     1
102
RTVSPost2010Prop43
 90
        3
102
RTVSPost2010PropOp43
 70
     1
102
RTVSPost2010Prop44ColorIndex
 90
        5
102
RTVSPost2010Prop44ColorRGB
 90
      255
102
RTVSPost2010PropOp44
 70
     1
102
RTVSPost2010Prop45
280
     0
102
RTVSPost2010PropOp45
 70
     1
102
RTVSPost2010Prop46
 90
       50
102
RTVSPost2010PropOp46
 70
     1
102
RTVSPost2010Prop47
 90
       50
102
RTVSPost2010PropOp47
 70
     1
102
RTVSPost2010Prop48
 90
       50
102
RTVSPost2010PropOp48
 70
     1
102
RTVSPost2010Prop49
280
     0
102
RTVSPost2010PropOp49
 70
     1
102
RTVSPost2010Prop50
 90
       50
102
RTVSPost2010PropOp50
 70
     1
102
RTVSPost2010Prop51ColorIndex
 90
      256
102
RTVSPost2010Prop51ColorRGB
 90
-16777216
102
RTVSPost2010PropOp51
 70
     0
102
RTVSPost2010Prop52
140
1.0
102
RTVSPost2010PropOp52
 70
     0
102
RTVSPost2010Prop53
 90
        2
102
RTVSPost2010PropOp53
 70
     1
102
RTVSPost2010Prop54
  1
strokes_ogs.tif
102
RTVSPost2010PropOp54
 70
     1
102
RTVSPost2010Prop55
280
     0
102
RTVSPost2010PropOp55
 70
     1
102
RTVSPost2010Prop56
140
1.0
102
RTVSPost2010PropOp56
 70
     1
102
RTVSPost2010Prop57
140
1.0
102
RTVSPost2010PropOp57
 70
     1
  0
XRECORD
  5
1B2
102
{ACAD_REACTORS
330
1B1
102
}
330
1B1
100
AcDbXrecord
280
     1
102
RTVSPropertyOp0
 70
     0
102
RTVSPropertyOp1
 70
     0
102
RTVSPropertyOp2
 70
     0
102
RTVSPropertyOp3
 70
     0
102
RTVSPropertyOp4
 70
     0
102
RTVSPropertyOp5
 70
     0
102
RTVSPropertyOp6
 70
     0
102
RTVSPropertyOp7
 70
     0
102
RTVSPropertyOp8
 70
     0
102
RTVSPropertyOp9
 70
     0
102
RTVSPropertyOp10
 70
     0
102
RTVSPropertyOp11
 70
     0
102
RTVSPropertyOp12
 70
     0
102
RTVSPropertyOp13
 70
     0
102
RTVSPropertyOp14
 70
     2
102
RTVSPropertyOp15
 70
     0
102
RTVSPropertyOp16
 70
     0
102
RTVSPropertyOp17
 70
     0
102
RTVSPropertyOp18
 70
     0
102
RTVSPropertyOp19
 70
     0
102
RTVSPropertyOp20
 70
     0
102
RTVSPropertyOp21
 70
     0
102
RTVSPropertyOp22
 70
     0
102
RTVSPropertyOp23
 70
     0
102
RTVSPropertyOp24
 70
     0
102
RTVSPropertyOp25
 70
     0
102
RTVSPropertyOp26
 70
     0
102
RTVSPropertyOp27
 70
     0
102
RTVSPropertyOp28
 70
     0
102
RTVSPropertyOp29
 70
     0
102
RTVSPropertyOp30
 70
     0
102
RTVSPropertyOp31
 70
     0
102
RTVSPropertyOp32
 70
     0
102
RTVSPropertyOp33
 70
     0
102
RTVSPropertyOp34
 70
     0
102
RTVSPropertyOp35
 70
     0
102
RTVSPropertyOp36
 70
     0
102
RTVSPropertyOp37
 70
     0
102
RTVSPropertyOp38
 70
     0
102
RTVSPropertyOp39
 70
     0
102
RTVSPropertyOp40
 70
     0
102
RTVSPropertyOp41
 70
     0
102
RTVSPropertyOp42
 70
     0
102
RTVSPropertyOp43
 70
     0
102
RTVSPropertyOp44
 70
     0
102
RTVSPropertyOp45
 70
     0
102
RTVSPropertyOp46
 70
     0
102
RTVSPropertyOp47
 70
     0
102
RTVSPropertyOp48
 70
     0
102
RTVSPropertyOp49
 70
     0
102
RTVSPropertyOp50
 70
     0
102
RTVSPropertyOp51
 70
     0
102
RTVSPropertyOp52
 70
     0
102
RTVSPropertyOp53
 70
     0
102
RTVSPropertyOp54
 70
     0
102
RTVSPropertyOp55
 70
     0
102
RTVSPropertyOp56
 70
     0
102
RTVSPropertyOp57
 70
     0
102
RTVSPost2010Prop28
280
     0
102
RTVSPost2010PropOp28
 70
     0
102
RTVSPost2010Prop29
280
     1
102
RTVSPost2010PropOp29
 70
     0
102
RTVSPost2010Prop30
280
     1
102
RTVSPost2010PropOp30
 70
     0
102
RTVSPost2010Prop31
280
     0
102
RTVSPost2010PropOp31
 70
     0
102
RTVSPost2010Prop32
280
     0
102
RTVSPost2010PropOp32
 70
     0
102
RTVSPost2010Prop33
280
     0
102
RTVSPost2010PropOp33
 70
     0
102
RTVSPost2010Prop34
280
     0
102
RTVSPost2010PropOp34
 70
     0
102
RTVSPost2010Prop35
280
     0
102
RTVSPost2010PropOp35
 70
     0
102
RTVSPost2010Prop36
280
     0
102
RTVSPost2010PropOp36
 70
     0
102
RTVSPost2010Prop37
 90
       50
102
RTVSPost2010PropOp37
 70
     0
102
RTVSPost2010Prop38
140
0.0
102
RTVSPost2010PropOp38
 70
     0
102
RTVSPost2010Prop39
140
1.0
102
RTVSPost2010PropOp39
 70
     0
102
RTVSPost2010Prop40
 90
        0
102
RTVSPost2010PropOp40
 70
     0
102
RTVSPost2010Prop41ColorIndex
 90
       18
102
RTVSPost2010Prop41ColorRGB
 90
        0
102
RTVSPost2010PropOp41
 70
     0
102
RTVSPost2010Prop42
 90
       50
102
RTVSPost2010PropOp42
 70
     0
102
RTVSPost2010Prop43
 90
        3
102
RTVSPost2010PropOp43
 70
     0
102
RTVSPost2010Prop44ColorIndex
 90
        5
102
RTVSPost2010Prop44ColorRGB
 90
      255
102
RTVSPost2010PropOp44
 70
     0
102
RTVSPost2010Prop45
280
     0
102
RTVSPost2010PropOp45
 70
     0
102
RTVSPost2010Prop46
 90
       50
102
RTVSPost2010PropOp46
 70
     0
102
RTVSPost2010Prop47
 90
       50
102
RTVSPost2010PropOp47
 70
     0
102
RTVSPost2010Prop48
 90
       50
102
RTVSPost2010PropOp48
 70
     0
102
RTVSPost2010Prop49
280
     0
102
RTVSPost2010PropOp49
 70
     0
102
RTVSPost2010Prop50
 90
       50
102
RTVSPost2010PropOp50
 70
     0
102
RTVSPost2010Prop51ColorIndex
 90
      256
102
RTVSPost2010Prop51ColorRGB
 90
-16777216
102
RTVSPost2010PropOp51
 70
     0
102
RTVSPost2010Prop52
140
1.0
102
RTVSPost2010PropOp52
 70
     0
102
RTVSPost2010Prop53
 90
        2
102
RTVSPost2010PropOp53
 70
     0
102
RTVSPost2010Prop54
  1
strokes_ogs.tif
102
RTVSPost2010PropOp54
 70
     0
102
RTVSPost2010Prop55
280
     0
102
RTVSPost2010PropOp55
 70
     0
102
RTVSPost2010Prop56
140
1.0
102
RTVSPost2010PropOp56
 70
     0
102
RTVSPost2010Prop57
140
1.0
102
RTVSPost2010PropOp57
 70
     0
  0
XRECORD
  5
1AC
102
{ACAD_REACTORS
330
1AB
102
}
330
1AB
100
AcDbXrecord
280
     1
102
RTVSPropertyOp0
 70
     1
102
RTVSPropertyOp1
 70
     1
102
RTVSPropertyOp2
 70
     1
102
RTVSPropertyOp3
 70
     1
102
RTVSPropertyOp4
 70
     1
102
RTVSPropertyOp5
 70
     1
102
RTVSPropertyOp6
 70
     1
102
RTVSPropertyOp7
 70
     1
102
RTVSPropertyOp8
 70
     1
102
RTVSPropertyOp9
 70
     1
102
RTVSPropertyOp10
 70
     1
102
RTVSPropertyOp11
 70
     1
102
RTVSPropertyOp12
 70
     1
102
RTVSPropertyOp13
 70
     1
102
RTVSPropertyOp14
 70
     1
102
RTVSPropertyOp15
 70
     1
102
RTVSPropertyOp16
 70
     1
102
RTVSPropertyOp17
 70
     1
102
RTVSPropertyOp18
 70
     1
102
RTVSPropertyOp19
 70
     1
102
RTVSPropertyOp20
 70
     1
102
RTVSPropertyOp21
 70
     1
102
RTVSPropertyOp22
 70
     1
102
RTVSPropertyOp23
 70
     1
102
RTVSPropertyOp24
 70
     1
102
RTVSPropertyOp25
 70
     1
102
RTVSPropertyOp26
 70
     1
102
RTVSPropertyOp27
 70
     1
102
RTVSPropertyOp28
 70
     1
102
RTVSPropertyOp29
 70
     1
102
RTVSPropertyOp30
 70
     1
102
RTVSPropertyOp31
 70
     1
102
RTVSPropertyOp32
 70
     1
102
RTVSPropertyOp33
 70
     1
102
RTVSPropertyOp34
 70
     1
102
RTVSPropertyOp35
 70
     1
102
RTVSPropertyOp36
 70
     1
102
RTVSPropertyOp37
 70
     1
102
RTVSPropertyOp38
 70
     1
102
RTVSPropertyOp39
 70
     1
102
RTVSPropertyOp40
 70
     1
102
RTVSPropertyOp41
 70
     1
102
RTVSPropertyOp42
 70
     1
102
RTVSPropertyOp43
 70
     1
102
RTVSPropertyOp44
 70
     1
102
RTVSPropertyOp45
 70
     1
102
RTVSPropertyOp46
 70
     1
102
RTVSPropertyOp47
 70
     1
102
RTVSPropertyOp48
 70
     1
102
RTVSPropertyOp49
 70
     1
102
RTVSPropertyOp50
 70
     1
102
RTVSPropertyOp51
 70
     0
102
RTVSPropertyOp52
 70
     0
102
RTVSPropertyOp53
 70
     1
102
RTVSPropertyOp54
 70
     1
102
RTVSPropertyOp55
 70
     1
102
RTVSPropertyOp56
 70
     1
102
RTVSPropertyOp57
 70
     1
102
RTVSPost2010Prop28
280
     0
102
RTVSPost2010PropOp28
 70
     1
102
RTVSPost2010Prop29
280
     1
102
RTVSPost2010PropOp29
 70
     1
102
RTVSPost2010Prop30
280
     1
102
RTVSPost2010PropOp30
 70
     1
102
RTVSPost2010Prop31
280
     0
102
RTVSPost2010PropOp31
 70
     1
102
RTVSPost2010Prop32
280
     0
102
RTVSPost2010PropOp32
 70
     1
102
RTVSPost2010Prop33
280
     0
102
RTVSPost2010PropOp33
 70
     1
102
RTVSPost2010Prop34
280
     0
102
RTVSPost2010PropOp34
 70
     1
102
RTVSPost2010Prop35
280
     0
102
RTVSPost2010PropOp35
 70
     1
102
RTVSPost2010Prop36
280
     0
102
RTVSPost2010PropOp36
 70
     1
102
RTVSPost2010Prop37
 90
       50
102
RTVSPost2010PropOp37
 70
     1
102
RTVSPost2010Prop38
140
0.0
102
RTVSPost2010PropOp38
 70
     1
102
RTVSPost2010Prop39
140
1.0
102
RTVSPost2010PropOp39
 70
     1
102
RTVSPost2010Prop40
 90
        0
102
RTVSPost2010PropOp40
 70
     1
102
RTVSPost2010Prop41ColorIndex
 90
       18
102
RTVSPost2010Prop41ColorRGB
 90
        0
102
RTVSPost2010PropOp41
 70
     1
102
RTVSPost2010Prop42
 90
       50
102
RTVSPost2010PropOp42
 70
     1
102
RTVSPost2010Prop43
 90
        3
102
RTVSPost2010PropOp43
 70
     1
102
RTVSPost2010Prop44ColorIndex
 90
        5
102
RTVSPost2010Prop44ColorRGB
 90
      255
102
RTVSPost2010PropOp44
 70
     1
102
RTVSPost2010Prop45
280
     0
102
RTVSPost2010PropOp45
 70
     1
102
RTVSPost2010Prop46
 90
       50
102
RTVSPost2010PropOp46
 70
     1
102
RTVSPost2010Prop47
 90
       50
102
RTVSPost2010PropOp47
 70
     1
102
RTVSPost2010Prop48
 90
       50
102
RTVSPost2010PropOp48
 70
     1
102
RTVSPost2010Prop49
280
     0
102
RTVSPost2010PropOp49
 70
     1
102
RTVSPost2010Prop50
 90
       50
102
RTVSPost2010PropOp50
 70
     1
102
RTVSPost2010Prop51ColorIndex
 90
      256
102
RTVSPost2010Prop51ColorRGB
 90
-16777216
102
RTVSPost2010PropOp51
 70
     0
102
RTVSPost2010Prop52
140
1.0
102
RTVSPost2010PropOp52
 70
     0
102
RTVSPost2010Prop53
 90
        2
102
RTVSPost2010PropOp53
 70
     1
102
RTVSPost2010Prop54
  1
strokes_ogs.tif
102
RTVSPost2010PropOp54
 70
     1
102
RTVSPost2010Prop55
280
     0
102
RTVSPost2010PropOp55
 70
     1
102
RTVSPost2010Prop56
140
1.0
102
RTVSPost2010PropOp56
 70
     1
102
RTVSPost2010Prop57
140
1.0
102
RTVSPost2010PropOp57
 70
     1
  0
XRECORD
  5
1B4
102
{ACAD_REACTORS
330
1B3
102
}
330
1B3
100
AcDbXrecord
280
     1
102
RTVSPropertyOp0
 70
     0
102
RTVSPropertyOp1
 70
     0
102
RTVSPropertyOp2
 70
     0
102
RTVSPropertyOp3
 70
     0
102
RTVSPropertyOp4
 70
     0
102
RTVSPropertyOp5
 70
     0
102
RTVSPropertyOp6
 70
     0
102
RTVSPropertyOp7
 70
     0
102
RTVSPropertyOp8
 70
     0
102
RTVSPropertyOp9
 70
     0
102
RTVSPropertyOp10
 70
     0
102
RTVSPropertyOp11
 70
     0
102
RTVSPropertyOp12
 70
     0
102
RTVSPropertyOp13
 70
     0
102
RTVSPropertyOp14
 70
     2
102
RTVSPropertyOp15
 70
     0
102
RTVSPropertyOp16
 70
     0
102
RTVSPropertyOp17
 70
     0
102
RTVSPropertyOp18
 70
     0
102
RTVSPropertyOp19
 70
     0
102
RTVSPropertyOp20
 70
     0
102
RTVSPropertyOp21
 70
     0
102
RTVSPropertyOp22
 70
     0
102
RTVSPropertyOp23
 70
     0
102
RTVSPropertyOp24
 70
     0
102
RTVSPropertyOp25
 70
     0
102
RTVSPropertyOp26
 70
     0
102
RTVSPropertyOp27
 70
     0
102
RTVSPropertyOp28
 70
     0
102
RTVSPropertyOp29
 70
     0
102
RTVSPropertyOp30
 70
     0
102
RTVSPropertyOp31
 70
     0
102
RTVSPropertyOp32
 70
     0
102
RTVSPropertyOp33
 70
     0
102
RTVSPropertyOp34
 70
     0
102
RTVSPropertyOp35
 70
     0
102
RTVSPropertyOp36
 70
     0
102
RTVSPropertyOp37
 70
     0
102
RTVSPropertyOp38
 70
     0
102
RTVSPropertyOp39
 70
     0
102
RTVSPropertyOp40
 70
     0
102
RTVSPropertyOp41
 70
     0
102
RTVSPropertyOp42
 70
     0
102
RTVSPropertyOp43
 70
     0
102
RTVSPropertyOp44
 70
     0
102
RTVSPropertyOp45
 70
     0
102
RTVSPropertyOp46
 70
     0
102
RTVSPropertyOp47
 70
     0
102
RTVSPropertyOp48
 70
     0
102
RTVSPropertyOp49
 70
     0
102
RTVSPropertyOp50
 70
     0
102
RTVSPropertyOp51
 70
     0
102
RTVSPropertyOp52
 70
     0
102
RTVSPropertyOp53
 70
     0
102
RTVSPropertyOp54
 70
     0
102
RTVSPropertyOp55
 70
     0
102
RTVSPropertyOp56
 70
     0
102
RTVSPropertyOp57
 70
     0
102
RTVSPost2010Prop28
280
     0
102
RTVSPost2010PropOp28
 70
     0
102
RTVSPost2010Prop29
280
     1
102
RTVSPost2010PropOp29
 70
     0
102
RTVSPost2010Prop30
280
     1
102
RTVSPost2010PropOp30
 70
     0
102
RTVSPost2010Prop31
280
     0
102
RTVSPost2010PropOp31
 70
     0
102
RTVSPost2010Prop32
280
     0
102
RTVSPost2010PropOp32
 70
     0
102
RTVSPost2010Prop33
280
     0
102
RTVSPost2010PropOp33
 70
     0
102
RTVSPost2010Prop34
280
     0
102
RTVSPost2010PropOp34
 70
     0
102
RTVSPost2010Prop35
280
     0
102
RTVSPost2010PropOp35
 70
     0
102
RTVSPost2010Prop36
280
     0
102
RTVSPost2010PropOp36
 70
     0
102
RTVSPost2010Prop37
 90
       50
102
RTVSPost2010PropOp37
 70
     0
102
RTVSPost2010Prop38
140
0.0
102
RTVSPost2010PropOp38
 70
     0
102
RTVSPost2010Prop39
140
1.0
102
RTVSPost2010PropOp39
 70
     0
102
RTVSPost2010Prop40
 90
        0
102
RTVSPost2010PropOp40
 70
     0
102
RTVSPost2010Prop41ColorIndex
 90
       18
102
RTVSPost2010Prop41ColorRGB
 90
        0
102
RTVSPost2010PropOp41
 70
     0
102
RTVSPost2010Prop42
 90
       50
102
RTVSPost2010PropOp42
 70
     0
102
RTVSPost2010Prop43
 90
        3
102
RTVSPost2010PropOp43
 70
     0
102
RTVSPost2010Prop44ColorIndex
 90
        5
102
RTVSPost2010Prop44ColorRGB
 90
      255
102
RTVSPost2010PropOp44
 70
     0
102
RTVSPost2010Prop45
280
     0
102
RTVSPost2010PropOp45
 70
     0
102
RTVSPost2010Prop46
 90
       50
102
RTVSPost2010PropOp46
 70
     0
102
RTVSPost2010Prop47
 90
       50
102
RTVSPost2010PropOp47
 70
     0
102
RTVSPost2010Prop48
 90
       50
102
RTVSPost2010PropOp48
 70
     0
102
RTVSPost2010Prop49
280
     0
102
RTVSPost2010PropOp49
 70
     0
102
RTVSPost2010Prop50
 90
       50
102
RTVSPost2010PropOp50
 70
     0
102
RTVSPost2010Prop51ColorIndex
 90
      256
102
RTVSPost2010Prop51ColorRGB
 90
-16777216
102
RTVSPost2010PropOp51
 70
     0
102
RTVSPost2010Prop52
140
1.0
102
RTVSPost2010PropOp52
 70
     0
102
RTVSPost2010Prop53
 90
        2
102
RTVSPost2010PropOp53
 70
     0
102
RTVSPost2010Prop54
  1
strokes_ogs.tif
102
RTVSPost2010PropOp54
 70
     0
102
RTVSPost2010Prop55
280
     0
102
RTVSPost2010PropOp55
 70
     0
102
RTVSPost2010Prop56
140
1.0
102
RTVSPost2010PropOp56
 70
     0
102
RTVSPost2010Prop57
140
1.0
102
RTVSPost2010PropOp57
 70
     0
  0
XRECORD
  5
1A2
102
{ACAD_REACTORS
330
1A1
102
}
330
1A1
100
AcDbXrecord
280
     1
102
RTVSPropertyOp0
 70
     1
102
RTVSPropertyOp1
 70
     1
102
RTVSPropertyOp2
 70
     1
102
RTVSPropertyOp3
 70
     1
102
RTVSPropertyOp4
 70
     1
102
RTVSPropertyOp5
 70
     1
102
RTVSPropertyOp6
 70
     1
102
RTVSPropertyOp7
 70
     1
102
RTVSPropertyOp8
 70
     1
102
RTVSPropertyOp9
 70
     1
102
RTVSPropertyOp10
 70
     1
102
RTVSPropertyOp11
 70
     1
102
RTVSPropertyOp12
 70
     1
102
RTVSPropertyOp13
 70
     1
102
RTVSPropertyOp14
 70
     1
102
RTVSPropertyOp15
 70
     1
102
RTVSPropertyOp16
 70
     1
102
RTVSPropertyOp17
 70
     1
102
RTVSPropertyOp18
 70
     1
102
RTVSPropertyOp19
 70
     1
102
RTVSPropertyOp20
 70
     1
102
RTVSPropertyOp21
 70
     1
102
RTVSPropertyOp22
 70
     1
102
RTVSPropertyOp23
 70
     1
102
RTVSPropertyOp24
 70
     1
102
RTVSPropertyOp25
 70
     1
102
RTVSPropertyOp26
 70
     1
102
RTVSPropertyOp27
 70
     1
102
RTVSPropertyOp28
 70
     1
102
RTVSPropertyOp29
 70
     1
102
RTVSPropertyOp30
 70
     1
102
RTVSPropertyOp31
 70
     1
102
RTVSPropertyOp32
 70
     1
102
RTVSPropertyOp33
 70
     1
102
RTVSPropertyOp34
 70
     1
102
RTVSPropertyOp35
 70
     1
102
RTVSPropertyOp36
 70
     1
102
RTVSPropertyOp37
 70
     1
102
RTVSPropertyOp38
 70
     1
102
RTVSPropertyOp39
 70
     1
102
RTVSPropertyOp40
 70
     1
102
RTVSPropertyOp41
 70
     1
102
RTVSPropertyOp42
 70
     1
102
RTVSPropertyOp43
 70
     1
102
RTVSPropertyOp44
 70
     1
102
RTVSPropertyOp45
 70
     1
102
RTVSPropertyOp46
 70
     1
102
RTVSPropertyOp47
 70
     1
102
RTVSPropertyOp48
 70
     1
102
RTVSPropertyOp49
 70
     1
102
RTVSPropertyOp50
 70
     1
102
RTVSPropertyOp51
 70
     0
102
RTVSPropertyOp52
 70
     0
102
RTVSPropertyOp53
 70
     1
102
RTVSPropertyOp54
 70
     1
102
RTVSPropertyOp55
 70
     1
102
RTVSPropertyOp56
 70
     1
102
RTVSPropertyOp57
 70
     1
102
RTVSPost2010Prop28
280
     0
102
RTVSPost2010PropOp28
 70
     1
102
RTVSPost2010Prop29
280
     1
102
RTVSPost2010PropOp29
 70
     1
102
RTVSPost2010Prop30
280
     1
102
RTVSPost2010PropOp30
 70
     1
102
RTVSPost2010Prop31
280
     0
102
RTVSPost2010PropOp31
 70
     1
102
RTVSPost2010Prop32
280
     0
102
RTVSPost2010PropOp32
 70
     1
102
RTVSPost2010Prop33
280
     0
102
RTVSPost2010PropOp33
 70
     1
102
RTVSPost2010Prop34
280
     0
102
RTVSPost2010PropOp34
 70
     1
102
RTVSPost2010Prop35
280
     0
102
RTVSPost2010PropOp35
 70
     1
102
RTVSPost2010Prop36
280
     0
102
RTVSPost2010PropOp36
 70
     1
102
RTVSPost2010Prop37
 90
       50
102
RTVSPost2010PropOp37
 70
     1
102
RTVSPost2010Prop38
140
0.0
102
RTVSPost2010PropOp38
 70
     1
102
RTVSPost2010Prop39
140
1.0
102
RTVSPost2010PropOp39
 70
     1
102
RTVSPost2010Prop40
 90
        0
102
RTVSPost2010PropOp40
 70
     1
102
RTVSPost2010Prop41ColorIndex
 90
       18
102
RTVSPost2010Prop41ColorRGB
 90
        0
102
RTVSPost2010PropOp41
 70
     1
102
RTVSPost2010Prop42
 90
       50
102
RTVSPost2010PropOp42
 70
     1
102
RTVSPost2010Prop43
 90
        3
102
RTVSPost2010PropOp43
 70
     1
102
RTVSPost2010Prop44ColorIndex
 90
        5
102
RTVSPost2010Prop44ColorRGB
 90
      255
102
RTVSPost2010PropOp44
 70
     1
102
RTVSPost2010Prop45
280
     0
102
RTVSPost2010PropOp45
 70
     1
102
RTVSPost2010Prop46
 90
       50
102
RTVSPost2010PropOp46
 70
     1
102
RTVSPost2010Prop47
 90
       50
102
RTVSPost2010PropOp47
 70
     1
102
RTVSPost2010Prop48
 90
       50
102
RTVSPost2010PropOp48
 70
     1
102
RTVSPost2010Prop49
280
     0
102
RTVSPost2010PropOp49
 70
     1
102
RTVSPost2010Prop50
 90
       50
102
RTVSPost2010PropOp50
 70
     1
102
RTVSPost2010Prop51ColorIndex
 90
      256
102
RTVSPost2010Prop51ColorRGB
 90
-16777216
102
RTVSPost2010PropOp51
 70
     0
102
RTVSPost2010Prop52
140
1.0
102
RTVSPost2010PropOp52
 70
     0
102
RTVSPost2010Prop53
 90
        2
102
RTVSPost2010PropOp53
 70
     1
102
RTVSPost2010Prop54
  1
strokes_ogs.tif
102
RTVSPost2010PropOp54
 70
     1
102
RTVSPost2010Prop55
280
     0
102
RTVSPost2010PropOp55
 70
     1
102
RTVSPost2010Prop56
140
1.0
102
RTVSPost2010PropOp56
 70
     1
102
RTVSPost2010Prop57
140
1.0
102
RTVSPost2010PropOp57
 70
     1
  0
XRECORD
  5
1C0
102
{ACAD_REACTORS
330
1BF
102
}
330
1BF
100
AcDbXrecord
280
     1
102
RTVSPropertyOp0
 70
     1
102
RTVSPropertyOp1
 70
     1
102
RTVSPropertyOp2
 70
     1
102
RTVSPropertyOp3
 70
     1
102
RTVSPropertyOp4
 70
     1
102
RTVSPropertyOp5
 70
     1
102
RTVSPropertyOp6
 70
     1
102
RTVSPropertyOp7
 70
     1
102
RTVSPropertyOp8
 70
     1
102
RTVSPropertyOp9
 70
     1
102
RTVSPropertyOp10
 70
     1
102
RTVSPropertyOp11
 70
     1
102
RTVSPropertyOp12
 70
     1
102
RTVSPropertyOp13
 70
     1
102
RTVSPropertyOp14
 70
     1
102
RTVSPropertyOp15
 70
     1
102
RTVSPropertyOp16
 70
     1
102
RTVSPropertyOp17
 70
     1
102
RTVSPropertyOp18
 70
     1
102
RTVSPropertyOp19
 70
     1
102
RTVSPropertyOp20
 70
     1
102
RTVSPropertyOp21
 70
     1
102
RTVSPropertyOp22
 70
     1
102
RTVSPropertyOp23
 70
     1
102
RTVSPropertyOp24
 70
     1
102
RTVSPropertyOp25
 70
     1
102
RTVSPropertyOp26
 70
     1
102
RTVSPropertyOp27
 70
     1
102
RTVSPropertyOp28
 70
     1
102
RTVSPropertyOp29
 70
     1
102
RTVSPropertyOp30
 70
     1
102
RTVSPropertyOp31
 70
     1
102
RTVSPropertyOp32
 70
     1
102
RTVSPropertyOp33
 70
     1
102
RTVSPropertyOp34
 70
     1
102
RTVSPropertyOp35
 70
     1
102
RTVSPropertyOp36
 70
     1
102
RTVSPropertyOp37
 70
     1
102
RTVSPropertyOp38
 70
     1
102
RTVSPropertyOp39
 70
     1
102
RTVSPropertyOp40
 70
     1
102
RTVSPropertyOp41
 70
     1
102
RTVSPropertyOp42
 70
     1
102
RTVSPropertyOp43
 70
     1
102
RTVSPropertyOp44
 70
     1
102
RTVSPropertyOp45
 70
     1
102
RTVSPropertyOp46
 70
     1
102
RTVSPropertyOp47
 70
     1
102
RTVSPropertyOp48
 70
     1
102
RTVSPropertyOp49
 70
     1
102
RTVSPropertyOp50
 70
     1
102
RTVSPropertyOp51
 70
     0
102
RTVSPropertyOp52
 70
     0
102
RTVSPropertyOp53
 70
     1
102
RTVSPropertyOp54
 70
     1
102
RTVSPropertyOp55
 70
     1
102
RTVSPropertyOp56
 70
     1
102
RTVSPropertyOp57
 70
     1
102
RTVSPost2010Prop28
280
     0
102
RTVSPost2010PropOp28
 70
     1
102
RTVSPost2010Prop29
280
     1
102
RTVSPost2010PropOp29
 70
     1
102
RTVSPost2010Prop30
280
     1
102
RTVSPost2010PropOp30
 70
     1
102
RTVSPost2010Prop31
280
     0
102
RTVSPost2010PropOp31
 70
     1
102
RTVSPost2010Prop32
280
     0
102
RTVSPost2010PropOp32
 70
     1
102
RTVSPost2010Prop33
280
     0
102
RTVSPost2010PropOp33
 70
     1
102
RTVSPost2010Prop34
280
     0
102
RTVSPost2010PropOp34
 70
     1
102
RTVSPost2010Prop35
280
     0
102
RTVSPost2010PropOp35
 70
     1
102
RTVSPost2010Prop36
280
     0
102
RTVSPost2010PropOp36
 70
     1
102
RTVSPost2010Prop37
 90
       50
102
RTVSPost2010PropOp37
 70
     1
102
RTVSPost2010Prop38
140
0.0
102
RTVSPost2010PropOp38
 70
     1
102
RTVSPost2010Prop39
140
1.0
102
RTVSPost2010PropOp39
 70
     1
102
RTVSPost2010Prop40
 90
        0
102
RTVSPost2010PropOp40
 70
     1
102
RTVSPost2010Prop41ColorIndex
 90
       18
102
RTVSPost2010Prop41ColorRGB
 90
        0
102
RTVSPost2010PropOp41
 70
     1
102
RTVSPost2010Prop42
 90
       50
102
RTVSPost2010PropOp42
 70
     1
102
RTVSPost2010Prop43
 90
        3
102
RTVSPost2010PropOp43
 70
     1
102
RTVSPost2010Prop44ColorIndex
 90
        5
102
RTVSPost2010Prop44ColorRGB
 90
      255
102
RTVSPost2010PropOp44
 70
     1
102
RTVSPost2010Prop45
280
     0
102
RTVSPost2010PropOp45
 70
     1
102
RTVSPost2010Prop46
 90
       50
102
RTVSPost2010PropOp46
 70
     1
102
RTVSPost2010Prop47
 90
       50
102
RTVSPost2010PropOp47
 70
     1
102
RTVSPost2010Prop48
 90
       50
102
RTVSPost2010PropOp48
 70
     1
102
RTVSPost2010Prop49
280
     0
102
RTVSPost2010PropOp49
 70
     1
102
RTVSPost2010Prop50
 90
       50
102
RTVSPost2010PropOp50
 70
     1
102
RTVSPost2010Prop51ColorIndex
 90
      256
102
RTVSPost2010Prop51ColorRGB
 90
-16777216
102
RTVSPost2010PropOp51
 70
     0
102
RTVSPost2010Prop52
140
1.0
102
RTVSPost2010PropOp52
 70
     0
102
RTVSPost2010Prop53
 90
        2
102
RTVSPost2010PropOp53
 70
     1
102
RTVSPost2010Prop54
  1
strokes_ogs.tif
102
RTVSPost2010PropOp54
 70
     1
102
RTVSPost2010Prop55
280
     0
102
RTVSPost2010PropOp55
 70
     1
102
RTVSPost2010Prop56
140
1.0
102
RTVSPost2010PropOp56
 70
     1
102
RTVSPost2010Prop57
140
1.0
102
RTVSPost2010PropOp57
 70
     1
  0
XRECORD
  5
1BE
102
{ACAD_REACTORS
330
1BD
102
}
330
1BD
100
AcDbXrecord
280
     1
102
RTVSPropertyOp0
 70
     1
102
RTVSPropertyOp1
 70
     1
102
RTVSPropertyOp2
 70
     1
102
RTVSPropertyOp3
 70
     1
102
RTVSPropertyOp4
 70
     1
102
RTVSPropertyOp5
 70
     1
102
RTVSPropertyOp6
 70
     1
102
RTVSPropertyOp7
 70
     1
102
RTVSPropertyOp8
 70
     1
102
RTVSPropertyOp9
 70
     1
102
RTVSPropertyOp10
 70
     1
102
RTVSPropertyOp11
 70
     1
102
RTVSPropertyOp12
 70
     1
102
RTVSPropertyOp13
 70
     1
102
RTVSPropertyOp14
 70
     1
102
RTVSPropertyOp15
 70
     1
102
RTVSPropertyOp16
 70
     1
102
RTVSPropertyOp17
 70
     1
102
RTVSPropertyOp18
 70
     1
102
RTVSPropertyOp19
 70
     1
102
RTVSPropertyOp20
 70
     1
102
RTVSPropertyOp21
 70
     1
102
RTVSPropertyOp22
 70
     1
102
RTVSPropertyOp23
 70
     1
102
RTVSPropertyOp24
 70
     1
102
RTVSPropertyOp25
 70
     1
102
RTVSPropertyOp26
 70
     1
102
RTVSPropertyOp27
 70
     1
102
RTVSPropertyOp28
 70
     1
102
RTVSPropertyOp29
 70
     1
102
RTVSPropertyOp30
 70
     1
102
RTVSPropertyOp31
 70
     1
102
RTVSPropertyOp32
 70
     1
102
RTVSPropertyOp33
 70
     1
102
RTVSPropertyOp34
 70
     1
102
RTVSPropertyOp35
 70
     1
102
RTVSPropertyOp36
 70
     1
102
RTVSPropertyOp37
 70
     1
102
RTVSPropertyOp38
 70
     1
102
RTVSPropertyOp39
 70
     1
102
RTVSPropertyOp40
 70
     1
102
RTVSPropertyOp41
 70
     1
102
RTVSPropertyOp42
 70
     1
102
RTVSPropertyOp43
 70
     1
102
RTVSPropertyOp44
 70
     1
102
RTVSPropertyOp45
 70
     1
102
RTVSPropertyOp46
 70
     1
102
RTVSPropertyOp47
 70
     1
102
RTVSPropertyOp48
 70
     1
102
RTVSPropertyOp49
 70
     1
102
RTVSPropertyOp50
 70
     1
102
RTVSPropertyOp51
 70
     0
102
RTVSPropertyOp52
 70
     0
102
RTVSPropertyOp53
 70
     1
102
RTVSPropertyOp54
 70
     1
102
RTVSPropertyOp55
 70
     1
102
RTVSPropertyOp56
 70
     1
102
RTVSPropertyOp57
 70
     1
102
RTVSPost2010Prop28
280
     0
102
RTVSPost2010PropOp28
 70
     1
102
RTVSPost2010Prop29
280
     1
102
RTVSPost2010PropOp29
 70
     1
102
RTVSPost2010Prop30
280
     1
102
RTVSPost2010PropOp30
 70
     1
102
RTVSPost2010Prop31
280
     0
102
RTVSPost2010PropOp31
 70
     1
102
RTVSPost2010Prop32
280
     0
102
RTVSPost2010PropOp32
 70
     1
102
RTVSPost2010Prop33
280
     0
102
RTVSPost2010PropOp33
 70
     1
102
RTVSPost2010Prop34
280
     0
102
RTVSPost2010PropOp34
 70
     1
102
RTVSPost2010Prop35
280
     0
102
RTVSPost2010PropOp35
 70
     1
102
RTVSPost2010Prop36
280
     0
102
RTVSPost2010PropOp36
 70
     1
102
RTVSPost2010Prop37
 90
       50
102
RTVSPost2010PropOp37
 70
     1
102
RTVSPost2010Prop38
140
0.0
102
RTVSPost2010PropOp38
 70
     1
102
RTVSPost2010Prop39
140
1.0
102
RTVSPost2010PropOp39
 70
     1
102
RTVSPost2010Prop40
 90
        0
102
RTVSPost2010PropOp40
 70
     1
102
RTVSPost2010Prop41ColorIndex
 90
       18
102
RTVSPost2010Prop41ColorRGB
 90
        0
102
RTVSPost2010PropOp41
 70
     1
102
RTVSPost2010Prop42
 90
       50
102
RTVSPost2010PropOp42
 70
     1
102
RTVSPost2010Prop43
 90
        3
102
RTVSPost2010PropOp43
 70
     1
102
RTVSPost2010Prop44ColorIndex
 90
        5
102
RTVSPost2010Prop44ColorRGB
 90
      255
102
RTVSPost2010PropOp44
 70
     1
102
RTVSPost2010Prop45
280
     0
102
RTVSPost2010PropOp45
 70
     1
102
RTVSPost2010Prop46
 90
       50
102
RTVSPost2010PropOp46
 70
     1
102
RTVSPost2010Prop47
 90
       50
102
RTVSPost2010PropOp47
 70
     1
102
RTVSPost2010Prop48
 90
       50
102
RTVSPost2010PropOp48
 70
     1
102
RTVSPost2010Prop49
280
     0
102
RTVSPost2010PropOp49
 70
     1
102
RTVSPost2010Prop50
 90
       50
102
RTVSPost2010PropOp50
 70
     1
102
RTVSPost2010Prop51ColorIndex
 90
      256
102
RTVSPost2010Prop51ColorRGB
 90
-16777216
102
RTVSPost2010PropOp51
 70
     0
102
RTVSPost2010Prop52
140
1.0
102
RTVSPost2010PropOp52
 70
     0
102
RTVSPost2010Prop53
 90
        2
102
RTVSPost2010PropOp53
 70
     1
102
RTVSPost2010Prop54
  1
strokes_ogs.tif
102
RTVSPost2010PropOp54
 70
     1
102
RTVSPost2010Prop55
280
     0
102
RTVSPost2010PropOp55
 70
     1
102
RTVSPost2010Prop56
140
1.0
102
RTVSPost2010PropOp56
 70
     1
102
RTVSPost2010Prop57
140
1.0
102
RTVSPost2010PropOp57
 70
     1
  0
XRECORD
  5
1B8
102
{ACAD_REACTORS
330
1B7
102
}
330
1B7
100
AcDbXrecord
280
     1
102
RTVSPropertyOp0
 70
     1
102
RTVSPropertyOp1
 70
     1
102
RTVSPropertyOp2
 70
     1
102
RTVSPropertyOp3
 70
     1
102
RTVSPropertyOp4
 70
     1
102
RTVSPropertyOp5
 70
     1
102
RTVSPropertyOp6
 70
     1
102
RTVSPropertyOp7
 70
     1
102
RTVSPropertyOp8
 70
     1
102
RTVSPropertyOp9
 70
     1
102
RTVSPropertyOp10
 70
     1
102
RTVSPropertyOp11
 70
     1
102
RTVSPropertyOp12
 70
     1
102
RTVSPropertyOp13
 70
     1
102
RTVSPropertyOp14
 70
     1
102
RTVSPropertyOp15
 70
     1
102
RTVSPropertyOp16
 70
     1
102
RTVSPropertyOp17
 70
     1
102
RTVSPropertyOp18
 70
     1
102
RTVSPropertyOp19
 70
     1
102
RTVSPropertyOp20
 70
     1
102
RTVSPropertyOp21
 70
     1
102
RTVSPropertyOp22
 70
     1
102
RTVSPropertyOp23
 70
     1
102
RTVSPropertyOp24
 70
     1
102
RTVSPropertyOp25
 70
     1
102
RTVSPropertyOp26
 70
     1
102
RTVSPropertyOp27
 70
     1
102
RTVSPropertyOp28
 70
     1
102
RTVSPropertyOp29
 70
     1
102
RTVSPropertyOp30
 70
     1
102
RTVSPropertyOp31
 70
     1
102
RTVSPropertyOp32
 70
     1
102
RTVSPropertyOp33
 70
     1
102
RTVSPropertyOp34
 70
     1
102
RTVSPropertyOp35
 70
     1
102
RTVSPropertyOp36
 70
     1
102
RTVSPropertyOp37
 70
     1
102
RTVSPropertyOp38
 70
     1
102
RTVSPropertyOp39
 70
     1
102
RTVSPropertyOp40
 70
     1
102
RTVSPropertyOp41
 70
     1
102
RTVSPropertyOp42
 70
     1
102
RTVSPropertyOp43
 70
     1
102
RTVSPropertyOp44
 70
     1
102
RTVSPropertyOp45
 70
     1
102
RTVSPropertyOp46
 70
     1
102
RTVSPropertyOp47
 70
     1
102
RTVSPropertyOp48
 70
     1
102
RTVSPropertyOp49
 70
     1
102
RTVSPropertyOp50
 70
     1
102
RTVSPropertyOp51
 70
     0
102
RTVSPropertyOp52
 70
     0
102
RTVSPropertyOp53
 70
     1
102
RTVSPropertyOp54
 70
     1
102
RTVSPropertyOp55
 70
     1
102
RTVSPropertyOp56
 70
     1
102
RTVSPropertyOp57
 70
     1
102
RTVSPost2010Prop28
280
     0
102
RTVSPost2010PropOp28
 70
     1
102
RTVSPost2010Prop29
280
     1
102
RTVSPost2010PropOp29
 70
     1
102
RTVSPost2010Prop30
280
     1
102
RTVSPost2010PropOp30
 70
     1
102
RTVSPost2010Prop31
280
     0
102
RTVSPost2010PropOp31
 70
     1
102
RTVSPost2010Prop32
280
     0
102
RTVSPost2010PropOp32
 70
     1
102
RTVSPost2010Prop33
280
     0
102
RTVSPost2010PropOp33
 70
     1
102
RTVSPost2010Prop34
280
     0
102
RTVSPost2010PropOp34
 70
     1
102
RTVSPost2010Prop35
280
     0
102
RTVSPost2010PropOp35
 70
     1
102
RTVSPost2010Prop36
280
     0
102
RTVSPost2010PropOp36
 70
     1
102
RTVSPost2010Prop37
 90
       50
102
RTVSPost2010PropOp37
 70
     1
102
RTVSPost2010Prop38
140
0.0
102
RTVSPost2010PropOp38
 70
     1
102
RTVSPost2010Prop39
140
1.0
102
RTVSPost2010PropOp39
 70
     1
102
RTVSPost2010Prop40
 90
        0
102
RTVSPost2010PropOp40
 70
     1
102
RTVSPost2010Prop41ColorIndex
 90
       18
102
RTVSPost2010Prop41ColorRGB
 90
        0
102
RTVSPost2010PropOp41
 70
     1
102
RTVSPost2010Prop42
 90
       50
102
RTVSPost2010PropOp42
 70
     1
102
RTVSPost2010Prop43
 90
        3
102
RTVSPost2010PropOp43
 70
     1
102
RTVSPost2010Prop44ColorIndex
 90
        5
102
RTVSPost2010Prop44ColorRGB
 90
      255
102
RTVSPost2010PropOp44
 70
     1
102
RTVSPost2010Prop45
280
     0
102
RTVSPost2010PropOp45
 70
     1
102
RTVSPost2010Prop46
 90
       50
102
RTVSPost2010PropOp46
 70
     1
102
RTVSPost2010Prop47
 90
       50
102
RTVSPost2010PropOp47
 70
     1
102
RTVSPost2010Prop48
 90
       50
102
RTVSPost2010PropOp48
 70
     1
102
RTVSPost2010Prop49
280
     0
102
RTVSPost2010PropOp49
 70
     1
102
RTVSPost2010Prop50
 90
       50
102
RTVSPost2010PropOp50
 70
     1
102
RTVSPost2010Prop51ColorIndex
 90
      256
102
RTVSPost2010Prop51ColorRGB
 90
-16777216
102
RTVSPost2010PropOp51
 70
     0
102
RTVSPost2010Prop52
140
1.0
102
RTVSPost2010PropOp52
 70
     0
102
RTVSPost2010Prop53
 90
        2
102
RTVSPost2010PropOp53
 70
     1
102
RTVSPost2010Prop54
  1
strokes_ogs.tif
102
RTVSPost2010PropOp54
 70
     1
102
RTVSPost2010Prop55
280
     0
102
RTVSPost2010PropOp55
 70
     1
102
RTVSPost2010Prop56
140
1.0
102
RTVSPost2010PropOp56
 70
     1
102
RTVSPost2010Prop57
140
1.0
102
RTVSPost2010PropOp57
 70
     1
  0
XRECORD
  5
1BA
102
{ACAD_REACTORS
330
1B9
102
}
330
1B9
100
AcDbXrecord
280
     1
102
RTVSPropertyOp0
 70
     1
102
RTVSPropertyOp1
 70
     1
102
RTVSPropertyOp2
 70
     1
102
RTVSPropertyOp3
 70
     1
102
RTVSPropertyOp4
 70
     1
102
RTVSPropertyOp5
 70
     1
102
RTVSPropertyOp6
 70
     1
102
RTVSPropertyOp7
 70
     1
102
RTVSPropertyOp8
 70
     1
102
RTVSPropertyOp9
 70
     1
102
RTVSPropertyOp10
 70
     1
102
RTVSPropertyOp11
 70
     1
102
RTVSPropertyOp12
 70
     1
102
RTVSPropertyOp13
 70
     1
102
RTVSPropertyOp14
 70
     1
102
RTVSPropertyOp15
 70
     1
102
RTVSPropertyOp16
 70
     1
102
RTVSPropertyOp17
 70
     1
102
RTVSPropertyOp18
 70
     1
102
RTVSPropertyOp19
 70
     1
102
RTVSPropertyOp20
 70
     1
102
RTVSPropertyOp21
 70
     1
102
RTVSPropertyOp22
 70
     1
102
RTVSPropertyOp23
 70
     1
102
RTVSPropertyOp24
 70
     1
102
RTVSPropertyOp25
 70
     1
102
RTVSPropertyOp26
 70
     1
102
RTVSPropertyOp27
 70
     1
102
RTVSPropertyOp28
 70
     1
102
RTVSPropertyOp29
 70
     1
102
RTVSPropertyOp30
 70
     1
102
RTVSPropertyOp31
 70
     1
102
RTVSPropertyOp32
 70
     1
102
RTVSPropertyOp33
 70
     1
102
RTVSPropertyOp34
 70
     1
102
RTVSPropertyOp35
 70
     1
102
RTVSPropertyOp36
 70
     1
102
RTVSPropertyOp37
 70
     1
102
RTVSPropertyOp38
 70
     1
102
RTVSPropertyOp39
 70
     1
102
RTVSPropertyOp40
 70
     1
102
RTVSPropertyOp41
 70
     1
102
RTVSPropertyOp42
 70
     1
102
RTVSPropertyOp43
 70
     1
102
RTVSPropertyOp44
 70
     1
102
RTVSPropertyOp45
 70
     1
102
RTVSPropertyOp46
 70
     1
102
RTVSPropertyOp47
 70
     1
102
RTVSPropertyOp48
 70
     1
102
RTVSPropertyOp49
 70
     1
102
RTVSPropertyOp50
 70
     1
102
RTVSPropertyOp51
 70
     0
102
RTVSPropertyOp52
 70
     0
102
RTVSPropertyOp53
 70
     1
102
RTVSPropertyOp54
 70
     1
102
RTVSPropertyOp55
 70
     1
102
RTVSPropertyOp56
 70
     1
102
RTVSPropertyOp57
 70
     1
102
RTVSPost2010Prop28
280
     0
102
RTVSPost2010PropOp28
 70
     1
102
RTVSPost2010Prop29
280
     1
102
RTVSPost2010PropOp29
 70
     1
102
RTVSPost2010Prop30
280
     1
102
RTVSPost2010PropOp30
 70
     1
102
RTVSPost2010Prop31
280
     0
102
RTVSPost2010PropOp31
 70
     1
102
RTVSPost2010Prop32
280
     0
102
RTVSPost2010PropOp32
 70
     1
102
RTVSPost2010Prop33
280
     0
102
RTVSPost2010PropOp33
 70
     1
102
RTVSPost2010Prop34
280
     0
102
RTVSPost2010PropOp34
 70
     1
102
RTVSPost2010Prop35
280
     0
102
RTVSPost2010PropOp35
 70
     1
102
RTVSPost2010Prop36
280
     0
102
RTVSPost2010PropOp36
 70
     1
102
RTVSPost2010Prop37
 90
       50
102
RTVSPost2010PropOp37
 70
     1
102
RTVSPost2010Prop38
140
0.0
102
RTVSPost2010PropOp38
 70
     1
102
RTVSPost2010Prop39
140
1.0
102
RTVSPost2010PropOp39
 70
     1
102
RTVSPost2010Prop40
 90
        0
102
RTVSPost2010PropOp40
 70
     1
102
RTVSPost2010Prop41ColorIndex
 90
       18
102
RTVSPost2010Prop41ColorRGB
 90
        0
102
RTVSPost2010PropOp41
 70
     1
102
RTVSPost2010Prop42
 90
       50
102
RTVSPost2010PropOp42
 70
     1
102
RTVSPost2010Prop43
 90
        3
102
RTVSPost2010PropOp43
 70
     1
102
RTVSPost2010Prop44ColorIndex
 90
        5
102
RTVSPost2010Prop44ColorRGB
 90
      255
102
RTVSPost2010PropOp44
 70
     1
102
RTVSPost2010Prop45
280
     0
102
RTVSPost2010PropOp45
 70
     1
102
RTVSPost2010Prop46
 90
       50
102
RTVSPost2010PropOp46
 70
     1
102
RTVSPost2010Prop47
 90
       50
102
RTVSPost2010PropOp47
 70
     1
102
RTVSPost2010Prop48
 90
       50
102
RTVSPost2010PropOp48
 70
     1
102
RTVSPost2010Prop49
280
     0
102
RTVSPost2010PropOp49
 70
     1
102
RTVSPost2010Prop50
 90
       50
102
RTVSPost2010PropOp50
 70
     1
102
RTVSPost2010Prop51ColorIndex
 90
      256
102
RTVSPost2010Prop51ColorRGB
 90
-16777216
102
RTVSPost2010PropOp51
 70
     0
102
RTVSPost2010Prop52
140
1.0
102
RTVSPost2010PropOp52
 70
     0
102
RTVSPost2010Prop53
 90
        2
102
RTVSPost2010PropOp53
 70
     1
102
RTVSPost2010Prop54
  1
strokes_ogs.tif
102
RTVSPost2010PropOp54
 70
     1
102
RTVSPost2010Prop55
280
     0
102
RTVSPost2010PropOp55
 70
     1
102
RTVSPost2010Prop56
140
1.0
102
RTVSPost2010PropOp56
 70
     1
102
RTVSPost2010Prop57
140
1.0
102
RTVSPost2010PropOp57
 70
     1
  0
XRECORD
  5
1AA
102
{ACAD_REACTORS
330
1A9
102
}
330
1A9
100
AcDbXrecord
280
     1
102
RTVSPropertyOp0
 70
     1
102
RTVSPropertyOp1
 70
     1
102
RTVSPropertyOp2
 70
     1
102
RTVSPropertyOp3
 70
     1
102
RTVSPropertyOp4
 70
     1
102
RTVSPropertyOp5
 70
     1
102
RTVSPropertyOp6
 70
     1
102
RTVSPropertyOp7
 70
     1
102
RTVSPropertyOp8
 70
     1
102
RTVSPropertyOp9
 70
     1
102
RTVSPropertyOp10
 70
     1
102
RTVSPropertyOp11
 70
     1
102
RTVSPropertyOp12
 70
     1
102
RTVSPropertyOp13
 70
     1
102
RTVSPropertyOp14
 70
     1
102
RTVSPropertyOp15
 70
     1
102
RTVSPropertyOp16
 70
     1
102
RTVSPropertyOp17
 70
     1
102
RTVSPropertyOp18
 70
     1
102
RTVSPropertyOp19
 70
     1
102
RTVSPropertyOp20
 70
     1
102
RTVSPropertyOp21
 70
     1
102
RTVSPropertyOp22
 70
     1
102
RTVSPropertyOp23
 70
     1
102
RTVSPropertyOp24
 70
     1
102
RTVSPropertyOp25
 70
     1
102
RTVSPropertyOp26
 70
     1
102
RTVSPropertyOp27
 70
     1
102
RTVSPropertyOp28
 70
     1
102
RTVSPropertyOp29
 70
     1
102
RTVSPropertyOp30
 70
     1
102
RTVSPropertyOp31
 70
     1
102
RTVSPropertyOp32
 70
     1
102
RTVSPropertyOp33
 70
     1
102
RTVSPropertyOp34
 70
     1
102
RTVSPropertyOp35
 70
     1
102
RTVSPropertyOp36
 70
     1
102
RTVSPropertyOp37
 70
     1
102
RTVSPropertyOp38
 70
     1
102
RTVSPropertyOp39
 70
     1
102
RTVSPropertyOp40
 70
     1
102
RTVSPropertyOp41
 70
     1
102
RTVSPropertyOp42
 70
     1
102
RTVSPropertyOp43
 70
     1
102
RTVSPropertyOp44
 70
     1
102
RTVSPropertyOp45
 70
     1
102
RTVSPropertyOp46
 70
     1
102
RTVSPropertyOp47
 70
     1
102
RTVSPropertyOp48
 70
     1
102
RTVSPropertyOp49
 70
     1
102
RTVSPropertyOp50
 70
     1
102
RTVSPropertyOp51
 70
     0
102
RTVSPropertyOp52
 70
     0
102
RTVSPropertyOp53
 70
     1
102
RTVSPropertyOp54
 70
     1
102
RTVSPropertyOp55
 70
     1
102
RTVSPropertyOp56
 70
     1
102
RTVSPropertyOp57
 70
     1
102
RTVSPost2010Prop28
280
     0
102
RTVSPost2010PropOp28
 70
     1
102
RTVSPost2010Prop29
280
     1
102
RTVSPost2010PropOp29
 70
     1
102
RTVSPost2010Prop30
280
     1
102
RTVSPost2010PropOp30
 70
     1
102
RTVSPost2010Prop31
280
     0
102
RTVSPost2010PropOp31
 70
     1
102
RTVSPost2010Prop32
280
     0
102
RTVSPost2010PropOp32
 70
     1
102
RTVSPost2010Prop33
280
     0
102
RTVSPost2010PropOp33
 70
     1
102
RTVSPost2010Prop34
280
     0
102
RTVSPost2010PropOp34
 70
     1
102
RTVSPost2010Prop35
280
     0
102
RTVSPost2010PropOp35
 70
     1
102
RTVSPost2010Prop36
280
     0
102
RTVSPost2010PropOp36
 70
     1
102
RTVSPost2010Prop37
 90
       50
102
RTVSPost2010PropOp37
 70
     1
102
RTVSPost2010Prop38
140
0.0
102
RTVSPost2010PropOp38
 70
     1
102
RTVSPost2010Prop39
140
1.0
102
RTVSPost2010PropOp39
 70
     1
102
RTVSPost2010Prop40
 90
        0
102
RTVSPost2010PropOp40
 70
     1
102
RTVSPost2010Prop41ColorIndex
 90
       18
102
RTVSPost2010Prop41ColorRGB
 90
        0
102
RTVSPost2010PropOp41
 70
     1
102
RTVSPost2010Prop42
 90
       50
102
RTVSPost2010PropOp42
 70
     1
102
RTVSPost2010Prop43
 90
        3
102
RTVSPost2010PropOp43
 70
     1
102
RTVSPost2010Prop44ColorIndex
 90
        5
102
RTVSPost2010Prop44ColorRGB
 90
      255
102
RTVSPost2010PropOp44
 70
     1
102
RTVSPost2010Prop45
280
     0
102
RTVSPost2010PropOp45
 70
     1
102
RTVSPost2010Prop46
 90
       50
102
RTVSPost2010PropOp46
 70
     1
102
RTVSPost2010Prop47
 90
       50
102
RTVSPost2010PropOp47
 70
     1
102
RTVSPost2010Prop48
 90
       50
102
RTVSPost2010PropOp48
 70
     1
102
RTVSPost2010Prop49
280
     0
102
RTVSPost2010PropOp49
 70
     1
102
RTVSPost2010Prop50
 90
       50
102
RTVSPost2010PropOp50
 70
     1
102
RTVSPost2010Prop51ColorIndex
 90
      256
102
RTVSPost2010Prop51ColorRGB
 90
-16777216
102
RTVSPost2010PropOp51
 70
     0
102
RTVSPost2010Prop52
140
1.0
102
RTVSPost2010PropOp52
 70
     0
102
RTVSPost2010Prop53
 90
        2
102
RTVSPost2010PropOp53
 70
     1
102
RTVSPost2010Prop54
  1
strokes_ogs.tif
102
RTVSPost2010PropOp54
 70
     1
102
RTVSPost2010Prop55
280
     0
102
RTVSPost2010PropOp55
 70
     1
102
RTVSPost2010Prop56
140
1.0
102
RTVSPost2010PropOp56
 70
     1
102
RTVSPost2010Prop57
140
1.0
102
RTVSPost2010PropOp57
 70
     1
  0
XRECORD
  5
19C
102
{ACAD_REACTORS
330
19B
102
}
330
19B
100
AcDbXrecord
280
     1
102
RTVSPropertyOp0
 70
     1
102
RTVSPropertyOp1
 70
     1
102
RTVSPropertyOp2
 70
     1
102
RTVSPropertyOp3
 70
     1
102
RTVSPropertyOp4
 70
     1
102
RTVSPropertyOp5
 70
     1
102
RTVSPropertyOp6
 70
     1
102
RTVSPropertyOp7
 70
     1
102
RTVSPropertyOp8
 70
     1
102
RTVSPropertyOp9
 70
     1
102
RTVSPropertyOp10
 70
     1
102
RTVSPropertyOp11
 70
     1
102
RTVSPropertyOp12
 70
     1
102
RTVSPropertyOp13
 70
     1
102
RTVSPropertyOp14
 70
     1
102
RTVSPropertyOp15
 70
     1
102
RTVSPropertyOp16
 70
     1
102
RTVSPropertyOp17
 70
     1
102
RTVSPropertyOp18
 70
     1
102
RTVSPropertyOp19
 70
     1
102
RTVSPropertyOp20
 70
     1
102
RTVSPropertyOp21
 70
     1
102
RTVSPropertyOp22
 70
     1
102
RTVSPropertyOp23
 70
     1
102
RTVSPropertyOp24
 70
     1
102
RTVSPropertyOp25
 70
     1
102
RTVSPropertyOp26
 70
     1
102
RTVSPropertyOp27
 70
     1
102
RTVSPropertyOp28
 70
     1
102
RTVSPropertyOp29
 70
     1
102
RTVSPropertyOp30
 70
     1
102
RTVSPropertyOp31
 70
     1
102
RTVSPropertyOp32
 70
     1
102
RTVSPropertyOp33
 70
     1
102
RTVSPropertyOp34
 70
     1
102
RTVSPropertyOp35
 70
     1
102
RTVSPropertyOp36
 70
     1
102
RTVSPropertyOp37
 70
     1
102
RTVSPropertyOp38
 70
     1
102
RTVSPropertyOp39
 70
     1
102
RTVSPropertyOp40
 70
     1
102
RTVSPropertyOp41
 70
     1
102
RTVSPropertyOp42
 70
     1
102
RTVSPropertyOp43
 70
     1
102
RTVSPropertyOp44
 70
     1
102
RTVSPropertyOp45
 70
     1
102
RTVSPropertyOp46
 70
     1
102
RTVSPropertyOp47
 70
     1
102
RTVSPropertyOp48
 70
     1
102
RTVSPropertyOp49
 70
     1
102
RTVSPropertyOp50
 70
     1
102
RTVSPropertyOp51
 70
     0
102
RTVSPropertyOp52
 70
     0
102
RTVSPropertyOp53
 70
     1
102
RTVSPropertyOp54
 70
     1
102
RTVSPropertyOp55
 70
     1
102
RTVSPropertyOp56
 70
     1
102
RTVSPropertyOp57
 70
     1
102
RTVSPost2010Prop28
280
     0
102
RTVSPost2010PropOp28
 70
     1
102
RTVSPost2010Prop29
280
     1
102
RTVSPost2010PropOp29
 70
     1
102
RTVSPost2010Prop30
280
     1
102
RTVSPost2010PropOp30
 70
     1
102
RTVSPost2010Prop31
280
     0
102
RTVSPost2010PropOp31
 70
     1
102
RTVSPost2010Prop32
280
     0
102
RTVSPost2010PropOp32
 70
     1
102
RTVSPost2010Prop33
280
     0
102
RTVSPost2010PropOp33
 70
     1
102
RTVSPost2010Prop34
280
     0
102
RTVSPost2010PropOp34
 70
     1
102
RTVSPost2010Prop35
280
     0
102
RTVSPost2010PropOp35
 70
     1
102
RTVSPost2010Prop36
280
     0
102
RTVSPost2010PropOp36
 70
     1
102
RTVSPost2010Prop37
 90
       50
102
RTVSPost2010PropOp37
 70
     1
102
RTVSPost2010Prop38
140
0.0
102
RTVSPost2010PropOp38
 70
     1
102
RTVSPost2010Prop39
140
1.0
102
RTVSPost2010PropOp39
 70
     1
102
RTVSPost2010Prop40
 90
        0
102
RTVSPost2010PropOp40
 70
     1
102
RTVSPost2010Prop41ColorIndex
 90
       18
102
RTVSPost2010Prop41ColorRGB
 90
        0
102
RTVSPost2010PropOp41
 70
     1
102
RTVSPost2010Prop42
 90
       50
102
RTVSPost2010PropOp42
 70
     1
102
RTVSPost2010Prop43
 90
        3
102
RTVSPost2010PropOp43
 70
     1
102
RTVSPost2010Prop44ColorIndex
 90
        5
102
RTVSPost2010Prop44ColorRGB
 90
      255
102
RTVSPost2010PropOp44
 70
     1
102
RTVSPost2010Prop45
280
     0
102
RTVSPost2010PropOp45
 70
     1
102
RTVSPost2010Prop46
 90
       50
102
RTVSPost2010PropOp46
 70
     1
102
RTVSPost2010Prop47
 90
       50
102
RTVSPost2010PropOp47
 70
     1
102
RTVSPost2010Prop48
 90
       50
102
RTVSPost2010PropOp48
 70
     1
102
RTVSPost2010Prop49
280
     0
102
RTVSPost2010PropOp49
 70
     1
102
RTVSPost2010Prop50
 90
       50
102
RTVSPost2010PropOp50
 70
     1
102
RTVSPost2010Prop51ColorIndex
 90
      256
102
RTVSPost2010Prop51ColorRGB
 90
-16777216
102
RTVSPost2010PropOp51
 70
     0
102
RTVSPost2010Prop52
140
1.0
102
RTVSPost2010PropOp52
 70
     0
102
RTVSPost2010Prop53
 90
        2
102
RTVSPost2010PropOp53
 70
     1
102
RTVSPost2010Prop54
  1
strokes_ogs.tif
102
RTVSPost2010PropOp54
 70
     1
102
RTVSPost2010Prop55
280
     0
102
RTVSPost2010PropOp55
 70
     1
102
RTVSPost2010Prop56
140
1.0
102
RTVSPost2010PropOp56
 70
     1
102
RTVSPost2010Prop57
140
1.0
102
RTVSPost2010PropOp57
 70
     1
  0
XRECORD
  5
1BC
102
{ACAD_REACTORS
330
1BB
102
}
330
1BB
100
AcDbXrecord
280
     1
102
RTVSPropertyOp0
 70
     1
102
RTVSPropertyOp1
 70
     1
102
RTVSPropertyOp2
 70
     1
102
RTVSPropertyOp3
 70
     1
102
RTVSPropertyOp4
 70
     1
102
RTVSPropertyOp5
 70
     1
102
RTVSPropertyOp6
 70
     1
102
RTVSPropertyOp7
 70
     1
102
RTVSPropertyOp8
 70
     1
102
RTVSPropertyOp9
 70
     1
102
RTVSPropertyOp10
 70
     1
102
RTVSPropertyOp11
 70
     1
102
RTVSPropertyOp12
 70
     1
102
RTVSPropertyOp13
 70
     1
102
RTVSPropertyOp14
 70
     1
102
RTVSPropertyOp15
 70
     1
102
RTVSPropertyOp16
 70
     1
102
RTVSPropertyOp17
 70
     1
102
RTVSPropertyOp18
 70
     1
102
RTVSPropertyOp19
 70
     1
102
RTVSPropertyOp20
 70
     1
102
RTVSPropertyOp21
 70
     1
102
RTVSPropertyOp22
 70
     1
102
RTVSPropertyOp23
 70
     1
102
RTVSPropertyOp24
 70
     1
102
RTVSPropertyOp25
 70
     1
102
RTVSPropertyOp26
 70
     1
102
RTVSPropertyOp27
 70
     1
102
RTVSPropertyOp28
 70
     1
102
RTVSPropertyOp29
 70
     1
102
RTVSPropertyOp30
 70
     1
102
RTVSPropertyOp31
 70
     1
102
RTVSPropertyOp32
 70
     1
102
RTVSPropertyOp33
 70
     1
102
RTVSPropertyOp34
 70
     1
102
RTVSPropertyOp35
 70
     1
102
RTVSPropertyOp36
 70
     1
102
RTVSPropertyOp37
 70
     1
102
RTVSPropertyOp38
 70
     1
102
RTVSPropertyOp39
 70
     1
102
RTVSPropertyOp40
 70
     1
102
RTVSPropertyOp41
 70
     1
102
RTVSPropertyOp42
 70
     1
102
RTVSPropertyOp43
 70
     1
102
RTVSPropertyOp44
 70
     1
102
RTVSPropertyOp45
 70
     1
102
RTVSPropertyOp46
 70
     1
102
RTVSPropertyOp47
 70
     1
102
RTVSPropertyOp48
 70
     1
102
RTVSPropertyOp49
 70
     1
102
RTVSPropertyOp50
 70
     1
102
RTVSPropertyOp51
 70
     0
102
RTVSPropertyOp52
 70
     0
102
RTVSPropertyOp53
 70
     1
102
RTVSPropertyOp54
 70
     1
102
RTVSPropertyOp55
 70
     1
102
RTVSPropertyOp56
 70
     1
102
RTVSPropertyOp57
 70
     1
102
RTVSPost2010Prop28
280
     0
102
RTVSPost2010PropOp28
 70
     1
102
RTVSPost2010Prop29
280
     1
102
RTVSPost2010PropOp29
 70
     1
102
RTVSPost2010Prop30
280
     1
102
RTVSPost2010PropOp30
 70
     1
102
RTVSPost2010Prop31
280
     0
102
RTVSPost2010PropOp31
 70
     1
102
RTVSPost2010Prop32
280
     0
102
RTVSPost2010PropOp32
 70
     1
102
RTVSPost2010Prop33
280
     0
102
RTVSPost2010PropOp33
 70
     1
102
RTVSPost2010Prop34
280
     0
102
RTVSPost2010PropOp34
 70
     1
102
RTVSPost2010Prop35
280
     0
102
RTVSPost2010PropOp35
 70
     1
102
RTVSPost2010Prop36
280
     0
102
RTVSPost2010PropOp36
 70
     1
102
RTVSPost2010Prop37
 90
       50
102
RTVSPost2010PropOp37
 70
     1
102
RTVSPost2010Prop38
140
0.0
102
RTVSPost2010PropOp38
 70
     1
102
RTVSPost2010Prop39
140
1.0
102
RTVSPost2010PropOp39
 70
     1
102
RTVSPost2010Prop40
 90
        0
102
RTVSPost2010PropOp40
 70
     1
102
RTVSPost2010Prop41ColorIndex
 90
       18
102
RTVSPost2010Prop41ColorRGB
 90
        0
102
RTVSPost2010PropOp41
 70
     1
102
RTVSPost2010Prop42
 90
       50
102
RTVSPost2010PropOp42
 70
     1
102
RTVSPost2010Prop43
 90
        3
102
RTVSPost2010PropOp43
 70
     1
102
RTVSPost2010Prop44ColorIndex
 90
        5
102
RTVSPost2010Prop44ColorRGB
 90
      255
102
RTVSPost2010PropOp44
 70
     1
102
RTVSPost2010Prop45
280
     0
102
RTVSPost2010PropOp45
 70
     1
102
RTVSPost2010Prop46
 90
       50
102
RTVSPost2010PropOp46
 70
     1
102
RTVSPost2010Prop47
 90
       50
102
RTVSPost2010PropOp47
 70
     1
102
RTVSPost2010Prop48
 90
       50
102
RTVSPost2010PropOp48
 70
     1
102
RTVSPost2010Prop49
280
     0
102
RTVSPost2010PropOp49
 70
     1
102
RTVSPost2010Prop50
 90
       50
102
RTVSPost2010PropOp50
 70
     1
102
RTVSPost2010Prop51ColorIndex
 90
      256
102
RTVSPost2010Prop51ColorRGB
 90
-16777216
102
RTVSPost2010PropOp51
 70
     0
102
RTVSPost2010Prop52
140
1.0
102
RTVSPost2010PropOp52
 70
     0
102
RTVSPost2010Prop53
 90
        2
102
RTVSPost2010PropOp53
 70
     1
102
RTVSPost2010Prop54
  1
strokes_ogs.tif
102
RTVSPost2010PropOp54
 70
     1
102
RTVSPost2010Prop55
280
     0
102
RTVSPost2010PropOp55
 70
     1
102
RTVSPost2010Prop56
140
1.0
102
RTVSPost2010PropOp56
 70
     1
102
RTVSPost2010Prop57
140
1.0
102
RTVSPost2010PropOp57
 70
     1
  0
ENDSEC
  0
EOF
