  0
SECTION
  2
HEADER
  9
$ACADVER
  1
AC1015
  9
$ACADMAINTVER
 70
     6
  9
$DWGCODEPAGE
  3
ANSI_1252
  9
$INSBASE
 10
0.0
 20
0.0
 30
0.0
  9
$EXTMIN
 10
474.648254
 20
461.249969
 30
0.0
  9
$EXTMAX
 10
710.574524
 20
741.542053
 30
0.0
  9
$LIMMIN
 10
474.648254
 20
461.249969
  9
$LIMMAX
 10
710.574524
 20
741.542053
  9
$ORTHOMODE
 70
     0
  9
$REGENMODE
 70
     1
  9
$FILLMODE
 70
     1
  9
$QTEXTMODE
 70
     0
  9
$MIRRTEXT
 70
     1
  9
$LTSCALE
 40
1.0
  9
$ATTMODE
 70
     1
  9
$TEXTSIZE
 40
2.5
  9
$TRACEWID
 40
1.0
  9
$TEXTSTYLE
  7
Standard
  9
$CLAYER
  8
0
  9
$CELTYPE
  6
ByLayer
  9
$CECOLOR
 62
   256
  9
$CELTSCALE
 40
1.0
  9
$DISPSILH
 70
     0
  9
$DIMSCALE
 40
1.0
  9
$DIMASZ
 40
2.5
  9
$DIMEXO
 40
0.625
  9
$DIMDLI
 40
3.75
  9
$DIMRND
 40
0.0
  9
$DIMDLE
 40
0.0
  9
$DIMEXE
 40
1.25
  9
$DIMTP
 40
0.0
  9
$DIMTM
 40
0.0
  9
$DIMTXT
 40
2.5
  9
$DIMCEN
 40
2.5
  9
$DIMTSZ
 40
0.0
  9
$DIMTOL
 70
     0
  9
$DIMLIM
 70
     0
  9
$DIMTIH
 70
     0
  9
$DIMTOH
 70
     0
  9
$DIMSE1
 70
     0
  9
$DIMSE2
 70
     0
  9
$DIMTAD
 70
     1
  9
$DIMZIN
 70
     8
  9
$DIMBLK
  1

  9
$DIMASO
 70
     1
  9
$DIMSHO
 70
     1
  9
$DIMPOST
  1

  9
$DIMAPOST
  1

  9
$DIMALT
 70
     0
  9
$DIMALTD
 70
     3
  9
$DIMALTF
 40
0.03937
  9
$DIMLFAC
 40
1.0
  9
$DIMTOFL
 70
     1
  9
$DIMTVP
 40
0.0
  9
$DIMTIX
 70
     0
  9
$DIMSOXD
 70
     0
  9
$DIMSAH
 70
     0
  9
$DIMBLK1
  1

  9
$DIMBLK2
  1

  9
$DIMSTYLE
  2
ISO-25
  9
$DIMCLRD
 70
     0
  9
$DIMCLRE
 70
     0
  9
$DIMCLRT
 70
     0
  9
$DIMTFAC
 40
1.0
  9
$DIMGAP
 40
0.625
  9
$DIMJUST
 70
     0
  9
$DIMSD1
 70
     0
  9
$DIMSD2
 70
     0
  9
$DIMTOLJ
 70
     0
  9
$DIMTZIN
 70
     8
  9
$DIMALTZ
 70
     0
  9
$DIMALTTZ
 70
     0
  9
$DIMUPT
 70
     0
  9
$DIMDEC
 70
     2
  9
$DIMTDEC
 70
     2
  9
$DIMALTU
 70
     2
  9
$DIMALTTD
 70
     3
  9
$DIMTXSTY
  7
Standard
  9
$DIMAUNIT
 70
     0
  9
$DIMADEC
 70
     0
  9
$DIMALTRND
 40
0.0
  9
$DIMAZIN
 70
     0
  9
$DIMDSEP
 70
    44
  9
$DIMATFIT
 70
     3
  9
$DIMFRAC
 70
     0
  9
$DIMLDRBLK
  1

  9
$DIMLUNIT
 70
     2
  9
$DIMLWD
 70
    -2
  9
$DIMLWE
 70
    -2
  9
$DIMTMOVE
 70
     0
  9
$LUNITS
 70
     2
  9
$LUPREC
 70
     4
  9
$SKETCHINC
 40
1.0
  9
$FILLETRAD
 40
10.0
  9
$AUNITS
 70
     0
  9
$AUPREC
 70
     0
  9
$MENU
  1
.
  9
$ELEVATION
 40
0.0
  9
$PELEVATION
 40
0.0
  9
$THICKNESS
 40
0.0
  9
$LIMCHECK
 70
     0
  9
$CHAMFERA
 40
0.0
  9
$CHAMFERB
 40
0.0
  9
$CHAMFERC
 40
0.0
  9
$CHAMFERD
 40
0.0
  9
$SKPOLY
 70
     0
  9
$TDCREATE
 40
2459228.425839178
  9
$TDUCREATE
 40
2459228.384172512
  9
$TDUPDATE
 40
2459228.425839722
  9
$TDUUPDATE
 40
2459228.384173056
  9
$TDINDWG
 40
0.0000000116
  9
$TDUSRTIMER
 40
0.0000000116
  9
$USRTIMER
 70
     1
  9
$ANGBASE
 50
0.0
  9
$ANGDIR
 70
     0
  9
$PDMODE
 70
     0
  9
$PDSIZE
 40
0.0
  9
$PLINEWID
 40
0.0
  9
$SPLFRAME
 70
     0
  9
$SPLINETYPE
 70
     6
  9
$SPLINESEGS
 70
     8
  9
$HANDSEED
  5
16C
  9
$SURFTAB1
 70
     6
  9
$SURFTAB2
 70
     6
  9
$SURFTYPE
 70
     6
  9
$SURFU
 70
     6
  9
$SURFV
 70
     6
  9
$UCSBASE
  2

  9
$UCSNAME
  2

  9
$UCSORG
 10
0.0
 20
0.0
 30
0.0
  9
$UCSXDIR
 10
1.0
 20
0.0
 30
0.0
  9
$UCSYDIR
 10
0.0
 20
1.0
 30
0.0
  9
$UCSORTHOREF
  2

  9
$UCSORTHOVIEW
 70
     0
  9
$UCSORGTOP
 10
0.0
 20
0.0
 30
0.0
  9
$UCSORGBOTTOM
 10
0.0
 20
0.0
 30
0.0
  9
$UCSORGLEFT
 10
0.0
 20
0.0
 30
0.0
  9
$UCSORGRIGHT
 10
0.0
 20
0.0
 30
0.0
  9
$UCSORGFRONT
 10
0.0
 20
0.0
 30
0.0
  9
$UCSORGBACK
 10
0.0
 20
0.0
 30
0.0
  9
$PUCSBASE
  2

  9
$PUCSNAME
  2

  9
$PUCSORG
 10
0.0
 20
0.0
 30
0.0
  9
$PUCSXDIR
 10
1.0
 20
0.0
 30
0.0
  9
$PUCSYDIR
 10
0.0
 20
1.0
 30
0.0
  9
$PUCSORTHOREF
  2

  9
$PUCSORTHOVIEW
 70
     0
  9
$PUCSORGTOP
 10
0.0
 20
0.0
 30
0.0
  9
$PUCSORGBOTTOM
 10
0.0
 20
0.0
 30
0.0
  9
$PUCSORGLEFT
 10
0.0
 20
0.0
 30
0.0
  9
$PUCSORGRIGHT
 10
0.0
 20
0.0
 30
0.0
  9
$PUCSORGFRONT
 10
0.0
 20
0.0
 30
0.0
  9
$PUCSORGBACK
 10
0.0
 20
0.0
 30
0.0
  9
$USERI1
 70
     0
  9
$USERI2
 70
     0
  9
$USERI3
 70
     0
  9
$USERI4
 70
     0
  9
$USERI5
 70
     0
  9
$USERR1
 40
0.0
  9
$USERR2
 40
0.0
  9
$USERR3
 40
0.0
  9
$USERR4
 40
0.0
  9
$USERR5
 40
0.0
  9
$WORLDVIEW
 70
     1
  9
$SHADEDGE
 70
     3
  9
$SHADEDIF
 70
    70
  9
$TILEMODE
 70
     1
  9
$MAXACTVP
 70
    64
  9
$PINSBASE
 10
0.0
 20
0.0
 30
0.0
  9
$PLIMCHECK
 70
     0
  9
$PEXTMIN
 10
1.000000E+20
 20
1.000000E+20
 30
1.000000E+20
  9
$PEXTMAX
 10
-1.000000E+20
 20
-1.000000E+20
 30
-1.000000E+20
  9
$PLIMMIN
 10
0.0
 20
0.0
  9
$PLIMMAX
 10
420.0
 20
297.0
  9
$UNITMODE
 70
     0
  9
$VISRETAIN
 70
     1
  9
$PLINEGEN
 70
     0
  9
$PSLTSCALE
 70
     1
  9
$TREEDEPTH
 70
  3020
  9
$CMLSTYLE
  2
Standard
  9
$CMLJUST
 70
     0
  9
$CMLSCALE
 40
20.0
  9
$PROXYGRAPHICS
 70
     1
  9
$MEASUREMENT
 70
     1
  9
$CELWEIGHT
370
    -1
  9
$ENDCAPS
280
     0
  9
$JOINSTYLE
280
     0
  9
$LWDISPLAY
290
     0
  9
$INSUNITS
 70
     4
  9
$HYPERLINKBASE
  1

  9
$STYLESHEET
  1

  9
$XEDIT
290
     1
  9
$CEPSNTYPE
380
     0
  9
$PSTYLEMODE
290
     1
  9
$FINGERPRINTGUID
  2
{d8836dff-82da-4c40-bfd8-d1306092d471}
  9
$VERSIONGUID
  2
{FAEB1C32-E019-11D5-929B-00C0DF256EC4}
  9
$EXTNAMES
290
     1
  9
$PSVPSCALE
 40
0.0
  9
$OLESTARTUP
290
     0
  0
ENDSEC
  0
SECTION
  2
CLASSES
  0
CLASS
  1
ACDBDICTIONARYWDFLT
  2
AcDbDictionaryWithDefault
  3
ObjectDBX Classes
 90
        0
280
     0
281
     0
  0
CLASS
  1
VISUALSTYLE
  2
AcDbVisualStyle
  3
ObjectDBX Classes
 90
     4095
280
     0
281
     0
  0
CLASS
  1
MATERIAL
  2
AcDbMaterial
  3
ObjectDBX Classes
 90
     1153
280
     0
281
     0
  0
CLASS
  1
SCALE
  2
AcDbScale
  3
ObjectDBX Classes
 90
     1153
280
     0
281
     0
  0
CLASS
  1
TABLESTYLE
  2
AcDbTableStyle
  3
ObjectDBX Classes
 90
     4095
280
     0
281
     0
  0
CLASS
  1
MLEADERSTYLE
  2
AcDbMLeaderStyle
  3
ACDB_MLEADERSTYLE_CLASS
 90
     4095
280
     0
281
     0
  0
CLASS
  1
SUN
  2
AcDbSun
  3
SCENEOE
 90
     1153
280
     0
281
     0
  0
CLASS
  1
DICTIONARYVAR
  2
AcDbDictionaryVar
  3
ObjectDBX Classes
 90
        0
280
     0
281
     0
  0
CLASS
  1
ACDBPLACEHOLDER
  2
AcDbPlaceHolder
  3
ObjectDBX Classes
 90
        0
280
     0
281
     0
  0
CLASS
  1
LAYOUT
  2
AcDbLayout
  3
ObjectDBX Classes
 90
        0
280
     0
281
     0
  0
ENDSEC
  0
SECTION
  2
TABLES
  0
TABLE
  2
VPORT
  5
8
102
{ACAD_XDICTIONARY
360
12F
102
}
330
0
100
AcDbSymbolTable
 70
     1
  0
VPORT
  5
29
330
8
100
AcDbSymbolTableRecord
100
AcDbViewportTableRecord
  2
*Active
 70
     0
 10
0.0
 20
0.0
 11
1.0
 21
1.0
 12
344.186916
 22
148.5
 13
0.0
 23
0.0
 14
10.0
 24
10.0
 15
10.0
 25
10.0
 16
0.0
 26
0.0
 36
1.0
 17
0.0
 27
0.0
 37
0.0
 40
297.0
 41
1.972973
 42
50.0
 43
0.0
 44
0.0
 50
0.0
 51
0.0
 71
     0
 72
   100
 73
     1
 74
     3
 75
     0
 76
     0
 77
     0
 78
     0
281
     0
 65
     1
110
0.0
120
0.0
130
0.0
111
1.0
121
0.0
131
0.0
112
0.0
122
1.0
132
0.0
 79
     0
146
0.0
  0
ENDTAB
  0
TABLE
  2
LTYPE
  5
5
330
0
100
AcDbSymbolTable
 70
     1
  0
LTYPE
  5
14
330
5
100
AcDbSymbolTableRecord
100
AcDbLinetypeTableRecord
  2
ByBlock
 70
     0
  3

 72
    65
 73
     0
 40
0.0
  0
LTYPE
  5
15
330
5
100
AcDbSymbolTableRecord
100
AcDbLinetypeTableRecord
  2
ByLayer
 70
     0
  3

 72
    65
 73
     0
 40
0.0
  0
LTYPE
  5
16
330
5
100
AcDbSymbolTableRecord
100
AcDbLinetypeTableRecord
  2
Continuous
 70
     0
  3
Solid line
 72
    65
 73
     0
 40
0.0
  0
ENDTAB
  0
TABLE
  2
LAYER
  5
2
330
0
100
AcDbSymbolTable
 70
     1
  0
LAYER
  5
10
330
2
100
AcDbSymbolTableRecord
100
AcDbLayerTableRecord
  2
0
 70
     0
 62
   106
  6
Continuous
370
     0
390
F
  0
ENDTAB
  0
TABLE
  2
STYLE
  5
3
330
0
100
AcDbSymbolTable
 70
     4
  0
STYLE
  5
11
330
3
100
AcDbSymbolTableRecord
100
AcDbTextStyleTableRecord
  2
Standard
 70
     0
 40
0.0
 41
1.0
 50
0.0
 71
     0
 42
2.5
  3
txt
  4

  0
STYLE
  5
6E
330
3
100
AcDbSymbolTableRecord
100
AcDbTextStyleTableRecord
  2
Default
 70
     0
 40
0.0
 41
1.0
 50
0.0
 71
     0
 42
2.5
  3

  4

1001
ACAD
1000
txt
1071
        0
  0
STYLE
  5
6F
330
3
100
AcDbSymbolTableRecord
100
AcDbTextStyleTableRecord
  2
ISO
 70
     0
 40
0.0
 41
1.0
 50
0.0
 71
     0
 42
2.5
  3

  4

1001
ACAD
1000
txt
1071
        0
  0
STYLE
  5
70
330
3
100
AcDbSymbolTableRecord
100
AcDbTextStyleTableRecord
  2
zucchetti
 70
     0
 40
0.0
 41
1.0
 50
0.0
 71
     0
 42
2.5
  3

  4

1001
ACAD
1000
Arial
1071
        0
  0
ENDTAB
  0
TABLE
  2
VIEW
  5
6
330
0
100
AcDbSymbolTable
 70
     0
  0
ENDTAB
  0
TABLE
  2
UCS
  5
7
330
0
100
AcDbSymbolTable
 70
     0
  0
ENDTAB
  0
TABLE
  2
APPID
  5
9
330
0
100
AcDbSymbolTable
 70
     2
  0
APPID
  5
12
330
9
100
AcDbSymbolTableRecord
100
AcDbRegAppTableRecord
  2
ACAD
 70
     0
  0
APPID
  5
169
330
9
100
AcDbSymbolTableRecord
100
AcDbRegAppTableRecord
  2
ACAD_MLEADERVER
 70
     0
  0
ENDTAB
  0
TABLE
  2
DIMSTYLE
  5
A
330
0
100
AcDbSymbolTable
 70
     4
100
AcDbDimStyleTable
  0
DIMSTYLE
105
27
330
A
100
AcDbSymbolTableRecord
100
AcDbDimStyleTableRecord
  2
ISO-25
 70
     0
 41
2.5
 42
0.625
 43
3.75
 44
1.25
 73
     0
 74
     0
 77
     1
 78
     8
140
2.5
141
2.5
143
0.03937
147
0.625
171
     3
172
     1
178
     0
271
     2
272
     2
274
     3
278
    44
283
     0
284
     8
340
11
  0
DIMSTYLE
105
71
330
A
100
AcDbSymbolTableRecord
100
AcDbDimStyleTableRecord
  2
Default
 70
     0
  3
<>
 41
4.375
 42
1.05
 44
2.1
 73
     0
 74
     0
 77
     1
 78
     8
140
3.5
146
0.4
147
1.75
172
     1
271
     2
178
     3
271
     2
272
     3
284
     8
340
6E
341
72
342
72
  0
DIMSTYLE
105
79
330
A
100
AcDbSymbolTableRecord
100
AcDbDimStyleTableRecord
  2
ISO
 70
     0
  3
<>
 41
4.375
 42
1.05
 44
2.1
 73
     0
 74
     0
 77
     1
 78
     8
140
3.5
146
0.4
147
1.75
172
     1
271
     2
178
     3
271
     2
272
     3
284
     8
340
6F
341
72
342
72
  0
DIMSTYLE
105
7A
330
A
100
AcDbSymbolTableRecord
100
AcDbDimStyleTableRecord
  2
zucchetti
 70
     0
  3
<>
 41
3.0
 42
0.9
 44
1.8
 73
     0
 74
     0
 77
     1
 78
     8
140
3.0
146
0.6
147
1.5
172
     1
176
     3
177
     3
271
     2
178
     3
271
     2
272
     2
284
     8
340
70
  0
ENDTAB
  0
TABLE
  2
BLOCK_RECORD
  5
1
330
0
100
AcDbSymbolTable
 70
     4
  0
BLOCK_RECORD
  5
1F
330
1
100
AcDbSymbolTableRecord
100
AcDbBlockTableRecord
  2
*Model_Space
340
22
  0
BLOCK_RECORD
  5
1B
330
1
100
AcDbSymbolTableRecord
100
AcDbBlockTableRecord
  2
*Paper_Space
340
1E
  0
BLOCK_RECORD
  5
23
330
1
100
AcDbSymbolTableRecord
100
AcDbBlockTableRecord
  2
*Paper_Space0
340
26
  0
BLOCK_RECORD
  5
72
330
1
100
AcDbSymbolTableRecord
100
AcDbBlockTableRecord
  2
_Closed
340
0
  0
BLOCK_RECORD
  5
7B
330
1
100
AcDbSymbolTableRecord
100
AcDbBlockTableRecord
  2
a
340
0
102
{BLKREFS
331
A7
102
}
  0
BLOCK_RECORD
  5
A8
330
1
100
AcDbSymbolTableRecord
100
AcDbBlockTableRecord
  2
c
340
0
102
{BLKREFS
331
123
102
}
  0
ENDTAB
  0
ENDSEC
  0
SECTION
  2
BLOCKS
  0
BLOCK
  5
20
330
1F
100
AcDbEntity
  8
0
100
AcDbBlockBegin
  2
*Model_Space
 70
     0
 10
0.0
 20
0.0
 30
0.0
  3
*Model_Space
  1

  0
ENDBLK
  5
21
330
1F
100
AcDbEntity
  8
0
100
AcDbBlockEnd
  0
BLOCK
  5
1C
330
1B
100
AcDbEntity
 67
     1
  8
0
100
AcDbBlockBegin
  2
*Paper_Space
 70
     0
 10
0.0
 20
0.0
 30
0.0
  3
*Paper_Space
  1

  0
ENDBLK
  5
1D
330
1B
100
AcDbEntity
 67
     1
  8
0
100
AcDbBlockEnd
  0
BLOCK
  5
24
330
23
100
AcDbEntity
  8
0
100
AcDbBlockBegin
  2
*Paper_Space0
 70
     0
 10
0.0
 20
0.0
 30
0.0
  3
*Paper_Space0
  1

  0
ENDBLK
  5
25
330
23
100
AcDbEntity
  8
0
100
AcDbBlockEnd
  0
BLOCK
  5
73
330
72
100
AcDbEntity
  8
0
100
AcDbBlockBegin
  2
_Closed
 70
     0
 10
0.0
 20
0.0
 30
0.0
  3
_Closed
  1

  0
LINE
  5
75
330
72
100
AcDbEntity
  8
0
  6
ByBlock
 62
     0
370
    -2
100
AcDbLine
 10
-1.0
 20
0.166667
 30
0.0
 11
0.0
 21
0.0
 31
0.0
  0
LINE
  5
76
330
72
100
AcDbEntity
  8
0
  6
ByBlock
 62
     0
370
    -2
100
AcDbLine
 10
0.0
 20
0.0
 30
0.0
 11
-1.0
 21
-0.166667
 31
0.0
  0
LINE
  5
77
330
72
100
AcDbEntity
  8
0
  6
ByBlock
 62
     0
370
    -2
100
AcDbLine
 10
-1.0
 20
0.166667
 30
0.0
 11
-1.0
 21
-0.166667
 31
0.0
  0
LINE
  5
78
330
72
100
AcDbEntity
  8
0
  6
ByBlock
 62
     0
370
    -2
100
AcDbLine
 10
0.0
 20
0.0
 30
0.0
 11
-1.0
 21
0.0
 31
0.0
  0
ENDBLK
  5
74
330
72
100
AcDbEntity
  8
0
100
AcDbBlockEnd
  0
BLOCK
  5
A5
330
7B
100
AcDbEntity
  8
0
100
AcDbBlockBegin
  2
a
 70
     0
 10
447.068054
 20
156.08725
 30
0.0
  3
a
  1

  0
ARC
  5
7C
330
7B
100
AcDbEntity
  8
0
  6
Continuous
 62
     0
370
    30
100
AcDbCircle
 10
514.648258
 20
547.542068
 30
0.0
 40
21.5
100
AcDbArc
 50
270.0
 51
90.0
  0
ARC
  5
7D
330
7B
100
AcDbEntity
  8
0
  6
Continuous
 62
     0
370
    30
100
AcDbCircle
 10
514.648258
 20
547.542068
 30
0.0
 40
21.5
100
AcDbArc
 50
90.0
 51
270.0
  0
ARC
  5
7E
330
7B
100
AcDbEntity
  8
0
  6
Continuous
 62
     0
370
    30
100
AcDbCircle
 10
514.648258
 20
547.542068
 30
0.0
 40
22.0
100
AcDbArc
 50
270.0
 51
90.0
  0
ARC
  5
7F
330
7B
100
AcDbEntity
  8
0
  6
Continuous
 62
     0
370
    30
100
AcDbCircle
 10
514.648258
 20
547.542068
 30
0.0
 40
22.0
100
AcDbArc
 50
90.0
 51
270.0
  0
LINE
  5
80
330
7B
100
AcDbEntity
  8
0
  6
Continuous
 62
     0
370
    30
100
AcDbLine
 10
518.098258
 20
577.372068
 30
0.0
 11
514.648258
 21
577.372068
 31
0.0
  0
LINE
  5
81
330
7B
100
AcDbEntity
  8
0
  6
Continuous
 62
     0
370
    30
100
AcDbLine
 10
514.648258
 20
577.372068
 30
0.0
 11
511.198258
 21
577.372068
 31
0.0
  0
SPLINE
  5
82
330
7B
100
AcDbEntity
  8
0
  6
Continuous
 62
     0
370
    30
100
AcDbSpline
210
0.0
220
0.0
230
1.0
 70
     8
 71
     3
 72
    12
 73
     8
 74
     0
 42
0.000000001
 43
0.0
 40
0.5
 40
0.5
 40
0.5
 40
0.5
 40
0.571755453842353
 40
0.714762811817824
 40
0.857107008533019
 40
0.9523690028443401
 40
1.0
 40
1.0
 40
1.0
 40
1.0
 10
518.5978034574857
 20
576.8720723114368
 30
0.0
 10
518.5978404187553
 20
576.872073333027
 30
0.0
 10
518.4984994551111
 20
576.8720752121415
 30
0.0
 10
517.8378240012448
 20
576.8720576577564
 30
0.0
 10
516.5802466567103
 20
576.8721113688574
 30
0.0
 10
515.4297244794383
 20
576.8720684051514
 30
0.0
 10
514.8436247767803
 20
576.8720684051514
 30
0.0
 10
514.6482582092276
 20
576.8720684051514
 30
0.0
  0
LINE
  5
83
330
7B
100
AcDbEntity
  8
0
  6
Continuous
 62
     0
370
    30
100
AcDbLine
 10
514.648258
 20
576.872068
 30
0.0
 11
510.698713
 21
576.872072
 31
0.0
  0
LINE
  5
84
330
7B
100
AcDbEntity
  8
0
  6
Continuous
 62
     0
370
    30
100
AcDbLine
 10
510.698258
 20
576.872068
 30
0.0
 11
510.698258
 21
569.1848
 31
0.0
  0
LINE
  5
85
330
7B
100
AcDbEntity
  8
0
  6
Continuous
 62
     0
370
    30
100
AcDbLine
 10
518.598258
 20
576.872068
 30
0.0
 11
518.598258
 21
569.184928
 31
0.0
  0
LINE
  5
86
330
7B
100
AcDbEntity
  8
0
  6
Continuous
 62
     0
370
    30
100
AcDbLine
 10
511.198201
 20
577.372011
 30
0.0
 11
510.698306
 21
576.872116
 31
0.0
  0
LINE
  5
87
330
7B
100
AcDbEntity
  8
0
  6
Continuous
 62
     0
370
    30
100
AcDbLine
 10
518.598211
 20
576.872116
 30
0.0
 11
518.098315
 21
577.372011
 31
0.0
  0
LINE
  5
88
330
7B
100
AcDbEntity
  8
0
  6
Continuous
 62
     0
370
    30
100
AcDbLine
 10
554.648258
 20
473.542068
 30
0.0
 11
474.648258
 21
473.542068
 31
0.0
  0
LINE
  5
89
330
7B
100
AcDbEntity
  8
0
  6
Continuous
 62
     0
370
    30
100
AcDbLine
 10
554.648258
 20
741.542068
 30
0.0
 11
554.648258
 21
473.542068
 31
0.0
  0
LINE
  5
8A
330
7B
100
AcDbEntity
  8
0
  6
Continuous
 62
     0
370
    30
100
AcDbLine
 10
474.648258
 20
741.542068
 30
0.0
 11
554.648258
 21
741.542068
 31
0.0
  0
LINE
  5
8B
330
7B
100
AcDbEntity
  8
0
  6
Continuous
 62
     0
370
    30
100
AcDbLine
 10
474.648258
 20
473.542068
 30
0.0
 11
474.648258
 21
741.542068
 31
0.0
  0
ARC
  5
8C
330
7B
100
AcDbEntity
  8
0
  6
Continuous
 62
     0
370
    30
100
AcDbCircle
 10
514.646625
 20
667.53935
 30
0.0
 40
19.49999963236618
100
AcDbArc
 50
118.025786
 51
61.974244
  0
SPLINE
  5
8D
330
7B
100
AcDbEntity
  8
0
  6
Continuous
 62
     0
370
     0
100
AcDbSpline
210
0.0
220
0.0
230
1.0
 70
     8
 71
     3
 72
    12
 73
     8
 74
     0
 42
0.000000001
 43
0.0
 40
0.0000002552593025
 40
0.0000002552593025
 40
0.0000002552593025
 40
0.0000002552593025
 40
0.111111658793603
 40
0.3333349763808091
 40
0.666668309714139
 40
0.8888894365713801
 40
1.0
 40
1.0
 40
1.0
 40
1.0
 10
505.953660758676
 20
683.4286102727058
 30
0.0
 10
505.9158365165785
 20
683.5014638886464
 30
0.0
 10
505.8055519414813
 20
683.7200247373095
 30
0.0
 10
505.6092777283973
 20
684.1482171896857
 30
0.0
 10
505.4720606964573
 20
684.5352133175758
 30
0.0
 10
505.4533734814146
 20
684.7132807116249
 30
0.0
 10
505.4740891681506
 20
684.7473321939499
 30
0.0
 10
505.4841774389546
 20
684.7527027330116
 30
0.0
  0
SPLINE
  5
8E
330
7B
100
AcDbEntity
  8
0
  6
Continuous
 62
     0
370
     0
100
AcDbSpline
210
0.0
220
0.0
230
1.0
 70
     8
 71
     3
 72
    13
 73
     9
 74
     0
 42
0.000000001
 43
0.0
 40
0.0000123588535272
 40
0.0000123588535272
 40
0.0000123588535272
 40
0.0000123588535272
 40
2.992803358709377
 40
6.013014739974031
 40
8.43015363108694
 40
9.63994460077731
 40
10.44744378805638
 40
12.19204675732173
 40
12.19204675732173
 40
12.19204675732173
 40
12.19204675732173
 10
512.2052264486276
 20
693.3156074183156
 30
0.0
 10
512.1821465254004
 20
692.3182639513498
 30
0.0
 10
511.8665982628383
 20
690.3203270441369
 30
0.0
 10
510.6964411038364
 20
687.7257130604123
 30
0.0
 10
509.3120877536413
 20
685.9541974410446
 30
0.0
 10
508.2180661211017
 20
684.9339449831975
 30
0.0
 10
507.2131645763636
 20
684.1526271611252
 30
0.0
 10
506.4767614283118
 20
683.6992140910087
 30
0.0
 10
505.95366101936
 20
683.4286097705998
 30
0.0
  0
ELLIPSE
  5
8F
330
7B
100
AcDbEntity
  8
0
  6
Continuous
 62
     0
370
     0
100
AcDbEllipse
 10
512.269864
 20
693.315608
 30
0.0
 11
1.499619335520125
 21
-0.03379124937286914
 31
0.0
210
0.0
220
0.0
230
-1.0
 40
0.000972
 41
1.613891338454514
 42
3.164155209905939
  0
ARC
  5
90
330
7B
100
AcDbEntity
  8
0
  6
Continuous
 62
     0
370
     0
100
AcDbCircle
 10
-8149.201933
 20
894.10489
 30
0.0
 40
8663.734200298733
100
AcDbArc
 50
358.672004
 51
358.734045
  0
ELLIPSE
  5
91
330
7B
100
AcDbEntity
  8
0
  6
Continuous
 62
     0
370
     0
100
AcDbEllipse
 10
512.476583
 20
702.694539
 30
0.0
 11
1.499654140177965
 21
-0.03220962351672976
 31
0.0
210
0.0
220
0.0
230
-1.0
 40
0.000846
 41
1.610141286606395
 42
3.1597967846831
  0
SPLINE
  5
92
330
7B
100
AcDbEntity
  8
0
  6
Continuous
 62
     0
370
     0
100
AcDbSpline
210
0.0
220
0.0
230
1.0
 70
     8
 71
     3
 72
    18
 73
    14
 74
     0
 42
0.000000001
 43
0.0
 40
0.0
 40
0.0
 40
0.0
 40
0.0
 40
0.7027370259286991
 40
1.293683266474542
 40
1.630891291109695
 40
1.880691461960285
 40
2.083632206119296
 40
2.396523650565952
 40
2.757413614616584
 40
3.276994358666676
 40
3.724776255592948
 40
4.73901773150989
 40
6.510094996432836
 40
6.510094996432836
 40
6.510094996432836
 40
6.510094996432836
 10
514.6466362670774
 20
707.9921250706984
 30
0.0
 10
514.4060190118382
 20
707.9921251122273
 30
0.0
 10
513.961761163571
 20
707.9331260300377
 30
0.0
 10
513.4519251614029
 20
707.6978413888179
 30
0.0
 10
513.1323221692192
 20
707.4574192564985
 30
0.0
 10
512.938220157441
 20
707.2721618419059
 30
0.0
 10
512.8015948077215
 20
707.0525860735847
 30
0.0
 10
512.6966185196077
 20
706.7777716662481
 30
0.0
 10
512.6074837331911
 20
706.3889097993882
 30
0.0
 10
512.5565029699834
 20
705.9484995603358
 30
0.0
 10
512.5136116694359
 20
705.2892964066895
 30
0.0
 10
512.4611222994985
 20
704.2127560119524
 30
0.0
 10
512.4305887893174
 20
703.284761768074
 30
0.0
 10
512.4175671357574
 20
702.6945390117439
 30
0.0
  0
LINE
  5
93
330
7B
100
AcDbEntity
  8
0
  6
Continuous
 62
     0
370
     0
100
AcDbLine
 10
514.646627
 20
709.492125
 30
0.0
 11
514.646627
 21
707.992125
 31
0.0
  0
SPLINE
  5
94
330
7B
100
AcDbEntity
  8
0
  6
Continuous
 62
     0
370
     0
100
AcDbSpline
210
0.0
220
0.0
230
1.0
 70
     8
 71
     3
 72
    18
 73
    14
 74
     0
 42
0.000000001
 43
0.0
 40
0.0
 40
0.0
 40
0.0
 40
0.0
 40
0.7027396030835431
 40
1.293683513966321
 40
1.630890113499688
 40
1.880689862114117
 40
2.083631079056739
 40
2.396523634479162
 40
2.75741634684073
 40
3.277001564642871
 40
3.724787057023509
 40
4.739029134248826
 40
6.510091641996262
 40
6.510091641996262
 40
6.510091641996262
 40
6.510091641996262
 10
514.646637811451
 20
707.992125070698
 30
0.0
 10
514.8872559491083
 20
707.9921249614545
 30
0.0
 10
515.3315137817367
 20
707.9331253502407
 30
0.0
 10
515.8413482873033
 20
707.6978393449741
 30
0.0
 10
516.1609491526821
 20
707.4574172187686
 30
0.0
 10
516.3550499974638
 20
707.2721595582276
 30
0.0
 10
516.4916750235996
 20
707.0525832678799
 30
0.0
 10
516.5966515715245
 20
706.7777674741261
 30
0.0
 10
516.6857868072825
 20
706.3889028809925
 30
0.0
 10
516.7367679099002
 20
705.9484890594754
 30
0.0
 10
516.7796596837939
 20
705.2892830449691
 30
0.0
 10
516.8321496715889
 20
704.2127462051941
 30
0.0
 10
516.8626832052477
 20
703.284756687709
 30
0.0
 10
516.8757046669814
 20
702.6945388480194
 30
0.0
  0
ELLIPSE
  5
95
330
7B
100
AcDbEntity
  8
0
  6
Continuous
 62
     0
370
     0
100
AcDbEllipse
 10
516.816668
 20
702.694539
 30
0.0
 11
-1.499654143804199
 21
-0.032209454681747
 31
0.0
210
0.0
220
0.0
230
1.0
 40
0.000846
 41
1.610155425166684
 42
3.159798021025469
  0
ARC
  5
96
330
7B
100
AcDbEntity
  8
0
  6
Continuous
 62
     0
370
     0
100
AcDbCircle
 10
9178.49377
 20
894.103633
 30
0.0
 40
8663.732737917308
100
AcDbArc
 50
181.265947
 51
181.327988
  0
ELLIPSE
  5
97
330
7B
100
AcDbEntity
  8
0
  6
Continuous
 62
     0
370
     0
100
AcDbEllipse
 10
517.023386
 20
693.315609
 30
0.0
 11
-1.499619339223566
 21
-0.03379108501773134
 31
0.0
210
0.0
220
0.0
230
1.0
 40
0.000972
 41
1.613904161618608
 42
3.164137163690929
  0
SPLINE
  5
98
330
7B
100
AcDbEntity
  8
0
  6
Continuous
 62
     0
370
     0
100
AcDbSpline
210
0.0
220
0.0
230
1.0
 70
     8
 71
     3
 72
    13
 73
     9
 74
     0
 42
0.000000001
 43
0.0
 40
0.0
 40
0.0
 40
0.0
 40
0.0
 40
1.735206470757562
 40
2.540312532369392
 40
3.746514832259412
 40
5.960462971079514
 40
8.979739629099337
 40
12.19204218860281
 40
12.19204218860281
 40
12.19204218860281
 40
12.19204218860281
 10
523.3395972946964
 20
683.4286151939173
 30
0.0
 10
522.8193142119393
 20
683.697761795846
 30
0.0
 10
522.0861812116071
 20
684.1487659090903
 30
0.0
 10
521.0846309023127
 20
684.9259764576818
 30
0.0
 10
520.0410895316895
 20
685.8968896365012
 30
0.0
 10
518.6835546757707
 20
687.598034600255
 30
0.0
 10
517.4606039373216
 20
690.1750530769419
 30
0.0
 10
517.1128147729435
 20
692.2451265063207
 30
0.0
 10
517.0880437466423
 20
693.3156219343416
 30
0.0
  0
ELLIPSE
  5
99
330
7B
100
AcDbEntity
  8
0
  6
Continuous
 62
     0
370
     0
100
AcDbEllipse
 10
523.104256
 20
683.428606
 30
0.0
 11
0.704802626604872
 21
1.324104700365826
 31
0.0
210
0.0
220
0.0
230
-1.0
 40
0.138885
 41
-0.0000000000000249
 42
1.497003873366379
  0
SPLINE
  5
9A
330
7B
100
AcDbEntity
  8
0
  6
Continuous
 62
     0
370
     0
100
AcDbSpline
210
0.0
220
0.0
230
1.0
 70
     8
 71
     3
 72
    42
 73
    38
 74
     0
 42
0.000000001
 43
0.0
 40
0.0
 40
0.0
 40
0.0
 40
0.0
 40
4.726589141693007
 40
9.201614532002623
 40
13.20212686915214
 40
16.92203874283866
 40
20.3653019599159
 40
23.91111070304355
 40
27.30608913422157
 40
30.9682392554012
 40
34.24921792804013
 40
37.85068856298625
 40
39.91383326414524
 40
41.12804045713447
 40
41.59381843061748
 40
42.09462190348889
 40
42.75500960595274
 40
44.69606412910785
 40
46.12420232045444
 40
48.0518360759988
 40
49.99269947025343
 40
51.46192063953115
 40
53.42034377808636
 40
54.58720818292066
 40
55.09398862054752
 40
56.47437906945545
 40
58.71585406942724
 40
62.89972084250932
 40
67.20212528935113
 40
71.99865048165356
 40
75.52677566947948
 40
79.08092659373875
 40
82.47057370021248
 40
86.03290898663475
 40
89.75717742726508
 40
93.16707003430801
 40
96.23208308543599
 40
96.23208308543599
 40
96.23208308543599
 40
96.23208308543599
 10
523.3396166498839
 20
683.4286054809663
 30
0.0
 10
524.7568447436571
 20
682.6954883835592
 30
0.0
 10
527.3088332661424
 20
680.9243114791072
 30
0.0
 10
530.19306945013
 20
677.5829616596434
 30
0.0
 10
532.0618451846443
 20
673.9664132809494
 30
0.0
 10
533.0213457251886
 20
670.3567082023795
 30
0.0
 10
533.22441741483
 20
666.7748597968653
 30
0.0
 10
532.7323361619244
 20
663.3322488488113
 30
0.0
 10
531.5576461098731
 20
659.9929358658378
 30
0.0
 10
529.7978688967114
 20
657.0301701167474
 30
0.0
 10
527.4578340190067
 20
654.4061127770551
 30
0.0
 10
525.0737285733522
 20
652.5792992467736
 30
0.0
 10
523.0341935923034
 20
651.4675543899814
 30
0.0
 10
521.8702404035973
 20
650.9614645020933
 30
0.0
 10
521.1768005169038
 20
650.6972156272003
 30
0.0
 10
520.6564425670235
 20
650.5133892110265
 30
0.0
 10
519.6509598075736
 20
650.1937812705733
 30
0.0
 10
518.3140688356287
 20
649.8700391035895
 30
0.0
 10
516.5213823026332
 20
649.6057359719796
 30
0.0
 10
514.708245729789
 20
649.504753304692
 30
0.0
 10
512.8801775177067
 20
649.5944761243825
 30
0.0
 10
511.0617944160011
 20
649.8530930361894
 30
0.0
 10
509.5350589293716
 20
650.216877301755
 30
0.0
 10
508.3637802525845
 20
650.6035647550052
 30
0.0
 10
507.3926941211164
 20
650.9720620829428
 30
0.0
 10
506.1107996208307
 20
651.53532853567
 30
0.0
 10
503.8150012612917
 20
652.8269925134953
 30
0.0
 10
501.0326767555897
 20
655.1142659218666
 30
0.0
 10
498.3498710168833
 20
658.6464560002878
 30
0.0
 10
496.7177081873613
 20
662.5493749624346
 30
0.0
 10
496.0812223358428
 20
666.4756137197866
 30
0.0
 10
496.2231769810651
 20
669.9821779770791
 30
0.0
 10
497.0495737654508
 20
673.3964345378911
 30
0.0
 10
498.5446997921329
 20
676.6285154534968
 30
0.0
 10
500.6636268169889
 20
679.4968345097964
 30
0.0
 10
503.1871821481338
 20
681.7920988349324
 30
0.0
 10
505.0346256324478
 20
682.95320134692
 30
0.0
 10
505.9536434627896
 20
683.4286010663538
 30
0.0
  0
ARC
  5
9B
330
7B
100
AcDbEntity
  8
0
  6
Continuous
 62
     0
370
    30
100
AcDbCircle
 10
528.516727
 20
693.570965
 30
0.0
 40
9.996187261613425
100
AcDbArc
 50
181.270058
 51
241.904258
  0
ARC
  5
9C
330
7B
100
AcDbEntity
  8
0
  6
Continuous
 62
     0
370
    30
100
AcDbCircle
 10
9375.3193
 20
893.24784
 30
0.0
 40
8859.051875485648
100
AcDbArc
 50
181.232287
 51
181.29295
  0
SPLINE
  5
9D
330
7B
100
AcDbEntity
  8
0
  6
Continuous
 62
     0
370
    30
100
AcDbSpline
210
0.0
220
0.0
230
1.0
 70
     8
 71
     3
 72
    19
 73
    15
 74
     0
 42
0.000000001
 43
0.0
 40
0.0
 40
0.0
 40
0.0
 40
0.0
 40
1.003620293492531
 40
1.849679648839373
 40
2.264509912700838
 40
2.674498565652466
 40
2.962075365378325
 40
3.263828819742466
 40
3.918688092019339
 40
4.624602637835188
 40
5.027323689333063
 40
6.036605692113553
 40
7.005418112430779
 40
8.833454599553193
 40
8.833454599553193
 40
8.833454599553193
 40
8.833454599553193
 10
514.6466272724176
 20
709.4921033114147
 30
0.0
 10
514.9802372069541
 20
709.4924734919671
 30
0.0
 10
515.5987002963209
 20
709.4154595697748
 30
0.0
 10
516.3055918558954
 20
709.1368579111378
 30
0.0
 10
516.7803085948844
 20
708.8436963748333
 30
0.0
 10
517.0730987335874
 20
708.6154838816849
 30
0.0
 10
517.3174703497115
 20
708.3886335563984
 30
0.0
 10
517.5890634986263
 20
708.0740256535481
 30
0.0
 10
517.8650823049977
 20
707.5885284867709
 30
0.0
 10
518.0354512538365
 20
707.023125220831
 30
0.0
 10
518.1600374733815
 20
706.3277865211679
 30
0.0
 10
518.2126447663783
 20
705.5348281846815
 30
0.0
 10
518.27356617288
 20
704.2679592630279
 30
0.0
 10
518.302831026413
 20
703.3359339847294
 30
0.0
 10
518.316316275542
 20
702.7267487398868
 30
0.0
  0
SPLINE
  5
9E
330
7B
100
AcDbEntity
  8
0
  6
Continuous
 62
     0
370
    30
100
AcDbSpline
210
0.0
220
0.0
230
1.0
 70
     8
 71
     3
 72
    19
 73
    15
 74
     0
 42
0.000000001
 43
0.0
 40
0.0
 40
0.0
 40
0.0
 40
0.0
 40
1.003620733052839
 40
1.849681149072771
 40
2.264512569989023
 40
2.674502182750867
 40
2.962079504859272
 40
3.263833547259282
 40
3.918693000358451
 40
4.624606164409905
 40
5.027327473076267
 40
6.036610066835522
 40
7.005423261228
 40
8.833458884852924
 40
8.833458884852924
 40
8.833458884852924
 40
8.833458884852924
 10
514.646625335534
 20
709.4921033114156
 30
0.0
 10
514.3130152523215
 20
709.4924737019373
 30
0.0
 10
513.6945516129849
 20
709.4154600890893
 30
0.0
 10
512.9876588642383
 20
709.136858934851
 30
0.0
 10
512.512940766825
 20
708.8436974906368
 30
0.0
 10
512.2201496010512
 20
708.615484837223
 30
0.0
 10
511.9757771231367
 20
708.388634379371
 30
0.0
 10
511.7041836872361
 20
708.0740261283811
 30
0.0
 10
511.4281650042493
 20
707.5885291133113
 30
0.0
 10
511.2577965035069
 20
707.0231260119759
 30
0.0
 10
511.1332109249307
 20
706.3277873713706
 30
0.0
 10
511.0806045434105
 20
705.5348284243989
 30
0.0
 10
511.0196841557736
 20
704.267959289877
 30
0.0
 10
510.9904196269728
 20
703.3359340338641
 30
0.0
 10
510.9769343341343
 20
702.7267490769193
 30
0.0
  0
ARC
  5
9F
330
7B
100
AcDbEntity
  8
0
  6
Continuous
 62
     0
370
    30
100
AcDbCircle
 10
-8346.052363
 20
893.249405
 30
0.0
 40
8859.07821678869
100
AcDbArc
 50
358.707044
 51
358.767706
  0
ARC
  5
A0
330
7B
100
AcDbEntity
  8
0
  6
Continuous
 62
     0
370
    30
100
AcDbCircle
 10
500.776352
 20
693.57107
 30
0.0
 40
9.996360579876937
100
AcDbArc
 50
298.096237
 51
358.729355
  0
LINE
  5
A1
330
7B
100
AcDbEntity
  8
0
  6
Continuous
 62
     0
370
    30
100
AcDbLine
 10
510.141307
 20
648.566945
 30
0.0
 11
509.996478
 21
648.566945
 31
0.0
  0
SPLINE
  5
A2
330
7B
100
AcDbEntity
  8
0
  6
Continuous
 62
     0
370
    30
100
AcDbSpline
210
0.0
220
0.0
230
1.0
 70
    28
 71
     2
 72
     6
 73
     3
 74
     0
 42
0.000000001
 43
0.0
 40
0.2916666666666667
 40
0.2916666666666667
 40
0.2916666666666667
 40
0.3313243871708327
 40
0.3313243871708327
 40
0.3313243871708327
 10
519.2967708232267
 20
648.5669445745241
 30
0.0
 41
0.9186407725518189
 10
519.2974635579071
 20
648.5669445745242
 30
0.0
 41
0.8876661661271004
 10
519.1519629850959
 20
648.5669445745242
 30
0.0
 41
0.8714321471141984
  0
ARC
  5
A3
330
7B
100
AcDbEntity
  8
0
  6
Continuous
 62
     0
370
    30
100
AcDbCircle
 10
514.642017
 20
662.607164
 30
0.0
 40
14.79170438666063
100
AcDbArc
 50
270.202195
 51
288.341921
  0
ARC
  5
A4
330
7B
100
AcDbEntity
  8
0
  6
Continuous
 62
     0
370
    30
100
AcDbCircle
 10
514.650863
 20
662.604894
 30
0.0
 40
14.78943343061571
100
AcDbArc
 50
251.656671
 51
269.98358
  0
ENDBLK
  5
A6
330
7B
100
AcDbEntity
  8
0
100
AcDbBlockEnd
  0
BLOCK
  5
121
330
A8
100
AcDbEntity
  8
0
100
AcDbBlockBegin
  2
c
 70
     0
 10
447.068054
 20
156.08725
 30
0.0
  3
c
  1

  0
LINE
  5
A9
330
A8
100
AcDbEntity
  8
0
  6
Continuous
 62
     0
370
    30
100
AcDbLine
 10
710.574551
 20
526.042038
 30
0.0
 11
710.574551
 21
569.042038
 31
0.0
  0
LINE
  5
AA
330
A8
100
AcDbEntity
  8
0
  6
Continuous
 62
     0
370
    30
100
AcDbLine
 10
710.574551
 20
526.042038
 30
0.0
 11
710.074551
 21
525.542038
 31
0.0
  0
LINE
  5
AB
330
A8
100
AcDbEntity
  8
0
  6
Continuous
 62
     0
370
    30
100
AcDbLine
 10
710.074551
 20
525.542038
 30
0.0
 11
710.074551
 21
569.542038
 31
0.0
  0
LINE
  5
AC
330
A8
100
AcDbEntity
  8
0
  6
Continuous
 62
     0
370
    30
100
AcDbLine
 10
696.824551
 20
525.542038
 30
0.0
 11
660.574551
 21
525.542038
 31
0.0
  0
LINE
  5
AD
330
A8
100
AcDbEntity
  8
0
  6
Continuous
 62
     0
370
    30
100
AcDbLine
 10
660.574551
 20
569.542038
 30
0.0
 11
660.574551
 21
525.542038
 31
0.0
  0
SPLINE
  5
AE
330
A8
100
AcDbEntity
  8
0
  6
Continuous
 62
     0
370
     0
100
AcDbSpline
210
0.0
220
0.0
230
1.0
 70
     8
 71
     3
 72
    24
 73
    20
 74
     0
 42
0.000000001
 43
0.0
 40
0.0
 40
0.0
 40
0.0
 40
0.0
 40
0.018584924447234
 40
0.055754773341702
 40
0.081804832373189
 40
0.118407724601889
 40
0.170476904286106
 40
0.245862245642373
 40
0.358759051815003
 40
0.454342536345224
 40
0.5456562086992379
 40
0.641239206821889
 40
0.7541351802452729
 40
0.8295249270934658
 40
0.881600431068801
 40
0.9181821384176029
 40
0.944255003342431
 40
0.9814183344474771
 40
1.0
 40
1.0
 40
1.0
 40
1.0
 10
696.8245506286621
 20
525.5420379638672
 30
0.0
 10
696.8253218880029
 20
525.5420379638672
 30
0.0
 10
696.8316953910639
 20
525.5437860456007
 30
0.0
 10
696.8805295639067
 20
525.5540635803812
 30
0.0
 10
696.9868739020715
 20
525.5766107046862
 30
0.0
 10
697.1636017906959
 20
525.613121226414
 30
0.0
 10
697.5213695534911
 20
525.6835643527131
 30
0.0
 10
698.2499818783084
 20
525.812214623567
 30
0.0
 10
699.415773884519
 20
525.9684790635349
 30
0.0
 10
700.8616168572057
 20
526.0644086258937
 30
0.0
 10
702.2874701507452
 20
526.0644110280847
 30
0.0
 10
703.733315393557
 20
525.968486667968
 30
0.0
 10
704.8991291256195
 20
525.8122223755388
 30
0.0
 10
705.6277705760748
 20
525.6835599942392
 30
0.0
 10
705.9853578382745
 20
525.6131201134201
 30
0.0
 10
706.1623373740061
 20
525.5766111748519
 30
0.0
 10
706.2684852142394
 20
525.5540620059456
 30
0.0
 10
706.3173886265862
 20
525.543785431265
 30
0.0
 10
706.3237753022346
 20
525.5420379638672
 30
0.0
 10
706.324550628662
 20
525.5420379638672
 30
0.0
  0
LINE
  5
AF
330
A8
100
AcDbEntity
  8
0
  6
Continuous
 62
     0
370
    30
100
AcDbLine
 10
706.324551
 20
525.542038
 30
0.0
 11
710.074551
 21
525.542038
 31
0.0
  0
SPLINE
  5
B0
330
A8
100
AcDbEntity
  8
0
  6
Continuous
 62
     0
370
     0
100
AcDbSpline
210
0.0
220
0.0
230
1.0
 70
     8
 71
     3
 72
    24
 73
    20
 74
     0
 42
0.000000001
 43
0.0
 40
0.0
 40
0.0
 40
0.0
 40
0.0
 40
0.01863668698043
 40
0.055910060941291
 40
0.08197980755346
 40
0.118515250696554
 40
0.170558331363784
 40
0.245898782828103
 40
0.3587147753289371
 40
0.4543242884535449
 40
0.5457051194251229
 40
0.6413160178973569
 40
0.7541243467554002
 40
0.8294703504639498
 40
0.8815373060217231
 40
0.918147231170306
 40
0.9442054678077451
 40
0.9814018226025819
 40
1.0
 40
1.0
 40
1.0
 40
1.0
 10
705.6741534192149
 20
569.5420379638399
 30
0.0
 10
705.67348184346
 20
569.5420380897963
 30
0.0
 10
705.6679598263688
 20
569.5407308602157
 30
0.0
 10
705.6259415168039
 20
569.5330488368716
 30
0.0
 10
705.5342487836922
 20
569.516223988132
 30
0.0
 10
705.3813331325282
 20
569.4890509966611
 30
0.0
 10
705.0727982929202
 20
569.4366607849207
 30
0.0
 10
704.4439563075489
 20
569.3409823299015
 30
0.0
 10
703.4369448890127
 20
569.2250592384587
 30
0.0
 10
702.1894113245721
 20
569.1540225308851
 30
0.0
 10
700.959302153391
 20
569.1541081573791
 30
0.0
 10
699.7118586454674
 20
569.2251114295555
 30
0.0
 10
698.7046866541589
 20
569.3410065855148
 30
0.0
 10
698.0758924386059
 20
569.4366946381731
 30
0.0
 10
697.7671697464699
 20
569.4891105823879
 30
0.0
 10
697.6146498795041
 20
569.5162900693174
 30
0.0
 10
697.5228488138833
 20
569.5330807963726
 30
0.0
 10
697.4807145192544
 20
569.5407357533775
 30
0.0
 10
697.4752156772893
 20
569.5420379638672
 30
0.0
 10
697.474550628662
 20
569.5420379638672
 30
0.0
  0
SPLINE
  5
B1
330
A8
100
AcDbEntity
  8
0
  6
Continuous
 62
     0
370
    30
100
AcDbSpline
210
0.0
220
0.0
230
1.0
 70
    28
 71
     2
 72
     8
 73
     5
 74
     0
 42
0.000000001
 43
0.0
 40
0.0
 40
0.0
 40
0.0
 40
0.5
 40
0.5
 40
1.0
 40
1.0
 40
1.0
 10
705.0245506286619
 20
577.3720378875732
 30
0.0
 41
1.0
 10
705.0245507794663
 20
577.3720378875732
 30
0.0
 41
0.707106781186548
 10
701.5745507794663
 20
577.3720378875732
 30
0.0
 41
1.0
 10
698.1245507794663
 20
577.3720378875732
 30
0.0
 41
0.707106781186548
 10
698.1245506286621
 20
577.3720378875732
 30
0.0
 41
1.0
  0
LINE
  5
B2
330
A8
100
AcDbEntity
  8
0
  6
Continuous
 62
     0
370
    30
100
AcDbLine
 10
705.024551
 20
577.372038
 30
0.0
 11
705.524551
 21
576.872038
 31
0.0
  0
SPLINE
  5
B3
330
A8
100
AcDbEntity
  8
0
  6
Continuous
 62
     0
370
    30
100
AcDbSpline
210
0.0
220
0.0
230
1.0
 70
     8
 71
     3
 72
    16
 73
    12
 74
     0
 42
0.000000001
 43
0.0
 40
0.0
 40
0.0
 40
0.0
 40
0.0
 40
0.04763099675901
 40
0.14289299027703
 40
0.28523718580685
 40
0.428244545806745
 40
0.571172638337005
 40
0.7141139409365771
 40
0.857056401413549
 40
0.9523521338045171
 40
1.0
 40
1.0
 40
1.0
 40
1.0
 10
705.524550628662
 20
576.8720378875732
 30
0.0
 10
705.5245506372019
 20
576.8720378875732
 30
0.0
 10
705.4795699918636
 20
576.8720378875732
 30
0.0
 10
705.1296511198983
 20
576.8720808382957
 30
0.0
 10
704.123568084402
 20
576.8720272178565
 30
0.0
 10
702.4881011294815
 20
576.8720479053347
 30
0.0
 10
700.668848771898
 20
576.8720362186409
 30
0.0
 10
699.0292536176005
 20
576.8720383386386
 30
0.0
 10
698.0211918826448
 20
576.8720379965323
 30
0.0
 10
697.6686375255506
 20
576.8720380551266
 30
0.0
 10
697.6245507856479
 20
576.8720380360163
 30
0.0
 10
697.6245506286621
 20
576.8720378875732
 30
0.0
  0
LINE
  5
B4
330
A8
100
AcDbEntity
  8
0
  6
Continuous
 62
     0
370
    30
100
AcDbLine
 10
705.524551
 20
569.542038
 30
0.0
 11
705.524551
 21
576.872038
 31
0.0
  0
SPLINE
  5
B5
330
A8
100
AcDbEntity
  8
0
  6
Continuous
 62
     0
370
    30
100
AcDbSpline
210
0.0
220
0.0
230
1.0
 70
     8
 71
     3
 72
    16
 73
    12
 74
     0
 42
0.000000001
 43
0.0
 40
0.5
 40
0.5
 40
0.5
 40
0.5
 40
0.50000110892867
 40
0.571419917372153
 40
0.6428607778721701
 40
0.7142929566362282
 40
0.785706640232745
 40
0.857138931915021
 40
0.9285802809968668
 40
0.9761934269989562
 40
1.0
 40
1.0
 40
1.0
 40
1.0
 10
697.6245506286516
 20
569.5419619351349
 30
0.0
 10
697.6245506286757
 20
569.5419619352635
 30
0.0
 10
697.6245542823561
 20
569.5419698234664
 30
0.0
 10
697.896067436235
 20
569.4909251142521
 30
0.0
 10
699.0269310314916
 20
569.3188807466695
 30
0.0
 10
700.66249408861
 20
569.1791551548641
 30
0.0
 10
702.4865568275777
 20
569.1791445238935
 30
0.0
 10
704.1224374808234
 20
569.3189384237903
 30
0.0
 10
705.1265571691189
 20
569.4716993760899
 30
0.0
 10
705.4809287912351
 20
569.5337436395727
 30
0.0
 10
705.5245506372155
 20
569.5420379638672
 30
0.0
 10
705.524550628662
 20
569.5420379638672
 30
0.0
  0
LINE
  5
B6
330
A8
100
AcDbEntity
  8
0
  6
Continuous
 62
     0
370
    30
100
AcDbLine
 10
696.824551
 20
525.542038
 30
0.0
 11
706.324551
 21
525.542038
 31
0.0
  0
LINE
  5
B7
330
A8
100
AcDbEntity
  8
0
  6
Continuous
 62
     0
370
    30
100
AcDbLine
 10
705.524551
 20
569.542038
 30
0.0
 11
705.674153
 21
569.542038
 31
0.0
  0
LINE
  5
B8
330
A8
100
AcDbEntity
  8
0
  6
Continuous
 62
     0
370
    30
100
AcDbLine
 10
697.624551
 20
576.872038
 30
0.0
 11
697.624551
 21
569.541962
 31
0.0
  0
LINE
  5
B9
330
A8
100
AcDbEntity
  8
0
  6
Continuous
 62
     0
370
    30
100
AcDbLine
 10
698.124551
 20
577.372038
 30
0.0
 11
697.624551
 21
576.872038
 31
0.0
  0
LINE
  5
BA
330
A8
100
AcDbEntity
  8
0
  6
Continuous
 62
     0
370
    30
100
AcDbLine
 10
660.574551
 20
569.542038
 30
0.0
 11
697.474551
 21
569.542038
 31
0.0
  0
LINE
  5
BB
330
A8
100
AcDbEntity
  8
0
  6
Continuous
 62
     0
370
    30
100
AcDbLine
 10
710.074551
 20
569.542038
 30
0.0
 11
705.674153
 21
569.542038
 31
0.0
  0
LINE
  5
BC
330
A8
100
AcDbEntity
  8
0
  6
Continuous
 62
     0
370
    30
100
AcDbLine
 10
710.574551
 20
569.042038
 30
0.0
 11
710.074551
 21
569.542038
 31
0.0
  0
LINE
  5
BD
330
A8
100
AcDbEntity
  8
0
  6
Continuous
 62
     0
370
    30
100
AcDbLine
 10
657.574552
 20
473.542038
 30
0.0
 11
655.574552
 21
473.542038
 31
0.0
  0
LINE
  5
BE
330
A8
100
AcDbEntity
  8
0
  6
Continuous
 62
     0
370
    30
100
AcDbLine
 10
655.574552
 20
741.542038
 30
0.0
 11
657.574552
 21
741.542038
 31
0.0
  0
LINE
  5
BF
330
A8
100
AcDbEntity
  8
0
  6
Continuous
 62
     0
370
    30
100
AcDbLine
 10
655.574552
 20
741.542038
 30
0.0
 11
655.574552
 21
473.542038
 31
0.0
  0
LINE
  5
C0
330
A8
100
AcDbEntity
  8
0
  6
Continuous
 62
     0
370
    30
100
AcDbLine
 10
657.574552
 20
473.542038
 30
0.0
 11
657.574552
 21
741.542038
 31
0.0
  0
SPLINE
  5
C1
330
A8
100
AcDbEntity
  8
0
  6
Continuous
 62
     0
370
    30
100
AcDbSpline
210
0.0
220
0.0
230
1.0
 70
     8
 71
     3
 72
    18
 73
    14
 74
     0
 42
0.000000001
 43
0.0
 40
50.26909665648908
 40
50.26909665648908
 40
50.26909665648908
 40
50.26909665648908
 40
51.34852973154879
 40
53.17522302435439
 40
56.33368274125549
 40
59.48403434448655
 40
62.78416741764998
 40
65.93400671407747
 40
69.08366762508942
 40
72.24626700647093
 40
75.40941931188561
 40
78.55439778159521
 40
80.2601015381422
 40
80.2601015381422
 40
80.2601015381422
 40
80.2601015381422
 10
660.0744788169591
 20
672.3162985902405
 30
0.0
 10
660.0682004249079
 20
671.9730147307994
 30
0.0
 10
660.0512919808301
 20
671.0387544094376
 30
0.0
 10
660.016228598837
 20
669.0465405047275
 30
0.0
 10
659.9705241580438
 20
666.3225405644405
 30
0.0
 10
659.9206319713859
 20
663.1531023108164
 30
0.0
 10
659.8769343880502
 20
660.1607079401333
 30
0.0
 10
659.8411989542092
 20
657.466615544244
 30
0.0
 10
659.8149969834853
 20
655.2006305748902
 30
0.0
 10
659.7988276343777
 20
653.4101968233011
 30
0.0
 10
659.7933827237439
 20
652.1699333150259
 30
0.0
 10
659.7979964201594
 20
651.6246922560057
 30
0.0
 10
659.8049988188889
 20
651.5392148724723
 30
0.0
 10
659.8079649940944
 20
651.5394058487326
 30
0.0
  0
LINE
  5
C2
330
A8
100
AcDbEntity
  8
0
  6
Continuous
 62
     0
370
    30
100
AcDbLine
 10
660.074479
 20
672.405867
 30
0.0
 11
660.074479
 21
672.316299
 31
0.0
  0
LINE
  5
C3
330
A8
100
AcDbEntity
  8
0
  6
Continuous
 62
     0
370
     0
100
AcDbLine
 10
660.074479
 20
672.674572
 30
0.0
 11
660.074479
 21
672.405867
 31
0.0
  0
SPLINE
  5
C4
330
A8
100
AcDbEntity
  8
0
  6
Continuous
 62
     0
370
     0
100
AcDbSpline
210
0.0
220
0.0
230
1.0
 70
     8
 71
     3
 72
    31
 73
    27
 74
     0
 42
0.000000001
 43
0.0
 40
15.3281377103608
 40
15.3281377103608
 40
15.3281377103608
 40
15.3281377103608
 40
15.51986675377279
 40
17.29373133776561
 40
19.06759592175842
 40
20.72484435273388
 40
22.38209278370935
 40
23.98914882251212
 40
25.59620486131488
 40
27.35827577344467
 40
29.12034668557445
 40
30.83629195100925
 40
32.55223721644407
 40
34.33840770994256
 40
36.12457820344106
 40
37.89820160738812
 40
39.67182501133518
 40
41.36497722916518
 40
43.05812944699517
 40
44.7693306390904
 40
46.4805318311856
 40
48.2523276796901
 40
50.02412352819457
 40
52.03170136852293
 40
54.03927920885126
 40
54.04451950318705
 40
54.04451950318705
 40
54.04451950318705
 40
54.04451950318705
 10
659.840886325791
 20
651.5393186171585
 30
0.0
 10
659.8401851461463
 20
651.5158190055686
 30
0.0
 10
659.83304638313
 20
651.2783060637755
 30
0.0
 10
659.8204438878722
 20
650.8931868522313
 30
0.0
 10
659.8055340706162
 20
650.5296015350227
 30
0.0
 10
659.793609953521
 20
650.3417573490055
 30
0.0
 10
659.784648942903
 20
650.317579949735
 30
0.0
 10
659.7783790084602
 20
650.448084939973
 30
0.0
 10
659.7746339143866
 20
650.7349263482258
 30
0.0
 10
659.7736956426163
 20
651.194698247907
 30
0.0
 10
659.7758543560536
 20
651.8335991385416
 30
0.0
 10
659.7810372262566
 20
652.6268780154708
 30
0.0
 10
659.7891941108085
 20
653.5737462446879
 30
0.0
 10
659.800442565082
 20
654.6793908878353
 30
0.0
 10
659.8147499989293
 20
655.9348730957784
 30
0.0
 10
659.831805313871
 20
657.3116481896247
 30
0.0
 10
659.8510940407108
 20
658.7710571944405
 30
0.0
 10
659.8723368433315
 20
660.2962499906721
 30
0.0
 10
659.8952806971614
 20
661.8731240368045
 30
0.0
 10
659.920065874971
 20
663.5112287527052
 30
0.0
 10
659.9467719035898
 20
665.2146497757607
 30
0.0
 10
659.975109750678
 20
666.9620638947074
 30
0.0
 10
660.0061432923487
 20
668.8144136943669
 30
0.0
 10
660.0393461711328
 20
670.7302068643339
 30
0.0
 10
660.062748815456
 20
672.0332153296715
 30
0.0
 10
660.0744483961472
 20
672.6729060674397
 30
0.0
 10
660.07447886702
 20
672.67457210453
 30
0.0
  0
LINE
  5
C5
330
A8
100
AcDbEntity
  8
0
  6
Continuous
 62
     0
370
     0
100
AcDbLine
 10
659.774433
 20
672.76414
 30
0.0
 11
657.874525
 21
672.76414
 31
0.0
  0
SPLINE
  5
C6
330
A8
100
AcDbEntity
  8
0
  6
Continuous
 62
     0
370
     0
100
AcDbSpline
210
0.0
220
0.0
230
1.0
 70
     8
 71
     3
 72
    19
 73
    15
 74
     0
 42
0.000000001
 43
0.0
 40
0.0
 40
0.0
 40
0.0
 40
0.0
 40
0.023318075111569
 40
0.069954225334706
 40
0.105069162762441
 40
0.140283163225278
 40
0.210998146606018
 40
0.282354916961713
 40
0.318346447764536
 40
0.354500068764808
 40
0.4270889148248179
 40
0.500000000000018
 40
0.572911085175215
 40
0.5965176030720653
 40
0.5965176030720653
 40
0.5965176030720653
 40
0.5965176030720653
 10
657.8745245898823
 20
672.764140462717
 30
0.0
 10
657.8818430259656
 20
672.3570090443636
 30
0.0
 10
657.9037983419939
 20
671.1216438713982
 30
0.0
 10
657.9366667915564
 20
669.2088212159043
 30
0.0
 10
657.9720374846197
 20
667.0673438062074
 30
0.0
 10
658.0131418172882
 20
664.4906941022905
 30
0.0
 10
658.0609510876709
 20
661.3192360276746
 30
0.0
 10
658.1012404424955
 20
658.3915398282047
 30
0.0
 10
658.1277160433581
 20
656.2823993676903
 30
0.0
 10
658.1501028489065
 20
654.347304317939
 30
0.0
 10
658.1694825933328
 20
652.3258086184682
 30
0.0
 10
658.1774015107484
 20
650.69079098867
 30
0.0
 10
658.1712582839965
 20
650.1042214359253
 30
0.0
 10
658.1632495320853
 20
650.0393611817611
 30
0.0
 10
658.1610287327018
 20
650.03952814389
 30
0.0
  0
SPLINE
  5
C7
330
A8
100
AcDbEntity
  8
0
  6
Continuous
 62
     0
370
     0
100
AcDbSpline
210
0.0
220
0.0
230
1.0
 70
     8
 71
     3
 72
    19
 73
    15
 74
     0
 42
0.000000001
 43
0.0
 40
0.4034824142389131
 40
0.4034824142389131
 40
0.4034824142389131
 40
0.4034824142389131
 40
0.42708891836834
 40
0.499999996303494
 40
0.57291107571774
 40
0.6454999154717019
 40
0.681653534321903
 40
0.717645065424837
 40
0.7890018421048379
 40
0.8597168288403509
 40
0.894930827873293
 40
0.9300457620995981
 40
0.9766819206998658
 40
1.0
 40
1.0
 40
1.0
 40
1.0
 10
659.4879280493809
 20
650.0395281434786
 30
0.0
 10
659.4857072925361
 20
650.0393612051962
 30
0.0
 10
659.4776987343076
 20
650.1042215041656
 30
0.0
 10
659.4715560391494
 20
650.6907909629549
 30
0.0
 10
659.4794751608952
 20
652.3258083693098
 30
0.0
 10
659.4988551257343
 20
654.3473037996114
 30
0.0
 10
659.5212421033929
 20
656.282398642185
 30
0.0
 10
659.5477177674916
 20
658.3915390794401
 30
0.0
 10
659.5880069767758
 20
661.3192353811484
 30
0.0
 10
659.6358162314724
 20
664.4906935811726
 30
0.0
 10
659.67692057736
 20
667.0673432543799
 30
0.0
 10
659.7122912627341
 20
669.2088207322314
 30
0.0
 10
659.7451596287235
 20
671.1216435718094
 30
0.0
 10
659.7671147959779
 20
672.3570089705853
 30
0.0
 10
659.7744331691994
 20
672.764140462717
 30
0.0
  0
SPLINE
  5
C8
330
A8
100
AcDbEntity
  8
0
  6
Continuous
 62
     0
370
     0
100
AcDbSpline
210
0.0
220
0.0
230
1.0
 70
     8
 71
     3
 72
    65
 73
    61
 74
     0
 42
0.000000001
 43
0.0
 40
-27.01729511213934
 40
-27.01729511213934
 40
-27.01729511213934
 40
-27.01729511213934
 40
-27.01621157198858
 40
-26.05134687298899
 40
-25.0864821739894
 40
-24.12161747498981
 40
-23.15675277599022
 40
-22.19188807699061
 40
-21.22702337799102
 40
-20.26215867899144
 40
-19.29729397999185
 40
-18.33242928099225
 40
-17.36756458199266
 40
-16.40269988299307
 40
-15.43783518399348
 40
-14.47297048499389
 40
-13.5081057859943
 40
-12.54324108699471
 40
-11.57837638799512
 40
-10.61351168899552
 40
-9.648646989995937
 40
-8.683782290996344
 40
-7.718917591996754
 40
-6.75405289299716
 40
-5.78918819399757
 40
-4.824323494997979
 40
-3.85945879599839
 40
-2.894594096998798
 40
-1.929729397999207
 40
-0.9648646989996159
 40
-0.0000000000000249
 40
0.9648646989995662
 40
1.929729397999157
 40
2.894594096998752
 40
3.859458795998343
 40
4.824323494997933
 40
5.789188193997527
 40
6.754052892997119
 40
7.718917591996709
 40
8.683782290996298
 40
9.648646989995889
 40
10.61351168899548
 40
11.57837638799507
 40
12.54324108699466
 40
13.50810578599425
 40
14.47297048499385
 40
15.43783518399344
 40
16.40269988299303
 40
17.36756458199262
 40
18.33242928099222
 40
19.2972939799918
 40
20.26215867899138
 40
21.22702337799098
 40
22.19188807699058
 40
23.15675277599016
 40
24.12161747498977
 40
25.08648217398935
 40
26.05134687298893
 40
27.01621157198853
 40
27.01729511209833
 40
27.01729511209833
 40
27.01729511209833
 40
27.01729511209833
 10
657.5745513463323
 20
672.6706091645812
 30
0.0
 10
657.5745576498916
 20
672.6702644989869
 30
0.0
 10
657.5801770918935
 20
672.3630026397012
 30
0.0
 10
657.5914134789667
 20
671.7432554902463
 30
0.0
 10
657.6082025500132
 20
670.8010502557622
 30
0.0
 10
657.6248866174251
 20
669.8485300654082
 30
0.0
 10
657.641412149442
 20
668.8887383314385
 30
0.0
 10
657.6577274286269
 20
667.9246824724978
 30
0.0
 10
657.6737810465852
 20
666.9593990986045
 30
0.0
 10
657.6895225126553
 20
665.9959244551328
 30
0.0
 10
657.7049022930129
 20
665.0372902291051
 30
0.0
 10
657.719871998612
 20
664.0865125743254
 30
0.0
 10
657.7343845288367
 20
663.1465830062336
 30
0.0
 10
657.7483942220006
 20
662.220458886387
 30
0.0
 10
657.7618569983983
 20
661.3110541451329
 30
0.0
 10
657.7747304991619
 20
660.4212301059044
 30
0.0
 10
657.7869742194935
 20
659.5537864844207
 30
0.0
 10
657.7985496361193
 20
658.7114525792144
 30
0.0
 10
657.8094203284965
 20
657.8968786843911
 30
0.0
 10
657.8195520934046
 20
657.1126277507856
 30
0.0
 10
657.8289130525632
 20
656.3611673219802
 30
0.0
 10
657.8374737529314
 20
655.6448617704978
 30
0.0
 10
657.8452072593788
 20
654.9659648586105
 30
0.0
 10
657.8520892394328
 20
654.326612647171
 30
0.0
 10
657.8580980398381
 20
653.728816774774
 30
0.0
 10
657.8632147546857
 20
653.1744581283972
 30
0.0
 10
657.8674232848978
 20
652.6652809254349
 30
0.0
 10
657.870710388881
 20
652.2028872257451
 30
0.0
 10
657.8730657241904
 20
651.7887318909765
 30
0.0
 10
657.8744818800694
 20
651.4241180070347
 30
0.0
 10
657.874954400768
 20
651.1101927840928
 30
0.0
 10
657.8744817995611
 20
650.8479439470434
 30
0.0
 10
657.8730655634268
 20
650.6381966277504
 30
0.0
 10
657.8707101483683
 20
650.4816107688795
 30
0.0
 10
657.8674229653925
 20
650.3786790474738
 30
0.0
 10
657.8632143571932
 20
650.32972532481
 30
0.0
 10
657.858097565609
 20
650.3349036274107
 30
0.0
 10
657.8520886899591
 20
650.3941976624201
 30
0.0
 10
657.8452066363895
 20
650.5074208688674
 30
0.0
 10
657.8374730583866
 20
650.6742170046566
 30
0.0
 10
657.8289122886483
 20
650.8940612674357
 30
0.0
 10
657.8195512625232
 20
651.1662619458198
 30
0.0
 10
657.8094194332625
 20
651.4899625957698
 30
0.0
 10
657.7985486793499
 20
651.864144735283
 30
0.0
 10
657.7869732041986
 20
652.2876310489169
 30
0.0
 10
657.7747294285364
 20
652.7590890920446
 30
0.0
 10
657.7618558758105
 20
653.277035483274
 30
0.0
 10
657.7483930509827
 20
653.8398405715088
 30
0.0
 10
657.7343833130731
 20
654.4457335642007
 30
0.0
 10
657.719870741928
 20
655.092808096055
 30
0.0
 10
657.7049009993625
 20
655.7790282378467
 30
0.0
 10
657.6895211861088
 20
656.502234862327
 30
0.0
 10
657.6737796913163
 20
657.26015258647
 30
0.0
 10
657.6577260488998
 20
658.0503963752171
 30
0.0
 10
657.641410749598
 20
658.870481118656
 30
0.0
 10
657.6248852018683
 20
659.7178217146402
 30
0.0
 10
657.6082011231981
 20
660.5897700753258
 30
0.0
 10
657.5914120453805
 20
661.4835157040947
 30
0.0
 10
657.5801756568052
 20
662.0925114498692
 30
0.0
 10
657.5745562148014
 20
662.3997575217861
 30
0.0
 10
657.5745499112423
 20
662.4001021750098
 30
0.0
  0
SPLINE
  5
C9
330
A8
100
AcDbEntity
  8
0
  6
Continuous
 62
     0
370
     0
100
AcDbSpline
210
0.0
220
0.0
230
1.0
 70
    12
 71
     2
 72
     8
 73
     5
 74
     0
 42
0.000000001
 43
0.0
 40
0.0001048558142347
 40
0.0001048558142347
 40
0.0001048558142347
 40
0.5
 40
0.5
 40
0.9998951581236549
 40
0.9998951581236549
 40
0.9998951581236549
 10
657.5745500447391
 20
663.3554983771805
 30
0.0
 41
0.9998771795374348
 10
657.8188486524972
 20
649.9992342796497
 30
0.0
 41
0.7071682112683514
 10
657.8188492411882
 20
654.1778518683907
 30
0.0
 41
1.0
 10
657.8188498298794
 20
658.3564696218824
 30
0.0
 41
0.7071682031037247
 10
657.5745512128353
 20
671.715212962409
 30
0.0
 41
0.9998771958598396
  0
SPLINE
  5
CA
330
A8
100
AcDbEntity
  8
0
  6
Continuous
 62
     0
370
     0
100
AcDbSpline
210
0.0
220
0.0
230
1.0
 70
     8
 71
     3
 72
    14
 73
    10
 74
     0
 42
0.000000001
 43
0.0
 40
44.92283353388889
 40
44.92283353388889
 40
44.92283353388889
 40
44.92283353388889
 40
45.37035808752793
 40
47.25436468279624
 40
49.13837127806457
 40
50.77200767273273
 40
52.40564406740092
 40
54.03928046206909
 40
54.04036462855039
 40
54.04036462855039
 40
54.04036462855039
 40
54.04036462855039
 10
657.726333239949
 20
680.2731144371076
 30
0.0
 10
657.7240868932761
 20
680.1728041620613
 30
0.0
 10
657.7122945181122
 20
679.64271575532
 30
0.0
 10
657.6901679391106
 20
678.6152768567381
 30
0.0
 10
657.6604964456947
 20
677.17235288197
 30
0.0
 10
657.631334126979
 20
675.698371023912
 30
0.0
 10
657.6030830926462
 20
674.223024376242
 30
0.0
 10
657.5840621702915
 20
673.1985452177544
 30
0.0
 10
657.5745576498025
 20
672.6788797142874
 30
0.0
 10
657.5745513462241
 20
672.6785350595542
 30
0.0
  0
SPLINE
  5
CB
330
A8
100
AcDbEntity
  8
0
  6
Continuous
 62
     0
370
     0
100
AcDbSpline
210
0.0
220
0.0
230
1.0
 70
     8
 71
     3
 72
    16
 73
    12
 74
     0
 42
0.000000001
 43
0.0
 40
0.0
 40
0.0
 40
0.0
 40
0.0
 40
0.023318075111572
 40
0.069954225334717
 40
0.105069162762465
 40
0.140283163225319
 40
0.210998146606102
 40
0.282354916961848
 40
0.318346447764697
 40
0.354500068764993
 40
0.4035835574864622
 40
0.4035835574864622
 40
0.4035835574864622
 40
0.4035835574864622
 10
659.7744331691995
 20
672.764140462717
 30
0.0
 10
659.767114733116
 20
673.1712718810704
 30
0.0
 10
659.7451594131835
 20
674.378695217907
 30
0.0
 10
659.7122909400484
 20
676.1228154654837
 30
0.0
 10
659.676920198423
 20
677.9167470341959
 30
0.0
 10
659.6358157847251
 20
679.9134922827438
 30
0.0
 10
659.5880063713371
 20
682.0615000175571
 30
0.0
 10
659.5477168245909
 20
683.615667626204
 30
0.0
 10
659.521241046024
 20
684.4530265310359
 30
0.0
 10
659.5024897822854
 20
684.9185881433577
 30
0.0
 10
659.492511924193
 20
685.0390488727247
 30
0.0
 10
659.4878990304499
 20
685.0391103537168
 30
0.0
  0
SPLINE
  5
CC
330
A8
100
AcDbEntity
  8
0
  6
Continuous
 62
     0
370
     0
100
AcDbSpline
210
0.0
220
0.0
230
1.0
 70
     8
 71
     3
 72
    16
 73
    12
 74
     0
 42
0.000000001
 43
0.0
 40
0.5964170915177202
 40
0.5964170915177202
 40
0.5964170915177202
 40
0.5964170915177202
 40
0.645499919277634
 40
0.681653536662926
 40
0.7176450652553539
 40
0.7890018382977038
 40
0.859716831114682
 40
0.8949308226302481
 40
0.93004573351407
 40
0.9766819111713569
 40
1.0
 40
1.0
 40
1.0
 40
1.0
 10
658.161056597131
 20
685.0391103512834
 30
0.0
 10
658.1564438206004
 20
685.0390470388622
 30
0.0
 10
658.1464661200952
 20
684.9185857040287
 30
0.0
 10
658.1277150310931
 20
684.4530267486177
 30
0.0
 10
658.1012394552612
 20
683.6156679955199
 30
0.0
 10
658.0609504281462
 20
682.0615004513551
 30
0.0
 10
658.0131414559041
 20
679.9134927529898
 30
0.0
 10
657.9720370998026
 20
677.9167479299197
 30
0.0
 10
657.9366660984897
 20
676.1228166016059
 30
0.0
 10
657.9037975596466
 20
674.378696170666
 30
0.0
 10
657.8818427625608
 20
673.1712721245481
 30
0.0
 10
657.8745245898824
 20
672.764140462717
 30
0.0
  0
SPLINE
  5
CD
330
A8
100
AcDbEntity
  8
0
  6
Continuous
 62
     0
370
     0
100
AcDbSpline
210
0.0
220
0.0
230
1.0
 70
     8
 71
     3
 72
    20
 73
    16
 74
     0
 42
0.000000001
 43
0.0
 40
-81.05387102730326
 40
-81.05387102730326
 40
-81.05387102730326
 40
-81.05387102730326
 40
-81.04863471563898
 40
-80.08377001663936
 40
-79.11890531763977
 40
-78.15404061864017
 40
-77.1891759196406
 40
-76.224311220641
 40
-75.25944652164142
 40
-74.29458182264179
 40
-73.32971712364224
 40
-72.36485242464262
 40
-71.39998772564306
 40
-70.43512302664344
 40
-70.16511917193382
 40
-70.16511917193382
 40
-70.16511917193382
 40
-70.16511917193382
 10
660.07447886702
 20
672.6745721043584
 30
0.0
 10
660.0744484019485
 20
672.6762378613364
 30
0.0
 10
660.0688048092579
 20
672.9848159629939
 30
0.0
 10
660.0575442535799
 20
673.5951215302223
 30
0.0
 10
660.0407551757622
 20
674.4888671589912
 30
0.0
 10
660.0240710970921
 20
675.3608155196767
 30
0.0
 10
660.0075455493625
 20
676.208156115661
 30
0.0
 10
659.9912302500608
 20
677.0282408590999
 30
0.0
 10
659.9751766076442
 20
677.8184846478468
 30
0.0
 10
659.959435112852
 20
678.5764023719901
 30
0.0
 10
659.9440552995984
 20
679.2996089964703
 30
0.0
 10
659.929085557033
 20
679.9858291382619
 30
0.0
 10
659.9145729858881
 20
680.6329036701163
 30
0.0
 10
659.9039263510549
 20
681.0933492175559
 30
0.0
 10
659.8980989343179
 20
681.3400675789073
 30
0.0
 10
659.8968320630438
 20
681.3934436945272
 30
0.0
  0
SPLINE
  5
CE
330
A8
100
AcDbEntity
  8
0
  6
Continuous
 62
     0
370
     0
100
AcDbSpline
210
0.0
220
0.0
230
1.0
 70
     8
 71
     3
 72
    14
 73
    10
 74
     0
 42
0.000000001
 43
0.0
 40
30.1556930344688
 40
30.1556930344688
 40
30.1556930344688
 40
30.1556930344688
 40
31.59593334783597
 40
34.75546558253617
 40
37.91506750920887
 40
41.07474118996232
 40
44.23447496150394
 40
47.39424471803433
 40
50.55401721052969
 40
50.55401721052969
 40
50.55401721052969
 40
50.55401721052969
 10
660.1029795819736
 20
683.5392565630368
 30
0.0
 10
660.1055129251928
 20
683.539288477021
 30
0.0
 10
660.11475941355
 20
683.4712971004037
 30
0.0
 10
660.1364131432856
 20
682.9894664720409
 30
0.0
 10
660.1720117522095
 20
681.8073582348233
 30
0.0
 10
660.215387959581
 20
680.0772478220911
 30
0.0
 10
660.2648829495984
 20
677.8651989952508
 30
0.0
 10
660.3185674552179
 20
675.2576858496293
 30
0.0
 10
660.3558452112293
 20
673.318729212489
 30
0.0
 10
660.374433137358
 20
672.3212032992335
 30
0.0
  0
SPLINE
  5
CF
330
A8
100
AcDbEntity
  8
0
  6
Continuous
 62
     0
370
    30
100
AcDbSpline
210
0.0
220
0.0
230
1.0
 70
     8
 71
     3
 72
    11
 73
     7
 74
     0
 42
0.000000001
 43
0.0
 40
0.0
 40
0.0
 40
0.0
 40
0.0
 40
0.116433977529987
 40
0.232867955059973
 40
0.34930193258997
 40
0.465735910119958
 40
0.465735910119958
 40
0.465735910119958
 40
0.465735910119958
 10
660.374433137358
 20
672.3212032992335
 30
0.0
 10
660.3354211514863
 20
672.3205534659713
 30
0.0
 10
660.2565431675066
 20
672.3239053546312
 30
0.0
 10
660.1568430533241
 20
672.3421982435412
 30
0.0
 10
660.0900886283464
 20
672.3708878778273
 30
0.0
 10
660.0744790465435
 20
672.3942055187191
 30
0.0
 10
660.0744788294743
 20
672.4058667172396
 30
0.0
  0
SPLINE
  5
D0
330
A8
100
AcDbEntity
  8
0
  6
Continuous
 62
     0
370
     0
100
AcDbSpline
210
0.0
220
0.0
230
1.0
 70
     8
 71
     3
 72
    12
 73
     8
 74
     0
 42
0.000000001
 43
0.0
 40
0.0
 40
0.0
 40
0.0
 40
0.0
 40
0.111131828689864
 40
0.333395486069591
 40
0.6666040183922181
 40
0.888868006130739
 40
1.0
 40
1.0
 40
1.0
 40
1.0
 10
660.0744788670208
 20
672.6745721542078
 30
0.0
 10
660.0744788678264
 20
672.6797250217384
 30
0.0
 10
660.0698963426939
 20
672.6951829909453
 30
0.0
 10
660.0335068624236
 20
672.7253914225774
 30
0.0
 10
659.9446480626144
 20
672.7519220688788
 30
0.0
 10
659.8434693274712
 20
672.7627766363875
 30
0.0
 10
659.7916922142131
 20
672.7641407799999
 30
0.0
 10
659.7744331763865
 20
672.7641407702703
 30
0.0
  0
SPLINE
  5
D1
330
A8
100
AcDbEntity
  8
0
  6
Continuous
 62
     0
370
     0
100
AcDbSpline
210
0.0
220
0.0
230
1.0
 70
     8
 71
     3
 72
    12
 73
     8
 74
     0
 42
0.000000001
 43
0.0
 40
0.0
 40
0.0
 40
0.0
 40
0.0
 40
0.111131868317539
 40
0.333395604952616
 40
0.6666041133082179
 40
0.888868037769406
 40
0.9860207495723763
 40
0.9860207495723763
 40
0.9860207495723763
 40
0.9860207495723763
 10
657.8745235854733
 20
672.7641405255824
 30
0.0
 10
657.8572646137145
 20
672.7641404012032
 30
0.0
 10
657.8054876910752
 20
672.7627699645127
 30
0.0
 10
657.7043091933681
 20
672.7519049859725
 30
0.0
 10
657.6154507234454
 20
672.7253924982477
 30
0.0
 10
657.579824485665
 20
672.6958162905632
 30
0.0
 10
657.5748870931527
 20
672.6810206775126
 30
0.0
 10
657.5745513465511
 20
672.6765165857711
 30
0.0
  0
LINE
  5
D2
330
A8
100
AcDbEntity
  8
0
  6
Continuous
 62
     0
370
    30
100
AcDbLine
 10
660.074479
 20
672.316299
 30
0.0
 11
660.374419
 21
672.321203
 31
0.0
  0
LINE
  5
D3
330
A8
100
AcDbEntity
  8
0
  6
Continuous
 62
     0
370
     0
100
AcDbLine
 10
660.074479
 20
672.316299
 30
0.0
 11
660.724477
 21
672.316299
 31
0.0
  0
LINE
  5
D4
330
A8
100
AcDbEntity
  8
0
  6
Continuous
 62
     0
370
    30
100
AcDbLine
 10
659.807967
 20
651.539319
 30
0.0
 11
660.724476
 21
651.539319
 31
0.0
  0
LINE
  5
D5
330
A8
100
AcDbEntity
  8
0
  6
Continuous
 62
     0
370
    30
100
AcDbLine
 10
660.102991
 20
683.539319
 30
0.0
 11
660.724476
 21
683.539319
 31
0.0
  0
SPLINE
  5
D6
330
A8
100
AcDbEntity
  8
0
  6
Continuous
 62
     0
370
    30
100
AcDbSpline
210
0.0
220
0.0
230
1.0
 70
     8
 71
     3
 72
    26
 73
    22
 74
     0
 42
0.000000001
 43
0.0
 40
10.74054045237297
 40
10.74054045237297
 40
10.74054045237297
 40
10.74054045237297
 40
12.36117641067204
 40
14.62119888737022
 40
15.91272337428299
 40
16.88140869965853
 40
17.50849241510108
 40
18.11687432180987
 40
19.02953708514015
 40
19.63806946900542
 40
20.02525877114835
 40
20.41253548285503
 40
20.79998615853957
 40
21.18796808392405
 40
21.37247351621384
 40
21.5608341851038
 40
21.68300131242583
 40
21.74145028293144
 40
21.82444196497389
 40
21.94752027995869
 40
22.03558657774377
 40
22.03558657774377
 40
22.03558657774377
 40
22.03558657774377
 10
657.7500223860345
 20
653.773615307326
 30
0.0
 10
657.7576765836998
 20
653.4493521458176
 30
0.0
 10
657.775386355298
 20
652.7214518444875
 30
0.0
 10
657.796754618237
 20
651.9175345711371
 30
0.0
 10
657.8134017679995
 20
651.3567856863178
 30
0.0
 10
657.8231657130013
 20
651.0577868057088
 30
0.0
 10
657.8301344952768
 20
650.8620682667619
 30
0.0
 10
657.8365576213091
 20
650.6959499526163
 30
0.0
 10
657.8424786921578
 20
650.5613492797389
 30
0.0
 10
657.8474090756292
 20
650.4673592324941
 30
0.0
 10
657.850868399803
 20
650.4113136910148
 30
0.0
 10
657.8537171342691
 20
650.3716732392595
 30
0.0
 10
657.8568535683232
 20
650.3377004793851
 30
0.0
 10
657.8596736783039
 20
650.3122971834747
 30
0.0
 10
657.8649978791018
 20
650.2830787025443
 30
0.0
 10
657.8718383547969
 20
650.252550109471
 30
0.0
 10
657.8923312050756
 20
650.2006630307703
 30
0.0
 10
657.9280943085834
 20
650.147228793144
 30
0.0
 10
657.9819494889464
 20
650.0925112849245
 30
0.0
 10
658.0653623046176
 20
650.0489456272153
 30
0.0
 10
658.1330606329223
 20
650.0393865936796
 30
0.0
 10
658.1610553898238
 20
650.0393866110562
 30
0.0
  0
SPLINE
  5
D7
330
A8
100
AcDbEntity
  8
0
  6
Continuous
 62
     0
370
    30
100
AcDbSpline
210
0.0
220
0.0
230
1.0
 70
     8
 71
     3
 72
    24
 73
    20
 74
     0
 42
0.000000001
 43
0.0
 40
15.32504651806371
 40
15.32504651806371
 40
15.32504651806371
 40
15.32504651806371
 40
15.91547332205943
 40
16.88416156237789
 40
17.51127875483734
 40
18.11972543865499
 40
19.03248467558741
 40
19.64108131652286
 40
20.02789719420415
 40
20.4148008365292
 40
20.80187917473426
 40
21.18949166215429
 40
21.37338744686198
 40
21.56114348870418
 40
21.68314007658943
 40
21.74166322997047
 40
21.824707057687
 40
21.94776332285468
 40
22.03554943914772
 40
22.03554943914772
 40
22.03554943914772
 40
22.03554943914772
 10
659.8409137730425
 20
651.5393186171586
 30
0.0
 10
659.8387496328967
 20
651.4667360798462
 30
0.0
 10
659.8331546204731
 20
651.2833204997339
 30
0.0
 10
659.8257632605637
 20
651.0570392101818
 30
0.0
 10
659.8187959444076
 20
650.8614267723731
 30
0.0
 10
659.812373952526
 20
650.695403847099
 30
0.0
 10
659.8064539199978
 20
650.5608985687822
 30
0.0
 10
659.8015254459282
 20
650.4670172763365
 30
0.0
 10
659.7980682872293
 20
650.411062845034
 30
0.0
 10
659.7952222662627
 20
650.3715023425971
 30
0.0
 10
659.7920863297912
 20
650.3375841044653
 30
0.0
 10
659.7892662798655
 20
650.3122102596352
 30
0.0
 10
659.7839296345664
 20
650.2829761814747
 30
0.0
 10
659.777071930584
 20
650.2524377279113
 30
0.0
 10
659.7565567680166
 20
650.2005679546222
 30
0.0
 10
659.7207485075755
 20
650.1471186192865
 30
0.0
 10
659.6667971297919
 20
650.0923894129118
 30
0.0
 10
659.5834089321921
 20
650.048938353639
 30
0.0
 10
659.5158076359123
 20
650.0394226551457
 30
0.0
 10
659.4879011317039
 20
650.0394226583173
 30
0.0
  0
SPLINE
  5
D8
330
A8
100
AcDbEntity
  8
0
  6
Continuous
 62
     0
370
    30
100
AcDbSpline
210
0.0
220
0.0
230
1.0
 70
     8
 71
     3
 72
    30
 73
    26
 74
     0
 42
0.000000001
 43
0.0
 40
0.0039057798509083
 40
0.0039057798509083
 40
0.0039057798509083
 40
0.0039057798509083
 40
2.355010570423002
 40
5.587449337209764
 40
7.202498642283746
 40
8.492725343901382
 40
12.36393330088131
 40
14.62395124221987
 40
15.91547712800482
 40
16.88416502494398
 40
17.51128156553079
 40
18.11972717635189
 40
19.03248479962944
 40
19.64108036383815
 40
20.02789641845249
 40
20.41480023821941
 40
20.80187875437802
 40
21.18949141989975
 40
21.3733873272445
 40
21.56114349073708
 40
21.6831400925209
 40
21.7416632561099
 40
21.82470708989632
 40
21.94776335520421
 40
22.03554948134014
 40
22.03554948134014
 40
22.03554948134014
 40
22.03554948134014
 10
657.5745513462939
 20
672.6787737956425
 30
0.0
 10
657.5882184837166
 20
673.4260461633068
 30
0.0
 10
657.620718609397
 20
675.1649766146255
 30
0.0
 10
657.6616634025352
 20
677.239425177871
 30
0.0
 10
657.6949758069055
 20
678.83890821934
 30
0.0
 10
657.7304023373924
 20
680.4788214503193
 30
0.0
 10
657.7661270164233
 20
682.0088922092218
 30
0.0
 10
657.7967879654396
 20
683.162251243877
 30
0.0
 10
657.8134313958128
 20
683.7227522110903
 30
0.0
 10
657.8231930720594
 20
684.0215989638292
 30
0.0
 10
657.8301603796726
 20
684.2172110843333
 30
0.0
 10
657.8365823600881
 20
684.3832336523742
 30
0.0
 10
657.8425023814773
 20
684.5177386461477
 30
0.0
 10
657.8474308491714
 20
684.6116198215144
 30
0.0
 10
657.8508880061889
 20
684.6675742395671
 30
0.0
 10
657.8537340283201
 20
684.7071347695342
 30
0.0
 10
657.8568699658751
 20
684.7410530283165
 30
0.0
 10
657.859690015232
 20
684.7664268806618
 30
0.0
 10
657.8650266605019
 20
684.7956609640435
 30
0.0
 10
657.8718843571265
 20
684.826199405225
 30
0.0
 10
657.8923995214275
 20
684.8780691957421
 30
0.0
 10
657.9282077802543
 20
684.9315185366464
 30
0.0
 10
657.9821591593732
 20
684.986247750115
 30
0.0
 10
658.0655473609189
 20
685.029698814621
 30
0.0
 10
658.1331486604789
 20
685.0392145142005
 30
0.0
 10
658.1610551675718
 20
685.039214510797
 30
0.0
  0
SPLINE
  5
D9
330
A8
100
AcDbEntity
  8
0
  6
Continuous
 62
     0
370
    30
100
AcDbSpline
210
0.0
220
0.0
230
1.0
 70
     8
 71
     3
 72
    30
 73
    26
 74
     0
 42
0.000000001
 43
0.0
 40
0.0
 40
0.0
 40
0.0
 40
0.0
 40
2.354789331496064
 40
5.585770284709358
 40
7.200224510373155
 40
8.490332847150658
 40
12.36118992441555
 40
14.62121341675034
 40
15.91273847875916
 40
16.88142422606518
 40
17.50850691047717
 40
18.11688646607164
 40
19.02954569439901
 40
19.63807571593296
 40
20.02526481103043
 40
20.41254131934357
 40
20.79999179668583
 40
21.18797353335608
 40
21.37247763410375
 40
21.56083696927962
 40
21.68300336437305
 40
21.74145220415324
 40
21.82444380915241
 40
21.94752212285468
 40
22.0355881742521
 40
22.0355881742521
 40
22.0355881742521
 40
22.0355881742521
 10
660.0744745017305
 20
672.6750494235212
 30
0.0
 10
660.0607859939087
 20
673.4235668176752
 30
0.0
 10
660.0282719770886
 20
675.1633507274948
 30
0.0
 10
659.9873176616891
 20
677.2382940625664
 30
0.0
 10
659.9540159552785
 20
678.8373077786509
 30
0.0
 10
659.9185925583042
 20
680.4771724293565
 30
0.0
 10
659.8828662771227
 20
682.007439159305
 30
0.0
 10
659.8522015132513
 20
683.1611086295015
 30
0.0
 10
659.8355543702402
 20
683.7218567916692
 30
0.0
 10
659.825790438013
 20
684.0208548032188
 30
0.0
 10
659.8188216759597
 20
684.2165723606636
 30
0.0
 10
659.8123985780567
 20
684.3826896473056
 30
0.0
 10
659.8064775349245
 20
684.5172894661855
 30
0.0
 10
659.8015471701708
 20
684.6112789897948
 30
0.0
 10
659.7980878528317
 20
684.667324270159
 30
0.0
 10
659.7952391202957
 20
684.7069645426155
 30
0.0
 10
659.7921026763701
 20
684.740937181806
 30
0.0
 10
659.7892825809714
 20
684.7663403675474
 30
0.0
 10
659.7839582977826
 20
684.7955590228421
 30
0.0
 10
659.7771178608577
 20
684.8260874086928
 30
0.0
 10
659.7566248472996
 20
684.8779746244315
 30
0.0
 10
659.7208617792206
 20
684.9314086640784
 30
0.0
 10
659.667006580044
 20
684.9861260933743
 30
0.0
 10
659.5835938219273
 20
685.0296916318225
 30
0.0
 10
659.5158955775511
 20
685.0392506262656
 30
0.0
 10
659.4879008998664
 20
685.0392506088994
 30
0.0
  0
SPLINE
  5
DA
330
A8
100
AcDbEntity
  8
0
  6
Continuous
 62
     0
370
    30
100
AcDbSpline
210
0.0
220
0.0
230
1.0
 70
     8
 71
     3
 72
    12
 73
     8
 74
     0
 42
0.000000001
 43
0.0
 40
20.49066355046719
 40
20.49066355046719
 40
20.49066355046719
 40
20.49066355046719
 40
20.5210666123328
 40
20.62167294804518
 40
20.68519711240257
 40
20.77617288291432
 40
20.87227360511879
 40
20.87227360511879
 40
20.87227360511879
 40
20.87227360511879
 10
659.8359394576057
 20
683.7032792199831
 30
0.0
 10
659.8384202989805
 20
683.6983786101925
 30
0.0
 10
659.8506585016485
 20
683.6758365325502
 30
0.0
 10
659.8811222371977
 20
683.6330999226021
 30
0.0
 10
659.9404671936898
 20
683.583807675973
 30
0.0
 10
660.012053873438
 20
683.5486700340674
 30
0.0
 10
660.0723296105891
 20
683.5392565782765
 30
0.0
 10
660.1029852952871
 20
683.5392565988639
 30
0.0
  0
LINE
  5
DB
330
A8
100
AcDbEntity
  8
0
  6
Continuous
 62
     0
370
    30
100
AcDbLine
 10
659.487882
 20
685.039319
 30
0.0
 11
658.161074
 21
685.039319
 31
0.0
  0
LINE
  5
DC
330
A8
100
AcDbEntity
  8
0
  6
Continuous
 62
     0
370
    30
100
AcDbLine
 10
658.161074
 20
650.039319
 30
0.0
 11
659.487882
 21
650.039319
 31
0.0
  0
SPLINE
  5
DD
330
A8
100
AcDbEntity
  8
0
  6
Continuous
 62
     0
370
     0
100
AcDbSpline
210
0.0
220
0.0
230
1.0
 70
     8
 71
     3
 72
    65
 73
    61
 74
     0
 42
0.000000001
 43
0.0
 40
-32.51445735250433
 40
-32.51445735250433
 40
-32.51445735250433
 40
-32.51445735250433
 40
-32.5118392466036
 40
-31.35070213065347
 40
-30.18956501470334
 40
-29.02842789875323
 40
-27.86729078280307
 40
-26.70615366685296
 40
-25.54501655090282
 40
-24.3838794349527
 40
-23.22274231900256
 40
-22.06160520305244
 40
-20.90046808710232
 40
-19.73933097115218
 40
-18.57819385520205
 40
-17.41705673925193
 40
-16.2559196233018
 40
-15.09478250735167
 40
-13.93364539140154
 40
-12.77250827545141
 40
-11.61137115950128
 40
-10.45023404355116
 40
-9.289096927601033
 40
-8.127959811650896
 40
-6.966822695700769
 40
-5.805685579750644
 40
-4.644548463800511
 40
-3.483411347850384
 40
-2.322274231900259
 40
-1.161137115950126
 40
0.0
 40
1.161137115950126
 40
2.322274231900257
 40
3.483411347850384
 40
4.644548463800511
 40
5.805685579750641
 40
6.966822695700769
 40
8.127959811650896
 40
9.289096927601026
 40
10.45023404355116
 40
11.61137115950128
 40
12.77250827545141
 40
13.93364539140154
 40
15.09478250735167
 40
16.2559196233018
 40
17.41705673925193
 40
18.57819385520205
 40
19.73933097115218
 40
20.90046808710232
 40
22.06160520305244
 40
23.22274231900256
 40
24.3838794349527
 40
25.54501655090282
 40
26.70615366685295
 40
27.86729078280307
 40
29.0284278987532
 40
30.18956501470333
 40
31.35070213065347
 40
32.5118392466036
 40
32.51445735250433
 40
32.51445735250433
 40
32.51445735250433
 40
32.51445735250433
 10
657.5745507994336
 20
567.8700229190663
 30
0.0
 10
657.5745584154456
 20
567.8698582236739
 30
0.0
 10
657.5779434575173
 20
567.7966570757246
 30
0.0
 10
657.5847082287629
 20
567.6290289960449
 30
0.0
 10
657.5948102272888
 20
567.3146571955174
 30
0.0
 10
657.6048490475379
 20
566.9380745914725
 30
0.0
 10
657.6147924772606
 20
566.5004625952122
 30
0.0
 10
657.6246093985936
 20
566.003199022249
 30
0.0
 10
657.6342688788966
 20
565.4478481995598
 30
0.0
 10
657.6437405379215
 20
564.8361575327957
 30
0.0
 10
657.652994571096
 20
564.170051609279
 30
0.0
 10
657.6620018626732
 20
563.4516262494549
 30
0.0
 10
657.6707340721495
 20
562.683141884018
 30
0.0
 10
657.6791637248255
 20
561.8670164494367
 30
0.0
 10
657.6872642978784
 20
561.0058177781735
 30
0.0
 10
657.6950103039131
 20
560.1022555198856
 30
0.0
 10
657.7023773711277
 20
559.1591726157171
 30
0.0
 10
657.7093423200034
 20
558.1795363533929
 30
0.0
 10
657.7158832362343
 20
557.1664290310248
 30
0.0
 10
657.7219795396778
 20
556.1230382590622
 30
0.0
 10
657.7276120491081
 20
555.0526469308916
 30
0.0
 10
657.7327630425666
 20
553.9586228936377
 30
0.0
 10
657.7374163131221
 20
552.8444083516716
 30
0.0
 10
657.741557219864
 20
551.7135090361623
 30
0.0
 10
657.7451727339678
 20
550.5694831747486
 30
0.0
 10
657.7482514796884
 20
549.4159302960394
 30
0.0
 10
657.7507837701528
 20
548.2564799041645
 30
0.0
 10
657.7527616378381
 20
547.0947800590122
 30
0.0
 10
657.7541788596411
 20
545.9344858980828
 30
0.0
 10
657.7550309764576
 20
544.7792481360741
 30
0.0
 10
657.7553153072129
 20
543.632701578382
 30
0.0
 10
657.7550309572972
 20
542.4984536846589
 30
0.0
 10
657.7541788213805
 20
541.3800732184092
 30
0.0
 10
657.7527615805976
 20
540.2810790183408
 30
0.0
 10
657.7507836941124
 20
539.204928926796
 30
0.0
 10
657.7482513850877
 20
538.1550089100999
 30
0.0
 10
657.7451726211043
 20
537.1346224050578
 30
0.0
 10
657.7415570890928
 20
536.1469799251215
 30
0.0
 10
657.7374161648545
 20
535.1951889589252
 30
0.0
 10
657.7327628772692
 20
534.2822441929775
 30
0.0
 10
657.7276118673011
 20
533.411018089269
 30
0.0
 10
657.7219793419332
 20
532.5842518474444
 30
0.0
 10
657.7158830231741
 20
531.804546779975
 30
0.0
 10
657.7093420922982
 20
531.0743561274653
 30
0.0
 10
657.7023771294939
 20
530.3959773398543
 30
0.0
 10
657.6950100491109
 20
529.7715448477793
 30
0.0
 10
657.6872640307095
 20
529.2030233468938
 30
0.0
 10
657.6791634461304
 20
528.6922016161141
 30
0.0
 10
657.6707337828052
 20
528.2406868898083
 30
0.0
 10
657.6620015635901
 20
527.8498997995383
 30
0.0
 10
657.6529942632152
 20
527.5210699090969
 30
0.0
 10
657.6437402222117
 20
527.2552318276679
 30
0.0
 10
657.634268556351
 20
527.0532220224038
 30
0.0
 10
657.6246090702272
 20
526.9156759334044
 30
0.0
 10
657.6147921441063
 20
526.8430269192909
 30
0.0
 10
657.6048487106441
 20
526.8355013672716
 30
0.0
 10
657.5948098877157
 20
526.8931311416497
 30
0.0
 10
657.5847078875786
 20
527.0157043667718
 30
0.0
 10
657.5779431159746
 20
527.1406751209171
 30
0.0
 10
657.574558073903
 20
527.2138882862439
 30
0.0
 10
657.5745504578908
 20
527.2140530086679
 30
0.0
  0
SPLINE
  5
DE
330
A8
100
AcDbEntity
  8
0
  6
Continuous
 62
     0
370
     0
100
AcDbSpline
210
0.0
220
0.0
230
1.0
 70
    12
 71
     2
 72
     8
 73
     5
 74
     0
 42
0.000000001
 43
0.0
 40
0.0
 40
0.0
 40
0.0
 40
0.5
 40
0.5
 40
1.0
 40
1.0
 40
1.0
 10
657.5745504715031
 20
528.8343996371948
 30
0.0
 41
1.0
 10
657.7407981206538
 20
525.2390181221924
 30
0.0
 41
0.7071067811865471
 10
657.740798277813
 20
543.9466564488648
 30
0.0
 41
1.0
 10
657.7407984349721
 20
562.6542947755371
 30
0.0
 41
0.7071067811865471
 10
657.5745507858214
 20
566.2496762905395
 30
0.0
 41
1.0
  0
SPLINE
  5
DF
330
A8
100
AcDbEntity
  8
0
  6
Continuous
 62
     0
370
     0
100
AcDbSpline
210
0.0
220
0.0
230
1.0
 70
     8
 71
     3
 72
    26
 73
    22
 74
     0
 42
0.000000001
 43
0.0
 40
0.06045190261837
 40
0.06045190261837
 40
0.06045190261837
 40
0.06045190261837
 40
0.070850911399067
 40
0.106364943631365
 40
0.141917937930064
 40
0.213065784764732
 40
0.2844568007505889
 40
0.3203034603569451
 40
0.356208927000576
 40
0.428047847799608
 40
0.500000000000001
 40
0.571952152200393
 40
0.6437910729994248
 40
0.679696539643056
 40
0.7155431992494121
 40
0.7869342152352681
 40
0.858082062069936
 40
0.8936350563686359
 40
0.9291490886009338
 40
0.9763830295336451
 40
1.0
 40
1.0
 40
1.0
 40
1.0
 10
659.7404265970783
 20
526.5421828180272
 30
0.0
 10
659.7384922553454
 20
526.5421587966109
 30
0.0
 10
659.729981744619
 20
526.5585548772808
 30
0.0
 10
659.7151718114199
 20
526.7172707804891
 30
0.0
 10
659.6902810862007
 20
527.3383368742045
 30
0.0
 10
659.6614814199555
 20
528.7550883781671
 30
0.0
 10
659.6373552969998
 20
530.9596676306874
 30
0.0
 10
659.6216049370389
 20
533.1291859399744
 30
0.0
 10
659.6083812009975
 20
535.5482033434237
 30
0.0
 10
659.5969829426988
 20
538.9854815395354
 30
0.0
 10
659.5923436764876
 20
543.5447350946038
 30
0.0
 10
659.5969830210089
 20
548.3072230368114
 30
0.0
 10
659.6083813412611
 20
552.2446481842172
 30
0.0
 10
659.6216051228214
 20
555.2440356680839
 30
0.0
 10
659.6373555250407
 20
558.1048049895334
 30
0.0
 10
659.6614816939298
 20
561.3679623291023
 30
0.0
 10
659.6902813945944
 20
564.0483749958554
 30
0.0
 10
659.7151721394248
 20
565.7617611046464
 30
0.0
 10
659.7366784074068
 20
566.9359330489314
 30
0.0
 10
659.7566989183706
 20
567.7166254704443
 30
0.0
 10
659.7700792395723
 20
568.0667732323402
 30
0.0
 10
659.7745393664715
 20
568.1646313948446
 30
0.0
  0
LINE
  5
E0
330
A8
100
AcDbEntity
  8
0
  6
Continuous
 62
     0
370
     0
100
AcDbLine
 10
659.774539
 20
568.164631
 30
0.0
 11
657.874562
 21
568.164631
 31
0.0
  0
SPLINE
  5
E1
330
A8
100
AcDbEntity
  8
0
  6
Continuous
 62
     0
370
     0
100
AcDbSpline
210
0.0
220
0.0
230
1.0
 70
     8
 71
     3
 72
    26
 73
    22
 74
     0
 42
0.000000001
 43
0.0
 40
0.0
 40
0.0
 40
0.0
 40
0.0
 40
0.023616970466355
 40
0.070850911399066
 40
0.106364943631365
 40
0.141917937930064
 40
0.21306578476473
 40
0.2844568007505889
 40
0.3203034603569451
 40
0.3562089270005749
 40
0.428047847799608
 40
0.500000000000001
 40
0.5719521522003921
 40
0.6437910729994248
 40
0.679696539643057
 40
0.715543199249413
 40
0.7869342152352671
 40
0.8580820620699369
 40
0.8936350563686372
 40
0.929149088600935
 40
0.939548073687449
 40
0.939548073687449
 40
0.939548073687449
 40
0.939548073687449
 10
657.8745622373456
 20
568.1646313948446
 30
0.0
 10
657.8790224087586
 20
568.0667732323402
 30
0.0
 10
657.8924028625515
 20
567.7166254704443
 30
0.0
 10
657.9124235675822
 20
566.9359330489314
 30
0.0
 10
657.9339300383983
 20
565.7617611046464
 30
0.0
 10
657.9588210120555
 20
564.0483749958554
 30
0.0
 10
657.9876209657091
 20
561.3679623291023
 30
0.0
 10
658.0117473294288
 20
558.1048049895334
 30
0.0
 10
658.0274978466084
 20
555.2440356680838
 30
0.0
 10
658.0407217146496
 20
552.2446481842171
 30
0.0
 10
658.0521200867023
 20
548.3072230368114
 30
0.0
 10
658.0567593991373
 20
543.5447350946038
 30
0.0
 10
658.0521200083922
 20
538.9854815395354
 30
0.0
 10
658.0407215743862
 20
535.5482033434237
 30
0.0
 10
658.027497660826
 20
533.1291859399743
 30
0.0
 10
658.011747101388
 20
530.9596676306874
 30
0.0
 10
657.9876206917348
 20
528.7550883781671
 30
0.0
 10
657.9588207036619
 20
527.3383368742044
 30
0.0
 10
657.9339297103934
 20
526.7172707804891
 30
0.0
 10
657.9191196255713
 20
526.5585549234429
 30
0.0
 10
657.9106090309739
 20
526.5421588135339
 30
0.0
 10
657.9086746736618
 20
526.542182817863
 30
0.0
  0
SPLINE
  5
E2
330
A8
100
AcDbEntity
  8
0
  6
Continuous
 62
     0
370
     0
100
AcDbSpline
210
0.0
220
0.0
230
1.0
 70
     8
 71
     3
 72
     9
 73
     5
 74
     0
 42
0.000000001
 43
0.0
 40
0.0
 40
0.0
 40
0.0
 40
0.0
 40
0.047255179972674
 40
0.1209752114669826
 40
0.1209752114669826
 40
0.1209752114669826
 40
0.1209752114669826
 10
659.7745393664713
 20
568.1646313948446
 30
0.0
 10
659.7700791201818
 20
568.2624896865229
 30
0.0
 10
659.758660713297
 20
568.4647341862715
 30
0.0
 10
659.7472822431743
 20
568.5419084549278
 30
0.0
 10
659.7404262259448
 20
568.5419406457381
 30
0.0
  0
SPLINE
  5
E3
330
A8
100
AcDbEntity
  8
0
  6
Continuous
 62
     0
370
     0
100
AcDbSpline
210
0.0
220
0.0
230
1.0
 70
     8
 71
     3
 72
     9
 73
     5
 74
     0
 42
0.000000001
 43
0.0
 40
0.8790247840099233
 40
0.8790247840099233
 40
0.8790247840099233
 40
0.8790247840099233
 40
0.9527448200273259
 40
1.0
 40
1.0
 40
1.0
 40
1.0
 10
657.9086750324442
 20
568.541940645744
 30
0.0
 10
657.9018190857545
 20
568.5419084606987
 30
0.0
 10
657.8904407316644
 20
568.4647341938331
 30
0.0
 10
657.8790224391213
 20
568.2624896865229
 30
0.0
 10
657.8745622373456
 20
568.1646313948446
 30
0.0
  0
LINE
  5
E4
330
A8
100
AcDbEntity
  8
0
  6
Continuous
 62
     0
370
     0
100
AcDbLine
 10
660.07455
 20
527.214053
 30
0.0
 11
660.07455
 21
527.625943
 31
0.0
  0
LINE
  5
E5
330
A8
100
AcDbEntity
  8
0
  6
Continuous
 62
     0
370
     0
100
AcDbLine
 10
660.074551
 20
567.231704
 30
0.0
 11
660.074551
 21
567.870023
 31
0.0
  0
SPLINE
  5
E6
330
A8
100
AcDbEntity
  8
0
  6
Continuous
 62
     0
370
     0
100
AcDbSpline
210
0.0
220
0.0
230
1.0
 70
     8
 71
     3
 72
    65
 73
    61
 74
     0
 42
0.000000001
 43
0.0
 40
-97.53813584571155
 40
-97.53813584571155
 40
-97.53813584571155
 40
-97.53813584571155
 40
-97.53551773981079
 40
-96.37438062386067
 40
-95.21324350791056
 40
-94.05210639196041
 40
-92.89096927601025
 40
-91.72983216006017
 40
-90.56869504411003
 40
-89.40755792815989
 40
-88.24642081220975
 40
-87.08528369625961
 40
-85.9241465803095
 40
-84.76300946435934
 40
-83.60187234840927
 40
-82.44073523245913
 40
-81.27959811650899
 40
-80.11846100055884
 40
-78.95732388460871
 40
-77.7961867686586
 40
-76.63504965270846
 40
-75.47391253675833
 40
-74.31277542080821
 40
-73.15163830485808
 40
-71.99050118890798
 40
-70.82936407295782
 40
-69.66822695700769
 40
-68.50708984105758
 40
-67.34595272510744
 40
-66.18481560915731
 40
-65.0236784932072
 40
-63.86254137725706
 40
-62.70140426130691
 40
-61.54026714535679
 40
-60.3791300294067
 40
-59.21799291345657
 40
-58.05685579750646
 40
-56.89571868155629
 40
-55.73458156560615
 40
-54.57344444965602
 40
-53.41230733370592
 40
-52.25117021775577
 40
-51.09003310180566
 40
-49.92889598585551
 40
-48.76775886990539
 40
-47.60662175395528
 40
-46.44548463800513
 40
-45.28434752205501
 40
-44.12321040610487
 40
-42.96207329015474
 40
-41.80093617420464
 40
-40.63979905825448
 40
-39.47866194230433
 40
-38.31752482635419
 40
-37.15638771040409
 40
-35.99525059445396
 40
-34.83411347850384
 40
-33.67297636255373
 40
-32.5118392466036
 40
-32.50922114070288
 40
-32.50922114070288
 40
-32.50922114070288
 40
-32.50922114070288
 10
660.0745504578908
 20
527.2140530086679
 30
0.0
 10
660.0745428419539
 20
527.2138882862439
 30
0.0
 10
660.0711578331827
 20
527.1406751209172
 30
0.0
 10
660.064393128486
 20
527.0157043667718
 30
0.0
 10
660.0542912293392
 20
526.8931311416497
 30
0.0
 10
660.044252507848
 20
526.8355013672716
 30
0.0
 10
660.0343091759445
 20
526.8430269192909
 30
0.0
 10
660.0244923511862
 20
526.9156759334045
 30
0.0
 10
660.014832965909
 20
527.0532220224038
 30
0.0
 10
660.0053614000623
 20
527.2552318276679
 30
0.0
 10
659.9961074579252
 20
527.5210699090969
 30
0.0
 10
659.987100254958
 20
527.8498997995383
 30
0.0
 10
659.9783681313854
 20
528.2406868898083
 30
0.0
 10
659.9699385616369
 20
528.6922016161141
 30
0.0
 10
659.9618380682739
 20
529.2030233468938
 30
0.0
 10
659.9540921384412
 20
529.7715448477793
 30
0.0
 10
659.9467251437007
 20
530.3959773398543
 30
0.0
 10
659.9397602633433
 20
531.0743561274653
 30
0.0
 10
659.9332194114593
 20
531.804546779975
 30
0.0
 10
659.9271231679886
 20
532.5842518474444
 30
0.0
 10
659.9214907139688
 20
533.411018089269
 30
0.0
 10
659.9163397711836
 20
534.2822441929775
 30
0.0
 10
659.911686546405
 20
535.1951889589253
 30
0.0
 10
659.9075456803996
 20
536.1469799251215
 30
0.0
 10
659.9039302018639
 20
537.1346224050578
 30
0.0
 10
659.9008514864307
 20
538.1550089100999
 30
0.0
 10
659.8983192208781
 20
539.2049289267961
 30
0.0
 10
659.8963413726502
 20
540.2810790183408
 30
0.0
 10
659.8949241647892
 20
541.3800732184092
 30
0.0
 10
659.8940720563556
 20
542.4984536846589
 30
0.0
 10
659.8937877283977
 20
543.6327015783821
 30
0.0
 10
659.8940720755161
 20
544.7792481360741
 30
0.0
 10
659.8949242030501
 20
545.9344858980828
 30
0.0
 10
659.8963414298908
 20
547.0947800590121
 30
0.0
 10
659.8983192969183
 20
548.2564799041645
 30
0.0
 10
659.9008515810315
 20
549.4159302960393
 30
0.0
 10
659.9039303147274
 20
550.5694831747486
 30
0.0
 10
659.9075458111708
 20
551.7135090361623
 30
0.0
 10
659.9116866946725
 20
552.8444083516717
 30
0.0
 10
659.9163399364809
 20
553.9586228936377
 30
0.0
 10
659.9214908957757
 20
555.0526469308916
 30
0.0
 10
659.9271233657333
 20
556.1230382590622
 30
0.0
 10
659.9332196245194
 20
557.1664290310248
 30
0.0
 10
659.9397604910484
 20
558.179536353393
 30
0.0
 10
659.9467253853346
 20
559.159172615717
 30
0.0
 10
659.9540923932434
 20
560.1022555198857
 30
0.0
 10
659.9618383354428
 20
561.0058177781734
 30
0.0
 10
659.9699388403319
 20
561.8670164494367
 30
0.0
 10
659.9783684207297
 20
562.683141884018
 30
0.0
 10
659.9871005540409
 20
563.4516262494549
 30
0.0
 10
659.9961077658058
 20
564.170051609279
 30
0.0
 10
660.0053617157721
 20
564.8361575327956
 30
0.0
 10
660.0148332884546
 20
565.4478481995598
 30
0.0
 10
660.0244926795526
 20
566.003199022249
 30
0.0
 10
660.0343095090986
 20
566.5004625952122
 30
0.0
 10
660.0442528447417
 20
566.9380745914725
 30
0.0
 10
660.0542915689125
 20
567.3146571955175
 30
0.0
 10
660.0643934696704
 20
567.6290289960444
 30
0.0
 10
660.0711581747255
 20
567.7966570757255
 30
0.0
 10
660.0745431834965
 20
567.8698582236739
 30
0.0
 10
660.0745507994336
 20
567.8700229190664
 30
0.0
  0
SPLINE
  5
E7
330
A8
100
AcDbEntity
  8
0
  6
Continuous
 62
     0
370
     0
100
AcDbSpline
210
0.0
220
0.0
230
1.0
 70
     8
 71
     3
 72
    62
 73
    58
 74
     0
 42
0.000000001
 43
0.0
 40
-94.47019259877507
 40
-94.47019259877507
 40
-94.47019259877507
 40
-94.47019259877507
 40
-93.34560977420308
 40
-92.22102694963108
 40
-91.09644412505907
 40
-89.97186130048703
 40
-88.84727847591505
 40
-87.72269565134306
 40
-86.59811282677107
 40
-85.47353000219907
 40
-84.34894717762707
 40
-83.22436435305505
 40
-82.09978152848308
 40
-80.97519870391105
 40
-79.85061587933907
 40
-78.72603305476707
 40
-77.60145023019507
 40
-76.47686740562308
 40
-75.3522845810511
 40
-74.22770175647905
 40
-73.10311893190706
 40
-71.97853610733509
 40
-70.85395328276309
 40
-69.72937045819108
 40
-68.60478763361907
 40
-67.48020480904708
 40
-66.35562198447509
 40
-65.23103915990312
 40
-64.1064563353311
 40
-62.9818735107591
 40
-61.85729068618709
 40
-60.73270786161508
 40
-59.6081250370431
 40
-58.48354221247111
 40
-57.35895938789912
 40
-56.23437656332711
 40
-55.10979373875509
 40
-53.9852109141831
 40
-52.86062808961111
 40
-51.7360452650391
 40
-50.61146244046713
 40
-49.48687961589511
 40
-48.36229679132312
 40
-47.23771396675112
 40
-46.11313114217911
 40
-44.98854831760713
 40
-43.86396549303511
 40
-42.73938266846314
 40
-41.61479984389111
 40
-40.49021701931912
 40
-39.36563419474712
 40
-38.24105137017513
 40
-37.11646854560314
 40
-35.99188572103107
 40
-34.86730289645909
 40
-33.74272007188709
 40
-33.39632440739559
 40
-33.39632440739559
 40
-33.39632440739559
 40
-33.39632440739559
 10
660.0745507940712
 20
567.2317043930201
 30
0.0
 10
660.0712790816493
 20
567.1608994102723
 30
0.0
 10
660.0647356812253
 20
566.9986322526897
 30
0.0
 10
660.0549515282833
 20
566.6940255902257
 30
0.0
 10
660.045229103119
 20
566.3291712613895
 30
0.0
 10
660.0355989908247
 20
565.9052170384085
 30
0.0
 10
660.0260914863063
 20
565.4234966174083
 30
0.0
 10
660.0167364987066
 20
564.8855254168863
 30
0.0
 10
660.0075634573888
 20
564.2929958120234
 30
0.0
 10
659.9986012193369
 20
563.6477718103058
 30
0.0
 10
659.9898779783814
 20
562.951883187756
 30
0.0
 10
659.981421176504
 20
562.2075191035383
 30
0.0
 10
659.9732574175098
 20
561.4170212132058
 30
0.0
 10
659.9654123833357
 20
560.5828763022089
 30
0.0
 10
659.9579107532595
 20
559.7077084628488
 30
0.0
 10
659.9507761262621
 20
558.7942708392851
 30
0.0
 10
659.9440309467884
 20
557.8454369665642
 30
0.0
 10
659.9376964341416
 20
556.8641917309187
 30
0.0
 10
659.9317925157294
 20
555.8536219797713
 30
0.0
 10
659.9263377643761
 20
554.8169068109848
 30
0.0
 10
659.9213493398952
 20
553.7573075719072
 30
0.0
 10
659.916842935107
 20
552.6781575996708
 30
0.0
 10
659.9128327264716
 20
551.5828517350245
 30
0.0
 10
659.9093313294923
 20
550.4748356426833
 30
0.0
 10
659.9063497590281
 20
549.3575949717945
 30
0.0
 10
659.9038973946438
 20
548.2346443906185
 30
0.0
 10
659.9019819511026
 20
547.10951652992
 30
0.0
 10
659.9006094540969
 20
545.9857508698524
 30
0.0
 10
659.8997842212923
 20
544.8668826052937
 30
0.0
 10
659.899508848745
 20
543.7564315246651
 30
0.0
 10
659.899784202735
 20
542.6578909372147
 30
0.0
 10
659.9006094170406
 20
541.5747166836006
 30
0.0
 10
659.901981895664
 20
540.5103162643453
 30
0.0
 10
659.9038973209972
 20
539.4680381203598
 30
0.0
 10
659.9063496674053
 20
538.4511610992608
 30
0.0
 10
659.9093312201815
 20
537.462884140618
 30
0.0
 10
659.9128325998167
 20
536.5063162125791
 30
0.0
 10
659.9168427915063
 20
535.5844665315313
 30
0.0
 10
659.9213491798005
 20
534.7002350955677
 30
0.0
 10
659.9263375882911
 20
533.856403561536
 30
0.0
 10
659.931792324208
 20
533.0556264943721
 30
0.0
 10
659.9376962277863
 20
532.3004230162444
 30
0.0
 10
659.9440307262485
 20
531.5931688817811
 30
0.0
 10
659.950775892231
 20
530.9360890043098
 30
0.0
 10
659.9579105064738
 20
530.3312504566195
 30
0.0
 10
659.9654121245716
 20
529.7805559682668
 30
0.0
 10
659.9732571475812
 20
529.2857379398793
 30
0.0
 10
659.9814208962603
 20
528.848352993288
 30
0.0
 10
659.9898776887042
 20
528.469777074634
 30
0.0
 10
659.9986009211373
 20
528.1512011258509
 30
0.0
 10
660.0075631516049
 20
527.8936273381464
 30
0.0
 10
660.0167361863005
 20
527.6978659992538
 30
0.0
 10
660.0260911682608
 20
527.564532944421
 30
0.0
 10
660.0355986681402
 20
527.4940476189735
 30
0.0
 10
660.0452287768106
 20
527.486631759228
 30
0.0
 10
660.0527086301803
 20
527.5294662791747
 30
0.0
 10
660.0569652782062
 20
527.5716829996627
 30
0.0
 10
660.0579684877969
 20
527.5826175614038
 30
0.0
  0
SPLINE
  5
E8
330
A8
100
AcDbEntity
  8
0
  6
Continuous
 62
     0
370
     0
100
AcDbSpline
210
0.0
220
0.0
230
1.0
 70
     8
 71
     3
 72
     8
 73
     4
 74
     0
 42
0.000000001
 43
0.0
 40
27.39253094820034
 40
27.39253094820034
 40
27.39253094820034
 40
27.39253094820034
 40
31.16137198884254
 40
31.16137198884254
 40
31.16137198884254
 40
31.16137198884254
 10
660.3415206047503
 20
567.2920255223203
 30
0.0
 10
660.3524069854917
 20
567.2920255093775
 30
0.0
 10
660.3634994412901
 20
567.1727672000421
 30
0.0
 10
660.3745622270333
 20
566.9370960715644
 30
0.0
  0
ARC
  5
E9
330
A8
100
AcDbEntity
  8
0
  6
Continuous
 62
     0
370
     0
100
AcDbCircle
 10
660.371514
 20
567.234053
 30
0.0
 40
0.2969726101869969
100
AcDbArc
 50
180.45314
 51
270.588091
  0
SPLINE
  5
EA
330
A8
100
AcDbEntity
  8
0
  6
Continuous
 62
     0
370
     0
100
AcDbSpline
210
0.0
220
0.0
230
1.0
 70
     8
 71
     3
 72
    23
 73
    19
 74
     0
 42
0.000000001
 43
0.0
 40
0.001006631034243
 40
0.001006631034243
 40
0.001006631034243
 40
0.001006631034243
 40
3.895306262554279
 40
7.79063606555885
 40
11.68596107986965
 40
15.58127328266519
 40
19.47656825063716
 40
23.37184559072276
 40
27.26710869605196
 40
31.16236388803833
 40
35.05761908002217
 40
38.9528821853451
 40
42.84815952542125
 40
46.74345449338324
 40
50.63876669616975
 40
54.53409171047554
 40
58.4294215130047
 40
58.55869688286111
 40
58.55869688286111
 40
58.55869688286111
 40
58.55869688286111
 10
660.3745622270332
 20
566.9370960715326
 30
0.0
 10
660.3631312498526
 20
566.6935785939841
 30
0.0
 10
660.3402028714174
 20
565.955158146508
 30
0.0
 10
660.3071798515437
 20
564.1410707611715
 30
0.0
 10
660.2767299100692
 20
561.6885985969514
 30
0.0
 10
660.2500434681742
 20
558.6925268587361
 30
0.0
 10
660.2281415371408
 20
555.2678964988663
 30
0.0
 10
660.2118670606749
 20
551.5463514815842
 30
0.0
 10
660.2018452219952
 20
547.6709093019764
 30
0.0
 10
660.19846122379
 20
543.7905139265936
 30
0.0
 10
660.201845162881
 20
540.054297670111
 30
0.0
 10
660.211866893055
 20
536.6058493491169
 30
0.0
 10
660.2281414741117
 20
533.5777047769449
 30
0.0
 10
660.2500427371995
 20
531.0862293855143
 30
0.0
 10
660.2767314324387
 20
529.2272091818554
 30
0.0
 10
660.3071727708717
 20
528.0719709382988
 30
0.0
 10
660.3295770661525
 20
527.7963834541513
 30
0.0
 10
660.3411791243975
 20
527.792027210593
 30
0.0
 10
660.3415520148213
 20
527.7920272103138
 30
0.0
  0
LINE
  5
EB
330
A8
100
AcDbEntity
  8
0
  6
Continuous
 62
     0
370
     0
100
AcDbLine
 10
660.074245
 20
527.200919
 30
0.0
 11
660.07455
 21
527.214053
 31
0.0
  0
ARC
  5
EC
330
A8
100
AcDbEntity
  8
0
  6
Continuous
 62
     0
370
     0
100
AcDbCircle
 10
659.77724
 20
567.867321
 30
0.0
 40
0.2973226615459943
100
AcDbArc
 50
0.520648
 51
90.520514
  0
ARC
  5
ED
330
A8
100
AcDbEntity
  8
0
  6
Continuous
 62
     0
370
     0
100
AcDbCircle
 10
657.871522
 20
567.867666
 30
0.0
 40
0.2969808915948391
100
AcDbArc
 50
89.41351
 51
179.545326
  0
LINE
  5
EE
330
A8
100
AcDbEntity
  8
0
  6
Continuous
 62
     0
370
     0
100
AcDbLine
 10
657.57455
 20
527.214053
 30
0.0
 11
657.574857
 21
527.200923
 31
0.0
  0
LINE
  5
EF
330
A8
100
AcDbEntity
  8
0
  6
Continuous
 62
     0
370
     0
100
AcDbLine
 10
660.374562
 20
566.937096
 30
0.0
 11
660.574551
 21
566.937096
 31
0.0
  0
LINE
  5
F0
330
A8
100
AcDbEntity
  8
0
  6
Continuous
 62
     0
370
    30
100
AcDbLine
 10
660.341538
 20
527.792038
 30
0.0
 11
660.574551
 21
527.792038
 31
0.0
  0
LINE
  5
F1
330
A8
100
AcDbEntity
  8
0
  6
Continuous
 62
     0
370
    30
100
AcDbLine
 10
660.341539
 20
567.292038
 30
0.0
 11
660.574551
 21
567.292038
 31
0.0
  0
SPLINE
  5
F2
330
A8
100
AcDbEntity
  8
0
  6
Continuous
 62
     0
370
    30
100
AcDbSpline
210
0.0
220
0.0
230
1.0
 70
     8
 71
     3
 72
    18
 73
    14
 74
     0
 42
0.000000001
 43
0.0
 40
0.0
 40
0.0
 40
0.0
 40
0.0
 40
0.1343134845650386
 40
0.2875733347174131
 40
0.3697619796670279
 40
0.4749576905396517
 40
0.6340973745683122
 40
0.9265696309786902
 40
1.263185121166877
 40
1.599099638783804
 40
2.104951548089017
 40
2.610431034850159
 40
4.0962045944256
 40
4.0962045944256
 40
4.0962045944256
 40
4.0962045944256
 10
657.908674611857
 20
526.5420506750186
 30
0.0
 10
657.8704680152044
 20
526.5420507252611
 30
0.0
 10
657.7869066998969
 20
526.5585849009024
 30
0.0
 10
657.7064867729009
 20
526.6151990180374
 30
0.0
 10
657.6621500767402
 20
526.6672907812258
 30
0.0
 10
657.6358044658657
 20
526.7111369895745
 30
0.0
 10
657.617705322632
 20
526.7562806922585
 30
0.0
 10
657.6085834868364
 20
526.7924539373182
 30
0.0
 10
657.6027141958627
 20
526.8241602786088
 30
0.0
 10
657.5977333324741
 20
526.8602326292516
 30
0.0
 10
657.5930741226329
 20
526.9045138904562
 30
0.0
 10
657.5851538054723
 20
527.0012173608894
 30
0.0
 10
657.5792518849742
 20
527.1057613566395
 30
0.0
 10
657.5748546011007
 20
527.2009230230788
 30
0.0
  0
SPLINE
  5
F3
330
A8
100
AcDbEntity
  8
0
  6
Continuous
 62
     0
370
    30
100
AcDbSpline
210
0.0
220
0.0
230
1.0
 70
     8
 71
     3
 72
    18
 73
    14
 74
     0
 42
0.000000001
 43
0.0
 40
0.0
 40
0.0
 40
0.0
 40
0.0
 40
1.37584057372488
 40
2.126558651163417
 40
2.712524416508499
 40
2.922995608680985
 40
3.133813409238264
 40
3.476857858125567
 40
3.611307554436283
 40
3.745930520015561
 40
3.895981261688233
 40
4.002809575432375
 40
4.096221703681753
 40
4.096221703681753
 40
4.096221703681753
 40
4.096221703681753
 10
657.5748551364792
 20
567.8831569648769
 30
0.0
 10
657.5789271577869
 20
567.9712784171796
 30
0.0
 10
657.5852461993946
 20
568.0848337842247
 30
0.0
 10
657.5938037919955
 20
568.1890762075511
 30
0.0
 10
657.5993789487395
 20
568.2371719124208
 30
0.0
 10
657.6042775472492
 20
568.2686449248283
 30
0.0
 10
657.6095765922704
 20
568.2950424622977
 30
0.0
 10
657.6162947404172
 20
568.325088226353
 30
0.0
 10
657.6372864103755
 20
568.3753758406295
 30
0.0
 10
657.668832559929
 20
568.4292617132066
 30
0.0
 10
657.7350695545597
 20
568.4941609534052
 30
0.0
 10
657.8240374849424
 20
568.5341286923681
 30
0.0
 10
657.8820421339475
 20
568.5420248857976
 30
0.0
 10
657.9086746097917
 20
568.5420249170944
 30
0.0
  0
SPLINE
  5
F4
330
A8
100
AcDbEntity
  8
0
  6
Continuous
 62
     0
370
    30
100
AcDbSpline
210
0.0
220
0.0
230
1.0
 70
     8
 71
     3
 72
    17
 73
    13
 74
     0
 42
0.000000001
 43
0.0
 40
0.0
 40
0.0
 40
0.0
 40
0.0
 40
0.1701113728857493
 40
0.3299949377464723
 40
0.4236265496704287
 40
0.5554767732602286
 40
0.7806433187709485
 40
0.9260205975879623
 40
1.258684527702314
 40
1.590655865450954
 40
2.590105418182591
 40
4.096204581636374
 40
4.096204581636374
 40
4.096204581636374
 40
4.096204581636374
 10
659.7404266486802
 20
568.5420249179294
 30
0.0
 10
659.7886835916458
 20
568.5420248611928
 30
0.0
 10
659.8845859393693
 20
568.5171559150576
 30
0.0
 10
659.9643249824667
 20
568.4472594193219
 30
0.0
 10
660.0026576904012
 20
568.3926689513945
 30
0.0
 10
660.024753195321
 20
568.3469525156061
 30
0.0
 10
660.0337449116582
 20
568.3175560938882
 30
0.0
 10
660.0415629080744
 20
568.2868034206488
 30
0.0
 10
660.046250160601
 20
568.2603999963426
 30
0.0
 10
660.0534297866931
 20
568.2093807460311
 30
0.0
 10
660.0622229740633
 20
568.111258825563
 30
0.0
 10
660.0697892654013
 20
567.9796153816195
 30
0.0
 10
660.0742466802126
 20
567.8831522548278
 30
0.0
  0
SPLINE
  5
F5
330
A8
100
AcDbEntity
  8
0
  6
Continuous
 62
     0
370
    30
100
AcDbSpline
210
0.0
220
0.0
230
1.0
 70
     8
 71
     3
 72
    16
 73
    12
 74
     0
 42
0.000000001
 43
0.0
 40
0.0
 40
0.0
 40
0.0
 40
0.0
 40
1.86146397357982
 40
2.5525314778272
 40
3.245419071926436
 40
3.408365397348731
 40
3.624130696584037
 40
3.729449334817926
 40
3.835711498289865
 40
3.961979269201731
 40
4.09613192078799
 40
4.09613192078799
 40
4.09613192078799
 40
4.09613192078799
 10
660.0742461205205
 20
527.2009188888835
 30
0.0
 10
660.0687374143877
 20
527.081706588546
 30
0.0
 10
660.061783219271
 20
526.9565821874671
 30
0.0
 10
660.049688991829
 20
526.8478023657503
 30
0.0
 10
660.0447657036256
 20
526.8060516393068
 30
0.0
 10
660.0295962723023
 20
526.7529127589981
 30
0.0
 10
660.0170790497467
 20
526.7173402975138
 30
0.0
 10
659.9842991879517
 20
526.663000430902
 30
0.0
 10
659.9368496914706
 20
526.6098138203286
 30
0.0
 10
659.8541660878983
 20
526.5570091011931
 30
0.0
 10
659.778587923242
 20
526.5420503248351
 30
0.0
 10
659.7404266524144
 20
526.5420502530892
 30
0.0
  0
SPLINE
  5
F6
330
A8
100
AcDbEntity
  8
0
  6
Continuous
 62
     0
370
    30
100
AcDbSpline
210
0.0
220
0.0
230
1.0
 70
     8
 71
     3
 72
    15
 73
    11
 74
     0
 42
0.000000001
 43
0.0
 40
0.0
 40
0.0
 40
0.0
 40
0.0
 40
0.0985601064684263
 40
0.2039045941136378
 40
0.2825255945132485
 40
0.3621853646502968
 40
0.4636752048117503
 40
0.6133489208897205
 40
0.8923636924737106
 40
1.152095166226548
 40
1.152095166226548
 40
1.152095166226548
 40
1.152095166226548
 10
660.3415520148213
 20
527.7920272103138
 30
0.0
 10
660.3133016642528
 20
527.7920272314682
 30
0.0
 10
660.2538208803642
 20
527.7833252168948
 30
0.0
 10
660.1828733116981
 20
527.7497528476806
 30
0.0
 10
660.1325358106594
 20
527.7087703346795
 30
0.0
 10
660.0988507568702
 20
527.6691483685009
 30
0.0
 10
660.0745718161929
 20
527.6283932554418
 30
0.0
 10
660.0595001928615
 20
527.5903040140407
 30
0.0
 10
660.0551715472194
 20
527.5712831894131
 30
0.0
 10
660.0545588339694
 20
527.5679414388723
 30
0.0
 10
660.0545636557325
 20
527.5679988259532
 30
0.0
  0
SPLINE
  5
F7
330
A8
100
AcDbEntity
  8
0
  6
Continuous
 62
     0
370
    30
100
AcDbSpline
210
0.0
220
0.0
230
1.0
 70
     8
 71
     3
 72
    12
 73
     8
 74
     0
 42
0.000000001
 43
0.0
 40
3.453232554228298
 40
3.453232554228298
 40
3.453232554228298
 40
3.453232554228298
 40
3.482066766103738
 40
3.611353389071359
 40
3.75702269280741
 40
3.861784745653732
 40
3.953597375279272
 40
3.953597375279272
 40
3.953597375279272
 40
3.953597375279272
 10
660.0745506440816
 20
567.4580858483771
 30
0.0
 10
660.0758106223038
 20
567.4555198819392
 30
0.0
 10
660.0833638957423
 20
567.4406207663094
 30
0.0
 10
660.1055589752143
 20
567.4024368558385
 30
0.0
 10
660.1704231455748
 20
567.3390054433224
 30
0.0
 10
660.2579500075752
 20
567.2998052726396
 30
0.0
 10
660.315197362007
 20
567.2920255527479
 30
0.0
 10
660.3415206047503
 20
567.2920255223204
 30
0.0
  0
LINE
  5
F8
330
A8
100
AcDbEntity
  8
0
  6
Continuous
 62
     0
370
    30
100
AcDbLine
 10
659.740445
 20
568.542038
 30
0.0
 11
657.908656
 21
568.542038
 31
0.0
  0
LINE
  5
F9
330
A8
100
AcDbEntity
  8
0
  6
Continuous
 62
     0
370
    30
100
AcDbLine
 10
659.740443
 20
526.542038
 30
0.0
 11
657.908658
 21
526.542038
 31
0.0
  0
SPLINE
  5
FA
330
A8
100
AcDbEntity
  8
0
  6
Continuous
 62
     0
370
    30
100
AcDbSpline
210
0.0
220
0.0
230
1.0
 70
     8
 71
     3
 72
    21
 73
    17
 74
     0
 42
0.000000001
 43
0.0
 40
16.09258609041324
 40
16.09258609041324
 40
16.09258609041324
 40
16.09258609041324
 40
16.68296553050425
 40
17.82582011803247
 40
18.89077636179021
 40
21.01089954021437
 40
22.04058364918787
 40
23.06369113039104
 40
24.17786325261785
 40
25.21667631261344
 40
26.37053811615329
 40
27.33861115892126
 40
28.78277416065152
 40
29.5354389420275
 40
31.14328486763593
 40
32.18517218082648
 40
32.18517218082648
 40
32.18517218082648
 40
32.18517218082648
 10
685.8244990494094
 20
648.039339014608
 30
0.0
 10
685.824502369018
 20
648.0393425826206
 30
0.0
 10
685.8578887225731
 20
648.048044270628
 30
0.0
 10
686.0697350566297
 20
648.1030629199912
 30
0.0
 10
686.6889209274515
 20
648.2525568167877
 30
0.0
 10
687.6607754976033
 20
648.4524548313625
 30
0.0
 10
688.8720486178377
 20
648.6141992098054
 30
0.0
 10
689.8790394868927
 20
648.6987802707778
 30
0.0
 10
690.9386233408386
 20
648.7284866954805
 30
0.0
 10
692.0399518114251
 20
648.6953087745552
 30
0.0
 10
693.0417104236055
 20
648.607363375859
 30
0.0
 10
694.0639987212238
 20
648.4663548176616
 30
0.0
 10
694.8247775265988
 20
648.321890112719
 30
0.0
 10
695.5287673494088
 20
648.1660968599169
 30
0.0
 10
695.933984535437
 20
648.0631357969413
 30
0.0
 10
696.0244758758199
 20
648.0393186171585
 30
0.0
 10
696.0244758606667
 20
648.0393186171585
 30
0.0
  0
LINE
  5
FB
330
A8
100
AcDbEntity
  8
0
  6
Continuous
 62
     0
370
    30
100
AcDbLine
 10
660.724476
 20
687.039319
 30
0.0
 11
660.724476
 21
648.039319
 31
0.0
  0
LINE
  5
FC
330
A8
100
AcDbEntity
  8
0
  6
Continuous
 62
     0
370
    30
100
AcDbLine
 10
683.156635
 20
687.039319
 30
0.0
 11
660.724476
 21
687.039319
 31
0.0
  0
SPLINE
  5
FD
330
A8
100
AcDbEntity
  8
0
  6
Continuous
 62
     0
370
     0
100
AcDbSpline
210
0.0
220
0.0
230
1.0
 70
     8
 71
     3
 72
    21
 73
    17
 74
     0
 42
0.000000001
 43
0.0
 40
51.97474983210939
 40
51.97474983210939
 40
51.97474983210939
 40
51.97474983210939
 40
55.58895464716998
 40
58.06179089973438
 40
59.51229951582349
 40
63.42462365129829
 40
67.94401930168148
 40
72.59145885887423
 40
77.7726456094925
 40
81.58371190119517
 40
85.42289108616475
 40
89.08437392493263
 40
92.93239382419043
 40
96.95533324944493
 40
100.6386851945144
 40
103.9494996642188
 40
103.9494996642188
 40
103.9494996642188
 40
103.9494996642188
 10
701.2751901660731
 20
648.0393194012936
 30
0.0
 10
701.2751799847317
 20
648.0393401956933
 30
0.0
 10
701.2175871244403
 20
648.2292752260644
 30
0.0
 10
701.0342778629167
 20
648.8506339307437
 30
0.0
 10
700.7800803139934
 20
649.7438394706137
 30
0.0
 10
700.3482057248001
 20
651.282033982511
 30
0.0
 10
699.6590095481065
 20
654.0788284802175
 30
0.0
 10
698.926934243409
 20
657.905345730209
 30
0.0
 10
698.414918202988
 20
662.1335141660434
 30
0.0
 10
698.2052098089848
 20
666.3869382096373
 30
0.0
 10
698.252513351903
 20
670.1857164589574
 30
0.0
 10
698.5210070834285
 20
673.8844943233476
 30
0.0
 10
698.9781449893705
 20
677.385915324963
 30
0.0
 10
699.5585633548712
 20
680.4932610063966
 30
0.0
 10
700.1403837614141
 20
682.979797210712
 30
0.0
 10
700.4767592934983
 20
684.2376585970369
 30
0.0
 10
700.6186431519242
 20
684.7526749595118
 30
0.0
  0
SPLINE
  5
FE
330
A8
100
AcDbEntity
  8
0
  6
Continuous
 62
     0
370
     0
100
AcDbSpline
210
0.0
220
0.0
230
1.0
 70
     8
 71
     3
 72
    17
 73
    13
 74
     0
 42
0.000000001
 43
0.0
 40
0.0
 40
0.0
 40
0.0
 40
0.0
 40
1.067693523343622
 40
1.798593597800864
 40
2.620475066972124
 40
4.152043643643437
 40
5.63710078793205
 40
8.018694264867879
 40
10.06459629685089
 40
10.79122461295514
 40
11.25944837701471
 40
11.45467460271952
 40
11.45467460271952
 40
11.45467460271952
 40
11.45467460271952
 10
689.6863052403233
 20
685.5997825438529
 30
0.0
 10
689.9916993582374
 20
685.5542299540989
 30
0.0
 10
690.5181548646844
 20
685.4807668484766
 30
0.0
 10
691.3076503591235
 20
685.3822585361468
 30
0.0
 10
692.2474816892964
 20
685.2696569205674
 30
0.0
 10
693.4409144868772
 20
685.1400883143288
 30
0.0
 10
695.159161228079
 20
684.9840261107008
 30
0.0
 10
697.0883476424992
 20
684.859167065217
 30
0.0
 10
698.7929354457372
 20
684.7904174237196
 30
0.0
 10
699.8700324922698
 20
684.7644865728257
 30
0.0
 10
700.3326600739506
 20
684.7562219466886
 30
0.0
 10
700.5536150139098
 20
684.7534218166753
 30
0.0
 10
700.6186431519388
 20
684.7526752820817
 30
0.0
  0
SPLINE
  5
FF
330
A8
100
AcDbEntity
  8
0
  6
Continuous
 62
     0
370
     0
100
AcDbSpline
210
0.0
220
0.0
230
1.0
 70
     8
 71
     3
 72
    11
 73
     7
 74
     0
 42
0.000000001
 43
0.0
 40
0.0
 40
0.0
 40
0.0
 40
0.0
 40
2.578604891925422
 40
5.034653086088559
 40
7.76576722573639
 40
10.58924660279556
 40
10.58924660279556
 40
10.58924660279556
 40
10.58924660279556
 10
683.1566349266762
 20
687.0393186171118
 30
0.0
 10
683.1566344631246
 20
687.0393170033808
 30
0.0
 10
683.4267269935307
 20
686.9555891775859
 30
0.0
 10
684.6709917251061
 20
686.6082028742194
 30
0.0
 10
686.7376648762925
 20
686.1088781736171
 30
0.0
 10
688.6375493834906
 20
685.7562149781929
 30
0.0
 10
689.6863052403233
 20
685.5997825438529
 30
0.0
  0
SPLINE
  5
100
330
A8
100
AcDbEntity
  8
0
  6
Continuous
 62
     0
370
     0
100
AcDbSpline
210
0.0
220
0.0
230
1.0
 70
     8
 71
     3
 72
    12
 73
     8
 74
     0
 42
0.000000001
 43
0.0
 40
0.0000002552593025
 40
0.0000002552593025
 40
0.0000002552593025
 40
0.0000002552593025
 40
0.111111658793603
 40
0.3333349763808091
 40
0.666668309714139
 40
0.8888894365713801
 40
1.0
 40
1.0
 40
1.0
 40
1.0
 10
702.1000689337853
 20
683.4285797551277
 30
0.0
 10
702.0940593561377
 20
683.5014333710683
 30
0.0
 10
702.0559592043563
 20
683.7199942197313
 30
0.0
 10
701.8567294490663
 20
684.1481866721076
 30
0.0
 10
701.423749035903
 20
684.5351827999976
 30
0.0
 10
700.9446819831792
 20
684.7132501940467
 30
0.0
 10
700.7001550948671
 20
684.7473016763718
 30
0.0
 10
700.6186460805079
 20
684.7526722154334
 30
0.0
  0
SPLINE
  5
101
330
A8
100
AcDbEntity
  8
0
  6
Continuous
 62
     0
370
     0
100
AcDbSpline
210
0.0
220
0.0
230
1.0
 70
     8
 71
     3
 72
    13
 73
     9
 74
     0
 42
0.000000001
 43
0.0
 40
0.0000123588535272
 40
0.0000123588535272
 40
0.0000123588535272
 40
0.0000123588535272
 40
2.992803358709377
 40
6.013014739974031
 40
8.43015363108694
 40
9.63994460077731
 40
10.44744378805638
 40
12.19204675732173
 40
12.19204675732173
 40
12.19204675732173
 40
12.19204675732173
 10
702.7225746661276
 20
693.3155769007375
 30
0.0
 10
702.721579125685
 20
692.3182334337716
 30
0.0
 10
702.7088681596317
 20
690.3202965265588
 30
0.0
 10
702.6437169933588
 20
687.7256825428342
 30
0.0
 10
702.5285929479637
 20
685.9541669234665
 30
0.0
 10
702.4112569842428
 20
684.9339144656194
 30
0.0
 10
702.2884249944044
 20
684.1525966435471
 30
0.0
 10
702.1831695316598
 20
683.6991835734306
 30
0.0
 10
702.1000689752032
 20
683.4285792530217
 30
0.0
  0
ELLIPSE
  5
102
330
A8
100
AcDbEntity
  8
0
  6
Continuous
 62
     0
370
     0
100
AcDbEllipse
 10
701.223968
 20
693.315577
 30
0.0
 11
1.499999291464616
 21
-0.001457945695645045
 31
0.0
210
0.0
220
0.0
230
1.0
 40
0.022527
 41
0.0431168638737081
 42
1.593380735319817
  0
SPLINE
  5
103
330
A8
100
AcDbEntity
  8
0
  6
Continuous
 62
     0
370
     0
100
AcDbSpline
210
0.0
220
0.0
230
1.0
 70
     8
 71
     3
 72
    11
 73
     7
 74
     0
 42
0.000000001
 43
0.0
 40
0.0
 40
0.0
 40
0.0
 40
0.0
 40
3.128288052126564
 40
5.229773639684233
 40
7.858009375319223
 40
10.60393484403133
 40
10.60393484403133
 40
10.60393484403133
 40
10.60393484403133
 10
701.1901478417226
 20
693.3493921239976
 30
0.0
 10
701.1915393105656
 20
692.3070795411993
 30
0.0
 10
701.1822228121442
 20
690.5710271189272
 30
0.0
 10
701.1126095078773
 20
688.1892250714855
 30
0.0
 10
700.9668150417865
 20
686.2318462544765
 30
0.0
 10
700.7596226720395
 20
685.1782674150927
 30
0.0
 10
700.6186468035107
 20
684.7526743981098
 30
0.0
  0
LINE
  5
104
330
A8
100
AcDbEntity
  8
0
  6
Continuous
 62
     0
370
     0
100
AcDbLine
 10
701.205192
 20
702.726736
 30
0.0
 11
701.190127
 21
693.349393
 31
0.0
  0
LINE
  5
105
330
A8
100
AcDbEntity
  8
0
  6
Continuous
 62
     0
370
     0
100
AcDbLine
 10
702.731335
 20
702.694508
 30
0.0
 11
702.722575
 21
693.315577
 31
0.0
  0
ELLIPSE
  5
106
330
A8
100
AcDbEntity
  8
0
  6
Continuous
 62
     0
370
     0
100
AcDbEllipse
 10
701.232496
 20
702.694509
 30
0.0
 11
1.499999463555632
 21
-0.001268594819279126
 31
0.0
210
0.0
220
0.0
230
1.0
 40
0.021473
 41
0.0393630765375494
 42
1.589018574608817
  0
SPLINE
  5
107
330
A8
100
AcDbEntity
  8
0
  6
Continuous
 62
     0
370
     0
100
AcDbSpline
210
0.0
220
0.0
230
1.0
 70
     8
 71
     3
 72
    30
 73
    26
 74
     0
 42
0.000000001
 43
0.0
 40
0.0
 40
0.0
 40
0.0
 40
0.0
 40
0.833173827866103
 40
1.42713910123683
 40
1.644081864451156
 40
1.864405188867038
 40
1.978236205656798
 40
2.095405359914696
 40
2.210762702599838
 40
2.370724444407108
 40
2.465149140873634
 40
2.549380551520835
 40
2.635074394646276
 40
2.824477874359148
 40
3.105081980859271
 40
3.402453172979178
 40
3.737825573087401
 40
4.075208738590731
 40
4.637571367059405
 40
5.049138753933359
 40
5.649022280442507
 40
6.036769206398661
 40
6.810554705583646
 40
7.58104948574852
 40
8.824791257976925
 40
8.824791257976925
 40
8.824791257976925
 40
8.824791257976925
 10
701.220514714918
 20
709.4910976994756
 30
0.0
 10
701.2205165765586
 20
709.491097736091
 30
0.0
 10
701.2030611689379
 20
709.4245780788235
 30
0.0
 10
701.1524811587028
 20
709.1750736491053
 30
0.0
 10
701.1171670823973
 20
708.9629503294661
 30
0.0
 10
701.0981453860995
 20
708.8352452818302
 30
0.0
 10
701.0833528128983
 20
708.7259918524501
 30
0.0
 10
701.0725656571267
 20
708.6416693047044
 30
0.0
 10
701.0604060884864
 20
708.5407384469274
 30
0.0
 10
701.0482124300124
 20
708.4310565261576
 30
0.0
 10
701.0361245685182
 20
708.2926487106298
 30
0.0
 10
701.0279965605384
 20
708.16038006482
 30
0.0
 10
701.0210978803804
 20
707.978459721996
 30
0.0
 10
701.0190705738976
 20
707.7082953451757
 30
0.0
 10
701.0271721587433
 20
707.3775009237971
 30
0.0
 10
701.0422861255754
 20
707.0303522791937
 30
0.0
 10
701.0606356231403
 20
706.6967690748364
 30
0.0
 10
701.0850436649707
 20
706.3016558840168
 30
0.0
 10
701.1087665359328
 20
705.9251001513206
 30
0.0
 10
701.1315926273785
 20
705.5136026248994
 30
0.0
 10
701.148370529593
 20
705.1635921103646
 30
0.0
 10
701.1670321970025
 20
704.7223875931036
 30
0.0
 10
701.1840328268606
 20
704.2388979867661
 30
0.0
 10
701.2011519221656
 20
703.5414003500637
 30
0.0
 10
701.205710600261
 20
703.0376300356718
 30
0.0
 10
701.205191655577
 20
702.7267359331721
 30
0.0
  0
SPLINE
  5
108
330
A8
100
AcDbEntity
  8
0
  6
Continuous
 62
     0
370
     0
100
AcDbSpline
210
0.0
220
0.0
230
1.0
 70
     8
 71
     3
 72
    18
 73
    14
 74
     0
 42
0.000000001
 43
0.0
 40
0.0
 40
0.0
 40
0.0
 40
0.0
 40
0.7027370259286991
 40
1.293683266474542
 40
1.630891291109695
 40
1.880691461960285
 40
2.083632206119296
 40
2.396523650565952
 40
2.757413614616584
 40
3.276994358666676
 40
3.724776255592948
 40
4.73901773150989
 40
6.510094996432836
 40
6.510094996432836
 40
6.510094996432836
 40
6.510094996432836
 10
702.7751935217514
 20
707.9920945531203
 30
0.0
 10
702.7751953271268
 20
707.9920945946492
 30
0.0
 10
702.7722751357303
 20
707.9330955124595
 30
0.0
 10
702.7630712615646
 20
707.6978108712398
 30
0.0
 10
702.7551148038966
 20
707.4573887389204
 30
0.0
 10
702.7494986364843
 20
707.2721313243278
 30
0.0
 10
702.7451923475819
 20
707.0525555560066
 30
0.0
 10
702.7416604596716
 20
706.77774114867
 30
0.0
 10
702.7385108067195
 20
706.3888792818101
 30
0.0
 10
702.7366380665144
 20
705.9484690427577
 30
0.0
 10
702.7350411981201
 20
705.2892658891113
 30
0.0
 10
702.7330436202167
 20
704.2127254943742
 30
0.0
 10
702.7318476125288
 20
703.2847312504958
 30
0.0
 10
702.7313348659295
 20
702.6945084941658
 30
0.0
  0
ARC
  5
109
330
A8
100
AcDbEntity
  8
0
  6
Continuous
 62
     0
370
    30
100
AcDbCircle
 10
701.275194
 20
707.992095
 30
0.0
 40
1.500000000000003
100
AcDbArc
 50
359.999997
 51
1.924266
  0
SPLINE
  5
10A
330
A8
100
AcDbEntity
  8
0
  6
Continuous
 62
     0
370
     0
100
AcDbSpline
210
0.0
220
0.0
230
1.0
 70
     8
 71
     3
 72
    24
 73
    20
 74
     0
 42
0.000000001
 43
0.0
 40
48.11604154271799
 40
48.11604154271799
 40
48.11604154271799
 40
48.11604154271799
 40
49.99269947025343
 40
51.46192063953115
 40
53.42034377808636
 40
54.58720818292066
 40
55.09398862054752
 40
56.47437906945545
 40
58.71585406942724
 40
62.89972084250932
 40
67.20212528935113
 40
71.99865048165356
 40
75.52677566947948
 40
79.08092659373875
 40
82.47057370021248
 40
86.03290898663475
 40
89.75717742726508
 40
93.16707003430801
 40
96.23208308543599
 40
96.23208308543599
 40
96.23208308543599
 40
96.23208308543599
 10
702.7751904951356
 20
649.5393189250227
 30
0.0
 10
702.7751905576131
 20
649.5393211854388
 30
0.0
 10
702.7556239485035
 20
649.5975385742444
 30
0.0
 10
702.6706122400811
 20
649.8530625186113
 30
0.0
 10
702.5511822074485
 20
650.2168467841768
 30
0.0
 10
702.427808576403
 20
650.6035342374271
 30
0.0
 10
702.3112693490514
 20
650.9720315653647
 30
0.0
 10
702.1339461303329
 20
651.5352980180919
 30
0.0
 10
701.7409738614609
 20
652.8269619959171
 30
0.0
 10
701.1141509629247
 20
655.1142354042885
 30
0.0
 10
700.3642104670647
 20
658.6464254827097
 30
0.0
 10
699.8406139726428
 20
662.5493444448565
 30
0.0
 10
699.6263054972127
 20
666.4755832022084
 30
0.0
 10
699.6746391756917
 20
669.982147459501
 30
0.0
 10
699.9490755717454
 20
673.396404020313
 30
0.0
 10
700.4167034021102
 20
676.6284849359187
 30
0.0
 10
701.0112295499139
 20
679.4968039922182
 30
0.0
 10
701.6082480601187
 20
681.7920683173543
 30
0.0
 10
701.9540692487506
 20
682.9531708293418
 30
0.0
 10
702.1000661861356
 20
683.4285705487757
 30
0.0
  0
SPLINE
  5
10B
330
A8
100
AcDbEntity
  8
0
  6
Continuous
 62
     0
370
    30
100
AcDbSpline
210
0.0
220
0.0
230
1.0
 70
     8
 71
     3
 72
    16
 73
    12
 74
     0
 42
0.000000001
 43
0.0
 40
0.0
 40
0.0
 40
0.0
 40
0.0
 40
0.047571747463253
 40
0.142715242389758
 40
0.285500142816446
 40
0.428364121306231
 40
0.5712386589033891
 40
0.7141386353145182
 40
0.857021354959439
 40
0.9523404516531471
 40
1.0
 40
1.0
 40
1.0
 40
1.0
 10
694.9888321128103
 20
707.4343049901283
 30
0.0
 10
695.0625172733452
 20
707.5113232893816
 30
0.0
 10
695.2915589924796
 20
707.7347375718562
 30
0.0
 10
695.7941742686587
 20
708.1358836882072
 30
0.0
 10
696.5349638019595
 20
708.5657966689677
 30
0.0
 10
697.4298238939587
 20
708.9215206364042
 30
0.0
 10
698.3581923310003
 20
709.1735129758171
 30
0.0
 10
699.3049244727534
 20
709.3410529050497
 30
0.0
 10
700.1543451744092
 20
709.4328134393755
 30
0.0
 10
700.7937255782732
 20
709.4735565829324
 30
0.0
 10
701.1137994604551
 20
709.4872050705177
 30
0.0
 10
701.2205147149059
 20
709.4910976994751
 30
0.0
  0
LINE
  5
10C
330
A8
100
AcDbEntity
  8
0
  6
Continuous
 62
     0
370
     0
100
AcDbLine
 10
701.074953
 20
702.726735
 30
0.0
 11
701.205192
 21
702.726736
 31
0.0
  0
LINE
  5
10D
330
A8
100
AcDbEntity
  8
0
  6
Continuous
 62
     0
370
     0
100
AcDbLine
 10
694.803225
 20
702.726726
 30
0.0
 11
694.988832
 21
707.434305
 31
0.0
  0
LINE
  5
10E
330
A8
100
AcDbEntity
  8
0
  6
Continuous
 62
     0
370
     0
100
AcDbLine
 10
701.074953
 20
702.726735
 30
0.0
 11
694.803225
 21
702.726726
 31
0.0
  0
SPLINE
  5
10F
330
A8
100
AcDbEntity
  8
0
  6
Continuous
 62
     0
370
     0
100
AcDbSpline
210
0.0
220
0.0
230
1.0
 70
     8
 71
     3
 72
    37
 73
    33
 74
     0
 42
0.000000001
 43
0.0
 40
0.0
 40
0.0
 40
0.0
 40
0.0
 40
0.34683732744123
 40
0.460838424918714
 40
0.6867205404174311
 40
0.805836463582031
 40
1.000491094374343
 40
1.156821822431933
 40
1.229111397935566
 40
1.374073811346492
 40
1.526524116929811
 40
1.685440638907337
 40
2.008807295086724
 40
2.17246128867793
 40
2.337382819334108
 40
3.007089927858771
 40
3.176280919184187
 40
3.625677982342092
 40
3.954008800926969
 40
4.580254423418745
 40
5.157474442448222
 40
5.719332768876882
 40
5.907571661727383
 40
6.096252574487083
 40
6.473360432507119
 40
6.6600614527565
 40
6.940714199302541
 40
7.087158077204935
 40
7.241866982625917
 40
7.397210001473519
 40
7.539792604003336
 40
7.589961048668743
 40
7.589961048668743
 40
7.589961048668743
 40
7.589961048668743
 10
694.4819239409849
 20
694.5727070484845
 30
0.0
 10
694.5241437797049
 20
694.540916523482
 30
0.0
 10
694.5821138081525
 20
694.4995501273185
 30
0.0
 10
694.6790985451358
 20
694.4394242319597
 30
0.0
 10
694.7513256241684
 20
694.3998682443671
 30
0.0
 10
694.8531104517831
 20
694.3536371126445
 30
0.0
 10
694.9609214617194
 20
694.3132205627853
 30
0.0
 10
695.0855851494614
 20
694.2761943977437
 30
0.0
 10
695.2040068788194
 20
694.2435392732339
 30
0.0
 10
695.3216437147858
 20
694.2116084511108
 30
0.0
 10
695.4581119032628
 20
694.1732711798878
 30
0.0
 10
695.6406658788139
 20
694.1212787406477
 30
0.0
 10
695.8257956684288
 20
694.0700713890973
 30
0.0
 10
696.0115201718986
 20
694.020219881541
 30
0.0
 10
696.2949811923348
 20
693.9458107076792
 30
0.0
 10
696.5781884969055
 20
693.8760013683359
 30
0.0
 10
696.9423044750088
 20
693.7933710969738
 30
0.0
 10
697.2106977898943
 20
693.7364760867059
 30
0.0
 10
697.6121522265286
 20
693.6595492688111
 30
0.0
 10
698.0731905914295
 20
693.5852722342688
 30
0.0
 10
698.6673699044435
 20
693.5121098861644
 30
0.0
 10
699.1263650085727
 20
693.466207557597
 30
0.0
 10
699.4479450177922
 20
693.4382995894299
 30
0.0
 10
699.7059954291201
 20
693.4177239250014
 30
0.0
 10
699.9643858612421
 20
693.399939817257
 30
0.0
 10
700.2546799102207
 20
693.3830926836827
 30
0.0
 10
700.4811905134715
 20
693.3723718893921
 30
0.0
 10
700.6817524723051
 20
693.363960460892
 30
0.0
 10
700.8288457876295
 20
693.3584720769288
 30
0.0
 10
700.9733287543586
 20
693.3540788681673
 30
0.0
 10
701.0936668268693
 20
693.3512750703514
 30
0.0
 10
701.1696051879933
 20
693.3497809576482
 30
0.0
 10
701.1901271222125
 20
693.3493925173821
 30
0.0
  0
LINE
  5
110
330
A8
100
AcDbEntity
  8
0
  6
Continuous
 62
     0
370
     0
100
AcDbLine
 10
694.481924
 20
694.572707
 30
0.0
 11
694.803225
 21
702.726726
 31
0.0
  0
ELLIPSE
  5
111
330
A8
100
AcDbEntity
  8
0
  6
Continuous
 62
     0
370
     0
100
AcDbEllipse
 10
689.686305
 20
694.861559
 30
0.0
 11
2.201178132921488
 21
9.754732944942591
 31
0.0
210
0.0
220
0.0
230
1.0
 40
0.475584
 41
3.58461183105875
 42
4.789849798484917
  0
ARC
  5
112
330
A8
100
AcDbEntity
  8
0
  6
Continuous
 62
     0
370
     0
100
AcDbCircle
 10
683.156635
 20
697.039319
 30
0.0
 40
9.999999999999996
100
AcDbArc
 50
270.0
 51
357.274228
  0
SPLINE
  5
113
330
A8
100
AcDbEntity
  8
0
  6
Continuous
 62
     0
370
     0
100
AcDbSpline
210
0.0
220
0.0
230
1.0
 70
     8
 71
     3
 72
    14
 73
    10
 74
     0
 42
0.000000001
 43
0.0
 40
0.0
 40
0.0
 40
0.0
 40
0.0
 40
0.5895158262977761
 40
1.04965145955659
 40
1.696107647469175
 40
2.090726781736508
 40
2.481965535142718
 40
2.9175757042511
 40
3.567376309117678
 40
3.567376309117678
 40
3.567376309117678
 40
3.567376309117678
 10
693.1453207778203
 20
696.5637610841187
 30
0.0
 10
693.1453206419249
 20
696.5637594361558
 30
0.0
 10
693.171786888091
 20
696.51578589019
 30
0.0
 10
693.2694205998241
 20
696.3080270994635
 30
0.0
 10
693.4014964886409
 20
696.0197563582774
 30
0.0
 10
693.5718474636097
 20
695.6840127217856
 30
0.0
 10
693.7507510104876
 20
695.374375118222
 30
0.0
 10
694.0197096256818
 20
694.9904286064667
 30
0.0
 10
694.2858155675756
 20
694.720371945772
 30
0.0
 10
694.4819239409849
 20
694.5727070484845
 30
0.0
  0
LINE
  5
114
330
A8
100
AcDbEntity
  8
0
  6
Continuous
 62
     0
370
     0
100
AcDbLine
 10
694.803225
 20
702.726726
 30
0.0
 11
693.438737
 21
702.72673
 31
0.0
  0
LINE
  5
115
330
A8
100
AcDbEntity
  8
0
  6
Continuous
 62
     0
370
    30
100
AcDbLine
 10
693.145321
 20
696.563761
 30
0.0
 11
693.438737
 21
702.72673
 31
0.0
  0
SPLINE
  5
116
330
A8
100
AcDbEntity
  8
0
  6
Continuous
 62
     0
370
    30
100
AcDbSpline
210
0.0
220
0.0
230
1.0
 70
     8
 71
     3
 72
    12
 73
     8
 74
     0
 42
0.000000001
 43
0.0
 40
0.0
 40
0.0
 40
0.0
 40
0.0
 40
0.048067340464532
 40
0.144202021393597
 40
0.286711675972471
 40
0.4277378088241459
 40
0.5381109800650885
 40
0.5381109800650885
 40
0.5381109800650885
 40
0.5381109800650885
 10
693.438737272532
 20
702.7267295788206
 30
0.0
 10
693.442591747657
 20
702.8076896841734
 30
0.0
 10
693.4541552921986
 20
703.0505719133052
 30
0.0
 10
693.4944426605451
 20
703.53258783667
 30
0.0
 10
693.5716269710889
 20
704.168389929024
 30
0.0
 10
693.696758889013
 20
704.8213830201428
 30
0.0
 10
693.8067245373725
 20
705.2311912793356
 30
0.0
 10
693.8618545697307
 20
705.4090242158609
 30
0.0
  0
SPLINE
  5
117
330
A8
100
AcDbEntity
  8
0
  6
Continuous
 62
     0
370
    30
100
AcDbSpline
210
0.0
220
0.0
230
1.0
 70
     8
 71
     3
 72
    14
 73
    10
 74
     0
 42
0.000000001
 43
0.0
 40
0.0
 40
0.0
 40
0.0
 40
0.0
 40
0.6036068196082269
 40
1.10240292011939
 40
1.567951805763743
 40
1.8768598810468
 40
2.030952754056502
 40
2.18484855941705
 40
2.338585572644997
 40
2.338585572644997
 40
2.338585572644997
 40
2.338585572644997
 10
694.9888283799623
 20
707.4343057236265
 30
0.0
 10
694.8498914637246
 20
707.2890278634175
 30
0.0
 10
694.6163851688796
 20
707.0036633943839
 30
0.0
 10
694.3388987464078
 20
706.5599427949138
 30
0.0
 10
694.1494569109623
 20
706.1796521292391
 30
0.0
 10
694.0307930734901
 20
705.8936926794657
 30
0.0
 10
693.958632346927
 20
705.7010936265973
 30
0.0
 10
693.9091130824876
 20
705.5553995245652
 30
0.0
 10
693.8754947907705
 20
705.4584220493082
 30
0.0
 10
693.8618291010475
 20
705.409032111428
 30
0.0
  0
LINE
  5
118
330
A8
100
AcDbEntity
  8
0
  6
Continuous
 62
     0
370
    30
100
AcDbLine
 10
693.438748
 20
702.726729
 30
0.0
 11
693.4407
 21
702.765584
 31
0.0
  0
LINE
  5
119
330
A8
100
AcDbEntity
  8
0
  6
Continuous
 62
     0
370
    30
100
AcDbLine
 10
702.775182
 20
707.992095
 30
0.0
 11
702.775179
 21
649.539388
 31
0.0
  0
ARC
  5
11A
330
A8
100
AcDbEntity
  8
0
  6
Continuous
 62
     0
370
    30
100
AcDbCircle
 10
701.275175
 20
649.539335
 30
0.0
 40
1.500015853188819
100
AcDbArc
 50
270.001938
 51
359.99706
  0
ARC
  5
11B
330
A8
100
AcDbEntity
  8
0
  6
Continuous
 62
     0
370
    30
100
AcDbCircle
 10
701.275152
 20
707.992072
 30
0.0
 40
1.500023377743581
100
AcDbArc
 50
1.92507
 51
92.087539
  0
LINE
  5
11C
330
A8
100
AcDbEntity
  8
0
  6
Continuous
 62
     0
370
    30
100
AcDbLine
 10
660.724473
 20
648.039319
 30
0.0
 11
685.824499
 21
648.039319
 31
0.0
  0
LINE
  5
11D
330
A8
100
AcDbEntity
  8
0
  6
Continuous
 62
     0
370
    30
100
AcDbLine
 10
701.275177
 20
648.039319
 30
0.0
 11
696.024476
 21
648.039319
 31
0.0
  0
LINE
  5
11E
330
A8
100
AcDbEntity
  8
0
  6
Continuous
 62
     0
370
    30
100
AcDbLine
 10
693.314499
 20
648.566914
 30
0.0
 11
688.534581
 21
648.566914
 31
0.0
  0
ARC
  5
11F
330
A8
100
AcDbEntity
  8
0
  6
Continuous
 62
     0
370
    30
100
AcDbCircle
 10
690.928522
 20
662.603379
 30
0.0
 40
14.78794859914246
100
AcDbArc
 50
254.877288
 51
269.799931
  0
ARC
  5
120
330
A8
100
AcDbEntity
  8
0
  6
Continuous
 62
     0
370
    30
100
AcDbCircle
 10
690.920025
 20
662.606215
 30
0.0
 40
14.79078484465249
100
AcDbArc
 50
270.017242
 51
285.121184
  0
ENDBLK
  5
122
330
A8
100
AcDbEntity
  8
0
100
AcDbBlockEnd
  0
ENDSEC
  0
SECTION
  2
ENTITIES
  0
INSERT
  5
A7
330
1F
100
AcDbEntity
  8
0
  6
Continuous
 62
     7
370
     0
100
AcDbBlockReference
  2
a
 10
447.068054
 20
156.08725
 30
0.0
  0
INSERT
  5
123
330
1F
100
AcDbEntity
  8
0
  6
Continuous
 62
     7
370
     0
100
AcDbBlockReference
  2
c
 10
447.068054
 20
156.08725
 30
0.0
  0
ENDSEC
  0
SECTION
  2
OBJECTS
  0
DICTIONARY
  5
C
330
0
100
AcDbDictionary
281
     1
  3
ACAD_GROUP
350
D
  3
ACAD_LAYOUT
350
1A
  3
ACAD_MATERIAL
350
43
  3
ACAD_MLEADERSTYLE
350
6B
  3
ACAD_MLINESTYLE
350
17
  3
ACAD_PLOTSETTINGS
350
19
  3
ACAD_PLOTSTYLENAME
350
E
  3
ACAD_SCALELIST
350
47
  3
ACAD_TABLESTYLE
350
69
  3
ACAD_VISUALSTYLE
350
2A
  3
AcDbVariableDictionary
350
124
  0
DICTIONARY
  5
12F
330
8
100
AcDbDictionary
280
     1
281
     1
  3
ACAD_XREC_ROUNDTRIP
360
130
  0
DICTIONARY
  5
D
102
{ACAD_REACTORS
330
C
102
}
330
C
100
AcDbDictionary
281
     1
  0
DICTIONARY
  5
1A
102
{ACAD_REACTORS
330
C
102
}
330
C
100
AcDbDictionary
281
     1
  3
Layout1
350
1E
  3
Layout2
350
26
  3
Model
350
22
  0
DICTIONARY
  5
43
102
{ACAD_REACTORS
330
C
102
}
330
C
100
AcDbDictionary
281
     1
  3
ByBlock
350
45
  3
ByLayer
350
44
  3
Global
350
46
  0
DICTIONARY
  5
6B
102
{ACAD_REACTORS
330
C
102
}
330
C
100
AcDbDictionary
281
     1
  3
Standard
350
6C
  0
DICTIONARY
  5
17
102
{ACAD_REACTORS
330
C
102
}
330
C
100
AcDbDictionary
281
     1
  3
Standard
350
18
  0
DICTIONARY
  5
19
102
{ACAD_REACTORS
330
C
102
}
330
C
100
AcDbDictionary
281
     1
  0
ACDBDICTIONARYWDFLT
  5
E
102
{ACAD_REACTORS
330
C
102
}
330
C
100
AcDbDictionary
281
     1
  3
Normal
350
F
100
AcDbDictionaryWithDefault
340
F
  0
DICTIONARY
  5
47
102
{ACAD_REACTORS
330
C
102
}
330
C
100
AcDbDictionary
281
     1
  3
A0
350
48
  3
A1
350
49
  3
A2
350
4A
  3
A3
350
4B
  3
A4
350
4C
  3
A5
350
4D
  3
A6
350
4E
  3
A7
350
4F
  3
A8
350
50
  3
A9
350
51
  3
B0
350
52
  3
B1
350
53
  3
B2
350
54
  3
B3
350
55
  3
B4
350
56
  3
B5
350
57
  3
B6
350
58
  3
B7
350
59
  3
B8
350
5A
  3
B9
350
5B
  3
C0
350
5C
  3
C1
350
5D
  3
C2
350
5E
  3
C3
350
5F
  3
C4
350
60
  3
C5
350
61
  3
C6
350
62
  3
C7
350
63
  3
C8
350
64
  3
C9
350
65
  3
D0
350
66
  3
D1
350
67
  3
D2
350
68
  0
DICTIONARY
  5
69
102
{ACAD_REACTORS
330
C
102
}
330
C
100
AcDbDictionary
281
     1
  3
Standard
350
6A
  0
DICTIONARY
  5
2A
102
{ACAD_REACTORS
330
C
102
}
330
C
100
AcDbDictionary
281
     1
  3
2dWireframe
350
2F
  3
Basic
350
32
  3
Brighten
350
36
  3
ColorChange
350
3A
  3
Conceptual
350
34
  3
Dim
350
35
  3
EdgeColorOff
350
3D
  3
Facepattern
350
39
  3
Flat
350
2B
  3
FlatWithEdges
350
2C
  3
Gouraud
350
2D
  3
GouraudWithEdges
350
2E
  3
Hidden
350
31
  3
JitterOff
350
3B
  3
Linepattern
350
38
  3
OverhangOff
350
3C
  3
Realistic
350
33
  3
Shaded
350
42
  3
Shaded with edges
350
41
  3
Shades of Gray
350
3E
  3
Sketchy
350
3F
  3
Thicken
350
37
  3
Wireframe
350
30
  3
X-Ray
350
40
  0
DICTIONARY
  5
124
102
{ACAD_REACTORS
330
C
102
}
330
C
100
AcDbDictionary
281
     1
  3
CANNOSCALE
350
131
  3
CENTEREXE
350
12B
  3
CENTERLTYPEFILE
350
12C
  3
CMLEADERSTYLE
350
126
  3
CTABLESTYLE
350
125
  3
DIMASSOC
350
12D
  3
HIDETEXT
350
12E
  3
MSLTSCALE
350
132
  3
PSOLHEIGHT
350
128
  3
PSOLWIDTH
350
127
  0
XRECORD
  5
130
102
{ACAD_REACTORS
330
12F
102
}
330
12F
100
AcDbXrecord
280
     1
102
VTR_0.000_0.000_1.000_1.000_VISUALSTYLE
340
2F
102
VTR_0.000_0.000_1.000_1.000_GRIDDISPLAY
 70
     3
102
VTR_0.000_0.000_1.000_1.000_GRIDMAJOR
 70
     5
102
VTR_0.000_0.000_1.000_1.000_DEFAULTLIGHTING
280
     1
102
VTR_0.000_0.000_1.000_1.000_DEFAULTLIGHTINGTYPE
 70
     1
102
VTR_0.000_0.000_1.000_1.000_BRIGHTNESS
141
0.0
102
VTR_0.000_0.000_1.000_1.000_CONTRAST
142
0.0
  0
LAYOUT
  5
1E
102
{ACAD_REACTORS
330
1A
102
}
330
1A
100
AcDbPlotSettings
  1

  2
none_device
  4

  6

 40
0.0
 41
0.0
 42
0.0
 43
0.0
 44
0.0
 45
0.0
 46
0.0
 47
0.0
 48
0.0
 49
0.0
140
0.0
141
0.0
142
1.0
143
1.0
 70
   688
 72
     1
 73
     0
 74
     5
  7

 75
    16
147
1.0
148
0.0
149
0.0
100
AcDbLayout
  1
Layout1
 70
     1
 71
     1
 10
0.0
 20
0.0
 11
420.0
 21
297.0
 12
0.0
 22
0.0
 32
0.0
 14
1.000000E+20
 24
1.000000E+20
 34
1.000000E+20
 15
-1.000000E+20
 25
-1.000000E+20
 35
-1.000000E+20
146
0.0
 13
0.0
 23
0.0
 33
0.0
 16
1.0
 26
0.0
 36
0.0
 17
0.0
 27
1.0
 37
0.0
 76
     0
330
1B
  0
LAYOUT
  5
26
102
{ACAD_REACTORS
330
1A
102
}
330
1A
100
AcDbPlotSettings
  1

  2
none_device
  4

  6

 40
0.0
 41
0.0
 42
0.0
 43
0.0
 44
0.0
 45
0.0
 46
0.0
 47
0.0
 48
0.0
 49
0.0
140
0.0
141
0.0
142
1.0
143
1.0
 70
   688
 72
     1
 73
     0
 74
     5
  7

 75
    16
147
1.0
148
0.0
149
0.0
100
AcDbLayout
  1
Layout2
 70
     1
 71
     2
 10
0.0
 20
0.0
 11
0.0
 21
0.0
 12
0.0
 22
0.0
 32
0.0
 14
0.0
 24
0.0
 34
0.0
 15
0.0
 25
0.0
 35
0.0
146
0.0
 13
0.0
 23
0.0
 33
0.0
 16
1.0
 26
0.0
 36
0.0
 17
0.0
 27
1.0
 37
0.0
 76
     0
330
23
  0
LAYOUT
  5
22
102
{ACAD_REACTORS
330
1A
102
}
330
1A
100
AcDbPlotSettings
  1

  2
none_device
  4
Letter_(8.50_x_11.00_Inches)
  6

 40
6.35
 41
6.35
 42
6.350005
 43
6.350005
 44
215.9
 45
279.4
 46
0.0
 47
0.0
 48
0.0
 49
0.0
140
0.0
141
0.0
142
1.0
143
1.0
 70
  1712
 72
     1
 73
     0
 74
     0
  7

 75
     0
147
1.0
148
0.0
149
0.0
100
AcDbLayout
  1
Model
 70
     1
 71
     0
 10
474.648254
 20
461.249969
 11
710.574524
 21
741.542053
 12
0.0
 22
0.0
 32
0.0
 14
474.648254
 24
461.249969
 34
0.0
 15
710.574524
 25
741.542053
 35
0.0
146
0.0
 13
0.0
 23
0.0
 33
0.0
 16
1.0
 26
0.0
 36
0.0
 17
0.0
 27
1.0
 37
0.0
 76
     0
330
1F
331
29
  0
MATERIAL
  5
45
102
{ACAD_REACTORS
330
43
102
}
102
{ACAD_XDICTIONARY
360
165
102
}
330
43
100
AcDbMaterial
  1
ByBlock
  0
MATERIAL
  5
44
102
{ACAD_REACTORS
330
43
102
}
102
{ACAD_XDICTIONARY
360
163
102
}
330
43
100
AcDbMaterial
  1
ByLayer
  0
MATERIAL
  5
46
102
{ACAD_REACTORS
330
43
102
}
102
{ACAD_XDICTIONARY
360
167
102
}
330
43
100
AcDbMaterial
  1
Global
  0
MLEADERSTYLE
  5
6C
102
{ACAD_REACTORS
330
6B
102
}
102
{ACAD_XDICTIONARY
360
16A
102
}
330
6B
100
AcDbMLeaderStyle
170
     2
171
     1
172
     0
 90
        2
 40
0.0
 41
0.0
173
     1
 91
-1056964608
340
14
 92
       -2
290
     1
 42
2.0
291
     1
 43
8.0
  3
Standard
341
0
 44
4.0
300

342
11
174
     1
178
     6
175
     1
176
     0
 93
-1056964608
 45
4.0
292
     0
297
     0
 46
4.0
343
0
 94
-1056964608
 47
1.0
 49
1.0
140
1.0
293
     1
141
0.0
294
     1
177
     0
142
1.0
295
     0
296
     0
143
3.75
1001
ACAD_MLEADERVER
1070
     2
  0
MLINESTYLE
  5
18
102
{ACAD_REACTORS
330
17
102
}
330
17
100
AcDbMlineStyle
  2
Standard
 70
     0
  3

 62
   256
 51
90.0
 52
90.0
 71
     2
 49
0.5
 62
   256
  6
BYLAYER
 49
-0.5
 62
   256
  6
BYLAYER
  0
ACDBPLACEHOLDER
  5
F
102
{ACAD_REACTORS
330
E
102
}
330
E
  0
SCALE
  5
48
102
{ACAD_REACTORS
330
47
102
}
330
47
100
AcDbScale
 70
     0
300
1:1
140
1.0
141
1.0
290
     1
  0
SCALE
  5
49
102
{ACAD_REACTORS
330
47
102
}
330
47
100
AcDbScale
 70
     0
300
1:2
140
1.0
141
2.0
290
     0
  0
SCALE
  5
4A
102
{ACAD_REACTORS
330
47
102
}
330
47
100
AcDbScale
 70
     0
300
1:4
140
1.0
141
4.0
290
     0
  0
SCALE
  5
4B
102
{ACAD_REACTORS
330
47
102
}
330
47
100
AcDbScale
 70
     0
300
1:5
140
1.0
141
5.0
290
     0
  0
SCALE
  5
4C
102
{ACAD_REACTORS
330
47
102
}
330
47
100
AcDbScale
 70
     0
300
1:8
140
1.0
141
8.0
290
     0
  0
SCALE
  5
4D
102
{ACAD_REACTORS
330
47
102
}
330
47
100
AcDbScale
 70
     0
300
1:10
140
1.0
141
10.0
290
     0
  0
SCALE
  5
4E
102
{ACAD_REACTORS
330
47
102
}
330
47
100
AcDbScale
 70
     0
300
1:16
140
1.0
141
16.0
290
     0
  0
SCALE
  5
4F
102
{ACAD_REACTORS
330
47
102
}
330
47
100
AcDbScale
 70
     0
300
1:20
140
1.0
141
20.0
290
     0
  0
SCALE
  5
50
102
{ACAD_REACTORS
330
47
102
}
330
47
100
AcDbScale
 70
     0
300
1:30
140
1.0
141
30.0
290
     0
  0
SCALE
  5
51
102
{ACAD_REACTORS
330
47
102
}
330
47
100
AcDbScale
 70
     0
300
1:40
140
1.0
141
40.0
290
     0
  0
SCALE
  5
52
102
{ACAD_REACTORS
330
47
102
}
330
47
100
AcDbScale
 70
     0
300
1:50
140
1.0
141
50.0
290
     0
  0
SCALE
  5
53
102
{ACAD_REACTORS
330
47
102
}
330
47
100
AcDbScale
 70
     0
300
1:100
140
1.0
141
100.0
290
     0
  0
SCALE
  5
54
102
{ACAD_REACTORS
330
47
102
}
330
47
100
AcDbScale
 70
     0
300
2:1
140
2.0
141
1.0
290
     0
  0
SCALE
  5
55
102
{ACAD_REACTORS
330
47
102
}
330
47
100
AcDbScale
 70
     0
300
4:1
140
4.0
141
1.0
290
     0
  0
SCALE
  5
56
102
{ACAD_REACTORS
330
47
102
}
330
47
100
AcDbScale
 70
     0
300
8:1
140
8.0
141
1.0
290
     0
  0
SCALE
  5
57
102
{ACAD_REACTORS
330
47
102
}
330
47
100
AcDbScale
 70
     0
300
10:1
140
10.0
141
1.0
290
     0
  0
SCALE
  5
58
102
{ACAD_REACTORS
330
47
102
}
330
47
100
AcDbScale
 70
     0
300
100:1
140
100.0
141
1.0
290
     0
  0
SCALE
  5
59
102
{ACAD_REACTORS
330
47
102
}
330
47
100
AcDbScale
 70
     0
300
1/128" = 1'-0"
140
0.007812
141
12.0
290
     0
  0
SCALE
  5
5A
102
{ACAD_REACTORS
330
47
102
}
330
47
100
AcDbScale
 70
     0
300
1/64" = 1'-0"
140
0.015625
141
12.0
290
     0
  0
SCALE
  5
5B
102
{ACAD_REACTORS
330
47
102
}
330
47
100
AcDbScale
 70
     0
300
1/32" = 1'-0"
140
0.03125
141
12.0
290
     0
  0
SCALE
  5
5C
102
{ACAD_REACTORS
330
47
102
}
330
47
100
AcDbScale
 70
     0
300
1/16" = 1'-0"
140
0.0625
141
12.0
290
     0
  0
SCALE
  5
5D
102
{ACAD_REACTORS
330
47
102
}
330
47
100
AcDbScale
 70
     0
300
3/32" = 1'-0"
140
0.09375
141
12.0
290
     0
  0
SCALE
  5
5E
102
{ACAD_REACTORS
330
47
102
}
330
47
100
AcDbScale
 70
     0
300
1/8" = 1'-0"
140
0.125
141
12.0
290
     0
  0
SCALE
  5
5F
102
{ACAD_REACTORS
330
47
102
}
330
47
100
AcDbScale
 70
     0
300
3/16" = 1'-0"
140
0.1875
141
12.0
290
     0
  0
SCALE
  5
60
102
{ACAD_REACTORS
330
47
102
}
330
47
100
AcDbScale
 70
     0
300
1/4" = 1'-0"
140
0.25
141
12.0
290
     0
  0
SCALE
  5
61
102
{ACAD_REACTORS
330
47
102
}
330
47
100
AcDbScale
 70
     0
300
3/8" = 1'-0"
140
0.375
141
12.0
290
     0
  0
SCALE
  5
62
102
{ACAD_REACTORS
330
47
102
}
330
47
100
AcDbScale
 70
     0
300
1/2" = 1'-0"
140
0.5
141
12.0
290
     0
  0
SCALE
  5
63
102
{ACAD_REACTORS
330
47
102
}
330
47
100
AcDbScale
 70
     0
300
3/4" = 1'-0"
140
0.75
141
12.0
290
     0
  0
SCALE
  5
64
102
{ACAD_REACTORS
330
47
102
}
330
47
100
AcDbScale
 70
     0
300
1" = 1'-0"
140
1.0
141
12.0
290
     0
  0
SCALE
  5
65
102
{ACAD_REACTORS
330
47
102
}
330
47
100
AcDbScale
 70
     0
300
1-1/2" = 1'-0"
140
1.5
141
12.0
290
     0
  0
SCALE
  5
66
102
{ACAD_REACTORS
330
47
102
}
330
47
100
AcDbScale
 70
     0
300
3" = 1'-0"
140
3.0
141
12.0
290
     0
  0
SCALE
  5
67
102
{ACAD_REACTORS
330
47
102
}
330
47
100
AcDbScale
 70
     0
300
6" = 1'-0"
140
6.0
141
12.0
290
     0
  0
SCALE
  5
68
102
{ACAD_REACTORS
330
47
102
}
330
47
100
AcDbScale
 70
     0
300
1'-0" = 1'-0"
140
12.0
141
12.0
290
     0
  0
TABLESTYLE
  5
6A
102
{ACAD_REACTORS
330
69
102
}
330
69
100
AcDbTableStyle
  3
Standard
 70
     0
 71
     0
 40
1.5
 41
1.5
280
     0
281
     0
  7
Standard
140
4.5
170
     2
 62
     0
 63
   257
283
     0
274
    -2
284
     1
 64
     0
275
    -2
285
     1
 65
     0
276
    -2
286
     1
 66
     0
277
    -2
287
     1
 67
     0
278
    -2
288
     1
 68
     0
279
    -2
289
     1
 69
     0
  7
Standard
140
6.0
170
     5
 62
     0
 63
   257
283
     0
274
    -2
284
     1
 64
     0
275
    -2
285
     1
 65
     0
276
    -2
286
     1
 66
     0
277
    -2
287
     1
 67
     0
278
    -2
288
     1
 68
     0
279
    -2
289
     1
 69
     0
  7
Standard
140
4.5
170
     5
 62
     0
 63
   257
283
     0
274
    -2
284
     1
 64
     0
275
    -2
285
     1
 65
     0
276
    -2
286
     1
 66
     0
277
    -2
287
     1
 67
     0
278
    -2
288
     1
 68
     0
279
    -2
289
     1
 69
     0
  0
VISUALSTYLE
  5
2F
102
{ACAD_REACTORS
330
2A
102
}
102
{ACAD_XDICTIONARY
360
13B
102
}
330
2A
100
AcDbVisualStyle
  2
2dWireframe
 70
     4
 71
     0
 72
     2
 73
     0
 90
        0
 40
0.6
 41
30.0
 62
     5
 63
     7
 74
     1
 91
        4
 64
     7
 65
   257
 75
     1
175
     1
 42
1.0
 92
        0
 66
   257
 43
1.0
 76
     1
 77
     6
 78
     2
 67
     7
 79
     5
170
     0
171
     0
290
     0
174
     0
 93
        1
 44
0.0
173
     0
291
     0
 45
0.0
1001
ACAD
1000
AcDbSavedByObjectVersion
1070
     0
  0
VISUALSTYLE
  5
32
102
{ACAD_REACTORS
330
2A
102
}
102
{ACAD_XDICTIONARY
360
141
102
}
330
2A
100
AcDbVisualStyle
  2
Basic
 70
     7
 71
     1
 72
     0
 73
     1
 90
        0
 40
0.6
 41
30.0
 62
     5
 63
     7
 74
     0
 91
        4
 64
     7
 65
   257
 75
     1
175
     1
 42
1.0
 92
        8
 66
     7
 43
1.0
 76
     1
 77
     6
 78
     2
 67
     7
 79
     5
170
     0
171
     0
290
     0
174
     0
 93
        1
 44
0.0
173
     0
291
     1
 45
0.0
1001
ACAD
1000
AcDbSavedByObjectVersion
1070
     0
  0
VISUALSTYLE
  5
36
102
{ACAD_REACTORS
330
2A
102
}
102
{ACAD_XDICTIONARY
360
149
102
}
330
2A
100
AcDbVisualStyle
  2
Brighten
 70
    12
 71
     2
 72
     2
 73
     0
 90
        0
 40
0.6
 41
30.0
 62
     5
 63
     7
 74
     1
 91
        4
 64
     7
 65
   257
 75
     1
175
     1
 42
1.0
 92
        8
 66
     7
 43
1.0
 76
     1
 77
     6
 78
     2
 67
     7
 79
     5
170
     0
171
     0
290
     0
174
     0
 93
        1
 44
50.0
173
     0
291
     1
 45
0.0
1001
ACAD
1000
AcDbSavedByObjectVersion
1070
     0
  0
VISUALSTYLE
  5
3A
102
{ACAD_REACTORS
330
2A
102
}
102
{ACAD_XDICTIONARY
360
151
102
}
330
2A
100
AcDbVisualStyle
  2
ColorChange
 70
    16
 71
     2
 72
     2
 73
     3
 90
        0
 40
0.6
 41
30.0
 62
     5
 63
     8
 74
     1
 91
        4
 64
     7
 65
   257
 75
     1
175
     1
 42
1.0
 92
        8
 66
     8
 43
1.0
 76
     1
 77
     6
 78
     2
 67
     7
 79
     5
170
     0
171
     0
290
     0
174
     0
 93
        1
 44
0.0
173
     0
291
     1
 45
0.0
1001
ACAD
1000
AcDbSavedByObjectVersion
1070
     0
  0
VISUALSTYLE
  5
34
102
{ACAD_REACTORS
330
2A
102
}
102
{ACAD_XDICTIONARY
360
145
102
}
330
2A
100
AcDbVisualStyle
  2
Conceptual
 70
     9
 71
     3
 72
     2
 73
     0
 90
        0
 40
0.6
 41
30.0
 62
     5
 63
     7
 74
     2
 91
        2
 64
     7
 65
   257
 75
     1
175
     1
 42
179.0
 92
        8
 66
     7
 43
1.0
 76
     1
 77
     6
 78
     2
 67
     7
 79
     3
170
     0
171
     0
290
     0
174
     0
 93
        1
 44
0.0
173
     0
291
     0
 45
0.0
1001
ACAD
1000
AcDbSavedByObjectVersion
1070
     0
  0
VISUALSTYLE
  5
35
102
{ACAD_REACTORS
330
2A
102
}
102
{ACAD_XDICTIONARY
360
147
102
}
330
2A
100
AcDbVisualStyle
  2
Dim
 70
    11
 71
     2
 72
     2
 73
     0
 90
        0
 40
0.6
 41
30.0
 62
     5
 63
     7
 74
     1
 91
        4
 64
     7
 65
   257
 75
     1
175
     1
 42
1.0
 92
        8
 66
     7
 43
1.0
 76
     1
 77
     6
 78
     2
 67
     7
 79
     5
170
     0
171
     0
290
     0
174
     0
 93
        1
 44
-50.0
173
     0
291
     1
 45
0.0
1001
ACAD
1000
AcDbSavedByObjectVersion
1070
     0
  0
VISUALSTYLE
  5
3D
102
{ACAD_REACTORS
330
2A
102
}
102
{ACAD_XDICTIONARY
360
157
102
}
330
2A
100
AcDbVisualStyle
  2
EdgeColorOff
 70
    22
 71
     2
 72
     2
 73
     0
 90
        0
 40
0.6
 41
30.0
 62
     5
 63
     7
 74
     1
 91
        4
 64
     7
 65
   257
 75
     1
175
     1
 42
1.0
 92
        8
 66
     7
 43
1.0
 76
     1
 77
     6
 78
     2
 67
     7
 79
     5
170
     0
171
     0
290
     0
174
     0
 93
        1
 44
0.0
173
     0
291
     1
 45
0.0
1001
ACAD
1000
AcDbSavedByObjectVersion
1070
     0
  0
VISUALSTYLE
  5
39
102
{ACAD_REACTORS
330
2A
102
}
102
{ACAD_XDICTIONARY
360
14F
102
}
330
2A
100
AcDbVisualStyle
  2
Facepattern
 70
    15
 71
     2
 72
     2
 73
     0
 90
        0
 40
0.6
 41
30.0
 62
     5
 63
     7
 74
     1
 91
        4
 64
     7
 65
   257
 75
     1
175
     1
 42
1.0
 92
        8
 66
     7
 43
1.0
 76
     1
 77
     6
 78
     2
 67
     7
 79
     5
170
     0
171
     0
290
     0
174
     0
 93
        1
 44
0.0
173
     0
291
     1
 45
0.0
1001
ACAD
1000
AcDbSavedByObjectVersion
1070
     0
  0
VISUALSTYLE
  5
2B
102
{ACAD_REACTORS
330
2A
102
}
102
{ACAD_XDICTIONARY
360
133
102
}
330
2A
100
AcDbVisualStyle
  2
Flat
 70
     0
 71
     2
 72
     1
 73
     1
 90
        2
 40
0.6
 41
30.0
 62
     5
 63
     7
 74
     0
 91
        0
 64
     7
 65
   257
 75
     1
175
     1
 42
1.0
 92
        8
 66
     7
 43
1.0
 76
     1
 77
     6
 78
     2
 67
     7
 79
     5
170
     0
171
     0
290
     0
174
     0
 93
       13
 44
0.0
173
     0
291
     1
 45
0.0
1001
ACAD
1000
AcDbSavedByObjectVersion
1070
     0
  0
VISUALSTYLE
  5
2C
102
{ACAD_REACTORS
330
2A
102
}
102
{ACAD_XDICTIONARY
360
135
102
}
330
2A
100
AcDbVisualStyle
  2
FlatWithEdges
 70
     1
 71
     2
 72
     1
 73
     1
 90
        2
 40
0.6
 41
30.0
 62
     5
 63
     7
 74
     1
 91
        0
 64
     7
 65
   257
 75
     1
175
     1
 42
1.0
 92
        0
 66
   257
 43
1.0
 76
     1
 77
     6
 78
     2
 67
     7
 79
     5
170
     0
171
     0
290
     0
174
     0
 93
       13
 44
0.0
173
     0
291
     1
 45
0.0
1001
ACAD
1000
AcDbSavedByObjectVersion
1070
     0
  0
VISUALSTYLE
  5
2D
102
{ACAD_REACTORS
330
2A
102
}
102
{ACAD_XDICTIONARY
360
137
102
}
330
2A
100
AcDbVisualStyle
  2
Gouraud
 70
     2
 71
     2
 72
     2
 73
     1
 90
        2
 40
0.6
 41
30.0
 62
     5
 63
     7
 74
     0
 91
        0
 64
     7
 65
   257
 75
     1
175
     1
 42
1.0
 92
        0
 66
     7
 43
1.0
 76
     1
 77
     6
 78
     2
 67
     7
 79
     5
170
     0
171
     0
290
     0
174
     0
 93
       13
 44
0.0
173
     0
291
     1
 45
0.0
1001
ACAD
1000
AcDbSavedByObjectVersion
1070
     0
  0
VISUALSTYLE
  5
2E
102
{ACAD_REACTORS
330
2A
102
}
102
{ACAD_XDICTIONARY
360
139
102
}
330
2A
100
AcDbVisualStyle
  2
GouraudWithEdges
 70
     3
 71
     2
 72
     2
 73
     1
 90
        2
 40
0.6
 41
30.0
 62
     5
 63
     7
 74
     1
 91
        0
 64
     7
 65
   257
 75
     1
175
     1
 42
1.0
 92
        0
 66
   257
 43
1.0
 76
     1
 77
     6
 78
     2
 67
     7
 79
     5
170
     0
171
     0
290
     0
174
     0
 93
       13
 44
0.0
173
     0
291
     1
 45
0.0
1001
ACAD
1000
AcDbSavedByObjectVersion
1070
     0
  0
VISUALSTYLE
  5
31
102
{ACAD_REACTORS
330
2A
102
}
102
{ACAD_XDICTIONARY
360
13F
102
}
330
2A
100
AcDbVisualStyle
  2
Hidden
 70
     6
 71
     1
 72
     2
 73
     2
 90
        0
 40
0.6
 41
30.0
 62
     5
 63
     7
 74
     2
 91
        2
 64
     7
 65
   257
 75
     2
175
     1
 42
40.0
 92
        0
 66
   257
 43
1.0
 76
     1
 77
     6
 78
     2
 67
     7
 79
     3
170
     0
171
     0
290
     0
174
     0
 93
        1
 44
0.0
173
     0
291
     0
 45
0.0
1001
ACAD
1000
AcDbSavedByObjectVersion
1070
     0
  0
VISUALSTYLE
  5
3B
102
{ACAD_REACTORS
330
2A
102
}
102
{ACAD_XDICTIONARY
360
153
102
}
330
2A
100
AcDbVisualStyle
  2
JitterOff
 70
    20
 71
     2
 72
     2
 73
     0
 90
        0
 40
0.6
 41
30.0
 62
     5
 63
     7
 74
     1
 91
        4
 64
     7
 65
   257
 75
     1
175
     1
 42
1.0
 92
       10
 66
     7
 43
1.0
 76
     1
 77
     6
 78
     2
 67
     7
 79
     5
170
     0
171
     0
290
     0
174
     0
 93
        1
 44
0.0
173
     0
291
     1
 45
0.0
1001
ACAD
1000
AcDbSavedByObjectVersion
1070
     0
  0
VISUALSTYLE
  5
38
102
{ACAD_REACTORS
330
2A
102
}
102
{ACAD_XDICTIONARY
360
14D
102
}
330
2A
100
AcDbVisualStyle
  2
Linepattern
 70
    14
 71
     2
 72
     2
 73
     0
 90
        0
 40
0.6
 41
30.0
 62
     5
 63
     7
 74
     1
 91
        4
 64
     7
 65
   257
 75
     7
175
     7
 42
1.0
 92
        8
 66
     7
 43
1.0
 76
     1
 77
     6
 78
     2
 67
     7
 79
     5
170
     0
171
     0
290
     0
174
     0
 93
        1
 44
0.0
173
     0
291
     1
 45
0.0
1001
ACAD
1000
AcDbSavedByObjectVersion
1070
     0
  0
VISUALSTYLE
  5
3C
102
{ACAD_REACTORS
330
2A
102
}
102
{ACAD_XDICTIONARY
360
155
102
}
330
2A
100
AcDbVisualStyle
  2
OverhangOff
 70
    21
 71
     2
 72
     2
 73
     0
 90
        0
 40
0.6
 41
30.0
 62
     5
 63
     7
 74
     1
 91
        4
 64
     7
 65
   257
 75
     1
175
     1
 42
1.0
 92
        9
 66
     7
 43
1.0
 76
     1
 77
     6
 78
     2
 67
     7
 79
     5
170
     0
171
     0
290
     0
174
     0
 93
        1
 44
0.0
173
     0
291
     1
 45
0.0
1001
ACAD
1000
AcDbSavedByObjectVersion
1070
     0
  0
VISUALSTYLE
  5
33
102
{ACAD_REACTORS
330
2A
102
}
102
{ACAD_XDICTIONARY
360
143
102
}
330
2A
100
AcDbVisualStyle
  2
Realistic
 70
     8
 71
     2
 72
     3
 73
     0
 90
        2
 40
0.6
 41
30.0
 62
     5
 63
     7
 74
     0
 91
        0
 64
     7
 65
   257
 75
     1
175
     1
 42
1.0
 92
        8
 66
   257
 43
1.0
 76
     1
 77
     6
 78
     2
 67
     7
 79
     3
170
     0
171
     0
290
     0
174
     0
 93
       13
 44
0.0
173
     0
291
     0
 45
0.0
1001
ACAD
1000
AcDbSavedByObjectVersion
1070
     0
  0
VISUALSTYLE
  5
42
102
{ACAD_REACTORS
330
2A
102
}
102
{ACAD_XDICTIONARY
360
161
102
}
330
2A
100
AcDbVisualStyle
  2
Shaded
 70
    27
 71
     2
 72
     2
 73
     1
 90
        2
 40
0.6
 41
30.0
 62
     5
 63
     7
 74
     0
 91
        4
 64
     7
 65
   257
 75
     1
175
     1
 42
1.0
 92
        8
 66
   257
 43
1.0
 76
     1
 77
     6
 78
     2
 67
     8
 79
     3
170
     0
171
     0
290
     0
174
     0
 93
        5
 44
0.0
173
     0
291
     0
 45
0.0
1001
ACAD
1000
AcDbSavedByObjectVersion
1070
     0
  0
VISUALSTYLE
  5
41
102
{ACAD_REACTORS
330
2A
102
}
102
{ACAD_XDICTIONARY
360
15F
102
}
330
2A
100
AcDbVisualStyle
  2
Shaded with edges
 70
    26
 71
     2
 72
     2
 73
     1
 90
        2
 40
0.6
 41
30.0
 62
     5
 63
     7
 74
     1
 91
       10
 64
     7
 65
   257
 75
     2
175
     1
 42
1.0
 92
        8
 66
   257
 43
1.0
 76
     1
 77
     6
 78
     2
 67
     7
 79
     3
170
     0
171
     0
290
     0
174
     0
 93
        5
 44
0.0
173
     0
291
     0
 45
0.0
1001
ACAD
1000
AcDbSavedByObjectVersion
1070
     0
  0
VISUALSTYLE
  5
3E
102
{ACAD_REACTORS
330
2A
102
}
102
{ACAD_XDICTIONARY
360
159
102
}
330
2A
100
AcDbVisualStyle
  2
Shades of Gray
 70
    23
 71
     2
 72
     2
 73
     3
 90
        0
 40
0.6
 41
30.0
 62
     5
 63
     7
 74
     2
 91
        2
 64
     7
 65
     7
 75
     1
175
     1
 42
40.0
 92
        8
 66
     7
 43
1.0
 76
     1
 77
     6
 78
     2
 67
     7
 79
     3
170
     0
171
     0
290
     0
174
     0
 93
        1
 44
0.0
173
     0
291
     0
 45
0.0
1001
ACAD
1000
AcDbSavedByObjectVersion
1070
     0
  0
VISUALSTYLE
  5
3F
102
{ACAD_REACTORS
330
2A
102
}
102
{ACAD_XDICTIONARY
360
15B
102
}
330
2A
100
AcDbVisualStyle
  2
Sketchy
 70
    24
 71
     1
 72
     2
 73
     2
 90
        0
 40
0.6
 41
30.0
 62
     5
 63
     7
 74
     2
 91
        2
 64
     7
 65
     7
 75
     1
175
     1
 42
40.0
 92
       11
 66
     7
 43
1.0
 76
     1
 77
     6
 78
     2
 67
     7
 79
     6
170
     0
171
     0
290
     0
174
     0
 93
        1
 44
0.0
173
     0
291
     0
 45
0.0
1001
ACAD
1000
AcDbSavedByObjectVersion
1070
     0
  0
VISUALSTYLE
  5
37
102
{ACAD_REACTORS
330
2A
102
}
102
{ACAD_XDICTIONARY
360
14B
102
}
330
2A
100
AcDbVisualStyle
  2
Thicken
 70
    13
 71
     2
 72
     2
 73
     0
 90
        0
 40
0.6
 41
30.0
 62
     5
 63
     7
 74
     1
 91
        4
 64
     7
 65
   257
 75
     1
175
     1
 42
1.0
 92
       12
 66
     7
 43
1.0
 76
     1
 77
     6
 78
     2
 67
     7
 79
     5
170
     0
171
     0
290
     0
174
     0
 93
        1
 44
0.0
173
     0
291
     1
 45
0.0
1001
ACAD
1000
AcDbSavedByObjectVersion
1070
     0
  0
VISUALSTYLE
  5
30
102
{ACAD_REACTORS
330
2A
102
}
102
{ACAD_XDICTIONARY
360
13D
102
}
330
2A
100
AcDbVisualStyle
  2
Wireframe
 70
     5
 71
     0
 72
     2
 73
     0
 90
        0
 40
0.6
 41
30.0
 62
     5
 63
     7
 74
     1
 91
        4
 64
     7
 65
   257
 75
     1
175
     1
 42
1.0
 92
        0
 66
   257
 43
1.0
 76
     1
 77
     6
 78
     2
 67
     7
 79
     3
170
     0
171
     0
290
     0
174
     0
 93
        1
 44
0.0
173
     0
291
     0
 45
0.0
1001
ACAD
1000
AcDbSavedByObjectVersion
1070
     0
  0
VISUALSTYLE
  5
40
102
{ACAD_REACTORS
330
2A
102
}
102
{ACAD_XDICTIONARY
360
15D
102
}
330
2A
100
AcDbVisualStyle
  2
X-Ray
 70
    25
 71
     2
 72
     2
 73
     1
 90
        1
 40
0.5
 41
30.0
 62
     5
 63
     7
 74
     1
 91
        0
 64
     7
 65
   257
 75
     1
175
     1
 42
1.0
 92
        8
 66
     7
 43
1.0
 76
     1
 77
     6
 78
     2
 67
     7
 79
     3
170
     0
171
     0
290
     0
174
     0
 93
       13
 44
0.0
173
     0
291
     0
 45
0.0
1001
ACAD
1000
AcDbSavedByObjectVersion
1070
     0
  0
DICTIONARYVAR
  5
131
102
{ACAD_REACTORS
330
124
102
}
330
124
100
DictionaryVariables
280
     0
  1
1:1
  0
DICTIONARYVAR
  5
12B
102
{ACAD_REACTORS
330
124
102
}
330
124
100
DictionaryVariables
280
     0
  1
3.500000
  0
DICTIONARYVAR
  5
12C
102
{ACAD_REACTORS
330
124
102
}
330
124
100
DictionaryVariables
280
     0
  1
acadiso.lin
  0
DICTIONARYVAR
  5
126
102
{ACAD_REACTORS
330
124
102
}
330
124
100
DictionaryVariables
280
     0
  1
Standard
  0
DICTIONARYVAR
  5
125
102
{ACAD_REACTORS
330
124
102
}
330
124
100
DictionaryVariables
280
     0
  1
Standard
  0
DICTIONARYVAR
  5
12D
102
{ACAD_REACTORS
330
124
102
}
330
124
100
DictionaryVariables
280
     0
  1
2
  0
DICTIONARYVAR
  5
12E
102
{ACAD_REACTORS
330
124
102
}
330
124
100
DictionaryVariables
280
     0
  1
1
  0
DICTIONARYVAR
  5
132
102
{ACAD_REACTORS
330
124
102
}
330
124
100
DictionaryVariables
280
     0
  1
1
  0
DICTIONARYVAR
  5
128
102
{ACAD_REACTORS
330
124
102
}
330
124
100
DictionaryVariables
280
     0
  1
80.000000
  0
DICTIONARYVAR
  5
127
102
{ACAD_REACTORS
330
124
102
}
330
124
100
DictionaryVariables
280
     0
  1
5.000000
  0
DICTIONARY
  5
165
330
45
100
AcDbDictionary
280
     1
281
     1
  3
ACAD_XREC_ROUNDTRIP
360
166
  0
DICTIONARY
  5
163
330
44
100
AcDbDictionary
280
     1
281
     1
  3
ACAD_XREC_ROUNDTRIP
360
164
  0
DICTIONARY
  5
167
330
46
100
AcDbDictionary
280
     1
281
     1
  3
ACAD_XREC_ROUNDTRIP
360
168
  0
DICTIONARY
  5
16A
330
6C
100
AcDbDictionary
280
     1
281
     1
  3
ACAD_XREC_ROUNDTRIP
360
16B
  0
DICTIONARY
  5
13B
330
2F
100
AcDbDictionary
280
     1
281
     1
  3
ACAD_XREC_ROUNDTRIP
360
13C
  0
DICTIONARY
  5
141
330
32
100
AcDbDictionary
280
     1
281
     1
  3
ACAD_XREC_ROUNDTRIP
360
142
  0
DICTIONARY
  5
149
330
36
100
AcDbDictionary
280
     1
281
     1
  3
ACAD_XREC_ROUNDTRIP
360
14A
  0
DICTIONARY
  5
151
330
3A
100
AcDbDictionary
280
     1
281
     1
  3
ACAD_XREC_ROUNDTRIP
360
152
  0
DICTIONARY
  5
145
330
34
100
AcDbDictionary
280
     1
281
     1
  3
ACAD_XREC_ROUNDTRIP
360
146
  0
DICTIONARY
  5
147
330
35
100
AcDbDictionary
280
     1
281
     1
  3
ACAD_XREC_ROUNDTRIP
360
148
  0
DICTIONARY
  5
157
330
3D
100
AcDbDictionary
280
     1
281
     1
  3
ACAD_XREC_ROUNDTRIP
360
158
  0
DICTIONARY
  5
14F
330
39
100
AcDbDictionary
280
     1
281
     1
  3
ACAD_XREC_ROUNDTRIP
360
150
  0
DICTIONARY
  5
133
330
2B
100
AcDbDictionary
280
     1
281
     1
  3
ACAD_XREC_ROUNDTRIP
360
134
  0
DICTIONARY
  5
135
330
2C
100
AcDbDictionary
280
     1
281
     1
  3
ACAD_XREC_ROUNDTRIP
360
136
  0
DICTIONARY
  5
137
330
2D
100
AcDbDictionary
280
     1
281
     1
  3
ACAD_XREC_ROUNDTRIP
360
138
  0
DICTIONARY
  5
139
330
2E
100
AcDbDictionary
280
     1
281
     1
  3
ACAD_XREC_ROUNDTRIP
360
13A
  0
DICTIONARY
  5
13F
330
31
100
AcDbDictionary
280
     1
281
     1
  3
ACAD_XREC_ROUNDTRIP
360
140
  0
DICTIONARY
  5
153
330
3B
100
AcDbDictionary
280
     1
281
     1
  3
ACAD_XREC_ROUNDTRIP
360
154
  0
DICTIONARY
  5
14D
330
38
100
AcDbDictionary
280
     1
281
     1
  3
ACAD_XREC_ROUNDTRIP
360
14E
  0
DICTIONARY
  5
155
330
3C
100
AcDbDictionary
280
     1
281
     1
  3
ACAD_XREC_ROUNDTRIP
360
156
  0
DICTIONARY
  5
143
330
33
100
AcDbDictionary
280
     1
281
     1
  3
ACAD_XREC_ROUNDTRIP
360
144
  0
DICTIONARY
  5
161
330
42
100
AcDbDictionary
280
     1
281
     1
  3
ACAD_XREC_ROUNDTRIP
360
162
  0
DICTIONARY
  5
15F
330
41
100
AcDbDictionary
280
     1
281
     1
  3
ACAD_XREC_ROUNDTRIP
360
160
  0
DICTIONARY
  5
159
330
3E
100
AcDbDictionary
280
     1
281
     1
  3
ACAD_XREC_ROUNDTRIP
360
15A
  0
DICTIONARY
  5
15B
330
3F
100
AcDbDictionary
280
     1
281
     1
  3
ACAD_XREC_ROUNDTRIP
360
15C
  0
DICTIONARY
  5
14B
330
37
100
AcDbDictionary
280
     1
281
     1
  3
ACAD_XREC_ROUNDTRIP
360
14C
  0
DICTIONARY
  5
13D
330
30
100
AcDbDictionary
280
     1
281
     1
  3
ACAD_XREC_ROUNDTRIP
360
13E
  0
DICTIONARY
  5
15D
330
40
100
AcDbDictionary
280
     1
281
     1
  3
ACAD_XREC_ROUNDTRIP
360
15E
  0
XRECORD
  5
166
102
{ACAD_REACTORS
330
165
102
}
330
165
100
AcDbXrecord
280
     1
102
MATERIAL
148
0.0
149
0.0
149
0.0
 93
        0
 94
      127
282
     0
 72
     1
 77
     1
171
     1
175
     1
179
     1
273
     0
  0
XRECORD
  5
164
102
{ACAD_REACTORS
330
163
102
}
330
163
100
AcDbXrecord
280
     1
102
MATERIAL
148
0.0
149
0.0
149
0.0
 93
        0
 94
      127
282
     0
 72
     1
 77
     1
171
     1
175
     1
179
     1
273
     0
  0
XRECORD
  5
168
102
{ACAD_REACTORS
330
167
102
}
330
167
100
AcDbXrecord
280
     1
102
MATERIAL
148
0.0
149
0.0
149
0.0
 93
        0
 94
      127
282
     0
 72
     1
 77
     1
171
     1
175
     1
179
     1
273
     0
  0
XRECORD
  5
16B
102
{ACAD_REACTORS
330
16A
102
}
330
16A
100
AcDbXrecord
280
     1
102
ACAD_ROUNDTRIP_2010_MLEADER_STYLE
  0
XRECORD
  5
13C
102
{ACAD_REACTORS
330
13B
102
}
330
13B
100
AcDbXrecord
280
     1
102
RTVSPropertyOp0
 70
     1
102
RTVSPropertyOp1
 70
     1
102
RTVSPropertyOp2
 70
     1
102
RTVSPropertyOp3
 70
     1
102
RTVSPropertyOp4
 70
     1
102
RTVSPropertyOp5
 70
     1
102
RTVSPropertyOp6
 70
     1
102
RTVSPropertyOp7
 70
     1
102
RTVSPropertyOp8
 70
     1
102
RTVSPropertyOp9
 70
     1
102
RTVSPropertyOp10
 70
     1
102
RTVSPropertyOp11
 70
     1
102
RTVSPropertyOp12
 70
     1
102
RTVSPropertyOp13
 70
     1
102
RTVSPropertyOp14
 70
     1
102
RTVSPropertyOp15
 70
     1
102
RTVSPropertyOp16
 70
     1
102
RTVSPropertyOp17
 70
     1
102
RTVSPropertyOp18
 70
     1
102
RTVSPropertyOp19
 70
     1
102
RTVSPropertyOp20
 70
     1
102
RTVSPropertyOp21
 70
     1
102
RTVSPropertyOp22
 70
     1
102
RTVSPropertyOp23
 70
     1
102
RTVSPropertyOp24
 70
     1
102
RTVSPropertyOp25
 70
     1
102
RTVSPropertyOp26
 70
     1
102
RTVSPropertyOp27
 70
     1
102
RTVSPropertyOp28
 70
     1
102
RTVSPropertyOp29
 70
     1
102
RTVSPropertyOp30
 70
     1
102
RTVSPropertyOp31
 70
     1
102
RTVSPropertyOp32
 70
     1
102
RTVSPropertyOp33
 70
     1
102
RTVSPropertyOp34
 70
     1
102
RTVSPropertyOp35
 70
     1
102
RTVSPropertyOp36
 70
     1
102
RTVSPropertyOp37
 70
     1
102
RTVSPropertyOp38
 70
     1
102
RTVSPropertyOp39
 70
     1
102
RTVSPropertyOp40
 70
     1
102
RTVSPropertyOp41
 70
     1
102
RTVSPropertyOp42
 70
     1
102
RTVSPropertyOp43
 70
     1
102
RTVSPropertyOp44
 70
     1
102
RTVSPropertyOp45
 70
     1
102
RTVSPropertyOp46
 70
     1
102
RTVSPropertyOp47
 70
     1
102
RTVSPropertyOp48
 70
     1
102
RTVSPropertyOp49
 70
     1
102
RTVSPropertyOp50
 70
     1
102
RTVSPropertyOp51
 70
     0
102
RTVSPropertyOp52
 70
     0
102
RTVSPropertyOp53
 70
     1
102
RTVSPropertyOp54
 70
     1
102
RTVSPropertyOp55
 70
     1
102
RTVSPropertyOp56
 70
     1
102
RTVSPropertyOp57
 70
     1
102
RTVSPost2010Prop28
280
     1
102
RTVSPost2010PropOp28
 70
     1
102
RTVSPost2010Prop29
280
     1
102
RTVSPost2010PropOp29
 70
     1
102
RTVSPost2010Prop30
280
     0
102
RTVSPost2010PropOp30
 70
     1
102
RTVSPost2010Prop31
280
     0
102
RTVSPost2010PropOp31
 70
     1
102
RTVSPost2010Prop32
280
     0
102
RTVSPost2010PropOp32
 70
     1
102
RTVSPost2010Prop33
280
     0
102
RTVSPost2010PropOp33
 70
     1
102
RTVSPost2010Prop34
280
     0
102
RTVSPost2010PropOp34
 70
     1
102
RTVSPost2010Prop35
280
     0
102
RTVSPost2010PropOp35
 70
     1
102
RTVSPost2010Prop36
280
     0
102
RTVSPost2010PropOp36
 70
     1
102
RTVSPost2010Prop37
 90
       50
102
RTVSPost2010PropOp37
 70
     1
102
RTVSPost2010Prop38
140
0.0
102
RTVSPost2010PropOp38
 70
     1
102
RTVSPost2010Prop39
140
1.0
102
RTVSPost2010PropOp39
 70
     1
102
RTVSPost2010Prop40
 90
        0
102
RTVSPost2010PropOp40
 70
     1
102
RTVSPost2010Prop41ColorIndex
 90
       18
102
RTVSPost2010Prop41ColorRGB
 90
        0
102
RTVSPost2010PropOp41
 70
     1
102
RTVSPost2010Prop42
 90
       50
102
RTVSPost2010PropOp42
 70
     1
102
RTVSPost2010Prop43
 90
        3
102
RTVSPost2010PropOp43
 70
     1
102
RTVSPost2010Prop44ColorIndex
 90
        5
102
RTVSPost2010Prop44ColorRGB
 90
      255
102
RTVSPost2010PropOp44
 70
     1
102
RTVSPost2010Prop45
280
     0
102
RTVSPost2010PropOp45
 70
     1
102
RTVSPost2010Prop46
 90
       50
102
RTVSPost2010PropOp46
 70
     1
102
RTVSPost2010Prop47
 90
       50
102
RTVSPost2010PropOp47
 70
     1
102
RTVSPost2010Prop48
 90
       50
102
RTVSPost2010PropOp48
 70
     1
102
RTVSPost2010Prop49
280
     0
102
RTVSPost2010PropOp49
 70
     1
102
RTVSPost2010Prop50
 90
       50
102
RTVSPost2010PropOp50
 70
     1
102
RTVSPost2010Prop51ColorIndex
 90
      256
102
RTVSPost2010Prop51ColorRGB
 90
-16777216
102
RTVSPost2010PropOp51
 70
     0
102
RTVSPost2010Prop52
140
1.0
102
RTVSPost2010PropOp52
 70
     0
102
RTVSPost2010Prop53
 90
        2
102
RTVSPost2010PropOp53
 70
     1
102
RTVSPost2010Prop54
  1
strokes_ogs.tif
102
RTVSPost2010PropOp54
 70
     1
102
RTVSPost2010Prop55
280
     0
102
RTVSPost2010PropOp55
 70
     1
102
RTVSPost2010Prop56
140
1.0
102
RTVSPost2010PropOp56
 70
     1
102
RTVSPost2010Prop57
140
1.0
102
RTVSPost2010PropOp57
 70
     1
  0
XRECORD
  5
142
102
{ACAD_REACTORS
330
141
102
}
330
141
100
AcDbXrecord
280
     1
102
RTVSPropertyOp0
 70
     1
102
RTVSPropertyOp1
 70
     1
102
RTVSPropertyOp2
 70
     1
102
RTVSPropertyOp3
 70
     1
102
RTVSPropertyOp4
 70
     1
102
RTVSPropertyOp5
 70
     1
102
RTVSPropertyOp6
 70
     1
102
RTVSPropertyOp7
 70
     1
102
RTVSPropertyOp8
 70
     1
102
RTVSPropertyOp9
 70
     1
102
RTVSPropertyOp10
 70
     1
102
RTVSPropertyOp11
 70
     1
102
RTVSPropertyOp12
 70
     1
102
RTVSPropertyOp13
 70
     1
102
RTVSPropertyOp14
 70
     1
102
RTVSPropertyOp15
 70
     1
102
RTVSPropertyOp16
 70
     1
102
RTVSPropertyOp17
 70
     1
102
RTVSPropertyOp18
 70
     1
102
RTVSPropertyOp19
 70
     1
102
RTVSPropertyOp20
 70
     1
102
RTVSPropertyOp21
 70
     1
102
RTVSPropertyOp22
 70
     1
102
RTVSPropertyOp23
 70
     1
102
RTVSPropertyOp24
 70
     1
102
RTVSPropertyOp25
 70
     1
102
RTVSPropertyOp26
 70
     1
102
RTVSPropertyOp27
 70
     1
102
RTVSPropertyOp28
 70
     1
102
RTVSPropertyOp29
 70
     1
102
RTVSPropertyOp30
 70
     1
102
RTVSPropertyOp31
 70
     1
102
RTVSPropertyOp32
 70
     1
102
RTVSPropertyOp33
 70
     1
102
RTVSPropertyOp34
 70
     1
102
RTVSPropertyOp35
 70
     1
102
RTVSPropertyOp36
 70
     1
102
RTVSPropertyOp37
 70
     1
102
RTVSPropertyOp38
 70
     1
102
RTVSPropertyOp39
 70
     1
102
RTVSPropertyOp40
 70
     1
102
RTVSPropertyOp41
 70
     1
102
RTVSPropertyOp42
 70
     1
102
RTVSPropertyOp43
 70
     1
102
RTVSPropertyOp44
 70
     1
102
RTVSPropertyOp45
 70
     1
102
RTVSPropertyOp46
 70
     1
102
RTVSPropertyOp47
 70
     1
102
RTVSPropertyOp48
 70
     1
102
RTVSPropertyOp49
 70
     1
102
RTVSPropertyOp50
 70
     1
102
RTVSPropertyOp51
 70
     0
102
RTVSPropertyOp52
 70
     0
102
RTVSPropertyOp53
 70
     1
102
RTVSPropertyOp54
 70
     1
102
RTVSPropertyOp55
 70
     1
102
RTVSPropertyOp56
 70
     1
102
RTVSPropertyOp57
 70
     1
102
RTVSPost2010Prop28
280
     0
102
RTVSPost2010PropOp28
 70
     1
102
RTVSPost2010Prop29
280
     1
102
RTVSPost2010PropOp29
 70
     1
102
RTVSPost2010Prop30
280
     1
102
RTVSPost2010PropOp30
 70
     1
102
RTVSPost2010Prop31
280
     0
102
RTVSPost2010PropOp31
 70
     1
102
RTVSPost2010Prop32
280
     0
102
RTVSPost2010PropOp32
 70
     1
102
RTVSPost2010Prop33
280
     0
102
RTVSPost2010PropOp33
 70
     1
102
RTVSPost2010Prop34
280
     0
102
RTVSPost2010PropOp34
 70
     1
102
RTVSPost2010Prop35
280
     0
102
RTVSPost2010PropOp35
 70
     1
102
RTVSPost2010Prop36
280
     0
102
RTVSPost2010PropOp36
 70
     1
102
RTVSPost2010Prop37
 90
       50
102
RTVSPost2010PropOp37
 70
     1
102
RTVSPost2010Prop38
140
0.0
102
RTVSPost2010PropOp38
 70
     1
102
RTVSPost2010Prop39
140
1.0
102
RTVSPost2010PropOp39
 70
     1
102
RTVSPost2010Prop40
 90
        0
102
RTVSPost2010PropOp40
 70
     1
102
RTVSPost2010Prop41ColorIndex
 90
       18
102
RTVSPost2010Prop41ColorRGB
 90
        0
102
RTVSPost2010PropOp41
 70
     1
102
RTVSPost2010Prop42
 90
       50
102
RTVSPost2010PropOp42
 70
     1
102
RTVSPost2010Prop43
 90
        3
102
RTVSPost2010PropOp43
 70
     1
102
RTVSPost2010Prop44ColorIndex
 90
        5
102
RTVSPost2010Prop44ColorRGB
 90
      255
102
RTVSPost2010PropOp44
 70
     1
102
RTVSPost2010Prop45
280
     0
102
RTVSPost2010PropOp45
 70
     1
102
RTVSPost2010Prop46
 90
       50
102
RTVSPost2010PropOp46
 70
     1
102
RTVSPost2010Prop47
 90
       50
102
RTVSPost2010PropOp47
 70
     1
102
RTVSPost2010Prop48
 90
       50
102
RTVSPost2010PropOp48
 70
     1
102
RTVSPost2010Prop49
280
     0
102
RTVSPost2010PropOp49
 70
     1
102
RTVSPost2010Prop50
 90
       50
102
RTVSPost2010PropOp50
 70
     1
102
RTVSPost2010Prop51ColorIndex
 90
      256
102
RTVSPost2010Prop51ColorRGB
 90
-16777216
102
RTVSPost2010PropOp51
 70
     0
102
RTVSPost2010Prop52
140
1.0
102
RTVSPost2010PropOp52
 70
     0
102
RTVSPost2010Prop53
 90
        2
102
RTVSPost2010PropOp53
 70
     1
102
RTVSPost2010Prop54
  1
strokes_ogs.tif
102
RTVSPost2010PropOp54
 70
     1
102
RTVSPost2010Prop55
280
     0
102
RTVSPost2010PropOp55
 70
     1
102
RTVSPost2010Prop56
140
1.0
102
RTVSPost2010PropOp56
 70
     1
102
RTVSPost2010Prop57
140
1.0
102
RTVSPost2010PropOp57
 70
     1
  0
XRECORD
  5
14A
102
{ACAD_REACTORS
330
149
102
}
330
149
100
AcDbXrecord
280
     1
102
RTVSPropertyOp0
 70
     1
102
RTVSPropertyOp1
 70
     1
102
RTVSPropertyOp2
 70
     1
102
RTVSPropertyOp3
 70
     1
102
RTVSPropertyOp4
 70
     1
102
RTVSPropertyOp5
 70
     1
102
RTVSPropertyOp6
 70
     1
102
RTVSPropertyOp7
 70
     1
102
RTVSPropertyOp8
 70
     1
102
RTVSPropertyOp9
 70
     1
102
RTVSPropertyOp10
 70
     1
102
RTVSPropertyOp11
 70
     1
102
RTVSPropertyOp12
 70
     1
102
RTVSPropertyOp13
 70
     1
102
RTVSPropertyOp14
 70
     1
102
RTVSPropertyOp15
 70
     1
102
RTVSPropertyOp16
 70
     1
102
RTVSPropertyOp17
 70
     1
102
RTVSPropertyOp18
 70
     1
102
RTVSPropertyOp19
 70
     1
102
RTVSPropertyOp20
 70
     1
102
RTVSPropertyOp21
 70
     1
102
RTVSPropertyOp22
 70
     1
102
RTVSPropertyOp23
 70
     1
102
RTVSPropertyOp24
 70
     1
102
RTVSPropertyOp25
 70
     1
102
RTVSPropertyOp26
 70
     1
102
RTVSPropertyOp27
 70
     1
102
RTVSPropertyOp28
 70
     1
102
RTVSPropertyOp29
 70
     1
102
RTVSPropertyOp30
 70
     1
102
RTVSPropertyOp31
 70
     1
102
RTVSPropertyOp32
 70
     1
102
RTVSPropertyOp33
 70
     1
102
RTVSPropertyOp34
 70
     1
102
RTVSPropertyOp35
 70
     1
102
RTVSPropertyOp36
 70
     1
102
RTVSPropertyOp37
 70
     1
102
RTVSPropertyOp38
 70
     1
102
RTVSPropertyOp39
 70
     1
102
RTVSPropertyOp40
 70
     1
102
RTVSPropertyOp41
 70
     1
102
RTVSPropertyOp42
 70
     1
102
RTVSPropertyOp43
 70
     1
102
RTVSPropertyOp44
 70
     1
102
RTVSPropertyOp45
 70
     1
102
RTVSPropertyOp46
 70
     1
102
RTVSPropertyOp47
 70
     1
102
RTVSPropertyOp48
 70
     1
102
RTVSPropertyOp49
 70
     1
102
RTVSPropertyOp50
 70
     1
102
RTVSPropertyOp51
 70
     0
102
RTVSPropertyOp52
 70
     0
102
RTVSPropertyOp53
 70
     1
102
RTVSPropertyOp54
 70
     1
102
RTVSPropertyOp55
 70
     1
102
RTVSPropertyOp56
 70
     1
102
RTVSPropertyOp57
 70
     1
102
RTVSPost2010Prop28
280
     0
102
RTVSPost2010PropOp28
 70
     1
102
RTVSPost2010Prop29
280
     1
102
RTVSPost2010PropOp29
 70
     1
102
RTVSPost2010Prop30
280
     1
102
RTVSPost2010PropOp30
 70
     1
102
RTVSPost2010Prop31
280
     0
102
RTVSPost2010PropOp31
 70
     1
102
RTVSPost2010Prop32
280
     0
102
RTVSPost2010PropOp32
 70
     1
102
RTVSPost2010Prop33
280
     0
102
RTVSPost2010PropOp33
 70
     1
102
RTVSPost2010Prop34
280
     0
102
RTVSPost2010PropOp34
 70
     1
102
RTVSPost2010Prop35
280
     0
102
RTVSPost2010PropOp35
 70
     1
102
RTVSPost2010Prop36
280
     0
102
RTVSPost2010PropOp36
 70
     1
102
RTVSPost2010Prop37
 90
       50
102
RTVSPost2010PropOp37
 70
     1
102
RTVSPost2010Prop38
140
0.0
102
RTVSPost2010PropOp38
 70
     1
102
RTVSPost2010Prop39
140
1.0
102
RTVSPost2010PropOp39
 70
     1
102
RTVSPost2010Prop40
 90
        0
102
RTVSPost2010PropOp40
 70
     1
102
RTVSPost2010Prop41ColorIndex
 90
       18
102
RTVSPost2010Prop41ColorRGB
 90
        0
102
RTVSPost2010PropOp41
 70
     1
102
RTVSPost2010Prop42
 90
       50
102
RTVSPost2010PropOp42
 70
     1
102
RTVSPost2010Prop43
 90
        3
102
RTVSPost2010PropOp43
 70
     1
102
RTVSPost2010Prop44ColorIndex
 90
        5
102
RTVSPost2010Prop44ColorRGB
 90
      255
102
RTVSPost2010PropOp44
 70
     1
102
RTVSPost2010Prop45
280
     0
102
RTVSPost2010PropOp45
 70
     1
102
RTVSPost2010Prop46
 90
       50
102
RTVSPost2010PropOp46
 70
     1
102
RTVSPost2010Prop47
 90
       50
102
RTVSPost2010PropOp47
 70
     1
102
RTVSPost2010Prop48
 90
       50
102
RTVSPost2010PropOp48
 70
     1
102
RTVSPost2010Prop49
280
     0
102
RTVSPost2010PropOp49
 70
     1
102
RTVSPost2010Prop50
 90
       50
102
RTVSPost2010PropOp50
 70
     1
102
RTVSPost2010Prop51ColorIndex
 90
      256
102
RTVSPost2010Prop51ColorRGB
 90
-16777216
102
RTVSPost2010PropOp51
 70
     0
102
RTVSPost2010Prop52
140
1.0
102
RTVSPost2010PropOp52
 70
     0
102
RTVSPost2010Prop53
 90
        2
102
RTVSPost2010PropOp53
 70
     1
102
RTVSPost2010Prop54
  1
strokes_ogs.tif
102
RTVSPost2010PropOp54
 70
     1
102
RTVSPost2010Prop55
280
     0
102
RTVSPost2010PropOp55
 70
     1
102
RTVSPost2010Prop56
140
1.0
102
RTVSPost2010PropOp56
 70
     1
102
RTVSPost2010Prop57
140
1.0
102
RTVSPost2010PropOp57
 70
     1
  0
XRECORD
  5
152
102
{ACAD_REACTORS
330
151
102
}
330
151
100
AcDbXrecord
280
     1
102
RTVSPropertyOp0
 70
     1
102
RTVSPropertyOp1
 70
     1
102
RTVSPropertyOp2
 70
     1
102
RTVSPropertyOp3
 70
     1
102
RTVSPropertyOp4
 70
     1
102
RTVSPropertyOp5
 70
     1
102
RTVSPropertyOp6
 70
     1
102
RTVSPropertyOp7
 70
     1
102
RTVSPropertyOp8
 70
     1
102
RTVSPropertyOp9
 70
     1
102
RTVSPropertyOp10
 70
     1
102
RTVSPropertyOp11
 70
     1
102
RTVSPropertyOp12
 70
     1
102
RTVSPropertyOp13
 70
     1
102
RTVSPropertyOp14
 70
     1
102
RTVSPropertyOp15
 70
     1
102
RTVSPropertyOp16
 70
     1
102
RTVSPropertyOp17
 70
     1
102
RTVSPropertyOp18
 70
     1
102
RTVSPropertyOp19
 70
     1
102
RTVSPropertyOp20
 70
     1
102
RTVSPropertyOp21
 70
     1
102
RTVSPropertyOp22
 70
     1
102
RTVSPropertyOp23
 70
     1
102
RTVSPropertyOp24
 70
     1
102
RTVSPropertyOp25
 70
     1
102
RTVSPropertyOp26
 70
     1
102
RTVSPropertyOp27
 70
     1
102
RTVSPropertyOp28
 70
     1
102
RTVSPropertyOp29
 70
     1
102
RTVSPropertyOp30
 70
     1
102
RTVSPropertyOp31
 70
     1
102
RTVSPropertyOp32
 70
     1
102
RTVSPropertyOp33
 70
     1
102
RTVSPropertyOp34
 70
     1
102
RTVSPropertyOp35
 70
     1
102
RTVSPropertyOp36
 70
     1
102
RTVSPropertyOp37
 70
     1
102
RTVSPropertyOp38
 70
     1
102
RTVSPropertyOp39
 70
     1
102
RTVSPropertyOp40
 70
     1
102
RTVSPropertyOp41
 70
     1
102
RTVSPropertyOp42
 70
     1
102
RTVSPropertyOp43
 70
     1
102
RTVSPropertyOp44
 70
     1
102
RTVSPropertyOp45
 70
     1
102
RTVSPropertyOp46
 70
     1
102
RTVSPropertyOp47
 70
     1
102
RTVSPropertyOp48
 70
     1
102
RTVSPropertyOp49
 70
     1
102
RTVSPropertyOp50
 70
     1
102
RTVSPropertyOp51
 70
     0
102
RTVSPropertyOp52
 70
     0
102
RTVSPropertyOp53
 70
     1
102
RTVSPropertyOp54
 70
     1
102
RTVSPropertyOp55
 70
     1
102
RTVSPropertyOp56
 70
     1
102
RTVSPropertyOp57
 70
     1
102
RTVSPost2010Prop28
280
     0
102
RTVSPost2010PropOp28
 70
     1
102
RTVSPost2010Prop29
280
     1
102
RTVSPost2010PropOp29
 70
     1
102
RTVSPost2010Prop30
280
     1
102
RTVSPost2010PropOp30
 70
     1
102
RTVSPost2010Prop31
280
     0
102
RTVSPost2010PropOp31
 70
     1
102
RTVSPost2010Prop32
280
     0
102
RTVSPost2010PropOp32
 70
     1
102
RTVSPost2010Prop33
280
     0
102
RTVSPost2010PropOp33
 70
     1
102
RTVSPost2010Prop34
280
     0
102
RTVSPost2010PropOp34
 70
     1
102
RTVSPost2010Prop35
280
     0
102
RTVSPost2010PropOp35
 70
     1
102
RTVSPost2010Prop36
280
     0
102
RTVSPost2010PropOp36
 70
     1
102
RTVSPost2010Prop37
 90
       50
102
RTVSPost2010PropOp37
 70
     1
102
RTVSPost2010Prop38
140
0.0
102
RTVSPost2010PropOp38
 70
     1
102
RTVSPost2010Prop39
140
1.0
102
RTVSPost2010PropOp39
 70
     1
102
RTVSPost2010Prop40
 90
        0
102
RTVSPost2010PropOp40
 70
     1
102
RTVSPost2010Prop41ColorIndex
 90
       18
102
RTVSPost2010Prop41ColorRGB
 90
        0
102
RTVSPost2010PropOp41
 70
     1
102
RTVSPost2010Prop42
 90
       50
102
RTVSPost2010PropOp42
 70
     1
102
RTVSPost2010Prop43
 90
        3
102
RTVSPost2010PropOp43
 70
     1
102
RTVSPost2010Prop44ColorIndex
 90
        5
102
RTVSPost2010Prop44ColorRGB
 90
      255
102
RTVSPost2010PropOp44
 70
     1
102
RTVSPost2010Prop45
280
     0
102
RTVSPost2010PropOp45
 70
     1
102
RTVSPost2010Prop46
 90
       50
102
RTVSPost2010PropOp46
 70
     1
102
RTVSPost2010Prop47
 90
       50
102
RTVSPost2010PropOp47
 70
     1
102
RTVSPost2010Prop48
 90
       50
102
RTVSPost2010PropOp48
 70
     1
102
RTVSPost2010Prop49
280
     0
102
RTVSPost2010PropOp49
 70
     1
102
RTVSPost2010Prop50
 90
       50
102
RTVSPost2010PropOp50
 70
     1
102
RTVSPost2010Prop51ColorIndex
 90
      256
102
RTVSPost2010Prop51ColorRGB
 90
-16777216
102
RTVSPost2010PropOp51
 70
     0
102
RTVSPost2010Prop52
140
1.0
102
RTVSPost2010PropOp52
 70
     0
102
RTVSPost2010Prop53
 90
        2
102
RTVSPost2010PropOp53
 70
     1
102
RTVSPost2010Prop54
  1
strokes_ogs.tif
102
RTVSPost2010PropOp54
 70
     1
102
RTVSPost2010Prop55
280
     0
102
RTVSPost2010PropOp55
 70
     1
102
RTVSPost2010Prop56
140
1.0
102
RTVSPost2010PropOp56
 70
     1
102
RTVSPost2010Prop57
140
1.0
102
RTVSPost2010PropOp57
 70
     1
  0
XRECORD
  5
146
102
{ACAD_REACTORS
330
145
102
}
330
145
100
AcDbXrecord
280
     1
102
RTVSPropertyOp0
 70
     1
102
RTVSPropertyOp1
 70
     1
102
RTVSPropertyOp2
 70
     1
102
RTVSPropertyOp3
 70
     1
102
RTVSPropertyOp4
 70
     1
102
RTVSPropertyOp5
 70
     1
102
RTVSPropertyOp6
 70
     1
102
RTVSPropertyOp7
 70
     1
102
RTVSPropertyOp8
 70
     1
102
RTVSPropertyOp9
 70
     1
102
RTVSPropertyOp10
 70
     1
102
RTVSPropertyOp11
 70
     1
102
RTVSPropertyOp12
 70
     1
102
RTVSPropertyOp13
 70
     1
102
RTVSPropertyOp14
 70
     1
102
RTVSPropertyOp15
 70
     1
102
RTVSPropertyOp16
 70
     1
102
RTVSPropertyOp17
 70
     1
102
RTVSPropertyOp18
 70
     1
102
RTVSPropertyOp19
 70
     1
102
RTVSPropertyOp20
 70
     1
102
RTVSPropertyOp21
 70
     1
102
RTVSPropertyOp22
 70
     1
102
RTVSPropertyOp23
 70
     1
102
RTVSPropertyOp24
 70
     1
102
RTVSPropertyOp25
 70
     1
102
RTVSPropertyOp26
 70
     1
102
RTVSPropertyOp27
 70
     1
102
RTVSPropertyOp28
 70
     1
102
RTVSPropertyOp29
 70
     1
102
RTVSPropertyOp30
 70
     1
102
RTVSPropertyOp31
 70
     1
102
RTVSPropertyOp32
 70
     1
102
RTVSPropertyOp33
 70
     1
102
RTVSPropertyOp34
 70
     1
102
RTVSPropertyOp35
 70
     1
102
RTVSPropertyOp36
 70
     1
102
RTVSPropertyOp37
 70
     1
102
RTVSPropertyOp38
 70
     1
102
RTVSPropertyOp39
 70
     1
102
RTVSPropertyOp40
 70
     1
102
RTVSPropertyOp41
 70
     1
102
RTVSPropertyOp42
 70
     1
102
RTVSPropertyOp43
 70
     1
102
RTVSPropertyOp44
 70
     1
102
RTVSPropertyOp45
 70
     1
102
RTVSPropertyOp46
 70
     1
102
RTVSPropertyOp47
 70
     1
102
RTVSPropertyOp48
 70
     1
102
RTVSPropertyOp49
 70
     1
102
RTVSPropertyOp50
 70
     1
102
RTVSPropertyOp51
 70
     0
102
RTVSPropertyOp52
 70
     0
102
RTVSPropertyOp53
 70
     1
102
RTVSPropertyOp54
 70
     1
102
RTVSPropertyOp55
 70
     1
102
RTVSPropertyOp56
 70
     1
102
RTVSPropertyOp57
 70
     1
102
RTVSPost2010Prop28
280
     0
102
RTVSPost2010PropOp28
 70
     1
102
RTVSPost2010Prop29
280
     1
102
RTVSPost2010PropOp29
 70
     1
102
RTVSPost2010Prop30
280
     1
102
RTVSPost2010PropOp30
 70
     1
102
RTVSPost2010Prop31
280
     0
102
RTVSPost2010PropOp31
 70
     1
102
RTVSPost2010Prop32
280
     0
102
RTVSPost2010PropOp32
 70
     1
102
RTVSPost2010Prop33
280
     0
102
RTVSPost2010PropOp33
 70
     1
102
RTVSPost2010Prop34
280
     0
102
RTVSPost2010PropOp34
 70
     1
102
RTVSPost2010Prop35
280
     0
102
RTVSPost2010PropOp35
 70
     1
102
RTVSPost2010Prop36
280
     0
102
RTVSPost2010PropOp36
 70
     1
102
RTVSPost2010Prop37
 90
       50
102
RTVSPost2010PropOp37
 70
     1
102
RTVSPost2010Prop38
140
0.0
102
RTVSPost2010PropOp38
 70
     1
102
RTVSPost2010Prop39
140
1.0
102
RTVSPost2010PropOp39
 70
     1
102
RTVSPost2010Prop40
 90
        0
102
RTVSPost2010PropOp40
 70
     1
102
RTVSPost2010Prop41ColorIndex
 90
       18
102
RTVSPost2010Prop41ColorRGB
 90
        0
102
RTVSPost2010PropOp41
 70
     1
102
RTVSPost2010Prop42
 90
       50
102
RTVSPost2010PropOp42
 70
     1
102
RTVSPost2010Prop43
 90
        3
102
RTVSPost2010PropOp43
 70
     1
102
RTVSPost2010Prop44ColorIndex
 90
        5
102
RTVSPost2010Prop44ColorRGB
 90
      255
102
RTVSPost2010PropOp44
 70
     1
102
RTVSPost2010Prop45
280
     0
102
RTVSPost2010PropOp45
 70
     1
102
RTVSPost2010Prop46
 90
       50
102
RTVSPost2010PropOp46
 70
     1
102
RTVSPost2010Prop47
 90
       50
102
RTVSPost2010PropOp47
 70
     1
102
RTVSPost2010Prop48
 90
       50
102
RTVSPost2010PropOp48
 70
     1
102
RTVSPost2010Prop49
280
     0
102
RTVSPost2010PropOp49
 70
     1
102
RTVSPost2010Prop50
 90
       50
102
RTVSPost2010PropOp50
 70
     1
102
RTVSPost2010Prop51ColorIndex
 90
      256
102
RTVSPost2010Prop51ColorRGB
 90
-16777216
102
RTVSPost2010PropOp51
 70
     0
102
RTVSPost2010Prop52
140
1.0
102
RTVSPost2010PropOp52
 70
     0
102
RTVSPost2010Prop53
 90
        2
102
RTVSPost2010PropOp53
 70
     1
102
RTVSPost2010Prop54
  1
strokes_ogs.tif
102
RTVSPost2010PropOp54
 70
     1
102
RTVSPost2010Prop55
280
     0
102
RTVSPost2010PropOp55
 70
     1
102
RTVSPost2010Prop56
140
1.0
102
RTVSPost2010PropOp56
 70
     1
102
RTVSPost2010Prop57
140
1.0
102
RTVSPost2010PropOp57
 70
     1
  0
XRECORD
  5
148
102
{ACAD_REACTORS
330
147
102
}
330
147
100
AcDbXrecord
280
     1
102
RTVSPropertyOp0
 70
     1
102
RTVSPropertyOp1
 70
     1
102
RTVSPropertyOp2
 70
     1
102
RTVSPropertyOp3
 70
     1
102
RTVSPropertyOp4
 70
     1
102
RTVSPropertyOp5
 70
     1
102
RTVSPropertyOp6
 70
     1
102
RTVSPropertyOp7
 70
     1
102
RTVSPropertyOp8
 70
     1
102
RTVSPropertyOp9
 70
     1
102
RTVSPropertyOp10
 70
     1
102
RTVSPropertyOp11
 70
     1
102
RTVSPropertyOp12
 70
     1
102
RTVSPropertyOp13
 70
     1
102
RTVSPropertyOp14
 70
     1
102
RTVSPropertyOp15
 70
     1
102
RTVSPropertyOp16
 70
     1
102
RTVSPropertyOp17
 70
     1
102
RTVSPropertyOp18
 70
     1
102
RTVSPropertyOp19
 70
     1
102
RTVSPropertyOp20
 70
     1
102
RTVSPropertyOp21
 70
     1
102
RTVSPropertyOp22
 70
     1
102
RTVSPropertyOp23
 70
     1
102
RTVSPropertyOp24
 70
     1
102
RTVSPropertyOp25
 70
     1
102
RTVSPropertyOp26
 70
     1
102
RTVSPropertyOp27
 70
     1
102
RTVSPropertyOp28
 70
     1
102
RTVSPropertyOp29
 70
     1
102
RTVSPropertyOp30
 70
     1
102
RTVSPropertyOp31
 70
     1
102
RTVSPropertyOp32
 70
     1
102
RTVSPropertyOp33
 70
     1
102
RTVSPropertyOp34
 70
     1
102
RTVSPropertyOp35
 70
     1
102
RTVSPropertyOp36
 70
     1
102
RTVSPropertyOp37
 70
     1
102
RTVSPropertyOp38
 70
     1
102
RTVSPropertyOp39
 70
     1
102
RTVSPropertyOp40
 70
     1
102
RTVSPropertyOp41
 70
     1
102
RTVSPropertyOp42
 70
     1
102
RTVSPropertyOp43
 70
     1
102
RTVSPropertyOp44
 70
     1
102
RTVSPropertyOp45
 70
     1
102
RTVSPropertyOp46
 70
     1
102
RTVSPropertyOp47
 70
     1
102
RTVSPropertyOp48
 70
     1
102
RTVSPropertyOp49
 70
     1
102
RTVSPropertyOp50
 70
     1
102
RTVSPropertyOp51
 70
     0
102
RTVSPropertyOp52
 70
     0
102
RTVSPropertyOp53
 70
     1
102
RTVSPropertyOp54
 70
     1
102
RTVSPropertyOp55
 70
     1
102
RTVSPropertyOp56
 70
     1
102
RTVSPropertyOp57
 70
     1
102
RTVSPost2010Prop28
280
     0
102
RTVSPost2010PropOp28
 70
     1
102
RTVSPost2010Prop29
280
     1
102
RTVSPost2010PropOp29
 70
     1
102
RTVSPost2010Prop30
280
     1
102
RTVSPost2010PropOp30
 70
     1
102
RTVSPost2010Prop31
280
     0
102
RTVSPost2010PropOp31
 70
     1
102
RTVSPost2010Prop32
280
     0
102
RTVSPost2010PropOp32
 70
     1
102
RTVSPost2010Prop33
280
     0
102
RTVSPost2010PropOp33
 70
     1
102
RTVSPost2010Prop34
280
     0
102
RTVSPost2010PropOp34
 70
     1
102
RTVSPost2010Prop35
280
     0
102
RTVSPost2010PropOp35
 70
     1
102
RTVSPost2010Prop36
280
     0
102
RTVSPost2010PropOp36
 70
     1
102
RTVSPost2010Prop37
 90
       50
102
RTVSPost2010PropOp37
 70
     1
102
RTVSPost2010Prop38
140
0.0
102
RTVSPost2010PropOp38
 70
     1
102
RTVSPost2010Prop39
140
1.0
102
RTVSPost2010PropOp39
 70
     1
102
RTVSPost2010Prop40
 90
        0
102
RTVSPost2010PropOp40
 70
     1
102
RTVSPost2010Prop41ColorIndex
 90
       18
102
RTVSPost2010Prop41ColorRGB
 90
        0
102
RTVSPost2010PropOp41
 70
     1
102
RTVSPost2010Prop42
 90
       50
102
RTVSPost2010PropOp42
 70
     1
102
RTVSPost2010Prop43
 90
        3
102
RTVSPost2010PropOp43
 70
     1
102
RTVSPost2010Prop44ColorIndex
 90
        5
102
RTVSPost2010Prop44ColorRGB
 90
      255
102
RTVSPost2010PropOp44
 70
     1
102
RTVSPost2010Prop45
280
     0
102
RTVSPost2010PropOp45
 70
     1
102
RTVSPost2010Prop46
 90
       50
102
RTVSPost2010PropOp46
 70
     1
102
RTVSPost2010Prop47
 90
       50
102
RTVSPost2010PropOp47
 70
     1
102
RTVSPost2010Prop48
 90
       50
102
RTVSPost2010PropOp48
 70
     1
102
RTVSPost2010Prop49
280
     0
102
RTVSPost2010PropOp49
 70
     1
102
RTVSPost2010Prop50
 90
       50
102
RTVSPost2010PropOp50
 70
     1
102
RTVSPost2010Prop51ColorIndex
 90
      256
102
RTVSPost2010Prop51ColorRGB
 90
-16777216
102
RTVSPost2010PropOp51
 70
     0
102
RTVSPost2010Prop52
140
1.0
102
RTVSPost2010PropOp52
 70
     0
102
RTVSPost2010Prop53
 90
        2
102
RTVSPost2010PropOp53
 70
     1
102
RTVSPost2010Prop54
  1
strokes_ogs.tif
102
RTVSPost2010PropOp54
 70
     1
102
RTVSPost2010Prop55
280
     0
102
RTVSPost2010PropOp55
 70
     1
102
RTVSPost2010Prop56
140
1.0
102
RTVSPost2010PropOp56
 70
     1
102
RTVSPost2010Prop57
140
1.0
102
RTVSPost2010PropOp57
 70
     1
  0
XRECORD
  5
158
102
{ACAD_REACTORS
330
157
102
}
330
157
100
AcDbXrecord
280
     1
102
RTVSPropertyOp0
 70
     0
102
RTVSPropertyOp1
 70
     0
102
RTVSPropertyOp2
 70
     0
102
RTVSPropertyOp3
 70
     0
102
RTVSPropertyOp4
 70
     0
102
RTVSPropertyOp5
 70
     0
102
RTVSPropertyOp6
 70
     0
102
RTVSPropertyOp7
 70
     0
102
RTVSPropertyOp8
 70
     0
102
RTVSPropertyOp9
 70
     0
102
RTVSPropertyOp10
 70
     0
102
RTVSPropertyOp11
 70
     0
102
RTVSPropertyOp12
 70
     0
102
RTVSPropertyOp13
 70
     0
102
RTVSPropertyOp14
 70
     2
102
RTVSPropertyOp15
 70
     0
102
RTVSPropertyOp16
 70
     0
102
RTVSPropertyOp17
 70
     0
102
RTVSPropertyOp18
 70
     0
102
RTVSPropertyOp19
 70
     0
102
RTVSPropertyOp20
 70
     0
102
RTVSPropertyOp21
 70
     0
102
RTVSPropertyOp22
 70
     0
102
RTVSPropertyOp23
 70
     0
102
RTVSPropertyOp24
 70
     0
102
RTVSPropertyOp25
 70
     0
102
RTVSPropertyOp26
 70
     0
102
RTVSPropertyOp27
 70
     0
102
RTVSPropertyOp28
 70
     0
102
RTVSPropertyOp29
 70
     0
102
RTVSPropertyOp30
 70
     0
102
RTVSPropertyOp31
 70
     0
102
RTVSPropertyOp32
 70
     0
102
RTVSPropertyOp33
 70
     0
102
RTVSPropertyOp34
 70
     0
102
RTVSPropertyOp35
 70
     0
102
RTVSPropertyOp36
 70
     0
102
RTVSPropertyOp37
 70
     0
102
RTVSPropertyOp38
 70
     0
102
RTVSPropertyOp39
 70
     0
102
RTVSPropertyOp40
 70
     0
102
RTVSPropertyOp41
 70
     0
102
RTVSPropertyOp42
 70
     0
102
RTVSPropertyOp43
 70
     0
102
RTVSPropertyOp44
 70
     0
102
RTVSPropertyOp45
 70
     0
102
RTVSPropertyOp46
 70
     0
102
RTVSPropertyOp47
 70
     0
102
RTVSPropertyOp48
 70
     0
102
RTVSPropertyOp49
 70
     0
102
RTVSPropertyOp50
 70
     0
102
RTVSPropertyOp51
 70
     0
102
RTVSPropertyOp52
 70
     0
102
RTVSPropertyOp53
 70
     0
102
RTVSPropertyOp54
 70
     0
102
RTVSPropertyOp55
 70
     0
102
RTVSPropertyOp56
 70
     0
102
RTVSPropertyOp57
 70
     0
102
RTVSPost2010Prop28
280
     0
102
RTVSPost2010PropOp28
 70
     0
102
RTVSPost2010Prop29
280
     1
102
RTVSPost2010PropOp29
 70
     0
102
RTVSPost2010Prop30
280
     1
102
RTVSPost2010PropOp30
 70
     0
102
RTVSPost2010Prop31
280
     0
102
RTVSPost2010PropOp31
 70
     0
102
RTVSPost2010Prop32
280
     0
102
RTVSPost2010PropOp32
 70
     0
102
RTVSPost2010Prop33
280
     0
102
RTVSPost2010PropOp33
 70
     0
102
RTVSPost2010Prop34
280
     0
102
RTVSPost2010PropOp34
 70
     0
102
RTVSPost2010Prop35
280
     0
102
RTVSPost2010PropOp35
 70
     0
102
RTVSPost2010Prop36
280
     0
102
RTVSPost2010PropOp36
 70
     0
102
RTVSPost2010Prop37
 90
       50
102
RTVSPost2010PropOp37
 70
     0
102
RTVSPost2010Prop38
140
0.0
102
RTVSPost2010PropOp38
 70
     0
102
RTVSPost2010Prop39
140
1.0
102
RTVSPost2010PropOp39
 70
     0
102
RTVSPost2010Prop40
 90
        0
102
RTVSPost2010PropOp40
 70
     0
102
RTVSPost2010Prop41ColorIndex
 90
       18
102
RTVSPost2010Prop41ColorRGB
 90
        0
102
RTVSPost2010PropOp41
 70
     0
102
RTVSPost2010Prop42
 90
       50
102
RTVSPost2010PropOp42
 70
     0
102
RTVSPost2010Prop43
 90
        3
102
RTVSPost2010PropOp43
 70
     0
102
RTVSPost2010Prop44ColorIndex
 90
        5
102
RTVSPost2010Prop44ColorRGB
 90
      255
102
RTVSPost2010PropOp44
 70
     0
102
RTVSPost2010Prop45
280
     0
102
RTVSPost2010PropOp45
 70
     0
102
RTVSPost2010Prop46
 90
       50
102
RTVSPost2010PropOp46
 70
     0
102
RTVSPost2010Prop47
 90
       50
102
RTVSPost2010PropOp47
 70
     0
102
RTVSPost2010Prop48
 90
       50
102
RTVSPost2010PropOp48
 70
     0
102
RTVSPost2010Prop49
280
     0
102
RTVSPost2010PropOp49
 70
     0
102
RTVSPost2010Prop50
 90
       50
102
RTVSPost2010PropOp50
 70
     0
102
RTVSPost2010Prop51ColorIndex
 90
      256
102
RTVSPost2010Prop51ColorRGB
 90
-16777216
102
RTVSPost2010PropOp51
 70
     0
102
RTVSPost2010Prop52
140
1.0
102
RTVSPost2010PropOp52
 70
     0
102
RTVSPost2010Prop53
 90
        2
102
RTVSPost2010PropOp53
 70
     0
102
RTVSPost2010Prop54
  1
strokes_ogs.tif
102
RTVSPost2010PropOp54
 70
     0
102
RTVSPost2010Prop55
280
     0
102
RTVSPost2010PropOp55
 70
     0
102
RTVSPost2010Prop56
140
1.0
102
RTVSPost2010PropOp56
 70
     0
102
RTVSPost2010Prop57
140
1.0
102
RTVSPost2010PropOp57
 70
     0
  0
XRECORD
  5
150
102
{ACAD_REACTORS
330
14F
102
}
330
14F
100
AcDbXrecord
280
     1
102
RTVSPropertyOp0
 70
     1
102
RTVSPropertyOp1
 70
     1
102
RTVSPropertyOp2
 70
     1
102
RTVSPropertyOp3
 70
     1
102
RTVSPropertyOp4
 70
     1
102
RTVSPropertyOp5
 70
     1
102
RTVSPropertyOp6
 70
     1
102
RTVSPropertyOp7
 70
     1
102
RTVSPropertyOp8
 70
     1
102
RTVSPropertyOp9
 70
     1
102
RTVSPropertyOp10
 70
     1
102
RTVSPropertyOp11
 70
     1
102
RTVSPropertyOp12
 70
     1
102
RTVSPropertyOp13
 70
     1
102
RTVSPropertyOp14
 70
     1
102
RTVSPropertyOp15
 70
     1
102
RTVSPropertyOp16
 70
     1
102
RTVSPropertyOp17
 70
     1
102
RTVSPropertyOp18
 70
     1
102
RTVSPropertyOp19
 70
     1
102
RTVSPropertyOp20
 70
     1
102
RTVSPropertyOp21
 70
     1
102
RTVSPropertyOp22
 70
     1
102
RTVSPropertyOp23
 70
     1
102
RTVSPropertyOp24
 70
     1
102
RTVSPropertyOp25
 70
     1
102
RTVSPropertyOp26
 70
     1
102
RTVSPropertyOp27
 70
     1
102
RTVSPropertyOp28
 70
     1
102
RTVSPropertyOp29
 70
     1
102
RTVSPropertyOp30
 70
     1
102
RTVSPropertyOp31
 70
     1
102
RTVSPropertyOp32
 70
     1
102
RTVSPropertyOp33
 70
     1
102
RTVSPropertyOp34
 70
     1
102
RTVSPropertyOp35
 70
     1
102
RTVSPropertyOp36
 70
     1
102
RTVSPropertyOp37
 70
     1
102
RTVSPropertyOp38
 70
     1
102
RTVSPropertyOp39
 70
     1
102
RTVSPropertyOp40
 70
     1
102
RTVSPropertyOp41
 70
     1
102
RTVSPropertyOp42
 70
     1
102
RTVSPropertyOp43
 70
     1
102
RTVSPropertyOp44
 70
     1
102
RTVSPropertyOp45
 70
     1
102
RTVSPropertyOp46
 70
     1
102
RTVSPropertyOp47
 70
     1
102
RTVSPropertyOp48
 70
     1
102
RTVSPropertyOp49
 70
     1
102
RTVSPropertyOp50
 70
     1
102
RTVSPropertyOp51
 70
     0
102
RTVSPropertyOp52
 70
     0
102
RTVSPropertyOp53
 70
     1
102
RTVSPropertyOp54
 70
     1
102
RTVSPropertyOp55
 70
     1
102
RTVSPropertyOp56
 70
     1
102
RTVSPropertyOp57
 70
     1
102
RTVSPost2010Prop28
280
     0
102
RTVSPost2010PropOp28
 70
     1
102
RTVSPost2010Prop29
280
     1
102
RTVSPost2010PropOp29
 70
     1
102
RTVSPost2010Prop30
280
     1
102
RTVSPost2010PropOp30
 70
     1
102
RTVSPost2010Prop31
280
     0
102
RTVSPost2010PropOp31
 70
     1
102
RTVSPost2010Prop32
280
     0
102
RTVSPost2010PropOp32
 70
     1
102
RTVSPost2010Prop33
280
     0
102
RTVSPost2010PropOp33
 70
     1
102
RTVSPost2010Prop34
280
     0
102
RTVSPost2010PropOp34
 70
     1
102
RTVSPost2010Prop35
280
     0
102
RTVSPost2010PropOp35
 70
     1
102
RTVSPost2010Prop36
280
     0
102
RTVSPost2010PropOp36
 70
     1
102
RTVSPost2010Prop37
 90
       50
102
RTVSPost2010PropOp37
 70
     1
102
RTVSPost2010Prop38
140
0.0
102
RTVSPost2010PropOp38
 70
     1
102
RTVSPost2010Prop39
140
1.0
102
RTVSPost2010PropOp39
 70
     1
102
RTVSPost2010Prop40
 90
        0
102
RTVSPost2010PropOp40
 70
     1
102
RTVSPost2010Prop41ColorIndex
 90
       18
102
RTVSPost2010Prop41ColorRGB
 90
        0
102
RTVSPost2010PropOp41
 70
     1
102
RTVSPost2010Prop42
 90
       50
102
RTVSPost2010PropOp42
 70
     1
102
RTVSPost2010Prop43
 90
        3
102
RTVSPost2010PropOp43
 70
     1
102
RTVSPost2010Prop44ColorIndex
 90
        5
102
RTVSPost2010Prop44ColorRGB
 90
      255
102
RTVSPost2010PropOp44
 70
     1
102
RTVSPost2010Prop45
280
     0
102
RTVSPost2010PropOp45
 70
     1
102
RTVSPost2010Prop46
 90
       50
102
RTVSPost2010PropOp46
 70
     1
102
RTVSPost2010Prop47
 90
       50
102
RTVSPost2010PropOp47
 70
     1
102
RTVSPost2010Prop48
 90
       50
102
RTVSPost2010PropOp48
 70
     1
102
RTVSPost2010Prop49
280
     0
102
RTVSPost2010PropOp49
 70
     1
102
RTVSPost2010Prop50
 90
       50
102
RTVSPost2010PropOp50
 70
     1
102
RTVSPost2010Prop51ColorIndex
 90
      256
102
RTVSPost2010Prop51ColorRGB
 90
-16777216
102
RTVSPost2010PropOp51
 70
     0
102
RTVSPost2010Prop52
140
1.0
102
RTVSPost2010PropOp52
 70
     0
102
RTVSPost2010Prop53
 90
        2
102
RTVSPost2010PropOp53
 70
     1
102
RTVSPost2010Prop54
  1
strokes_ogs.tif
102
RTVSPost2010PropOp54
 70
     1
102
RTVSPost2010Prop55
280
     0
102
RTVSPost2010PropOp55
 70
     1
102
RTVSPost2010Prop56
140
1.0
102
RTVSPost2010PropOp56
 70
     1
102
RTVSPost2010Prop57
140
1.0
102
RTVSPost2010PropOp57
 70
     1
  0
XRECORD
  5
134
102
{ACAD_REACTORS
330
133
102
}
330
133
100
AcDbXrecord
280
     1
102
RTVSPropertyOp0
 70
     1
102
RTVSPropertyOp1
 70
     1
102
RTVSPropertyOp2
 70
     1
102
RTVSPropertyOp3
 70
     1
102
RTVSPropertyOp4
 70
     1
102
RTVSPropertyOp5
 70
     1
102
RTVSPropertyOp6
 70
     1
102
RTVSPropertyOp7
 70
     1
102
RTVSPropertyOp8
 70
     1
102
RTVSPropertyOp9
 70
     1
102
RTVSPropertyOp10
 70
     1
102
RTVSPropertyOp11
 70
     1
102
RTVSPropertyOp12
 70
     1
102
RTVSPropertyOp13
 70
     1
102
RTVSPropertyOp14
 70
     1
102
RTVSPropertyOp15
 70
     1
102
RTVSPropertyOp16
 70
     1
102
RTVSPropertyOp17
 70
     1
102
RTVSPropertyOp18
 70
     1
102
RTVSPropertyOp19
 70
     1
102
RTVSPropertyOp20
 70
     1
102
RTVSPropertyOp21
 70
     1
102
RTVSPropertyOp22
 70
     1
102
RTVSPropertyOp23
 70
     1
102
RTVSPropertyOp24
 70
     1
102
RTVSPropertyOp25
 70
     1
102
RTVSPropertyOp26
 70
     1
102
RTVSPropertyOp27
 70
     1
102
RTVSPropertyOp28
 70
     1
102
RTVSPropertyOp29
 70
     1
102
RTVSPropertyOp30
 70
     1
102
RTVSPropertyOp31
 70
     1
102
RTVSPropertyOp32
 70
     1
102
RTVSPropertyOp33
 70
     1
102
RTVSPropertyOp34
 70
     1
102
RTVSPropertyOp35
 70
     1
102
RTVSPropertyOp36
 70
     1
102
RTVSPropertyOp37
 70
     1
102
RTVSPropertyOp38
 70
     1
102
RTVSPropertyOp39
 70
     1
102
RTVSPropertyOp40
 70
     1
102
RTVSPropertyOp41
 70
     1
102
RTVSPropertyOp42
 70
     1
102
RTVSPropertyOp43
 70
     1
102
RTVSPropertyOp44
 70
     1
102
RTVSPropertyOp45
 70
     1
102
RTVSPropertyOp46
 70
     1
102
RTVSPropertyOp47
 70
     1
102
RTVSPropertyOp48
 70
     1
102
RTVSPropertyOp49
 70
     1
102
RTVSPropertyOp50
 70
     1
102
RTVSPropertyOp51
 70
     0
102
RTVSPropertyOp52
 70
     0
102
RTVSPropertyOp53
 70
     1
102
RTVSPropertyOp54
 70
     1
102
RTVSPropertyOp55
 70
     1
102
RTVSPropertyOp56
 70
     1
102
RTVSPropertyOp57
 70
     1
102
RTVSPost2010Prop28
280
     0
102
RTVSPost2010PropOp28
 70
     1
102
RTVSPost2010Prop29
280
     1
102
RTVSPost2010PropOp29
 70
     1
102
RTVSPost2010Prop30
280
     1
102
RTVSPost2010PropOp30
 70
     1
102
RTVSPost2010Prop31
280
     0
102
RTVSPost2010PropOp31
 70
     1
102
RTVSPost2010Prop32
280
     0
102
RTVSPost2010PropOp32
 70
     1
102
RTVSPost2010Prop33
280
     0
102
RTVSPost2010PropOp33
 70
     1
102
RTVSPost2010Prop34
280
     0
102
RTVSPost2010PropOp34
 70
     1
102
RTVSPost2010Prop35
280
     0
102
RTVSPost2010PropOp35
 70
     1
102
RTVSPost2010Prop36
280
     0
102
RTVSPost2010PropOp36
 70
     1
102
RTVSPost2010Prop37
 90
       50
102
RTVSPost2010PropOp37
 70
     1
102
RTVSPost2010Prop38
140
0.0
102
RTVSPost2010PropOp38
 70
     1
102
RTVSPost2010Prop39
140
1.0
102
RTVSPost2010PropOp39
 70
     1
102
RTVSPost2010Prop40
 90
        0
102
RTVSPost2010PropOp40
 70
     1
102
RTVSPost2010Prop41ColorIndex
 90
       18
102
RTVSPost2010Prop41ColorRGB
 90
        0
102
RTVSPost2010PropOp41
 70
     1
102
RTVSPost2010Prop42
 90
       50
102
RTVSPost2010PropOp42
 70
     1
102
RTVSPost2010Prop43
 90
        3
102
RTVSPost2010PropOp43
 70
     1
102
RTVSPost2010Prop44ColorIndex
 90
        5
102
RTVSPost2010Prop44ColorRGB
 90
      255
102
RTVSPost2010PropOp44
 70
     1
102
RTVSPost2010Prop45
280
     0
102
RTVSPost2010PropOp45
 70
     1
102
RTVSPost2010Prop46
 90
       50
102
RTVSPost2010PropOp46
 70
     1
102
RTVSPost2010Prop47
 90
       50
102
RTVSPost2010PropOp47
 70
     1
102
RTVSPost2010Prop48
 90
       50
102
RTVSPost2010PropOp48
 70
     1
102
RTVSPost2010Prop49
280
     0
102
RTVSPost2010PropOp49
 70
     1
102
RTVSPost2010Prop50
 90
       50
102
RTVSPost2010PropOp50
 70
     1
102
RTVSPost2010Prop51ColorIndex
 90
      256
102
RTVSPost2010Prop51ColorRGB
 90
-16777216
102
RTVSPost2010PropOp51
 70
     0
102
RTVSPost2010Prop52
140
1.0
102
RTVSPost2010PropOp52
 70
     0
102
RTVSPost2010Prop53
 90
        2
102
RTVSPost2010PropOp53
 70
     1
102
RTVSPost2010Prop54
  1
strokes_ogs.tif
102
RTVSPost2010PropOp54
 70
     1
102
RTVSPost2010Prop55
280
     0
102
RTVSPost2010PropOp55
 70
     1
102
RTVSPost2010Prop56
140
1.0
102
RTVSPost2010PropOp56
 70
     1
102
RTVSPost2010Prop57
140
1.0
102
RTVSPost2010PropOp57
 70
     1
  0
XRECORD
  5
136
102
{ACAD_REACTORS
330
135
102
}
330
135
100
AcDbXrecord
280
     1
102
RTVSPropertyOp0
 70
     1
102
RTVSPropertyOp1
 70
     1
102
RTVSPropertyOp2
 70
     1
102
RTVSPropertyOp3
 70
     1
102
RTVSPropertyOp4
 70
     1
102
RTVSPropertyOp5
 70
     1
102
RTVSPropertyOp6
 70
     1
102
RTVSPropertyOp7
 70
     1
102
RTVSPropertyOp8
 70
     1
102
RTVSPropertyOp9
 70
     1
102
RTVSPropertyOp10
 70
     1
102
RTVSPropertyOp11
 70
     1
102
RTVSPropertyOp12
 70
     1
102
RTVSPropertyOp13
 70
     1
102
RTVSPropertyOp14
 70
     1
102
RTVSPropertyOp15
 70
     1
102
RTVSPropertyOp16
 70
     1
102
RTVSPropertyOp17
 70
     1
102
RTVSPropertyOp18
 70
     1
102
RTVSPropertyOp19
 70
     1
102
RTVSPropertyOp20
 70
     1
102
RTVSPropertyOp21
 70
     1
102
RTVSPropertyOp22
 70
     1
102
RTVSPropertyOp23
 70
     1
102
RTVSPropertyOp24
 70
     1
102
RTVSPropertyOp25
 70
     1
102
RTVSPropertyOp26
 70
     1
102
RTVSPropertyOp27
 70
     1
102
RTVSPropertyOp28
 70
     1
102
RTVSPropertyOp29
 70
     1
102
RTVSPropertyOp30
 70
     1
102
RTVSPropertyOp31
 70
     1
102
RTVSPropertyOp32
 70
     1
102
RTVSPropertyOp33
 70
     1
102
RTVSPropertyOp34
 70
     1
102
RTVSPropertyOp35
 70
     1
102
RTVSPropertyOp36
 70
     1
102
RTVSPropertyOp37
 70
     1
102
RTVSPropertyOp38
 70
     1
102
RTVSPropertyOp39
 70
     1
102
RTVSPropertyOp40
 70
     1
102
RTVSPropertyOp41
 70
     1
102
RTVSPropertyOp42
 70
     1
102
RTVSPropertyOp43
 70
     1
102
RTVSPropertyOp44
 70
     1
102
RTVSPropertyOp45
 70
     1
102
RTVSPropertyOp46
 70
     1
102
RTVSPropertyOp47
 70
     1
102
RTVSPropertyOp48
 70
     1
102
RTVSPropertyOp49
 70
     1
102
RTVSPropertyOp50
 70
     1
102
RTVSPropertyOp51
 70
     0
102
RTVSPropertyOp52
 70
     0
102
RTVSPropertyOp53
 70
     1
102
RTVSPropertyOp54
 70
     1
102
RTVSPropertyOp55
 70
     1
102
RTVSPropertyOp56
 70
     1
102
RTVSPropertyOp57
 70
     1
102
RTVSPost2010Prop28
280
     0
102
RTVSPost2010PropOp28
 70
     1
102
RTVSPost2010Prop29
280
     1
102
RTVSPost2010PropOp29
 70
     1
102
RTVSPost2010Prop30
280
     1
102
RTVSPost2010PropOp30
 70
     1
102
RTVSPost2010Prop31
280
     0
102
RTVSPost2010PropOp31
 70
     1
102
RTVSPost2010Prop32
280
     0
102
RTVSPost2010PropOp32
 70
     1
102
RTVSPost2010Prop33
280
     0
102
RTVSPost2010PropOp33
 70
     1
102
RTVSPost2010Prop34
280
     0
102
RTVSPost2010PropOp34
 70
     1
102
RTVSPost2010Prop35
280
     0
102
RTVSPost2010PropOp35
 70
     1
102
RTVSPost2010Prop36
280
     0
102
RTVSPost2010PropOp36
 70
     1
102
RTVSPost2010Prop37
 90
       50
102
RTVSPost2010PropOp37
 70
     1
102
RTVSPost2010Prop38
140
0.0
102
RTVSPost2010PropOp38
 70
     1
102
RTVSPost2010Prop39
140
1.0
102
RTVSPost2010PropOp39
 70
     1
102
RTVSPost2010Prop40
 90
        0
102
RTVSPost2010PropOp40
 70
     1
102
RTVSPost2010Prop41ColorIndex
 90
       18
102
RTVSPost2010Prop41ColorRGB
 90
        0
102
RTVSPost2010PropOp41
 70
     1
102
RTVSPost2010Prop42
 90
       50
102
RTVSPost2010PropOp42
 70
     1
102
RTVSPost2010Prop43
 90
        3
102
RTVSPost2010PropOp43
 70
     1
102
RTVSPost2010Prop44ColorIndex
 90
        5
102
RTVSPost2010Prop44ColorRGB
 90
      255
102
RTVSPost2010PropOp44
 70
     1
102
RTVSPost2010Prop45
280
     0
102
RTVSPost2010PropOp45
 70
     1
102
RTVSPost2010Prop46
 90
       50
102
RTVSPost2010PropOp46
 70
     1
102
RTVSPost2010Prop47
 90
       50
102
RTVSPost2010PropOp47
 70
     1
102
RTVSPost2010Prop48
 90
       50
102
RTVSPost2010PropOp48
 70
     1
102
RTVSPost2010Prop49
280
     0
102
RTVSPost2010PropOp49
 70
     1
102
RTVSPost2010Prop50
 90
       50
102
RTVSPost2010PropOp50
 70
     1
102
RTVSPost2010Prop51ColorIndex
 90
      256
102
RTVSPost2010Prop51ColorRGB
 90
-16777216
102
RTVSPost2010PropOp51
 70
     0
102
RTVSPost2010Prop52
140
1.0
102
RTVSPost2010PropOp52
 70
     0
102
RTVSPost2010Prop53
 90
        2
102
RTVSPost2010PropOp53
 70
     1
102
RTVSPost2010Prop54
  1
strokes_ogs.tif
102
RTVSPost2010PropOp54
 70
     1
102
RTVSPost2010Prop55
280
     0
102
RTVSPost2010PropOp55
 70
     1
102
RTVSPost2010Prop56
140
1.0
102
RTVSPost2010PropOp56
 70
     1
102
RTVSPost2010Prop57
140
1.0
102
RTVSPost2010PropOp57
 70
     1
  0
XRECORD
  5
138
102
{ACAD_REACTORS
330
137
102
}
330
137
100
AcDbXrecord
280
     1
102
RTVSPropertyOp0
 70
     1
102
RTVSPropertyOp1
 70
     1
102
RTVSPropertyOp2
 70
     1
102
RTVSPropertyOp3
 70
     1
102
RTVSPropertyOp4
 70
     1
102
RTVSPropertyOp5
 70
     1
102
RTVSPropertyOp6
 70
     1
102
RTVSPropertyOp7
 70
     1
102
RTVSPropertyOp8
 70
     1
102
RTVSPropertyOp9
 70
     1
102
RTVSPropertyOp10
 70
     1
102
RTVSPropertyOp11
 70
     1
102
RTVSPropertyOp12
 70
     1
102
RTVSPropertyOp13
 70
     1
102
RTVSPropertyOp14
 70
     1
102
RTVSPropertyOp15
 70
     1
102
RTVSPropertyOp16
 70
     1
102
RTVSPropertyOp17
 70
     1
102
RTVSPropertyOp18
 70
     1
102
RTVSPropertyOp19
 70
     1
102
RTVSPropertyOp20
 70
     1
102
RTVSPropertyOp21
 70
     1
102
RTVSPropertyOp22
 70
     1
102
RTVSPropertyOp23
 70
     1
102
RTVSPropertyOp24
 70
     1
102
RTVSPropertyOp25
 70
     1
102
RTVSPropertyOp26
 70
     1
102
RTVSPropertyOp27
 70
     1
102
RTVSPropertyOp28
 70
     1
102
RTVSPropertyOp29
 70
     1
102
RTVSPropertyOp30
 70
     1
102
RTVSPropertyOp31
 70
     1
102
RTVSPropertyOp32
 70
     1
102
RTVSPropertyOp33
 70
     1
102
RTVSPropertyOp34
 70
     1
102
RTVSPropertyOp35
 70
     1
102
RTVSPropertyOp36
 70
     1
102
RTVSPropertyOp37
 70
     1
102
RTVSPropertyOp38
 70
     1
102
RTVSPropertyOp39
 70
     1
102
RTVSPropertyOp40
 70
     1
102
RTVSPropertyOp41
 70
     1
102
RTVSPropertyOp42
 70
     1
102
RTVSPropertyOp43
 70
     1
102
RTVSPropertyOp44
 70
     1
102
RTVSPropertyOp45
 70
     1
102
RTVSPropertyOp46
 70
     1
102
RTVSPropertyOp47
 70
     1
102
RTVSPropertyOp48
 70
     1
102
RTVSPropertyOp49
 70
     1
102
RTVSPropertyOp50
 70
     1
102
RTVSPropertyOp51
 70
     0
102
RTVSPropertyOp52
 70
     0
102
RTVSPropertyOp53
 70
     1
102
RTVSPropertyOp54
 70
     1
102
RTVSPropertyOp55
 70
     1
102
RTVSPropertyOp56
 70
     1
102
RTVSPropertyOp57
 70
     1
102
RTVSPost2010Prop28
280
     0
102
RTVSPost2010PropOp28
 70
     1
102
RTVSPost2010Prop29
280
     1
102
RTVSPost2010PropOp29
 70
     1
102
RTVSPost2010Prop30
280
     1
102
RTVSPost2010PropOp30
 70
     1
102
RTVSPost2010Prop31
280
     0
102
RTVSPost2010PropOp31
 70
     1
102
RTVSPost2010Prop32
280
     0
102
RTVSPost2010PropOp32
 70
     1
102
RTVSPost2010Prop33
280
     0
102
RTVSPost2010PropOp33
 70
     1
102
RTVSPost2010Prop34
280
     0
102
RTVSPost2010PropOp34
 70
     1
102
RTVSPost2010Prop35
280
     0
102
RTVSPost2010PropOp35
 70
     1
102
RTVSPost2010Prop36
280
     0
102
RTVSPost2010PropOp36
 70
     1
102
RTVSPost2010Prop37
 90
       50
102
RTVSPost2010PropOp37
 70
     1
102
RTVSPost2010Prop38
140
0.0
102
RTVSPost2010PropOp38
 70
     1
102
RTVSPost2010Prop39
140
1.0
102
RTVSPost2010PropOp39
 70
     1
102
RTVSPost2010Prop40
 90
        0
102
RTVSPost2010PropOp40
 70
     1
102
RTVSPost2010Prop41ColorIndex
 90
       18
102
RTVSPost2010Prop41ColorRGB
 90
        0
102
RTVSPost2010PropOp41
 70
     1
102
RTVSPost2010Prop42
 90
       50
102
RTVSPost2010PropOp42
 70
     1
102
RTVSPost2010Prop43
 90
        3
102
RTVSPost2010PropOp43
 70
     1
102
RTVSPost2010Prop44ColorIndex
 90
        5
102
RTVSPost2010Prop44ColorRGB
 90
      255
102
RTVSPost2010PropOp44
 70
     1
102
RTVSPost2010Prop45
280
     0
102
RTVSPost2010PropOp45
 70
     1
102
RTVSPost2010Prop46
 90
       50
102
RTVSPost2010PropOp46
 70
     1
102
RTVSPost2010Prop47
 90
       50
102
RTVSPost2010PropOp47
 70
     1
102
RTVSPost2010Prop48
 90
       50
102
RTVSPost2010PropOp48
 70
     1
102
RTVSPost2010Prop49
280
     0
102
RTVSPost2010PropOp49
 70
     1
102
RTVSPost2010Prop50
 90
       50
102
RTVSPost2010PropOp50
 70
     1
102
RTVSPost2010Prop51ColorIndex
 90
      256
102
RTVSPost2010Prop51ColorRGB
 90
-16777216
102
RTVSPost2010PropOp51
 70
     0
102
RTVSPost2010Prop52
140
1.0
102
RTVSPost2010PropOp52
 70
     0
102
RTVSPost2010Prop53
 90
        2
102
RTVSPost2010PropOp53
 70
     1
102
RTVSPost2010Prop54
  1
strokes_ogs.tif
102
RTVSPost2010PropOp54
 70
     1
102
RTVSPost2010Prop55
280
     0
102
RTVSPost2010PropOp55
 70
     1
102
RTVSPost2010Prop56
140
1.0
102
RTVSPost2010PropOp56
 70
     1
102
RTVSPost2010Prop57
140
1.0
102
RTVSPost2010PropOp57
 70
     1
  0
XRECORD
  5
13A
102
{ACAD_REACTORS
330
139
102
}
330
139
100
AcDbXrecord
280
     1
102
RTVSPropertyOp0
 70
     1
102
RTVSPropertyOp1
 70
     1
102
RTVSPropertyOp2
 70
     1
102
RTVSPropertyOp3
 70
     1
102
RTVSPropertyOp4
 70
     1
102
RTVSPropertyOp5
 70
     1
102
RTVSPropertyOp6
 70
     1
102
RTVSPropertyOp7
 70
     1
102
RTVSPropertyOp8
 70
     1
102
RTVSPropertyOp9
 70
     1
102
RTVSPropertyOp10
 70
     1
102
RTVSPropertyOp11
 70
     1
102
RTVSPropertyOp12
 70
     1
102
RTVSPropertyOp13
 70
     1
102
RTVSPropertyOp14
 70
     1
102
RTVSPropertyOp15
 70
     1
102
RTVSPropertyOp16
 70
     1
102
RTVSPropertyOp17
 70
     1
102
RTVSPropertyOp18
 70
     1
102
RTVSPropertyOp19
 70
     1
102
RTVSPropertyOp20
 70
     1
102
RTVSPropertyOp21
 70
     1
102
RTVSPropertyOp22
 70
     1
102
RTVSPropertyOp23
 70
     1
102
RTVSPropertyOp24
 70
     1
102
RTVSPropertyOp25
 70
     1
102
RTVSPropertyOp26
 70
     1
102
RTVSPropertyOp27
 70
     1
102
RTVSPropertyOp28
 70
     1
102
RTVSPropertyOp29
 70
     1
102
RTVSPropertyOp30
 70
     1
102
RTVSPropertyOp31
 70
     1
102
RTVSPropertyOp32
 70
     1
102
RTVSPropertyOp33
 70
     1
102
RTVSPropertyOp34
 70
     1
102
RTVSPropertyOp35
 70
     1
102
RTVSPropertyOp36
 70
     1
102
RTVSPropertyOp37
 70
     1
102
RTVSPropertyOp38
 70
     1
102
RTVSPropertyOp39
 70
     1
102
RTVSPropertyOp40
 70
     1
102
RTVSPropertyOp41
 70
     1
102
RTVSPropertyOp42
 70
     1
102
RTVSPropertyOp43
 70
     1
102
RTVSPropertyOp44
 70
     1
102
RTVSPropertyOp45
 70
     1
102
RTVSPropertyOp46
 70
     1
102
RTVSPropertyOp47
 70
     1
102
RTVSPropertyOp48
 70
     1
102
RTVSPropertyOp49
 70
     1
102
RTVSPropertyOp50
 70
     1
102
RTVSPropertyOp51
 70
     0
102
RTVSPropertyOp52
 70
     0
102
RTVSPropertyOp53
 70
     1
102
RTVSPropertyOp54
 70
     1
102
RTVSPropertyOp55
 70
     1
102
RTVSPropertyOp56
 70
     1
102
RTVSPropertyOp57
 70
     1
102
RTVSPost2010Prop28
280
     0
102
RTVSPost2010PropOp28
 70
     1
102
RTVSPost2010Prop29
280
     1
102
RTVSPost2010PropOp29
 70
     1
102
RTVSPost2010Prop30
280
     1
102
RTVSPost2010PropOp30
 70
     1
102
RTVSPost2010Prop31
280
     0
102
RTVSPost2010PropOp31
 70
     1
102
RTVSPost2010Prop32
280
     0
102
RTVSPost2010PropOp32
 70
     1
102
RTVSPost2010Prop33
280
     0
102
RTVSPost2010PropOp33
 70
     1
102
RTVSPost2010Prop34
280
     0
102
RTVSPost2010PropOp34
 70
     1
102
RTVSPost2010Prop35
280
     0
102
RTVSPost2010PropOp35
 70
     1
102
RTVSPost2010Prop36
280
     0
102
RTVSPost2010PropOp36
 70
     1
102
RTVSPost2010Prop37
 90
       50
102
RTVSPost2010PropOp37
 70
     1
102
RTVSPost2010Prop38
140
0.0
102
RTVSPost2010PropOp38
 70
     1
102
RTVSPost2010Prop39
140
1.0
102
RTVSPost2010PropOp39
 70
     1
102
RTVSPost2010Prop40
 90
        0
102
RTVSPost2010PropOp40
 70
     1
102
RTVSPost2010Prop41ColorIndex
 90
       18
102
RTVSPost2010Prop41ColorRGB
 90
        0
102
RTVSPost2010PropOp41
 70
     1
102
RTVSPost2010Prop42
 90
       50
102
RTVSPost2010PropOp42
 70
     1
102
RTVSPost2010Prop43
 90
        3
102
RTVSPost2010PropOp43
 70
     1
102
RTVSPost2010Prop44ColorIndex
 90
        5
102
RTVSPost2010Prop44ColorRGB
 90
      255
102
RTVSPost2010PropOp44
 70
     1
102
RTVSPost2010Prop45
280
     0
102
RTVSPost2010PropOp45
 70
     1
102
RTVSPost2010Prop46
 90
       50
102
RTVSPost2010PropOp46
 70
     1
102
RTVSPost2010Prop47
 90
       50
102
RTVSPost2010PropOp47
 70
     1
102
RTVSPost2010Prop48
 90
       50
102
RTVSPost2010PropOp48
 70
     1
102
RTVSPost2010Prop49
280
     0
102
RTVSPost2010PropOp49
 70
     1
102
RTVSPost2010Prop50
 90
       50
102
RTVSPost2010PropOp50
 70
     1
102
RTVSPost2010Prop51ColorIndex
 90
      256
102
RTVSPost2010Prop51ColorRGB
 90
-16777216
102
RTVSPost2010PropOp51
 70
     0
102
RTVSPost2010Prop52
140
1.0
102
RTVSPost2010PropOp52
 70
     0
102
RTVSPost2010Prop53
 90
        2
102
RTVSPost2010PropOp53
 70
     1
102
RTVSPost2010Prop54
  1
strokes_ogs.tif
102
RTVSPost2010PropOp54
 70
     1
102
RTVSPost2010Prop55
280
     0
102
RTVSPost2010PropOp55
 70
     1
102
RTVSPost2010Prop56
140
1.0
102
RTVSPost2010PropOp56
 70
     1
102
RTVSPost2010Prop57
140
1.0
102
RTVSPost2010PropOp57
 70
     1
  0
XRECORD
  5
140
102
{ACAD_REACTORS
330
13F
102
}
330
13F
100
AcDbXrecord
280
     1
102
RTVSPropertyOp0
 70
     1
102
RTVSPropertyOp1
 70
     1
102
RTVSPropertyOp2
 70
     1
102
RTVSPropertyOp3
 70
     1
102
RTVSPropertyOp4
 70
     1
102
RTVSPropertyOp5
 70
     1
102
RTVSPropertyOp6
 70
     1
102
RTVSPropertyOp7
 70
     1
102
RTVSPropertyOp8
 70
     1
102
RTVSPropertyOp9
 70
     1
102
RTVSPropertyOp10
 70
     1
102
RTVSPropertyOp11
 70
     1
102
RTVSPropertyOp12
 70
     1
102
RTVSPropertyOp13
 70
     1
102
RTVSPropertyOp14
 70
     1
102
RTVSPropertyOp15
 70
     1
102
RTVSPropertyOp16
 70
     1
102
RTVSPropertyOp17
 70
     1
102
RTVSPropertyOp18
 70
     1
102
RTVSPropertyOp19
 70
     1
102
RTVSPropertyOp20
 70
     1
102
RTVSPropertyOp21
 70
     1
102
RTVSPropertyOp22
 70
     1
102
RTVSPropertyOp23
 70
     1
102
RTVSPropertyOp24
 70
     1
102
RTVSPropertyOp25
 70
     1
102
RTVSPropertyOp26
 70
     1
102
RTVSPropertyOp27
 70
     1
102
RTVSPropertyOp28
 70
     1
102
RTVSPropertyOp29
 70
     1
102
RTVSPropertyOp30
 70
     1
102
RTVSPropertyOp31
 70
     1
102
RTVSPropertyOp32
 70
     1
102
RTVSPropertyOp33
 70
     1
102
RTVSPropertyOp34
 70
     1
102
RTVSPropertyOp35
 70
     1
102
RTVSPropertyOp36
 70
     1
102
RTVSPropertyOp37
 70
     1
102
RTVSPropertyOp38
 70
     1
102
RTVSPropertyOp39
 70
     1
102
RTVSPropertyOp40
 70
     1
102
RTVSPropertyOp41
 70
     1
102
RTVSPropertyOp42
 70
     1
102
RTVSPropertyOp43
 70
     1
102
RTVSPropertyOp44
 70
     1
102
RTVSPropertyOp45
 70
     1
102
RTVSPropertyOp46
 70
     1
102
RTVSPropertyOp47
 70
     1
102
RTVSPropertyOp48
 70
     1
102
RTVSPropertyOp49
 70
     1
102
RTVSPropertyOp50
 70
     1
102
RTVSPropertyOp51
 70
     0
102
RTVSPropertyOp52
 70
     0
102
RTVSPropertyOp53
 70
     1
102
RTVSPropertyOp54
 70
     1
102
RTVSPropertyOp55
 70
     1
102
RTVSPropertyOp56
 70
     1
102
RTVSPropertyOp57
 70
     1
102
RTVSPost2010Prop28
280
     0
102
RTVSPost2010PropOp28
 70
     1
102
RTVSPost2010Prop29
280
     1
102
RTVSPost2010PropOp29
 70
     1
102
RTVSPost2010Prop30
280
     1
102
RTVSPost2010PropOp30
 70
     1
102
RTVSPost2010Prop31
280
     0
102
RTVSPost2010PropOp31
 70
     1
102
RTVSPost2010Prop32
280
     0
102
RTVSPost2010PropOp32
 70
     1
102
RTVSPost2010Prop33
280
     0
102
RTVSPost2010PropOp33
 70
     1
102
RTVSPost2010Prop34
280
     0
102
RTVSPost2010PropOp34
 70
     1
102
RTVSPost2010Prop35
280
     0
102
RTVSPost2010PropOp35
 70
     1
102
RTVSPost2010Prop36
280
     0
102
RTVSPost2010PropOp36
 70
     1
102
RTVSPost2010Prop37
 90
       50
102
RTVSPost2010PropOp37
 70
     1
102
RTVSPost2010Prop38
140
0.0
102
RTVSPost2010PropOp38
 70
     1
102
RTVSPost2010Prop39
140
1.0
102
RTVSPost2010PropOp39
 70
     1
102
RTVSPost2010Prop40
 90
        0
102
RTVSPost2010PropOp40
 70
     1
102
RTVSPost2010Prop41ColorIndex
 90
       18
102
RTVSPost2010Prop41ColorRGB
 90
        0
102
RTVSPost2010PropOp41
 70
     1
102
RTVSPost2010Prop42
 90
       50
102
RTVSPost2010PropOp42
 70
     1
102
RTVSPost2010Prop43
 90
        3
102
RTVSPost2010PropOp43
 70
     1
102
RTVSPost2010Prop44ColorIndex
 90
        5
102
RTVSPost2010Prop44ColorRGB
 90
      255
102
RTVSPost2010PropOp44
 70
     1
102
RTVSPost2010Prop45
280
     0
102
RTVSPost2010PropOp45
 70
     1
102
RTVSPost2010Prop46
 90
       50
102
RTVSPost2010PropOp46
 70
     1
102
RTVSPost2010Prop47
 90
       50
102
RTVSPost2010PropOp47
 70
     1
102
RTVSPost2010Prop48
 90
       50
102
RTVSPost2010PropOp48
 70
     1
102
RTVSPost2010Prop49
280
     0
102
RTVSPost2010PropOp49
 70
     1
102
RTVSPost2010Prop50
 90
       50
102
RTVSPost2010PropOp50
 70
     1
102
RTVSPost2010Prop51ColorIndex
 90
      256
102
RTVSPost2010Prop51ColorRGB
 90
-16777216
102
RTVSPost2010PropOp51
 70
     0
102
RTVSPost2010Prop52
140
1.0
102
RTVSPost2010PropOp52
 70
     0
102
RTVSPost2010Prop53
 90
        2
102
RTVSPost2010PropOp53
 70
     1
102
RTVSPost2010Prop54
  1
strokes_ogs.tif
102
RTVSPost2010PropOp54
 70
     1
102
RTVSPost2010Prop55
280
     0
102
RTVSPost2010PropOp55
 70
     1
102
RTVSPost2010Prop56
140
1.0
102
RTVSPost2010PropOp56
 70
     1
102
RTVSPost2010Prop57
140
1.0
102
RTVSPost2010PropOp57
 70
     1
  0
XRECORD
  5
154
102
{ACAD_REACTORS
330
153
102
}
330
153
100
AcDbXrecord
280
     1
102
RTVSPropertyOp0
 70
     0
102
RTVSPropertyOp1
 70
     0
102
RTVSPropertyOp2
 70
     0
102
RTVSPropertyOp3
 70
     0
102
RTVSPropertyOp4
 70
     0
102
RTVSPropertyOp5
 70
     0
102
RTVSPropertyOp6
 70
     0
102
RTVSPropertyOp7
 70
     0
102
RTVSPropertyOp8
 70
     0
102
RTVSPropertyOp9
 70
     0
102
RTVSPropertyOp10
 70
     0
102
RTVSPropertyOp11
 70
     0
102
RTVSPropertyOp12
 70
     0
102
RTVSPropertyOp13
 70
     0
102
RTVSPropertyOp14
 70
     2
102
RTVSPropertyOp15
 70
     0
102
RTVSPropertyOp16
 70
     0
102
RTVSPropertyOp17
 70
     0
102
RTVSPropertyOp18
 70
     0
102
RTVSPropertyOp19
 70
     0
102
RTVSPropertyOp20
 70
     0
102
RTVSPropertyOp21
 70
     0
102
RTVSPropertyOp22
 70
     0
102
RTVSPropertyOp23
 70
     0
102
RTVSPropertyOp24
 70
     0
102
RTVSPropertyOp25
 70
     0
102
RTVSPropertyOp26
 70
     0
102
RTVSPropertyOp27
 70
     0
102
RTVSPropertyOp28
 70
     0
102
RTVSPropertyOp29
 70
     0
102
RTVSPropertyOp30
 70
     0
102
RTVSPropertyOp31
 70
     0
102
RTVSPropertyOp32
 70
     0
102
RTVSPropertyOp33
 70
     0
102
RTVSPropertyOp34
 70
     0
102
RTVSPropertyOp35
 70
     0
102
RTVSPropertyOp36
 70
     0
102
RTVSPropertyOp37
 70
     0
102
RTVSPropertyOp38
 70
     0
102
RTVSPropertyOp39
 70
     0
102
RTVSPropertyOp40
 70
     0
102
RTVSPropertyOp41
 70
     0
102
RTVSPropertyOp42
 70
     0
102
RTVSPropertyOp43
 70
     0
102
RTVSPropertyOp44
 70
     0
102
RTVSPropertyOp45
 70
     0
102
RTVSPropertyOp46
 70
     0
102
RTVSPropertyOp47
 70
     0
102
RTVSPropertyOp48
 70
     0
102
RTVSPropertyOp49
 70
     0
102
RTVSPropertyOp50
 70
     0
102
RTVSPropertyOp51
 70
     0
102
RTVSPropertyOp52
 70
     0
102
RTVSPropertyOp53
 70
     0
102
RTVSPropertyOp54
 70
     0
102
RTVSPropertyOp55
 70
     0
102
RTVSPropertyOp56
 70
     0
102
RTVSPropertyOp57
 70
     0
102
RTVSPost2010Prop28
280
     0
102
RTVSPost2010PropOp28
 70
     0
102
RTVSPost2010Prop29
280
     1
102
RTVSPost2010PropOp29
 70
     0
102
RTVSPost2010Prop30
280
     1
102
RTVSPost2010PropOp30
 70
     0
102
RTVSPost2010Prop31
280
     0
102
RTVSPost2010PropOp31
 70
     0
102
RTVSPost2010Prop32
280
     0
102
RTVSPost2010PropOp32
 70
     0
102
RTVSPost2010Prop33
280
     0
102
RTVSPost2010PropOp33
 70
     0
102
RTVSPost2010Prop34
280
     0
102
RTVSPost2010PropOp34
 70
     0
102
RTVSPost2010Prop35
280
     0
102
RTVSPost2010PropOp35
 70
     0
102
RTVSPost2010Prop36
280
     0
102
RTVSPost2010PropOp36
 70
     0
102
RTVSPost2010Prop37
 90
       50
102
RTVSPost2010PropOp37
 70
     0
102
RTVSPost2010Prop38
140
0.0
102
RTVSPost2010PropOp38
 70
     0
102
RTVSPost2010Prop39
140
1.0
102
RTVSPost2010PropOp39
 70
     0
102
RTVSPost2010Prop40
 90
        0
102
RTVSPost2010PropOp40
 70
     0
102
RTVSPost2010Prop41ColorIndex
 90
       18
102
RTVSPost2010Prop41ColorRGB
 90
        0
102
RTVSPost2010PropOp41
 70
     0
102
RTVSPost2010Prop42
 90
       50
102
RTVSPost2010PropOp42
 70
     0
102
RTVSPost2010Prop43
 90
        3
102
RTVSPost2010PropOp43
 70
     0
102
RTVSPost2010Prop44ColorIndex
 90
        5
102
RTVSPost2010Prop44ColorRGB
 90
      255
102
RTVSPost2010PropOp44
 70
     0
102
RTVSPost2010Prop45
280
     0
102
RTVSPost2010PropOp45
 70
     0
102
RTVSPost2010Prop46
 90
       50
102
RTVSPost2010PropOp46
 70
     0
102
RTVSPost2010Prop47
 90
       50
102
RTVSPost2010PropOp47
 70
     0
102
RTVSPost2010Prop48
 90
       50
102
RTVSPost2010PropOp48
 70
     0
102
RTVSPost2010Prop49
280
     0
102
RTVSPost2010PropOp49
 70
     0
102
RTVSPost2010Prop50
 90
       50
102
RTVSPost2010PropOp50
 70
     0
102
RTVSPost2010Prop51ColorIndex
 90
      256
102
RTVSPost2010Prop51ColorRGB
 90
-16777216
102
RTVSPost2010PropOp51
 70
     0
102
RTVSPost2010Prop52
140
1.0
102
RTVSPost2010PropOp52
 70
     0
102
RTVSPost2010Prop53
 90
        2
102
RTVSPost2010PropOp53
 70
     0
102
RTVSPost2010Prop54
  1
strokes_ogs.tif
102
RTVSPost2010PropOp54
 70
     0
102
RTVSPost2010Prop55
280
     0
102
RTVSPost2010PropOp55
 70
     0
102
RTVSPost2010Prop56
140
1.0
102
RTVSPost2010PropOp56
 70
     0
102
RTVSPost2010Prop57
140
1.0
102
RTVSPost2010PropOp57
 70
     0
  0
XRECORD
  5
14E
102
{ACAD_REACTORS
330
14D
102
}
330
14D
100
AcDbXrecord
280
     1
102
RTVSPropertyOp0
 70
     1
102
RTVSPropertyOp1
 70
     1
102
RTVSPropertyOp2
 70
     1
102
RTVSPropertyOp3
 70
     1
102
RTVSPropertyOp4
 70
     1
102
RTVSPropertyOp5
 70
     1
102
RTVSPropertyOp6
 70
     1
102
RTVSPropertyOp7
 70
     1
102
RTVSPropertyOp8
 70
     1
102
RTVSPropertyOp9
 70
     1
102
RTVSPropertyOp10
 70
     1
102
RTVSPropertyOp11
 70
     1
102
RTVSPropertyOp12
 70
     1
102
RTVSPropertyOp13
 70
     1
102
RTVSPropertyOp14
 70
     1
102
RTVSPropertyOp15
 70
     1
102
RTVSPropertyOp16
 70
     1
102
RTVSPropertyOp17
 70
     1
102
RTVSPropertyOp18
 70
     1
102
RTVSPropertyOp19
 70
     1
102
RTVSPropertyOp20
 70
     1
102
RTVSPropertyOp21
 70
     1
102
RTVSPropertyOp22
 70
     1
102
RTVSPropertyOp23
 70
     1
102
RTVSPropertyOp24
 70
     1
102
RTVSPropertyOp25
 70
     1
102
RTVSPropertyOp26
 70
     1
102
RTVSPropertyOp27
 70
     1
102
RTVSPropertyOp28
 70
     1
102
RTVSPropertyOp29
 70
     1
102
RTVSPropertyOp30
 70
     1
102
RTVSPropertyOp31
 70
     1
102
RTVSPropertyOp32
 70
     1
102
RTVSPropertyOp33
 70
     1
102
RTVSPropertyOp34
 70
     1
102
RTVSPropertyOp35
 70
     1
102
RTVSPropertyOp36
 70
     1
102
RTVSPropertyOp37
 70
     1
102
RTVSPropertyOp38
 70
     1
102
RTVSPropertyOp39
 70
     1
102
RTVSPropertyOp40
 70
     1
102
RTVSPropertyOp41
 70
     1
102
RTVSPropertyOp42
 70
     1
102
RTVSPropertyOp43
 70
     1
102
RTVSPropertyOp44
 70
     1
102
RTVSPropertyOp45
 70
     1
102
RTVSPropertyOp46
 70
     1
102
RTVSPropertyOp47
 70
     1
102
RTVSPropertyOp48
 70
     1
102
RTVSPropertyOp49
 70
     1
102
RTVSPropertyOp50
 70
     1
102
RTVSPropertyOp51
 70
     0
102
RTVSPropertyOp52
 70
     0
102
RTVSPropertyOp53
 70
     1
102
RTVSPropertyOp54
 70
     1
102
RTVSPropertyOp55
 70
     1
102
RTVSPropertyOp56
 70
     1
102
RTVSPropertyOp57
 70
     1
102
RTVSPost2010Prop28
280
     0
102
RTVSPost2010PropOp28
 70
     1
102
RTVSPost2010Prop29
280
     1
102
RTVSPost2010PropOp29
 70
     1
102
RTVSPost2010Prop30
280
     1
102
RTVSPost2010PropOp30
 70
     1
102
RTVSPost2010Prop31
280
     0
102
RTVSPost2010PropOp31
 70
     1
102
RTVSPost2010Prop32
280
     0
102
RTVSPost2010PropOp32
 70
     1
102
RTVSPost2010Prop33
280
     0
102
RTVSPost2010PropOp33
 70
     1
102
RTVSPost2010Prop34
280
     0
102
RTVSPost2010PropOp34
 70
     1
102
RTVSPost2010Prop35
280
     0
102
RTVSPost2010PropOp35
 70
     1
102
RTVSPost2010Prop36
280
     0
102
RTVSPost2010PropOp36
 70
     1
102
RTVSPost2010Prop37
 90
       50
102
RTVSPost2010PropOp37
 70
     1
102
RTVSPost2010Prop38
140
0.0
102
RTVSPost2010PropOp38
 70
     1
102
RTVSPost2010Prop39
140
1.0
102
RTVSPost2010PropOp39
 70
     1
102
RTVSPost2010Prop40
 90
        0
102
RTVSPost2010PropOp40
 70
     1
102
RTVSPost2010Prop41ColorIndex
 90
       18
102
RTVSPost2010Prop41ColorRGB
 90
        0
102
RTVSPost2010PropOp41
 70
     1
102
RTVSPost2010Prop42
 90
       50
102
RTVSPost2010PropOp42
 70
     1
102
RTVSPost2010Prop43
 90
        3
102
RTVSPost2010PropOp43
 70
     1
102
RTVSPost2010Prop44ColorIndex
 90
        5
102
RTVSPost2010Prop44ColorRGB
 90
      255
102
RTVSPost2010PropOp44
 70
     1
102
RTVSPost2010Prop45
280
     0
102
RTVSPost2010PropOp45
 70
     1
102
RTVSPost2010Prop46
 90
       50
102
RTVSPost2010PropOp46
 70
     1
102
RTVSPost2010Prop47
 90
       50
102
RTVSPost2010PropOp47
 70
     1
102
RTVSPost2010Prop48
 90
       50
102
RTVSPost2010PropOp48
 70
     1
102
RTVSPost2010Prop49
280
     0
102
RTVSPost2010PropOp49
 70
     1
102
RTVSPost2010Prop50
 90
       50
102
RTVSPost2010PropOp50
 70
     1
102
RTVSPost2010Prop51ColorIndex
 90
      256
102
RTVSPost2010Prop51ColorRGB
 90
-16777216
102
RTVSPost2010PropOp51
 70
     0
102
RTVSPost2010Prop52
140
1.0
102
RTVSPost2010PropOp52
 70
     0
102
RTVSPost2010Prop53
 90
        2
102
RTVSPost2010PropOp53
 70
     1
102
RTVSPost2010Prop54
  1
strokes_ogs.tif
102
RTVSPost2010PropOp54
 70
     1
102
RTVSPost2010Prop55
280
     0
102
RTVSPost2010PropOp55
 70
     1
102
RTVSPost2010Prop56
140
1.0
102
RTVSPost2010PropOp56
 70
     1
102
RTVSPost2010Prop57
140
1.0
102
RTVSPost2010PropOp57
 70
     1
  0
XRECORD
  5
156
102
{ACAD_REACTORS
330
155
102
}
330
155
100
AcDbXrecord
280
     1
102
RTVSPropertyOp0
 70
     0
102
RTVSPropertyOp1
 70
     0
102
RTVSPropertyOp2
 70
     0
102
RTVSPropertyOp3
 70
     0
102
RTVSPropertyOp4
 70
     0
102
RTVSPropertyOp5
 70
     0
102
RTVSPropertyOp6
 70
     0
102
RTVSPropertyOp7
 70
     0
102
RTVSPropertyOp8
 70
     0
102
RTVSPropertyOp9
 70
     0
102
RTVSPropertyOp10
 70
     0
102
RTVSPropertyOp11
 70
     0
102
RTVSPropertyOp12
 70
     0
102
RTVSPropertyOp13
 70
     0
102
RTVSPropertyOp14
 70
     2
102
RTVSPropertyOp15
 70
     0
102
RTVSPropertyOp16
 70
     0
102
RTVSPropertyOp17
 70
     0
102
RTVSPropertyOp18
 70
     0
102
RTVSPropertyOp19
 70
     0
102
RTVSPropertyOp20
 70
     0
102
RTVSPropertyOp21
 70
     0
102
RTVSPropertyOp22
 70
     0
102
RTVSPropertyOp23
 70
     0
102
RTVSPropertyOp24
 70
     0
102
RTVSPropertyOp25
 70
     0
102
RTVSPropertyOp26
 70
     0
102
RTVSPropertyOp27
 70
     0
102
RTVSPropertyOp28
 70
     0
102
RTVSPropertyOp29
 70
     0
102
RTVSPropertyOp30
 70
     0
102
RTVSPropertyOp31
 70
     0
102
RTVSPropertyOp32
 70
     0
102
RTVSPropertyOp33
 70
     0
102
RTVSPropertyOp34
 70
     0
102
RTVSPropertyOp35
 70
     0
102
RTVSPropertyOp36
 70
     0
102
RTVSPropertyOp37
 70
     0
102
RTVSPropertyOp38
 70
     0
102
RTVSPropertyOp39
 70
     0
102
RTVSPropertyOp40
 70
     0
102
RTVSPropertyOp41
 70
     0
102
RTVSPropertyOp42
 70
     0
102
RTVSPropertyOp43
 70
     0
102
RTVSPropertyOp44
 70
     0
102
RTVSPropertyOp45
 70
     0
102
RTVSPropertyOp46
 70
     0
102
RTVSPropertyOp47
 70
     0
102
RTVSPropertyOp48
 70
     0
102
RTVSPropertyOp49
 70
     0
102
RTVSPropertyOp50
 70
     0
102
RTVSPropertyOp51
 70
     0
102
RTVSPropertyOp52
 70
     0
102
RTVSPropertyOp53
 70
     0
102
RTVSPropertyOp54
 70
     0
102
RTVSPropertyOp55
 70
     0
102
RTVSPropertyOp56
 70
     0
102
RTVSPropertyOp57
 70
     0
102
RTVSPost2010Prop28
280
     0
102
RTVSPost2010PropOp28
 70
     0
102
RTVSPost2010Prop29
280
     1
102
RTVSPost2010PropOp29
 70
     0
102
RTVSPost2010Prop30
280
     1
102
RTVSPost2010PropOp30
 70
     0
102
RTVSPost2010Prop31
280
     0
102
RTVSPost2010PropOp31
 70
     0
102
RTVSPost2010Prop32
280
     0
102
RTVSPost2010PropOp32
 70
     0
102
RTVSPost2010Prop33
280
     0
102
RTVSPost2010PropOp33
 70
     0
102
RTVSPost2010Prop34
280
     0
102
RTVSPost2010PropOp34
 70
     0
102
RTVSPost2010Prop35
280
     0
102
RTVSPost2010PropOp35
 70
     0
102
RTVSPost2010Prop36
280
     0
102
RTVSPost2010PropOp36
 70
     0
102
RTVSPost2010Prop37
 90
       50
102
RTVSPost2010PropOp37
 70
     0
102
RTVSPost2010Prop38
140
0.0
102
RTVSPost2010PropOp38
 70
     0
102
RTVSPost2010Prop39
140
1.0
102
RTVSPost2010PropOp39
 70
     0
102
RTVSPost2010Prop40
 90
        0
102
RTVSPost2010PropOp40
 70
     0
102
RTVSPost2010Prop41ColorIndex
 90
       18
102
RTVSPost2010Prop41ColorRGB
 90
        0
102
RTVSPost2010PropOp41
 70
     0
102
RTVSPost2010Prop42
 90
       50
102
RTVSPost2010PropOp42
 70
     0
102
RTVSPost2010Prop43
 90
        3
102
RTVSPost2010PropOp43
 70
     0
102
RTVSPost2010Prop44ColorIndex
 90
        5
102
RTVSPost2010Prop44ColorRGB
 90
      255
102
RTVSPost2010PropOp44
 70
     0
102
RTVSPost2010Prop45
280
     0
102
RTVSPost2010PropOp45
 70
     0
102
RTVSPost2010Prop46
 90
       50
102
RTVSPost2010PropOp46
 70
     0
102
RTVSPost2010Prop47
 90
       50
102
RTVSPost2010PropOp47
 70
     0
102
RTVSPost2010Prop48
 90
       50
102
RTVSPost2010PropOp48
 70
     0
102
RTVSPost2010Prop49
280
     0
102
RTVSPost2010PropOp49
 70
     0
102
RTVSPost2010Prop50
 90
       50
102
RTVSPost2010PropOp50
 70
     0
102
RTVSPost2010Prop51ColorIndex
 90
      256
102
RTVSPost2010Prop51ColorRGB
 90
-16777216
102
RTVSPost2010PropOp51
 70
     0
102
RTVSPost2010Prop52
140
1.0
102
RTVSPost2010PropOp52
 70
     0
102
RTVSPost2010Prop53
 90
        2
102
RTVSPost2010PropOp53
 70
     0
102
RTVSPost2010Prop54
  1
strokes_ogs.tif
102
RTVSPost2010PropOp54
 70
     0
102
RTVSPost2010Prop55
280
     0
102
RTVSPost2010PropOp55
 70
     0
102
RTVSPost2010Prop56
140
1.0
102
RTVSPost2010PropOp56
 70
     0
102
RTVSPost2010Prop57
140
1.0
102
RTVSPost2010PropOp57
 70
     0
  0
XRECORD
  5
144
102
{ACAD_REACTORS
330
143
102
}
330
143
100
AcDbXrecord
280
     1
102
RTVSPropertyOp0
 70
     1
102
RTVSPropertyOp1
 70
     1
102
RTVSPropertyOp2
 70
     1
102
RTVSPropertyOp3
 70
     1
102
RTVSPropertyOp4
 70
     1
102
RTVSPropertyOp5
 70
     1
102
RTVSPropertyOp6
 70
     1
102
RTVSPropertyOp7
 70
     1
102
RTVSPropertyOp8
 70
     1
102
RTVSPropertyOp9
 70
     1
102
RTVSPropertyOp10
 70
     1
102
RTVSPropertyOp11
 70
     1
102
RTVSPropertyOp12
 70
     1
102
RTVSPropertyOp13
 70
     1
102
RTVSPropertyOp14
 70
     1
102
RTVSPropertyOp15
 70
     1
102
RTVSPropertyOp16
 70
     1
102
RTVSPropertyOp17
 70
     1
102
RTVSPropertyOp18
 70
     1
102
RTVSPropertyOp19
 70
     1
102
RTVSPropertyOp20
 70
     1
102
RTVSPropertyOp21
 70
     1
102
RTVSPropertyOp22
 70
     1
102
RTVSPropertyOp23
 70
     1
102
RTVSPropertyOp24
 70
     1
102
RTVSPropertyOp25
 70
     1
102
RTVSPropertyOp26
 70
     1
102
RTVSPropertyOp27
 70
     1
102
RTVSPropertyOp28
 70
     1
102
RTVSPropertyOp29
 70
     1
102
RTVSPropertyOp30
 70
     1
102
RTVSPropertyOp31
 70
     1
102
RTVSPropertyOp32
 70
     1
102
RTVSPropertyOp33
 70
     1
102
RTVSPropertyOp34
 70
     1
102
RTVSPropertyOp35
 70
     1
102
RTVSPropertyOp36
 70
     1
102
RTVSPropertyOp37
 70
     1
102
RTVSPropertyOp38
 70
     1
102
RTVSPropertyOp39
 70
     1
102
RTVSPropertyOp40
 70
     1
102
RTVSPropertyOp41
 70
     1
102
RTVSPropertyOp42
 70
     1
102
RTVSPropertyOp43
 70
     1
102
RTVSPropertyOp44
 70
     1
102
RTVSPropertyOp45
 70
     1
102
RTVSPropertyOp46
 70
     1
102
RTVSPropertyOp47
 70
     1
102
RTVSPropertyOp48
 70
     1
102
RTVSPropertyOp49
 70
     1
102
RTVSPropertyOp50
 70
     1
102
RTVSPropertyOp51
 70
     0
102
RTVSPropertyOp52
 70
     0
102
RTVSPropertyOp53
 70
     1
102
RTVSPropertyOp54
 70
     1
102
RTVSPropertyOp55
 70
     1
102
RTVSPropertyOp56
 70
     1
102
RTVSPropertyOp57
 70
     1
102
RTVSPost2010Prop28
280
     0
102
RTVSPost2010PropOp28
 70
     1
102
RTVSPost2010Prop29
280
     1
102
RTVSPost2010PropOp29
 70
     1
102
RTVSPost2010Prop30
280
     1
102
RTVSPost2010PropOp30
 70
     1
102
RTVSPost2010Prop31
280
     0
102
RTVSPost2010PropOp31
 70
     1
102
RTVSPost2010Prop32
280
     0
102
RTVSPost2010PropOp32
 70
     1
102
RTVSPost2010Prop33
280
     0
102
RTVSPost2010PropOp33
 70
     1
102
RTVSPost2010Prop34
280
     0
102
RTVSPost2010PropOp34
 70
     1
102
RTVSPost2010Prop35
280
     0
102
RTVSPost2010PropOp35
 70
     1
102
RTVSPost2010Prop36
280
     0
102
RTVSPost2010PropOp36
 70
     1
102
RTVSPost2010Prop37
 90
       50
102
RTVSPost2010PropOp37
 70
     1
102
RTVSPost2010Prop38
140
0.0
102
RTVSPost2010PropOp38
 70
     1
102
RTVSPost2010Prop39
140
1.0
102
RTVSPost2010PropOp39
 70
     1
102
RTVSPost2010Prop40
 90
        0
102
RTVSPost2010PropOp40
 70
     1
102
RTVSPost2010Prop41ColorIndex
 90
       18
102
RTVSPost2010Prop41ColorRGB
 90
        0
102
RTVSPost2010PropOp41
 70
     1
102
RTVSPost2010Prop42
 90
       50
102
RTVSPost2010PropOp42
 70
     1
102
RTVSPost2010Prop43
 90
        3
102
RTVSPost2010PropOp43
 70
     1
102
RTVSPost2010Prop44ColorIndex
 90
        5
102
RTVSPost2010Prop44ColorRGB
 90
      255
102
RTVSPost2010PropOp44
 70
     1
102
RTVSPost2010Prop45
280
     0
102
RTVSPost2010PropOp45
 70
     1
102
RTVSPost2010Prop46
 90
       50
102
RTVSPost2010PropOp46
 70
     1
102
RTVSPost2010Prop47
 90
       50
102
RTVSPost2010PropOp47
 70
     1
102
RTVSPost2010Prop48
 90
       50
102
RTVSPost2010PropOp48
 70
     1
102
RTVSPost2010Prop49
280
     0
102
RTVSPost2010PropOp49
 70
     1
102
RTVSPost2010Prop50
 90
       50
102
RTVSPost2010PropOp50
 70
     1
102
RTVSPost2010Prop51ColorIndex
 90
      256
102
RTVSPost2010Prop51ColorRGB
 90
-16777216
102
RTVSPost2010PropOp51
 70
     0
102
RTVSPost2010Prop52
140
1.0
102
RTVSPost2010PropOp52
 70
     0
102
RTVSPost2010Prop53
 90
        2
102
RTVSPost2010PropOp53
 70
     1
102
RTVSPost2010Prop54
  1
strokes_ogs.tif
102
RTVSPost2010PropOp54
 70
     1
102
RTVSPost2010Prop55
280
     0
102
RTVSPost2010PropOp55
 70
     1
102
RTVSPost2010Prop56
140
1.0
102
RTVSPost2010PropOp56
 70
     1
102
RTVSPost2010Prop57
140
1.0
102
RTVSPost2010PropOp57
 70
     1
  0
XRECORD
  5
162
102
{ACAD_REACTORS
330
161
102
}
330
161
100
AcDbXrecord
280
     1
102
RTVSPropertyOp0
 70
     1
102
RTVSPropertyOp1
 70
     1
102
RTVSPropertyOp2
 70
     1
102
RTVSPropertyOp3
 70
     1
102
RTVSPropertyOp4
 70
     1
102
RTVSPropertyOp5
 70
     1
102
RTVSPropertyOp6
 70
     1
102
RTVSPropertyOp7
 70
     1
102
RTVSPropertyOp8
 70
     1
102
RTVSPropertyOp9
 70
     1
102
RTVSPropertyOp10
 70
     1
102
RTVSPropertyOp11
 70
     1
102
RTVSPropertyOp12
 70
     1
102
RTVSPropertyOp13
 70
     1
102
RTVSPropertyOp14
 70
     1
102
RTVSPropertyOp15
 70
     1
102
RTVSPropertyOp16
 70
     1
102
RTVSPropertyOp17
 70
     1
102
RTVSPropertyOp18
 70
     1
102
RTVSPropertyOp19
 70
     1
102
RTVSPropertyOp20
 70
     1
102
RTVSPropertyOp21
 70
     1
102
RTVSPropertyOp22
 70
     1
102
RTVSPropertyOp23
 70
     1
102
RTVSPropertyOp24
 70
     1
102
RTVSPropertyOp25
 70
     1
102
RTVSPropertyOp26
 70
     1
102
RTVSPropertyOp27
 70
     1
102
RTVSPropertyOp28
 70
     1
102
RTVSPropertyOp29
 70
     1
102
RTVSPropertyOp30
 70
     1
102
RTVSPropertyOp31
 70
     1
102
RTVSPropertyOp32
 70
     1
102
RTVSPropertyOp33
 70
     1
102
RTVSPropertyOp34
 70
     1
102
RTVSPropertyOp35
 70
     1
102
RTVSPropertyOp36
 70
     1
102
RTVSPropertyOp37
 70
     1
102
RTVSPropertyOp38
 70
     1
102
RTVSPropertyOp39
 70
     1
102
RTVSPropertyOp40
 70
     1
102
RTVSPropertyOp41
 70
     1
102
RTVSPropertyOp42
 70
     1
102
RTVSPropertyOp43
 70
     1
102
RTVSPropertyOp44
 70
     1
102
RTVSPropertyOp45
 70
     1
102
RTVSPropertyOp46
 70
     1
102
RTVSPropertyOp47
 70
     1
102
RTVSPropertyOp48
 70
     1
102
RTVSPropertyOp49
 70
     1
102
RTVSPropertyOp50
 70
     1
102
RTVSPropertyOp51
 70
     0
102
RTVSPropertyOp52
 70
     0
102
RTVSPropertyOp53
 70
     1
102
RTVSPropertyOp54
 70
     1
102
RTVSPropertyOp55
 70
     1
102
RTVSPropertyOp56
 70
     1
102
RTVSPropertyOp57
 70
     1
102
RTVSPost2010Prop28
280
     0
102
RTVSPost2010PropOp28
 70
     1
102
RTVSPost2010Prop29
280
     1
102
RTVSPost2010PropOp29
 70
     1
102
RTVSPost2010Prop30
280
     1
102
RTVSPost2010PropOp30
 70
     1
102
RTVSPost2010Prop31
280
     0
102
RTVSPost2010PropOp31
 70
     1
102
RTVSPost2010Prop32
280
     0
102
RTVSPost2010PropOp32
 70
     1
102
RTVSPost2010Prop33
280
     0
102
RTVSPost2010PropOp33
 70
     1
102
RTVSPost2010Prop34
280
     0
102
RTVSPost2010PropOp34
 70
     1
102
RTVSPost2010Prop35
280
     0
102
RTVSPost2010PropOp35
 70
     1
102
RTVSPost2010Prop36
280
     0
102
RTVSPost2010PropOp36
 70
     1
102
RTVSPost2010Prop37
 90
       50
102
RTVSPost2010PropOp37
 70
     1
102
RTVSPost2010Prop38
140
0.0
102
RTVSPost2010PropOp38
 70
     1
102
RTVSPost2010Prop39
140
1.0
102
RTVSPost2010PropOp39
 70
     1
102
RTVSPost2010Prop40
 90
        0
102
RTVSPost2010PropOp40
 70
     1
102
RTVSPost2010Prop41ColorIndex
 90
       18
102
RTVSPost2010Prop41ColorRGB
 90
        0
102
RTVSPost2010PropOp41
 70
     1
102
RTVSPost2010Prop42
 90
       50
102
RTVSPost2010PropOp42
 70
     1
102
RTVSPost2010Prop43
 90
        3
102
RTVSPost2010PropOp43
 70
     1
102
RTVSPost2010Prop44ColorIndex
 90
        5
102
RTVSPost2010Prop44ColorRGB
 90
      255
102
RTVSPost2010PropOp44
 70
     1
102
RTVSPost2010Prop45
280
     0
102
RTVSPost2010PropOp45
 70
     1
102
RTVSPost2010Prop46
 90
       50
102
RTVSPost2010PropOp46
 70
     1
102
RTVSPost2010Prop47
 90
       50
102
RTVSPost2010PropOp47
 70
     1
102
RTVSPost2010Prop48
 90
       50
102
RTVSPost2010PropOp48
 70
     1
102
RTVSPost2010Prop49
280
     0
102
RTVSPost2010PropOp49
 70
     1
102
RTVSPost2010Prop50
 90
       50
102
RTVSPost2010PropOp50
 70
     1
102
RTVSPost2010Prop51ColorIndex
 90
      256
102
RTVSPost2010Prop51ColorRGB
 90
-16777216
102
RTVSPost2010PropOp51
 70
     0
102
RTVSPost2010Prop52
140
1.0
102
RTVSPost2010PropOp52
 70
     0
102
RTVSPost2010Prop53
 90
        2
102
RTVSPost2010PropOp53
 70
     1
102
RTVSPost2010Prop54
  1
strokes_ogs.tif
102
RTVSPost2010PropOp54
 70
     1
102
RTVSPost2010Prop55
280
     0
102
RTVSPost2010PropOp55
 70
     1
102
RTVSPost2010Prop56
140
1.0
102
RTVSPost2010PropOp56
 70
     1
102
RTVSPost2010Prop57
140
1.0
102
RTVSPost2010PropOp57
 70
     1
  0
XRECORD
  5
160
102
{ACAD_REACTORS
330
15F
102
}
330
15F
100
AcDbXrecord
280
     1
102
RTVSPropertyOp0
 70
     1
102
RTVSPropertyOp1
 70
     1
102
RTVSPropertyOp2
 70
     1
102
RTVSPropertyOp3
 70
     1
102
RTVSPropertyOp4
 70
     1
102
RTVSPropertyOp5
 70
     1
102
RTVSPropertyOp6
 70
     1
102
RTVSPropertyOp7
 70
     1
102
RTVSPropertyOp8
 70
     1
102
RTVSPropertyOp9
 70
     1
102
RTVSPropertyOp10
 70
     1
102
RTVSPropertyOp11
 70
     1
102
RTVSPropertyOp12
 70
     1
102
RTVSPropertyOp13
 70
     1
102
RTVSPropertyOp14
 70
     1
102
RTVSPropertyOp15
 70
     1
102
RTVSPropertyOp16
 70
     1
102
RTVSPropertyOp17
 70
     1
102
RTVSPropertyOp18
 70
     1
102
RTVSPropertyOp19
 70
     1
102
RTVSPropertyOp20
 70
     1
102
RTVSPropertyOp21
 70
     1
102
RTVSPropertyOp22
 70
     1
102
RTVSPropertyOp23
 70
     1
102
RTVSPropertyOp24
 70
     1
102
RTVSPropertyOp25
 70
     1
102
RTVSPropertyOp26
 70
     1
102
RTVSPropertyOp27
 70
     1
102
RTVSPropertyOp28
 70
     1
102
RTVSPropertyOp29
 70
     1
102
RTVSPropertyOp30
 70
     1
102
RTVSPropertyOp31
 70
     1
102
RTVSPropertyOp32
 70
     1
102
RTVSPropertyOp33
 70
     1
102
RTVSPropertyOp34
 70
     1
102
RTVSPropertyOp35
 70
     1
102
RTVSPropertyOp36
 70
     1
102
RTVSPropertyOp37
 70
     1
102
RTVSPropertyOp38
 70
     1
102
RTVSPropertyOp39
 70
     1
102
RTVSPropertyOp40
 70
     1
102
RTVSPropertyOp41
 70
     1
102
RTVSPropertyOp42
 70
     1
102
RTVSPropertyOp43
 70
     1
102
RTVSPropertyOp44
 70
     1
102
RTVSPropertyOp45
 70
     1
102
RTVSPropertyOp46
 70
     1
102
RTVSPropertyOp47
 70
     1
102
RTVSPropertyOp48
 70
     1
102
RTVSPropertyOp49
 70
     1
102
RTVSPropertyOp50
 70
     1
102
RTVSPropertyOp51
 70
     0
102
RTVSPropertyOp52
 70
     0
102
RTVSPropertyOp53
 70
     1
102
RTVSPropertyOp54
 70
     1
102
RTVSPropertyOp55
 70
     1
102
RTVSPropertyOp56
 70
     1
102
RTVSPropertyOp57
 70
     1
102
RTVSPost2010Prop28
280
     0
102
RTVSPost2010PropOp28
 70
     1
102
RTVSPost2010Prop29
280
     1
102
RTVSPost2010PropOp29
 70
     1
102
RTVSPost2010Prop30
280
     1
102
RTVSPost2010PropOp30
 70
     1
102
RTVSPost2010Prop31
280
     0
102
RTVSPost2010PropOp31
 70
     1
102
RTVSPost2010Prop32
280
     0
102
RTVSPost2010PropOp32
 70
     1
102
RTVSPost2010Prop33
280
     0
102
RTVSPost2010PropOp33
 70
     1
102
RTVSPost2010Prop34
280
     0
102
RTVSPost2010PropOp34
 70
     1
102
RTVSPost2010Prop35
280
     0
102
RTVSPost2010PropOp35
 70
     1
102
RTVSPost2010Prop36
280
     0
102
RTVSPost2010PropOp36
 70
     1
102
RTVSPost2010Prop37
 90
       50
102
RTVSPost2010PropOp37
 70
     1
102
RTVSPost2010Prop38
140
0.0
102
RTVSPost2010PropOp38
 70
     1
102
RTVSPost2010Prop39
140
1.0
102
RTVSPost2010PropOp39
 70
     1
102
RTVSPost2010Prop40
 90
        0
102
RTVSPost2010PropOp40
 70
     1
102
RTVSPost2010Prop41ColorIndex
 90
       18
102
RTVSPost2010Prop41ColorRGB
 90
        0
102
RTVSPost2010PropOp41
 70
     1
102
RTVSPost2010Prop42
 90
       50
102
RTVSPost2010PropOp42
 70
     1
102
RTVSPost2010Prop43
 90
        3
102
RTVSPost2010PropOp43
 70
     1
102
RTVSPost2010Prop44ColorIndex
 90
        5
102
RTVSPost2010Prop44ColorRGB
 90
      255
102
RTVSPost2010PropOp44
 70
     1
102
RTVSPost2010Prop45
280
     0
102
RTVSPost2010PropOp45
 70
     1
102
RTVSPost2010Prop46
 90
       50
102
RTVSPost2010PropOp46
 70
     1
102
RTVSPost2010Prop47
 90
       50
102
RTVSPost2010PropOp47
 70
     1
102
RTVSPost2010Prop48
 90
       50
102
RTVSPost2010PropOp48
 70
     1
102
RTVSPost2010Prop49
280
     0
102
RTVSPost2010PropOp49
 70
     1
102
RTVSPost2010Prop50
 90
       50
102
RTVSPost2010PropOp50
 70
     1
102
RTVSPost2010Prop51ColorIndex
 90
      256
102
RTVSPost2010Prop51ColorRGB
 90
-16777216
102
RTVSPost2010PropOp51
 70
     0
102
RTVSPost2010Prop52
140
1.0
102
RTVSPost2010PropOp52
 70
     0
102
RTVSPost2010Prop53
 90
        2
102
RTVSPost2010PropOp53
 70
     1
102
RTVSPost2010Prop54
  1
strokes_ogs.tif
102
RTVSPost2010PropOp54
 70
     1
102
RTVSPost2010Prop55
280
     0
102
RTVSPost2010PropOp55
 70
     1
102
RTVSPost2010Prop56
140
1.0
102
RTVSPost2010PropOp56
 70
     1
102
RTVSPost2010Prop57
140
1.0
102
RTVSPost2010PropOp57
 70
     1
  0
XRECORD
  5
15A
102
{ACAD_REACTORS
330
159
102
}
330
159
100
AcDbXrecord
280
     1
102
RTVSPropertyOp0
 70
     1
102
RTVSPropertyOp1
 70
     1
102
RTVSPropertyOp2
 70
     1
102
RTVSPropertyOp3
 70
     1
102
RTVSPropertyOp4
 70
     1
102
RTVSPropertyOp5
 70
     1
102
RTVSPropertyOp6
 70
     1
102
RTVSPropertyOp7
 70
     1
102
RTVSPropertyOp8
 70
     1
102
RTVSPropertyOp9
 70
     1
102
RTVSPropertyOp10
 70
     1
102
RTVSPropertyOp11
 70
     1
102
RTVSPropertyOp12
 70
     1
102
RTVSPropertyOp13
 70
     1
102
RTVSPropertyOp14
 70
     1
102
RTVSPropertyOp15
 70
     1
102
RTVSPropertyOp16
 70
     1
102
RTVSPropertyOp17
 70
     1
102
RTVSPropertyOp18
 70
     1
102
RTVSPropertyOp19
 70
     1
102
RTVSPropertyOp20
 70
     1
102
RTVSPropertyOp21
 70
     1
102
RTVSPropertyOp22
 70
     1
102
RTVSPropertyOp23
 70
     1
102
RTVSPropertyOp24
 70
     1
102
RTVSPropertyOp25
 70
     1
102
RTVSPropertyOp26
 70
     1
102
RTVSPropertyOp27
 70
     1
102
RTVSPropertyOp28
 70
     1
102
RTVSPropertyOp29
 70
     1
102
RTVSPropertyOp30
 70
     1
102
RTVSPropertyOp31
 70
     1
102
RTVSPropertyOp32
 70
     1
102
RTVSPropertyOp33
 70
     1
102
RTVSPropertyOp34
 70
     1
102
RTVSPropertyOp35
 70
     1
102
RTVSPropertyOp36
 70
     1
102
RTVSPropertyOp37
 70
     1
102
RTVSPropertyOp38
 70
     1
102
RTVSPropertyOp39
 70
     1
102
RTVSPropertyOp40
 70
     1
102
RTVSPropertyOp41
 70
     1
102
RTVSPropertyOp42
 70
     1
102
RTVSPropertyOp43
 70
     1
102
RTVSPropertyOp44
 70
     1
102
RTVSPropertyOp45
 70
     1
102
RTVSPropertyOp46
 70
     1
102
RTVSPropertyOp47
 70
     1
102
RTVSPropertyOp48
 70
     1
102
RTVSPropertyOp49
 70
     1
102
RTVSPropertyOp50
 70
     1
102
RTVSPropertyOp51
 70
     0
102
RTVSPropertyOp52
 70
     0
102
RTVSPropertyOp53
 70
     1
102
RTVSPropertyOp54
 70
     1
102
RTVSPropertyOp55
 70
     1
102
RTVSPropertyOp56
 70
     1
102
RTVSPropertyOp57
 70
     1
102
RTVSPost2010Prop28
280
     0
102
RTVSPost2010PropOp28
 70
     1
102
RTVSPost2010Prop29
280
     1
102
RTVSPost2010PropOp29
 70
     1
102
RTVSPost2010Prop30
280
     1
102
RTVSPost2010PropOp30
 70
     1
102
RTVSPost2010Prop31
280
     0
102
RTVSPost2010PropOp31
 70
     1
102
RTVSPost2010Prop32
280
     0
102
RTVSPost2010PropOp32
 70
     1
102
RTVSPost2010Prop33
280
     0
102
RTVSPost2010PropOp33
 70
     1
102
RTVSPost2010Prop34
280
     0
102
RTVSPost2010PropOp34
 70
     1
102
RTVSPost2010Prop35
280
     0
102
RTVSPost2010PropOp35
 70
     1
102
RTVSPost2010Prop36
280
     0
102
RTVSPost2010PropOp36
 70
     1
102
RTVSPost2010Prop37
 90
       50
102
RTVSPost2010PropOp37
 70
     1
102
RTVSPost2010Prop38
140
0.0
102
RTVSPost2010PropOp38
 70
     1
102
RTVSPost2010Prop39
140
1.0
102
RTVSPost2010PropOp39
 70
     1
102
RTVSPost2010Prop40
 90
        0
102
RTVSPost2010PropOp40
 70
     1
102
RTVSPost2010Prop41ColorIndex
 90
       18
102
RTVSPost2010Prop41ColorRGB
 90
        0
102
RTVSPost2010PropOp41
 70
     1
102
RTVSPost2010Prop42
 90
       50
102
RTVSPost2010PropOp42
 70
     1
102
RTVSPost2010Prop43
 90
        3
102
RTVSPost2010PropOp43
 70
     1
102
RTVSPost2010Prop44ColorIndex
 90
        5
102
RTVSPost2010Prop44ColorRGB
 90
      255
102
RTVSPost2010PropOp44
 70
     1
102
RTVSPost2010Prop45
280
     0
102
RTVSPost2010PropOp45
 70
     1
102
RTVSPost2010Prop46
 90
       50
102
RTVSPost2010PropOp46
 70
     1
102
RTVSPost2010Prop47
 90
       50
102
RTVSPost2010PropOp47
 70
     1
102
RTVSPost2010Prop48
 90
       50
102
RTVSPost2010PropOp48
 70
     1
102
RTVSPost2010Prop49
280
     0
102
RTVSPost2010PropOp49
 70
     1
102
RTVSPost2010Prop50
 90
       50
102
RTVSPost2010PropOp50
 70
     1
102
RTVSPost2010Prop51ColorIndex
 90
      256
102
RTVSPost2010Prop51ColorRGB
 90
-16777216
102
RTVSPost2010PropOp51
 70
     0
102
RTVSPost2010Prop52
140
1.0
102
RTVSPost2010PropOp52
 70
     0
102
RTVSPost2010Prop53
 90
        2
102
RTVSPost2010PropOp53
 70
     1
102
RTVSPost2010Prop54
  1
strokes_ogs.tif
102
RTVSPost2010PropOp54
 70
     1
102
RTVSPost2010Prop55
280
     0
102
RTVSPost2010PropOp55
 70
     1
102
RTVSPost2010Prop56
140
1.0
102
RTVSPost2010PropOp56
 70
     1
102
RTVSPost2010Prop57
140
1.0
102
RTVSPost2010PropOp57
 70
     1
  0
XRECORD
  5
15C
102
{ACAD_REACTORS
330
15B
102
}
330
15B
100
AcDbXrecord
280
     1
102
RTVSPropertyOp0
 70
     1
102
RTVSPropertyOp1
 70
     1
102
RTVSPropertyOp2
 70
     1
102
RTVSPropertyOp3
 70
     1
102
RTVSPropertyOp4
 70
     1
102
RTVSPropertyOp5
 70
     1
102
RTVSPropertyOp6
 70
     1
102
RTVSPropertyOp7
 70
     1
102
RTVSPropertyOp8
 70
     1
102
RTVSPropertyOp9
 70
     1
102
RTVSPropertyOp10
 70
     1
102
RTVSPropertyOp11
 70
     1
102
RTVSPropertyOp12
 70
     1
102
RTVSPropertyOp13
 70
     1
102
RTVSPropertyOp14
 70
     1
102
RTVSPropertyOp15
 70
     1
102
RTVSPropertyOp16
 70
     1
102
RTVSPropertyOp17
 70
     1
102
RTVSPropertyOp18
 70
     1
102
RTVSPropertyOp19
 70
     1
102
RTVSPropertyOp20
 70
     1
102
RTVSPropertyOp21
 70
     1
102
RTVSPropertyOp22
 70
     1
102
RTVSPropertyOp23
 70
     1
102
RTVSPropertyOp24
 70
     1
102
RTVSPropertyOp25
 70
     1
102
RTVSPropertyOp26
 70
     1
102
RTVSPropertyOp27
 70
     1
102
RTVSPropertyOp28
 70
     1
102
RTVSPropertyOp29
 70
     1
102
RTVSPropertyOp30
 70
     1
102
RTVSPropertyOp31
 70
     1
102
RTVSPropertyOp32
 70
     1
102
RTVSPropertyOp33
 70
     1
102
RTVSPropertyOp34
 70
     1
102
RTVSPropertyOp35
 70
     1
102
RTVSPropertyOp36
 70
     1
102
RTVSPropertyOp37
 70
     1
102
RTVSPropertyOp38
 70
     1
102
RTVSPropertyOp39
 70
     1
102
RTVSPropertyOp40
 70
     1
102
RTVSPropertyOp41
 70
     1
102
RTVSPropertyOp42
 70
     1
102
RTVSPropertyOp43
 70
     1
102
RTVSPropertyOp44
 70
     1
102
RTVSPropertyOp45
 70
     1
102
RTVSPropertyOp46
 70
     1
102
RTVSPropertyOp47
 70
     1
102
RTVSPropertyOp48
 70
     1
102
RTVSPropertyOp49
 70
     1
102
RTVSPropertyOp50
 70
     1
102
RTVSPropertyOp51
 70
     0
102
RTVSPropertyOp52
 70
     0
102
RTVSPropertyOp53
 70
     1
102
RTVSPropertyOp54
 70
     1
102
RTVSPropertyOp55
 70
     1
102
RTVSPropertyOp56
 70
     1
102
RTVSPropertyOp57
 70
     1
102
RTVSPost2010Prop28
280
     0
102
RTVSPost2010PropOp28
 70
     1
102
RTVSPost2010Prop29
280
     1
102
RTVSPost2010PropOp29
 70
     1
102
RTVSPost2010Prop30
280
     1
102
RTVSPost2010PropOp30
 70
     1
102
RTVSPost2010Prop31
280
     0
102
RTVSPost2010PropOp31
 70
     1
102
RTVSPost2010Prop32
280
     0
102
RTVSPost2010PropOp32
 70
     1
102
RTVSPost2010Prop33
280
     0
102
RTVSPost2010PropOp33
 70
     1
102
RTVSPost2010Prop34
280
     0
102
RTVSPost2010PropOp34
 70
     1
102
RTVSPost2010Prop35
280
     0
102
RTVSPost2010PropOp35
 70
     1
102
RTVSPost2010Prop36
280
     0
102
RTVSPost2010PropOp36
 70
     1
102
RTVSPost2010Prop37
 90
       50
102
RTVSPost2010PropOp37
 70
     1
102
RTVSPost2010Prop38
140
0.0
102
RTVSPost2010PropOp38
 70
     1
102
RTVSPost2010Prop39
140
1.0
102
RTVSPost2010PropOp39
 70
     1
102
RTVSPost2010Prop40
 90
        0
102
RTVSPost2010PropOp40
 70
     1
102
RTVSPost2010Prop41ColorIndex
 90
       18
102
RTVSPost2010Prop41ColorRGB
 90
        0
102
RTVSPost2010PropOp41
 70
     1
102
RTVSPost2010Prop42
 90
       50
102
RTVSPost2010PropOp42
 70
     1
102
RTVSPost2010Prop43
 90
        3
102
RTVSPost2010PropOp43
 70
     1
102
RTVSPost2010Prop44ColorIndex
 90
        5
102
RTVSPost2010Prop44ColorRGB
 90
      255
102
RTVSPost2010PropOp44
 70
     1
102
RTVSPost2010Prop45
280
     0
102
RTVSPost2010PropOp45
 70
     1
102
RTVSPost2010Prop46
 90
       50
102
RTVSPost2010PropOp46
 70
     1
102
RTVSPost2010Prop47
 90
       50
102
RTVSPost2010PropOp47
 70
     1
102
RTVSPost2010Prop48
 90
       50
102
RTVSPost2010PropOp48
 70
     1
102
RTVSPost2010Prop49
280
     0
102
RTVSPost2010PropOp49
 70
     1
102
RTVSPost2010Prop50
 90
       50
102
RTVSPost2010PropOp50
 70
     1
102
RTVSPost2010Prop51ColorIndex
 90
      256
102
RTVSPost2010Prop51ColorRGB
 90
-16777216
102
RTVSPost2010PropOp51
 70
     0
102
RTVSPost2010Prop52
140
1.0
102
RTVSPost2010PropOp52
 70
     0
102
RTVSPost2010Prop53
 90
        2
102
RTVSPost2010PropOp53
 70
     1
102
RTVSPost2010Prop54
  1
strokes_ogs.tif
102
RTVSPost2010PropOp54
 70
     1
102
RTVSPost2010Prop55
280
     0
102
RTVSPost2010PropOp55
 70
     1
102
RTVSPost2010Prop56
140
1.0
102
RTVSPost2010PropOp56
 70
     1
102
RTVSPost2010Prop57
140
1.0
102
RTVSPost2010PropOp57
 70
     1
  0
XRECORD
  5
14C
102
{ACAD_REACTORS
330
14B
102
}
330
14B
100
AcDbXrecord
280
     1
102
RTVSPropertyOp0
 70
     1
102
RTVSPropertyOp1
 70
     1
102
RTVSPropertyOp2
 70
     1
102
RTVSPropertyOp3
 70
     1
102
RTVSPropertyOp4
 70
     1
102
RTVSPropertyOp5
 70
     1
102
RTVSPropertyOp6
 70
     1
102
RTVSPropertyOp7
 70
     1
102
RTVSPropertyOp8
 70
     1
102
RTVSPropertyOp9
 70
     1
102
RTVSPropertyOp10
 70
     1
102
RTVSPropertyOp11
 70
     1
102
RTVSPropertyOp12
 70
     1
102
RTVSPropertyOp13
 70
     1
102
RTVSPropertyOp14
 70
     1
102
RTVSPropertyOp15
 70
     1
102
RTVSPropertyOp16
 70
     1
102
RTVSPropertyOp17
 70
     1
102
RTVSPropertyOp18
 70
     1
102
RTVSPropertyOp19
 70
     1
102
RTVSPropertyOp20
 70
     1
102
RTVSPropertyOp21
 70
     1
102
RTVSPropertyOp22
 70
     1
102
RTVSPropertyOp23
 70
     1
102
RTVSPropertyOp24
 70
     1
102
RTVSPropertyOp25
 70
     1
102
RTVSPropertyOp26
 70
     1
102
RTVSPropertyOp27
 70
     1
102
RTVSPropertyOp28
 70
     1
102
RTVSPropertyOp29
 70
     1
102
RTVSPropertyOp30
 70
     1
102
RTVSPropertyOp31
 70
     1
102
RTVSPropertyOp32
 70
     1
102
RTVSPropertyOp33
 70
     1
102
RTVSPropertyOp34
 70
     1
102
RTVSPropertyOp35
 70
     1
102
RTVSPropertyOp36
 70
     1
102
RTVSPropertyOp37
 70
     1
102
RTVSPropertyOp38
 70
     1
102
RTVSPropertyOp39
 70
     1
102
RTVSPropertyOp40
 70
     1
102
RTVSPropertyOp41
 70
     1
102
RTVSPropertyOp42
 70
     1
102
RTVSPropertyOp43
 70
     1
102
RTVSPropertyOp44
 70
     1
102
RTVSPropertyOp45
 70
     1
102
RTVSPropertyOp46
 70
     1
102
RTVSPropertyOp47
 70
     1
102
RTVSPropertyOp48
 70
     1
102
RTVSPropertyOp49
 70
     1
102
RTVSPropertyOp50
 70
     1
102
RTVSPropertyOp51
 70
     0
102
RTVSPropertyOp52
 70
     0
102
RTVSPropertyOp53
 70
     1
102
RTVSPropertyOp54
 70
     1
102
RTVSPropertyOp55
 70
     1
102
RTVSPropertyOp56
 70
     1
102
RTVSPropertyOp57
 70
     1
102
RTVSPost2010Prop28
280
     0
102
RTVSPost2010PropOp28
 70
     1
102
RTVSPost2010Prop29
280
     1
102
RTVSPost2010PropOp29
 70
     1
102
RTVSPost2010Prop30
280
     1
102
RTVSPost2010PropOp30
 70
     1
102
RTVSPost2010Prop31
280
     0
102
RTVSPost2010PropOp31
 70
     1
102
RTVSPost2010Prop32
280
     0
102
RTVSPost2010PropOp32
 70
     1
102
RTVSPost2010Prop33
280
     0
102
RTVSPost2010PropOp33
 70
     1
102
RTVSPost2010Prop34
280
     0
102
RTVSPost2010PropOp34
 70
     1
102
RTVSPost2010Prop35
280
     0
102
RTVSPost2010PropOp35
 70
     1
102
RTVSPost2010Prop36
280
     0
102
RTVSPost2010PropOp36
 70
     1
102
RTVSPost2010Prop37
 90
       50
102
RTVSPost2010PropOp37
 70
     1
102
RTVSPost2010Prop38
140
0.0
102
RTVSPost2010PropOp38
 70
     1
102
RTVSPost2010Prop39
140
1.0
102
RTVSPost2010PropOp39
 70
     1
102
RTVSPost2010Prop40
 90
        0
102
RTVSPost2010PropOp40
 70
     1
102
RTVSPost2010Prop41ColorIndex
 90
       18
102
RTVSPost2010Prop41ColorRGB
 90
        0
102
RTVSPost2010PropOp41
 70
     1
102
RTVSPost2010Prop42
 90
       50
102
RTVSPost2010PropOp42
 70
     1
102
RTVSPost2010Prop43
 90
        3
102
RTVSPost2010PropOp43
 70
     1
102
RTVSPost2010Prop44ColorIndex
 90
        5
102
RTVSPost2010Prop44ColorRGB
 90
      255
102
RTVSPost2010PropOp44
 70
     1
102
RTVSPost2010Prop45
280
     0
102
RTVSPost2010PropOp45
 70
     1
102
RTVSPost2010Prop46
 90
       50
102
RTVSPost2010PropOp46
 70
     1
102
RTVSPost2010Prop47
 90
       50
102
RTVSPost2010PropOp47
 70
     1
102
RTVSPost2010Prop48
 90
       50
102
RTVSPost2010PropOp48
 70
     1
102
RTVSPost2010Prop49
280
     0
102
RTVSPost2010PropOp49
 70
     1
102
RTVSPost2010Prop50
 90
       50
102
RTVSPost2010PropOp50
 70
     1
102
RTVSPost2010Prop51ColorIndex
 90
      256
102
RTVSPost2010Prop51ColorRGB
 90
-16777216
102
RTVSPost2010PropOp51
 70
     0
102
RTVSPost2010Prop52
140
1.0
102
RTVSPost2010PropOp52
 70
     0
102
RTVSPost2010Prop53
 90
        2
102
RTVSPost2010PropOp53
 70
     1
102
RTVSPost2010Prop54
  1
strokes_ogs.tif
102
RTVSPost2010PropOp54
 70
     1
102
RTVSPost2010Prop55
280
     0
102
RTVSPost2010PropOp55
 70
     1
102
RTVSPost2010Prop56
140
1.0
102
RTVSPost2010PropOp56
 70
     1
102
RTVSPost2010Prop57
140
1.0
102
RTVSPost2010PropOp57
 70
     1
  0
XRECORD
  5
13E
102
{ACAD_REACTORS
330
13D
102
}
330
13D
100
AcDbXrecord
280
     1
102
RTVSPropertyOp0
 70
     1
102
RTVSPropertyOp1
 70
     1
102
RTVSPropertyOp2
 70
     1
102
RTVSPropertyOp3
 70
     1
102
RTVSPropertyOp4
 70
     1
102
RTVSPropertyOp5
 70
     1
102
RTVSPropertyOp6
 70
     1
102
RTVSPropertyOp7
 70
     1
102
RTVSPropertyOp8
 70
     1
102
RTVSPropertyOp9
 70
     1
102
RTVSPropertyOp10
 70
     1
102
RTVSPropertyOp11
 70
     1
102
RTVSPropertyOp12
 70
     1
102
RTVSPropertyOp13
 70
     1
102
RTVSPropertyOp14
 70
     1
102
RTVSPropertyOp15
 70
     1
102
RTVSPropertyOp16
 70
     1
102
RTVSPropertyOp17
 70
     1
102
RTVSPropertyOp18
 70
     1
102
RTVSPropertyOp19
 70
     1
102
RTVSPropertyOp20
 70
     1
102
RTVSPropertyOp21
 70
     1
102
RTVSPropertyOp22
 70
     1
102
RTVSPropertyOp23
 70
     1
102
RTVSPropertyOp24
 70
     1
102
RTVSPropertyOp25
 70
     1
102
RTVSPropertyOp26
 70
     1
102
RTVSPropertyOp27
 70
     1
102
RTVSPropertyOp28
 70
     1
102
RTVSPropertyOp29
 70
     1
102
RTVSPropertyOp30
 70
     1
102
RTVSPropertyOp31
 70
     1
102
RTVSPropertyOp32
 70
     1
102
RTVSPropertyOp33
 70
     1
102
RTVSPropertyOp34
 70
     1
102
RTVSPropertyOp35
 70
     1
102
RTVSPropertyOp36
 70
     1
102
RTVSPropertyOp37
 70
     1
102
RTVSPropertyOp38
 70
     1
102
RTVSPropertyOp39
 70
     1
102
RTVSPropertyOp40
 70
     1
102
RTVSPropertyOp41
 70
     1
102
RTVSPropertyOp42
 70
     1
102
RTVSPropertyOp43
 70
     1
102
RTVSPropertyOp44
 70
     1
102
RTVSPropertyOp45
 70
     1
102
RTVSPropertyOp46
 70
     1
102
RTVSPropertyOp47
 70
     1
102
RTVSPropertyOp48
 70
     1
102
RTVSPropertyOp49
 70
     1
102
RTVSPropertyOp50
 70
     1
102
RTVSPropertyOp51
 70
     0
102
RTVSPropertyOp52
 70
     0
102
RTVSPropertyOp53
 70
     1
102
RTVSPropertyOp54
 70
     1
102
RTVSPropertyOp55
 70
     1
102
RTVSPropertyOp56
 70
     1
102
RTVSPropertyOp57
 70
     1
102
RTVSPost2010Prop28
280
     0
102
RTVSPost2010PropOp28
 70
     1
102
RTVSPost2010Prop29
280
     1
102
RTVSPost2010PropOp29
 70
     1
102
RTVSPost2010Prop30
280
     1
102
RTVSPost2010PropOp30
 70
     1
102
RTVSPost2010Prop31
280
     0
102
RTVSPost2010PropOp31
 70
     1
102
RTVSPost2010Prop32
280
     0
102
RTVSPost2010PropOp32
 70
     1
102
RTVSPost2010Prop33
280
     0
102
RTVSPost2010PropOp33
 70
     1
102
RTVSPost2010Prop34
280
     0
102
RTVSPost2010PropOp34
 70
     1
102
RTVSPost2010Prop35
280
     0
102
RTVSPost2010PropOp35
 70
     1
102
RTVSPost2010Prop36
280
     0
102
RTVSPost2010PropOp36
 70
     1
102
RTVSPost2010Prop37
 90
       50
102
RTVSPost2010PropOp37
 70
     1
102
RTVSPost2010Prop38
140
0.0
102
RTVSPost2010PropOp38
 70
     1
102
RTVSPost2010Prop39
140
1.0
102
RTVSPost2010PropOp39
 70
     1
102
RTVSPost2010Prop40
 90
        0
102
RTVSPost2010PropOp40
 70
     1
102
RTVSPost2010Prop41ColorIndex
 90
       18
102
RTVSPost2010Prop41ColorRGB
 90
        0
102
RTVSPost2010PropOp41
 70
     1
102
RTVSPost2010Prop42
 90
       50
102
RTVSPost2010PropOp42
 70
     1
102
RTVSPost2010Prop43
 90
        3
102
RTVSPost2010PropOp43
 70
     1
102
RTVSPost2010Prop44ColorIndex
 90
        5
102
RTVSPost2010Prop44ColorRGB
 90
      255
102
RTVSPost2010PropOp44
 70
     1
102
RTVSPost2010Prop45
280
     0
102
RTVSPost2010PropOp45
 70
     1
102
RTVSPost2010Prop46
 90
       50
102
RTVSPost2010PropOp46
 70
     1
102
RTVSPost2010Prop47
 90
       50
102
RTVSPost2010PropOp47
 70
     1
102
RTVSPost2010Prop48
 90
       50
102
RTVSPost2010PropOp48
 70
     1
102
RTVSPost2010Prop49
280
     0
102
RTVSPost2010PropOp49
 70
     1
102
RTVSPost2010Prop50
 90
       50
102
RTVSPost2010PropOp50
 70
     1
102
RTVSPost2010Prop51ColorIndex
 90
      256
102
RTVSPost2010Prop51ColorRGB
 90
-16777216
102
RTVSPost2010PropOp51
 70
     0
102
RTVSPost2010Prop52
140
1.0
102
RTVSPost2010PropOp52
 70
     0
102
RTVSPost2010Prop53
 90
        2
102
RTVSPost2010PropOp53
 70
     1
102
RTVSPost2010Prop54
  1
strokes_ogs.tif
102
RTVSPost2010PropOp54
 70
     1
102
RTVSPost2010Prop55
280
     0
102
RTVSPost2010PropOp55
 70
     1
102
RTVSPost2010Prop56
140
1.0
102
RTVSPost2010PropOp56
 70
     1
102
RTVSPost2010Prop57
140
1.0
102
RTVSPost2010PropOp57
 70
     1
  0
XRECORD
  5
15E
102
{ACAD_REACTORS
330
15D
102
}
330
15D
100
AcDbXrecord
280
     1
102
RTVSPropertyOp0
 70
     1
102
RTVSPropertyOp1
 70
     1
102
RTVSPropertyOp2
 70
     1
102
RTVSPropertyOp3
 70
     1
102
RTVSPropertyOp4
 70
     1
102
RTVSPropertyOp5
 70
     1
102
RTVSPropertyOp6
 70
     1
102
RTVSPropertyOp7
 70
     1
102
RTVSPropertyOp8
 70
     1
102
RTVSPropertyOp9
 70
     1
102
RTVSPropertyOp10
 70
     1
102
RTVSPropertyOp11
 70
     1
102
RTVSPropertyOp12
 70
     1
102
RTVSPropertyOp13
 70
     1
102
RTVSPropertyOp14
 70
     1
102
RTVSPropertyOp15
 70
     1
102
RTVSPropertyOp16
 70
     1
102
RTVSPropertyOp17
 70
     1
102
RTVSPropertyOp18
 70
     1
102
RTVSPropertyOp19
 70
     1
102
RTVSPropertyOp20
 70
     1
102
RTVSPropertyOp21
 70
     1
102
RTVSPropertyOp22
 70
     1
102
RTVSPropertyOp23
 70
     1
102
RTVSPropertyOp24
 70
     1
102
RTVSPropertyOp25
 70
     1
102
RTVSPropertyOp26
 70
     1
102
RTVSPropertyOp27
 70
     1
102
RTVSPropertyOp28
 70
     1
102
RTVSPropertyOp29
 70
     1
102
RTVSPropertyOp30
 70
     1
102
RTVSPropertyOp31
 70
     1
102
RTVSPropertyOp32
 70
     1
102
RTVSPropertyOp33
 70
     1
102
RTVSPropertyOp34
 70
     1
102
RTVSPropertyOp35
 70
     1
102
RTVSPropertyOp36
 70
     1
102
RTVSPropertyOp37
 70
     1
102
RTVSPropertyOp38
 70
     1
102
RTVSPropertyOp39
 70
     1
102
RTVSPropertyOp40
 70
     1
102
RTVSPropertyOp41
 70
     1
102
RTVSPropertyOp42
 70
     1
102
RTVSPropertyOp43
 70
     1
102
RTVSPropertyOp44
 70
     1
102
RTVSPropertyOp45
 70
     1
102
RTVSPropertyOp46
 70
     1
102
RTVSPropertyOp47
 70
     1
102
RTVSPropertyOp48
 70
     1
102
RTVSPropertyOp49
 70
     1
102
RTVSPropertyOp50
 70
     1
102
RTVSPropertyOp51
 70
     0
102
RTVSPropertyOp52
 70
     0
102
RTVSPropertyOp53
 70
     1
102
RTVSPropertyOp54
 70
     1
102
RTVSPropertyOp55
 70
     1
102
RTVSPropertyOp56
 70
     1
102
RTVSPropertyOp57
 70
     1
102
RTVSPost2010Prop28
280
     0
102
RTVSPost2010PropOp28
 70
     1
102
RTVSPost2010Prop29
280
     1
102
RTVSPost2010PropOp29
 70
     1
102
RTVSPost2010Prop30
280
     1
102
RTVSPost2010PropOp30
 70
     1
102
RTVSPost2010Prop31
280
     0
102
RTVSPost2010PropOp31
 70
     1
102
RTVSPost2010Prop32
280
     0
102
RTVSPost2010PropOp32
 70
     1
102
RTVSPost2010Prop33
280
     0
102
RTVSPost2010PropOp33
 70
     1
102
RTVSPost2010Prop34
280
     0
102
RTVSPost2010PropOp34
 70
     1
102
RTVSPost2010Prop35
280
     0
102
RTVSPost2010PropOp35
 70
     1
102
RTVSPost2010Prop36
280
     0
102
RTVSPost2010PropOp36
 70
     1
102
RTVSPost2010Prop37
 90
       50
102
RTVSPost2010PropOp37
 70
     1
102
RTVSPost2010Prop38
140
0.0
102
RTVSPost2010PropOp38
 70
     1
102
RTVSPost2010Prop39
140
1.0
102
RTVSPost2010PropOp39
 70
     1
102
RTVSPost2010Prop40
 90
        0
102
RTVSPost2010PropOp40
 70
     1
102
RTVSPost2010Prop41ColorIndex
 90
       18
102
RTVSPost2010Prop41ColorRGB
 90
        0
102
RTVSPost2010PropOp41
 70
     1
102
RTVSPost2010Prop42
 90
       50
102
RTVSPost2010PropOp42
 70
     1
102
RTVSPost2010Prop43
 90
        3
102
RTVSPost2010PropOp43
 70
     1
102
RTVSPost2010Prop44ColorIndex
 90
        5
102
RTVSPost2010Prop44ColorRGB
 90
      255
102
RTVSPost2010PropOp44
 70
     1
102
RTVSPost2010Prop45
280
     0
102
RTVSPost2010PropOp45
 70
     1
102
RTVSPost2010Prop46
 90
       50
102
RTVSPost2010PropOp46
 70
     1
102
RTVSPost2010Prop47
 90
       50
102
RTVSPost2010PropOp47
 70
     1
102
RTVSPost2010Prop48
 90
       50
102
RTVSPost2010PropOp48
 70
     1
102
RTVSPost2010Prop49
280
     0
102
RTVSPost2010PropOp49
 70
     1
102
RTVSPost2010Prop50
 90
       50
102
RTVSPost2010PropOp50
 70
     1
102
RTVSPost2010Prop51ColorIndex
 90
      256
102
RTVSPost2010Prop51ColorRGB
 90
-16777216
102
RTVSPost2010PropOp51
 70
     0
102
RTVSPost2010Prop52
140
1.0
102
RTVSPost2010PropOp52
 70
     0
102
RTVSPost2010Prop53
 90
        2
102
RTVSPost2010PropOp53
 70
     1
102
RTVSPost2010Prop54
  1
strokes_ogs.tif
102
RTVSPost2010PropOp54
 70
     1
102
RTVSPost2010Prop55
280
     0
102
RTVSPost2010PropOp55
 70
     1
102
RTVSPost2010Prop56
140
1.0
102
RTVSPost2010PropOp56
 70
     1
102
RTVSPost2010Prop57
140
1.0
102
RTVSPost2010PropOp57
 70
     1
  0
ENDSEC
  0
EOF
