  0
SECTION
  2
HEADER
  9
$ACADVER
  1
AC1015
  9
$ACADMAINTVER
 70
     6
  9
$DWGCODEPAGE
  3
ANSI_1252
  9
$INSBASE
 10
0.0
 20
0.0
 30
0.0
  9
$EXTMIN
 10
474.352661
 20
461.281677
 30
0.0
  9
$EXTMAX
 10
710.869568
 20
751.773804
 30
0.0
  9
$LIMMIN
 10
474.352661
 20
461.281677
  9
$LIMMAX
 10
710.869568
 20
751.773804
  9
$ORTHOMODE
 70
     0
  9
$REGENMODE
 70
     1
  9
$FILLMODE
 70
     1
  9
$QTEXTMODE
 70
     0
  9
$MIRRTEXT
 70
     1
  9
$LTSCALE
 40
1.0
  9
$ATTMODE
 70
     1
  9
$TEXTSIZE
 40
2.5
  9
$TRACEWID
 40
1.0
  9
$TEXTSTYLE
  7
Standard
  9
$CLAYER
  8
0
  9
$CELTYPE
  6
ByLayer
  9
$CECOLOR
 62
   256
  9
$CELTSCALE
 40
1.0
  9
$DISPSILH
 70
     0
  9
$DIMSCALE
 40
1.0
  9
$DIMASZ
 40
2.5
  9
$DIMEXO
 40
0.625
  9
$DIMDLI
 40
3.75
  9
$DIMRND
 40
0.0
  9
$DIMDLE
 40
0.0
  9
$DIMEXE
 40
1.25
  9
$DIMTP
 40
0.0
  9
$DIMTM
 40
0.0
  9
$DIMTXT
 40
2.5
  9
$DIMCEN
 40
2.5
  9
$DIMTSZ
 40
0.0
  9
$DIMTOL
 70
     0
  9
$DIMLIM
 70
     0
  9
$DIMTIH
 70
     0
  9
$DIMTOH
 70
     0
  9
$DIMSE1
 70
     0
  9
$DIMSE2
 70
     0
  9
$DIMTAD
 70
     1
  9
$DIMZIN
 70
     8
  9
$DIMBLK
  1

  9
$DIMASO
 70
     1
  9
$DIMSHO
 70
     1
  9
$DIMPOST
  1

  9
$DIMAPOST
  1

  9
$DIMALT
 70
     0
  9
$DIMALTD
 70
     3
  9
$DIMALTF
 40
0.03937
  9
$DIMLFAC
 40
1.0
  9
$DIMTOFL
 70
     1
  9
$DIMTVP
 40
0.0
  9
$DIMTIX
 70
     0
  9
$DIMSOXD
 70
     0
  9
$DIMSAH
 70
     0
  9
$DIMBLK1
  1

  9
$DIMBLK2
  1

  9
$DIMSTYLE
  2
ISO-25
  9
$DIMCLRD
 70
     0
  9
$DIMCLRE
 70
     0
  9
$DIMCLRT
 70
     0
  9
$DIMTFAC
 40
1.0
  9
$DIMGAP
 40
0.625
  9
$DIMJUST
 70
     0
  9
$DIMSD1
 70
     0
  9
$DIMSD2
 70
     0
  9
$DIMTOLJ
 70
     0
  9
$DIMTZIN
 70
     8
  9
$DIMALTZ
 70
     0
  9
$DIMALTTZ
 70
     0
  9
$DIMUPT
 70
     0
  9
$DIMDEC
 70
     2
  9
$DIMTDEC
 70
     2
  9
$DIMALTU
 70
     2
  9
$DIMALTTD
 70
     3
  9
$DIMTXSTY
  7
Standard
  9
$DIMAUNIT
 70
     0
  9
$DIMADEC
 70
     0
  9
$DIMALTRND
 40
0.0
  9
$DIMAZIN
 70
     0
  9
$DIMDSEP
 70
    44
  9
$DIMATFIT
 70
     3
  9
$DIMFRAC
 70
     0
  9
$DIMLDRBLK
  1

  9
$DIMLUNIT
 70
     2
  9
$DIMLWD
 70
    -2
  9
$DIMLWE
 70
    -2
  9
$DIMTMOVE
 70
     0
  9
$LUNITS
 70
     2
  9
$LUPREC
 70
     4
  9
$SKETCHINC
 40
1.0
  9
$FILLETRAD
 40
10.0
  9
$AUNITS
 70
     0
  9
$AUPREC
 70
     0
  9
$MENU
  1
.
  9
$ELEVATION
 40
0.0
  9
$PELEVATION
 40
0.0
  9
$THICKNESS
 40
0.0
  9
$LIMCHECK
 70
     0
  9
$CHAMFERA
 40
0.0
  9
$CHAMFERB
 40
0.0
  9
$CHAMFERC
 40
0.0
  9
$CHAMFERD
 40
0.0
  9
$SKPOLY
 70
     0
  9
$TDCREATE
 40
2459228.426710347
  9
$TDUCREATE
 40
2459228.385043681
  9
$TDUPDATE
 40
2459228.426710891
  9
$TDUUPDATE
 40
2459228.385044225
  9
$TDINDWG
 40
0.0000000116
  9
$TDUSRTIMER
 40
0.0000000116
  9
$USRTIMER
 70
     1
  9
$ANGBASE
 50
0.0
  9
$ANGDIR
 70
     0
  9
$PDMODE
 70
     0
  9
$PDSIZE
 40
0.0
  9
$PLINEWID
 40
0.0
  9
$SPLFRAME
 70
     0
  9
$SPLINETYPE
 70
     6
  9
$SPLINESEGS
 70
     8
  9
$HANDSEED
  5
16B
  9
$SURFTAB1
 70
     6
  9
$SURFTAB2
 70
     6
  9
$SURFTYPE
 70
     6
  9
$SURFU
 70
     6
  9
$SURFV
 70
     6
  9
$UCSBASE
  2

  9
$UCSNAME
  2

  9
$UCSORG
 10
0.0
 20
0.0
 30
0.0
  9
$UCSXDIR
 10
1.0
 20
0.0
 30
0.0
  9
$UCSYDIR
 10
0.0
 20
1.0
 30
0.0
  9
$UCSORTHOREF
  2

  9
$UCSORTHOVIEW
 70
     0
  9
$UCSORGTOP
 10
0.0
 20
0.0
 30
0.0
  9
$UCSORGBOTTOM
 10
0.0
 20
0.0
 30
0.0
  9
$UCSORGLEFT
 10
0.0
 20
0.0
 30
0.0
  9
$UCSORGRIGHT
 10
0.0
 20
0.0
 30
0.0
  9
$UCSORGFRONT
 10
0.0
 20
0.0
 30
0.0
  9
$UCSORGBACK
 10
0.0
 20
0.0
 30
0.0
  9
$PUCSBASE
  2

  9
$PUCSNAME
  2

  9
$PUCSORG
 10
0.0
 20
0.0
 30
0.0
  9
$PUCSXDIR
 10
1.0
 20
0.0
 30
0.0
  9
$PUCSYDIR
 10
0.0
 20
1.0
 30
0.0
  9
$PUCSORTHOREF
  2

  9
$PUCSORTHOVIEW
 70
     0
  9
$PUCSORGTOP
 10
0.0
 20
0.0
 30
0.0
  9
$PUCSORGBOTTOM
 10
0.0
 20
0.0
 30
0.0
  9
$PUCSORGLEFT
 10
0.0
 20
0.0
 30
0.0
  9
$PUCSORGRIGHT
 10
0.0
 20
0.0
 30
0.0
  9
$PUCSORGFRONT
 10
0.0
 20
0.0
 30
0.0
  9
$PUCSORGBACK
 10
0.0
 20
0.0
 30
0.0
  9
$USERI1
 70
     0
  9
$USERI2
 70
     0
  9
$USERI3
 70
     0
  9
$USERI4
 70
     0
  9
$USERI5
 70
     0
  9
$USERR1
 40
0.0
  9
$USERR2
 40
0.0
  9
$USERR3
 40
0.0
  9
$USERR4
 40
0.0
  9
$USERR5
 40
0.0
  9
$WORLDVIEW
 70
     1
  9
$SHADEDGE
 70
     3
  9
$SHADEDIF
 70
    70
  9
$TILEMODE
 70
     1
  9
$MAXACTVP
 70
    64
  9
$PINSBASE
 10
0.0
 20
0.0
 30
0.0
  9
$PLIMCHECK
 70
     0
  9
$PEXTMIN
 10
1.000000E+20
 20
1.000000E+20
 30
1.000000E+20
  9
$PEXTMAX
 10
-1.000000E+20
 20
-1.000000E+20
 30
-1.000000E+20
  9
$PLIMMIN
 10
0.0
 20
0.0
  9
$PLIMMAX
 10
420.0
 20
297.0
  9
$UNITMODE
 70
     0
  9
$VISRETAIN
 70
     1
  9
$PLINEGEN
 70
     0
  9
$PSLTSCALE
 70
     1
  9
$TREEDEPTH
 70
  3020
  9
$CMLSTYLE
  2
Standard
  9
$CMLJUST
 70
     0
  9
$CMLSCALE
 40
20.0
  9
$PROXYGRAPHICS
 70
     1
  9
$MEASUREMENT
 70
     1
  9
$CELWEIGHT
370
    -1
  9
$ENDCAPS
280
     0
  9
$JOINSTYLE
280
     0
  9
$LWDISPLAY
290
     0
  9
$INSUNITS
 70
     4
  9
$HYPERLINKBASE
  1

  9
$STYLESHEET
  1

  9
$XEDIT
290
     1
  9
$CEPSNTYPE
380
     0
  9
$PSTYLEMODE
290
     1
  9
$FINGERPRINTGUID
  2
{c5b8d505-4967-4458-9ce2-2493ebc3d5ca}
  9
$VERSIONGUID
  2
{FAEB1C32-E019-11D5-929B-00C0DF256EC4}
  9
$EXTNAMES
290
     1
  9
$PSVPSCALE
 40
0.0
  9
$OLESTARTUP
290
     0
  0
ENDSEC
  0
SECTION
  2
CLASSES
  0
CLASS
  1
ACDBDICTIONARYWDFLT
  2
AcDbDictionaryWithDefault
  3
ObjectDBX Classes
 90
        0
280
     0
281
     0
  0
CLASS
  1
VISUALSTYLE
  2
AcDbVisualStyle
  3
ObjectDBX Classes
 90
     4095
280
     0
281
     0
  0
CLASS
  1
MATERIAL
  2
AcDbMaterial
  3
ObjectDBX Classes
 90
     1153
280
     0
281
     0
  0
CLASS
  1
SCALE
  2
AcDbScale
  3
ObjectDBX Classes
 90
     1153
280
     0
281
     0
  0
CLASS
  1
TABLESTYLE
  2
AcDbTableStyle
  3
ObjectDBX Classes
 90
     4095
280
     0
281
     0
  0
CLASS
  1
MLEADERSTYLE
  2
AcDbMLeaderStyle
  3
ACDB_MLEADERSTYLE_CLASS
 90
     4095
280
     0
281
     0
  0
CLASS
  1
SUN
  2
AcDbSun
  3
SCENEOE
 90
     1153
280
     0
281
     0
  0
CLASS
  1
DICTIONARYVAR
  2
AcDbDictionaryVar
  3
ObjectDBX Classes
 90
        0
280
     0
281
     0
  0
CLASS
  1
ACDBPLACEHOLDER
  2
AcDbPlaceHolder
  3
ObjectDBX Classes
 90
        0
280
     0
281
     0
  0
CLASS
  1
LAYOUT
  2
AcDbLayout
  3
ObjectDBX Classes
 90
        0
280
     0
281
     0
  0
ENDSEC
  0
SECTION
  2
TABLES
  0
TABLE
  2
VPORT
  5
8
102
{ACAD_XDICTIONARY
360
12E
102
}
330
0
100
AcDbSymbolTable
 70
     1
  0
VPORT
  5
29
330
8
100
AcDbSymbolTableRecord
100
AcDbViewportTableRecord
  2
*Active
 70
     0
 10
0.0
 20
0.0
 11
1.0
 21
1.0
 12
344.186916
 22
148.5
 13
0.0
 23
0.0
 14
10.0
 24
10.0
 15
10.0
 25
10.0
 16
0.0
 26
0.0
 36
1.0
 17
0.0
 27
0.0
 37
0.0
 40
297.0
 41
1.972973
 42
50.0
 43
0.0
 44
0.0
 50
0.0
 51
0.0
 71
     0
 72
   100
 73
     1
 74
     3
 75
     0
 76
     0
 77
     0
 78
     0
281
     0
 65
     1
110
0.0
120
0.0
130
0.0
111
1.0
121
0.0
131
0.0
112
0.0
122
1.0
132
0.0
 79
     0
146
0.0
  0
ENDTAB
  0
TABLE
  2
LTYPE
  5
5
330
0
100
AcDbSymbolTable
 70
     1
  0
LTYPE
  5
14
330
5
100
AcDbSymbolTableRecord
100
AcDbLinetypeTableRecord
  2
ByBlock
 70
     0
  3

 72
    65
 73
     0
 40
0.0
  0
LTYPE
  5
15
330
5
100
AcDbSymbolTableRecord
100
AcDbLinetypeTableRecord
  2
ByLayer
 70
     0
  3

 72
    65
 73
     0
 40
0.0
  0
LTYPE
  5
16
330
5
100
AcDbSymbolTableRecord
100
AcDbLinetypeTableRecord
  2
Continuous
 70
     0
  3
Solid line
 72
    65
 73
     0
 40
0.0
  0
ENDTAB
  0
TABLE
  2
LAYER
  5
2
330
0
100
AcDbSymbolTable
 70
     1
  0
LAYER
  5
10
330
2
100
AcDbSymbolTableRecord
100
AcDbLayerTableRecord
  2
0
 70
     0
 62
   106
  6
Continuous
370
     0
390
F
  0
ENDTAB
  0
TABLE
  2
STYLE
  5
3
330
0
100
AcDbSymbolTable
 70
     4
  0
STYLE
  5
11
330
3
100
AcDbSymbolTableRecord
100
AcDbTextStyleTableRecord
  2
Standard
 70
     0
 40
0.0
 41
1.0
 50
0.0
 71
     0
 42
2.5
  3
txt
  4

  0
STYLE
  5
6E
330
3
100
AcDbSymbolTableRecord
100
AcDbTextStyleTableRecord
  2
Default
 70
     0
 40
0.0
 41
1.0
 50
0.0
 71
     0
 42
2.5
  3

  4

1001
ACAD
1000
txt
1071
        0
  0
STYLE
  5
6F
330
3
100
AcDbSymbolTableRecord
100
AcDbTextStyleTableRecord
  2
ISO
 70
     0
 40
0.0
 41
1.0
 50
0.0
 71
     0
 42
2.5
  3

  4

1001
ACAD
1000
txt
1071
        0
  0
STYLE
  5
70
330
3
100
AcDbSymbolTableRecord
100
AcDbTextStyleTableRecord
  2
zucchetti
 70
     0
 40
0.0
 41
1.0
 50
0.0
 71
     0
 42
2.5
  3

  4

1001
ACAD
1000
Arial
1071
        0
  0
ENDTAB
  0
TABLE
  2
VIEW
  5
6
330
0
100
AcDbSymbolTable
 70
     0
  0
ENDTAB
  0
TABLE
  2
UCS
  5
7
330
0
100
AcDbSymbolTable
 70
     0
  0
ENDTAB
  0
TABLE
  2
APPID
  5
9
330
0
100
AcDbSymbolTable
 70
     2
  0
APPID
  5
12
330
9
100
AcDbSymbolTableRecord
100
AcDbRegAppTableRecord
  2
ACAD
 70
     0
  0
APPID
  5
168
330
9
100
AcDbSymbolTableRecord
100
AcDbRegAppTableRecord
  2
ACAD_MLEADERVER
 70
     0
  0
ENDTAB
  0
TABLE
  2
DIMSTYLE
  5
A
330
0
100
AcDbSymbolTable
 70
     4
100
AcDbDimStyleTable
  0
DIMSTYLE
105
27
330
A
100
AcDbSymbolTableRecord
100
AcDbDimStyleTableRecord
  2
ISO-25
 70
     0
 41
2.5
 42
0.625
 43
3.75
 44
1.25
 73
     0
 74
     0
 77
     1
 78
     8
140
2.5
141
2.5
143
0.03937
147
0.625
171
     3
172
     1
178
     0
271
     2
272
     2
274
     3
278
    44
283
     0
284
     8
340
11
  0
DIMSTYLE
105
71
330
A
100
AcDbSymbolTableRecord
100
AcDbDimStyleTableRecord
  2
Default
 70
     0
  3
<>
 41
4.375
 42
1.05
 44
2.1
 73
     0
 74
     0
 77
     1
 78
     8
140
3.5
146
0.4
147
1.75
172
     1
271
     2
178
     3
271
     2
272
     3
284
     8
340
6E
341
72
342
72
  0
DIMSTYLE
105
79
330
A
100
AcDbSymbolTableRecord
100
AcDbDimStyleTableRecord
  2
ISO
 70
     0
  3
<>
 41
4.375
 42
1.05
 44
2.1
 73
     0
 74
     0
 77
     1
 78
     8
140
3.5
146
0.4
147
1.75
172
     1
271
     2
178
     3
271
     2
272
     3
284
     8
340
6F
341
72
342
72
  0
DIMSTYLE
105
7A
330
A
100
AcDbSymbolTableRecord
100
AcDbDimStyleTableRecord
  2
zucchetti
 70
     0
  3
<>
 41
3.0
 42
0.9
 44
1.8
 73
     0
 74
     0
 77
     1
 78
     8
140
3.0
146
0.6
147
1.5
172
     1
176
     3
177
     3
271
     2
178
     3
271
     2
272
     2
284
     8
340
70
  0
ENDTAB
  0
TABLE
  2
BLOCK_RECORD
  5
1
330
0
100
AcDbSymbolTable
 70
     4
  0
BLOCK_RECORD
  5
1F
330
1
100
AcDbSymbolTableRecord
100
AcDbBlockTableRecord
  2
*Model_Space
340
22
  0
BLOCK_RECORD
  5
1B
330
1
100
AcDbSymbolTableRecord
100
AcDbBlockTableRecord
  2
*Paper_Space
340
1E
  0
BLOCK_RECORD
  5
23
330
1
100
AcDbSymbolTableRecord
100
AcDbBlockTableRecord
  2
*Paper_Space0
340
26
  0
BLOCK_RECORD
  5
72
330
1
100
AcDbSymbolTableRecord
100
AcDbBlockTableRecord
  2
_Closed
340
0
  0
BLOCK_RECORD
  5
7B
330
1
100
AcDbSymbolTableRecord
100
AcDbBlockTableRecord
  2
a
340
0
102
{BLKREFS
331
A7
102
}
  0
BLOCK_RECORD
  5
A8
330
1
100
AcDbSymbolTableRecord
100
AcDbBlockTableRecord
  2
c
340
0
102
{BLKREFS
331
122
102
}
  0
ENDTAB
  0
ENDSEC
  0
SECTION
  2
BLOCKS
  0
BLOCK
  5
20
330
1F
100
AcDbEntity
  8
0
100
AcDbBlockBegin
  2
*Model_Space
 70
     0
 10
0.0
 20
0.0
 30
0.0
  3
*Model_Space
  1

  0
ENDBLK
  5
21
330
1F
100
AcDbEntity
  8
0
100
AcDbBlockEnd
  0
BLOCK
  5
1C
330
1B
100
AcDbEntity
 67
     1
  8
0
100
AcDbBlockBegin
  2
*Paper_Space
 70
     0
 10
0.0
 20
0.0
 30
0.0
  3
*Paper_Space
  1

  0
ENDBLK
  5
1D
330
1B
100
AcDbEntity
 67
     1
  8
0
100
AcDbBlockEnd
  0
BLOCK
  5
24
330
23
100
AcDbEntity
  8
0
100
AcDbBlockBegin
  2
*Paper_Space0
 70
     0
 10
0.0
 20
0.0
 30
0.0
  3
*Paper_Space0
  1

  0
ENDBLK
  5
25
330
23
100
AcDbEntity
  8
0
100
AcDbBlockEnd
  0
BLOCK
  5
73
330
72
100
AcDbEntity
  8
0
100
AcDbBlockBegin
  2
_Closed
 70
     0
 10
0.0
 20
0.0
 30
0.0
  3
_Closed
  1

  0
LINE
  5
75
330
72
100
AcDbEntity
  8
0
  6
ByBlock
 62
     0
370
    -2
100
AcDbLine
 10
-1.0
 20
0.166667
 30
0.0
 11
0.0
 21
0.0
 31
0.0
  0
LINE
  5
76
330
72
100
AcDbEntity
  8
0
  6
ByBlock
 62
     0
370
    -2
100
AcDbLine
 10
0.0
 20
0.0
 30
0.0
 11
-1.0
 21
-0.166667
 31
0.0
  0
LINE
  5
77
330
72
100
AcDbEntity
  8
0
  6
ByBlock
 62
     0
370
    -2
100
AcDbLine
 10
-1.0
 20
0.166667
 30
0.0
 11
-1.0
 21
-0.166667
 31
0.0
  0
LINE
  5
78
330
72
100
AcDbEntity
  8
0
  6
ByBlock
 62
     0
370
    -2
100
AcDbLine
 10
0.0
 20
0.0
 30
0.0
 11
-1.0
 21
0.0
 31
0.0
  0
ENDBLK
  5
74
330
72
100
AcDbEntity
  8
0
100
AcDbBlockEnd
  0
BLOCK
  5
A5
330
7B
100
AcDbEntity
  8
0
100
AcDbBlockBegin
  2
a
 70
     0
 10
446.772461
 20
146.446152
 30
0.0
  3
a
  1

  0
ARC
  5
7C
330
7B
100
AcDbEntity
  8
0
  6
Continuous
 62
     0
370
    30
100
AcDbCircle
 10
514.353418
 20
547.773942
 30
0.0
 40
21.5
100
AcDbArc
 50
270.0
 51
90.0
  0
ARC
  5
7D
330
7B
100
AcDbEntity
  8
0
  6
Continuous
 62
     0
370
    30
100
AcDbCircle
 10
514.353418
 20
547.773942
 30
0.0
 40
21.5
100
AcDbArc
 50
90.0
 51
270.0
  0
ARC
  5
7E
330
7B
100
AcDbEntity
  8
0
  6
Continuous
 62
     0
370
    30
100
AcDbCircle
 10
514.353418
 20
547.773942
 30
0.0
 40
22.00000000000001
100
AcDbArc
 50
270.0
 51
90.0
  0
ARC
  5
7F
330
7B
100
AcDbEntity
  8
0
  6
Continuous
 62
     0
370
    30
100
AcDbCircle
 10
514.353418
 20
547.773942
 30
0.0
 40
22.00000000000001
100
AcDbArc
 50
90.0
 51
270.0
  0
LINE
  5
80
330
7B
100
AcDbEntity
  8
0
  6
Continuous
 62
     0
370
    30
100
AcDbLine
 10
517.803418
 20
577.603942
 30
0.0
 11
514.353418
 21
577.603942
 31
0.0
  0
LINE
  5
81
330
7B
100
AcDbEntity
  8
0
  6
Continuous
 62
     0
370
    30
100
AcDbLine
 10
514.353418
 20
577.603942
 30
0.0
 11
510.903418
 21
577.603942
 31
0.0
  0
SPLINE
  5
82
330
7B
100
AcDbEntity
  8
0
  6
Continuous
 62
     0
370
    30
100
AcDbSpline
210
0.0
220
0.0
230
1.0
 70
     8
 71
     3
 72
    12
 73
     8
 74
     0
 42
0.000000001
 43
0.0
 40
0.5
 40
0.5
 40
0.5
 40
0.5
 40
0.571755453842353
 40
0.714762811817824
 40
0.857107008533019
 40
0.9523690028443401
 40
1.0
 40
1.0
 40
1.0
 40
1.0
 10
518.3029635093155
 20
577.10394626479
 30
0.0
 10
518.3030004705852
 20
577.1039472863802
 30
0.0
 10
518.203659506941
 20
577.1039491654947
 30
0.0
 10
517.5429840530749
 20
577.1039316111096
 30
0.0
 10
516.2854067085402
 20
577.1039853222105
 30
0.0
 10
515.1348845312683
 20
577.1039423585046
 30
0.0
 10
514.5487848286105
 20
577.1039423585046
 30
0.0
 10
514.3534182610576
 20
577.1039423585046
 30
0.0
  0
LINE
  5
83
330
7B
100
AcDbEntity
  8
0
  6
Continuous
 62
     0
370
    30
100
AcDbLine
 10
514.353418
 20
577.103942
 30
0.0
 11
510.403873
 21
577.103946
 31
0.0
  0
LINE
  5
84
330
7B
100
AcDbEntity
  8
0
  6
Continuous
 62
     0
370
    30
100
AcDbLine
 10
510.403418
 20
577.103942
 30
0.0
 11
510.403418
 21
569.416674
 31
0.0
  0
LINE
  5
85
330
7B
100
AcDbEntity
  8
0
  6
Continuous
 62
     0
370
    30
100
AcDbLine
 10
518.303418
 20
577.103942
 30
0.0
 11
518.303418
 21
569.416802
 31
0.0
  0
LINE
  5
86
330
7B
100
AcDbEntity
  8
0
  6
Continuous
 62
     0
370
    30
100
AcDbLine
 10
510.903361
 20
577.603885
 30
0.0
 11
510.403466
 21
577.10399
 31
0.0
  0
LINE
  5
87
330
7B
100
AcDbEntity
  8
0
  6
Continuous
 62
     0
370
    30
100
AcDbLine
 10
518.303371
 20
577.10399
 30
0.0
 11
517.803475
 21
577.603885
 31
0.0
  0
LINE
  5
88
330
7B
100
AcDbEntity
  8
0
  6
Continuous
 62
     0
370
    30
100
AcDbLine
 10
554.352669
 20
473.773798
 30
0.0
 11
474.352669
 21
473.773798
 31
0.0
  0
LINE
  5
89
330
7B
100
AcDbEntity
  8
0
  6
Continuous
 62
     0
370
    30
100
AcDbLine
 10
554.352669
 20
751.773798
 30
0.0
 11
554.352669
 21
473.773798
 31
0.0
  0
LINE
  5
8A
330
7B
100
AcDbEntity
  8
0
  6
Continuous
 62
     0
370
    30
100
AcDbLine
 10
474.352669
 20
751.773798
 30
0.0
 11
554.352669
 21
751.773798
 31
0.0
  0
LINE
  5
8B
330
7B
100
AcDbEntity
  8
0
  6
Continuous
 62
     0
370
    30
100
AcDbLine
 10
474.352669
 20
473.773798
 30
0.0
 11
474.352669
 21
751.773798
 31
0.0
  0
ARC
  5
8C
330
7B
100
AcDbEntity
  8
0
  6
Continuous
 62
     0
370
    30
100
AcDbCircle
 10
514.352028
 20
677.771691
 30
0.0
 40
19.49999963236607
100
AcDbArc
 50
118.025786
 51
61.974244
  0
SPLINE
  5
8D
330
7B
100
AcDbEntity
  8
0
  6
Continuous
 62
     0
370
     0
100
AcDbSpline
210
0.0
220
0.0
230
1.0
 70
     8
 71
     3
 72
    12
 73
     8
 74
     0
 42
0.000000001
 43
0.0
 40
0.0000002552593007
 40
0.0000002552593007
 40
0.0000002552593007
 40
0.0000002552593007
 40
0.1111116587936
 40
0.333334976380799
 40
0.666668309714136
 40
0.8888894365713791
 40
1.0
 40
1.0
 40
1.0
 40
1.0
 10
505.6590636744294
 20
693.6609515066215
 30
0.0
 10
505.6212394323319
 20
693.7338051225622
 30
0.0
 10
505.5109548572344
 20
693.9523659712253
 30
0.0
 10
505.3146806441506
 20
694.3805584236015
 30
0.0
 10
505.1774636122105
 20
694.7675545514917
 30
0.0
 10
505.158776397168
 20
694.9456219455408
 30
0.0
 10
505.1794920839041
 20
694.9796734278657
 30
0.0
 10
505.1895803547081
 20
694.9850439669274
 30
0.0
  0
SPLINE
  5
8E
330
7B
100
AcDbEntity
  8
0
  6
Continuous
 62
     0
370
     0
100
AcDbSpline
210
0.0
220
0.0
230
1.0
 70
     8
 71
     3
 72
    13
 73
     9
 74
     0
 42
0.000000001
 43
0.0
 40
0.0000123588535245
 40
0.0000123588535245
 40
0.0000123588535245
 40
0.0000123588535245
 40
2.992803358709377
 40
6.013014739974031
 40
8.43015363108694
 40
9.63994460077731
 40
10.44744378805638
 40
12.19204675732173
 40
12.19204675732173
 40
12.19204675732173
 40
12.19204675732173
 10
511.9106293643811
 20
703.5479486522314
 30
0.0
 10
511.8875494411536
 20
702.5506051852656
 30
0.0
 10
511.5720011785917
 20
700.5526682780526
 30
0.0
 10
510.4018440195897
 20
697.9580542943281
 30
0.0
 10
509.0174906693946
 20
696.1865386749604
 30
0.0
 10
507.9234690368552
 20
695.1662862171133
 30
0.0
 10
506.9185674921171
 20
694.384968395041
 30
0.0
 10
506.1821643440651
 20
693.9315553249245
 30
0.0
 10
505.6590639351134
 20
693.6609510045156
 30
0.0
  0
ELLIPSE
  5
8F
330
7B
100
AcDbEntity
  8
0
  6
Continuous
 62
     0
370
     0
100
AcDbEllipse
 10
511.975267
 20
703.547949
 30
0.0
 11
1.499619335520125
 21
-0.03379124937286914
 31
0.0
210
0.0
220
0.0
230
-1.0
 40
0.000972
 41
1.613891338454385
 42
3.16415520990532
  0
ARC
  5
90
330
7B
100
AcDbEntity
  8
0
  6
Continuous
 62
     0
370
     0
100
AcDbCircle
 10
-8149.496531
 20
904.337231
 30
0.0
 40
8663.734200544603
100
AcDbArc
 50
358.672004
 51
358.734045
  0
ELLIPSE
  5
91
330
7B
100
AcDbEntity
  8
0
  6
Continuous
 62
     0
370
     0
100
AcDbEllipse
 10
512.181986
 20
712.92688
 30
0.0
 11
1.499654140177965
 21
-0.03220962351672976
 31
0.0
210
0.0
220
0.0
230
-1.0
 40
0.000846
 41
1.610141286606395
 42
3.159796784683779
  0
SPLINE
  5
92
330
7B
100
AcDbEntity
  8
0
  6
Continuous
 62
     0
370
     0
100
AcDbSpline
210
0.0
220
0.0
230
1.0
 70
     8
 71
     3
 72
    18
 73
    14
 74
     0
 42
0.000000001
 43
0.0
 40
0.0
 40
0.0
 40
0.0
 40
0.0
 40
0.7027370259286991
 40
1.293683266474542
 40
1.630891291109695
 40
1.880691461960285
 40
2.083632206119296
 40
2.396523650565952
 40
2.757413614616584
 40
3.276994358666676
 40
3.724776255592948
 40
4.73901773150989
 40
6.510094996432836
 40
6.510094996432836
 40
6.510094996432836
 40
6.510094996432836
 10
514.3520391828308
 20
718.2244663046142
 30
0.0
 10
514.1114219275917
 20
718.2244663461431
 30
0.0
 10
513.6671640793245
 20
718.1654672639535
 30
0.0
 10
513.1573280771563
 20
717.9301826227337
 30
0.0
 10
512.8377250849726
 20
717.6897604904143
 30
0.0
 10
512.6436230731945
 20
717.5045030758217
 30
0.0
 10
512.5069977234749
 20
717.2849273075005
 30
0.0
 10
512.4020214353611
 20
717.0101129001639
 30
0.0
 10
512.3128866489445
 20
716.621251033304
 30
0.0
 10
512.2619058857368
 20
716.1808407942516
 30
0.0
 10
512.2190145851894
 20
715.5216376406053
 30
0.0
 10
512.1665252152519
 20
714.445097245868
 30
0.0
 10
512.135991705071
 20
713.5171030019898
 30
0.0
 10
512.1229700515108
 20
712.9268802456597
 30
0.0
  0
LINE
  5
93
330
7B
100
AcDbEntity
  8
0
  6
Continuous
 62
     0
370
     0
100
AcDbLine
 10
514.35203
 20
719.724466
 30
0.0
 11
514.352029
 21
718.224466
 31
0.0
  0
SPLINE
  5
94
330
7B
100
AcDbEntity
  8
0
  6
Continuous
 62
     0
370
     0
100
AcDbSpline
210
0.0
220
0.0
230
1.0
 70
     8
 71
     3
 72
    18
 73
    14
 74
     0
 42
0.000000001
 43
0.0
 40
0.0
 40
0.0
 40
0.0
 40
0.0
 40
0.7027396030835431
 40
1.293683513966321
 40
1.630890113499688
 40
1.880689862114117
 40
2.083631079056739
 40
2.396523634479162
 40
2.75741634684073
 40
3.277001564642871
 40
3.724787057023509
 40
4.739029134248826
 40
6.510091641996262
 40
6.510091641996262
 40
6.510091641996262
 40
6.510091641996262
 10
514.3520407272044
 20
718.2244663046138
 30
0.0
 10
514.5926588648617
 20
718.2244661953703
 30
0.0
 10
515.03691669749
 20
718.1654665841565
 30
0.0
 10
515.5467512030566
 20
717.9301805788899
 30
0.0
 10
515.8663520684355
 20
717.6897584526844
 30
0.0
 10
516.0604529132172
 20
717.5045007921435
 30
0.0
 10
516.197077939353
 20
717.2849245017957
 30
0.0
 10
516.302054487278
 20
717.0101087080419
 30
0.0
 10
516.3911897230361
 20
716.6212441149083
 30
0.0
 10
516.4421708256538
 20
716.1808302933912
 30
0.0
 10
516.4850625995473
 20
715.5216242788849
 30
0.0
 10
516.5375525873425
 20
714.4450874391099
 30
0.0
 10
516.568086121001
 20
713.5170979216248
 30
0.0
 10
516.5811075827347
 20
712.9268800819351
 30
0.0
  0
ELLIPSE
  5
95
330
7B
100
AcDbEntity
  8
0
  6
Continuous
 62
     0
370
     0
100
AcDbEllipse
 10
516.522071
 20
712.92688
 30
0.0
 11
-1.499654143804199
 21
-0.032209454681747
 31
0.0
210
0.0
220
0.0
230
1.0
 40
0.000846
 41
1.610155425166647
 42
3.15979802102589
  0
ARC
  5
96
330
7B
100
AcDbEntity
  8
0
  6
Continuous
 62
     0
370
     0
100
AcDbCircle
 10
9178.199173
 20
904.335974
 30
0.0
 40
8663.732737805507
100
AcDbArc
 50
181.265947
 51
181.327988
  0
ELLIPSE
  5
97
330
7B
100
AcDbEntity
  8
0
  6
Continuous
 62
     0
370
     0
100
AcDbEllipse
 10
516.728789
 20
703.54795
 30
0.0
 11
-1.499619339223566
 21
-0.03379108501773134
 31
0.0
210
0.0
220
0.0
230
1.0
 40
0.000972
 41
1.613904161618472
 42
3.164137163691682
  0
SPLINE
  5
98
330
7B
100
AcDbEntity
  8
0
  6
Continuous
 62
     0
370
     0
100
AcDbSpline
210
0.0
220
0.0
230
1.0
 70
     8
 71
     3
 72
    13
 73
     9
 74
     0
 42
0.000000001
 43
0.0
 40
0.0
 40
0.0
 40
0.0
 40
0.0
 40
1.735206470757562
 40
2.540312532369392
 40
3.746514832259412
 40
5.960462971079514
 40
8.979739629099337
 40
12.19204218860281
 40
12.19204218860281
 40
12.19204218860281
 40
12.19204218860281
 10
523.0450002104498
 20
693.6609564278331
 30
0.0
 10
522.5247171276926
 20
693.9301030297618
 30
0.0
 10
521.7915841273606
 20
694.3811071430061
 30
0.0
 10
520.7900338180661
 20
695.1583176915976
 30
0.0
 10
519.7464924474431
 20
696.129230870417
 30
0.0
 10
518.3889575915241
 20
697.8303758341708
 30
0.0
 10
517.1660068530751
 20
700.4073943108577
 30
0.0
 10
516.8182176886969
 20
702.4774677402365
 30
0.0
 10
516.7934466623956
 20
703.5479631682575
 30
0.0
  0
ELLIPSE
  5
99
330
7B
100
AcDbEntity
  8
0
  6
Continuous
 62
     0
370
     0
100
AcDbEllipse
 10
522.809659
 20
693.660947
 30
0.0
 11
0.704802626604872
 21
1.324104700365826
 31
0.0
210
0.0
220
0.0
230
-1.0
 40
0.138885
 41
-0.0000000000000169
 42
1.497003873366464
  0
SPLINE
  5
9A
330
7B
100
AcDbEntity
  8
0
  6
Continuous
 62
     0
370
     0
100
AcDbSpline
210
0.0
220
0.0
230
1.0
 70
     8
 71
     3
 72
    42
 73
    38
 74
     0
 42
0.000000001
 43
0.0
 40
0.0
 40
0.0
 40
0.0
 40
0.0
 40
4.726589141693007
 40
9.201614532002623
 40
13.20212686915214
 40
16.92203874283866
 40
20.3653019599159
 40
23.91111070304355
 40
27.30608913422157
 40
30.9682392554012
 40
34.24921792804013
 40
37.85068856298625
 40
39.91383326414524
 40
41.12804045713447
 40
41.59381843061748
 40
42.09462190348889
 40
42.75500960595274
 40
44.69606412910785
 40
46.12420232045444
 40
48.0518360759988
 40
49.99269947025343
 40
51.46192063953115
 40
53.42034377808636
 40
54.58720818292066
 40
55.09398862054752
 40
56.47437906945545
 40
58.71585406942724
 40
62.89972084250932
 40
67.20212528935113
 40
71.99865048165356
 40
75.52677566947948
 40
79.08092659373875
 40
82.47057370021248
 40
86.03290898663475
 40
89.75717742726508
 40
93.16707003430801
 40
96.23208308543599
 40
96.23208308543599
 40
96.23208308543599
 40
96.23208308543599
 10
523.0450195656372
 20
693.6609467148821
 30
0.0
 10
524.4622476594105
 20
692.927829617475
 30
0.0
 10
527.014236181896
 20
691.156652713023
 30
0.0
 10
529.8984723658833
 20
687.8153028935592
 30
0.0
 10
531.7672481003978
 20
684.1987545148652
 30
0.0
 10
532.7267486409421
 20
680.5890494362952
 30
0.0
 10
532.9298203305832
 20
677.0072010307811
 30
0.0
 10
532.4377390776779
 20
673.5645900827271
 30
0.0
 10
531.2630490256266
 20
670.2252770997536
 30
0.0
 10
529.5032718124648
 20
667.2625113506632
 30
0.0
 10
527.1632369347601
 20
664.6384540109708
 30
0.0
 10
524.7791314891058
 20
662.8116404806893
 30
0.0
 10
522.7395965080567
 20
661.6998956238972
 30
0.0
 10
521.5756433193509
 20
661.1938057360092
 30
0.0
 10
520.8822034326572
 20
660.9295568611161
 30
0.0
 10
520.361845482777
 20
660.7457304449423
 30
0.0
 10
519.356362723327
 20
660.4261225044891
 30
0.0
 10
518.0194717513822
 20
660.1023803375053
 30
0.0
 10
516.2267852183866
 20
659.8380772058954
 30
0.0
 10
514.4136486455424
 20
659.7370945386078
 30
0.0
 10
512.5855804334602
 20
659.8268173582983
 30
0.0
 10
510.7671973317546
 20
660.0854342701051
 30
0.0
 10
509.2404618451251
 20
660.4492185356708
 30
0.0
 10
508.0691831683379
 20
660.835905988921
 30
0.0
 10
507.0980970368698
 20
661.2044033168586
 30
0.0
 10
505.8162025365841
 20
661.7676697695858
 30
0.0
 10
503.5204041770451
 20
663.0593337474111
 30
0.0
 10
500.7380796713433
 20
665.3466071557823
 30
0.0
 10
498.0552739326367
 20
668.8787972342037
 30
0.0
 10
496.4231111031147
 20
672.7817161963504
 30
0.0
 10
495.7866252515962
 20
676.7079549537024
 30
0.0
 10
495.9285798968185
 20
680.2145192109949
 30
0.0
 10
496.7549766812042
 20
683.6287757718068
 30
0.0
 10
498.2501027078864
 20
686.8608566874126
 30
0.0
 10
500.3690297327423
 20
689.7291757437122
 30
0.0
 10
502.8925850638872
 20
692.0244400688482
 30
0.0
 10
504.7400285482013
 20
693.1855425808358
 30
0.0
 10
505.6590463785431
 20
693.6609423002697
 30
0.0
  0
ARC
  5
9B
330
7B
100
AcDbEntity
  8
0
  6
Continuous
 62
     0
370
    30
100
AcDbCircle
 10
528.22213
 20
703.803306
 30
0.0
 40
9.996187261619282
100
AcDbArc
 50
181.270058
 51
241.904258
  0
ARC
  5
9C
330
7B
100
AcDbEntity
  8
0
  6
Continuous
 62
     0
370
    30
100
AcDbCircle
 10
9375.024703
 20
903.480181
 30
0.0
 40
8859.051875809291
100
AcDbArc
 50
181.232287
 51
181.29295
  0
SPLINE
  5
9D
330
7B
100
AcDbEntity
  8
0
  6
Continuous
 62
     0
370
    30
100
AcDbSpline
210
0.0
220
0.0
230
1.0
 70
     8
 71
     3
 72
    19
 73
    15
 74
     0
 42
0.000000001
 43
0.0
 40
0.0
 40
0.0
 40
0.0
 40
0.0
 40
1.003620293469784
 40
1.849679648802518
 40
2.264509912664331
 40
2.674498565615761
 40
2.962075365339019
 40
3.263828819701372
 40
3.918688091979369
 40
4.624602637796514
 40
5.027323689296115
 40
6.03660569208044
 40
7.005418112398097
 40
8.833454599553166
 40
8.833454599553166
 40
8.833454599553166
 40
8.833454599553166
 10
514.3520301881712
 20
719.7244445453305
 30
0.0
 10
514.6856401227001
 20
719.7248147258904
 30
0.0
 10
515.3041032120548
 20
719.6478008036911
 30
0.0
 10
516.0109947716196
 20
719.3691991450675
 30
0.0
 10
516.4857115106078
 20
719.0760376087701
 30
0.0
 10
516.7785016493121
 20
718.8478251156248
 30
0.0
 10
517.0228732654375
 20
718.620974790342
 30
0.0
 10
517.294466414357
 20
718.3063668874973
 30
0.0
 10
517.5704852207361
 20
717.8208697207237
 30
0.0
 10
517.740854169581
 20
717.2554664547845
 30
0.0
 10
517.8654403891313
 20
716.5601277551198
 30
0.0
 10
517.91804768213
 20
715.7671694186314
 30
0.0
 10
517.9789690886329
 20
714.5003004969657
 30
0.0
 10
518.0082339421654
 20
713.568275218656
 30
0.0
 10
518.0217191912956
 20
712.9590899738026
 30
0.0
  0
SPLINE
  5
9E
330
7B
100
AcDbEntity
  8
0
  6
Continuous
 62
     0
370
    30
100
AcDbSpline
210
0.0
220
0.0
230
1.0
 70
     8
 71
     3
 72
    19
 73
    15
 74
     0
 42
0.000000001
 43
0.0
 40
0.0
 40
0.0
 40
0.0
 40
0.0
 40
1.003620733052822
 40
1.84968114907339
 40
2.264512569989921
 40
2.674502182752232
 40
2.962079504860651
 40
3.263833547260692
 40
3.918693000359275
 40
4.624606164409469
 40
5.027327473075617
 40
6.036610066835303
 40
7.00542326122803
 40
8.833458884852915
 40
8.833458884852915
 40
8.833458884852915
 40
8.833458884852915
 10
514.3520282512875
 20
719.7244445453314
 30
0.0
 10
514.018418168075
 20
719.7248149358536
 30
0.0
 10
513.3999545287384
 20
719.6478013230046
 30
0.0
 10
512.6930617799912
 20
719.3692001687668
 30
0.0
 10
512.2183436825776
 20
719.076038724552
 30
0.0
 10
511.9255525168037
 20
718.8478260711381
 30
0.0
 10
511.681180038889
 20
718.6209756132857
 30
0.0
 10
511.4095866029893
 20
718.306367362296
 30
0.0
 10
511.1335679200025
 20
717.8208703472267
 30
0.0
 10
510.9631994192605
 20
717.2554672458919
 30
0.0
 10
510.8386138406843
 20
716.5601286052869
 30
0.0
 10
510.7860074591642
 20
715.7671696583151
 30
0.0
 10
510.7250870715262
 20
714.5003005237929
 30
0.0
 10
510.6958225427269
 20
713.5682752677799
 30
0.0
 10
510.6823372498877
 20
712.9590903108351
 30
0.0
  0
ARC
  5
9F
330
7B
100
AcDbEntity
  8
0
  6
Continuous
 62
     0
370
    30
100
AcDbCircle
 10
-8346.346961
 20
903.481746
 30
0.0
 40
8859.07821767518
100
AcDbArc
 50
358.707044
 51
358.767706
  0
ARC
  5
A0
330
7B
100
AcDbEntity
  8
0
  6
Continuous
 62
     0
370
    30
100
AcDbCircle
 10
500.481754
 20
703.803411
 30
0.0
 40
9.996360579883738
100
AcDbArc
 50
298.096237
 51
358.729355
  0
LINE
  5
A1
330
7B
100
AcDbEntity
  8
0
  6
Continuous
 62
     0
370
    30
100
AcDbLine
 10
509.84671
 20
658.799286
 30
0.0
 11
509.701881
 21
658.799286
 31
0.0
  0
SPLINE
  5
A2
330
7B
100
AcDbEntity
  8
0
  6
Continuous
 62
     0
370
    30
100
AcDbSpline
210
0.0
220
0.0
230
1.0
 70
    28
 71
     2
 72
     6
 73
     3
 74
     0
 42
0.000000001
 43
0.0
 40
0.2916666666666667
 40
0.2916666666666667
 40
0.2916666666666667
 40
0.3313243871708945
 40
0.3313243871708945
 40
0.3313243871708945
 10
519.0021737389801
 20
658.7992858084398
 30
0.0
 41
0.9186407725518189
 10
519.0028664736607
 20
658.7992858084398
 30
0.0
 41
0.8876661661270521
 10
518.857365900849
 20
658.7992858084398
 30
0.0
 41
0.8714321471141477
  0
ARC
  5
A3
330
7B
100
AcDbEntity
  8
0
  6
Continuous
 62
     0
370
    30
100
AcDbCircle
 10
514.347419
 20
672.839505
 30
0.0
 40
14.79170438662046
100
AcDbArc
 50
270.202195
 51
288.341921
  0
ARC
  5
A4
330
7B
100
AcDbEntity
  8
0
  6
Continuous
 62
     0
370
    30
100
AcDbCircle
 10
514.356266
 20
672.837235
 30
0.0
 40
14.78943343060302
100
AcDbArc
 50
251.656671
 51
269.98358
  0
ENDBLK
  5
A6
330
7B
100
AcDbEntity
  8
0
100
AcDbBlockEnd
  0
BLOCK
  5
120
330
A8
100
AcDbEntity
  8
0
100
AcDbBlockBegin
  2
c
 70
     0
 10
446.772461
 20
146.446152
 30
0.0
  3
c
  1

  0
LINE
  5
A9
330
A8
100
AcDbEntity
  8
0
  6
Continuous
 62
     0
370
    30
100
AcDbLine
 10
710.869585
 20
526.273912
 30
0.0
 11
710.869585
 21
569.273912
 31
0.0
  0
LINE
  5
AA
330
A8
100
AcDbEntity
  8
0
  6
Continuous
 62
     0
370
    30
100
AcDbLine
 10
710.869585
 20
526.273912
 30
0.0
 11
710.369585
 21
525.773912
 31
0.0
  0
LINE
  5
AB
330
A8
100
AcDbEntity
  8
0
  6
Continuous
 62
     0
370
    30
100
AcDbLine
 10
710.369585
 20
525.773912
 30
0.0
 11
710.369585
 21
569.773912
 31
0.0
  0
LINE
  5
AC
330
A8
100
AcDbEntity
  8
0
  6
Continuous
 62
     0
370
    30
100
AcDbLine
 10
697.119585
 20
525.773912
 30
0.0
 11
660.869585
 21
525.773912
 31
0.0
  0
LINE
  5
AD
330
A8
100
AcDbEntity
  8
0
  6
Continuous
 62
     0
370
    30
100
AcDbLine
 10
660.869585
 20
569.773912
 30
0.0
 11
660.869585
 21
525.773912
 31
0.0
  0
SPLINE
  5
AE
330
A8
100
AcDbEntity
  8
0
  6
Continuous
 62
     0
370
     0
100
AcDbSpline
210
0.0
220
0.0
230
1.0
 70
     8
 71
     3
 72
    24
 73
    20
 74
     0
 42
0.000000001
 43
0.0
 40
0.0
 40
0.0
 40
0.0
 40
0.0
 40
0.018584924447234
 40
0.055754773341702
 40
0.081804832373189
 40
0.118407724601889
 40
0.170476904286106
 40
0.245862245642373
 40
0.358759051815003
 40
0.454342536345224
 40
0.5456562086992379
 40
0.641239206821889
 40
0.7541351802452729
 40
0.8295249270934658
 40
0.881600431068801
 40
0.9181821384176029
 40
0.944255003342431
 40
0.9814183344474771
 40
1.0
 40
1.0
 40
1.0
 40
1.0
 10
697.1195848839877
 20
525.7739119172204
 30
0.0
 10
697.1203561433285
 20
525.7739119172204
 30
0.0
 10
697.1267296463895
 20
525.7756599989539
 30
0.0
 10
697.1755638192324
 20
525.7859375337343
 30
0.0
 10
697.2819081573971
 20
525.8084846580393
 30
0.0
 10
697.4586360460215
 20
525.8449951797672
 30
0.0
 10
697.8164038088167
 20
525.9154383060663
 30
0.0
 10
698.545016133634
 20
526.0440885769201
 30
0.0
 10
699.7108081398447
 20
526.200353016888
 30
0.0
 10
701.1566511125313
 20
526.296282579247
 30
0.0
 10
702.5825044060708
 20
526.2962849814378
 30
0.0
 10
704.0283496488826
 20
526.2003606213211
 30
0.0
 10
705.1941633809452
 20
526.044096328892
 30
0.0
 10
705.9228048314004
 20
525.9154339475924
 30
0.0
 10
706.2803920936002
 20
525.8449940667732
 30
0.0
 10
706.4573716293319
 20
525.8084851282051
 30
0.0
 10
706.563519469565
 20
525.7859359592987
 30
0.0
 10
706.6124228819118
 20
525.7756593846182
 30
0.0
 10
706.6188095575602
 20
525.7739119172204
 30
0.0
 10
706.6195848839876
 20
525.7739119172204
 30
0.0
  0
LINE
  5
AF
330
A8
100
AcDbEntity
  8
0
  6
Continuous
 62
     0
370
    30
100
AcDbLine
 10
706.619585
 20
525.773912
 30
0.0
 11
710.369585
 21
525.773912
 31
0.0
  0
SPLINE
  5
B0
330
A8
100
AcDbEntity
  8
0
  6
Continuous
 62
     0
370
     0
100
AcDbSpline
210
0.0
220
0.0
230
1.0
 70
     8
 71
     3
 72
    24
 73
    20
 74
     0
 42
0.000000001
 43
0.0
 40
0.0
 40
0.0
 40
0.0
 40
0.0
 40
0.01863668698043
 40
0.055910060941291
 40
0.08197980755346
 40
0.118515250696554
 40
0.170558331363784
 40
0.245898782828103
 40
0.3587147753289371
 40
0.4543242884535449
 40
0.5457051194251229
 40
0.6413160178973569
 40
0.7541243467554002
 40
0.8294703504639498
 40
0.8815373060217231
 40
0.918147231170306
 40
0.9442054678077451
 40
0.9814018226025819
 40
1.0
 40
1.0
 40
1.0
 40
1.0
 10
705.9691876745405
 20
569.7739119171931
 30
0.0
 10
705.9685160987857
 20
569.7739120431494
 30
0.0
 10
705.9629940816944
 20
569.7726048135688
 30
0.0
 10
705.9209757721295
 20
569.7649227902247
 30
0.0
 10
705.8292830390178
 20
569.7480979414851
 30
0.0
 10
705.6763673878539
 20
569.7209249500143
 30
0.0
 10
705.3678325482458
 20
569.6685347382739
 30
0.0
 10
704.7389905628745
 20
569.5728562832546
 30
0.0
 10
703.7319791443383
 20
569.4569331918119
 30
0.0
 10
702.4844455798977
 20
569.3858964842382
 30
0.0
 10
701.2543364087168
 20
569.3859821107324
 30
0.0
 10
700.006892900793
 20
569.4569853829087
 30
0.0
 10
698.9997209094845
 20
569.572880538868
 30
0.0
 10
698.3709266939316
 20
569.6685685915263
 30
0.0
 10
698.0622040017955
 20
569.7209845357411
 30
0.0
 10
697.9096841348297
 20
569.7481640226706
 30
0.0
 10
697.817883069209
 20
569.7649547497257
 30
0.0
 10
697.77574877458
 20
569.7726097067307
 30
0.0
 10
697.770249932615
 20
569.7739119172204
 30
0.0
 10
697.7695848839876
 20
569.7739119172204
 30
0.0
  0
SPLINE
  5
B1
330
A8
100
AcDbEntity
  8
0
  6
Continuous
 62
     0
370
    30
100
AcDbSpline
210
0.0
220
0.0
230
1.0
 70
    28
 71
     2
 72
     8
 73
     5
 74
     0
 42
0.000000001
 43
0.0
 40
0.0
 40
0.0
 40
0.0
 40
0.5
 40
0.5
 40
1.0
 40
1.0
 40
1.0
 10
705.3195848839875
 20
577.6039118409265
 30
0.0
 41
1.0
 10
705.3195850347919
 20
577.6039118409265
 30
0.0
 41
0.707106781186548
 10
701.869585034792
 20
577.6039118409265
 30
0.0
 41
1.0
 10
698.4195850347919
 20
577.6039118409265
 30
0.0
 41
0.707106781186548
 10
698.4195848839877
 20
577.6039118409265
 30
0.0
 41
1.0
  0
LINE
  5
B2
330
A8
100
AcDbEntity
  8
0
  6
Continuous
 62
     0
370
    30
100
AcDbLine
 10
705.319585
 20
577.603912
 30
0.0
 11
705.819585
 21
577.103912
 31
0.0
  0
SPLINE
  5
B3
330
A8
100
AcDbEntity
  8
0
  6
Continuous
 62
     0
370
    30
100
AcDbSpline
210
0.0
220
0.0
230
1.0
 70
     8
 71
     3
 72
    16
 73
    12
 74
     0
 42
0.000000001
 43
0.0
 40
0.0
 40
0.0
 40
0.0
 40
0.0
 40
0.04763099675901
 40
0.14289299027703
 40
0.28523718580685
 40
0.428244545806745
 40
0.571172638337005
 40
0.7141139409365771
 40
0.857056401413549
 40
0.9523521338045171
 40
1.0
 40
1.0
 40
1.0
 40
1.0
 10
705.8195848839877
 20
577.1039118409265
 30
0.0
 10
705.8195848925275
 20
577.1039118409265
 30
0.0
 10
705.7746042471894
 20
577.1039118409265
 30
0.0
 10
705.4246853752238
 20
577.1039547916489
 30
0.0
 10
704.4186023397276
 20
577.1039011712096
 30
0.0
 10
702.7831353848071
 20
577.1039218586878
 30
0.0
 10
700.9638830272236
 20
577.1039101719941
 30
0.0
 10
699.3242878729261
 20
577.1039122919917
 30
0.0
 10
698.3162261379704
 20
577.1039119498855
 30
0.0
 10
697.9636717808762
 20
577.1039120084797
 30
0.0
 10
697.9195850409735
 20
577.1039119893694
 30
0.0
 10
697.9195848839877
 20
577.1039118409265
 30
0.0
  0
LINE
  5
B4
330
A8
100
AcDbEntity
  8
0
  6
Continuous
 62
     0
370
    30
100
AcDbLine
 10
705.819585
 20
569.773912
 30
0.0
 11
705.819585
 21
577.103912
 31
0.0
  0
SPLINE
  5
B5
330
A8
100
AcDbEntity
  8
0
  6
Continuous
 62
     0
370
    30
100
AcDbSpline
210
0.0
220
0.0
230
1.0
 70
     8
 71
     3
 72
    16
 73
    12
 74
     0
 42
0.000000001
 43
0.0
 40
0.5
 40
0.5
 40
0.5
 40
0.5
 40
0.50000110892867
 40
0.571419917372153
 40
0.6428607778721701
 40
0.7142929566362282
 40
0.785706640232745
 40
0.857138931915021
 40
0.9285802809968668
 40
0.9761934269989562
 40
1.0
 40
1.0
 40
1.0
 40
1.0
 10
697.9195848839772
 20
569.7738358884881
 30
0.0
 10
697.9195848840013
 20
569.7738358886168
 30
0.0
 10
697.9195885376818
 20
569.7738437768196
 30
0.0
 10
698.1911016915607
 20
569.7227990676053
 30
0.0
 10
699.3219652868172
 20
569.5507547000227
 30
0.0
 10
700.9575283439356
 20
569.4110291082172
 30
0.0
 10
702.7815910829033
 20
569.4110184772467
 30
0.0
 10
704.4174717361491
 20
569.5508123771435
 30
0.0
 10
705.4215914244445
 20
569.7035733294431
 30
0.0
 10
705.7759630465608
 20
569.7656175929258
 30
0.0
 10
705.8195848925411
 20
569.7739119172204
 30
0.0
 10
705.8195848839877
 20
569.7739119172204
 30
0.0
  0
LINE
  5
B6
330
A8
100
AcDbEntity
  8
0
  6
Continuous
 62
     0
370
    30
100
AcDbLine
 10
697.119585
 20
525.773912
 30
0.0
 11
706.619585
 21
525.773912
 31
0.0
  0
LINE
  5
B7
330
A8
100
AcDbEntity
  8
0
  6
Continuous
 62
     0
370
    30
100
AcDbLine
 10
705.819585
 20
569.773912
 30
0.0
 11
705.969188
 21
569.773912
 31
0.0
  0
LINE
  5
B8
330
A8
100
AcDbEntity
  8
0
  6
Continuous
 62
     0
370
    30
100
AcDbLine
 10
697.919585
 20
577.103912
 30
0.0
 11
697.919585
 21
569.773836
 31
0.0
  0
LINE
  5
B9
330
A8
100
AcDbEntity
  8
0
  6
Continuous
 62
     0
370
    30
100
AcDbLine
 10
697.919585
 20
577.103912
 30
0.0
 11
698.419585
 21
577.603912
 31
0.0
  0
LINE
  5
BA
330
A8
100
AcDbEntity
  8
0
  6
Continuous
 62
     0
370
    30
100
AcDbLine
 10
660.869585
 20
569.773912
 30
0.0
 11
697.769585
 21
569.773912
 31
0.0
  0
LINE
  5
BB
330
A8
100
AcDbEntity
  8
0
  6
Continuous
 62
     0
370
    30
100
AcDbLine
 10
710.369585
 20
569.773912
 30
0.0
 11
705.969187
 21
569.773912
 31
0.0
  0
LINE
  5
BC
330
A8
100
AcDbEntity
  8
0
  6
Continuous
 62
     0
370
    30
100
AcDbLine
 10
710.869585
 20
569.273912
 30
0.0
 11
710.369585
 21
569.773912
 31
0.0
  0
SPLINE
  5
BD
330
A8
100
AcDbEntity
  8
0
  6
Continuous
 62
     0
370
    30
100
AcDbSpline
210
0.0
220
0.0
230
1.0
 70
     8
 71
     3
 72
    18
 73
    14
 74
     0
 42
0.000000001
 43
0.0
 40
50.26909665648908
 40
50.26909665648908
 40
50.26909665648908
 40
50.26909665648908
 40
51.34852973154879
 40
53.17522302435439
 40
56.33368274125549
 40
59.48403434448655
 40
62.78416741764998
 40
65.93400671407747
 40
69.08366762508942
 40
72.24626700647093
 40
75.40941931188561
 40
78.55439778159521
 40
80.2601015381615
 40
80.2601015381615
 40
80.2601015381615
 40
80.2601015381615
 10
660.3695537558265
 20
682.5486398241562
 30
0.0
 10
660.3632753637753
 20
682.2053559647151
 30
0.0
 10
660.3463669196974
 20
681.2710956433534
 30
0.0
 10
660.3113035377044
 20
679.2788817386432
 30
0.0
 10
660.2655990969112
 20
676.5548817983561
 30
0.0
 10
660.2157069102533
 20
673.3854435447321
 30
0.0
 10
660.1720093269175
 20
670.3930491740491
 30
0.0
 10
660.1362738930767
 20
667.6989567781596
 30
0.0
 10
660.1100719223527
 20
665.4329718088059
 30
0.0
 10
660.0939025732451
 20
663.6425380572168
 30
0.0
 10
660.0884576626113
 20
662.4022745489417
 30
0.0
 10
660.0930713590268
 20
661.85703348992
 30
0.0
 10
660.1000737577565
 20
661.7715561063873
 30
0.0
 10
660.103039932962
 20
661.7717470826483
 30
0.0
  0
LINE
  5
BE
330
A8
100
AcDbEntity
  8
0
  6
Continuous
 62
     0
370
    30
100
AcDbLine
 10
660.369554
 20
682.638208
 30
0.0
 11
660.369554
 21
682.54864
 31
0.0
  0
LINE
  5
BF
330
A8
100
AcDbEntity
  8
0
  6
Continuous
 62
     0
370
     0
100
AcDbLine
 10
660.369554
 20
682.906913
 30
0.0
 11
660.369554
 21
682.638208
 31
0.0
  0
SPLINE
  5
C0
330
A8
100
AcDbEntity
  8
0
  6
Continuous
 62
     0
370
     0
100
AcDbSpline
210
0.0
220
0.0
230
1.0
 70
     8
 71
     3
 72
    31
 73
    27
 74
     0
 42
0.000000001
 43
0.0
 40
15.32813771036084
 40
15.32813771036084
 40
15.32813771036084
 40
15.32813771036084
 40
15.51986675377279
 40
17.29373133776561
 40
19.06759592175842
 40
20.72484435273388
 40
22.38209278370935
 40
23.98914882251212
 40
25.59620486131488
 40
27.35827577344467
 40
29.12034668557445
 40
30.83629195100925
 40
32.55223721644407
 40
34.33840770994256
 40
36.12457820344106
 40
37.89820160738812
 40
39.67182501133518
 40
41.36497722916518
 40
43.05812944699517
 40
44.7693306390904
 40
46.4805318311856
 40
48.2523276796901
 40
50.02412352819457
 40
52.03170136852293
 40
54.03927920885126
 40
54.04451950318705
 40
54.04451950318705
 40
54.04451950318705
 40
54.04451950318705
 10
660.1359612646584
 20
661.7716598510742
 30
0.0
 10
660.1352600850137
 20
661.7481602394844
 30
0.0
 10
660.1281213219975
 20
661.5106472976912
 30
0.0
 10
660.1155188267396
 20
661.125528086147
 30
0.0
 10
660.1006090094836
 20
660.7619427689385
 30
0.0
 10
660.0886848923884
 20
660.5740985829212
 30
0.0
 10
660.0797238817703
 20
660.5499211836508
 30
0.0
 10
660.0734539473276
 20
660.6804261738888
 30
0.0
 10
660.069708853254
 20
660.9672675821416
 30
0.0
 10
660.0687705814837
 20
661.4270394818227
 30
0.0
 10
660.070929294921
 20
662.0659403724572
 30
0.0
 10
660.076112165124
 20
662.8592192493866
 30
0.0
 10
660.0842690496759
 20
663.8060874786037
 30
0.0
 10
660.0955175039494
 20
664.911732121751
 30
0.0
 10
660.1098249377967
 20
666.167214329694
 30
0.0
 10
660.1268802527384
 20
667.5439894235406
 30
0.0
 10
660.1461689795782
 20
669.0033984283563
 30
0.0
 10
660.1674117821989
 20
670.5285912245878
 30
0.0
 10
660.1903556360288
 20
672.1054652707203
 30
0.0
 10
660.2151408138384
 20
673.743569986621
 30
0.0
 10
660.2418468424572
 20
675.4469910096764
 30
0.0
 10
660.2701846895454
 20
677.1944051286232
 30
0.0
 10
660.3012182312161
 20
679.0467549282826
 30
0.0
 10
660.3344211100002
 20
680.9625480982496
 30
0.0
 10
660.3578237543234
 20
682.2655565635872
 30
0.0
 10
660.3695233350146
 20
682.9052473013555
 30
0.0
 10
660.3695538058874
 20
682.9069133384456
 30
0.0
  0
LINE
  5
C1
330
A8
100
AcDbEntity
  8
0
  6
Continuous
 62
     0
370
     0
100
AcDbLine
 10
660.069508
 20
682.996482
 30
0.0
 11
658.1696
 21
682.996482
 31
0.0
  0
SPLINE
  5
C2
330
A8
100
AcDbEntity
  8
0
  6
Continuous
 62
     0
370
     0
100
AcDbSpline
210
0.0
220
0.0
230
1.0
 70
     8
 71
     3
 72
    19
 73
    15
 74
     0
 42
0.000000001
 43
0.0
 40
0.0
 40
0.0
 40
0.0
 40
0.0
 40
0.023318075111569
 40
0.069954225334706
 40
0.105069162762441
 40
0.140283163225278
 40
0.210998146606018
 40
0.282354916961713
 40
0.318346447764536
 40
0.354500068764808
 40
0.4270889148248179
 40
0.500000000000018
 40
0.572911085175215
 40
0.5965176030736736
 40
0.5965176030736736
 40
0.5965176030736736
 40
0.5965176030736736
 10
658.1695995287496
 20
682.9964816966327
 30
0.0
 10
658.176917964833
 20
682.5893502782793
 30
0.0
 10
658.1988732808613
 20
681.353985105314
 30
0.0
 10
658.2317417304238
 20
679.44116244982
 30
0.0
 10
658.2671124234871
 20
677.2996850401231
 30
0.0
 10
658.3082167561556
 20
674.7230353362063
 30
0.0
 10
658.3560260265383
 20
671.5515772615903
 30
0.0
 10
658.3963153813629
 20
668.6238810621205
 30
0.0
 10
658.4227909822255
 20
666.514740601606
 30
0.0
 10
658.4451777877739
 20
664.5796455518547
 30
0.0
 10
658.4645575322002
 20
662.5581498523838
 30
0.0
 10
658.4724764496158
 20
660.9231322225858
 30
0.0
 10
658.4663332228638
 20
660.3365626698355
 30
0.0
 10
658.4583244709523
 20
660.2717024156748
 30
0.0
 10
658.4561036715687
 20
660.271869377806
 30
0.0
  0
SPLINE
  5
C3
330
A8
100
AcDbEntity
  8
0
  6
Continuous
 62
     0
370
     0
100
AcDbSpline
210
0.0
220
0.0
230
1.0
 70
     8
 71
     3
 72
    19
 73
    15
 74
     0
 42
0.000000001
 43
0.0
 40
0.4034824142381267
 40
0.4034824142381267
 40
0.4034824142381267
 40
0.4034824142381267
 40
0.42708891836834
 40
0.499999996303494
 40
0.57291107571774
 40
0.6454999154717019
 40
0.681653534321903
 40
0.717645065424837
 40
0.7890018421048379
 40
0.8597168288403509
 40
0.894930827873293
 40
0.9300457620995981
 40
0.9766819206998658
 40
1.0
 40
1.0
 40
1.0
 40
1.0
 10
659.7830029882485
 20
660.2718693773943
 30
0.0
 10
659.7807822314037
 20
660.2717024391108
 30
0.0
 10
659.772773673175
 20
660.3365627380787
 30
0.0
 10
659.7666309780168
 20
660.9231321968706
 30
0.0
 10
659.7745500997626
 20
662.5581496032255
 30
0.0
 10
659.7939300646017
 20
664.5796450335271
 30
0.0
 10
659.8163170422603
 20
666.5147398761006
 30
0.0
 10
659.842792706359
 20
668.6238803133558
 30
0.0
 10
659.8830819156431
 20
671.551576615064
 30
0.0
 10
659.9308911703398
 20
674.7230348150883
 30
0.0
 10
659.9719955162274
 20
677.2996844882956
 30
0.0
 10
660.0073662016015
 20
679.4411619661471
 30
0.0
 10
660.0402345675909
 20
681.3539848057252
 30
0.0
 10
660.0621897348452
 20
682.589350204501
 30
0.0
 10
660.0695081080668
 20
682.9964816966327
 30
0.0
  0
SPLINE
  5
C4
330
A8
100
AcDbEntity
  8
0
  6
Continuous
 62
     0
370
     0
100
AcDbSpline
210
0.0
220
0.0
230
1.0
 70
     8
 71
     3
 72
    65
 73
    61
 74
     0
 42
0.000000001
 43
0.0
 40
-27.01924450891428
 40
-27.01924450891428
 40
-27.01924450891428
 40
-27.01924450891428
 40
-27.01621157198858
 40
-26.05134687298899
 40
-25.0864821739894
 40
-24.12161747498981
 40
-23.15675277599022
 40
-22.19188807699061
 40
-21.22702337799102
 40
-20.26215867899144
 40
-19.29729397999185
 40
-18.33242928099225
 40
-17.36756458199266
 40
-16.40269988299307
 40
-15.43783518399348
 40
-14.47297048499389
 40
-13.5081057859943
 40
-12.54324108699471
 40
-11.57837638799512
 40
-10.61351168899552
 40
-9.648646989995937
 40
-8.683782290996344
 40
-7.718917591996754
 40
-6.75405289299716
 40
-5.78918819399757
 40
-4.824323494997979
 40
-3.85945879599839
 40
-2.894594096998798
 40
-1.929729397999207
 40
-0.9648646989996159
 40
-0.0000000000000249
 40
0.9648646989995662
 40
1.929729397999157
 40
2.894594096998752
 40
3.859458795998343
 40
4.824323494997933
 40
5.789188193997527
 40
6.754052892997119
 40
7.718917591996709
 40
8.683782290996298
 40
9.648646989995889
 40
10.61351168899548
 40
11.57837638799507
 40
12.54324108699466
 40
13.50810578599425
 40
14.47297048499385
 40
15.43783518399344
 40
16.40269988299303
 40
17.36756458199262
 40
18.33242928099222
 40
19.2972939799918
 40
20.26215867899138
 40
21.22702337799098
 40
22.19188807699058
 40
23.15675277599016
 40
24.12161747498977
 40
25.08648217398935
 40
26.05134687298893
 40
27.01621157198853
 40
27.01924450887417
 40
27.01924450887417
 40
27.01924450887417
 40
27.01924450887417
 10
657.8695922626531
 20
682.9048106591079
 30
0.0
 10
657.8696099073815
 20
682.9038459024558
 30
0.0
 10
657.875240686225
 20
682.5959695857565
 30
0.0
 10
657.8864884178341
 20
681.975596724162
 30
0.0
 10
657.9032774888806
 20
681.0333914896779
 30
0.0
 10
657.9199615562925
 20
680.0808712993239
 30
0.0
 10
657.9364870883094
 20
679.1210795653542
 30
0.0
 10
657.9528023674943
 20
678.1570237064136
 30
0.0
 10
657.9688559854526
 20
677.1917403325202
 30
0.0
 10
657.9845974515226
 20
676.2282656890485
 30
0.0
 10
657.9999772318803
 20
675.2696314630208
 30
0.0
 10
658.0149469374794
 20
674.3188538082411
 30
0.0
 10
658.0294594677041
 20
673.3789242401493
 30
0.0
 10
658.043469160868
 20
672.4528001203026
 30
0.0
 10
658.0569319372657
 20
671.5433953790487
 30
0.0
 10
658.0698054380293
 20
670.6535713398202
 30
0.0
 10
658.0820491583609
 20
669.7861277183365
 30
0.0
 10
658.0936245749867
 20
668.9437938131301
 30
0.0
 10
658.1044952673639
 20
668.1292199183068
 30
0.0
 10
658.114627032272
 20
667.3449689847014
 30
0.0
 10
658.1239879914306
 20
666.593508555896
 30
0.0
 10
658.1325486917988
 20
665.8772030044136
 30
0.0
 10
658.140282198246
 20
665.1983060925263
 30
0.0
 10
658.1471641783002
 20
664.5589538810868
 30
0.0
 10
658.1531729787055
 20
663.9611580086897
 30
0.0
 10
658.1582896935531
 20
663.4067993623129
 30
0.0
 10
658.1624982237652
 20
662.8976221593506
 30
0.0
 10
658.1657853277484
 20
662.435228459661
 30
0.0
 10
658.1681406630578
 20
662.0210731248922
 30
0.0
 10
658.1695568189368
 20
661.6564592409504
 30
0.0
 10
658.1700293396354
 20
661.3425340180085
 30
0.0
 10
658.1695567384285
 20
661.0802851809591
 30
0.0
 10
658.1681405022942
 20
660.8705378616661
 30
0.0
 10
658.1657850872357
 20
660.7139520027952
 30
0.0
 10
658.1624979042599
 20
660.6110202813895
 30
0.0
 10
658.1582892960606
 20
660.5620665587257
 30
0.0
 10
658.1531725044764
 20
660.5672448613265
 30
0.0
 10
658.1471636288265
 20
660.6265388963358
 30
0.0
 10
658.140281575257
 20
660.7397621027831
 30
0.0
 10
658.132547997254
 20
660.9065582385723
 30
0.0
 10
658.1239872275157
 20
661.1264025013514
 30
0.0
 10
658.1146262013906
 20
661.3986031797353
 30
0.0
 10
658.1044943721299
 20
661.7223038296856
 30
0.0
 10
658.0936236182173
 20
662.0964859691989
 30
0.0
 10
658.082048143066
 20
662.5199722828327
 30
0.0
 10
658.0698043674038
 20
662.9914303259602
 30
0.0
 10
658.0569308146779
 20
663.5093767171898
 30
0.0
 10
658.0434679898501
 20
664.0721818054245
 30
0.0
 10
658.0294582519405
 20
664.6780747981164
 30
0.0
 10
658.0149456807954
 20
665.3251493299707
 30
0.0
 10
657.9999759382299
 20
666.0113694717625
 30
0.0
 10
657.9845961249762
 20
666.7345760962427
 30
0.0
 10
657.9688546301837
 20
667.4924938203858
 30
0.0
 10
657.9528009877672
 20
668.2827376091328
 30
0.0
 10
657.9364856884654
 20
669.1028223525717
 30
0.0
 10
657.9199601407357
 20
669.9501629485559
 30
0.0
 10
657.9032760620655
 20
670.8221113092414
 30
0.0
 10
657.8864869842479
 20
671.7158569380103
 30
0.0
 10
657.8752392511351
 20
672.32546754104
 30
0.0
 10
657.8696084722911
 20
672.633338883376
 30
0.0
 10
657.8695908275631
 20
672.6343036466747
 30
0.0
  0
SPLINE
  5
C5
330
A8
100
AcDbEntity
  8
0
  6
Continuous
 62
     0
370
     0
100
AcDbSpline
210
0.0
220
0.0
230
1.0
 70
    12
 71
     2
 72
     8
 73
     5
 74
     0
 42
0.000000001
 43
0.0
 40
0.0000556369954861
 40
0.0000556369954861
 40
0.0000556369954861
 40
0.5
 40
0.5
 40
0.9999443769431663
 40
0.9999443769431663
 40
0.9999443769431663
 10
657.8695909610598
 20
673.5896997281862
 30
0.0
 41
0.9999348244599285
 10
658.1139235912827
 20
660.2309937053185
 30
0.0
 41
0.7071393795525384
 10
658.1139241800556
 20
664.4101931023065
 30
0.0
 41
1.0
 10
658.1139247688288
 20
668.5893926640678
 30
0.0
 41
0.707139371387465
 10
657.8695921291563
 20
681.9494145775943
 30
0.0
 41
0.9999348407864413
  0
SPLINE
  5
C6
330
A8
100
AcDbEntity
  8
0
  6
Continuous
 62
     0
370
     0
100
AcDbSpline
210
0.0
220
0.0
230
1.0
 70
     8
 71
     3
 72
    14
 73
    10
 74
     0
 42
0.000000001
 43
0.0
 40
44.92283353403151
 40
44.92283353403151
 40
44.92283353403151
 40
44.92283353403151
 40
45.37035808752793
 40
47.25436468279624
 40
49.13837127806457
 40
50.77200767273273
 40
52.40564406740092
 40
54.03928046206909
 40
54.04231510397214
 40
54.04231510397214
 40
54.04231510397214
 40
54.04231510397214
 10
658.0214081788142
 20
690.5054556709276
 30
0.0
 10
658.019161832142
 20
690.4051453959123
 30
0.0
 10
658.0073694569788
 20
689.875056989201
 30
0.0
 10
657.985242877978
 20
688.8476180906537
 30
0.0
 10
657.9555713845621
 20
687.4046941158858
 30
0.0
 10
657.9264090658464
 20
685.9307122578277
 30
0.0
 10
657.8981580315136
 20
684.4553656101577
 30
0.0
 10
657.879125757938
 20
683.4302750675877
 30
0.0
 10
657.8696099079458
 20
682.9099808546247
 30
0.0
 10
657.8695922625956
 20
682.9090160558378
 30
0.0
  0
SPLINE
  5
C7
330
A8
100
AcDbEntity
  8
0
  6
Continuous
 62
     0
370
     0
100
AcDbSpline
210
0.0
220
0.0
230
1.0
 70
     8
 71
     3
 72
    16
 73
    12
 74
     0
 42
0.000000001
 43
0.0
 40
0.0
 40
0.0
 40
0.0
 40
0.0
 40
0.023318075111572
 40
0.069954225334717
 40
0.105069162762465
 40
0.140283163225319
 40
0.210998146606102
 40
0.282354916961848
 40
0.318346447764697
 40
0.354500068764993
 40
0.4035835575151098
 40
0.4035835575151098
 40
0.4035835575151098
 40
0.4035835575151098
 10
660.0695081080669
 20
682.9964816966327
 30
0.0
 10
660.0621896719836
 20
683.4036131149862
 30
0.0
 10
660.0402343520508
 20
684.6110364518227
 30
0.0
 10
660.0073658789158
 20
686.3551566993993
 30
0.0
 10
659.9719951372904
 20
688.1490882681117
 30
0.0
 10
659.9308907235925
 20
690.1458335166596
 30
0.0
 10
659.8830813102045
 20
692.2938412514729
 30
0.0
 10
659.8427917634583
 20
693.8480088601198
 30
0.0
 10
659.8163159848914
 20
694.6853677649516
 30
0.0
 10
659.7975647211483
 20
695.1509293773836
 30
0.0
 10
659.7875868630538
 20
695.2713901067214
 30
0.0
 10
659.7829739693092
 20
695.2714515876326
 30
0.0
  0
SPLINE
  5
C8
330
A8
100
AcDbEntity
  8
0
  6
Continuous
 62
     0
370
     0
100
AcDbSpline
210
0.0
220
0.0
230
1.0
 70
     8
 71
     3
 72
    16
 73
    12
 74
     0
 42
0.000000001
 43
0.0
 40
0.5964170915177004
 40
0.5964170915177004
 40
0.5964170915177004
 40
0.5964170915177004
 40
0.645499919277634
 40
0.681653536662926
 40
0.7176450652553539
 40
0.7890018382977038
 40
0.859716831114682
 40
0.8949308226302481
 40
0.93004573351407
 40
0.9766819111713569
 40
1.0
 40
1.0
 40
1.0
 40
1.0
 10
658.4561315359985
 20
695.271451585199
 30
0.0
 10
658.451518759468
 20
695.2713882727779
 30
0.0
 10
658.4415410589627
 20
695.1509269379446
 30
0.0
 10
658.4227899699605
 20
694.6853679825334
 30
0.0
 10
658.3963143941286
 20
693.8480092294357
 30
0.0
 10
658.3560253670134
 20
692.2938416852708
 30
0.0
 10
658.3082163947715
 20
690.1458339869055
 30
0.0
 10
658.2671120386699
 20
688.1490891638355
 30
0.0
 10
658.2317410373571
 20
686.3551578355217
 30
0.0
 10
658.198872498514
 20
684.6110374045817
 30
0.0
 10
658.1769177014282
 20
683.4036133584639
 30
0.0
 10
658.1695995287498
 20
682.9964816966327
 30
0.0
  0
SPLINE
  5
C9
330
A8
100
AcDbEntity
  8
0
  6
Continuous
 62
     0
370
     0
100
AcDbSpline
210
0.0
220
0.0
230
1.0
 70
     8
 71
     3
 72
    20
 73
    16
 74
     0
 42
0.000000001
 43
0.0
 40
-81.05387102730326
 40
-81.05387102730326
 40
-81.05387102730326
 40
-81.05387102730326
 40
-81.04863471563898
 40
-80.08377001663936
 40
-79.11890531763977
 40
-78.15404061864017
 40
-77.1891759196406
 40
-76.224311220641
 40
-75.25944652164142
 40
-74.29458182264179
 40
-73.32971712364224
 40
-72.36485242464262
 40
-71.39998772564306
 40
-70.43512302664344
 40
-70.16511917276053
 40
-70.16511917276053
 40
-70.16511917276053
 40
-70.16511917276053
 10
660.3695538058873
 20
682.9069133382741
 30
0.0
 10
660.3695233408159
 20
682.9085790952522
 30
0.0
 10
660.3638797481253
 20
683.2171571969097
 30
0.0
 10
660.3526191924473
 20
683.8274627641381
 30
0.0
 10
660.3358301146296
 20
684.7212083929069
 30
0.0
 10
660.3191460359595
 20
685.5931567535924
 30
0.0
 10
660.3026204882299
 20
686.4404973495767
 30
0.0
 10
660.2863051889282
 20
687.2605820930156
 30
0.0
 10
660.2702515465118
 20
688.0508258817626
 30
0.0
 10
660.2545100517194
 20
688.8087436059058
 30
0.0
 10
660.2391302384658
 20
689.531950230386
 30
0.0
 10
660.2241604959004
 20
690.2181703721776
 30
0.0
 10
660.2096479247555
 20
690.865244904032
 30
0.0
 10
660.1990012899263
 20
691.3256904512986
 30
0.0
 10
660.193173873193
 20
691.5724088124928
 30
0.0
 10
660.1919070019228
 20
691.6257849279527
 30
0.0
  0
SPLINE
  5
CA
330
A8
100
AcDbEntity
  8
0
  6
Continuous
 62
     0
370
     0
100
AcDbSpline
210
0.0
220
0.0
230
1.0
 70
     8
 71
     3
 72
    14
 73
    10
 74
     0
 42
0.000000001
 43
0.0
 40
30.15569303445148
 40
30.15569303445148
 40
30.15569303445148
 40
30.15569303445148
 40
31.59593334783597
 40
34.75546558253617
 40
37.91506750920887
 40
41.07474118996232
 40
44.23447496150394
 40
47.39424471803433
 40
50.55401721052969
 40
50.55401721052969
 40
50.55401721052969
 40
50.55401721052969
 10
660.398054520841
 20
693.7715977969524
 30
0.0
 10
660.4005878640602
 20
693.7716297109373
 30
0.0
 10
660.4098343524174
 20
693.7036383343204
 30
0.0
 10
660.431488082153
 20
693.2218077059566
 30
0.0
 10
660.4670866910769
 20
692.039699468739
 30
0.0
 10
660.5104628984484
 20
690.3095890560068
 30
0.0
 10
660.5599578884658
 20
688.0975402291665
 30
0.0
 10
660.6136423940853
 20
685.4900270835451
 30
0.0
 10
660.6509201500967
 20
683.5510704464047
 30
0.0
 10
660.6695080762254
 20
682.5535445331492
 30
0.0
  0
SPLINE
  5
CB
330
A8
100
AcDbEntity
  8
0
  6
Continuous
 62
     0
370
    30
100
AcDbSpline
210
0.0
220
0.0
230
1.0
 70
     8
 71
     3
 72
    11
 73
     7
 74
     0
 42
0.000000001
 43
0.0
 40
0.0
 40
0.0
 40
0.0
 40
0.0
 40
0.116433977529987
 40
0.232867955059973
 40
0.34930193258997
 40
0.465735910119958
 40
0.465735910119958
 40
0.465735910119958
 40
0.465735910119958
 10
660.6695080762254
 20
682.5535445331492
 30
0.0
 10
660.6304960903537
 20
682.552894699887
 30
0.0
 10
660.551618106374
 20
682.5562465885469
 30
0.0
 10
660.4519179921915
 20
682.5745394774569
 30
0.0
 10
660.3851635672138
 20
682.6032291117431
 30
0.0
 10
660.3695539854109
 20
682.6265467526348
 30
0.0
 10
660.3695537683417
 20
682.6382079511553
 30
0.0
  0
SPLINE
  5
CC
330
A8
100
AcDbEntity
  8
0
  6
Continuous
 62
     0
370
     0
100
AcDbSpline
210
0.0
220
0.0
230
1.0
 70
     8
 71
     3
 72
    12
 73
     8
 74
     0
 42
0.000000001
 43
0.0
 40
0.0
 40
0.0
 40
0.0
 40
0.0
 40
0.111131828689864
 40
0.333395486069591
 40
0.6666040183922181
 40
0.888868006130739
 40
1.0
 40
1.0
 40
1.0
 40
1.0
 10
660.3695538058882
 20
682.9069133881235
 30
0.0
 10
660.3695538066938
 20
682.912066255654
 30
0.0
 10
660.3649712815613
 20
682.927524224861
 30
0.0
 10
660.328581801291
 20
682.9577326564931
 30
0.0
 10
660.2397230014818
 20
682.9842633027946
 30
0.0
 10
660.1385442663386
 20
682.9951178703031
 30
0.0
 10
660.0867671530805
 20
682.9964820139156
 30
0.0
 10
660.0695081152539
 20
682.996482004186
 30
0.0
  0
SPLINE
  5
CD
330
A8
100
AcDbEntity
  8
0
  6
Continuous
 62
     0
370
     0
100
AcDbSpline
210
0.0
220
0.0
230
1.0
 70
     8
 71
     3
 72
    12
 73
     8
 74
     0
 42
0.000000001
 43
0.0
 40
0.0
 40
0.0
 40
0.0
 40
0.0
 40
0.111131868317539
 40
0.333395604952616
 40
0.6666041133082179
 40
0.888868037769406
 40
1.0
 40
1.0
 40
1.0
 40
1.0
 10
658.1695985243407
 20
682.9964817594981
 30
0.0
 10
658.1523395525819
 20
682.9964816351189
 30
0.0
 10
658.1005626299426
 20
682.9951111984284
 30
0.0
 10
657.9993841322355
 20
682.9842462198882
 30
0.0
 10
657.9105256623128
 20
682.9577337321634
 30
0.0
 10
657.8741363094367
 20
682.9275240012116
 30
0.0
 10
657.8695538033838
 20
682.9120662401805
 30
0.0
 10
657.8695538058977
 20
682.9069133797125
 30
0.0
  0
LINE
  5
CE
330
A8
100
AcDbEntity
  8
0
  6
Continuous
 62
     0
370
    30
100
AcDbLine
 10
660.369554
 20
682.54864
 30
0.0
 11
660.669494
 21
682.553544
 31
0.0
  0
LINE
  5
CF
330
A8
100
AcDbEntity
  8
0
  6
Continuous
 62
     0
370
     0
100
AcDbLine
 10
660.369554
 20
682.54864
 30
0.0
 11
661.019551
 21
682.54864
 31
0.0
  0
LINE
  5
D0
330
A8
100
AcDbEntity
  8
0
  6
Continuous
 62
     0
370
    30
100
AcDbLine
 10
660.103042
 20
661.77166
 30
0.0
 11
661.019551
 21
661.77166
 31
0.0
  0
LINE
  5
D1
330
A8
100
AcDbEntity
  8
0
  6
Continuous
 62
     0
370
    30
100
AcDbLine
 10
660.398066
 20
693.77166
 30
0.0
 11
661.019551
 21
693.77166
 31
0.0
  0
SPLINE
  5
D2
330
A8
100
AcDbEntity
  8
0
  6
Continuous
 62
     0
370
    30
100
AcDbSpline
210
0.0
220
0.0
230
1.0
 70
     8
 71
     3
 72
    26
 73
    22
 74
     0
 42
0.000000001
 43
0.0
 40
10.42829946706172
 40
10.42829946706172
 40
10.42829946706172
 40
10.42829946706172
 40
12.36117641067796
 40
14.62119888737562
 40
15.9127233742881
 40
16.88140869966337
 40
17.50849241510482
 40
18.11687432181169
 40
19.02953708513946
 40
19.63806946900287
 40
20.02525877114578
 40
20.41253548285259
 40
20.79998615853717
 40
21.18796808392172
 40
21.37247351621246
 40
21.56083418510354
 40
21.68300131242563
 40
21.7414502829313
 40
21.82444196497393
 40
21.94752027995868
 40
22.03558657774391
 40
22.03558657774391
 40
22.03558657774391
 40
22.03558657774391
 10
658.0406447052305
 20
664.1956273734245
 30
0.0
 10
658.0498907781654
 20
663.7996357680967
 30
0.0
 10
658.0691713074085
 20
663.0023249894587
 30
0.0
 10
658.0918295571046
 20
662.1498758050507
 30
0.0
 10
658.108476706867
 20
661.5891269202318
 30
0.0
 10
658.1182406518687
 20
661.290128039623
 30
0.0
 10
658.1252094341443
 20
661.0944095006768
 30
0.0
 10
658.1316325601765
 20
660.9282911865315
 30
0.0
 10
658.1375536310252
 20
660.7936905136547
 30
0.0
 10
658.1424840144966
 20
660.6997004664101
 30
0.0
 10
658.1459433386703
 20
660.6436549249307
 30
0.0
 10
658.1487920731365
 20
660.6040144731754
 30
0.0
 10
658.1519285071905
 20
660.5700417133011
 30
0.0
 10
658.1547486171713
 20
660.5446384173906
 30
0.0
 10
658.1600728179692
 20
660.5154199364603
 30
0.0
 10
658.1669132936643
 20
660.4848913433871
 30
0.0
 10
658.187406143943
 20
660.4330042646862
 30
0.0
 10
658.2231692474506
 20
660.3795700270598
 30
0.0
 10
658.2770244278133
 20
660.3248525188404
 30
0.0
 10
658.360437243485
 20
660.281286861131
 30
0.0
 10
658.4281355717895
 20
660.2717278275953
 30
0.0
 10
658.4561303286912
 20
660.2717278449719
 30
0.0
  0
SPLINE
  5
D3
330
A8
100
AcDbEntity
  8
0
  6
Continuous
 62
     0
370
    30
100
AcDbSpline
210
0.0
220
0.0
230
1.0
 70
     8
 71
     3
 72
    24
 73
    20
 74
     0
 42
0.000000001
 43
0.0
 40
15.32504651806376
 40
15.32504651806376
 40
15.32504651806376
 40
15.32504651806376
 40
15.91547332206403
 40
16.88416156238275
 40
17.51127875484043
 40
18.11972543865425
 40
19.0324846755811
 40
19.64108131651268
 40
20.02789719419501
 40
20.41480083652092
 40
20.80187917472693
 40
21.18949166214795
 40
21.373387446858
 40
21.56114348870265
 40
21.68314007658857
 40
21.74166322996998
 40
21.8247070576866
 40
21.9477633228543
 40
22.0355494391477
 40
22.0355494391477
 40
22.0355494391477
 40
22.0355494391477
 10
660.1359887119099
 20
661.7716598510742
 30
0.0
 10
660.1338245717641
 20
661.6990773137613
 30
0.0
 10
660.1282295593405
 20
661.5156617336486
 30
0.0
 10
660.1208381994311
 20
661.2893804440963
 30
0.0
 10
660.113870883275
 20
661.0937680062883
 30
0.0
 10
660.1074488913935
 20
660.927745081015
 30
0.0
 10
660.1015288588652
 20
660.7932398026992
 30
0.0
 10
660.0966003847957
 20
660.6993585102535
 30
0.0
 10
660.0931432260968
 20
660.6434040789509
 30
0.0
 10
660.0902972051302
 20
660.6038435765137
 30
0.0
 10
660.0871612686587
 20
660.5699253383817
 30
0.0
 10
660.084341218733
 20
660.5445514935516
 30
0.0
 10
660.0790045734341
 20
660.5153174153911
 30
0.0
 10
660.0721468694517
 20
660.4847789618277
 30
0.0
 10
660.0516317068843
 20
660.4329091885385
 30
0.0
 10
660.0158234464433
 20
660.3794598532027
 30
0.0
 10
659.9618720686595
 20
660.3247306468276
 30
0.0
 10
659.8784838710598
 20
660.2812795875548
 30
0.0
 10
659.8108825747797
 20
660.2717638890614
 30
0.0
 10
659.7829760705713
 20
660.2717638922331
 30
0.0
  0
SPLINE
  5
D4
330
A8
100
AcDbEntity
  8
0
  6
Continuous
 62
     0
370
    30
100
AcDbSpline
210
0.0
220
0.0
230
1.0
 70
     8
 71
     3
 72
    30
 73
    26
 74
     0
 42
0.000000001
 43
0.0
 40
0.0019548582680347
 40
0.0019548582680347
 40
0.0019548582680347
 40
0.0019548582680347
 40
2.355010570424219
 40
5.587449337215951
 40
7.202498642291981
 40
8.492725343909617
 40
12.36393330088935
 40
14.62395124222774
 40
15.91547712801259
 40
16.88416502495178
 40
17.51128156553442
 40
18.11972717634713
 40
19.03248479961222
 40
19.64108036381247
 40
20.02789641842954
 40
20.4148002381992
 40
20.80187875436053
 40
21.18949141988496
 40
21.37338732723537
 40
21.56114349073357
 40
21.68314009251912
 40
21.74166325610877
 40
21.82470708989539
 40
21.94776335520332
 40
22.03554948134002
 40
22.03554948134002
 40
22.03554948134002
 40
22.03554948134002
 10
657.8695922626654
 20
682.9092547626492
 30
0.0
 10
657.8832707110392
 20
683.6571721971667
 30
0.0
 10
657.9157824516402
 20
685.3967556433247
 30
0.0
 10
657.9567383414028
 20
687.4717664117911
 30
0.0
 10
657.990050745773
 20
689.0712494532613
 30
0.0
 10
658.02547727626
 20
690.7111626842402
 30
0.0
 10
658.0612019552908
 20
692.2412334431422
 30
0.0
 10
658.0918629043072
 20
693.3945924777961
 30
0.0
 10
658.1085063346802
 20
693.9550934450089
 30
0.0
 10
658.1182680109268
 20
694.2539401977467
 30
0.0
 10
658.12523531854
 20
694.4495523182495
 30
0.0
 10
658.1316572989554
 20
694.6155748862884
 30
0.0
 10
658.1375773203446
 20
694.7500798800604
 30
0.0
 10
658.1425057880385
 20
694.8439610554269
 30
0.0
 10
658.1459629450562
 20
694.8999154734802
 30
0.0
 10
658.1488089671873
 20
694.9394760034478
 30
0.0
 10
658.1519449047424
 20
694.9733942622307
 30
0.0
 10
658.1547649540993
 20
694.9987681145763
 30
0.0
 10
658.1601015993691
 20
695.0280021979579
 30
0.0
 10
658.1669592959934
 20
695.0585406391392
 30
0.0
 10
658.1874744602943
 20
695.1104104296567
 30
0.0
 10
658.223282719121
 20
695.1638597705612
 30
0.0
 10
658.2772340982399
 20
695.2185889840304
 30
0.0
 10
658.3606222997857
 20
695.2620400485366
 30
0.0
 10
658.4282235993461
 20
695.2715557481163
 30
0.0
 10
658.4561301064392
 20
695.2715557447128
 30
0.0
  0
SPLINE
  5
D5
330
A8
100
AcDbEntity
  8
0
  6
Continuous
 62
     0
370
    30
100
AcDbSpline
210
0.0
220
0.0
230
1.0
 70
     8
 71
     3
 72
    30
 73
    26
 74
     0
 42
0.000000001
 43
0.0
 40
0.0
 40
0.0
 40
0.0
 40
0.0
 40
2.354789331494786
 40
5.585770284702813
 40
7.200224510364367
 40
8.490332847142275
 40
12.36118992440811
 40
14.62121341674229
 40
15.91273847875075
 40
16.88142422605651
 40
17.50850691046989
 40
18.11688646606756
 40
19.02954569439973
 40
19.63807571593686
 40
20.02526481103449
 40
20.41254131934763
 40
20.79999179669001
 40
21.18797353336052
 40
21.37247763410638
 40
21.56083696928048
 40
21.6830033643733
 40
21.74145220415305
 40
21.82444380915206
 40
21.94752212285426
 40
22.03558817426273
 40
22.03558817426273
 40
22.03558817426273
 40
22.03558817426273
 10
660.3695494405979
 20
682.907390657437
 30
0.0
 10
660.3558609327761
 20
683.6559080515906
 30
0.0
 10
660.3233469159561
 20
685.3956919614084
 30
0.0
 10
660.2823926005566
 20
687.4706352964772
 30
0.0
 10
660.249090894146
 20
689.0696490125608
 30
0.0
 10
660.2136674971719
 20
690.709513663267
 30
0.0
 10
660.1779412159902
 20
692.2397803932164
 30
0.0
 10
660.1472764521188
 20
693.3934498634139
 30
0.0
 10
660.1306293091077
 20
693.9541980255822
 30
0.0
 10
660.1208653768804
 20
694.253196037132
 30
0.0
 10
660.1138966148271
 20
694.4489135945778
 30
0.0
 10
660.1074735169241
 20
694.6150308812205
 30
0.0
 10
660.101552473792
 20
694.7496307001013
 30
0.0
 10
660.0966221090382
 20
694.8436202237108
 30
0.0
 10
660.0931627916991
 20
694.8996655040753
 30
0.0
 10
660.0903140591631
 20
694.9393057765317
 30
0.0
 10
660.0871776152375
 20
694.9732784157221
 30
0.0
 10
660.0843575198387
 20
694.9986816014634
 30
0.0
 10
660.0790332366499
 20
695.0279002567584
 30
0.0
 10
660.0721927997249
 20
695.058428642609
 30
0.0
 10
660.0516997861669
 20
695.1103158583477
 30
0.0
 10
660.0159367180878
 20
695.1637498979942
 30
0.0
 10
659.9620815189115
 20
695.2184673272898
 30
0.0
 10
659.8786687607917
 20
695.2620328657404
 30
0.0
 10
659.8109705164115
 20
695.2715918601814
 30
0.0
 10
659.7829758387232
 20
695.271591842815
 30
0.0
  0
SPLINE
  5
D6
330
A8
100
AcDbEntity
  8
0
  6
Continuous
 62
     0
370
    30
100
AcDbSpline
210
0.0
220
0.0
230
1.0
 70
     8
 71
     3
 72
    12
 73
     8
 74
     0
 42
0.000000001
 43
0.0
 40
20.49066355046697
 40
20.49066355046697
 40
20.49066355046697
 40
20.49066355046697
 40
20.52106661233227
 40
20.62167294804506
 40
20.68519711240254
 40
20.77617288291435
 40
20.87227360511877
 40
20.87227360511877
 40
20.87227360511877
 40
20.87227360511877
 10
660.131014396473
 20
693.9356204538988
 30
0.0
 10
660.1334952378478
 20
693.9307198441084
 30
0.0
 10
660.1457334405158
 20
693.908177766466
 30
0.0
 10
660.176197176065
 20
693.8654411565179
 30
0.0
 10
660.235542132557
 20
693.816148909889
 30
0.0
 10
660.3071288123053
 20
693.7810112679831
 30
0.0
 10
660.3674045494565
 20
693.7715978121922
 30
0.0
 10
660.3980602341545
 20
693.7715978327795
 30
0.0
  0
LINE
  5
D7
330
A8
100
AcDbEntity
  8
0
  6
Continuous
 62
     0
370
    30
100
AcDbLine
 10
659.782957
 20
695.27166
 30
0.0
 11
658.456149
 21
695.27166
 31
0.0
  0
LINE
  5
D8
330
A8
100
AcDbEntity
  8
0
  6
Continuous
 62
     0
370
    30
100
AcDbLine
 10
658.456149
 20
660.27166
 30
0.0
 11
659.782957
 21
660.27166
 31
0.0
  0
SPLINE
  5
D9
330
A8
100
AcDbEntity
  8
0
  6
Continuous
 62
     0
370
     0
100
AcDbSpline
210
0.0
220
0.0
230
1.0
 70
     8
 71
     3
 72
    65
 73
    61
 74
     0
 42
0.000000001
 43
0.0
 40
-32.51445735250433
 40
-32.51445735250433
 40
-32.51445735250433
 40
-32.51445735250433
 40
-32.5118392466036
 40
-31.35070213065347
 40
-30.18956501470334
 40
-29.02842789875323
 40
-27.86729078280307
 40
-26.70615366685296
 40
-25.54501655090282
 40
-24.3838794349527
 40
-23.22274231900256
 40
-22.06160520305244
 40
-20.90046808710232
 40
-19.73933097115218
 40
-18.57819385520205
 40
-17.41705673925193
 40
-16.2559196233018
 40
-15.09478250735167
 40
-13.93364539140154
 40
-12.77250827545141
 40
-11.61137115950128
 40
-10.45023404355116
 40
-9.289096927601033
 40
-8.127959811650896
 40
-6.966822695700769
 40
-5.805685579750644
 40
-4.644548463800511
 40
-3.483411347850384
 40
-2.322274231900259
 40
-1.161137115950126
 40
0.0
 40
1.161137115950126
 40
2.322274231900257
 40
3.483411347850384
 40
4.644548463800511
 40
5.805685579750641
 40
6.966822695700769
 40
8.127959811650896
 40
9.289096927601026
 40
10.45023404355116
 40
11.61137115950128
 40
12.77250827545141
 40
13.93364539140154
 40
15.09478250735167
 40
16.2559196233018
 40
17.41705673925193
 40
18.57819385520205
 40
19.73933097115218
 40
20.90046808710232
 40
22.06160520305244
 40
23.22274231900256
 40
24.3838794349527
 40
25.54501655090282
 40
26.70615366685295
 40
27.86729078280307
 40
29.0284278987532
 40
30.18956501470333
 40
31.35070213065347
 40
32.5118392466036
 40
32.51445735250433
 40
32.51445735250433
 40
32.51445735250433
 40
32.51445735250433
 10
657.8695850547592
 20
568.1018968724195
 30
0.0
 10
657.8695926707712
 20
568.1017321770271
 30
0.0
 10
657.872977712843
 20
568.0285310290778
 30
0.0
 10
657.8797424840885
 20
567.860902949398
 30
0.0
 10
657.8898444826144
 20
567.5465311488706
 30
0.0
 10
657.8998833028635
 20
567.1699485448257
 30
0.0
 10
657.9098267325862
 20
566.7323365485654
 30
0.0
 10
657.9196436539193
 20
566.2350729756022
 30
0.0
 10
657.9293031342222
 20
565.6797221529129
 30
0.0
 10
657.9387747932471
 20
565.0680314861488
 30
0.0
 10
657.9480288264217
 20
564.4019255626321
 30
0.0
 10
657.9570361179988
 20
563.6835002028081
 30
0.0
 10
657.9657683274751
 20
562.9150158373711
 30
0.0
 10
657.9741979801511
 20
562.0988904027898
 30
0.0
 10
657.982298553204
 20
561.2376917315266
 30
0.0
 10
657.9900445592388
 20
560.3341294732388
 30
0.0
 10
657.9974116264533
 20
559.3910465690702
 30
0.0
 10
658.004376575329
 20
558.4114103067461
 30
0.0
 10
658.0109174915599
 20
557.3983029843779
 30
0.0
 10
658.0170137950034
 20
556.3549122124155
 30
0.0
 10
658.0226463044337
 20
555.2845208842448
 30
0.0
 10
658.0277972978922
 20
554.1904968469908
 30
0.0
 10
658.0324505684478
 20
553.0762823050247
 30
0.0
 10
658.0365914751897
 20
551.9453829895155
 30
0.0
 10
658.0402069892934
 20
550.8013571281017
 30
0.0
 10
658.043285735014
 20
549.6478042493925
 30
0.0
 10
658.0458180254784
 20
548.4883538575177
 30
0.0
 10
658.0477958931638
 20
547.3266540123652
 30
0.0
 10
658.0492131149667
 20
546.1663598514359
 30
0.0
 10
658.0500652317833
 20
545.0111220894271
 30
0.0
 10
658.0503495625385
 20
543.8645755317352
 30
0.0
 10
658.0500652126228
 20
542.7303276380119
 30
0.0
 10
658.0492130767061
 20
541.6119471717623
 30
0.0
 10
658.0477958359232
 20
540.512952971694
 30
0.0
 10
658.0458179494381
 20
539.4368028801492
 30
0.0
 10
658.0432856404134
 20
538.3868828634529
 30
0.0
 10
658.0402068764299
 20
537.366496358411
 30
0.0
 10
658.0365913444184
 20
536.3788538784747
 30
0.0
 10
658.0324504201801
 20
535.4270629122784
 30
0.0
 10
658.0277971325949
 20
534.5141181463307
 30
0.0
 10
658.0226461226267
 20
533.6428920426222
 30
0.0
 10
658.0170135972588
 20
532.8161258007976
 30
0.0
 10
658.0109172784997
 20
532.0364207333281
 30
0.0
 10
658.0043763476239
 20
531.3062300808185
 30
0.0
 10
657.9974113848195
 20
530.6278512932074
 30
0.0
 10
657.9900443044365
 20
530.0034188011325
 30
0.0
 10
657.9822982860351
 20
529.4348973002469
 30
0.0
 10
657.974197701456
 20
528.9240755694672
 30
0.0
 10
657.9657680381308
 20
528.4725608431615
 30
0.0
 10
657.9570358189158
 20
528.0817737528915
 30
0.0
 10
657.9480285185408
 20
527.75294386245
 30
0.0
 10
657.9387744775373
 20
527.487105781021
 30
0.0
 10
657.9293028116767
 20
527.2850959757569
 30
0.0
 10
657.9196433255528
 20
527.1475498867576
 30
0.0
 10
657.909826399432
 20
527.0749008726441
 30
0.0
 10
657.8998829659697
 20
527.0673753206247
 30
0.0
 10
657.8898441430413
 20
527.125005095003
 30
0.0
 10
657.8797421429042
 20
527.2475783201251
 30
0.0
 10
657.8729773713002
 20
527.3725490742702
 30
0.0
 10
657.8695923292285
 20
527.445762239597
 30
0.0
 10
657.8695847132166
 20
527.4459269620211
 30
0.0
  0
SPLINE
  5
DA
330
A8
100
AcDbEntity
  8
0
  6
Continuous
 62
     0
370
     0
100
AcDbSpline
210
0.0
220
0.0
230
1.0
 70
    12
 71
     2
 72
     8
 73
     5
 74
     0
 42
0.000000001
 43
0.0
 40
0.0
 40
0.0
 40
0.0
 40
0.5
 40
0.5
 40
1.0
 40
1.0
 40
1.0
 10
657.8695847268287
 20
529.066273590548
 30
0.0
 41
1.0
 10
658.0358323759795
 20
525.4708920755456
 30
0.0
 41
0.7071067811865471
 10
658.0358325331387
 20
544.1785304022179
 30
0.0
 41
1.0
 10
658.0358326902979
 20
562.8861687288902
 30
0.0
 41
0.7071067811865471
 10
657.869585041147
 20
566.4815502438926
 30
0.0
 41
1.0
  0
SPLINE
  5
DB
330
A8
100
AcDbEntity
  8
0
  6
Continuous
 62
     0
370
     0
100
AcDbSpline
210
0.0
220
0.0
230
1.0
 70
     8
 71
     3
 72
    26
 73
    22
 74
     0
 42
0.000000001
 43
0.0
 40
0.0604519026183824
 40
0.0604519026183824
 40
0.0604519026183824
 40
0.0604519026183824
 40
0.070850911399067
 40
0.106364943631365
 40
0.141917937930064
 40
0.213065784764732
 40
0.2844568007505889
 40
0.3203034603569451
 40
0.356208927000576
 40
0.428047847799608
 40
0.500000000000001
 40
0.571952152200393
 40
0.6437910729994248
 40
0.679696539643056
 40
0.7155431992494121
 40
0.7869342152352681
 40
0.858082062069936
 40
0.8936350563686359
 40
0.9291490886009338
 40
0.9763830295336451
 40
1.0
 40
1.0
 40
1.0
 40
1.0
 10
660.0354608524038
 20
526.7740567713803
 30
0.0
 10
660.033526510671
 20
526.7740327499641
 30
0.0
 10
660.0250159999446
 20
526.790428830634
 30
0.0
 10
660.0102060667454
 20
526.9491447338423
 30
0.0
 10
659.9853153415263
 20
527.5702108275575
 30
0.0
 10
659.9565156752811
 20
528.9869623315202
 30
0.0
 10
659.9323895523254
 20
531.1915415840406
 30
0.0
 10
659.9166391923645
 20
533.3610598933275
 30
0.0
 10
659.9034154563232
 20
535.7800772967769
 30
0.0
 10
659.8920171980244
 20
539.2173554928886
 30
0.0
 10
659.8873779318133
 20
543.7766090479569
 30
0.0
 10
659.8920172763345
 20
548.5390969901646
 30
0.0
 10
659.9034155965867
 20
552.4765221375703
 30
0.0
 10
659.916639378147
 20
555.475909621437
 30
0.0
 10
659.9323897803663
 20
558.3366789428865
 30
0.0
 10
659.9565159492554
 20
561.5998362824555
 30
0.0
 10
659.98531564992
 20
564.2802489492085
 30
0.0
 10
660.0102063947504
 20
565.9936350579995
 30
0.0
 10
660.0317126627324
 20
567.1678070022846
 30
0.0
 10
660.0517331736962
 20
567.9484994237976
 30
0.0
 10
660.0651134948979
 20
568.2986471856934
 30
0.0
 10
660.0695736217971
 20
568.3965053481977
 30
0.0
  0
LINE
  5
DC
330
A8
100
AcDbEntity
  8
0
  6
Continuous
 62
     0
370
     0
100
AcDbLine
 10
660.069574
 20
568.396505
 30
0.0
 11
658.169596
 21
568.396505
 31
0.0
  0
SPLINE
  5
DD
330
A8
100
AcDbEntity
  8
0
  6
Continuous
 62
     0
370
     0
100
AcDbSpline
210
0.0
220
0.0
230
1.0
 70
     8
 71
     3
 72
    26
 73
    22
 74
     0
 42
0.000000001
 43
0.0
 40
0.0
 40
0.0
 40
0.0
 40
0.0
 40
0.023616970466355
 40
0.070850911399066
 40
0.106364943631365
 40
0.141917937930064
 40
0.21306578476473
 40
0.2844568007505889
 40
0.3203034603569451
 40
0.3562089270005749
 40
0.428047847799608
 40
0.500000000000001
 40
0.5719521522003921
 40
0.6437910729994248
 40
0.679696539643057
 40
0.715543199249413
 40
0.7869342152352671
 40
0.8580820620699369
 40
0.8936350563686372
 40
0.929149088600935
 40
0.9395480736875553
 40
0.9395480736875553
 40
0.9395480736875553
 40
0.9395480736875553
 10
658.1695964926712
 20
568.3965053481977
 30
0.0
 10
658.1740566640842
 20
568.2986471856934
 30
0.0
 10
658.1874371178772
 20
567.9484994237976
 30
0.0
 10
658.2074578229078
 20
567.1678070022846
 30
0.0
 10
658.228964293724
 20
565.9936350579995
 30
0.0
 10
658.2538552673811
 20
564.2802489492085
 30
0.0
 10
658.2826552210347
 20
561.5998362824555
 30
0.0
 10
658.3067815847544
 20
558.3366789428865
 30
0.0
 10
658.322532101934
 20
555.475909621437
 30
0.0
 10
658.3357559699753
 20
552.4765221375703
 30
0.0
 10
658.3471543420279
 20
548.5390969901646
 30
0.0
 10
658.3517936544629
 20
543.7766090479569
 30
0.0
 10
658.3471542637178
 20
539.2173554928886
 30
0.0
 10
658.3357558297118
 20
535.7800772967769
 30
0.0
 10
658.3225319161517
 20
533.3610598933274
 30
0.0
 10
658.3067813567136
 20
531.1915415840405
 30
0.0
 10
658.2826549470605
 20
528.9869623315202
 30
0.0
 10
658.2538549589875
 20
527.5702108275575
 30
0.0
 10
658.228963965719
 20
526.9491447338423
 30
0.0
 10
658.2141538808969
 20
526.790428876796
 30
0.0
 10
658.2056432862994
 20
526.7740327668871
 30
0.0
 10
658.2037089289873
 20
526.7740567712164
 30
0.0
  0
SPLINE
  5
DE
330
A8
100
AcDbEntity
  8
0
  6
Continuous
 62
     0
370
     0
100
AcDbSpline
210
0.0
220
0.0
230
1.0
 70
     8
 71
     3
 72
     9
 73
     5
 74
     0
 42
0.000000001
 43
0.0
 40
0.0
 40
0.0
 40
0.0
 40
0.0
 40
0.047255179972674
 40
0.1209752114670609
 40
0.1209752114670609
 40
0.1209752114670609
 40
0.1209752114670609
 10
660.069573621797
 20
568.3965053481977
 30
0.0
 10
660.0651133755074
 20
568.4943636398762
 30
0.0
 10
660.0536949686226
 20
568.6966081396248
 30
0.0
 10
660.0423164984999
 20
568.773782408281
 30
0.0
 10
660.0354604812704
 20
568.7738145990912
 30
0.0
  0
SPLINE
  5
DF
330
A8
100
AcDbEntity
  8
0
  6
Continuous
 62
     0
370
     0
100
AcDbSpline
210
0.0
220
0.0
230
1.0
 70
     8
 71
     3
 72
     9
 73
     5
 74
     0
 42
0.000000001
 43
0.0
 40
0.8790247840098546
 40
0.8790247840098546
 40
0.8790247840098546
 40
0.8790247840098546
 40
0.9527448200273259
 40
1.0
 40
1.0
 40
1.0
 40
1.0
 10
658.2037092877698
 20
568.7738145990972
 30
0.0
 10
658.1968533410801
 20
568.773782414052
 30
0.0
 10
658.18547498699
 20
568.6966081471865
 30
0.0
 10
658.1740566944469
 20
568.4943636398762
 30
0.0
 10
658.1695964926712
 20
568.3965053481977
 30
0.0
  0
LINE
  5
E0
330
A8
100
AcDbEntity
  8
0
  6
Continuous
 62
     0
370
     0
100
AcDbLine
 10
660.369585
 20
527.445927
 30
0.0
 11
660.369585
 21
527.857817
 31
0.0
  0
LINE
  5
E1
330
A8
100
AcDbEntity
  8
0
  6
Continuous
 62
     0
370
     0
100
AcDbLine
 10
660.369585
 20
567.463578
 30
0.0
 11
660.369585
 21
568.101897
 31
0.0
  0
SPLINE
  5
E2
330
A8
100
AcDbEntity
  8
0
  6
Continuous
 62
     0
370
     0
100
AcDbSpline
210
0.0
220
0.0
230
1.0
 70
     8
 71
     3
 72
    65
 73
    61
 74
     0
 42
0.000000001
 43
0.0
 40
-97.53813584571155
 40
-97.53813584571155
 40
-97.53813584571155
 40
-97.53813584571155
 40
-97.53551773981079
 40
-96.37438062386067
 40
-95.21324350791056
 40
-94.05210639196041
 40
-92.89096927601025
 40
-91.72983216006017
 40
-90.56869504411003
 40
-89.40755792815989
 40
-88.24642081220975
 40
-87.08528369625961
 40
-85.9241465803095
 40
-84.76300946435934
 40
-83.60187234840927
 40
-82.44073523245913
 40
-81.27959811650899
 40
-80.11846100055884
 40
-78.95732388460871
 40
-77.7961867686586
 40
-76.63504965270846
 40
-75.47391253675833
 40
-74.31277542080821
 40
-73.15163830485808
 40
-71.99050118890798
 40
-70.82936407295782
 40
-69.66822695700769
 40
-68.50708984105758
 40
-67.34595272510744
 40
-66.18481560915731
 40
-65.0236784932072
 40
-63.86254137725706
 40
-62.70140426130691
 40
-61.54026714535679
 40
-60.3791300294067
 40
-59.21799291345657
 40
-58.05685579750646
 40
-56.89571868155629
 40
-55.73458156560615
 40
-54.57344444965602
 40
-53.41230733370592
 40
-52.25117021775577
 40
-51.09003310180566
 40
-49.92889598585551
 40
-48.76775886990539
 40
-47.60662175395528
 40
-46.44548463800513
 40
-45.28434752205501
 40
-44.12321040610487
 40
-42.96207329015474
 40
-41.80093617420464
 40
-40.63979905825448
 40
-39.47866194230433
 40
-38.31752482635419
 40
-37.15638771040409
 40
-35.99525059445396
 40
-34.83411347850384
 40
-33.67297636255373
 40
-32.5118392466036
 40
-32.50922114070288
 40
-32.50922114070288
 40
-32.50922114070288
 40
-32.50922114070288
 10
660.3695847132165
 20
527.4459269620211
 30
0.0
 10
660.3695770972795
 20
527.445762239597
 30
0.0
 10
660.3661920885083
 20
527.3725490742704
 30
0.0
 10
660.3594273838116
 20
527.247578320125
 30
0.0
 10
660.3493254846649
 20
527.125005095003
 30
0.0
 10
660.3392867631736
 20
527.0673753206247
 30
0.0
 10
660.3293434312701
 20
527.0749008726441
 30
0.0
 10
660.3195266065118
 20
527.1475498867576
 30
0.0
 10
660.3098672212346
 20
527.2850959757569
 30
0.0
 10
660.3003956553879
 20
527.487105781021
 30
0.0
 10
660.2911417132508
 20
527.7529438624501
 30
0.0
 10
660.2821345102835
 20
528.0817737528915
 30
0.0
 10
660.273402386711
 20
528.4725608431615
 30
0.0
 10
660.2649728169625
 20
528.9240755694672
 30
0.0
 10
660.2568723235995
 20
529.4348973002469
 30
0.0
 10
660.2491263937668
 20
530.0034188011324
 30
0.0
 10
660.2417593990264
 20
530.6278512932074
 30
0.0
 10
660.2347945186689
 20
531.3062300808185
 30
0.0
 10
660.2282536667849
 20
532.0364207333281
 30
0.0
 10
660.2221574233142
 20
532.8161258007976
 30
0.0
 10
660.2165249692944
 20
533.6428920426222
 30
0.0
 10
660.2113740265092
 20
534.5141181463307
 30
0.0
 10
660.2067208017306
 20
535.4270629122784
 30
0.0
 10
660.2025799357252
 20
536.3788538784747
 30
0.0
 10
660.1989644571894
 20
537.366496358411
 30
0.0
 10
660.1958857417563
 20
538.386882863453
 30
0.0
 10
660.1933534762037
 20
539.4368028801492
 30
0.0
 10
660.1913756279758
 20
540.512952971694
 30
0.0
 10
660.1899584201149
 20
541.6119471717623
 30
0.0
 10
660.1891063116813
 20
542.730327638012
 30
0.0
 10
660.1888219837232
 20
543.8645755317352
 30
0.0
 10
660.1891063308418
 20
545.0111220894272
 30
0.0
 10
660.1899584583757
 20
546.1663598514359
 30
0.0
 10
660.1913756852164
 20
547.3266540123652
 30
0.0
 10
660.1933535522439
 20
548.4883538575177
 30
0.0
 10
660.1958858363571
 20
549.6478042493925
 30
0.0
 10
660.198964570053
 20
550.8013571281017
 30
0.0
 10
660.2025800664965
 20
551.9453829895155
 30
0.0
 10
660.2067209499982
 20
553.0762823050248
 30
0.0
 10
660.2113741918065
 20
554.1904968469908
 30
0.0
 10
660.2165251511013
 20
555.2845208842448
 30
0.0
 10
660.2221576210588
 20
556.3549122124155
 30
0.0
 10
660.228253879845
 20
557.398302984378
 30
0.0
 10
660.2347947463741
 20
558.4114103067461
 30
0.0
 10
660.2417596406602
 20
559.3910465690701
 30
0.0
 10
660.249126648569
 20
560.3341294732388
 30
0.0
 10
660.2568725907685
 20
561.2376917315266
 30
0.0
 10
660.2649730956575
 20
562.0988904027898
 30
0.0
 10
660.2734026760553
 20
562.9150158373711
 30
0.0
 10
660.2821348093665
 20
563.6835002028081
 30
0.0
 10
660.2911420211315
 20
564.4019255626321
 30
0.0
 10
660.3003959710977
 20
565.0680314861488
 30
0.0
 10
660.3098675437802
 20
565.6797221529129
 30
0.0
 10
660.3195269348782
 20
566.2350729756022
 30
0.0
 10
660.3293437644243
 20
566.7323365485654
 30
0.0
 10
660.3392871000673
 20
567.1699485448256
 30
0.0
 10
660.3493258242381
 20
567.5465311488706
 30
0.0
 10
660.3594277249961
 20
567.8609029493977
 30
0.0
 10
660.3661924300511
 20
568.0285310290787
 30
0.0
 10
660.3695774388221
 20
568.1017321770271
 30
0.0
 10
660.3695850547592
 20
568.1018968724195
 30
0.0
  0
SPLINE
  5
E3
330
A8
100
AcDbEntity
  8
0
  6
Continuous
 62
     0
370
     0
100
AcDbSpline
210
0.0
220
0.0
230
1.0
 70
     8
 71
     3
 72
    62
 73
    58
 74
     0
 42
0.000000001
 43
0.0
 40
-94.47019259877507
 40
-94.47019259877507
 40
-94.47019259877507
 40
-94.47019259877507
 40
-93.34560977420308
 40
-92.22102694963108
 40
-91.09644412505907
 40
-89.971861300487
 40
-88.84727847591505
 40
-87.72269565134306
 40
-86.59811282677107
 40
-85.47353000219907
 40
-84.34894717762707
 40
-83.22436435305505
 40
-82.09978152848308
 40
-80.97519870391105
 40
-79.85061587933907
 40
-78.72603305476707
 40
-77.60145023019507
 40
-76.47686740562308
 40
-75.3522845810511
 40
-74.22770175647905
 40
-73.10311893190706
 40
-71.97853610733509
 40
-70.85395328276309
 40
-69.72937045819108
 40
-68.60478763361907
 40
-67.48020480904708
 40
-66.35562198447509
 40
-65.23103915990312
 40
-64.1064563353311
 40
-62.9818735107591
 40
-61.85729068618709
 40
-60.73270786161508
 40
-59.6081250370431
 40
-58.48354221247111
 40
-57.35895938789912
 40
-56.23437656332711
 40
-55.10979373875509
 40
-53.9852109141831
 40
-52.86062808961111
 40
-51.7360452650391
 40
-50.61146244046713
 40
-49.48687961589511
 40
-48.36229679132312
 40
-47.23771396675112
 40
-46.11313114217911
 40
-44.98854831760713
 40
-43.86396549303511
 40
-42.73938266846314
 40
-41.61479984389111
 40
-40.49021701931912
 40
-39.36563419474712
 40
-38.24105137017513
 40
-37.11646854560314
 40
-35.99188572103107
 40
-34.86730289645909
 40
-33.74272007188709
 40
-33.39632440739705
 40
-33.39632440739705
 40
-33.39632440739705
 40
-33.39632440739705
 10
660.3695850493968
 20
567.4635783463732
 30
0.0
 10
660.3663133369748
 20
567.3927733636256
 30
0.0
 10
660.359769936551
 20
567.230506206043
 30
0.0
 10
660.3499857836089
 20
566.9258995435788
 30
0.0
 10
660.3402633584446
 20
566.5610452147428
 30
0.0
 10
660.3306332461503
 20
566.1370909917616
 30
0.0
 10
660.3211257416319
 20
565.6553705707615
 30
0.0
 10
660.3117707540322
 20
565.1173993702395
 30
0.0
 10
660.3025977127144
 20
564.5248697653765
 30
0.0
 10
660.2936354746626
 20
563.8796457636589
 30
0.0
 10
660.284912233707
 20
563.1837571411093
 30
0.0
 10
660.2764554318296
 20
562.4393930568915
 30
0.0
 10
660.2682916728353
 20
561.648895166559
 30
0.0
 10
660.2604466386613
 20
560.814750255562
 30
0.0
 10
660.2529450085851
 20
559.939582416202
 30
0.0
 10
660.2458103815877
 20
559.0261447926382
 30
0.0
 10
660.239065202114
 20
558.0773109199174
 30
0.0
 10
660.2327306894672
 20
557.0960656842719
 30
0.0
 10
660.226826771055
 20
556.0854959331245
 30
0.0
 10
660.2213720197017
 20
555.0487807643381
 30
0.0
 10
660.2163835952208
 20
553.9891815252604
 30
0.0
 10
660.2118771904326
 20
552.9100315530239
 30
0.0
 10
660.2078669817972
 20
551.8147256883776
 30
0.0
 10
660.2043655848179
 20
550.7067095960365
 30
0.0
 10
660.2013840143537
 20
549.5894689251477
 30
0.0
 10
660.1989316499694
 20
548.4665183439718
 30
0.0
 10
660.1970162064281
 20
547.3413904832732
 30
0.0
 10
660.1956437094225
 20
546.2176248232056
 30
0.0
 10
660.1948184766179
 20
545.0987565586468
 30
0.0
 10
660.1945431040706
 20
543.9883054780182
 30
0.0
 10
660.1948184580606
 20
542.8897648905679
 30
0.0
 10
660.1956436723663
 20
541.8065906369538
 30
0.0
 10
660.1970161509896
 20
540.7421902176984
 30
0.0
 10
660.1989315763228
 20
539.699912073713
 30
0.0
 10
660.201383922731
 20
538.6830350526141
 30
0.0
 10
660.2043654755071
 20
537.6947580939712
 30
0.0
 10
660.2078668551424
 20
536.7381901659322
 30
0.0
 10
660.2118770468319
 20
535.8163404848844
 30
0.0
 10
660.2163834351261
 20
534.9321090489209
 30
0.0
 10
660.2213718436167
 20
534.0882775148892
 30
0.0
 10
660.2268265795336
 20
533.2875004477253
 30
0.0
 10
660.2327304831119
 20
532.5322969695976
 30
0.0
 10
660.2390649815741
 20
531.8250428351344
 30
0.0
 10
660.2458101475567
 20
531.167962957663
 30
0.0
 10
660.2529447617994
 20
530.5631244099726
 30
0.0
 10
660.2604463798972
 20
530.01242992162
 30
0.0
 10
660.2682914029068
 20
529.5176118932324
 30
0.0
 10
660.2764551515859
 20
529.0802269466411
 30
0.0
 10
660.2849119440298
 20
528.701651027987
 30
0.0
 10
660.293635176463
 20
528.3830750792041
 30
0.0
 10
660.3025974069305
 20
528.1255012914996
 30
0.0
 10
660.3117704416261
 20
527.929739952607
 30
0.0
 10
660.3211254235864
 20
527.7964068977742
 30
0.0
 10
660.3306329234658
 20
527.7259215723267
 30
0.0
 10
660.3402630321362
 20
527.7185057125812
 30
0.0
 10
660.3477428855059
 20
527.7613402325279
 30
0.0
 10
660.3519995335319
 20
527.8035569530157
 30
0.0
 10
660.3530027431225
 20
527.8144915147567
 30
0.0
  0
SPLINE
  5
E4
330
A8
100
AcDbEntity
  8
0
  6
Continuous
 62
     0
370
     0
100
AcDbSpline
210
0.0
220
0.0
230
1.0
 70
     8
 71
     3
 72
     8
 73
     4
 74
     0
 42
0.000000001
 43
0.0
 40
27.39253094819758
 40
27.39253094819758
 40
27.39253094819758
 40
27.39253094819758
 40
31.16137198884254
 40
31.16137198884254
 40
31.16137198884254
 40
31.16137198884254
 10
660.6365548600758
 20
567.5238994756736
 30
0.0
 10
660.6474412408172
 20
567.5238994627309
 30
0.0
 10
660.6585336966157
 20
567.4046411533956
 30
0.0
 10
660.6695964823589
 20
567.1689700249175
 30
0.0
  0
ARC
  5
E5
330
A8
100
AcDbEntity
  8
0
  6
Continuous
 62
     0
370
     0
100
AcDbCircle
 10
660.666548
 20
567.465927
 30
0.0
 40
0.2969726101861551
100
AcDbArc
 50
180.45314
 51
270.588091
  0
SPLINE
  5
E6
330
A8
100
AcDbEntity
  8
0
  6
Continuous
 62
     0
370
     0
100
AcDbSpline
210
0.0
220
0.0
230
1.0
 70
     8
 71
     3
 72
    23
 73
    19
 74
     0
 42
0.000000001
 43
0.0
 40
0.001006631034243
 40
0.001006631034243
 40
0.001006631034243
 40
0.001006631034243
 40
3.895306262554279
 40
7.79063606555885
 40
11.68596107986965
 40
15.58127328266519
 40
19.47656825063716
 40
23.37184559072276
 40
27.26710869605196
 40
31.16236388803833
 40
35.05761908002217
 40
38.9528821853451
 40
42.84815952542125
 40
46.74345449338324
 40
50.63876669616975
 40
54.53409171047554
 40
58.4294215130047
 40
58.55869688286197
 40
58.55869688286197
 40
58.55869688286197
 40
58.55869688286197
 10
660.6695964823588
 20
567.1689700248858
 30
0.0
 10
660.6581655051781
 20
566.9254525473373
 30
0.0
 10
660.635237126743
 20
566.1870320998612
 30
0.0
 10
660.6022141068693
 20
564.3729447145247
 30
0.0
 10
660.5717641653948
 20
561.9204725503045
 30
0.0
 10
660.5450777234998
 20
558.9244008120892
 30
0.0
 10
660.5231757924664
 20
555.4997704522195
 30
0.0
 10
660.5069013160005
 20
551.7782254349373
 30
0.0
 10
660.4968794773208
 20
547.9027832553295
 30
0.0
 10
660.4934954791156
 20
544.0223878799467
 30
0.0
 10
660.4968794182066
 20
540.2861716234643
 30
0.0
 10
660.5069011483806
 20
536.8377233024701
 30
0.0
 10
660.5231757294373
 20
533.809578730298
 30
0.0
 10
660.5450769925251
 20
531.3181033388676
 30
0.0
 10
660.5717656877644
 20
529.4590831352085
 30
0.0
 10
660.6022070261973
 20
528.3038448916519
 30
0.0
 10
660.6246113214781
 20
528.0282574075044
 30
0.0
 10
660.6362133797231
 20
528.0239011639462
 30
0.0
 10
660.636586270147
 20
528.023901163667
 30
0.0
  0
LINE
  5
E7
330
A8
100
AcDbEntity
  8
0
  6
Continuous
 62
     0
370
     0
100
AcDbLine
 10
660.369279
 20
527.432793
 30
0.0
 11
660.369585
 21
527.445927
 31
0.0
  0
ARC
  5
E8
330
A8
100
AcDbEntity
  8
0
  6
Continuous
 62
     0
370
     0
100
AcDbCircle
 10
660.072275
 20
568.099195
 30
0.0
 40
0.2973226615389698
100
AcDbArc
 50
0.520648
 51
90.520514
  0
ARC
  5
E9
330
A8
100
AcDbEntity
  8
0
  6
Continuous
 62
     0
370
     0
100
AcDbCircle
 10
658.166579
 20
568.099502
 30
0.0
 40
0.2970189093528367
100
AcDbArc
 50
89.417941
 51
179.166218
  0
LINE
  5
EA
330
A8
100
AcDbEntity
  8
0
  6
Continuous
 62
     0
370
     0
100
AcDbLine
 10
660.669596
 20
567.16897
 30
0.0
 11
660.869585
 21
567.16897
 31
0.0
  0
LINE
  5
EB
330
A8
100
AcDbEntity
  8
0
  6
Continuous
 62
     0
370
    30
100
AcDbLine
 10
660.636573
 20
528.023912
 30
0.0
 11
660.869585
 21
528.023912
 31
0.0
  0
LINE
  5
EC
330
A8
100
AcDbEntity
  8
0
  6
Continuous
 62
     0
370
    30
100
AcDbLine
 10
660.636573
 20
567.523912
 30
0.0
 11
660.869585
 21
567.523912
 31
0.0
  0
SPLINE
  5
ED
330
A8
100
AcDbEntity
  8
0
  6
Continuous
 62
     0
370
    30
100
AcDbSpline
210
0.0
220
0.0
230
1.0
 70
     8
 71
     3
 72
    18
 73
    14
 74
     0
 42
0.000000001
 43
0.0
 40
0.0
 40
0.0
 40
0.0
 40
0.0
 40
0.1343134845650788
 40
0.2875733347173365
 40
0.3697619796668956
 40
0.4749576905393504
 40
0.634097374568033
 40
0.9265696309785267
 40
1.263185121166351
 40
1.599099638783014
 40
2.104951548087752
 40
2.610431034848393
 40
4.096204594425547
 40
4.096204594425547
 40
4.096204594425547
 40
4.096204594425547
 10
658.2037088671826
 20
526.7739246283718
 30
0.0
 10
658.1655022705299
 20
526.7739246786143
 30
0.0
 10
658.0819409552225
 20
526.7904588542555
 30
0.0
 10
658.0015210282265
 20
526.8470729713906
 30
0.0
 10
657.9571843320659
 20
526.899164734579
 30
0.0
 10
657.9308387211913
 20
526.9430109429277
 30
0.0
 10
657.9127395779577
 20
526.9881546456115
 30
0.0
 10
657.9036177421622
 20
527.0243278906712
 30
0.0
 10
657.8977484511884
 20
527.0560342319618
 30
0.0
 10
657.8927675877998
 20
527.0921065826047
 30
0.0
 10
657.8881083779584
 20
527.1363878438092
 30
0.0
 10
657.880188060798
 20
527.2330913142425
 30
0.0
 10
657.8742861402998
 20
527.3376353099926
 30
0.0
 10
657.8698888564264
 20
527.432796976432
 30
0.0
  0
SPLINE
  5
EE
330
A8
100
AcDbEntity
  8
0
  6
Continuous
 62
     0
370
    30
100
AcDbSpline
210
0.0
220
0.0
230
1.0
 70
     8
 71
     3
 72
    18
 73
    14
 74
     0
 42
0.000000001
 43
0.0
 40
0.0
 40
0.0
 40
0.0
 40
0.0
 40
1.375840573727788
 40
2.126558651167973
 40
2.712524416512905
 40
2.922995608684438
 40
3.133813409240823
 40
3.476857858126858
 40
3.611307554437116
 40
3.745930520016167
 40
3.895981261688687
 40
4.002809575432785
 40
4.096221703681934
 40
4.096221703681934
 40
4.096221703681934
 40
4.096221703681934
 10
657.8698893918048
 20
568.1150309182301
 30
0.0
 10
657.8739614131125
 20
568.203152370533
 30
0.0
 10
657.8802804547203
 20
568.3167077375782
 30
0.0
 10
657.8888380473211
 20
568.4209501609046
 30
0.0
 10
657.8944132040651
 20
568.4690458657742
 30
0.0
 10
657.899311802575
 20
568.5005188781818
 30
0.0
 10
657.9046108475961
 20
568.5269164156512
 30
0.0
 10
657.9113289957429
 20
568.5569621797065
 30
0.0
 10
657.9323206657014
 20
568.6072497939829
 30
0.0
 10
657.9638668152547
 20
568.6611356665599
 30
0.0
 10
658.0301038098855
 20
568.7260349067585
 30
0.0
 10
658.1190717402683
 20
568.7660026457212
 30
0.0
 10
658.1770763892732
 20
568.7738988391507
 30
0.0
 10
658.2037088651173
 20
568.7738988704475
 30
0.0
  0
SPLINE
  5
EF
330
A8
100
AcDbEntity
  8
0
  6
Continuous
 62
     0
370
    30
100
AcDbSpline
210
0.0
220
0.0
230
1.0
 70
     8
 71
     3
 72
    17
 73
    13
 74
     0
 42
0.000000001
 43
0.0
 40
0.0
 40
0.0
 40
0.0
 40
0.0
 40
0.170111372885739
 40
0.3299949377463889
 40
0.4236265496703698
 40
0.5554767732601653
 40
0.780643318771187
 40
0.9260205975881891
 40
1.258684527702077
 40
1.59065586545035
 40
2.590105418180642
 40
4.096204581636385
 40
4.096204581636385
 40
4.096204581636385
 40
4.096204581636385
 10
660.0354609040058
 20
568.7738988712825
 30
0.0
 10
660.0837178469715
 20
568.7738988145459
 30
0.0
 10
660.1796201946947
 20
568.7490298684108
 30
0.0
 10
660.2593592377925
 20
568.6791333726751
 30
0.0
 10
660.2976919457268
 20
568.6245429047477
 30
0.0
 10
660.3197874506466
 20
568.5788264689592
 30
0.0
 10
660.3287791669838
 20
568.5494300472415
 30
0.0
 10
660.3365971634
 20
568.518677374002
 30
0.0
 10
660.3412844159266
 20
568.4922739496958
 30
0.0
 10
660.3484640420186
 20
568.4412546993843
 30
0.0
 10
660.3572572293888
 20
568.3431327789164
 30
0.0
 10
660.3648235207269
 20
568.2114893349728
 30
0.0
 10
660.3692809355382
 20
568.1150262081809
 30
0.0
  0
SPLINE
  5
F0
330
A8
100
AcDbEntity
  8
0
  6
Continuous
 62
     0
370
    30
100
AcDbSpline
210
0.0
220
0.0
230
1.0
 70
     8
 71
     3
 72
    16
 73
    12
 74
     0
 42
0.000000001
 43
0.0
 40
0.0
 40
0.0
 40
0.0
 40
0.0
 40
1.861463973578699
 40
2.552531477826721
 40
3.24541907192654
 40
3.408365397348797
 40
3.624130696584114
 40
3.729449334817887
 40
3.835711498289812
 40
3.961979269201716
 40
4.096131920787943
 40
4.096131920787943
 40
4.096131920787943
 40
4.096131920787943
 10
660.3692803758461
 20
527.4327928422365
 30
0.0
 10
660.3637716697133
 20
527.3135805418992
 30
0.0
 10
660.3568174745966
 20
527.1884561408201
 30
0.0
 10
660.3447232471547
 20
527.0796763191033
 30
0.0
 10
660.3397999589511
 20
527.03792559266
 30
0.0
 10
660.324630527628
 20
526.9847867123513
 30
0.0
 10
660.3121133050723
 20
526.9492142508669
 30
0.0
 10
660.2793334432772
 20
526.894874384255
 30
0.0
 10
660.2318839467961
 20
526.8416877736818
 30
0.0
 10
660.1492003432238
 20
526.7888830545462
 30
0.0
 10
660.0736221785676
 20
526.7739242781884
 30
0.0
 10
660.03546090774
 20
526.7739242064424
 30
0.0
  0
SPLINE
  5
F1
330
A8
100
AcDbEntity
  8
0
  6
Continuous
 62
     0
370
    30
100
AcDbSpline
210
0.0
220
0.0
230
1.0
 70
     8
 71
     3
 72
    15
 73
    11
 74
     0
 42
0.000000001
 43
0.0
 40
0.0
 40
0.0
 40
0.0
 40
0.0
 40
0.098560106468507
 40
0.2039045941136942
 40
0.2825255945132347
 40
0.3621853646501435
 40
0.4636752048116102
 40
0.6133489208896642
 40
0.8923636924733027
 40
1.152095166226487
 40
1.152095166226487
 40
1.152095166226487
 40
1.152095166226487
 10
660.636586270147
 20
528.023901163667
 30
0.0
 10
660.6083359195784
 20
528.0239011848214
 30
0.0
 10
660.5488551356898
 20
528.0151991702479
 30
0.0
 10
660.4779075670237
 20
527.9816268010338
 30
0.0
 10
660.427570065985
 20
527.9406442880327
 30
0.0
 10
660.3938850121958
 20
527.901022321854
 30
0.0
 10
660.3696060715185
 20
527.860267208795
 30
0.0
 10
660.3545344481872
 20
527.822177967394
 30
0.0
 10
660.350205802545
 20
527.8031571427663
 30
0.0
 10
660.3495930892949
 20
527.7998153922255
 30
0.0
 10
660.3495979110581
 20
527.7998727793063
 30
0.0
  0
SPLINE
  5
F2
330
A8
100
AcDbEntity
  8
0
  6
Continuous
 62
     0
370
    30
100
AcDbSpline
210
0.0
220
0.0
230
1.0
 70
     8
 71
     3
 72
    12
 73
     8
 74
     0
 42
0.000000001
 43
0.0
 40
3.453232554228421
 40
3.453232554228421
 40
3.453232554228421
 40
3.453232554228421
 40
3.482066766102891
 40
3.611353389070922
 40
3.757022692807257
 40
3.861784745653595
 40
3.953597375279413
 40
3.953597375279413
 40
3.953597375279413
 40
3.953597375279413
 10
660.3695848994072
 20
567.6899598017305
 30
0.0
 10
660.3708448776293
 20
567.6873938352926
 30
0.0
 10
660.3783981510678
 20
567.6724947196628
 30
0.0
 10
660.4005932305397
 20
567.6343108091918
 30
0.0
 10
660.4654574009002
 20
567.5708793966758
 30
0.0
 10
660.5529842629007
 20
567.5316792259928
 30
0.0
 10
660.6102316173325
 20
567.523899506101
 30
0.0
 10
660.6365548600759
 20
567.5238994756735
 30
0.0
  0
LINE
  5
F3
330
A8
100
AcDbEntity
  8
0
  6
Continuous
 62
     0
370
    30
100
AcDbLine
 10
660.035479
 20
568.773912
 30
0.0
 11
658.20369
 21
568.773912
 31
0.0
  0
LINE
  5
F4
330
A8
100
AcDbEntity
  8
0
  6
Continuous
 62
     0
370
    30
100
AcDbLine
 10
660.035478
 20
526.773912
 30
0.0
 11
658.203692
 21
526.773912
 31
0.0
  0
LINE
  5
F5
330
A8
100
AcDbEntity
  8
0
  6
Continuous
 62
     0
370
    30
100
AcDbLine
 10
657.869593
 20
473.773768
 30
0.0
 11
655.869593
 21
473.773768
 31
0.0
  0
LINE
  5
F6
330
A8
100
AcDbEntity
  8
0
  6
Continuous
 62
     0
370
    30
100
AcDbLine
 10
655.869593
 20
751.773768
 30
0.0
 11
657.869593
 21
751.773768
 31
0.0
  0
LINE
  5
F7
330
A8
100
AcDbEntity
  8
0
  6
Continuous
 62
     0
370
    30
100
AcDbLine
 10
655.869593
 20
751.773768
 30
0.0
 11
655.869593
 21
473.773768
 31
0.0
  0
LINE
  5
F8
330
A8
100
AcDbEntity
  8
0
  6
Continuous
 62
     0
370
    30
100
AcDbLine
 10
657.869593
 20
473.773768
 30
0.0
 11
657.869593
 21
751.773768
 31
0.0
  0
SPLINE
  5
F9
330
A8
100
AcDbEntity
  8
0
  6
Continuous
 62
     0
370
    30
100
AcDbSpline
210
0.0
220
0.0
230
1.0
 70
     8
 71
     3
 72
    21
 73
    17
 74
     0
 42
0.000000001
 43
0.0
 40
16.09258609041324
 40
16.09258609041324
 40
16.09258609041324
 40
16.09258609041324
 40
16.68296553050425
 40
17.82582011803247
 40
18.89077636179021
 40
21.01089954021437
 40
22.04058364918787
 40
23.06369113039104
 40
24.17786325261785
 40
25.21667631261344
 40
26.37053811615329
 40
27.33861115892126
 40
28.78277416065152
 40
29.5354389420275
 40
31.14328486763593
 40
32.18517218082648
 40
32.18517218082648
 40
32.18517218082648
 40
32.18517218082648
 10
686.1195739882769
 20
658.2716802485238
 30
0.0
 10
686.1195773078855
 20
658.2716838165364
 30
0.0
 10
686.1529636614405
 20
658.2803855045438
 30
0.0
 10
686.3648099954971
 20
658.335404153907
 30
0.0
 10
686.983995866319
 20
658.4848980507035
 30
0.0
 10
687.9558504364707
 20
658.6847960652783
 30
0.0
 10
689.1671235567051
 20
658.8465404437212
 30
0.0
 10
690.1741144257601
 20
658.9311215046936
 30
0.0
 10
691.233698279706
 20
658.9608279293963
 30
0.0
 10
692.3350267502926
 20
658.927650008471
 30
0.0
 10
693.3367853624729
 20
658.8397046097747
 30
0.0
 10
694.3590736600913
 20
658.6986960515774
 30
0.0
 10
695.1198524654664
 20
658.5542313466348
 30
0.0
 10
695.8238422882762
 20
658.3984380938327
 30
0.0
 10
696.2290594743046
 20
658.2954770308571
 30
0.0
 10
696.3195508146873
 20
658.2716598510743
 30
0.0
 10
696.3195507995341
 20
658.2716598510743
 30
0.0
  0
LINE
  5
FA
330
A8
100
AcDbEntity
  8
0
  6
Continuous
 62
     0
370
    30
100
AcDbLine
 10
661.019551
 20
697.27166
 30
0.0
 11
661.019551
 21
658.27166
 31
0.0
  0
LINE
  5
FB
330
A8
100
AcDbEntity
  8
0
  6
Continuous
 62
     0
370
    30
100
AcDbLine
 10
683.45171
 20
697.27166
 30
0.0
 11
661.019551
 21
697.27166
 31
0.0
  0
SPLINE
  5
FC
330
A8
100
AcDbEntity
  8
0
  6
Continuous
 62
     0
370
     0
100
AcDbSpline
210
0.0
220
0.0
230
1.0
 70
     8
 71
     3
 72
    21
 73
    17
 74
     0
 42
0.000000001
 43
0.0
 40
51.97474983210939
 40
51.97474983210939
 40
51.97474983210939
 40
51.97474983210939
 40
55.58895464716998
 40
58.06179089973438
 40
59.51229951582349
 40
63.42462365129829
 40
67.94401930168148
 40
72.59145885887423
 40
77.7726456094925
 40
81.58371190119517
 40
85.42289108616475
 40
89.08437392493263
 40
92.93239382419043
 40
96.95533324944493
 40
100.6386851945144
 40
103.9494996642188
 40
103.9494996642188
 40
103.9494996642188
 40
103.9494996642188
 10
701.5702651049405
 20
658.2716606352095
 30
0.0
 10
701.570254923599
 20
658.2716814296091
 30
0.0
 10
701.5126620633077
 20
658.4616164599803
 30
0.0
 10
701.3293528017841
 20
659.0829751646595
 30
0.0
 10
701.0751552528609
 20
659.9761807045294
 30
0.0
 10
700.6432806636675
 20
661.5143752164269
 30
0.0
 10
699.9540844869739
 20
664.3111697141333
 30
0.0
 10
699.2220091822766
 20
668.1376869641248
 30
0.0
 10
698.7099931418554
 20
672.3658553999591
 30
0.0
 10
698.5002847478523
 20
676.6192794435531
 30
0.0
 10
698.5475882907705
 20
680.4180576928732
 30
0.0
 10
698.8160820222959
 20
684.1168355572634
 30
0.0
 10
699.273219928238
 20
687.6182565588788
 30
0.0
 10
699.8536382937386
 20
690.7256022403124
 30
0.0
 10
700.4354587002816
 20
693.2121384446278
 30
0.0
 10
700.7718342323657
 20
694.4699998309527
 30
0.0
 10
700.9137180907917
 20
694.9850161934276
 30
0.0
  0
SPLINE
  5
FD
330
A8
100
AcDbEntity
  8
0
  6
Continuous
 62
     0
370
     0
100
AcDbSpline
210
0.0
220
0.0
230
1.0
 70
     8
 71
     3
 72
    17
 73
    13
 74
     0
 42
0.000000001
 43
0.0
 40
0.0
 40
0.0
 40
0.0
 40
0.0
 40
1.067693523343622
 40
1.798593597800864
 40
2.620475066972124
 40
4.152043643643437
 40
5.63710078793205
 40
8.018694264867879
 40
10.06459629685089
 40
10.79122461295514
 40
11.25944837701471
 40
11.45467460271952
 40
11.45467460271952
 40
11.45467460271952
 40
11.45467460271952
 10
689.9813801791908
 20
695.8321237777687
 30
0.0
 10
690.2867742971049
 20
695.7865711880147
 30
0.0
 10
690.8132298035518
 20
695.7131080823924
 30
0.0
 10
691.6027252979909
 20
695.6145997700626
 30
0.0
 10
692.5425566281638
 20
695.5019981544832
 30
0.0
 10
693.7359894257447
 20
695.3724295482446
 30
0.0
 10
695.4542361669465
 20
695.2163673446166
 30
0.0
 10
697.3834225813667
 20
695.0915082991328
 30
0.0
 10
699.0880103846047
 20
695.0227586576354
 30
0.0
 10
700.1651074311372
 20
694.9968278067415
 30
0.0
 10
700.6277350128181
 20
694.9885631806044
 30
0.0
 10
700.8486899527772
 20
694.9857630505911
 30
0.0
 10
700.9137180908064
 20
694.9850165159975
 30
0.0
  0
SPLINE
  5
FE
330
A8
100
AcDbEntity
  8
0
  6
Continuous
 62
     0
370
     0
100
AcDbSpline
210
0.0
220
0.0
230
1.0
 70
     8
 71
     3
 72
    11
 73
     7
 74
     0
 42
0.000000001
 43
0.0
 40
0.0
 40
0.0
 40
0.0
 40
0.0
 40
2.578604891925422
 40
5.034653086088559
 40
7.76576722573639
 40
10.58924660279556
 40
10.58924660279556
 40
10.58924660279556
 40
10.58924660279556
 10
683.4517098655436
 20
697.2716598510276
 30
0.0
 10
683.451709401992
 20
697.2716582372966
 30
0.0
 10
683.7218019323982
 20
697.1879304115017
 30
0.0
 10
684.9660666639736
 20
696.8405441081353
 30
0.0
 10
687.0327398151599
 20
696.3412194075329
 30
0.0
 10
688.932624322358
 20
695.9885562121087
 30
0.0
 10
689.9813801791908
 20
695.8321237777687
 30
0.0
  0
SPLINE
  5
FF
330
A8
100
AcDbEntity
  8
0
  6
Continuous
 62
     0
370
     0
100
AcDbSpline
210
0.0
220
0.0
230
1.0
 70
     8
 71
     3
 72
    12
 73
     8
 74
     0
 42
0.000000001
 43
0.0
 40
0.0000002552593007
 40
0.0000002552593007
 40
0.0000002552593007
 40
0.0000002552593007
 40
0.1111116587936
 40
0.333334976380799
 40
0.666668309714136
 40
0.8888894365713791
 40
1.0
 40
1.0
 40
1.0
 40
1.0
 10
702.3951438726527
 20
693.6609209890433
 30
0.0
 10
702.3891342950051
 20
693.7337746049841
 30
0.0
 10
702.3510341432237
 20
693.9523354536472
 30
0.0
 10
702.1518043879337
 20
694.3805279060234
 30
0.0
 10
701.7188239747704
 20
694.7675240339136
 30
0.0
 10
701.2397569220467
 20
694.9455914279627
 30
0.0
 10
700.9952300337345
 20
694.9796429102876
 30
0.0
 10
700.9137210193754
 20
694.9850134493493
 30
0.0
  0
SPLINE
  5
100
330
A8
100
AcDbEntity
  8
0
  6
Continuous
 62
     0
370
     0
100
AcDbSpline
210
0.0
220
0.0
230
1.0
 70
     8
 71
     3
 72
    13
 73
     9
 74
     0
 42
0.000000001
 43
0.0
 40
0.0000123588535245
 40
0.0000123588535245
 40
0.0000123588535245
 40
0.0000123588535245
 40
2.992803358709377
 40
6.013014739974031
 40
8.43015363108694
 40
9.63994460077731
 40
10.44744378805638
 40
12.19204675732173
 40
12.19204675732173
 40
12.19204675732173
 40
12.19204675732173
 10
703.0176496049951
 20
703.5479181346533
 30
0.0
 10
703.0166540645525
 20
702.5505746676874
 30
0.0
 10
703.0039430984991
 20
700.5526377604745
 30
0.0
 10
702.9387919322262
 20
697.95802377675
 30
0.0
 10
702.8236678868311
 20
696.1865081573823
 30
0.0
 10
702.7063319231102
 20
695.1662556995352
 30
0.0
 10
702.5834999332719
 20
694.3849378774629
 30
0.0
 10
702.4782444705272
 20
693.9315248073464
 30
0.0
 10
702.3951439140706
 20
693.6609204869375
 30
0.0
  0
ELLIPSE
  5
101
330
A8
100
AcDbEntity
  8
0
  6
Continuous
 62
     0
370
     0
100
AcDbEllipse
 10
701.519043
 20
703.547918
 30
0.0
 11
1.499999291464616
 21
-0.001457945695645045
 31
0.0
210
0.0
220
0.0
230
1.0
 40
0.022527
 41
0.0431168638728678
 42
1.593380735319827
  0
SPLINE
  5
102
330
A8
100
AcDbEntity
  8
0
  6
Continuous
 62
     0
370
     0
100
AcDbSpline
210
0.0
220
0.0
230
1.0
 70
     8
 71
     3
 72
    11
 73
     7
 74
     0
 42
0.000000001
 43
0.0
 40
0.0
 40
0.0
 40
0.0
 40
0.0
 40
3.128288052126564
 40
5.229773639684233
 40
7.858009375319223
 40
10.60393484403133
 40
10.60393484403133
 40
10.60393484403133
 40
10.60393484403133
 10
701.48522278059
 20
703.5817333579134
 30
0.0
 10
701.4866142494332
 20
702.5394207751151
 30
0.0
 10
701.4772977510116
 20
700.8033683528429
 30
0.0
 10
701.4076844467447
 20
698.4215663054013
 30
0.0
 10
701.2618899806539
 20
696.4641874883923
 30
0.0
 10
701.0546976109069
 20
695.4106086490085
 30
0.0
 10
700.9137217423784
 20
694.9850156320256
 30
0.0
  0
LINE
  5
103
330
A8
100
AcDbEntity
  8
0
  6
Continuous
 62
     0
370
     0
100
AcDbLine
 10
701.500267
 20
712.959077
 30
0.0
 11
701.485202
 21
703.581734
 31
0.0
  0
LINE
  5
104
330
A8
100
AcDbEntity
  8
0
  6
Continuous
 62
     0
370
     0
100
AcDbLine
 10
703.02641
 20
712.92685
 30
0.0
 11
703.01765
 21
703.547918
 31
0.0
  0
ELLIPSE
  5
105
330
A8
100
AcDbEntity
  8
0
  6
Continuous
 62
     0
370
     0
100
AcDbEllipse
 10
701.527571
 20
712.92685
 30
0.0
 11
1.499999463555632
 21
-0.001268594819279126
 31
0.0
210
0.0
220
0.0
230
1.0
 40
0.021473
 41
0.0393630765375494
 42
1.589018574608817
  0
SPLINE
  5
106
330
A8
100
AcDbEntity
  8
0
  6
Continuous
 62
     0
370
     0
100
AcDbSpline
210
0.0
220
0.0
230
1.0
 70
     8
 71
     3
 72
    30
 73
    26
 74
     0
 42
0.000000001
 43
0.0
 40
0.0
 40
0.0
 40
0.0
 40
0.0
 40
0.833173827866103
 40
1.42713910123683
 40
1.644081864451156
 40
1.864405188867038
 40
1.978236205656798
 40
2.095405359914696
 40
2.210762702599838
 40
2.370724444407108
 40
2.465149140873634
 40
2.549380551520835
 40
2.635074394646276
 40
2.824477874359148
 40
3.105081980859271
 40
3.402453172979178
 40
3.737825573087401
 40
4.075208738590731
 40
4.637571367059405
 40
5.049138753933359
 40
5.649022280442507
 40
6.036769206398661
 40
6.810554705583646
 40
7.58104948574852
 40
8.824791257976925
 40
8.824791257976925
 40
8.824791257976925
 40
8.824791257976925
 10
701.5155896537854
 20
719.7234389333914
 30
0.0
 10
701.5155915154261
 20
719.7234389700068
 30
0.0
 10
701.4981361078053
 20
719.6569193127393
 30
0.0
 10
701.4475560975702
 20
719.4074148830211
 30
0.0
 10
701.4122420212647
 20
719.1952915633819
 30
0.0
 10
701.3932203249669
 20
719.067586515746
 30
0.0
 10
701.3784277517658
 20
718.9583330863658
 30
0.0
 10
701.3676405959942
 20
718.87401053862
 30
0.0
 10
701.3554810273538
 20
718.7730796808431
 30
0.0
 10
701.3432873688799
 20
718.6633977600734
 30
0.0
 10
701.3311995073857
 20
718.5249899445456
 30
0.0
 10
701.3230714994058
 20
718.3927212987358
 30
0.0
 10
701.3161728192479
 20
718.2108009559118
 30
0.0
 10
701.314145512765
 20
717.9406365790915
 30
0.0
 10
701.3222470976108
 20
717.6098421577129
 30
0.0
 10
701.3373610644428
 20
717.2626935131094
 30
0.0
 10
701.3557105620077
 20
716.9291103087522
 30
0.0
 10
701.3801186038381
 20
716.5339971179327
 30
0.0
 10
701.4038414748003
 20
716.1574413852363
 30
0.0
 10
701.426667566246
 20
715.7459438588152
 30
0.0
 10
701.4434454684605
 20
715.3959333442804
 30
0.0
 10
701.4621071358699
 20
714.9547288270194
 30
0.0
 10
701.4791077657281
 20
714.4712392206819
 30
0.0
 10
701.496226861033
 20
713.7737415839795
 30
0.0
 10
701.5007855391284
 20
713.2699712695876
 30
0.0
 10
701.5002665944445
 20
712.9590771670879
 30
0.0
  0
SPLINE
  5
107
330
A8
100
AcDbEntity
  8
0
  6
Continuous
 62
     0
370
     0
100
AcDbSpline
210
0.0
220
0.0
230
1.0
 70
     8
 71
     3
 72
    18
 73
    14
 74
     0
 42
0.000000001
 43
0.0
 40
0.0
 40
0.0
 40
0.0
 40
0.0
 40
0.7027370259286991
 40
1.293683266474542
 40
1.630891291109695
 40
1.880691461960285
 40
2.083632206119296
 40
2.396523650565952
 40
2.757413614616584
 40
3.276994358666676
 40
3.724776255592948
 40
4.73901773150989
 40
6.510094996432836
 40
6.510094996432836
 40
6.510094996432836
 40
6.510094996432836
 10
703.0702684606188
 20
718.2244357870361
 30
0.0
 10
703.0702702659943
 20
718.224435828565
 30
0.0
 10
703.0673500745977
 20
718.1654367463753
 30
0.0
 10
703.058146200432
 20
717.9301521051556
 30
0.0
 10
703.0501897427641
 20
717.6897299728362
 30
0.0
 10
703.0445735753517
 20
717.5044725582436
 30
0.0
 10
703.0402672864493
 20
717.2848967899224
 30
0.0
 10
703.0367353985391
 20
717.0100823825858
 30
0.0
 10
703.0335857455871
 20
716.6212205157259
 30
0.0
 10
703.0317130053819
 20
716.1808102766735
 30
0.0
 10
703.0301161369877
 20
715.5216071230271
 30
0.0
 10
703.0281185590841
 20
714.4450667282899
 30
0.0
 10
703.0269225513963
 20
713.5170724844116
 30
0.0
 10
703.026409804797
 20
712.9268497280816
 30
0.0
  0
ARC
  5
108
330
A8
100
AcDbEntity
  8
0
  6
Continuous
 62
     0
370
    30
100
AcDbCircle
 10
701.570268
 20
718.224436
 30
0.0
 40
1.500000000000003
100
AcDbArc
 50
359.999997
 51
1.924267
  0
SPLINE
  5
109
330
A8
100
AcDbEntity
  8
0
  6
Continuous
 62
     0
370
     0
100
AcDbSpline
210
0.0
220
0.0
230
1.0
 70
     8
 71
     3
 72
    24
 73
    20
 74
     0
 42
0.000000001
 43
0.0
 40
48.11604154271799
 40
48.11604154271799
 40
48.11604154271799
 40
48.11604154271799
 40
49.99269947025343
 40
51.46192063953115
 40
53.42034377808636
 40
54.58720818292066
 40
55.09398862054752
 40
56.47437906945545
 40
58.71585406942724
 40
62.89972084250932
 40
67.20212528935113
 40
71.99865048165356
 40
75.52677566947948
 40
79.08092659373875
 40
82.47057370021248
 40
86.03290898663475
 40
89.75717742726508
 40
93.16707003430801
 40
96.23208308543599
 40
96.23208308543599
 40
96.23208308543599
 40
96.23208308543599
 10
703.070265434003
 20
659.7716601589384
 30
0.0
 10
703.0702654964805
 20
659.7716624193546
 30
0.0
 10
703.0506988873709
 20
659.8298798081603
 30
0.0
 10
702.9656871789487
 20
660.085403752527
 30
0.0
 10
702.846257146316
 20
660.4491880180926
 30
0.0
 10
702.7228835152705
 20
660.8358754713429
 30
0.0
 10
702.6063442879188
 20
661.2043727992805
 30
0.0
 10
702.4290210692004
 20
661.7676392520077
 30
0.0
 10
702.0360488003284
 20
663.059303229833
 30
0.0
 10
701.4092259017922
 20
665.3465766382042
 30
0.0
 10
700.6592854059322
 20
668.8787667166256
 30
0.0
 10
700.1356889115102
 20
672.7816856787723
 30
0.0
 10
699.9213804360802
 20
676.7079244361242
 30
0.0
 10
699.9697141145591
 20
680.2144886934168
 30
0.0
 10
700.2441505106128
 20
683.6287452542286
 30
0.0
 10
700.7117783409777
 20
686.8608261698345
 30
0.0
 10
701.3063044887814
 20
689.729145226134
 30
0.0
 10
701.9033229989863
 20
692.0244095512701
 30
0.0
 10
702.2491441876181
 20
693.1855120632576
 30
0.0
 10
702.3951411250031
 20
693.6609117826915
 30
0.0
  0
SPLINE
  5
10A
330
A8
100
AcDbEntity
  8
0
  6
Continuous
 62
     0
370
    30
100
AcDbSpline
210
0.0
220
0.0
230
1.0
 70
     8
 71
     3
 72
    16
 73
    12
 74
     0
 42
0.000000001
 43
0.0
 40
0.0
 40
0.0
 40
0.0
 40
0.0
 40
0.047571747463253
 40
0.142715242389758
 40
0.285500142816446
 40
0.428364121306228
 40
0.571238658903388
 40
0.7141386353145169
 40
0.8570213549594369
 40
0.9523404516531461
 40
1.0
 40
1.0
 40
1.0
 40
1.0
 10
695.2839070516777
 20
717.6666462240441
 30
0.0
 10
695.3575922122126
 20
717.7436645232974
 30
0.0
 10
695.586633931347
 20
717.967078805772
 30
0.0
 10
696.0892492075261
 20
718.3682249221229
 30
0.0
 10
696.8300387408269
 20
718.7981379028834
 30
0.0
 10
697.724898832826
 20
719.15386187032
 30
0.0
 10
698.6532672698677
 20
719.4058542097328
 30
0.0
 10
699.599999411621
 20
719.5733941389656
 30
0.0
 10
700.4494201132767
 20
719.6651546732912
 30
0.0
 10
701.0888005171407
 20
719.7058978168482
 30
0.0
 10
701.4088743993226
 20
719.7195463044336
 30
0.0
 10
701.5155896537734
 20
719.7234389333909
 30
0.0
  0
LINE
  5
10B
330
A8
100
AcDbEntity
  8
0
  6
Continuous
 62
     0
370
     0
100
AcDbLine
 10
701.370028
 20
712.959076
 30
0.0
 11
701.500267
 21
712.959077
 31
0.0
  0
LINE
  5
10C
330
A8
100
AcDbEntity
  8
0
  6
Continuous
 62
     0
370
     0
100
AcDbLine
 10
695.0983
 20
712.959067
 30
0.0
 11
695.283907
 21
717.666646
 31
0.0
  0
LINE
  5
10D
330
A8
100
AcDbEntity
  8
0
  6
Continuous
 62
     0
370
     0
100
AcDbLine
 10
701.370028
 20
712.959076
 30
0.0
 11
695.0983
 21
712.959067
 31
0.0
  0
SPLINE
  5
10E
330
A8
100
AcDbEntity
  8
0
  6
Continuous
 62
     0
370
     0
100
AcDbSpline
210
0.0
220
0.0
230
1.0
 70
     8
 71
     3
 72
    37
 73
    33
 74
     0
 42
0.000000001
 43
0.0
 40
0.0
 40
0.0
 40
0.0
 40
0.0
 40
0.34683732744123
 40
0.460838424918714
 40
0.6867205404174311
 40
0.805836463582031
 40
1.000491094374343
 40
1.156821822431933
 40
1.229111397935566
 40
1.374073811346492
 40
1.526524116929811
 40
1.685440638907337
 40
2.008807295086724
 40
2.17246128867793
 40
2.337382819334108
 40
3.007089927858771
 40
3.176280919184187
 40
3.625677982342092
 40
3.954008800926969
 40
4.580254423418745
 40
5.157474442448222
 40
5.719332768876882
 40
5.907571661727383
 40
6.096252574487083
 40
6.473360432507119
 40
6.6600614527565
 40
6.940714199302541
 40
7.087158077204935
 40
7.241866982625917
 40
7.397210001473519
 40
7.539792604003336
 40
7.589961048668743
 40
7.589961048668743
 40
7.589961048668743
 40
7.589961048668743
 10
694.7769988798523
 20
704.8050482824003
 30
0.0
 10
694.8192187185723
 20
704.7732577573978
 30
0.0
 10
694.8771887470199
 20
704.7318913612343
 30
0.0
 10
694.9741734840034
 20
704.6717654658755
 30
0.0
 10
695.046400563036
 20
704.6322094782829
 30
0.0
 10
695.1481853906506
 20
704.5859783465603
 30
0.0
 10
695.2559964005869
 20
704.5455617967011
 30
0.0
 10
695.3806600883288
 20
704.5085356316595
 30
0.0
 10
695.4990818176868
 20
704.4758805071497
 30
0.0
 10
695.6167186536533
 20
704.4439496850266
 30
0.0
 10
695.7531868421302
 20
704.4056124138036
 30
0.0
 10
695.9357408176813
 20
704.3536199745635
 30
0.0
 10
696.1208706072962
 20
704.3024126230131
 30
0.0
 10
696.3065951107661
 20
704.2525611154568
 30
0.0
 10
696.5900561312023
 20
704.178151941595
 30
0.0
 10
696.873263435773
 20
704.1083426022517
 30
0.0
 10
697.2373794138762
 20
704.0257123308896
 30
0.0
 10
697.5057727287617
 20
703.9688173206217
 30
0.0
 10
697.9072271653961
 20
703.8918905027269
 30
0.0
 10
698.368265530297
 20
703.8176134681846
 30
0.0
 10
698.962444843311
 20
703.7444511200802
 30
0.0
 10
699.4214399474401
 20
703.6985487915128
 30
0.0
 10
699.7430199566596
 20
703.6706408233457
 30
0.0
 10
700.0010703679876
 20
703.6500651589172
 30
0.0
 10
700.2594608001095
 20
703.6322810511728
 30
0.0
 10
700.5497548490882
 20
703.6154339175984
 30
0.0
 10
700.776265452339
 20
703.6047131233079
 30
0.0
 10
700.9768274111726
 20
703.596301694808
 30
0.0
 10
701.123920726497
 20
703.5908133108446
 30
0.0
 10
701.268403693226
 20
703.5864201020831
 30
0.0
 10
701.3887417657368
 20
703.5836163042673
 30
0.0
 10
701.4646801268608
 20
703.582122191564
 30
0.0
 10
701.48520206108
 20
703.5817337512979
 30
0.0
  0
LINE
  5
10F
330
A8
100
AcDbEntity
  8
0
  6
Continuous
 62
     0
370
     0
100
AcDbLine
 10
694.776999
 20
704.805048
 30
0.0
 11
695.0983
 21
712.959067
 31
0.0
  0
ELLIPSE
  5
110
330
A8
100
AcDbEntity
  8
0
  6
Continuous
 62
     0
370
     0
100
AcDbEllipse
 10
689.98138
 20
705.0939
 30
0.0
 11
2.201178132921488
 21
9.754732944942591
 31
0.0
210
0.0
220
0.0
230
1.0
 40
0.475584
 41
3.584611831058748
 42
4.789849798484916
  0
ARC
  5
111
330
A8
100
AcDbEntity
  8
0
  6
Continuous
 62
     0
370
     0
100
AcDbCircle
 10
683.45171
 20
707.27166
 30
0.0
 40
9.999999999999996
100
AcDbArc
 50
270.0
 51
357.274228
  0
SPLINE
  5
112
330
A8
100
AcDbEntity
  8
0
  6
Continuous
 62
     0
370
     0
100
AcDbSpline
210
0.0
220
0.0
230
1.0
 70
     8
 71
     3
 72
    14
 73
    10
 74
     0
 42
0.000000001
 43
0.0
 40
0.0
 40
0.0
 40
0.0
 40
0.0
 40
0.5895158262977761
 40
1.04965145955659
 40
1.696107647469175
 40
2.090726781736508
 40
2.481965535142718
 40
2.9175757042511
 40
3.567376309117678
 40
3.567376309117678
 40
3.567376309117678
 40
3.567376309117678
 10
693.4403957166878
 20
706.7961023180345
 30
0.0
 10
693.4403955807923
 20
706.7961006700716
 30
0.0
 10
693.4668618269585
 20
706.7481271241058
 30
0.0
 10
693.5644955386916
 20
706.5403683333793
 30
0.0
 10
693.6965714275084
 20
706.2520975921931
 30
0.0
 10
693.8669224024773
 20
705.9163539557014
 30
0.0
 10
694.0458259493552
 20
705.6067163521379
 30
0.0
 10
694.3147845645492
 20
705.2227698403825
 30
0.0
 10
694.5808905064431
 20
704.9527131796876
 30
0.0
 10
694.7769988798523
 20
704.8050482824003
 30
0.0
  0
LINE
  5
113
330
A8
100
AcDbEntity
  8
0
  6
Continuous
 62
     0
370
     0
100
AcDbLine
 10
695.0983
 20
712.959067
 30
0.0
 11
693.733812
 21
712.959071
 31
0.0
  0
LINE
  5
114
330
A8
100
AcDbEntity
  8
0
  6
Continuous
 62
     0
370
    30
100
AcDbLine
 10
693.440396
 20
706.796102
 30
0.0
 11
693.733812
 21
712.959071
 31
0.0
  0
SPLINE
  5
115
330
A8
100
AcDbEntity
  8
0
  6
Continuous
 62
     0
370
    30
100
AcDbSpline
210
0.0
220
0.0
230
1.0
 70
     8
 71
     3
 72
    12
 73
     8
 74
     0
 42
0.000000001
 43
0.0
 40
0.0
 40
0.0
 40
0.0
 40
0.0
 40
0.048067340464532
 40
0.144202021393597
 40
0.286711675972471
 40
0.4277378088241459
 40
0.5381109800778309
 40
0.5381109800778309
 40
0.5381109800778309
 40
0.5381109800778309
 10
693.7338122113994
 20
712.9590708127364
 30
0.0
 10
693.7376666865244
 20
713.0400309180891
 30
0.0
 10
693.7492302310661
 20
713.2829131472209
 30
0.0
 10
693.7895175994126
 20
713.7649290705858
 30
0.0
 10
693.8667019099563
 20
714.4007311629397
 30
0.0
 10
693.9918338278844
 20
715.0537242540795
 30
0.0
 10
694.1017994762512
 20
715.4635325132928
 30
0.0
 10
694.1569295086173
 20
715.6413654498382
 30
0.0
  0
SPLINE
  5
116
330
A8
100
AcDbEntity
  8
0
  6
Continuous
 62
     0
370
    30
100
AcDbSpline
210
0.0
220
0.0
230
1.0
 70
     8
 71
     3
 72
    14
 73
    10
 74
     0
 42
0.000000001
 43
0.0
 40
0.0
 40
0.0
 40
0.0
 40
0.0
 40
0.6036068196428657
 40
1.102402920165186
 40
1.567951805809928
 40
1.876859881093208
 40
2.030952754103001
 40
2.18484855946358
 40
2.338585572691585
 40
2.338585572691585
 40
2.338585572691585
 40
2.338585572691585
 10
695.2839033189064
 20
717.6666469576224
 30
0.0
 10
695.144966402657
 20
717.5213690974135
 30
0.0
 10
694.9114601077953
 20
717.2360046283674
 30
0.0
 10
694.6339736853088
 20
716.7922840288904
 30
0.0
 10
694.4445318498565
 20
716.4119933632138
 30
0.0
 10
694.3258680123814
 20
716.1260339134417
 30
0.0
 10
694.2537072858163
 20
715.9334348605739
 30
0.0
 10
694.2041880213754
 20
715.7877407585422
 30
0.0
 10
694.1705697296575
 20
715.6907632832855
 30
0.0
 10
694.156904039934
 20
715.6413733454054
 30
0.0
  0
LINE
  5
117
330
A8
100
AcDbEntity
  8
0
  6
Continuous
 62
     0
370
    30
100
AcDbLine
 10
693.733823
 20
712.95907
 30
0.0
 11
693.735775
 21
712.997925
 31
0.0
  0
LINE
  5
118
330
A8
100
AcDbEntity
  8
0
  6
Continuous
 62
     0
370
    30
100
AcDbLine
 10
703.070256
 20
718.224436
 30
0.0
 11
703.070254
 21
659.771729
 31
0.0
  0
ARC
  5
119
330
A8
100
AcDbEntity
  8
0
  6
Continuous
 62
     0
370
    30
100
AcDbCircle
 10
701.57025
 20
659.771676
 30
0.0
 40
1.500015853189529
100
AcDbArc
 50
270.001938
 51
359.99706
  0
ARC
  5
11A
330
A8
100
AcDbEntity
  8
0
  6
Continuous
 62
     0
370
    30
100
AcDbCircle
 10
701.570227
 20
718.224413
 30
0.0
 40
1.500023377723958
100
AcDbArc
 50
1.92507
 51
92.087539
  0
LINE
  5
11B
330
A8
100
AcDbEntity
  8
0
  6
Continuous
 62
     0
370
    30
100
AcDbLine
 10
661.019548
 20
658.27166
 30
0.0
 11
686.119574
 21
658.27166
 31
0.0
  0
LINE
  5
11C
330
A8
100
AcDbEntity
  8
0
  6
Continuous
 62
     0
370
    30
100
AcDbLine
 10
701.570252
 20
658.27166
 30
0.0
 11
696.319551
 21
658.27166
 31
0.0
  0
LINE
  5
11D
330
A8
100
AcDbEntity
  8
0
  6
Continuous
 62
     0
370
    30
100
AcDbLine
 10
693.609574
 20
658.799255
 30
0.0
 11
688.829656
 21
658.799255
 31
0.0
  0
ARC
  5
11E
330
A8
100
AcDbEntity
  8
0
  6
Continuous
 62
     0
370
    30
100
AcDbCircle
 10
691.223597
 20
672.835721
 30
0.0
 40
14.78794859914239
100
AcDbArc
 50
254.877288
 51
269.799931
  0
ARC
  5
11F
330
A8
100
AcDbEntity
  8
0
  6
Continuous
 62
     0
370
    30
100
AcDbCircle
 10
691.2151
 20
672.838556
 30
0.0
 40
14.79078484465214
100
AcDbArc
 50
270.017242
 51
285.121184
  0
ENDBLK
  5
121
330
A8
100
AcDbEntity
  8
0
100
AcDbBlockEnd
  0
ENDSEC
  0
SECTION
  2
ENTITIES
  0
INSERT
  5
A7
330
1F
100
AcDbEntity
  8
0
  6
Continuous
 62
     7
370
     0
100
AcDbBlockReference
  2
a
 10
446.772461
 20
146.446152
 30
0.0
  0
INSERT
  5
122
330
1F
100
AcDbEntity
  8
0
  6
Continuous
 62
     7
370
     0
100
AcDbBlockReference
  2
c
 10
446.772461
 20
146.446152
 30
0.0
  0
ENDSEC
  0
SECTION
  2
OBJECTS
  0
DICTIONARY
  5
C
330
0
100
AcDbDictionary
281
     1
  3
ACAD_GROUP
350
D
  3
ACAD_LAYOUT
350
1A
  3
ACAD_MATERIAL
350
43
  3
ACAD_MLEADERSTYLE
350
6B
  3
ACAD_MLINESTYLE
350
17
  3
ACAD_PLOTSETTINGS
350
19
  3
ACAD_PLOTSTYLENAME
350
E
  3
ACAD_SCALELIST
350
47
  3
ACAD_TABLESTYLE
350
69
  3
ACAD_VISUALSTYLE
350
2A
  3
AcDbVariableDictionary
350
123
  0
DICTIONARY
  5
12E
330
8
100
AcDbDictionary
280
     1
281
     1
  3
ACAD_XREC_ROUNDTRIP
360
12F
  0
DICTIONARY
  5
D
102
{ACAD_REACTORS
330
C
102
}
330
C
100
AcDbDictionary
281
     1
  0
DICTIONARY
  5
1A
102
{ACAD_REACTORS
330
C
102
}
330
C
100
AcDbDictionary
281
     1
  3
Layout1
350
1E
  3
Layout2
350
26
  3
Model
350
22
  0
DICTIONARY
  5
43
102
{ACAD_REACTORS
330
C
102
}
330
C
100
AcDbDictionary
281
     1
  3
ByBlock
350
45
  3
ByLayer
350
44
  3
Global
350
46
  0
DICTIONARY
  5
6B
102
{ACAD_REACTORS
330
C
102
}
330
C
100
AcDbDictionary
281
     1
  3
Standard
350
6C
  0
DICTIONARY
  5
17
102
{ACAD_REACTORS
330
C
102
}
330
C
100
AcDbDictionary
281
     1
  3
Standard
350
18
  0
DICTIONARY
  5
19
102
{ACAD_REACTORS
330
C
102
}
330
C
100
AcDbDictionary
281
     1
  0
ACDBDICTIONARYWDFLT
  5
E
102
{ACAD_REACTORS
330
C
102
}
330
C
100
AcDbDictionary
281
     1
  3
Normal
350
F
100
AcDbDictionaryWithDefault
340
F
  0
DICTIONARY
  5
47
102
{ACAD_REACTORS
330
C
102
}
330
C
100
AcDbDictionary
281
     1
  3
A0
350
48
  3
A1
350
49
  3
A2
350
4A
  3
A3
350
4B
  3
A4
350
4C
  3
A5
350
4D
  3
A6
350
4E
  3
A7
350
4F
  3
A8
350
50
  3
A9
350
51
  3
B0
350
52
  3
B1
350
53
  3
B2
350
54
  3
B3
350
55
  3
B4
350
56
  3
B5
350
57
  3
B6
350
58
  3
B7
350
59
  3
B8
350
5A
  3
B9
350
5B
  3
C0
350
5C
  3
C1
350
5D
  3
C2
350
5E
  3
C3
350
5F
  3
C4
350
60
  3
C5
350
61
  3
C6
350
62
  3
C7
350
63
  3
C8
350
64
  3
C9
350
65
  3
D0
350
66
  3
D1
350
67
  3
D2
350
68
  0
DICTIONARY
  5
69
102
{ACAD_REACTORS
330
C
102
}
330
C
100
AcDbDictionary
281
     1
  3
Standard
350
6A
  0
DICTIONARY
  5
2A
102
{ACAD_REACTORS
330
C
102
}
330
C
100
AcDbDictionary
281
     1
  3
2dWireframe
350
2F
  3
Basic
350
32
  3
Brighten
350
36
  3
ColorChange
350
3A
  3
Conceptual
350
34
  3
Dim
350
35
  3
EdgeColorOff
350
3D
  3
Facepattern
350
39
  3
Flat
350
2B
  3
FlatWithEdges
350
2C
  3
Gouraud
350
2D
  3
GouraudWithEdges
350
2E
  3
Hidden
350
31
  3
JitterOff
350
3B
  3
Linepattern
350
38
  3
OverhangOff
350
3C
  3
Realistic
350
33
  3
Shaded
350
42
  3
Shaded with edges
350
41
  3
Shades of Gray
350
3E
  3
Sketchy
350
3F
  3
Thicken
350
37
  3
Wireframe
350
30
  3
X-Ray
350
40
  0
DICTIONARY
  5
123
102
{ACAD_REACTORS
330
C
102
}
330
C
100
AcDbDictionary
281
     1
  3
CANNOSCALE
350
130
  3
CENTEREXE
350
12A
  3
CENTERLTYPEFILE
350
12B
  3
CMLEADERSTYLE
350
125
  3
CTABLESTYLE
350
124
  3
DIMASSOC
350
12C
  3
HIDETEXT
350
12D
  3
MSLTSCALE
350
131
  3
PSOLHEIGHT
350
127
  3
PSOLWIDTH
350
126
  0
XRECORD
  5
12F
102
{ACAD_REACTORS
330
12E
102
}
330
12E
100
AcDbXrecord
280
     1
102
VTR_0.000_0.000_1.000_1.000_VISUALSTYLE
340
2F
102
VTR_0.000_0.000_1.000_1.000_GRIDDISPLAY
 70
     3
102
VTR_0.000_0.000_1.000_1.000_GRIDMAJOR
 70
     5
102
VTR_0.000_0.000_1.000_1.000_DEFAULTLIGHTING
280
     1
102
VTR_0.000_0.000_1.000_1.000_DEFAULTLIGHTINGTYPE
 70
     1
102
VTR_0.000_0.000_1.000_1.000_BRIGHTNESS
141
0.0
102
VTR_0.000_0.000_1.000_1.000_CONTRAST
142
0.0
  0
LAYOUT
  5
1E
102
{ACAD_REACTORS
330
1A
102
}
330
1A
100
AcDbPlotSettings
  1

  2
none_device
  4

  6

 40
0.0
 41
0.0
 42
0.0
 43
0.0
 44
0.0
 45
0.0
 46
0.0
 47
0.0
 48
0.0
 49
0.0
140
0.0
141
0.0
142
1.0
143
1.0
 70
   688
 72
     1
 73
     0
 74
     5
  7

 75
    16
147
1.0
148
0.0
149
0.0
100
AcDbLayout
  1
Layout1
 70
     1
 71
     1
 10
0.0
 20
0.0
 11
420.0
 21
297.0
 12
0.0
 22
0.0
 32
0.0
 14
1.000000E+20
 24
1.000000E+20
 34
1.000000E+20
 15
-1.000000E+20
 25
-1.000000E+20
 35
-1.000000E+20
146
0.0
 13
0.0
 23
0.0
 33
0.0
 16
1.0
 26
0.0
 36
0.0
 17
0.0
 27
1.0
 37
0.0
 76
     0
330
1B
  0
LAYOUT
  5
26
102
{ACAD_REACTORS
330
1A
102
}
330
1A
100
AcDbPlotSettings
  1

  2
none_device
  4

  6

 40
0.0
 41
0.0
 42
0.0
 43
0.0
 44
0.0
 45
0.0
 46
0.0
 47
0.0
 48
0.0
 49
0.0
140
0.0
141
0.0
142
1.0
143
1.0
 70
   688
 72
     1
 73
     0
 74
     5
  7

 75
    16
147
1.0
148
0.0
149
0.0
100
AcDbLayout
  1
Layout2
 70
     1
 71
     2
 10
0.0
 20
0.0
 11
0.0
 21
0.0
 12
0.0
 22
0.0
 32
0.0
 14
0.0
 24
0.0
 34
0.0
 15
0.0
 25
0.0
 35
0.0
146
0.0
 13
0.0
 23
0.0
 33
0.0
 16
1.0
 26
0.0
 36
0.0
 17
0.0
 27
1.0
 37
0.0
 76
     0
330
23
  0
LAYOUT
  5
22
102
{ACAD_REACTORS
330
1A
102
}
330
1A
100
AcDbPlotSettings
  1

  2
none_device
  4
Letter_(8.50_x_11.00_Inches)
  6

 40
6.35
 41
6.35
 42
6.350005
 43
6.350005
 44
215.9
 45
279.4
 46
0.0
 47
0.0
 48
0.0
 49
0.0
140
0.0
141
0.0
142
1.0
143
1.0
 70
  1712
 72
     1
 73
     0
 74
     0
  7

 75
     0
147
1.0
148
0.0
149
0.0
100
AcDbLayout
  1
Model
 70
     1
 71
     0
 10
474.352661
 20
461.281677
 11
710.869568
 21
751.773804
 12
0.0
 22
0.0
 32
0.0
 14
474.352661
 24
461.281677
 34
0.0
 15
710.869568
 25
751.773804
 35
0.0
146
0.0
 13
0.0
 23
0.0
 33
0.0
 16
1.0
 26
0.0
 36
0.0
 17
0.0
 27
1.0
 37
0.0
 76
     0
330
1F
331
29
  0
MATERIAL
  5
45
102
{ACAD_REACTORS
330
43
102
}
102
{ACAD_XDICTIONARY
360
164
102
}
330
43
100
AcDbMaterial
  1
ByBlock
  0
MATERIAL
  5
44
102
{ACAD_REACTORS
330
43
102
}
102
{ACAD_XDICTIONARY
360
162
102
}
330
43
100
AcDbMaterial
  1
ByLayer
  0
MATERIAL
  5
46
102
{ACAD_REACTORS
330
43
102
}
102
{ACAD_XDICTIONARY
360
166
102
}
330
43
100
AcDbMaterial
  1
Global
  0
MLEADERSTYLE
  5
6C
102
{ACAD_REACTORS
330
6B
102
}
102
{ACAD_XDICTIONARY
360
169
102
}
330
6B
100
AcDbMLeaderStyle
170
     2
171
     1
172
     0
 90
        2
 40
0.0
 41
0.0
173
     1
 91
-1056964608
340
14
 92
       -2
290
     1
 42
2.0
291
     1
 43
8.0
  3
Standard
341
0
 44
4.0
300

342
11
174
     1
178
     6
175
     1
176
     0
 93
-1056964608
 45
4.0
292
     0
297
     0
 46
4.0
343
0
 94
-1056964608
 47
1.0
 49
1.0
140
1.0
293
     1
141
0.0
294
     1
177
     0
142
1.0
295
     0
296
     0
143
3.75
1001
ACAD_MLEADERVER
1070
     2
  0
MLINESTYLE
  5
18
102
{ACAD_REACTORS
330
17
102
}
330
17
100
AcDbMlineStyle
  2
Standard
 70
     0
  3

 62
   256
 51
90.0
 52
90.0
 71
     2
 49
0.5
 62
   256
  6
BYLAYER
 49
-0.5
 62
   256
  6
BYLAYER
  0
ACDBPLACEHOLDER
  5
F
102
{ACAD_REACTORS
330
E
102
}
330
E
  0
SCALE
  5
48
102
{ACAD_REACTORS
330
47
102
}
330
47
100
AcDbScale
 70
     0
300
1:1
140
1.0
141
1.0
290
     1
  0
SCALE
  5
49
102
{ACAD_REACTORS
330
47
102
}
330
47
100
AcDbScale
 70
     0
300
1:2
140
1.0
141
2.0
290
     0
  0
SCALE
  5
4A
102
{ACAD_REACTORS
330
47
102
}
330
47
100
AcDbScale
 70
     0
300
1:4
140
1.0
141
4.0
290
     0
  0
SCALE
  5
4B
102
{ACAD_REACTORS
330
47
102
}
330
47
100
AcDbScale
 70
     0
300
1:5
140
1.0
141
5.0
290
     0
  0
SCALE
  5
4C
102
{ACAD_REACTORS
330
47
102
}
330
47
100
AcDbScale
 70
     0
300
1:8
140
1.0
141
8.0
290
     0
  0
SCALE
  5
4D
102
{ACAD_REACTORS
330
47
102
}
330
47
100
AcDbScale
 70
     0
300
1:10
140
1.0
141
10.0
290
     0
  0
SCALE
  5
4E
102
{ACAD_REACTORS
330
47
102
}
330
47
100
AcDbScale
 70
     0
300
1:16
140
1.0
141
16.0
290
     0
  0
SCALE
  5
4F
102
{ACAD_REACTORS
330
47
102
}
330
47
100
AcDbScale
 70
     0
300
1:20
140
1.0
141
20.0
290
     0
  0
SCALE
  5
50
102
{ACAD_REACTORS
330
47
102
}
330
47
100
AcDbScale
 70
     0
300
1:30
140
1.0
141
30.0
290
     0
  0
SCALE
  5
51
102
{ACAD_REACTORS
330
47
102
}
330
47
100
AcDbScale
 70
     0
300
1:40
140
1.0
141
40.0
290
     0
  0
SCALE
  5
52
102
{ACAD_REACTORS
330
47
102
}
330
47
100
AcDbScale
 70
     0
300
1:50
140
1.0
141
50.0
290
     0
  0
SCALE
  5
53
102
{ACAD_REACTORS
330
47
102
}
330
47
100
AcDbScale
 70
     0
300
1:100
140
1.0
141
100.0
290
     0
  0
SCALE
  5
54
102
{ACAD_REACTORS
330
47
102
}
330
47
100
AcDbScale
 70
     0
300
2:1
140
2.0
141
1.0
290
     0
  0
SCALE
  5
55
102
{ACAD_REACTORS
330
47
102
}
330
47
100
AcDbScale
 70
     0
300
4:1
140
4.0
141
1.0
290
     0
  0
SCALE
  5
56
102
{ACAD_REACTORS
330
47
102
}
330
47
100
AcDbScale
 70
     0
300
8:1
140
8.0
141
1.0
290
     0
  0
SCALE
  5
57
102
{ACAD_REACTORS
330
47
102
}
330
47
100
AcDbScale
 70
     0
300
10:1
140
10.0
141
1.0
290
     0
  0
SCALE
  5
58
102
{ACAD_REACTORS
330
47
102
}
330
47
100
AcDbScale
 70
     0
300
100:1
140
100.0
141
1.0
290
     0
  0
SCALE
  5
59
102
{ACAD_REACTORS
330
47
102
}
330
47
100
AcDbScale
 70
     0
300
1/128" = 1'-0"
140
0.007812
141
12.0
290
     0
  0
SCALE
  5
5A
102
{ACAD_REACTORS
330
47
102
}
330
47
100
AcDbScale
 70
     0
300
1/64" = 1'-0"
140
0.015625
141
12.0
290
     0
  0
SCALE
  5
5B
102
{ACAD_REACTORS
330
47
102
}
330
47
100
AcDbScale
 70
     0
300
1/32" = 1'-0"
140
0.03125
141
12.0
290
     0
  0
SCALE
  5
5C
102
{ACAD_REACTORS
330
47
102
}
330
47
100
AcDbScale
 70
     0
300
1/16" = 1'-0"
140
0.0625
141
12.0
290
     0
  0
SCALE
  5
5D
102
{ACAD_REACTORS
330
47
102
}
330
47
100
AcDbScale
 70
     0
300
3/32" = 1'-0"
140
0.09375
141
12.0
290
     0
  0
SCALE
  5
5E
102
{ACAD_REACTORS
330
47
102
}
330
47
100
AcDbScale
 70
     0
300
1/8" = 1'-0"
140
0.125
141
12.0
290
     0
  0
SCALE
  5
5F
102
{ACAD_REACTORS
330
47
102
}
330
47
100
AcDbScale
 70
     0
300
3/16" = 1'-0"
140
0.1875
141
12.0
290
     0
  0
SCALE
  5
60
102
{ACAD_REACTORS
330
47
102
}
330
47
100
AcDbScale
 70
     0
300
1/4" = 1'-0"
140
0.25
141
12.0
290
     0
  0
SCALE
  5
61
102
{ACAD_REACTORS
330
47
102
}
330
47
100
AcDbScale
 70
     0
300
3/8" = 1'-0"
140
0.375
141
12.0
290
     0
  0
SCALE
  5
62
102
{ACAD_REACTORS
330
47
102
}
330
47
100
AcDbScale
 70
     0
300
1/2" = 1'-0"
140
0.5
141
12.0
290
     0
  0
SCALE
  5
63
102
{ACAD_REACTORS
330
47
102
}
330
47
100
AcDbScale
 70
     0
300
3/4" = 1'-0"
140
0.75
141
12.0
290
     0
  0
SCALE
  5
64
102
{ACAD_REACTORS
330
47
102
}
330
47
100
AcDbScale
 70
     0
300
1" = 1'-0"
140
1.0
141
12.0
290
     0
  0
SCALE
  5
65
102
{ACAD_REACTORS
330
47
102
}
330
47
100
AcDbScale
 70
     0
300
1-1/2" = 1'-0"
140
1.5
141
12.0
290
     0
  0
SCALE
  5
66
102
{ACAD_REACTORS
330
47
102
}
330
47
100
AcDbScale
 70
     0
300
3" = 1'-0"
140
3.0
141
12.0
290
     0
  0
SCALE
  5
67
102
{ACAD_REACTORS
330
47
102
}
330
47
100
AcDbScale
 70
     0
300
6" = 1'-0"
140
6.0
141
12.0
290
     0
  0
SCALE
  5
68
102
{ACAD_REACTORS
330
47
102
}
330
47
100
AcDbScale
 70
     0
300
1'-0" = 1'-0"
140
12.0
141
12.0
290
     0
  0
TABLESTYLE
  5
6A
102
{ACAD_REACTORS
330
69
102
}
330
69
100
AcDbTableStyle
  3
Standard
 70
     0
 71
     0
 40
1.5
 41
1.5
280
     0
281
     0
  7
Standard
140
4.5
170
     2
 62
     0
 63
   257
283
     0
274
    -2
284
     1
 64
     0
275
    -2
285
     1
 65
     0
276
    -2
286
     1
 66
     0
277
    -2
287
     1
 67
     0
278
    -2
288
     1
 68
     0
279
    -2
289
     1
 69
     0
  7
Standard
140
6.0
170
     5
 62
     0
 63
   257
283
     0
274
    -2
284
     1
 64
     0
275
    -2
285
     1
 65
     0
276
    -2
286
     1
 66
     0
277
    -2
287
     1
 67
     0
278
    -2
288
     1
 68
     0
279
    -2
289
     1
 69
     0
  7
Standard
140
4.5
170
     5
 62
     0
 63
   257
283
     0
274
    -2
284
     1
 64
     0
275
    -2
285
     1
 65
     0
276
    -2
286
     1
 66
     0
277
    -2
287
     1
 67
     0
278
    -2
288
     1
 68
     0
279
    -2
289
     1
 69
     0
  0
VISUALSTYLE
  5
2F
102
{ACAD_REACTORS
330
2A
102
}
102
{ACAD_XDICTIONARY
360
13A
102
}
330
2A
100
AcDbVisualStyle
  2
2dWireframe
 70
     4
 71
     0
 72
     2
 73
     0
 90
        0
 40
0.6
 41
30.0
 62
     5
 63
     7
 74
     1
 91
        4
 64
     7
 65
   257
 75
     1
175
     1
 42
1.0
 92
        0
 66
   257
 43
1.0
 76
     1
 77
     6
 78
     2
 67
     7
 79
     5
170
     0
171
     0
290
     0
174
     0
 93
        1
 44
0.0
173
     0
291
     0
 45
0.0
1001
ACAD
1000
AcDbSavedByObjectVersion
1070
     0
  0
VISUALSTYLE
  5
32
102
{ACAD_REACTORS
330
2A
102
}
102
{ACAD_XDICTIONARY
360
140
102
}
330
2A
100
AcDbVisualStyle
  2
Basic
 70
     7
 71
     1
 72
     0
 73
     1
 90
        0
 40
0.6
 41
30.0
 62
     5
 63
     7
 74
     0
 91
        4
 64
     7
 65
   257
 75
     1
175
     1
 42
1.0
 92
        8
 66
     7
 43
1.0
 76
     1
 77
     6
 78
     2
 67
     7
 79
     5
170
     0
171
     0
290
     0
174
     0
 93
        1
 44
0.0
173
     0
291
     1
 45
0.0
1001
ACAD
1000
AcDbSavedByObjectVersion
1070
     0
  0
VISUALSTYLE
  5
36
102
{ACAD_REACTORS
330
2A
102
}
102
{ACAD_XDICTIONARY
360
148
102
}
330
2A
100
AcDbVisualStyle
  2
Brighten
 70
    12
 71
     2
 72
     2
 73
     0
 90
        0
 40
0.6
 41
30.0
 62
     5
 63
     7
 74
     1
 91
        4
 64
     7
 65
   257
 75
     1
175
     1
 42
1.0
 92
        8
 66
     7
 43
1.0
 76
     1
 77
     6
 78
     2
 67
     7
 79
     5
170
     0
171
     0
290
     0
174
     0
 93
        1
 44
50.0
173
     0
291
     1
 45
0.0
1001
ACAD
1000
AcDbSavedByObjectVersion
1070
     0
  0
VISUALSTYLE
  5
3A
102
{ACAD_REACTORS
330
2A
102
}
102
{ACAD_XDICTIONARY
360
150
102
}
330
2A
100
AcDbVisualStyle
  2
ColorChange
 70
    16
 71
     2
 72
     2
 73
     3
 90
        0
 40
0.6
 41
30.0
 62
     5
 63
     8
 74
     1
 91
        4
 64
     7
 65
   257
 75
     1
175
     1
 42
1.0
 92
        8
 66
     8
 43
1.0
 76
     1
 77
     6
 78
     2
 67
     7
 79
     5
170
     0
171
     0
290
     0
174
     0
 93
        1
 44
0.0
173
     0
291
     1
 45
0.0
1001
ACAD
1000
AcDbSavedByObjectVersion
1070
     0
  0
VISUALSTYLE
  5
34
102
{ACAD_REACTORS
330
2A
102
}
102
{ACAD_XDICTIONARY
360
144
102
}
330
2A
100
AcDbVisualStyle
  2
Conceptual
 70
     9
 71
     3
 72
     2
 73
     0
 90
        0
 40
0.6
 41
30.0
 62
     5
 63
     7
 74
     2
 91
        2
 64
     7
 65
   257
 75
     1
175
     1
 42
179.0
 92
        8
 66
     7
 43
1.0
 76
     1
 77
     6
 78
     2
 67
     7
 79
     3
170
     0
171
     0
290
     0
174
     0
 93
        1
 44
0.0
173
     0
291
     0
 45
0.0
1001
ACAD
1000
AcDbSavedByObjectVersion
1070
     0
  0
VISUALSTYLE
  5
35
102
{ACAD_REACTORS
330
2A
102
}
102
{ACAD_XDICTIONARY
360
146
102
}
330
2A
100
AcDbVisualStyle
  2
Dim
 70
    11
 71
     2
 72
     2
 73
     0
 90
        0
 40
0.6
 41
30.0
 62
     5
 63
     7
 74
     1
 91
        4
 64
     7
 65
   257
 75
     1
175
     1
 42
1.0
 92
        8
 66
     7
 43
1.0
 76
     1
 77
     6
 78
     2
 67
     7
 79
     5
170
     0
171
     0
290
     0
174
     0
 93
        1
 44
-50.0
173
     0
291
     1
 45
0.0
1001
ACAD
1000
AcDbSavedByObjectVersion
1070
     0
  0
VISUALSTYLE
  5
3D
102
{ACAD_REACTORS
330
2A
102
}
102
{ACAD_XDICTIONARY
360
156
102
}
330
2A
100
AcDbVisualStyle
  2
EdgeColorOff
 70
    22
 71
     2
 72
     2
 73
     0
 90
        0
 40
0.6
 41
30.0
 62
     5
 63
     7
 74
     1
 91
        4
 64
     7
 65
   257
 75
     1
175
     1
 42
1.0
 92
        8
 66
     7
 43
1.0
 76
     1
 77
     6
 78
     2
 67
     7
 79
     5
170
     0
171
     0
290
     0
174
     0
 93
        1
 44
0.0
173
     0
291
     1
 45
0.0
1001
ACAD
1000
AcDbSavedByObjectVersion
1070
     0
  0
VISUALSTYLE
  5
39
102
{ACAD_REACTORS
330
2A
102
}
102
{ACAD_XDICTIONARY
360
14E
102
}
330
2A
100
AcDbVisualStyle
  2
Facepattern
 70
    15
 71
     2
 72
     2
 73
     0
 90
        0
 40
0.6
 41
30.0
 62
     5
 63
     7
 74
     1
 91
        4
 64
     7
 65
   257
 75
     1
175
     1
 42
1.0
 92
        8
 66
     7
 43
1.0
 76
     1
 77
     6
 78
     2
 67
     7
 79
     5
170
     0
171
     0
290
     0
174
     0
 93
        1
 44
0.0
173
     0
291
     1
 45
0.0
1001
ACAD
1000
AcDbSavedByObjectVersion
1070
     0
  0
VISUALSTYLE
  5
2B
102
{ACAD_REACTORS
330
2A
102
}
102
{ACAD_XDICTIONARY
360
132
102
}
330
2A
100
AcDbVisualStyle
  2
Flat
 70
     0
 71
     2
 72
     1
 73
     1
 90
        2
 40
0.6
 41
30.0
 62
     5
 63
     7
 74
     0
 91
        0
 64
     7
 65
   257
 75
     1
175
     1
 42
1.0
 92
        8
 66
     7
 43
1.0
 76
     1
 77
     6
 78
     2
 67
     7
 79
     5
170
     0
171
     0
290
     0
174
     0
 93
       13
 44
0.0
173
     0
291
     1
 45
0.0
1001
ACAD
1000
AcDbSavedByObjectVersion
1070
     0
  0
VISUALSTYLE
  5
2C
102
{ACAD_REACTORS
330
2A
102
}
102
{ACAD_XDICTIONARY
360
134
102
}
330
2A
100
AcDbVisualStyle
  2
FlatWithEdges
 70
     1
 71
     2
 72
     1
 73
     1
 90
        2
 40
0.6
 41
30.0
 62
     5
 63
     7
 74
     1
 91
        0
 64
     7
 65
   257
 75
     1
175
     1
 42
1.0
 92
        0
 66
   257
 43
1.0
 76
     1
 77
     6
 78
     2
 67
     7
 79
     5
170
     0
171
     0
290
     0
174
     0
 93
       13
 44
0.0
173
     0
291
     1
 45
0.0
1001
ACAD
1000
AcDbSavedByObjectVersion
1070
     0
  0
VISUALSTYLE
  5
2D
102
{ACAD_REACTORS
330
2A
102
}
102
{ACAD_XDICTIONARY
360
136
102
}
330
2A
100
AcDbVisualStyle
  2
Gouraud
 70
     2
 71
     2
 72
     2
 73
     1
 90
        2
 40
0.6
 41
30.0
 62
     5
 63
     7
 74
     0
 91
        0
 64
     7
 65
   257
 75
     1
175
     1
 42
1.0
 92
        0
 66
     7
 43
1.0
 76
     1
 77
     6
 78
     2
 67
     7
 79
     5
170
     0
171
     0
290
     0
174
     0
 93
       13
 44
0.0
173
     0
291
     1
 45
0.0
1001
ACAD
1000
AcDbSavedByObjectVersion
1070
     0
  0
VISUALSTYLE
  5
2E
102
{ACAD_REACTORS
330
2A
102
}
102
{ACAD_XDICTIONARY
360
138
102
}
330
2A
100
AcDbVisualStyle
  2
GouraudWithEdges
 70
     3
 71
     2
 72
     2
 73
     1
 90
        2
 40
0.6
 41
30.0
 62
     5
 63
     7
 74
     1
 91
        0
 64
     7
 65
   257
 75
     1
175
     1
 42
1.0
 92
        0
 66
   257
 43
1.0
 76
     1
 77
     6
 78
     2
 67
     7
 79
     5
170
     0
171
     0
290
     0
174
     0
 93
       13
 44
0.0
173
     0
291
     1
 45
0.0
1001
ACAD
1000
AcDbSavedByObjectVersion
1070
     0
  0
VISUALSTYLE
  5
31
102
{ACAD_REACTORS
330
2A
102
}
102
{ACAD_XDICTIONARY
360
13E
102
}
330
2A
100
AcDbVisualStyle
  2
Hidden
 70
     6
 71
     1
 72
     2
 73
     2
 90
        0
 40
0.6
 41
30.0
 62
     5
 63
     7
 74
     2
 91
        2
 64
     7
 65
   257
 75
     2
175
     1
 42
40.0
 92
        0
 66
   257
 43
1.0
 76
     1
 77
     6
 78
     2
 67
     7
 79
     3
170
     0
171
     0
290
     0
174
     0
 93
        1
 44
0.0
173
     0
291
     0
 45
0.0
1001
ACAD
1000
AcDbSavedByObjectVersion
1070
     0
  0
VISUALSTYLE
  5
3B
102
{ACAD_REACTORS
330
2A
102
}
102
{ACAD_XDICTIONARY
360
152
102
}
330
2A
100
AcDbVisualStyle
  2
JitterOff
 70
    20
 71
     2
 72
     2
 73
     0
 90
        0
 40
0.6
 41
30.0
 62
     5
 63
     7
 74
     1
 91
        4
 64
     7
 65
   257
 75
     1
175
     1
 42
1.0
 92
       10
 66
     7
 43
1.0
 76
     1
 77
     6
 78
     2
 67
     7
 79
     5
170
     0
171
     0
290
     0
174
     0
 93
        1
 44
0.0
173
     0
291
     1
 45
0.0
1001
ACAD
1000
AcDbSavedByObjectVersion
1070
     0
  0
VISUALSTYLE
  5
38
102
{ACAD_REACTORS
330
2A
102
}
102
{ACAD_XDICTIONARY
360
14C
102
}
330
2A
100
AcDbVisualStyle
  2
Linepattern
 70
    14
 71
     2
 72
     2
 73
     0
 90
        0
 40
0.6
 41
30.0
 62
     5
 63
     7
 74
     1
 91
        4
 64
     7
 65
   257
 75
     7
175
     7
 42
1.0
 92
        8
 66
     7
 43
1.0
 76
     1
 77
     6
 78
     2
 67
     7
 79
     5
170
     0
171
     0
290
     0
174
     0
 93
        1
 44
0.0
173
     0
291
     1
 45
0.0
1001
ACAD
1000
AcDbSavedByObjectVersion
1070
     0
  0
VISUALSTYLE
  5
3C
102
{ACAD_REACTORS
330
2A
102
}
102
{ACAD_XDICTIONARY
360
154
102
}
330
2A
100
AcDbVisualStyle
  2
OverhangOff
 70
    21
 71
     2
 72
     2
 73
     0
 90
        0
 40
0.6
 41
30.0
 62
     5
 63
     7
 74
     1
 91
        4
 64
     7
 65
   257
 75
     1
175
     1
 42
1.0
 92
        9
 66
     7
 43
1.0
 76
     1
 77
     6
 78
     2
 67
     7
 79
     5
170
     0
171
     0
290
     0
174
     0
 93
        1
 44
0.0
173
     0
291
     1
 45
0.0
1001
ACAD
1000
AcDbSavedByObjectVersion
1070
     0
  0
VISUALSTYLE
  5
33
102
{ACAD_REACTORS
330
2A
102
}
102
{ACAD_XDICTIONARY
360
142
102
}
330
2A
100
AcDbVisualStyle
  2
Realistic
 70
     8
 71
     2
 72
     3
 73
     0
 90
        2
 40
0.6
 41
30.0
 62
     5
 63
     7
 74
     0
 91
        0
 64
     7
 65
   257
 75
     1
175
     1
 42
1.0
 92
        8
 66
   257
 43
1.0
 76
     1
 77
     6
 78
     2
 67
     7
 79
     3
170
     0
171
     0
290
     0
174
     0
 93
       13
 44
0.0
173
     0
291
     0
 45
0.0
1001
ACAD
1000
AcDbSavedByObjectVersion
1070
     0
  0
VISUALSTYLE
  5
42
102
{ACAD_REACTORS
330
2A
102
}
102
{ACAD_XDICTIONARY
360
160
102
}
330
2A
100
AcDbVisualStyle
  2
Shaded
 70
    27
 71
     2
 72
     2
 73
     1
 90
        2
 40
0.6
 41
30.0
 62
     5
 63
     7
 74
     0
 91
        4
 64
     7
 65
   257
 75
     1
175
     1
 42
1.0
 92
        8
 66
   257
 43
1.0
 76
     1
 77
     6
 78
     2
 67
     8
 79
     3
170
     0
171
     0
290
     0
174
     0
 93
        5
 44
0.0
173
     0
291
     0
 45
0.0
1001
ACAD
1000
AcDbSavedByObjectVersion
1070
     0
  0
VISUALSTYLE
  5
41
102
{ACAD_REACTORS
330
2A
102
}
102
{ACAD_XDICTIONARY
360
15E
102
}
330
2A
100
AcDbVisualStyle
  2
Shaded with edges
 70
    26
 71
     2
 72
     2
 73
     1
 90
        2
 40
0.6
 41
30.0
 62
     5
 63
     7
 74
     1
 91
       10
 64
     7
 65
   257
 75
     2
175
     1
 42
1.0
 92
        8
 66
   257
 43
1.0
 76
     1
 77
     6
 78
     2
 67
     7
 79
     3
170
     0
171
     0
290
     0
174
     0
 93
        5
 44
0.0
173
     0
291
     0
 45
0.0
1001
ACAD
1000
AcDbSavedByObjectVersion
1070
     0
  0
VISUALSTYLE
  5
3E
102
{ACAD_REACTORS
330
2A
102
}
102
{ACAD_XDICTIONARY
360
158
102
}
330
2A
100
AcDbVisualStyle
  2
Shades of Gray
 70
    23
 71
     2
 72
     2
 73
     3
 90
        0
 40
0.6
 41
30.0
 62
     5
 63
     7
 74
     2
 91
        2
 64
     7
 65
     7
 75
     1
175
     1
 42
40.0
 92
        8
 66
     7
 43
1.0
 76
     1
 77
     6
 78
     2
 67
     7
 79
     3
170
     0
171
     0
290
     0
174
     0
 93
        1
 44
0.0
173
     0
291
     0
 45
0.0
1001
ACAD
1000
AcDbSavedByObjectVersion
1070
     0
  0
VISUALSTYLE
  5
3F
102
{ACAD_REACTORS
330
2A
102
}
102
{ACAD_XDICTIONARY
360
15A
102
}
330
2A
100
AcDbVisualStyle
  2
Sketchy
 70
    24
 71
     1
 72
     2
 73
     2
 90
        0
 40
0.6
 41
30.0
 62
     5
 63
     7
 74
     2
 91
        2
 64
     7
 65
     7
 75
     1
175
     1
 42
40.0
 92
       11
 66
     7
 43
1.0
 76
     1
 77
     6
 78
     2
 67
     7
 79
     6
170
     0
171
     0
290
     0
174
     0
 93
        1
 44
0.0
173
     0
291
     0
 45
0.0
1001
ACAD
1000
AcDbSavedByObjectVersion
1070
     0
  0
VISUALSTYLE
  5
37
102
{ACAD_REACTORS
330
2A
102
}
102
{ACAD_XDICTIONARY
360
14A
102
}
330
2A
100
AcDbVisualStyle
  2
Thicken
 70
    13
 71
     2
 72
     2
 73
     0
 90
        0
 40
0.6
 41
30.0
 62
     5
 63
     7
 74
     1
 91
        4
 64
     7
 65
   257
 75
     1
175
     1
 42
1.0
 92
       12
 66
     7
 43
1.0
 76
     1
 77
     6
 78
     2
 67
     7
 79
     5
170
     0
171
     0
290
     0
174
     0
 93
        1
 44
0.0
173
     0
291
     1
 45
0.0
1001
ACAD
1000
AcDbSavedByObjectVersion
1070
     0
  0
VISUALSTYLE
  5
30
102
{ACAD_REACTORS
330
2A
102
}
102
{ACAD_XDICTIONARY
360
13C
102
}
330
2A
100
AcDbVisualStyle
  2
Wireframe
 70
     5
 71
     0
 72
     2
 73
     0
 90
        0
 40
0.6
 41
30.0
 62
     5
 63
     7
 74
     1
 91
        4
 64
     7
 65
   257
 75
     1
175
     1
 42
1.0
 92
        0
 66
   257
 43
1.0
 76
     1
 77
     6
 78
     2
 67
     7
 79
     3
170
     0
171
     0
290
     0
174
     0
 93
        1
 44
0.0
173
     0
291
     0
 45
0.0
1001
ACAD
1000
AcDbSavedByObjectVersion
1070
     0
  0
VISUALSTYLE
  5
40
102
{ACAD_REACTORS
330
2A
102
}
102
{ACAD_XDICTIONARY
360
15C
102
}
330
2A
100
AcDbVisualStyle
  2
X-Ray
 70
    25
 71
     2
 72
     2
 73
     1
 90
        1
 40
0.5
 41
30.0
 62
     5
 63
     7
 74
     1
 91
        0
 64
     7
 65
   257
 75
     1
175
     1
 42
1.0
 92
        8
 66
     7
 43
1.0
 76
     1
 77
     6
 78
     2
 67
     7
 79
     3
170
     0
171
     0
290
     0
174
     0
 93
       13
 44
0.0
173
     0
291
     0
 45
0.0
1001
ACAD
1000
AcDbSavedByObjectVersion
1070
     0
  0
DICTIONARYVAR
  5
130
102
{ACAD_REACTORS
330
123
102
}
330
123
100
DictionaryVariables
280
     0
  1
1:1
  0
DICTIONARYVAR
  5
12A
102
{ACAD_REACTORS
330
123
102
}
330
123
100
DictionaryVariables
280
     0
  1
3.500000
  0
DICTIONARYVAR
  5
12B
102
{ACAD_REACTORS
330
123
102
}
330
123
100
DictionaryVariables
280
     0
  1
acadiso.lin
  0
DICTIONARYVAR
  5
125
102
{ACAD_REACTORS
330
123
102
}
330
123
100
DictionaryVariables
280
     0
  1
Standard
  0
DICTIONARYVAR
  5
124
102
{ACAD_REACTORS
330
123
102
}
330
123
100
DictionaryVariables
280
     0
  1
Standard
  0
DICTIONARYVAR
  5
12C
102
{ACAD_REACTORS
330
123
102
}
330
123
100
DictionaryVariables
280
     0
  1
2
  0
DICTIONARYVAR
  5
12D
102
{ACAD_REACTORS
330
123
102
}
330
123
100
DictionaryVariables
280
     0
  1
1
  0
DICTIONARYVAR
  5
131
102
{ACAD_REACTORS
330
123
102
}
330
123
100
DictionaryVariables
280
     0
  1
1
  0
DICTIONARYVAR
  5
127
102
{ACAD_REACTORS
330
123
102
}
330
123
100
DictionaryVariables
280
     0
  1
80.000000
  0
DICTIONARYVAR
  5
126
102
{ACAD_REACTORS
330
123
102
}
330
123
100
DictionaryVariables
280
     0
  1
5.000000
  0
DICTIONARY
  5
164
330
45
100
AcDbDictionary
280
     1
281
     1
  3
ACAD_XREC_ROUNDTRIP
360
165
  0
DICTIONARY
  5
162
330
44
100
AcDbDictionary
280
     1
281
     1
  3
ACAD_XREC_ROUNDTRIP
360
163
  0
DICTIONARY
  5
166
330
46
100
AcDbDictionary
280
     1
281
     1
  3
ACAD_XREC_ROUNDTRIP
360
167
  0
DICTIONARY
  5
169
330
6C
100
AcDbDictionary
280
     1
281
     1
  3
ACAD_XREC_ROUNDTRIP
360
16A
  0
DICTIONARY
  5
13A
330
2F
100
AcDbDictionary
280
     1
281
     1
  3
ACAD_XREC_ROUNDTRIP
360
13B
  0
DICTIONARY
  5
140
330
32
100
AcDbDictionary
280
     1
281
     1
  3
ACAD_XREC_ROUNDTRIP
360
141
  0
DICTIONARY
  5
148
330
36
100
AcDbDictionary
280
     1
281
     1
  3
ACAD_XREC_ROUNDTRIP
360
149
  0
DICTIONARY
  5
150
330
3A
100
AcDbDictionary
280
     1
281
     1
  3
ACAD_XREC_ROUNDTRIP
360
151
  0
DICTIONARY
  5
144
330
34
100
AcDbDictionary
280
     1
281
     1
  3
ACAD_XREC_ROUNDTRIP
360
145
  0
DICTIONARY
  5
146
330
35
100
AcDbDictionary
280
     1
281
     1
  3
ACAD_XREC_ROUNDTRIP
360
147
  0
DICTIONARY
  5
156
330
3D
100
AcDbDictionary
280
     1
281
     1
  3
ACAD_XREC_ROUNDTRIP
360
157
  0
DICTIONARY
  5
14E
330
39
100
AcDbDictionary
280
     1
281
     1
  3
ACAD_XREC_ROUNDTRIP
360
14F
  0
DICTIONARY
  5
132
330
2B
100
AcDbDictionary
280
     1
281
     1
  3
ACAD_XREC_ROUNDTRIP
360
133
  0
DICTIONARY
  5
134
330
2C
100
AcDbDictionary
280
     1
281
     1
  3
ACAD_XREC_ROUNDTRIP
360
135
  0
DICTIONARY
  5
136
330
2D
100
AcDbDictionary
280
     1
281
     1
  3
ACAD_XREC_ROUNDTRIP
360
137
  0
DICTIONARY
  5
138
330
2E
100
AcDbDictionary
280
     1
281
     1
  3
ACAD_XREC_ROUNDTRIP
360
139
  0
DICTIONARY
  5
13E
330
31
100
AcDbDictionary
280
     1
281
     1
  3
ACAD_XREC_ROUNDTRIP
360
13F
  0
DICTIONARY
  5
152
330
3B
100
AcDbDictionary
280
     1
281
     1
  3
ACAD_XREC_ROUNDTRIP
360
153
  0
DICTIONARY
  5
14C
330
38
100
AcDbDictionary
280
     1
281
     1
  3
ACAD_XREC_ROUNDTRIP
360
14D
  0
DICTIONARY
  5
154
330
3C
100
AcDbDictionary
280
     1
281
     1
  3
ACAD_XREC_ROUNDTRIP
360
155
  0
DICTIONARY
  5
142
330
33
100
AcDbDictionary
280
     1
281
     1
  3
ACAD_XREC_ROUNDTRIP
360
143
  0
DICTIONARY
  5
160
330
42
100
AcDbDictionary
280
     1
281
     1
  3
ACAD_XREC_ROUNDTRIP
360
161
  0
DICTIONARY
  5
15E
330
41
100
AcDbDictionary
280
     1
281
     1
  3
ACAD_XREC_ROUNDTRIP
360
15F
  0
DICTIONARY
  5
158
330
3E
100
AcDbDictionary
280
     1
281
     1
  3
ACAD_XREC_ROUNDTRIP
360
159
  0
DICTIONARY
  5
15A
330
3F
100
AcDbDictionary
280
     1
281
     1
  3
ACAD_XREC_ROUNDTRIP
360
15B
  0
DICTIONARY
  5
14A
330
37
100
AcDbDictionary
280
     1
281
     1
  3
ACAD_XREC_ROUNDTRIP
360
14B
  0
DICTIONARY
  5
13C
330
30
100
AcDbDictionary
280
     1
281
     1
  3
ACAD_XREC_ROUNDTRIP
360
13D
  0
DICTIONARY
  5
15C
330
40
100
AcDbDictionary
280
     1
281
     1
  3
ACAD_XREC_ROUNDTRIP
360
15D
  0
XRECORD
  5
165
102
{ACAD_REACTORS
330
164
102
}
330
164
100
AcDbXrecord
280
     1
102
MATERIAL
148
0.0
149
0.0
149
0.0
 93
        0
 94
      127
282
     0
 72
     1
 77
     1
171
     1
175
     1
179
     1
273
     0
  0
XRECORD
  5
163
102
{ACAD_REACTORS
330
162
102
}
330
162
100
AcDbXrecord
280
     1
102
MATERIAL
148
0.0
149
0.0
149
0.0
 93
        0
 94
      127
282
     0
 72
     1
 77
     1
171
     1
175
     1
179
     1
273
     0
  0
XRECORD
  5
167
102
{ACAD_REACTORS
330
166
102
}
330
166
100
AcDbXrecord
280
     1
102
MATERIAL
148
0.0
149
0.0
149
0.0
 93
        0
 94
      127
282
     0
 72
     1
 77
     1
171
     1
175
     1
179
     1
273
     0
  0
XRECORD
  5
16A
102
{ACAD_REACTORS
330
169
102
}
330
169
100
AcDbXrecord
280
     1
102
ACAD_ROUNDTRIP_2010_MLEADER_STYLE
  0
XRECORD
  5
13B
102
{ACAD_REACTORS
330
13A
102
}
330
13A
100
AcDbXrecord
280
     1
102
RTVSPropertyOp0
 70
     1
102
RTVSPropertyOp1
 70
     1
102
RTVSPropertyOp2
 70
     1
102
RTVSPropertyOp3
 70
     1
102
RTVSPropertyOp4
 70
     1
102
RTVSPropertyOp5
 70
     1
102
RTVSPropertyOp6
 70
     1
102
RTVSPropertyOp7
 70
     1
102
RTVSPropertyOp8
 70
     1
102
RTVSPropertyOp9
 70
     1
102
RTVSPropertyOp10
 70
     1
102
RTVSPropertyOp11
 70
     1
102
RTVSPropertyOp12
 70
     1
102
RTVSPropertyOp13
 70
     1
102
RTVSPropertyOp14
 70
     1
102
RTVSPropertyOp15
 70
     1
102
RTVSPropertyOp16
 70
     1
102
RTVSPropertyOp17
 70
     1
102
RTVSPropertyOp18
 70
     1
102
RTVSPropertyOp19
 70
     1
102
RTVSPropertyOp20
 70
     1
102
RTVSPropertyOp21
 70
     1
102
RTVSPropertyOp22
 70
     1
102
RTVSPropertyOp23
 70
     1
102
RTVSPropertyOp24
 70
     1
102
RTVSPropertyOp25
 70
     1
102
RTVSPropertyOp26
 70
     1
102
RTVSPropertyOp27
 70
     1
102
RTVSPropertyOp28
 70
     1
102
RTVSPropertyOp29
 70
     1
102
RTVSPropertyOp30
 70
     1
102
RTVSPropertyOp31
 70
     1
102
RTVSPropertyOp32
 70
     1
102
RTVSPropertyOp33
 70
     1
102
RTVSPropertyOp34
 70
     1
102
RTVSPropertyOp35
 70
     1
102
RTVSPropertyOp36
 70
     1
102
RTVSPropertyOp37
 70
     1
102
RTVSPropertyOp38
 70
     1
102
RTVSPropertyOp39
 70
     1
102
RTVSPropertyOp40
 70
     1
102
RTVSPropertyOp41
 70
     1
102
RTVSPropertyOp42
 70
     1
102
RTVSPropertyOp43
 70
     1
102
RTVSPropertyOp44
 70
     1
102
RTVSPropertyOp45
 70
     1
102
RTVSPropertyOp46
 70
     1
102
RTVSPropertyOp47
 70
     1
102
RTVSPropertyOp48
 70
     1
102
RTVSPropertyOp49
 70
     1
102
RTVSPropertyOp50
 70
     1
102
RTVSPropertyOp51
 70
     0
102
RTVSPropertyOp52
 70
     0
102
RTVSPropertyOp53
 70
     1
102
RTVSPropertyOp54
 70
     1
102
RTVSPropertyOp55
 70
     1
102
RTVSPropertyOp56
 70
     1
102
RTVSPropertyOp57
 70
     1
102
RTVSPost2010Prop28
280
     1
102
RTVSPost2010PropOp28
 70
     1
102
RTVSPost2010Prop29
280
     1
102
RTVSPost2010PropOp29
 70
     1
102
RTVSPost2010Prop30
280
     0
102
RTVSPost2010PropOp30
 70
     1
102
RTVSPost2010Prop31
280
     0
102
RTVSPost2010PropOp31
 70
     1
102
RTVSPost2010Prop32
280
     0
102
RTVSPost2010PropOp32
 70
     1
102
RTVSPost2010Prop33
280
     0
102
RTVSPost2010PropOp33
 70
     1
102
RTVSPost2010Prop34
280
     0
102
RTVSPost2010PropOp34
 70
     1
102
RTVSPost2010Prop35
280
     0
102
RTVSPost2010PropOp35
 70
     1
102
RTVSPost2010Prop36
280
     0
102
RTVSPost2010PropOp36
 70
     1
102
RTVSPost2010Prop37
 90
       50
102
RTVSPost2010PropOp37
 70
     1
102
RTVSPost2010Prop38
140
0.0
102
RTVSPost2010PropOp38
 70
     1
102
RTVSPost2010Prop39
140
1.0
102
RTVSPost2010PropOp39
 70
     1
102
RTVSPost2010Prop40
 90
        0
102
RTVSPost2010PropOp40
 70
     1
102
RTVSPost2010Prop41ColorIndex
 90
       18
102
RTVSPost2010Prop41ColorRGB
 90
        0
102
RTVSPost2010PropOp41
 70
     1
102
RTVSPost2010Prop42
 90
       50
102
RTVSPost2010PropOp42
 70
     1
102
RTVSPost2010Prop43
 90
        3
102
RTVSPost2010PropOp43
 70
     1
102
RTVSPost2010Prop44ColorIndex
 90
        5
102
RTVSPost2010Prop44ColorRGB
 90
      255
102
RTVSPost2010PropOp44
 70
     1
102
RTVSPost2010Prop45
280
     0
102
RTVSPost2010PropOp45
 70
     1
102
RTVSPost2010Prop46
 90
       50
102
RTVSPost2010PropOp46
 70
     1
102
RTVSPost2010Prop47
 90
       50
102
RTVSPost2010PropOp47
 70
     1
102
RTVSPost2010Prop48
 90
       50
102
RTVSPost2010PropOp48
 70
     1
102
RTVSPost2010Prop49
280
     0
102
RTVSPost2010PropOp49
 70
     1
102
RTVSPost2010Prop50
 90
       50
102
RTVSPost2010PropOp50
 70
     1
102
RTVSPost2010Prop51ColorIndex
 90
      256
102
RTVSPost2010Prop51ColorRGB
 90
-16777216
102
RTVSPost2010PropOp51
 70
     0
102
RTVSPost2010Prop52
140
1.0
102
RTVSPost2010PropOp52
 70
     0
102
RTVSPost2010Prop53
 90
        2
102
RTVSPost2010PropOp53
 70
     1
102
RTVSPost2010Prop54
  1
strokes_ogs.tif
102
RTVSPost2010PropOp54
 70
     1
102
RTVSPost2010Prop55
280
     0
102
RTVSPost2010PropOp55
 70
     1
102
RTVSPost2010Prop56
140
1.0
102
RTVSPost2010PropOp56
 70
     1
102
RTVSPost2010Prop57
140
1.0
102
RTVSPost2010PropOp57
 70
     1
  0
XRECORD
  5
141
102
{ACAD_REACTORS
330
140
102
}
330
140
100
AcDbXrecord
280
     1
102
RTVSPropertyOp0
 70
     1
102
RTVSPropertyOp1
 70
     1
102
RTVSPropertyOp2
 70
     1
102
RTVSPropertyOp3
 70
     1
102
RTVSPropertyOp4
 70
     1
102
RTVSPropertyOp5
 70
     1
102
RTVSPropertyOp6
 70
     1
102
RTVSPropertyOp7
 70
     1
102
RTVSPropertyOp8
 70
     1
102
RTVSPropertyOp9
 70
     1
102
RTVSPropertyOp10
 70
     1
102
RTVSPropertyOp11
 70
     1
102
RTVSPropertyOp12
 70
     1
102
RTVSPropertyOp13
 70
     1
102
RTVSPropertyOp14
 70
     1
102
RTVSPropertyOp15
 70
     1
102
RTVSPropertyOp16
 70
     1
102
RTVSPropertyOp17
 70
     1
102
RTVSPropertyOp18
 70
     1
102
RTVSPropertyOp19
 70
     1
102
RTVSPropertyOp20
 70
     1
102
RTVSPropertyOp21
 70
     1
102
RTVSPropertyOp22
 70
     1
102
RTVSPropertyOp23
 70
     1
102
RTVSPropertyOp24
 70
     1
102
RTVSPropertyOp25
 70
     1
102
RTVSPropertyOp26
 70
     1
102
RTVSPropertyOp27
 70
     1
102
RTVSPropertyOp28
 70
     1
102
RTVSPropertyOp29
 70
     1
102
RTVSPropertyOp30
 70
     1
102
RTVSPropertyOp31
 70
     1
102
RTVSPropertyOp32
 70
     1
102
RTVSPropertyOp33
 70
     1
102
RTVSPropertyOp34
 70
     1
102
RTVSPropertyOp35
 70
     1
102
RTVSPropertyOp36
 70
     1
102
RTVSPropertyOp37
 70
     1
102
RTVSPropertyOp38
 70
     1
102
RTVSPropertyOp39
 70
     1
102
RTVSPropertyOp40
 70
     1
102
RTVSPropertyOp41
 70
     1
102
RTVSPropertyOp42
 70
     1
102
RTVSPropertyOp43
 70
     1
102
RTVSPropertyOp44
 70
     1
102
RTVSPropertyOp45
 70
     1
102
RTVSPropertyOp46
 70
     1
102
RTVSPropertyOp47
 70
     1
102
RTVSPropertyOp48
 70
     1
102
RTVSPropertyOp49
 70
     1
102
RTVSPropertyOp50
 70
     1
102
RTVSPropertyOp51
 70
     0
102
RTVSPropertyOp52
 70
     0
102
RTVSPropertyOp53
 70
     1
102
RTVSPropertyOp54
 70
     1
102
RTVSPropertyOp55
 70
     1
102
RTVSPropertyOp56
 70
     1
102
RTVSPropertyOp57
 70
     1
102
RTVSPost2010Prop28
280
     0
102
RTVSPost2010PropOp28
 70
     1
102
RTVSPost2010Prop29
280
     1
102
RTVSPost2010PropOp29
 70
     1
102
RTVSPost2010Prop30
280
     1
102
RTVSPost2010PropOp30
 70
     1
102
RTVSPost2010Prop31
280
     0
102
RTVSPost2010PropOp31
 70
     1
102
RTVSPost2010Prop32
280
     0
102
RTVSPost2010PropOp32
 70
     1
102
RTVSPost2010Prop33
280
     0
102
RTVSPost2010PropOp33
 70
     1
102
RTVSPost2010Prop34
280
     0
102
RTVSPost2010PropOp34
 70
     1
102
RTVSPost2010Prop35
280
     0
102
RTVSPost2010PropOp35
 70
     1
102
RTVSPost2010Prop36
280
     0
102
RTVSPost2010PropOp36
 70
     1
102
RTVSPost2010Prop37
 90
       50
102
RTVSPost2010PropOp37
 70
     1
102
RTVSPost2010Prop38
140
0.0
102
RTVSPost2010PropOp38
 70
     1
102
RTVSPost2010Prop39
140
1.0
102
RTVSPost2010PropOp39
 70
     1
102
RTVSPost2010Prop40
 90
        0
102
RTVSPost2010PropOp40
 70
     1
102
RTVSPost2010Prop41ColorIndex
 90
       18
102
RTVSPost2010Prop41ColorRGB
 90
        0
102
RTVSPost2010PropOp41
 70
     1
102
RTVSPost2010Prop42
 90
       50
102
RTVSPost2010PropOp42
 70
     1
102
RTVSPost2010Prop43
 90
        3
102
RTVSPost2010PropOp43
 70
     1
102
RTVSPost2010Prop44ColorIndex
 90
        5
102
RTVSPost2010Prop44ColorRGB
 90
      255
102
RTVSPost2010PropOp44
 70
     1
102
RTVSPost2010Prop45
280
     0
102
RTVSPost2010PropOp45
 70
     1
102
RTVSPost2010Prop46
 90
       50
102
RTVSPost2010PropOp46
 70
     1
102
RTVSPost2010Prop47
 90
       50
102
RTVSPost2010PropOp47
 70
     1
102
RTVSPost2010Prop48
 90
       50
102
RTVSPost2010PropOp48
 70
     1
102
RTVSPost2010Prop49
280
     0
102
RTVSPost2010PropOp49
 70
     1
102
RTVSPost2010Prop50
 90
       50
102
RTVSPost2010PropOp50
 70
     1
102
RTVSPost2010Prop51ColorIndex
 90
      256
102
RTVSPost2010Prop51ColorRGB
 90
-16777216
102
RTVSPost2010PropOp51
 70
     0
102
RTVSPost2010Prop52
140
1.0
102
RTVSPost2010PropOp52
 70
     0
102
RTVSPost2010Prop53
 90
        2
102
RTVSPost2010PropOp53
 70
     1
102
RTVSPost2010Prop54
  1
strokes_ogs.tif
102
RTVSPost2010PropOp54
 70
     1
102
RTVSPost2010Prop55
280
     0
102
RTVSPost2010PropOp55
 70
     1
102
RTVSPost2010Prop56
140
1.0
102
RTVSPost2010PropOp56
 70
     1
102
RTVSPost2010Prop57
140
1.0
102
RTVSPost2010PropOp57
 70
     1
  0
XRECORD
  5
149
102
{ACAD_REACTORS
330
148
102
}
330
148
100
AcDbXrecord
280
     1
102
RTVSPropertyOp0
 70
     1
102
RTVSPropertyOp1
 70
     1
102
RTVSPropertyOp2
 70
     1
102
RTVSPropertyOp3
 70
     1
102
RTVSPropertyOp4
 70
     1
102
RTVSPropertyOp5
 70
     1
102
RTVSPropertyOp6
 70
     1
102
RTVSPropertyOp7
 70
     1
102
RTVSPropertyOp8
 70
     1
102
RTVSPropertyOp9
 70
     1
102
RTVSPropertyOp10
 70
     1
102
RTVSPropertyOp11
 70
     1
102
RTVSPropertyOp12
 70
     1
102
RTVSPropertyOp13
 70
     1
102
RTVSPropertyOp14
 70
     1
102
RTVSPropertyOp15
 70
     1
102
RTVSPropertyOp16
 70
     1
102
RTVSPropertyOp17
 70
     1
102
RTVSPropertyOp18
 70
     1
102
RTVSPropertyOp19
 70
     1
102
RTVSPropertyOp20
 70
     1
102
RTVSPropertyOp21
 70
     1
102
RTVSPropertyOp22
 70
     1
102
RTVSPropertyOp23
 70
     1
102
RTVSPropertyOp24
 70
     1
102
RTVSPropertyOp25
 70
     1
102
RTVSPropertyOp26
 70
     1
102
RTVSPropertyOp27
 70
     1
102
RTVSPropertyOp28
 70
     1
102
RTVSPropertyOp29
 70
     1
102
RTVSPropertyOp30
 70
     1
102
RTVSPropertyOp31
 70
     1
102
RTVSPropertyOp32
 70
     1
102
RTVSPropertyOp33
 70
     1
102
RTVSPropertyOp34
 70
     1
102
RTVSPropertyOp35
 70
     1
102
RTVSPropertyOp36
 70
     1
102
RTVSPropertyOp37
 70
     1
102
RTVSPropertyOp38
 70
     1
102
RTVSPropertyOp39
 70
     1
102
RTVSPropertyOp40
 70
     1
102
RTVSPropertyOp41
 70
     1
102
RTVSPropertyOp42
 70
     1
102
RTVSPropertyOp43
 70
     1
102
RTVSPropertyOp44
 70
     1
102
RTVSPropertyOp45
 70
     1
102
RTVSPropertyOp46
 70
     1
102
RTVSPropertyOp47
 70
     1
102
RTVSPropertyOp48
 70
     1
102
RTVSPropertyOp49
 70
     1
102
RTVSPropertyOp50
 70
     1
102
RTVSPropertyOp51
 70
     0
102
RTVSPropertyOp52
 70
     0
102
RTVSPropertyOp53
 70
     1
102
RTVSPropertyOp54
 70
     1
102
RTVSPropertyOp55
 70
     1
102
RTVSPropertyOp56
 70
     1
102
RTVSPropertyOp57
 70
     1
102
RTVSPost2010Prop28
280
     0
102
RTVSPost2010PropOp28
 70
     1
102
RTVSPost2010Prop29
280
     1
102
RTVSPost2010PropOp29
 70
     1
102
RTVSPost2010Prop30
280
     1
102
RTVSPost2010PropOp30
 70
     1
102
RTVSPost2010Prop31
280
     0
102
RTVSPost2010PropOp31
 70
     1
102
RTVSPost2010Prop32
280
     0
102
RTVSPost2010PropOp32
 70
     1
102
RTVSPost2010Prop33
280
     0
102
RTVSPost2010PropOp33
 70
     1
102
RTVSPost2010Prop34
280
     0
102
RTVSPost2010PropOp34
 70
     1
102
RTVSPost2010Prop35
280
     0
102
RTVSPost2010PropOp35
 70
     1
102
RTVSPost2010Prop36
280
     0
102
RTVSPost2010PropOp36
 70
     1
102
RTVSPost2010Prop37
 90
       50
102
RTVSPost2010PropOp37
 70
     1
102
RTVSPost2010Prop38
140
0.0
102
RTVSPost2010PropOp38
 70
     1
102
RTVSPost2010Prop39
140
1.0
102
RTVSPost2010PropOp39
 70
     1
102
RTVSPost2010Prop40
 90
        0
102
RTVSPost2010PropOp40
 70
     1
102
RTVSPost2010Prop41ColorIndex
 90
       18
102
RTVSPost2010Prop41ColorRGB
 90
        0
102
RTVSPost2010PropOp41
 70
     1
102
RTVSPost2010Prop42
 90
       50
102
RTVSPost2010PropOp42
 70
     1
102
RTVSPost2010Prop43
 90
        3
102
RTVSPost2010PropOp43
 70
     1
102
RTVSPost2010Prop44ColorIndex
 90
        5
102
RTVSPost2010Prop44ColorRGB
 90
      255
102
RTVSPost2010PropOp44
 70
     1
102
RTVSPost2010Prop45
280
     0
102
RTVSPost2010PropOp45
 70
     1
102
RTVSPost2010Prop46
 90
       50
102
RTVSPost2010PropOp46
 70
     1
102
RTVSPost2010Prop47
 90
       50
102
RTVSPost2010PropOp47
 70
     1
102
RTVSPost2010Prop48
 90
       50
102
RTVSPost2010PropOp48
 70
     1
102
RTVSPost2010Prop49
280
     0
102
RTVSPost2010PropOp49
 70
     1
102
RTVSPost2010Prop50
 90
       50
102
RTVSPost2010PropOp50
 70
     1
102
RTVSPost2010Prop51ColorIndex
 90
      256
102
RTVSPost2010Prop51ColorRGB
 90
-16777216
102
RTVSPost2010PropOp51
 70
     0
102
RTVSPost2010Prop52
140
1.0
102
RTVSPost2010PropOp52
 70
     0
102
RTVSPost2010Prop53
 90
        2
102
RTVSPost2010PropOp53
 70
     1
102
RTVSPost2010Prop54
  1
strokes_ogs.tif
102
RTVSPost2010PropOp54
 70
     1
102
RTVSPost2010Prop55
280
     0
102
RTVSPost2010PropOp55
 70
     1
102
RTVSPost2010Prop56
140
1.0
102
RTVSPost2010PropOp56
 70
     1
102
RTVSPost2010Prop57
140
1.0
102
RTVSPost2010PropOp57
 70
     1
  0
XRECORD
  5
151
102
{ACAD_REACTORS
330
150
102
}
330
150
100
AcDbXrecord
280
     1
102
RTVSPropertyOp0
 70
     1
102
RTVSPropertyOp1
 70
     1
102
RTVSPropertyOp2
 70
     1
102
RTVSPropertyOp3
 70
     1
102
RTVSPropertyOp4
 70
     1
102
RTVSPropertyOp5
 70
     1
102
RTVSPropertyOp6
 70
     1
102
RTVSPropertyOp7
 70
     1
102
RTVSPropertyOp8
 70
     1
102
RTVSPropertyOp9
 70
     1
102
RTVSPropertyOp10
 70
     1
102
RTVSPropertyOp11
 70
     1
102
RTVSPropertyOp12
 70
     1
102
RTVSPropertyOp13
 70
     1
102
RTVSPropertyOp14
 70
     1
102
RTVSPropertyOp15
 70
     1
102
RTVSPropertyOp16
 70
     1
102
RTVSPropertyOp17
 70
     1
102
RTVSPropertyOp18
 70
     1
102
RTVSPropertyOp19
 70
     1
102
RTVSPropertyOp20
 70
     1
102
RTVSPropertyOp21
 70
     1
102
RTVSPropertyOp22
 70
     1
102
RTVSPropertyOp23
 70
     1
102
RTVSPropertyOp24
 70
     1
102
RTVSPropertyOp25
 70
     1
102
RTVSPropertyOp26
 70
     1
102
RTVSPropertyOp27
 70
     1
102
RTVSPropertyOp28
 70
     1
102
RTVSPropertyOp29
 70
     1
102
RTVSPropertyOp30
 70
     1
102
RTVSPropertyOp31
 70
     1
102
RTVSPropertyOp32
 70
     1
102
RTVSPropertyOp33
 70
     1
102
RTVSPropertyOp34
 70
     1
102
RTVSPropertyOp35
 70
     1
102
RTVSPropertyOp36
 70
     1
102
RTVSPropertyOp37
 70
     1
102
RTVSPropertyOp38
 70
     1
102
RTVSPropertyOp39
 70
     1
102
RTVSPropertyOp40
 70
     1
102
RTVSPropertyOp41
 70
     1
102
RTVSPropertyOp42
 70
     1
102
RTVSPropertyOp43
 70
     1
102
RTVSPropertyOp44
 70
     1
102
RTVSPropertyOp45
 70
     1
102
RTVSPropertyOp46
 70
     1
102
RTVSPropertyOp47
 70
     1
102
RTVSPropertyOp48
 70
     1
102
RTVSPropertyOp49
 70
     1
102
RTVSPropertyOp50
 70
     1
102
RTVSPropertyOp51
 70
     0
102
RTVSPropertyOp52
 70
     0
102
RTVSPropertyOp53
 70
     1
102
RTVSPropertyOp54
 70
     1
102
RTVSPropertyOp55
 70
     1
102
RTVSPropertyOp56
 70
     1
102
RTVSPropertyOp57
 70
     1
102
RTVSPost2010Prop28
280
     0
102
RTVSPost2010PropOp28
 70
     1
102
RTVSPost2010Prop29
280
     1
102
RTVSPost2010PropOp29
 70
     1
102
RTVSPost2010Prop30
280
     1
102
RTVSPost2010PropOp30
 70
     1
102
RTVSPost2010Prop31
280
     0
102
RTVSPost2010PropOp31
 70
     1
102
RTVSPost2010Prop32
280
     0
102
RTVSPost2010PropOp32
 70
     1
102
RTVSPost2010Prop33
280
     0
102
RTVSPost2010PropOp33
 70
     1
102
RTVSPost2010Prop34
280
     0
102
RTVSPost2010PropOp34
 70
     1
102
RTVSPost2010Prop35
280
     0
102
RTVSPost2010PropOp35
 70
     1
102
RTVSPost2010Prop36
280
     0
102
RTVSPost2010PropOp36
 70
     1
102
RTVSPost2010Prop37
 90
       50
102
RTVSPost2010PropOp37
 70
     1
102
RTVSPost2010Prop38
140
0.0
102
RTVSPost2010PropOp38
 70
     1
102
RTVSPost2010Prop39
140
1.0
102
RTVSPost2010PropOp39
 70
     1
102
RTVSPost2010Prop40
 90
        0
102
RTVSPost2010PropOp40
 70
     1
102
RTVSPost2010Prop41ColorIndex
 90
       18
102
RTVSPost2010Prop41ColorRGB
 90
        0
102
RTVSPost2010PropOp41
 70
     1
102
RTVSPost2010Prop42
 90
       50
102
RTVSPost2010PropOp42
 70
     1
102
RTVSPost2010Prop43
 90
        3
102
RTVSPost2010PropOp43
 70
     1
102
RTVSPost2010Prop44ColorIndex
 90
        5
102
RTVSPost2010Prop44ColorRGB
 90
      255
102
RTVSPost2010PropOp44
 70
     1
102
RTVSPost2010Prop45
280
     0
102
RTVSPost2010PropOp45
 70
     1
102
RTVSPost2010Prop46
 90
       50
102
RTVSPost2010PropOp46
 70
     1
102
RTVSPost2010Prop47
 90
       50
102
RTVSPost2010PropOp47
 70
     1
102
RTVSPost2010Prop48
 90
       50
102
RTVSPost2010PropOp48
 70
     1
102
RTVSPost2010Prop49
280
     0
102
RTVSPost2010PropOp49
 70
     1
102
RTVSPost2010Prop50
 90
       50
102
RTVSPost2010PropOp50
 70
     1
102
RTVSPost2010Prop51ColorIndex
 90
      256
102
RTVSPost2010Prop51ColorRGB
 90
-16777216
102
RTVSPost2010PropOp51
 70
     0
102
RTVSPost2010Prop52
140
1.0
102
RTVSPost2010PropOp52
 70
     0
102
RTVSPost2010Prop53
 90
        2
102
RTVSPost2010PropOp53
 70
     1
102
RTVSPost2010Prop54
  1
strokes_ogs.tif
102
RTVSPost2010PropOp54
 70
     1
102
RTVSPost2010Prop55
280
     0
102
RTVSPost2010PropOp55
 70
     1
102
RTVSPost2010Prop56
140
1.0
102
RTVSPost2010PropOp56
 70
     1
102
RTVSPost2010Prop57
140
1.0
102
RTVSPost2010PropOp57
 70
     1
  0
XRECORD
  5
145
102
{ACAD_REACTORS
330
144
102
}
330
144
100
AcDbXrecord
280
     1
102
RTVSPropertyOp0
 70
     1
102
RTVSPropertyOp1
 70
     1
102
RTVSPropertyOp2
 70
     1
102
RTVSPropertyOp3
 70
     1
102
RTVSPropertyOp4
 70
     1
102
RTVSPropertyOp5
 70
     1
102
RTVSPropertyOp6
 70
     1
102
RTVSPropertyOp7
 70
     1
102
RTVSPropertyOp8
 70
     1
102
RTVSPropertyOp9
 70
     1
102
RTVSPropertyOp10
 70
     1
102
RTVSPropertyOp11
 70
     1
102
RTVSPropertyOp12
 70
     1
102
RTVSPropertyOp13
 70
     1
102
RTVSPropertyOp14
 70
     1
102
RTVSPropertyOp15
 70
     1
102
RTVSPropertyOp16
 70
     1
102
RTVSPropertyOp17
 70
     1
102
RTVSPropertyOp18
 70
     1
102
RTVSPropertyOp19
 70
     1
102
RTVSPropertyOp20
 70
     1
102
RTVSPropertyOp21
 70
     1
102
RTVSPropertyOp22
 70
     1
102
RTVSPropertyOp23
 70
     1
102
RTVSPropertyOp24
 70
     1
102
RTVSPropertyOp25
 70
     1
102
RTVSPropertyOp26
 70
     1
102
RTVSPropertyOp27
 70
     1
102
RTVSPropertyOp28
 70
     1
102
RTVSPropertyOp29
 70
     1
102
RTVSPropertyOp30
 70
     1
102
RTVSPropertyOp31
 70
     1
102
RTVSPropertyOp32
 70
     1
102
RTVSPropertyOp33
 70
     1
102
RTVSPropertyOp34
 70
     1
102
RTVSPropertyOp35
 70
     1
102
RTVSPropertyOp36
 70
     1
102
RTVSPropertyOp37
 70
     1
102
RTVSPropertyOp38
 70
     1
102
RTVSPropertyOp39
 70
     1
102
RTVSPropertyOp40
 70
     1
102
RTVSPropertyOp41
 70
     1
102
RTVSPropertyOp42
 70
     1
102
RTVSPropertyOp43
 70
     1
102
RTVSPropertyOp44
 70
     1
102
RTVSPropertyOp45
 70
     1
102
RTVSPropertyOp46
 70
     1
102
RTVSPropertyOp47
 70
     1
102
RTVSPropertyOp48
 70
     1
102
RTVSPropertyOp49
 70
     1
102
RTVSPropertyOp50
 70
     1
102
RTVSPropertyOp51
 70
     0
102
RTVSPropertyOp52
 70
     0
102
RTVSPropertyOp53
 70
     1
102
RTVSPropertyOp54
 70
     1
102
RTVSPropertyOp55
 70
     1
102
RTVSPropertyOp56
 70
     1
102
RTVSPropertyOp57
 70
     1
102
RTVSPost2010Prop28
280
     0
102
RTVSPost2010PropOp28
 70
     1
102
RTVSPost2010Prop29
280
     1
102
RTVSPost2010PropOp29
 70
     1
102
RTVSPost2010Prop30
280
     1
102
RTVSPost2010PropOp30
 70
     1
102
RTVSPost2010Prop31
280
     0
102
RTVSPost2010PropOp31
 70
     1
102
RTVSPost2010Prop32
280
     0
102
RTVSPost2010PropOp32
 70
     1
102
RTVSPost2010Prop33
280
     0
102
RTVSPost2010PropOp33
 70
     1
102
RTVSPost2010Prop34
280
     0
102
RTVSPost2010PropOp34
 70
     1
102
RTVSPost2010Prop35
280
     0
102
RTVSPost2010PropOp35
 70
     1
102
RTVSPost2010Prop36
280
     0
102
RTVSPost2010PropOp36
 70
     1
102
RTVSPost2010Prop37
 90
       50
102
RTVSPost2010PropOp37
 70
     1
102
RTVSPost2010Prop38
140
0.0
102
RTVSPost2010PropOp38
 70
     1
102
RTVSPost2010Prop39
140
1.0
102
RTVSPost2010PropOp39
 70
     1
102
RTVSPost2010Prop40
 90
        0
102
RTVSPost2010PropOp40
 70
     1
102
RTVSPost2010Prop41ColorIndex
 90
       18
102
RTVSPost2010Prop41ColorRGB
 90
        0
102
RTVSPost2010PropOp41
 70
     1
102
RTVSPost2010Prop42
 90
       50
102
RTVSPost2010PropOp42
 70
     1
102
RTVSPost2010Prop43
 90
        3
102
RTVSPost2010PropOp43
 70
     1
102
RTVSPost2010Prop44ColorIndex
 90
        5
102
RTVSPost2010Prop44ColorRGB
 90
      255
102
RTVSPost2010PropOp44
 70
     1
102
RTVSPost2010Prop45
280
     0
102
RTVSPost2010PropOp45
 70
     1
102
RTVSPost2010Prop46
 90
       50
102
RTVSPost2010PropOp46
 70
     1
102
RTVSPost2010Prop47
 90
       50
102
RTVSPost2010PropOp47
 70
     1
102
RTVSPost2010Prop48
 90
       50
102
RTVSPost2010PropOp48
 70
     1
102
RTVSPost2010Prop49
280
     0
102
RTVSPost2010PropOp49
 70
     1
102
RTVSPost2010Prop50
 90
       50
102
RTVSPost2010PropOp50
 70
     1
102
RTVSPost2010Prop51ColorIndex
 90
      256
102
RTVSPost2010Prop51ColorRGB
 90
-16777216
102
RTVSPost2010PropOp51
 70
     0
102
RTVSPost2010Prop52
140
1.0
102
RTVSPost2010PropOp52
 70
     0
102
RTVSPost2010Prop53
 90
        2
102
RTVSPost2010PropOp53
 70
     1
102
RTVSPost2010Prop54
  1
strokes_ogs.tif
102
RTVSPost2010PropOp54
 70
     1
102
RTVSPost2010Prop55
280
     0
102
RTVSPost2010PropOp55
 70
     1
102
RTVSPost2010Prop56
140
1.0
102
RTVSPost2010PropOp56
 70
     1
102
RTVSPost2010Prop57
140
1.0
102
RTVSPost2010PropOp57
 70
     1
  0
XRECORD
  5
147
102
{ACAD_REACTORS
330
146
102
}
330
146
100
AcDbXrecord
280
     1
102
RTVSPropertyOp0
 70
     1
102
RTVSPropertyOp1
 70
     1
102
RTVSPropertyOp2
 70
     1
102
RTVSPropertyOp3
 70
     1
102
RTVSPropertyOp4
 70
     1
102
RTVSPropertyOp5
 70
     1
102
RTVSPropertyOp6
 70
     1
102
RTVSPropertyOp7
 70
     1
102
RTVSPropertyOp8
 70
     1
102
RTVSPropertyOp9
 70
     1
102
RTVSPropertyOp10
 70
     1
102
RTVSPropertyOp11
 70
     1
102
RTVSPropertyOp12
 70
     1
102
RTVSPropertyOp13
 70
     1
102
RTVSPropertyOp14
 70
     1
102
RTVSPropertyOp15
 70
     1
102
RTVSPropertyOp16
 70
     1
102
RTVSPropertyOp17
 70
     1
102
RTVSPropertyOp18
 70
     1
102
RTVSPropertyOp19
 70
     1
102
RTVSPropertyOp20
 70
     1
102
RTVSPropertyOp21
 70
     1
102
RTVSPropertyOp22
 70
     1
102
RTVSPropertyOp23
 70
     1
102
RTVSPropertyOp24
 70
     1
102
RTVSPropertyOp25
 70
     1
102
RTVSPropertyOp26
 70
     1
102
RTVSPropertyOp27
 70
     1
102
RTVSPropertyOp28
 70
     1
102
RTVSPropertyOp29
 70
     1
102
RTVSPropertyOp30
 70
     1
102
RTVSPropertyOp31
 70
     1
102
RTVSPropertyOp32
 70
     1
102
RTVSPropertyOp33
 70
     1
102
RTVSPropertyOp34
 70
     1
102
RTVSPropertyOp35
 70
     1
102
RTVSPropertyOp36
 70
     1
102
RTVSPropertyOp37
 70
     1
102
RTVSPropertyOp38
 70
     1
102
RTVSPropertyOp39
 70
     1
102
RTVSPropertyOp40
 70
     1
102
RTVSPropertyOp41
 70
     1
102
RTVSPropertyOp42
 70
     1
102
RTVSPropertyOp43
 70
     1
102
RTVSPropertyOp44
 70
     1
102
RTVSPropertyOp45
 70
     1
102
RTVSPropertyOp46
 70
     1
102
RTVSPropertyOp47
 70
     1
102
RTVSPropertyOp48
 70
     1
102
RTVSPropertyOp49
 70
     1
102
RTVSPropertyOp50
 70
     1
102
RTVSPropertyOp51
 70
     0
102
RTVSPropertyOp52
 70
     0
102
RTVSPropertyOp53
 70
     1
102
RTVSPropertyOp54
 70
     1
102
RTVSPropertyOp55
 70
     1
102
RTVSPropertyOp56
 70
     1
102
RTVSPropertyOp57
 70
     1
102
RTVSPost2010Prop28
280
     0
102
RTVSPost2010PropOp28
 70
     1
102
RTVSPost2010Prop29
280
     1
102
RTVSPost2010PropOp29
 70
     1
102
RTVSPost2010Prop30
280
     1
102
RTVSPost2010PropOp30
 70
     1
102
RTVSPost2010Prop31
280
     0
102
RTVSPost2010PropOp31
 70
     1
102
RTVSPost2010Prop32
280
     0
102
RTVSPost2010PropOp32
 70
     1
102
RTVSPost2010Prop33
280
     0
102
RTVSPost2010PropOp33
 70
     1
102
RTVSPost2010Prop34
280
     0
102
RTVSPost2010PropOp34
 70
     1
102
RTVSPost2010Prop35
280
     0
102
RTVSPost2010PropOp35
 70
     1
102
RTVSPost2010Prop36
280
     0
102
RTVSPost2010PropOp36
 70
     1
102
RTVSPost2010Prop37
 90
       50
102
RTVSPost2010PropOp37
 70
     1
102
RTVSPost2010Prop38
140
0.0
102
RTVSPost2010PropOp38
 70
     1
102
RTVSPost2010Prop39
140
1.0
102
RTVSPost2010PropOp39
 70
     1
102
RTVSPost2010Prop40
 90
        0
102
RTVSPost2010PropOp40
 70
     1
102
RTVSPost2010Prop41ColorIndex
 90
       18
102
RTVSPost2010Prop41ColorRGB
 90
        0
102
RTVSPost2010PropOp41
 70
     1
102
RTVSPost2010Prop42
 90
       50
102
RTVSPost2010PropOp42
 70
     1
102
RTVSPost2010Prop43
 90
        3
102
RTVSPost2010PropOp43
 70
     1
102
RTVSPost2010Prop44ColorIndex
 90
        5
102
RTVSPost2010Prop44ColorRGB
 90
      255
102
RTVSPost2010PropOp44
 70
     1
102
RTVSPost2010Prop45
280
     0
102
RTVSPost2010PropOp45
 70
     1
102
RTVSPost2010Prop46
 90
       50
102
RTVSPost2010PropOp46
 70
     1
102
RTVSPost2010Prop47
 90
       50
102
RTVSPost2010PropOp47
 70
     1
102
RTVSPost2010Prop48
 90
       50
102
RTVSPost2010PropOp48
 70
     1
102
RTVSPost2010Prop49
280
     0
102
RTVSPost2010PropOp49
 70
     1
102
RTVSPost2010Prop50
 90
       50
102
RTVSPost2010PropOp50
 70
     1
102
RTVSPost2010Prop51ColorIndex
 90
      256
102
RTVSPost2010Prop51ColorRGB
 90
-16777216
102
RTVSPost2010PropOp51
 70
     0
102
RTVSPost2010Prop52
140
1.0
102
RTVSPost2010PropOp52
 70
     0
102
RTVSPost2010Prop53
 90
        2
102
RTVSPost2010PropOp53
 70
     1
102
RTVSPost2010Prop54
  1
strokes_ogs.tif
102
RTVSPost2010PropOp54
 70
     1
102
RTVSPost2010Prop55
280
     0
102
RTVSPost2010PropOp55
 70
     1
102
RTVSPost2010Prop56
140
1.0
102
RTVSPost2010PropOp56
 70
     1
102
RTVSPost2010Prop57
140
1.0
102
RTVSPost2010PropOp57
 70
     1
  0
XRECORD
  5
157
102
{ACAD_REACTORS
330
156
102
}
330
156
100
AcDbXrecord
280
     1
102
RTVSPropertyOp0
 70
     0
102
RTVSPropertyOp1
 70
     0
102
RTVSPropertyOp2
 70
     0
102
RTVSPropertyOp3
 70
     0
102
RTVSPropertyOp4
 70
     0
102
RTVSPropertyOp5
 70
     0
102
RTVSPropertyOp6
 70
     0
102
RTVSPropertyOp7
 70
     0
102
RTVSPropertyOp8
 70
     0
102
RTVSPropertyOp9
 70
     0
102
RTVSPropertyOp10
 70
     0
102
RTVSPropertyOp11
 70
     0
102
RTVSPropertyOp12
 70
     0
102
RTVSPropertyOp13
 70
     0
102
RTVSPropertyOp14
 70
     2
102
RTVSPropertyOp15
 70
     0
102
RTVSPropertyOp16
 70
     0
102
RTVSPropertyOp17
 70
     0
102
RTVSPropertyOp18
 70
     0
102
RTVSPropertyOp19
 70
     0
102
RTVSPropertyOp20
 70
     0
102
RTVSPropertyOp21
 70
     0
102
RTVSPropertyOp22
 70
     0
102
RTVSPropertyOp23
 70
     0
102
RTVSPropertyOp24
 70
     0
102
RTVSPropertyOp25
 70
     0
102
RTVSPropertyOp26
 70
     0
102
RTVSPropertyOp27
 70
     0
102
RTVSPropertyOp28
 70
     0
102
RTVSPropertyOp29
 70
     0
102
RTVSPropertyOp30
 70
     0
102
RTVSPropertyOp31
 70
     0
102
RTVSPropertyOp32
 70
     0
102
RTVSPropertyOp33
 70
     0
102
RTVSPropertyOp34
 70
     0
102
RTVSPropertyOp35
 70
     0
102
RTVSPropertyOp36
 70
     0
102
RTVSPropertyOp37
 70
     0
102
RTVSPropertyOp38
 70
     0
102
RTVSPropertyOp39
 70
     0
102
RTVSPropertyOp40
 70
     0
102
RTVSPropertyOp41
 70
     0
102
RTVSPropertyOp42
 70
     0
102
RTVSPropertyOp43
 70
     0
102
RTVSPropertyOp44
 70
     0
102
RTVSPropertyOp45
 70
     0
102
RTVSPropertyOp46
 70
     0
102
RTVSPropertyOp47
 70
     0
102
RTVSPropertyOp48
 70
     0
102
RTVSPropertyOp49
 70
     0
102
RTVSPropertyOp50
 70
     0
102
RTVSPropertyOp51
 70
     0
102
RTVSPropertyOp52
 70
     0
102
RTVSPropertyOp53
 70
     0
102
RTVSPropertyOp54
 70
     0
102
RTVSPropertyOp55
 70
     0
102
RTVSPropertyOp56
 70
     0
102
RTVSPropertyOp57
 70
     0
102
RTVSPost2010Prop28
280
     0
102
RTVSPost2010PropOp28
 70
     0
102
RTVSPost2010Prop29
280
     1
102
RTVSPost2010PropOp29
 70
     0
102
RTVSPost2010Prop30
280
     1
102
RTVSPost2010PropOp30
 70
     0
102
RTVSPost2010Prop31
280
     0
102
RTVSPost2010PropOp31
 70
     0
102
RTVSPost2010Prop32
280
     0
102
RTVSPost2010PropOp32
 70
     0
102
RTVSPost2010Prop33
280
     0
102
RTVSPost2010PropOp33
 70
     0
102
RTVSPost2010Prop34
280
     0
102
RTVSPost2010PropOp34
 70
     0
102
RTVSPost2010Prop35
280
     0
102
RTVSPost2010PropOp35
 70
     0
102
RTVSPost2010Prop36
280
     0
102
RTVSPost2010PropOp36
 70
     0
102
RTVSPost2010Prop37
 90
       50
102
RTVSPost2010PropOp37
 70
     0
102
RTVSPost2010Prop38
140
0.0
102
RTVSPost2010PropOp38
 70
     0
102
RTVSPost2010Prop39
140
1.0
102
RTVSPost2010PropOp39
 70
     0
102
RTVSPost2010Prop40
 90
        0
102
RTVSPost2010PropOp40
 70
     0
102
RTVSPost2010Prop41ColorIndex
 90
       18
102
RTVSPost2010Prop41ColorRGB
 90
        0
102
RTVSPost2010PropOp41
 70
     0
102
RTVSPost2010Prop42
 90
       50
102
RTVSPost2010PropOp42
 70
     0
102
RTVSPost2010Prop43
 90
        3
102
RTVSPost2010PropOp43
 70
     0
102
RTVSPost2010Prop44ColorIndex
 90
        5
102
RTVSPost2010Prop44ColorRGB
 90
      255
102
RTVSPost2010PropOp44
 70
     0
102
RTVSPost2010Prop45
280
     0
102
RTVSPost2010PropOp45
 70
     0
102
RTVSPost2010Prop46
 90
       50
102
RTVSPost2010PropOp46
 70
     0
102
RTVSPost2010Prop47
 90
       50
102
RTVSPost2010PropOp47
 70
     0
102
RTVSPost2010Prop48
 90
       50
102
RTVSPost2010PropOp48
 70
     0
102
RTVSPost2010Prop49
280
     0
102
RTVSPost2010PropOp49
 70
     0
102
RTVSPost2010Prop50
 90
       50
102
RTVSPost2010PropOp50
 70
     0
102
RTVSPost2010Prop51ColorIndex
 90
      256
102
RTVSPost2010Prop51ColorRGB
 90
-16777216
102
RTVSPost2010PropOp51
 70
     0
102
RTVSPost2010Prop52
140
1.0
102
RTVSPost2010PropOp52
 70
     0
102
RTVSPost2010Prop53
 90
        2
102
RTVSPost2010PropOp53
 70
     0
102
RTVSPost2010Prop54
  1
strokes_ogs.tif
102
RTVSPost2010PropOp54
 70
     0
102
RTVSPost2010Prop55
280
     0
102
RTVSPost2010PropOp55
 70
     0
102
RTVSPost2010Prop56
140
1.0
102
RTVSPost2010PropOp56
 70
     0
102
RTVSPost2010Prop57
140
1.0
102
RTVSPost2010PropOp57
 70
     0
  0
XRECORD
  5
14F
102
{ACAD_REACTORS
330
14E
102
}
330
14E
100
AcDbXrecord
280
     1
102
RTVSPropertyOp0
 70
     1
102
RTVSPropertyOp1
 70
     1
102
RTVSPropertyOp2
 70
     1
102
RTVSPropertyOp3
 70
     1
102
RTVSPropertyOp4
 70
     1
102
RTVSPropertyOp5
 70
     1
102
RTVSPropertyOp6
 70
     1
102
RTVSPropertyOp7
 70
     1
102
RTVSPropertyOp8
 70
     1
102
RTVSPropertyOp9
 70
     1
102
RTVSPropertyOp10
 70
     1
102
RTVSPropertyOp11
 70
     1
102
RTVSPropertyOp12
 70
     1
102
RTVSPropertyOp13
 70
     1
102
RTVSPropertyOp14
 70
     1
102
RTVSPropertyOp15
 70
     1
102
RTVSPropertyOp16
 70
     1
102
RTVSPropertyOp17
 70
     1
102
RTVSPropertyOp18
 70
     1
102
RTVSPropertyOp19
 70
     1
102
RTVSPropertyOp20
 70
     1
102
RTVSPropertyOp21
 70
     1
102
RTVSPropertyOp22
 70
     1
102
RTVSPropertyOp23
 70
     1
102
RTVSPropertyOp24
 70
     1
102
RTVSPropertyOp25
 70
     1
102
RTVSPropertyOp26
 70
     1
102
RTVSPropertyOp27
 70
     1
102
RTVSPropertyOp28
 70
     1
102
RTVSPropertyOp29
 70
     1
102
RTVSPropertyOp30
 70
     1
102
RTVSPropertyOp31
 70
     1
102
RTVSPropertyOp32
 70
     1
102
RTVSPropertyOp33
 70
     1
102
RTVSPropertyOp34
 70
     1
102
RTVSPropertyOp35
 70
     1
102
RTVSPropertyOp36
 70
     1
102
RTVSPropertyOp37
 70
     1
102
RTVSPropertyOp38
 70
     1
102
RTVSPropertyOp39
 70
     1
102
RTVSPropertyOp40
 70
     1
102
RTVSPropertyOp41
 70
     1
102
RTVSPropertyOp42
 70
     1
102
RTVSPropertyOp43
 70
     1
102
RTVSPropertyOp44
 70
     1
102
RTVSPropertyOp45
 70
     1
102
RTVSPropertyOp46
 70
     1
102
RTVSPropertyOp47
 70
     1
102
RTVSPropertyOp48
 70
     1
102
RTVSPropertyOp49
 70
     1
102
RTVSPropertyOp50
 70
     1
102
RTVSPropertyOp51
 70
     0
102
RTVSPropertyOp52
 70
     0
102
RTVSPropertyOp53
 70
     1
102
RTVSPropertyOp54
 70
     1
102
RTVSPropertyOp55
 70
     1
102
RTVSPropertyOp56
 70
     1
102
RTVSPropertyOp57
 70
     1
102
RTVSPost2010Prop28
280
     0
102
RTVSPost2010PropOp28
 70
     1
102
RTVSPost2010Prop29
280
     1
102
RTVSPost2010PropOp29
 70
     1
102
RTVSPost2010Prop30
280
     1
102
RTVSPost2010PropOp30
 70
     1
102
RTVSPost2010Prop31
280
     0
102
RTVSPost2010PropOp31
 70
     1
102
RTVSPost2010Prop32
280
     0
102
RTVSPost2010PropOp32
 70
     1
102
RTVSPost2010Prop33
280
     0
102
RTVSPost2010PropOp33
 70
     1
102
RTVSPost2010Prop34
280
     0
102
RTVSPost2010PropOp34
 70
     1
102
RTVSPost2010Prop35
280
     0
102
RTVSPost2010PropOp35
 70
     1
102
RTVSPost2010Prop36
280
     0
102
RTVSPost2010PropOp36
 70
     1
102
RTVSPost2010Prop37
 90
       50
102
RTVSPost2010PropOp37
 70
     1
102
RTVSPost2010Prop38
140
0.0
102
RTVSPost2010PropOp38
 70
     1
102
RTVSPost2010Prop39
140
1.0
102
RTVSPost2010PropOp39
 70
     1
102
RTVSPost2010Prop40
 90
        0
102
RTVSPost2010PropOp40
 70
     1
102
RTVSPost2010Prop41ColorIndex
 90
       18
102
RTVSPost2010Prop41ColorRGB
 90
        0
102
RTVSPost2010PropOp41
 70
     1
102
RTVSPost2010Prop42
 90
       50
102
RTVSPost2010PropOp42
 70
     1
102
RTVSPost2010Prop43
 90
        3
102
RTVSPost2010PropOp43
 70
     1
102
RTVSPost2010Prop44ColorIndex
 90
        5
102
RTVSPost2010Prop44ColorRGB
 90
      255
102
RTVSPost2010PropOp44
 70
     1
102
RTVSPost2010Prop45
280
     0
102
RTVSPost2010PropOp45
 70
     1
102
RTVSPost2010Prop46
 90
       50
102
RTVSPost2010PropOp46
 70
     1
102
RTVSPost2010Prop47
 90
       50
102
RTVSPost2010PropOp47
 70
     1
102
RTVSPost2010Prop48
 90
       50
102
RTVSPost2010PropOp48
 70
     1
102
RTVSPost2010Prop49
280
     0
102
RTVSPost2010PropOp49
 70
     1
102
RTVSPost2010Prop50
 90
       50
102
RTVSPost2010PropOp50
 70
     1
102
RTVSPost2010Prop51ColorIndex
 90
      256
102
RTVSPost2010Prop51ColorRGB
 90
-16777216
102
RTVSPost2010PropOp51
 70
     0
102
RTVSPost2010Prop52
140
1.0
102
RTVSPost2010PropOp52
 70
     0
102
RTVSPost2010Prop53
 90
        2
102
RTVSPost2010PropOp53
 70
     1
102
RTVSPost2010Prop54
  1
strokes_ogs.tif
102
RTVSPost2010PropOp54
 70
     1
102
RTVSPost2010Prop55
280
     0
102
RTVSPost2010PropOp55
 70
     1
102
RTVSPost2010Prop56
140
1.0
102
RTVSPost2010PropOp56
 70
     1
102
RTVSPost2010Prop57
140
1.0
102
RTVSPost2010PropOp57
 70
     1
  0
XRECORD
  5
133
102
{ACAD_REACTORS
330
132
102
}
330
132
100
AcDbXrecord
280
     1
102
RTVSPropertyOp0
 70
     1
102
RTVSPropertyOp1
 70
     1
102
RTVSPropertyOp2
 70
     1
102
RTVSPropertyOp3
 70
     1
102
RTVSPropertyOp4
 70
     1
102
RTVSPropertyOp5
 70
     1
102
RTVSPropertyOp6
 70
     1
102
RTVSPropertyOp7
 70
     1
102
RTVSPropertyOp8
 70
     1
102
RTVSPropertyOp9
 70
     1
102
RTVSPropertyOp10
 70
     1
102
RTVSPropertyOp11
 70
     1
102
RTVSPropertyOp12
 70
     1
102
RTVSPropertyOp13
 70
     1
102
RTVSPropertyOp14
 70
     1
102
RTVSPropertyOp15
 70
     1
102
RTVSPropertyOp16
 70
     1
102
RTVSPropertyOp17
 70
     1
102
RTVSPropertyOp18
 70
     1
102
RTVSPropertyOp19
 70
     1
102
RTVSPropertyOp20
 70
     1
102
RTVSPropertyOp21
 70
     1
102
RTVSPropertyOp22
 70
     1
102
RTVSPropertyOp23
 70
     1
102
RTVSPropertyOp24
 70
     1
102
RTVSPropertyOp25
 70
     1
102
RTVSPropertyOp26
 70
     1
102
RTVSPropertyOp27
 70
     1
102
RTVSPropertyOp28
 70
     1
102
RTVSPropertyOp29
 70
     1
102
RTVSPropertyOp30
 70
     1
102
RTVSPropertyOp31
 70
     1
102
RTVSPropertyOp32
 70
     1
102
RTVSPropertyOp33
 70
     1
102
RTVSPropertyOp34
 70
     1
102
RTVSPropertyOp35
 70
     1
102
RTVSPropertyOp36
 70
     1
102
RTVSPropertyOp37
 70
     1
102
RTVSPropertyOp38
 70
     1
102
RTVSPropertyOp39
 70
     1
102
RTVSPropertyOp40
 70
     1
102
RTVSPropertyOp41
 70
     1
102
RTVSPropertyOp42
 70
     1
102
RTVSPropertyOp43
 70
     1
102
RTVSPropertyOp44
 70
     1
102
RTVSPropertyOp45
 70
     1
102
RTVSPropertyOp46
 70
     1
102
RTVSPropertyOp47
 70
     1
102
RTVSPropertyOp48
 70
     1
102
RTVSPropertyOp49
 70
     1
102
RTVSPropertyOp50
 70
     1
102
RTVSPropertyOp51
 70
     0
102
RTVSPropertyOp52
 70
     0
102
RTVSPropertyOp53
 70
     1
102
RTVSPropertyOp54
 70
     1
102
RTVSPropertyOp55
 70
     1
102
RTVSPropertyOp56
 70
     1
102
RTVSPropertyOp57
 70
     1
102
RTVSPost2010Prop28
280
     0
102
RTVSPost2010PropOp28
 70
     1
102
RTVSPost2010Prop29
280
     1
102
RTVSPost2010PropOp29
 70
     1
102
RTVSPost2010Prop30
280
     1
102
RTVSPost2010PropOp30
 70
     1
102
RTVSPost2010Prop31
280
     0
102
RTVSPost2010PropOp31
 70
     1
102
RTVSPost2010Prop32
280
     0
102
RTVSPost2010PropOp32
 70
     1
102
RTVSPost2010Prop33
280
     0
102
RTVSPost2010PropOp33
 70
     1
102
RTVSPost2010Prop34
280
     0
102
RTVSPost2010PropOp34
 70
     1
102
RTVSPost2010Prop35
280
     0
102
RTVSPost2010PropOp35
 70
     1
102
RTVSPost2010Prop36
280
     0
102
RTVSPost2010PropOp36
 70
     1
102
RTVSPost2010Prop37
 90
       50
102
RTVSPost2010PropOp37
 70
     1
102
RTVSPost2010Prop38
140
0.0
102
RTVSPost2010PropOp38
 70
     1
102
RTVSPost2010Prop39
140
1.0
102
RTVSPost2010PropOp39
 70
     1
102
RTVSPost2010Prop40
 90
        0
102
RTVSPost2010PropOp40
 70
     1
102
RTVSPost2010Prop41ColorIndex
 90
       18
102
RTVSPost2010Prop41ColorRGB
 90
        0
102
RTVSPost2010PropOp41
 70
     1
102
RTVSPost2010Prop42
 90
       50
102
RTVSPost2010PropOp42
 70
     1
102
RTVSPost2010Prop43
 90
        3
102
RTVSPost2010PropOp43
 70
     1
102
RTVSPost2010Prop44ColorIndex
 90
        5
102
RTVSPost2010Prop44ColorRGB
 90
      255
102
RTVSPost2010PropOp44
 70
     1
102
RTVSPost2010Prop45
280
     0
102
RTVSPost2010PropOp45
 70
     1
102
RTVSPost2010Prop46
 90
       50
102
RTVSPost2010PropOp46
 70
     1
102
RTVSPost2010Prop47
 90
       50
102
RTVSPost2010PropOp47
 70
     1
102
RTVSPost2010Prop48
 90
       50
102
RTVSPost2010PropOp48
 70
     1
102
RTVSPost2010Prop49
280
     0
102
RTVSPost2010PropOp49
 70
     1
102
RTVSPost2010Prop50
 90
       50
102
RTVSPost2010PropOp50
 70
     1
102
RTVSPost2010Prop51ColorIndex
 90
      256
102
RTVSPost2010Prop51ColorRGB
 90
-16777216
102
RTVSPost2010PropOp51
 70
     0
102
RTVSPost2010Prop52
140
1.0
102
RTVSPost2010PropOp52
 70
     0
102
RTVSPost2010Prop53
 90
        2
102
RTVSPost2010PropOp53
 70
     1
102
RTVSPost2010Prop54
  1
strokes_ogs.tif
102
RTVSPost2010PropOp54
 70
     1
102
RTVSPost2010Prop55
280
     0
102
RTVSPost2010PropOp55
 70
     1
102
RTVSPost2010Prop56
140
1.0
102
RTVSPost2010PropOp56
 70
     1
102
RTVSPost2010Prop57
140
1.0
102
RTVSPost2010PropOp57
 70
     1
  0
XRECORD
  5
135
102
{ACAD_REACTORS
330
134
102
}
330
134
100
AcDbXrecord
280
     1
102
RTVSPropertyOp0
 70
     1
102
RTVSPropertyOp1
 70
     1
102
RTVSPropertyOp2
 70
     1
102
RTVSPropertyOp3
 70
     1
102
RTVSPropertyOp4
 70
     1
102
RTVSPropertyOp5
 70
     1
102
RTVSPropertyOp6
 70
     1
102
RTVSPropertyOp7
 70
     1
102
RTVSPropertyOp8
 70
     1
102
RTVSPropertyOp9
 70
     1
102
RTVSPropertyOp10
 70
     1
102
RTVSPropertyOp11
 70
     1
102
RTVSPropertyOp12
 70
     1
102
RTVSPropertyOp13
 70
     1
102
RTVSPropertyOp14
 70
     1
102
RTVSPropertyOp15
 70
     1
102
RTVSPropertyOp16
 70
     1
102
RTVSPropertyOp17
 70
     1
102
RTVSPropertyOp18
 70
     1
102
RTVSPropertyOp19
 70
     1
102
RTVSPropertyOp20
 70
     1
102
RTVSPropertyOp21
 70
     1
102
RTVSPropertyOp22
 70
     1
102
RTVSPropertyOp23
 70
     1
102
RTVSPropertyOp24
 70
     1
102
RTVSPropertyOp25
 70
     1
102
RTVSPropertyOp26
 70
     1
102
RTVSPropertyOp27
 70
     1
102
RTVSPropertyOp28
 70
     1
102
RTVSPropertyOp29
 70
     1
102
RTVSPropertyOp30
 70
     1
102
RTVSPropertyOp31
 70
     1
102
RTVSPropertyOp32
 70
     1
102
RTVSPropertyOp33
 70
     1
102
RTVSPropertyOp34
 70
     1
102
RTVSPropertyOp35
 70
     1
102
RTVSPropertyOp36
 70
     1
102
RTVSPropertyOp37
 70
     1
102
RTVSPropertyOp38
 70
     1
102
RTVSPropertyOp39
 70
     1
102
RTVSPropertyOp40
 70
     1
102
RTVSPropertyOp41
 70
     1
102
RTVSPropertyOp42
 70
     1
102
RTVSPropertyOp43
 70
     1
102
RTVSPropertyOp44
 70
     1
102
RTVSPropertyOp45
 70
     1
102
RTVSPropertyOp46
 70
     1
102
RTVSPropertyOp47
 70
     1
102
RTVSPropertyOp48
 70
     1
102
RTVSPropertyOp49
 70
     1
102
RTVSPropertyOp50
 70
     1
102
RTVSPropertyOp51
 70
     0
102
RTVSPropertyOp52
 70
     0
102
RTVSPropertyOp53
 70
     1
102
RTVSPropertyOp54
 70
     1
102
RTVSPropertyOp55
 70
     1
102
RTVSPropertyOp56
 70
     1
102
RTVSPropertyOp57
 70
     1
102
RTVSPost2010Prop28
280
     0
102
RTVSPost2010PropOp28
 70
     1
102
RTVSPost2010Prop29
280
     1
102
RTVSPost2010PropOp29
 70
     1
102
RTVSPost2010Prop30
280
     1
102
RTVSPost2010PropOp30
 70
     1
102
RTVSPost2010Prop31
280
     0
102
RTVSPost2010PropOp31
 70
     1
102
RTVSPost2010Prop32
280
     0
102
RTVSPost2010PropOp32
 70
     1
102
RTVSPost2010Prop33
280
     0
102
RTVSPost2010PropOp33
 70
     1
102
RTVSPost2010Prop34
280
     0
102
RTVSPost2010PropOp34
 70
     1
102
RTVSPost2010Prop35
280
     0
102
RTVSPost2010PropOp35
 70
     1
102
RTVSPost2010Prop36
280
     0
102
RTVSPost2010PropOp36
 70
     1
102
RTVSPost2010Prop37
 90
       50
102
RTVSPost2010PropOp37
 70
     1
102
RTVSPost2010Prop38
140
0.0
102
RTVSPost2010PropOp38
 70
     1
102
RTVSPost2010Prop39
140
1.0
102
RTVSPost2010PropOp39
 70
     1
102
RTVSPost2010Prop40
 90
        0
102
RTVSPost2010PropOp40
 70
     1
102
RTVSPost2010Prop41ColorIndex
 90
       18
102
RTVSPost2010Prop41ColorRGB
 90
        0
102
RTVSPost2010PropOp41
 70
     1
102
RTVSPost2010Prop42
 90
       50
102
RTVSPost2010PropOp42
 70
     1
102
RTVSPost2010Prop43
 90
        3
102
RTVSPost2010PropOp43
 70
     1
102
RTVSPost2010Prop44ColorIndex
 90
        5
102
RTVSPost2010Prop44ColorRGB
 90
      255
102
RTVSPost2010PropOp44
 70
     1
102
RTVSPost2010Prop45
280
     0
102
RTVSPost2010PropOp45
 70
     1
102
RTVSPost2010Prop46
 90
       50
102
RTVSPost2010PropOp46
 70
     1
102
RTVSPost2010Prop47
 90
       50
102
RTVSPost2010PropOp47
 70
     1
102
RTVSPost2010Prop48
 90
       50
102
RTVSPost2010PropOp48
 70
     1
102
RTVSPost2010Prop49
280
     0
102
RTVSPost2010PropOp49
 70
     1
102
RTVSPost2010Prop50
 90
       50
102
RTVSPost2010PropOp50
 70
     1
102
RTVSPost2010Prop51ColorIndex
 90
      256
102
RTVSPost2010Prop51ColorRGB
 90
-16777216
102
RTVSPost2010PropOp51
 70
     0
102
RTVSPost2010Prop52
140
1.0
102
RTVSPost2010PropOp52
 70
     0
102
RTVSPost2010Prop53
 90
        2
102
RTVSPost2010PropOp53
 70
     1
102
RTVSPost2010Prop54
  1
strokes_ogs.tif
102
RTVSPost2010PropOp54
 70
     1
102
RTVSPost2010Prop55
280
     0
102
RTVSPost2010PropOp55
 70
     1
102
RTVSPost2010Prop56
140
1.0
102
RTVSPost2010PropOp56
 70
     1
102
RTVSPost2010Prop57
140
1.0
102
RTVSPost2010PropOp57
 70
     1
  0
XRECORD
  5
137
102
{ACAD_REACTORS
330
136
102
}
330
136
100
AcDbXrecord
280
     1
102
RTVSPropertyOp0
 70
     1
102
RTVSPropertyOp1
 70
     1
102
RTVSPropertyOp2
 70
     1
102
RTVSPropertyOp3
 70
     1
102
RTVSPropertyOp4
 70
     1
102
RTVSPropertyOp5
 70
     1
102
RTVSPropertyOp6
 70
     1
102
RTVSPropertyOp7
 70
     1
102
RTVSPropertyOp8
 70
     1
102
RTVSPropertyOp9
 70
     1
102
RTVSPropertyOp10
 70
     1
102
RTVSPropertyOp11
 70
     1
102
RTVSPropertyOp12
 70
     1
102
RTVSPropertyOp13
 70
     1
102
RTVSPropertyOp14
 70
     1
102
RTVSPropertyOp15
 70
     1
102
RTVSPropertyOp16
 70
     1
102
RTVSPropertyOp17
 70
     1
102
RTVSPropertyOp18
 70
     1
102
RTVSPropertyOp19
 70
     1
102
RTVSPropertyOp20
 70
     1
102
RTVSPropertyOp21
 70
     1
102
RTVSPropertyOp22
 70
     1
102
RTVSPropertyOp23
 70
     1
102
RTVSPropertyOp24
 70
     1
102
RTVSPropertyOp25
 70
     1
102
RTVSPropertyOp26
 70
     1
102
RTVSPropertyOp27
 70
     1
102
RTVSPropertyOp28
 70
     1
102
RTVSPropertyOp29
 70
     1
102
RTVSPropertyOp30
 70
     1
102
RTVSPropertyOp31
 70
     1
102
RTVSPropertyOp32
 70
     1
102
RTVSPropertyOp33
 70
     1
102
RTVSPropertyOp34
 70
     1
102
RTVSPropertyOp35
 70
     1
102
RTVSPropertyOp36
 70
     1
102
RTVSPropertyOp37
 70
     1
102
RTVSPropertyOp38
 70
     1
102
RTVSPropertyOp39
 70
     1
102
RTVSPropertyOp40
 70
     1
102
RTVSPropertyOp41
 70
     1
102
RTVSPropertyOp42
 70
     1
102
RTVSPropertyOp43
 70
     1
102
RTVSPropertyOp44
 70
     1
102
RTVSPropertyOp45
 70
     1
102
RTVSPropertyOp46
 70
     1
102
RTVSPropertyOp47
 70
     1
102
RTVSPropertyOp48
 70
     1
102
RTVSPropertyOp49
 70
     1
102
RTVSPropertyOp50
 70
     1
102
RTVSPropertyOp51
 70
     0
102
RTVSPropertyOp52
 70
     0
102
RTVSPropertyOp53
 70
     1
102
RTVSPropertyOp54
 70
     1
102
RTVSPropertyOp55
 70
     1
102
RTVSPropertyOp56
 70
     1
102
RTVSPropertyOp57
 70
     1
102
RTVSPost2010Prop28
280
     0
102
RTVSPost2010PropOp28
 70
     1
102
RTVSPost2010Prop29
280
     1
102
RTVSPost2010PropOp29
 70
     1
102
RTVSPost2010Prop30
280
     1
102
RTVSPost2010PropOp30
 70
     1
102
RTVSPost2010Prop31
280
     0
102
RTVSPost2010PropOp31
 70
     1
102
RTVSPost2010Prop32
280
     0
102
RTVSPost2010PropOp32
 70
     1
102
RTVSPost2010Prop33
280
     0
102
RTVSPost2010PropOp33
 70
     1
102
RTVSPost2010Prop34
280
     0
102
RTVSPost2010PropOp34
 70
     1
102
RTVSPost2010Prop35
280
     0
102
RTVSPost2010PropOp35
 70
     1
102
RTVSPost2010Prop36
280
     0
102
RTVSPost2010PropOp36
 70
     1
102
RTVSPost2010Prop37
 90
       50
102
RTVSPost2010PropOp37
 70
     1
102
RTVSPost2010Prop38
140
0.0
102
RTVSPost2010PropOp38
 70
     1
102
RTVSPost2010Prop39
140
1.0
102
RTVSPost2010PropOp39
 70
     1
102
RTVSPost2010Prop40
 90
        0
102
RTVSPost2010PropOp40
 70
     1
102
RTVSPost2010Prop41ColorIndex
 90
       18
102
RTVSPost2010Prop41ColorRGB
 90
        0
102
RTVSPost2010PropOp41
 70
     1
102
RTVSPost2010Prop42
 90
       50
102
RTVSPost2010PropOp42
 70
     1
102
RTVSPost2010Prop43
 90
        3
102
RTVSPost2010PropOp43
 70
     1
102
RTVSPost2010Prop44ColorIndex
 90
        5
102
RTVSPost2010Prop44ColorRGB
 90
      255
102
RTVSPost2010PropOp44
 70
     1
102
RTVSPost2010Prop45
280
     0
102
RTVSPost2010PropOp45
 70
     1
102
RTVSPost2010Prop46
 90
       50
102
RTVSPost2010PropOp46
 70
     1
102
RTVSPost2010Prop47
 90
       50
102
RTVSPost2010PropOp47
 70
     1
102
RTVSPost2010Prop48
 90
       50
102
RTVSPost2010PropOp48
 70
     1
102
RTVSPost2010Prop49
280
     0
102
RTVSPost2010PropOp49
 70
     1
102
RTVSPost2010Prop50
 90
       50
102
RTVSPost2010PropOp50
 70
     1
102
RTVSPost2010Prop51ColorIndex
 90
      256
102
RTVSPost2010Prop51ColorRGB
 90
-16777216
102
RTVSPost2010PropOp51
 70
     0
102
RTVSPost2010Prop52
140
1.0
102
RTVSPost2010PropOp52
 70
     0
102
RTVSPost2010Prop53
 90
        2
102
RTVSPost2010PropOp53
 70
     1
102
RTVSPost2010Prop54
  1
strokes_ogs.tif
102
RTVSPost2010PropOp54
 70
     1
102
RTVSPost2010Prop55
280
     0
102
RTVSPost2010PropOp55
 70
     1
102
RTVSPost2010Prop56
140
1.0
102
RTVSPost2010PropOp56
 70
     1
102
RTVSPost2010Prop57
140
1.0
102
RTVSPost2010PropOp57
 70
     1
  0
XRECORD
  5
139
102
{ACAD_REACTORS
330
138
102
}
330
138
100
AcDbXrecord
280
     1
102
RTVSPropertyOp0
 70
     1
102
RTVSPropertyOp1
 70
     1
102
RTVSPropertyOp2
 70
     1
102
RTVSPropertyOp3
 70
     1
102
RTVSPropertyOp4
 70
     1
102
RTVSPropertyOp5
 70
     1
102
RTVSPropertyOp6
 70
     1
102
RTVSPropertyOp7
 70
     1
102
RTVSPropertyOp8
 70
     1
102
RTVSPropertyOp9
 70
     1
102
RTVSPropertyOp10
 70
     1
102
RTVSPropertyOp11
 70
     1
102
RTVSPropertyOp12
 70
     1
102
RTVSPropertyOp13
 70
     1
102
RTVSPropertyOp14
 70
     1
102
RTVSPropertyOp15
 70
     1
102
RTVSPropertyOp16
 70
     1
102
RTVSPropertyOp17
 70
     1
102
RTVSPropertyOp18
 70
     1
102
RTVSPropertyOp19
 70
     1
102
RTVSPropertyOp20
 70
     1
102
RTVSPropertyOp21
 70
     1
102
RTVSPropertyOp22
 70
     1
102
RTVSPropertyOp23
 70
     1
102
RTVSPropertyOp24
 70
     1
102
RTVSPropertyOp25
 70
     1
102
RTVSPropertyOp26
 70
     1
102
RTVSPropertyOp27
 70
     1
102
RTVSPropertyOp28
 70
     1
102
RTVSPropertyOp29
 70
     1
102
RTVSPropertyOp30
 70
     1
102
RTVSPropertyOp31
 70
     1
102
RTVSPropertyOp32
 70
     1
102
RTVSPropertyOp33
 70
     1
102
RTVSPropertyOp34
 70
     1
102
RTVSPropertyOp35
 70
     1
102
RTVSPropertyOp36
 70
     1
102
RTVSPropertyOp37
 70
     1
102
RTVSPropertyOp38
 70
     1
102
RTVSPropertyOp39
 70
     1
102
RTVSPropertyOp40
 70
     1
102
RTVSPropertyOp41
 70
     1
102
RTVSPropertyOp42
 70
     1
102
RTVSPropertyOp43
 70
     1
102
RTVSPropertyOp44
 70
     1
102
RTVSPropertyOp45
 70
     1
102
RTVSPropertyOp46
 70
     1
102
RTVSPropertyOp47
 70
     1
102
RTVSPropertyOp48
 70
     1
102
RTVSPropertyOp49
 70
     1
102
RTVSPropertyOp50
 70
     1
102
RTVSPropertyOp51
 70
     0
102
RTVSPropertyOp52
 70
     0
102
RTVSPropertyOp53
 70
     1
102
RTVSPropertyOp54
 70
     1
102
RTVSPropertyOp55
 70
     1
102
RTVSPropertyOp56
 70
     1
102
RTVSPropertyOp57
 70
     1
102
RTVSPost2010Prop28
280
     0
102
RTVSPost2010PropOp28
 70
     1
102
RTVSPost2010Prop29
280
     1
102
RTVSPost2010PropOp29
 70
     1
102
RTVSPost2010Prop30
280
     1
102
RTVSPost2010PropOp30
 70
     1
102
RTVSPost2010Prop31
280
     0
102
RTVSPost2010PropOp31
 70
     1
102
RTVSPost2010Prop32
280
     0
102
RTVSPost2010PropOp32
 70
     1
102
RTVSPost2010Prop33
280
     0
102
RTVSPost2010PropOp33
 70
     1
102
RTVSPost2010Prop34
280
     0
102
RTVSPost2010PropOp34
 70
     1
102
RTVSPost2010Prop35
280
     0
102
RTVSPost2010PropOp35
 70
     1
102
RTVSPost2010Prop36
280
     0
102
RTVSPost2010PropOp36
 70
     1
102
RTVSPost2010Prop37
 90
       50
102
RTVSPost2010PropOp37
 70
     1
102
RTVSPost2010Prop38
140
0.0
102
RTVSPost2010PropOp38
 70
     1
102
RTVSPost2010Prop39
140
1.0
102
RTVSPost2010PropOp39
 70
     1
102
RTVSPost2010Prop40
 90
        0
102
RTVSPost2010PropOp40
 70
     1
102
RTVSPost2010Prop41ColorIndex
 90
       18
102
RTVSPost2010Prop41ColorRGB
 90
        0
102
RTVSPost2010PropOp41
 70
     1
102
RTVSPost2010Prop42
 90
       50
102
RTVSPost2010PropOp42
 70
     1
102
RTVSPost2010Prop43
 90
        3
102
RTVSPost2010PropOp43
 70
     1
102
RTVSPost2010Prop44ColorIndex
 90
        5
102
RTVSPost2010Prop44ColorRGB
 90
      255
102
RTVSPost2010PropOp44
 70
     1
102
RTVSPost2010Prop45
280
     0
102
RTVSPost2010PropOp45
 70
     1
102
RTVSPost2010Prop46
 90
       50
102
RTVSPost2010PropOp46
 70
     1
102
RTVSPost2010Prop47
 90
       50
102
RTVSPost2010PropOp47
 70
     1
102
RTVSPost2010Prop48
 90
       50
102
RTVSPost2010PropOp48
 70
     1
102
RTVSPost2010Prop49
280
     0
102
RTVSPost2010PropOp49
 70
     1
102
RTVSPost2010Prop50
 90
       50
102
RTVSPost2010PropOp50
 70
     1
102
RTVSPost2010Prop51ColorIndex
 90
      256
102
RTVSPost2010Prop51ColorRGB
 90
-16777216
102
RTVSPost2010PropOp51
 70
     0
102
RTVSPost2010Prop52
140
1.0
102
RTVSPost2010PropOp52
 70
     0
102
RTVSPost2010Prop53
 90
        2
102
RTVSPost2010PropOp53
 70
     1
102
RTVSPost2010Prop54
  1
strokes_ogs.tif
102
RTVSPost2010PropOp54
 70
     1
102
RTVSPost2010Prop55
280
     0
102
RTVSPost2010PropOp55
 70
     1
102
RTVSPost2010Prop56
140
1.0
102
RTVSPost2010PropOp56
 70
     1
102
RTVSPost2010Prop57
140
1.0
102
RTVSPost2010PropOp57
 70
     1
  0
XRECORD
  5
13F
102
{ACAD_REACTORS
330
13E
102
}
330
13E
100
AcDbXrecord
280
     1
102
RTVSPropertyOp0
 70
     1
102
RTVSPropertyOp1
 70
     1
102
RTVSPropertyOp2
 70
     1
102
RTVSPropertyOp3
 70
     1
102
RTVSPropertyOp4
 70
     1
102
RTVSPropertyOp5
 70
     1
102
RTVSPropertyOp6
 70
     1
102
RTVSPropertyOp7
 70
     1
102
RTVSPropertyOp8
 70
     1
102
RTVSPropertyOp9
 70
     1
102
RTVSPropertyOp10
 70
     1
102
RTVSPropertyOp11
 70
     1
102
RTVSPropertyOp12
 70
     1
102
RTVSPropertyOp13
 70
     1
102
RTVSPropertyOp14
 70
     1
102
RTVSPropertyOp15
 70
     1
102
RTVSPropertyOp16
 70
     1
102
RTVSPropertyOp17
 70
     1
102
RTVSPropertyOp18
 70
     1
102
RTVSPropertyOp19
 70
     1
102
RTVSPropertyOp20
 70
     1
102
RTVSPropertyOp21
 70
     1
102
RTVSPropertyOp22
 70
     1
102
RTVSPropertyOp23
 70
     1
102
RTVSPropertyOp24
 70
     1
102
RTVSPropertyOp25
 70
     1
102
RTVSPropertyOp26
 70
     1
102
RTVSPropertyOp27
 70
     1
102
RTVSPropertyOp28
 70
     1
102
RTVSPropertyOp29
 70
     1
102
RTVSPropertyOp30
 70
     1
102
RTVSPropertyOp31
 70
     1
102
RTVSPropertyOp32
 70
     1
102
RTVSPropertyOp33
 70
     1
102
RTVSPropertyOp34
 70
     1
102
RTVSPropertyOp35
 70
     1
102
RTVSPropertyOp36
 70
     1
102
RTVSPropertyOp37
 70
     1
102
RTVSPropertyOp38
 70
     1
102
RTVSPropertyOp39
 70
     1
102
RTVSPropertyOp40
 70
     1
102
RTVSPropertyOp41
 70
     1
102
RTVSPropertyOp42
 70
     1
102
RTVSPropertyOp43
 70
     1
102
RTVSPropertyOp44
 70
     1
102
RTVSPropertyOp45
 70
     1
102
RTVSPropertyOp46
 70
     1
102
RTVSPropertyOp47
 70
     1
102
RTVSPropertyOp48
 70
     1
102
RTVSPropertyOp49
 70
     1
102
RTVSPropertyOp50
 70
     1
102
RTVSPropertyOp51
 70
     0
102
RTVSPropertyOp52
 70
     0
102
RTVSPropertyOp53
 70
     1
102
RTVSPropertyOp54
 70
     1
102
RTVSPropertyOp55
 70
     1
102
RTVSPropertyOp56
 70
     1
102
RTVSPropertyOp57
 70
     1
102
RTVSPost2010Prop28
280
     0
102
RTVSPost2010PropOp28
 70
     1
102
RTVSPost2010Prop29
280
     1
102
RTVSPost2010PropOp29
 70
     1
102
RTVSPost2010Prop30
280
     1
102
RTVSPost2010PropOp30
 70
     1
102
RTVSPost2010Prop31
280
     0
102
RTVSPost2010PropOp31
 70
     1
102
RTVSPost2010Prop32
280
     0
102
RTVSPost2010PropOp32
 70
     1
102
RTVSPost2010Prop33
280
     0
102
RTVSPost2010PropOp33
 70
     1
102
RTVSPost2010Prop34
280
     0
102
RTVSPost2010PropOp34
 70
     1
102
RTVSPost2010Prop35
280
     0
102
RTVSPost2010PropOp35
 70
     1
102
RTVSPost2010Prop36
280
     0
102
RTVSPost2010PropOp36
 70
     1
102
RTVSPost2010Prop37
 90
       50
102
RTVSPost2010PropOp37
 70
     1
102
RTVSPost2010Prop38
140
0.0
102
RTVSPost2010PropOp38
 70
     1
102
RTVSPost2010Prop39
140
1.0
102
RTVSPost2010PropOp39
 70
     1
102
RTVSPost2010Prop40
 90
        0
102
RTVSPost2010PropOp40
 70
     1
102
RTVSPost2010Prop41ColorIndex
 90
       18
102
RTVSPost2010Prop41ColorRGB
 90
        0
102
RTVSPost2010PropOp41
 70
     1
102
RTVSPost2010Prop42
 90
       50
102
RTVSPost2010PropOp42
 70
     1
102
RTVSPost2010Prop43
 90
        3
102
RTVSPost2010PropOp43
 70
     1
102
RTVSPost2010Prop44ColorIndex
 90
        5
102
RTVSPost2010Prop44ColorRGB
 90
      255
102
RTVSPost2010PropOp44
 70
     1
102
RTVSPost2010Prop45
280
     0
102
RTVSPost2010PropOp45
 70
     1
102
RTVSPost2010Prop46
 90
       50
102
RTVSPost2010PropOp46
 70
     1
102
RTVSPost2010Prop47
 90
       50
102
RTVSPost2010PropOp47
 70
     1
102
RTVSPost2010Prop48
 90
       50
102
RTVSPost2010PropOp48
 70
     1
102
RTVSPost2010Prop49
280
     0
102
RTVSPost2010PropOp49
 70
     1
102
RTVSPost2010Prop50
 90
       50
102
RTVSPost2010PropOp50
 70
     1
102
RTVSPost2010Prop51ColorIndex
 90
      256
102
RTVSPost2010Prop51ColorRGB
 90
-16777216
102
RTVSPost2010PropOp51
 70
     0
102
RTVSPost2010Prop52
140
1.0
102
RTVSPost2010PropOp52
 70
     0
102
RTVSPost2010Prop53
 90
        2
102
RTVSPost2010PropOp53
 70
     1
102
RTVSPost2010Prop54
  1
strokes_ogs.tif
102
RTVSPost2010PropOp54
 70
     1
102
RTVSPost2010Prop55
280
     0
102
RTVSPost2010PropOp55
 70
     1
102
RTVSPost2010Prop56
140
1.0
102
RTVSPost2010PropOp56
 70
     1
102
RTVSPost2010Prop57
140
1.0
102
RTVSPost2010PropOp57
 70
     1
  0
XRECORD
  5
153
102
{ACAD_REACTORS
330
152
102
}
330
152
100
AcDbXrecord
280
     1
102
RTVSPropertyOp0
 70
     0
102
RTVSPropertyOp1
 70
     0
102
RTVSPropertyOp2
 70
     0
102
RTVSPropertyOp3
 70
     0
102
RTVSPropertyOp4
 70
     0
102
RTVSPropertyOp5
 70
     0
102
RTVSPropertyOp6
 70
     0
102
RTVSPropertyOp7
 70
     0
102
RTVSPropertyOp8
 70
     0
102
RTVSPropertyOp9
 70
     0
102
RTVSPropertyOp10
 70
     0
102
RTVSPropertyOp11
 70
     0
102
RTVSPropertyOp12
 70
     0
102
RTVSPropertyOp13
 70
     0
102
RTVSPropertyOp14
 70
     2
102
RTVSPropertyOp15
 70
     0
102
RTVSPropertyOp16
 70
     0
102
RTVSPropertyOp17
 70
     0
102
RTVSPropertyOp18
 70
     0
102
RTVSPropertyOp19
 70
     0
102
RTVSPropertyOp20
 70
     0
102
RTVSPropertyOp21
 70
     0
102
RTVSPropertyOp22
 70
     0
102
RTVSPropertyOp23
 70
     0
102
RTVSPropertyOp24
 70
     0
102
RTVSPropertyOp25
 70
     0
102
RTVSPropertyOp26
 70
     0
102
RTVSPropertyOp27
 70
     0
102
RTVSPropertyOp28
 70
     0
102
RTVSPropertyOp29
 70
     0
102
RTVSPropertyOp30
 70
     0
102
RTVSPropertyOp31
 70
     0
102
RTVSPropertyOp32
 70
     0
102
RTVSPropertyOp33
 70
     0
102
RTVSPropertyOp34
 70
     0
102
RTVSPropertyOp35
 70
     0
102
RTVSPropertyOp36
 70
     0
102
RTVSPropertyOp37
 70
     0
102
RTVSPropertyOp38
 70
     0
102
RTVSPropertyOp39
 70
     0
102
RTVSPropertyOp40
 70
     0
102
RTVSPropertyOp41
 70
     0
102
RTVSPropertyOp42
 70
     0
102
RTVSPropertyOp43
 70
     0
102
RTVSPropertyOp44
 70
     0
102
RTVSPropertyOp45
 70
     0
102
RTVSPropertyOp46
 70
     0
102
RTVSPropertyOp47
 70
     0
102
RTVSPropertyOp48
 70
     0
102
RTVSPropertyOp49
 70
     0
102
RTVSPropertyOp50
 70
     0
102
RTVSPropertyOp51
 70
     0
102
RTVSPropertyOp52
 70
     0
102
RTVSPropertyOp53
 70
     0
102
RTVSPropertyOp54
 70
     0
102
RTVSPropertyOp55
 70
     0
102
RTVSPropertyOp56
 70
     0
102
RTVSPropertyOp57
 70
     0
102
RTVSPost2010Prop28
280
     0
102
RTVSPost2010PropOp28
 70
     0
102
RTVSPost2010Prop29
280
     1
102
RTVSPost2010PropOp29
 70
     0
102
RTVSPost2010Prop30
280
     1
102
RTVSPost2010PropOp30
 70
     0
102
RTVSPost2010Prop31
280
     0
102
RTVSPost2010PropOp31
 70
     0
102
RTVSPost2010Prop32
280
     0
102
RTVSPost2010PropOp32
 70
     0
102
RTVSPost2010Prop33
280
     0
102
RTVSPost2010PropOp33
 70
     0
102
RTVSPost2010Prop34
280
     0
102
RTVSPost2010PropOp34
 70
     0
102
RTVSPost2010Prop35
280
     0
102
RTVSPost2010PropOp35
 70
     0
102
RTVSPost2010Prop36
280
     0
102
RTVSPost2010PropOp36
 70
     0
102
RTVSPost2010Prop37
 90
       50
102
RTVSPost2010PropOp37
 70
     0
102
RTVSPost2010Prop38
140
0.0
102
RTVSPost2010PropOp38
 70
     0
102
RTVSPost2010Prop39
140
1.0
102
RTVSPost2010PropOp39
 70
     0
102
RTVSPost2010Prop40
 90
        0
102
RTVSPost2010PropOp40
 70
     0
102
RTVSPost2010Prop41ColorIndex
 90
       18
102
RTVSPost2010Prop41ColorRGB
 90
        0
102
RTVSPost2010PropOp41
 70
     0
102
RTVSPost2010Prop42
 90
       50
102
RTVSPost2010PropOp42
 70
     0
102
RTVSPost2010Prop43
 90
        3
102
RTVSPost2010PropOp43
 70
     0
102
RTVSPost2010Prop44ColorIndex
 90
        5
102
RTVSPost2010Prop44ColorRGB
 90
      255
102
RTVSPost2010PropOp44
 70
     0
102
RTVSPost2010Prop45
280
     0
102
RTVSPost2010PropOp45
 70
     0
102
RTVSPost2010Prop46
 90
       50
102
RTVSPost2010PropOp46
 70
     0
102
RTVSPost2010Prop47
 90
       50
102
RTVSPost2010PropOp47
 70
     0
102
RTVSPost2010Prop48
 90
       50
102
RTVSPost2010PropOp48
 70
     0
102
RTVSPost2010Prop49
280
     0
102
RTVSPost2010PropOp49
 70
     0
102
RTVSPost2010Prop50
 90
       50
102
RTVSPost2010PropOp50
 70
     0
102
RTVSPost2010Prop51ColorIndex
 90
      256
102
RTVSPost2010Prop51ColorRGB
 90
-16777216
102
RTVSPost2010PropOp51
 70
     0
102
RTVSPost2010Prop52
140
1.0
102
RTVSPost2010PropOp52
 70
     0
102
RTVSPost2010Prop53
 90
        2
102
RTVSPost2010PropOp53
 70
     0
102
RTVSPost2010Prop54
  1
strokes_ogs.tif
102
RTVSPost2010PropOp54
 70
     0
102
RTVSPost2010Prop55
280
     0
102
RTVSPost2010PropOp55
 70
     0
102
RTVSPost2010Prop56
140
1.0
102
RTVSPost2010PropOp56
 70
     0
102
RTVSPost2010Prop57
140
1.0
102
RTVSPost2010PropOp57
 70
     0
  0
XRECORD
  5
14D
102
{ACAD_REACTORS
330
14C
102
}
330
14C
100
AcDbXrecord
280
     1
102
RTVSPropertyOp0
 70
     1
102
RTVSPropertyOp1
 70
     1
102
RTVSPropertyOp2
 70
     1
102
RTVSPropertyOp3
 70
     1
102
RTVSPropertyOp4
 70
     1
102
RTVSPropertyOp5
 70
     1
102
RTVSPropertyOp6
 70
     1
102
RTVSPropertyOp7
 70
     1
102
RTVSPropertyOp8
 70
     1
102
RTVSPropertyOp9
 70
     1
102
RTVSPropertyOp10
 70
     1
102
RTVSPropertyOp11
 70
     1
102
RTVSPropertyOp12
 70
     1
102
RTVSPropertyOp13
 70
     1
102
RTVSPropertyOp14
 70
     1
102
RTVSPropertyOp15
 70
     1
102
RTVSPropertyOp16
 70
     1
102
RTVSPropertyOp17
 70
     1
102
RTVSPropertyOp18
 70
     1
102
RTVSPropertyOp19
 70
     1
102
RTVSPropertyOp20
 70
     1
102
RTVSPropertyOp21
 70
     1
102
RTVSPropertyOp22
 70
     1
102
RTVSPropertyOp23
 70
     1
102
RTVSPropertyOp24
 70
     1
102
RTVSPropertyOp25
 70
     1
102
RTVSPropertyOp26
 70
     1
102
RTVSPropertyOp27
 70
     1
102
RTVSPropertyOp28
 70
     1
102
RTVSPropertyOp29
 70
     1
102
RTVSPropertyOp30
 70
     1
102
RTVSPropertyOp31
 70
     1
102
RTVSPropertyOp32
 70
     1
102
RTVSPropertyOp33
 70
     1
102
RTVSPropertyOp34
 70
     1
102
RTVSPropertyOp35
 70
     1
102
RTVSPropertyOp36
 70
     1
102
RTVSPropertyOp37
 70
     1
102
RTVSPropertyOp38
 70
     1
102
RTVSPropertyOp39
 70
     1
102
RTVSPropertyOp40
 70
     1
102
RTVSPropertyOp41
 70
     1
102
RTVSPropertyOp42
 70
     1
102
RTVSPropertyOp43
 70
     1
102
RTVSPropertyOp44
 70
     1
102
RTVSPropertyOp45
 70
     1
102
RTVSPropertyOp46
 70
     1
102
RTVSPropertyOp47
 70
     1
102
RTVSPropertyOp48
 70
     1
102
RTVSPropertyOp49
 70
     1
102
RTVSPropertyOp50
 70
     1
102
RTVSPropertyOp51
 70
     0
102
RTVSPropertyOp52
 70
     0
102
RTVSPropertyOp53
 70
     1
102
RTVSPropertyOp54
 70
     1
102
RTVSPropertyOp55
 70
     1
102
RTVSPropertyOp56
 70
     1
102
RTVSPropertyOp57
 70
     1
102
RTVSPost2010Prop28
280
     0
102
RTVSPost2010PropOp28
 70
     1
102
RTVSPost2010Prop29
280
     1
102
RTVSPost2010PropOp29
 70
     1
102
RTVSPost2010Prop30
280
     1
102
RTVSPost2010PropOp30
 70
     1
102
RTVSPost2010Prop31
280
     0
102
RTVSPost2010PropOp31
 70
     1
102
RTVSPost2010Prop32
280
     0
102
RTVSPost2010PropOp32
 70
     1
102
RTVSPost2010Prop33
280
     0
102
RTVSPost2010PropOp33
 70
     1
102
RTVSPost2010Prop34
280
     0
102
RTVSPost2010PropOp34
 70
     1
102
RTVSPost2010Prop35
280
     0
102
RTVSPost2010PropOp35
 70
     1
102
RTVSPost2010Prop36
280
     0
102
RTVSPost2010PropOp36
 70
     1
102
RTVSPost2010Prop37
 90
       50
102
RTVSPost2010PropOp37
 70
     1
102
RTVSPost2010Prop38
140
0.0
102
RTVSPost2010PropOp38
 70
     1
102
RTVSPost2010Prop39
140
1.0
102
RTVSPost2010PropOp39
 70
     1
102
RTVSPost2010Prop40
 90
        0
102
RTVSPost2010PropOp40
 70
     1
102
RTVSPost2010Prop41ColorIndex
 90
       18
102
RTVSPost2010Prop41ColorRGB
 90
        0
102
RTVSPost2010PropOp41
 70
     1
102
RTVSPost2010Prop42
 90
       50
102
RTVSPost2010PropOp42
 70
     1
102
RTVSPost2010Prop43
 90
        3
102
RTVSPost2010PropOp43
 70
     1
102
RTVSPost2010Prop44ColorIndex
 90
        5
102
RTVSPost2010Prop44ColorRGB
 90
      255
102
RTVSPost2010PropOp44
 70
     1
102
RTVSPost2010Prop45
280
     0
102
RTVSPost2010PropOp45
 70
     1
102
RTVSPost2010Prop46
 90
       50
102
RTVSPost2010PropOp46
 70
     1
102
RTVSPost2010Prop47
 90
       50
102
RTVSPost2010PropOp47
 70
     1
102
RTVSPost2010Prop48
 90
       50
102
RTVSPost2010PropOp48
 70
     1
102
RTVSPost2010Prop49
280
     0
102
RTVSPost2010PropOp49
 70
     1
102
RTVSPost2010Prop50
 90
       50
102
RTVSPost2010PropOp50
 70
     1
102
RTVSPost2010Prop51ColorIndex
 90
      256
102
RTVSPost2010Prop51ColorRGB
 90
-16777216
102
RTVSPost2010PropOp51
 70
     0
102
RTVSPost2010Prop52
140
1.0
102
RTVSPost2010PropOp52
 70
     0
102
RTVSPost2010Prop53
 90
        2
102
RTVSPost2010PropOp53
 70
     1
102
RTVSPost2010Prop54
  1
strokes_ogs.tif
102
RTVSPost2010PropOp54
 70
     1
102
RTVSPost2010Prop55
280
     0
102
RTVSPost2010PropOp55
 70
     1
102
RTVSPost2010Prop56
140
1.0
102
RTVSPost2010PropOp56
 70
     1
102
RTVSPost2010Prop57
140
1.0
102
RTVSPost2010PropOp57
 70
     1
  0
XRECORD
  5
155
102
{ACAD_REACTORS
330
154
102
}
330
154
100
AcDbXrecord
280
     1
102
RTVSPropertyOp0
 70
     0
102
RTVSPropertyOp1
 70
     0
102
RTVSPropertyOp2
 70
     0
102
RTVSPropertyOp3
 70
     0
102
RTVSPropertyOp4
 70
     0
102
RTVSPropertyOp5
 70
     0
102
RTVSPropertyOp6
 70
     0
102
RTVSPropertyOp7
 70
     0
102
RTVSPropertyOp8
 70
     0
102
RTVSPropertyOp9
 70
     0
102
RTVSPropertyOp10
 70
     0
102
RTVSPropertyOp11
 70
     0
102
RTVSPropertyOp12
 70
     0
102
RTVSPropertyOp13
 70
     0
102
RTVSPropertyOp14
 70
     2
102
RTVSPropertyOp15
 70
     0
102
RTVSPropertyOp16
 70
     0
102
RTVSPropertyOp17
 70
     0
102
RTVSPropertyOp18
 70
     0
102
RTVSPropertyOp19
 70
     0
102
RTVSPropertyOp20
 70
     0
102
RTVSPropertyOp21
 70
     0
102
RTVSPropertyOp22
 70
     0
102
RTVSPropertyOp23
 70
     0
102
RTVSPropertyOp24
 70
     0
102
RTVSPropertyOp25
 70
     0
102
RTVSPropertyOp26
 70
     0
102
RTVSPropertyOp27
 70
     0
102
RTVSPropertyOp28
 70
     0
102
RTVSPropertyOp29
 70
     0
102
RTVSPropertyOp30
 70
     0
102
RTVSPropertyOp31
 70
     0
102
RTVSPropertyOp32
 70
     0
102
RTVSPropertyOp33
 70
     0
102
RTVSPropertyOp34
 70
     0
102
RTVSPropertyOp35
 70
     0
102
RTVSPropertyOp36
 70
     0
102
RTVSPropertyOp37
 70
     0
102
RTVSPropertyOp38
 70
     0
102
RTVSPropertyOp39
 70
     0
102
RTVSPropertyOp40
 70
     0
102
RTVSPropertyOp41
 70
     0
102
RTVSPropertyOp42
 70
     0
102
RTVSPropertyOp43
 70
     0
102
RTVSPropertyOp44
 70
     0
102
RTVSPropertyOp45
 70
     0
102
RTVSPropertyOp46
 70
     0
102
RTVSPropertyOp47
 70
     0
102
RTVSPropertyOp48
 70
     0
102
RTVSPropertyOp49
 70
     0
102
RTVSPropertyOp50
 70
     0
102
RTVSPropertyOp51
 70
     0
102
RTVSPropertyOp52
 70
     0
102
RTVSPropertyOp53
 70
     0
102
RTVSPropertyOp54
 70
     0
102
RTVSPropertyOp55
 70
     0
102
RTVSPropertyOp56
 70
     0
102
RTVSPropertyOp57
 70
     0
102
RTVSPost2010Prop28
280
     0
102
RTVSPost2010PropOp28
 70
     0
102
RTVSPost2010Prop29
280
     1
102
RTVSPost2010PropOp29
 70
     0
102
RTVSPost2010Prop30
280
     1
102
RTVSPost2010PropOp30
 70
     0
102
RTVSPost2010Prop31
280
     0
102
RTVSPost2010PropOp31
 70
     0
102
RTVSPost2010Prop32
280
     0
102
RTVSPost2010PropOp32
 70
     0
102
RTVSPost2010Prop33
280
     0
102
RTVSPost2010PropOp33
 70
     0
102
RTVSPost2010Prop34
280
     0
102
RTVSPost2010PropOp34
 70
     0
102
RTVSPost2010Prop35
280
     0
102
RTVSPost2010PropOp35
 70
     0
102
RTVSPost2010Prop36
280
     0
102
RTVSPost2010PropOp36
 70
     0
102
RTVSPost2010Prop37
 90
       50
102
RTVSPost2010PropOp37
 70
     0
102
RTVSPost2010Prop38
140
0.0
102
RTVSPost2010PropOp38
 70
     0
102
RTVSPost2010Prop39
140
1.0
102
RTVSPost2010PropOp39
 70
     0
102
RTVSPost2010Prop40
 90
        0
102
RTVSPost2010PropOp40
 70
     0
102
RTVSPost2010Prop41ColorIndex
 90
       18
102
RTVSPost2010Prop41ColorRGB
 90
        0
102
RTVSPost2010PropOp41
 70
     0
102
RTVSPost2010Prop42
 90
       50
102
RTVSPost2010PropOp42
 70
     0
102
RTVSPost2010Prop43
 90
        3
102
RTVSPost2010PropOp43
 70
     0
102
RTVSPost2010Prop44ColorIndex
 90
        5
102
RTVSPost2010Prop44ColorRGB
 90
      255
102
RTVSPost2010PropOp44
 70
     0
102
RTVSPost2010Prop45
280
     0
102
RTVSPost2010PropOp45
 70
     0
102
RTVSPost2010Prop46
 90
       50
102
RTVSPost2010PropOp46
 70
     0
102
RTVSPost2010Prop47
 90
       50
102
RTVSPost2010PropOp47
 70
     0
102
RTVSPost2010Prop48
 90
       50
102
RTVSPost2010PropOp48
 70
     0
102
RTVSPost2010Prop49
280
     0
102
RTVSPost2010PropOp49
 70
     0
102
RTVSPost2010Prop50
 90
       50
102
RTVSPost2010PropOp50
 70
     0
102
RTVSPost2010Prop51ColorIndex
 90
      256
102
RTVSPost2010Prop51ColorRGB
 90
-16777216
102
RTVSPost2010PropOp51
 70
     0
102
RTVSPost2010Prop52
140
1.0
102
RTVSPost2010PropOp52
 70
     0
102
RTVSPost2010Prop53
 90
        2
102
RTVSPost2010PropOp53
 70
     0
102
RTVSPost2010Prop54
  1
strokes_ogs.tif
102
RTVSPost2010PropOp54
 70
     0
102
RTVSPost2010Prop55
280
     0
102
RTVSPost2010PropOp55
 70
     0
102
RTVSPost2010Prop56
140
1.0
102
RTVSPost2010PropOp56
 70
     0
102
RTVSPost2010Prop57
140
1.0
102
RTVSPost2010PropOp57
 70
     0
  0
XRECORD
  5
143
102
{ACAD_REACTORS
330
142
102
}
330
142
100
AcDbXrecord
280
     1
102
RTVSPropertyOp0
 70
     1
102
RTVSPropertyOp1
 70
     1
102
RTVSPropertyOp2
 70
     1
102
RTVSPropertyOp3
 70
     1
102
RTVSPropertyOp4
 70
     1
102
RTVSPropertyOp5
 70
     1
102
RTVSPropertyOp6
 70
     1
102
RTVSPropertyOp7
 70
     1
102
RTVSPropertyOp8
 70
     1
102
RTVSPropertyOp9
 70
     1
102
RTVSPropertyOp10
 70
     1
102
RTVSPropertyOp11
 70
     1
102
RTVSPropertyOp12
 70
     1
102
RTVSPropertyOp13
 70
     1
102
RTVSPropertyOp14
 70
     1
102
RTVSPropertyOp15
 70
     1
102
RTVSPropertyOp16
 70
     1
102
RTVSPropertyOp17
 70
     1
102
RTVSPropertyOp18
 70
     1
102
RTVSPropertyOp19
 70
     1
102
RTVSPropertyOp20
 70
     1
102
RTVSPropertyOp21
 70
     1
102
RTVSPropertyOp22
 70
     1
102
RTVSPropertyOp23
 70
     1
102
RTVSPropertyOp24
 70
     1
102
RTVSPropertyOp25
 70
     1
102
RTVSPropertyOp26
 70
     1
102
RTVSPropertyOp27
 70
     1
102
RTVSPropertyOp28
 70
     1
102
RTVSPropertyOp29
 70
     1
102
RTVSPropertyOp30
 70
     1
102
RTVSPropertyOp31
 70
     1
102
RTVSPropertyOp32
 70
     1
102
RTVSPropertyOp33
 70
     1
102
RTVSPropertyOp34
 70
     1
102
RTVSPropertyOp35
 70
     1
102
RTVSPropertyOp36
 70
     1
102
RTVSPropertyOp37
 70
     1
102
RTVSPropertyOp38
 70
     1
102
RTVSPropertyOp39
 70
     1
102
RTVSPropertyOp40
 70
     1
102
RTVSPropertyOp41
 70
     1
102
RTVSPropertyOp42
 70
     1
102
RTVSPropertyOp43
 70
     1
102
RTVSPropertyOp44
 70
     1
102
RTVSPropertyOp45
 70
     1
102
RTVSPropertyOp46
 70
     1
102
RTVSPropertyOp47
 70
     1
102
RTVSPropertyOp48
 70
     1
102
RTVSPropertyOp49
 70
     1
102
RTVSPropertyOp50
 70
     1
102
RTVSPropertyOp51
 70
     0
102
RTVSPropertyOp52
 70
     0
102
RTVSPropertyOp53
 70
     1
102
RTVSPropertyOp54
 70
     1
102
RTVSPropertyOp55
 70
     1
102
RTVSPropertyOp56
 70
     1
102
RTVSPropertyOp57
 70
     1
102
RTVSPost2010Prop28
280
     0
102
RTVSPost2010PropOp28
 70
     1
102
RTVSPost2010Prop29
280
     1
102
RTVSPost2010PropOp29
 70
     1
102
RTVSPost2010Prop30
280
     1
102
RTVSPost2010PropOp30
 70
     1
102
RTVSPost2010Prop31
280
     0
102
RTVSPost2010PropOp31
 70
     1
102
RTVSPost2010Prop32
280
     0
102
RTVSPost2010PropOp32
 70
     1
102
RTVSPost2010Prop33
280
     0
102
RTVSPost2010PropOp33
 70
     1
102
RTVSPost2010Prop34
280
     0
102
RTVSPost2010PropOp34
 70
     1
102
RTVSPost2010Prop35
280
     0
102
RTVSPost2010PropOp35
 70
     1
102
RTVSPost2010Prop36
280
     0
102
RTVSPost2010PropOp36
 70
     1
102
RTVSPost2010Prop37
 90
       50
102
RTVSPost2010PropOp37
 70
     1
102
RTVSPost2010Prop38
140
0.0
102
RTVSPost2010PropOp38
 70
     1
102
RTVSPost2010Prop39
140
1.0
102
RTVSPost2010PropOp39
 70
     1
102
RTVSPost2010Prop40
 90
        0
102
RTVSPost2010PropOp40
 70
     1
102
RTVSPost2010Prop41ColorIndex
 90
       18
102
RTVSPost2010Prop41ColorRGB
 90
        0
102
RTVSPost2010PropOp41
 70
     1
102
RTVSPost2010Prop42
 90
       50
102
RTVSPost2010PropOp42
 70
     1
102
RTVSPost2010Prop43
 90
        3
102
RTVSPost2010PropOp43
 70
     1
102
RTVSPost2010Prop44ColorIndex
 90
        5
102
RTVSPost2010Prop44ColorRGB
 90
      255
102
RTVSPost2010PropOp44
 70
     1
102
RTVSPost2010Prop45
280
     0
102
RTVSPost2010PropOp45
 70
     1
102
RTVSPost2010Prop46
 90
       50
102
RTVSPost2010PropOp46
 70
     1
102
RTVSPost2010Prop47
 90
       50
102
RTVSPost2010PropOp47
 70
     1
102
RTVSPost2010Prop48
 90
       50
102
RTVSPost2010PropOp48
 70
     1
102
RTVSPost2010Prop49
280
     0
102
RTVSPost2010PropOp49
 70
     1
102
RTVSPost2010Prop50
 90
       50
102
RTVSPost2010PropOp50
 70
     1
102
RTVSPost2010Prop51ColorIndex
 90
      256
102
RTVSPost2010Prop51ColorRGB
 90
-16777216
102
RTVSPost2010PropOp51
 70
     0
102
RTVSPost2010Prop52
140
1.0
102
RTVSPost2010PropOp52
 70
     0
102
RTVSPost2010Prop53
 90
        2
102
RTVSPost2010PropOp53
 70
     1
102
RTVSPost2010Prop54
  1
strokes_ogs.tif
102
RTVSPost2010PropOp54
 70
     1
102
RTVSPost2010Prop55
280
     0
102
RTVSPost2010PropOp55
 70
     1
102
RTVSPost2010Prop56
140
1.0
102
RTVSPost2010PropOp56
 70
     1
102
RTVSPost2010Prop57
140
1.0
102
RTVSPost2010PropOp57
 70
     1
  0
XRECORD
  5
161
102
{ACAD_REACTORS
330
160
102
}
330
160
100
AcDbXrecord
280
     1
102
RTVSPropertyOp0
 70
     1
102
RTVSPropertyOp1
 70
     1
102
RTVSPropertyOp2
 70
     1
102
RTVSPropertyOp3
 70
     1
102
RTVSPropertyOp4
 70
     1
102
RTVSPropertyOp5
 70
     1
102
RTVSPropertyOp6
 70
     1
102
RTVSPropertyOp7
 70
     1
102
RTVSPropertyOp8
 70
     1
102
RTVSPropertyOp9
 70
     1
102
RTVSPropertyOp10
 70
     1
102
RTVSPropertyOp11
 70
     1
102
RTVSPropertyOp12
 70
     1
102
RTVSPropertyOp13
 70
     1
102
RTVSPropertyOp14
 70
     1
102
RTVSPropertyOp15
 70
     1
102
RTVSPropertyOp16
 70
     1
102
RTVSPropertyOp17
 70
     1
102
RTVSPropertyOp18
 70
     1
102
RTVSPropertyOp19
 70
     1
102
RTVSPropertyOp20
 70
     1
102
RTVSPropertyOp21
 70
     1
102
RTVSPropertyOp22
 70
     1
102
RTVSPropertyOp23
 70
     1
102
RTVSPropertyOp24
 70
     1
102
RTVSPropertyOp25
 70
     1
102
RTVSPropertyOp26
 70
     1
102
RTVSPropertyOp27
 70
     1
102
RTVSPropertyOp28
 70
     1
102
RTVSPropertyOp29
 70
     1
102
RTVSPropertyOp30
 70
     1
102
RTVSPropertyOp31
 70
     1
102
RTVSPropertyOp32
 70
     1
102
RTVSPropertyOp33
 70
     1
102
RTVSPropertyOp34
 70
     1
102
RTVSPropertyOp35
 70
     1
102
RTVSPropertyOp36
 70
     1
102
RTVSPropertyOp37
 70
     1
102
RTVSPropertyOp38
 70
     1
102
RTVSPropertyOp39
 70
     1
102
RTVSPropertyOp40
 70
     1
102
RTVSPropertyOp41
 70
     1
102
RTVSPropertyOp42
 70
     1
102
RTVSPropertyOp43
 70
     1
102
RTVSPropertyOp44
 70
     1
102
RTVSPropertyOp45
 70
     1
102
RTVSPropertyOp46
 70
     1
102
RTVSPropertyOp47
 70
     1
102
RTVSPropertyOp48
 70
     1
102
RTVSPropertyOp49
 70
     1
102
RTVSPropertyOp50
 70
     1
102
RTVSPropertyOp51
 70
     0
102
RTVSPropertyOp52
 70
     0
102
RTVSPropertyOp53
 70
     1
102
RTVSPropertyOp54
 70
     1
102
RTVSPropertyOp55
 70
     1
102
RTVSPropertyOp56
 70
     1
102
RTVSPropertyOp57
 70
     1
102
RTVSPost2010Prop28
280
     0
102
RTVSPost2010PropOp28
 70
     1
102
RTVSPost2010Prop29
280
     1
102
RTVSPost2010PropOp29
 70
     1
102
RTVSPost2010Prop30
280
     1
102
RTVSPost2010PropOp30
 70
     1
102
RTVSPost2010Prop31
280
     0
102
RTVSPost2010PropOp31
 70
     1
102
RTVSPost2010Prop32
280
     0
102
RTVSPost2010PropOp32
 70
     1
102
RTVSPost2010Prop33
280
     0
102
RTVSPost2010PropOp33
 70
     1
102
RTVSPost2010Prop34
280
     0
102
RTVSPost2010PropOp34
 70
     1
102
RTVSPost2010Prop35
280
     0
102
RTVSPost2010PropOp35
 70
     1
102
RTVSPost2010Prop36
280
     0
102
RTVSPost2010PropOp36
 70
     1
102
RTVSPost2010Prop37
 90
       50
102
RTVSPost2010PropOp37
 70
     1
102
RTVSPost2010Prop38
140
0.0
102
RTVSPost2010PropOp38
 70
     1
102
RTVSPost2010Prop39
140
1.0
102
RTVSPost2010PropOp39
 70
     1
102
RTVSPost2010Prop40
 90
        0
102
RTVSPost2010PropOp40
 70
     1
102
RTVSPost2010Prop41ColorIndex
 90
       18
102
RTVSPost2010Prop41ColorRGB
 90
        0
102
RTVSPost2010PropOp41
 70
     1
102
RTVSPost2010Prop42
 90
       50
102
RTVSPost2010PropOp42
 70
     1
102
RTVSPost2010Prop43
 90
        3
102
RTVSPost2010PropOp43
 70
     1
102
RTVSPost2010Prop44ColorIndex
 90
        5
102
RTVSPost2010Prop44ColorRGB
 90
      255
102
RTVSPost2010PropOp44
 70
     1
102
RTVSPost2010Prop45
280
     0
102
RTVSPost2010PropOp45
 70
     1
102
RTVSPost2010Prop46
 90
       50
102
RTVSPost2010PropOp46
 70
     1
102
RTVSPost2010Prop47
 90
       50
102
RTVSPost2010PropOp47
 70
     1
102
RTVSPost2010Prop48
 90
       50
102
RTVSPost2010PropOp48
 70
     1
102
RTVSPost2010Prop49
280
     0
102
RTVSPost2010PropOp49
 70
     1
102
RTVSPost2010Prop50
 90
       50
102
RTVSPost2010PropOp50
 70
     1
102
RTVSPost2010Prop51ColorIndex
 90
      256
102
RTVSPost2010Prop51ColorRGB
 90
-16777216
102
RTVSPost2010PropOp51
 70
     0
102
RTVSPost2010Prop52
140
1.0
102
RTVSPost2010PropOp52
 70
     0
102
RTVSPost2010Prop53
 90
        2
102
RTVSPost2010PropOp53
 70
     1
102
RTVSPost2010Prop54
  1
strokes_ogs.tif
102
RTVSPost2010PropOp54
 70
     1
102
RTVSPost2010Prop55
280
     0
102
RTVSPost2010PropOp55
 70
     1
102
RTVSPost2010Prop56
140
1.0
102
RTVSPost2010PropOp56
 70
     1
102
RTVSPost2010Prop57
140
1.0
102
RTVSPost2010PropOp57
 70
     1
  0
XRECORD
  5
15F
102
{ACAD_REACTORS
330
15E
102
}
330
15E
100
AcDbXrecord
280
     1
102
RTVSPropertyOp0
 70
     1
102
RTVSPropertyOp1
 70
     1
102
RTVSPropertyOp2
 70
     1
102
RTVSPropertyOp3
 70
     1
102
RTVSPropertyOp4
 70
     1
102
RTVSPropertyOp5
 70
     1
102
RTVSPropertyOp6
 70
     1
102
RTVSPropertyOp7
 70
     1
102
RTVSPropertyOp8
 70
     1
102
RTVSPropertyOp9
 70
     1
102
RTVSPropertyOp10
 70
     1
102
RTVSPropertyOp11
 70
     1
102
RTVSPropertyOp12
 70
     1
102
RTVSPropertyOp13
 70
     1
102
RTVSPropertyOp14
 70
     1
102
RTVSPropertyOp15
 70
     1
102
RTVSPropertyOp16
 70
     1
102
RTVSPropertyOp17
 70
     1
102
RTVSPropertyOp18
 70
     1
102
RTVSPropertyOp19
 70
     1
102
RTVSPropertyOp20
 70
     1
102
RTVSPropertyOp21
 70
     1
102
RTVSPropertyOp22
 70
     1
102
RTVSPropertyOp23
 70
     1
102
RTVSPropertyOp24
 70
     1
102
RTVSPropertyOp25
 70
     1
102
RTVSPropertyOp26
 70
     1
102
RTVSPropertyOp27
 70
     1
102
RTVSPropertyOp28
 70
     1
102
RTVSPropertyOp29
 70
     1
102
RTVSPropertyOp30
 70
     1
102
RTVSPropertyOp31
 70
     1
102
RTVSPropertyOp32
 70
     1
102
RTVSPropertyOp33
 70
     1
102
RTVSPropertyOp34
 70
     1
102
RTVSPropertyOp35
 70
     1
102
RTVSPropertyOp36
 70
     1
102
RTVSPropertyOp37
 70
     1
102
RTVSPropertyOp38
 70
     1
102
RTVSPropertyOp39
 70
     1
102
RTVSPropertyOp40
 70
     1
102
RTVSPropertyOp41
 70
     1
102
RTVSPropertyOp42
 70
     1
102
RTVSPropertyOp43
 70
     1
102
RTVSPropertyOp44
 70
     1
102
RTVSPropertyOp45
 70
     1
102
RTVSPropertyOp46
 70
     1
102
RTVSPropertyOp47
 70
     1
102
RTVSPropertyOp48
 70
     1
102
RTVSPropertyOp49
 70
     1
102
RTVSPropertyOp50
 70
     1
102
RTVSPropertyOp51
 70
     0
102
RTVSPropertyOp52
 70
     0
102
RTVSPropertyOp53
 70
     1
102
RTVSPropertyOp54
 70
     1
102
RTVSPropertyOp55
 70
     1
102
RTVSPropertyOp56
 70
     1
102
RTVSPropertyOp57
 70
     1
102
RTVSPost2010Prop28
280
     0
102
RTVSPost2010PropOp28
 70
     1
102
RTVSPost2010Prop29
280
     1
102
RTVSPost2010PropOp29
 70
     1
102
RTVSPost2010Prop30
280
     1
102
RTVSPost2010PropOp30
 70
     1
102
RTVSPost2010Prop31
280
     0
102
RTVSPost2010PropOp31
 70
     1
102
RTVSPost2010Prop32
280
     0
102
RTVSPost2010PropOp32
 70
     1
102
RTVSPost2010Prop33
280
     0
102
RTVSPost2010PropOp33
 70
     1
102
RTVSPost2010Prop34
280
     0
102
RTVSPost2010PropOp34
 70
     1
102
RTVSPost2010Prop35
280
     0
102
RTVSPost2010PropOp35
 70
     1
102
RTVSPost2010Prop36
280
     0
102
RTVSPost2010PropOp36
 70
     1
102
RTVSPost2010Prop37
 90
       50
102
RTVSPost2010PropOp37
 70
     1
102
RTVSPost2010Prop38
140
0.0
102
RTVSPost2010PropOp38
 70
     1
102
RTVSPost2010Prop39
140
1.0
102
RTVSPost2010PropOp39
 70
     1
102
RTVSPost2010Prop40
 90
        0
102
RTVSPost2010PropOp40
 70
     1
102
RTVSPost2010Prop41ColorIndex
 90
       18
102
RTVSPost2010Prop41ColorRGB
 90
        0
102
RTVSPost2010PropOp41
 70
     1
102
RTVSPost2010Prop42
 90
       50
102
RTVSPost2010PropOp42
 70
     1
102
RTVSPost2010Prop43
 90
        3
102
RTVSPost2010PropOp43
 70
     1
102
RTVSPost2010Prop44ColorIndex
 90
        5
102
RTVSPost2010Prop44ColorRGB
 90
      255
102
RTVSPost2010PropOp44
 70
     1
102
RTVSPost2010Prop45
280
     0
102
RTVSPost2010PropOp45
 70
     1
102
RTVSPost2010Prop46
 90
       50
102
RTVSPost2010PropOp46
 70
     1
102
RTVSPost2010Prop47
 90
       50
102
RTVSPost2010PropOp47
 70
     1
102
RTVSPost2010Prop48
 90
       50
102
RTVSPost2010PropOp48
 70
     1
102
RTVSPost2010Prop49
280
     0
102
RTVSPost2010PropOp49
 70
     1
102
RTVSPost2010Prop50
 90
       50
102
RTVSPost2010PropOp50
 70
     1
102
RTVSPost2010Prop51ColorIndex
 90
      256
102
RTVSPost2010Prop51ColorRGB
 90
-16777216
102
RTVSPost2010PropOp51
 70
     0
102
RTVSPost2010Prop52
140
1.0
102
RTVSPost2010PropOp52
 70
     0
102
RTVSPost2010Prop53
 90
        2
102
RTVSPost2010PropOp53
 70
     1
102
RTVSPost2010Prop54
  1
strokes_ogs.tif
102
RTVSPost2010PropOp54
 70
     1
102
RTVSPost2010Prop55
280
     0
102
RTVSPost2010PropOp55
 70
     1
102
RTVSPost2010Prop56
140
1.0
102
RTVSPost2010PropOp56
 70
     1
102
RTVSPost2010Prop57
140
1.0
102
RTVSPost2010PropOp57
 70
     1
  0
XRECORD
  5
159
102
{ACAD_REACTORS
330
158
102
}
330
158
100
AcDbXrecord
280
     1
102
RTVSPropertyOp0
 70
     1
102
RTVSPropertyOp1
 70
     1
102
RTVSPropertyOp2
 70
     1
102
RTVSPropertyOp3
 70
     1
102
RTVSPropertyOp4
 70
     1
102
RTVSPropertyOp5
 70
     1
102
RTVSPropertyOp6
 70
     1
102
RTVSPropertyOp7
 70
     1
102
RTVSPropertyOp8
 70
     1
102
RTVSPropertyOp9
 70
     1
102
RTVSPropertyOp10
 70
     1
102
RTVSPropertyOp11
 70
     1
102
RTVSPropertyOp12
 70
     1
102
RTVSPropertyOp13
 70
     1
102
RTVSPropertyOp14
 70
     1
102
RTVSPropertyOp15
 70
     1
102
RTVSPropertyOp16
 70
     1
102
RTVSPropertyOp17
 70
     1
102
RTVSPropertyOp18
 70
     1
102
RTVSPropertyOp19
 70
     1
102
RTVSPropertyOp20
 70
     1
102
RTVSPropertyOp21
 70
     1
102
RTVSPropertyOp22
 70
     1
102
RTVSPropertyOp23
 70
     1
102
RTVSPropertyOp24
 70
     1
102
RTVSPropertyOp25
 70
     1
102
RTVSPropertyOp26
 70
     1
102
RTVSPropertyOp27
 70
     1
102
RTVSPropertyOp28
 70
     1
102
RTVSPropertyOp29
 70
     1
102
RTVSPropertyOp30
 70
     1
102
RTVSPropertyOp31
 70
     1
102
RTVSPropertyOp32
 70
     1
102
RTVSPropertyOp33
 70
     1
102
RTVSPropertyOp34
 70
     1
102
RTVSPropertyOp35
 70
     1
102
RTVSPropertyOp36
 70
     1
102
RTVSPropertyOp37
 70
     1
102
RTVSPropertyOp38
 70
     1
102
RTVSPropertyOp39
 70
     1
102
RTVSPropertyOp40
 70
     1
102
RTVSPropertyOp41
 70
     1
102
RTVSPropertyOp42
 70
     1
102
RTVSPropertyOp43
 70
     1
102
RTVSPropertyOp44
 70
     1
102
RTVSPropertyOp45
 70
     1
102
RTVSPropertyOp46
 70
     1
102
RTVSPropertyOp47
 70
     1
102
RTVSPropertyOp48
 70
     1
102
RTVSPropertyOp49
 70
     1
102
RTVSPropertyOp50
 70
     1
102
RTVSPropertyOp51
 70
     0
102
RTVSPropertyOp52
 70
     0
102
RTVSPropertyOp53
 70
     1
102
RTVSPropertyOp54
 70
     1
102
RTVSPropertyOp55
 70
     1
102
RTVSPropertyOp56
 70
     1
102
RTVSPropertyOp57
 70
     1
102
RTVSPost2010Prop28
280
     0
102
RTVSPost2010PropOp28
 70
     1
102
RTVSPost2010Prop29
280
     1
102
RTVSPost2010PropOp29
 70
     1
102
RTVSPost2010Prop30
280
     1
102
RTVSPost2010PropOp30
 70
     1
102
RTVSPost2010Prop31
280
     0
102
RTVSPost2010PropOp31
 70
     1
102
RTVSPost2010Prop32
280
     0
102
RTVSPost2010PropOp32
 70
     1
102
RTVSPost2010Prop33
280
     0
102
RTVSPost2010PropOp33
 70
     1
102
RTVSPost2010Prop34
280
     0
102
RTVSPost2010PropOp34
 70
     1
102
RTVSPost2010Prop35
280
     0
102
RTVSPost2010PropOp35
 70
     1
102
RTVSPost2010Prop36
280
     0
102
RTVSPost2010PropOp36
 70
     1
102
RTVSPost2010Prop37
 90
       50
102
RTVSPost2010PropOp37
 70
     1
102
RTVSPost2010Prop38
140
0.0
102
RTVSPost2010PropOp38
 70
     1
102
RTVSPost2010Prop39
140
1.0
102
RTVSPost2010PropOp39
 70
     1
102
RTVSPost2010Prop40
 90
        0
102
RTVSPost2010PropOp40
 70
     1
102
RTVSPost2010Prop41ColorIndex
 90
       18
102
RTVSPost2010Prop41ColorRGB
 90
        0
102
RTVSPost2010PropOp41
 70
     1
102
RTVSPost2010Prop42
 90
       50
102
RTVSPost2010PropOp42
 70
     1
102
RTVSPost2010Prop43
 90
        3
102
RTVSPost2010PropOp43
 70
     1
102
RTVSPost2010Prop44ColorIndex
 90
        5
102
RTVSPost2010Prop44ColorRGB
 90
      255
102
RTVSPost2010PropOp44
 70
     1
102
RTVSPost2010Prop45
280
     0
102
RTVSPost2010PropOp45
 70
     1
102
RTVSPost2010Prop46
 90
       50
102
RTVSPost2010PropOp46
 70
     1
102
RTVSPost2010Prop47
 90
       50
102
RTVSPost2010PropOp47
 70
     1
102
RTVSPost2010Prop48
 90
       50
102
RTVSPost2010PropOp48
 70
     1
102
RTVSPost2010Prop49
280
     0
102
RTVSPost2010PropOp49
 70
     1
102
RTVSPost2010Prop50
 90
       50
102
RTVSPost2010PropOp50
 70
     1
102
RTVSPost2010Prop51ColorIndex
 90
      256
102
RTVSPost2010Prop51ColorRGB
 90
-16777216
102
RTVSPost2010PropOp51
 70
     0
102
RTVSPost2010Prop52
140
1.0
102
RTVSPost2010PropOp52
 70
     0
102
RTVSPost2010Prop53
 90
        2
102
RTVSPost2010PropOp53
 70
     1
102
RTVSPost2010Prop54
  1
strokes_ogs.tif
102
RTVSPost2010PropOp54
 70
     1
102
RTVSPost2010Prop55
280
     0
102
RTVSPost2010PropOp55
 70
     1
102
RTVSPost2010Prop56
140
1.0
102
RTVSPost2010PropOp56
 70
     1
102
RTVSPost2010Prop57
140
1.0
102
RTVSPost2010PropOp57
 70
     1
  0
XRECORD
  5
15B
102
{ACAD_REACTORS
330
15A
102
}
330
15A
100
AcDbXrecord
280
     1
102
RTVSPropertyOp0
 70
     1
102
RTVSPropertyOp1
 70
     1
102
RTVSPropertyOp2
 70
     1
102
RTVSPropertyOp3
 70
     1
102
RTVSPropertyOp4
 70
     1
102
RTVSPropertyOp5
 70
     1
102
RTVSPropertyOp6
 70
     1
102
RTVSPropertyOp7
 70
     1
102
RTVSPropertyOp8
 70
     1
102
RTVSPropertyOp9
 70
     1
102
RTVSPropertyOp10
 70
     1
102
RTVSPropertyOp11
 70
     1
102
RTVSPropertyOp12
 70
     1
102
RTVSPropertyOp13
 70
     1
102
RTVSPropertyOp14
 70
     1
102
RTVSPropertyOp15
 70
     1
102
RTVSPropertyOp16
 70
     1
102
RTVSPropertyOp17
 70
     1
102
RTVSPropertyOp18
 70
     1
102
RTVSPropertyOp19
 70
     1
102
RTVSPropertyOp20
 70
     1
102
RTVSPropertyOp21
 70
     1
102
RTVSPropertyOp22
 70
     1
102
RTVSPropertyOp23
 70
     1
102
RTVSPropertyOp24
 70
     1
102
RTVSPropertyOp25
 70
     1
102
RTVSPropertyOp26
 70
     1
102
RTVSPropertyOp27
 70
     1
102
RTVSPropertyOp28
 70
     1
102
RTVSPropertyOp29
 70
     1
102
RTVSPropertyOp30
 70
     1
102
RTVSPropertyOp31
 70
     1
102
RTVSPropertyOp32
 70
     1
102
RTVSPropertyOp33
 70
     1
102
RTVSPropertyOp34
 70
     1
102
RTVSPropertyOp35
 70
     1
102
RTVSPropertyOp36
 70
     1
102
RTVSPropertyOp37
 70
     1
102
RTVSPropertyOp38
 70
     1
102
RTVSPropertyOp39
 70
     1
102
RTVSPropertyOp40
 70
     1
102
RTVSPropertyOp41
 70
     1
102
RTVSPropertyOp42
 70
     1
102
RTVSPropertyOp43
 70
     1
102
RTVSPropertyOp44
 70
     1
102
RTVSPropertyOp45
 70
     1
102
RTVSPropertyOp46
 70
     1
102
RTVSPropertyOp47
 70
     1
102
RTVSPropertyOp48
 70
     1
102
RTVSPropertyOp49
 70
     1
102
RTVSPropertyOp50
 70
     1
102
RTVSPropertyOp51
 70
     0
102
RTVSPropertyOp52
 70
     0
102
RTVSPropertyOp53
 70
     1
102
RTVSPropertyOp54
 70
     1
102
RTVSPropertyOp55
 70
     1
102
RTVSPropertyOp56
 70
     1
102
RTVSPropertyOp57
 70
     1
102
RTVSPost2010Prop28
280
     0
102
RTVSPost2010PropOp28
 70
     1
102
RTVSPost2010Prop29
280
     1
102
RTVSPost2010PropOp29
 70
     1
102
RTVSPost2010Prop30
280
     1
102
RTVSPost2010PropOp30
 70
     1
102
RTVSPost2010Prop31
280
     0
102
RTVSPost2010PropOp31
 70
     1
102
RTVSPost2010Prop32
280
     0
102
RTVSPost2010PropOp32
 70
     1
102
RTVSPost2010Prop33
280
     0
102
RTVSPost2010PropOp33
 70
     1
102
RTVSPost2010Prop34
280
     0
102
RTVSPost2010PropOp34
 70
     1
102
RTVSPost2010Prop35
280
     0
102
RTVSPost2010PropOp35
 70
     1
102
RTVSPost2010Prop36
280
     0
102
RTVSPost2010PropOp36
 70
     1
102
RTVSPost2010Prop37
 90
       50
102
RTVSPost2010PropOp37
 70
     1
102
RTVSPost2010Prop38
140
0.0
102
RTVSPost2010PropOp38
 70
     1
102
RTVSPost2010Prop39
140
1.0
102
RTVSPost2010PropOp39
 70
     1
102
RTVSPost2010Prop40
 90
        0
102
RTVSPost2010PropOp40
 70
     1
102
RTVSPost2010Prop41ColorIndex
 90
       18
102
RTVSPost2010Prop41ColorRGB
 90
        0
102
RTVSPost2010PropOp41
 70
     1
102
RTVSPost2010Prop42
 90
       50
102
RTVSPost2010PropOp42
 70
     1
102
RTVSPost2010Prop43
 90
        3
102
RTVSPost2010PropOp43
 70
     1
102
RTVSPost2010Prop44ColorIndex
 90
        5
102
RTVSPost2010Prop44ColorRGB
 90
      255
102
RTVSPost2010PropOp44
 70
     1
102
RTVSPost2010Prop45
280
     0
102
RTVSPost2010PropOp45
 70
     1
102
RTVSPost2010Prop46
 90
       50
102
RTVSPost2010PropOp46
 70
     1
102
RTVSPost2010Prop47
 90
       50
102
RTVSPost2010PropOp47
 70
     1
102
RTVSPost2010Prop48
 90
       50
102
RTVSPost2010PropOp48
 70
     1
102
RTVSPost2010Prop49
280
     0
102
RTVSPost2010PropOp49
 70
     1
102
RTVSPost2010Prop50
 90
       50
102
RTVSPost2010PropOp50
 70
     1
102
RTVSPost2010Prop51ColorIndex
 90
      256
102
RTVSPost2010Prop51ColorRGB
 90
-16777216
102
RTVSPost2010PropOp51
 70
     0
102
RTVSPost2010Prop52
140
1.0
102
RTVSPost2010PropOp52
 70
     0
102
RTVSPost2010Prop53
 90
        2
102
RTVSPost2010PropOp53
 70
     1
102
RTVSPost2010Prop54
  1
strokes_ogs.tif
102
RTVSPost2010PropOp54
 70
     1
102
RTVSPost2010Prop55
280
     0
102
RTVSPost2010PropOp55
 70
     1
102
RTVSPost2010Prop56
140
1.0
102
RTVSPost2010PropOp56
 70
     1
102
RTVSPost2010Prop57
140
1.0
102
RTVSPost2010PropOp57
 70
     1
  0
XRECORD
  5
14B
102
{ACAD_REACTORS
330
14A
102
}
330
14A
100
AcDbXrecord
280
     1
102
RTVSPropertyOp0
 70
     1
102
RTVSPropertyOp1
 70
     1
102
RTVSPropertyOp2
 70
     1
102
RTVSPropertyOp3
 70
     1
102
RTVSPropertyOp4
 70
     1
102
RTVSPropertyOp5
 70
     1
102
RTVSPropertyOp6
 70
     1
102
RTVSPropertyOp7
 70
     1
102
RTVSPropertyOp8
 70
     1
102
RTVSPropertyOp9
 70
     1
102
RTVSPropertyOp10
 70
     1
102
RTVSPropertyOp11
 70
     1
102
RTVSPropertyOp12
 70
     1
102
RTVSPropertyOp13
 70
     1
102
RTVSPropertyOp14
 70
     1
102
RTVSPropertyOp15
 70
     1
102
RTVSPropertyOp16
 70
     1
102
RTVSPropertyOp17
 70
     1
102
RTVSPropertyOp18
 70
     1
102
RTVSPropertyOp19
 70
     1
102
RTVSPropertyOp20
 70
     1
102
RTVSPropertyOp21
 70
     1
102
RTVSPropertyOp22
 70
     1
102
RTVSPropertyOp23
 70
     1
102
RTVSPropertyOp24
 70
     1
102
RTVSPropertyOp25
 70
     1
102
RTVSPropertyOp26
 70
     1
102
RTVSPropertyOp27
 70
     1
102
RTVSPropertyOp28
 70
     1
102
RTVSPropertyOp29
 70
     1
102
RTVSPropertyOp30
 70
     1
102
RTVSPropertyOp31
 70
     1
102
RTVSPropertyOp32
 70
     1
102
RTVSPropertyOp33
 70
     1
102
RTVSPropertyOp34
 70
     1
102
RTVSPropertyOp35
 70
     1
102
RTVSPropertyOp36
 70
     1
102
RTVSPropertyOp37
 70
     1
102
RTVSPropertyOp38
 70
     1
102
RTVSPropertyOp39
 70
     1
102
RTVSPropertyOp40
 70
     1
102
RTVSPropertyOp41
 70
     1
102
RTVSPropertyOp42
 70
     1
102
RTVSPropertyOp43
 70
     1
102
RTVSPropertyOp44
 70
     1
102
RTVSPropertyOp45
 70
     1
102
RTVSPropertyOp46
 70
     1
102
RTVSPropertyOp47
 70
     1
102
RTVSPropertyOp48
 70
     1
102
RTVSPropertyOp49
 70
     1
102
RTVSPropertyOp50
 70
     1
102
RTVSPropertyOp51
 70
     0
102
RTVSPropertyOp52
 70
     0
102
RTVSPropertyOp53
 70
     1
102
RTVSPropertyOp54
 70
     1
102
RTVSPropertyOp55
 70
     1
102
RTVSPropertyOp56
 70
     1
102
RTVSPropertyOp57
 70
     1
102
RTVSPost2010Prop28
280
     0
102
RTVSPost2010PropOp28
 70
     1
102
RTVSPost2010Prop29
280
     1
102
RTVSPost2010PropOp29
 70
     1
102
RTVSPost2010Prop30
280
     1
102
RTVSPost2010PropOp30
 70
     1
102
RTVSPost2010Prop31
280
     0
102
RTVSPost2010PropOp31
 70
     1
102
RTVSPost2010Prop32
280
     0
102
RTVSPost2010PropOp32
 70
     1
102
RTVSPost2010Prop33
280
     0
102
RTVSPost2010PropOp33
 70
     1
102
RTVSPost2010Prop34
280
     0
102
RTVSPost2010PropOp34
 70
     1
102
RTVSPost2010Prop35
280
     0
102
RTVSPost2010PropOp35
 70
     1
102
RTVSPost2010Prop36
280
     0
102
RTVSPost2010PropOp36
 70
     1
102
RTVSPost2010Prop37
 90
       50
102
RTVSPost2010PropOp37
 70
     1
102
RTVSPost2010Prop38
140
0.0
102
RTVSPost2010PropOp38
 70
     1
102
RTVSPost2010Prop39
140
1.0
102
RTVSPost2010PropOp39
 70
     1
102
RTVSPost2010Prop40
 90
        0
102
RTVSPost2010PropOp40
 70
     1
102
RTVSPost2010Prop41ColorIndex
 90
       18
102
RTVSPost2010Prop41ColorRGB
 90
        0
102
RTVSPost2010PropOp41
 70
     1
102
RTVSPost2010Prop42
 90
       50
102
RTVSPost2010PropOp42
 70
     1
102
RTVSPost2010Prop43
 90
        3
102
RTVSPost2010PropOp43
 70
     1
102
RTVSPost2010Prop44ColorIndex
 90
        5
102
RTVSPost2010Prop44ColorRGB
 90
      255
102
RTVSPost2010PropOp44
 70
     1
102
RTVSPost2010Prop45
280
     0
102
RTVSPost2010PropOp45
 70
     1
102
RTVSPost2010Prop46
 90
       50
102
RTVSPost2010PropOp46
 70
     1
102
RTVSPost2010Prop47
 90
       50
102
RTVSPost2010PropOp47
 70
     1
102
RTVSPost2010Prop48
 90
       50
102
RTVSPost2010PropOp48
 70
     1
102
RTVSPost2010Prop49
280
     0
102
RTVSPost2010PropOp49
 70
     1
102
RTVSPost2010Prop50
 90
       50
102
RTVSPost2010PropOp50
 70
     1
102
RTVSPost2010Prop51ColorIndex
 90
      256
102
RTVSPost2010Prop51ColorRGB
 90
-16777216
102
RTVSPost2010PropOp51
 70
     0
102
RTVSPost2010Prop52
140
1.0
102
RTVSPost2010PropOp52
 70
     0
102
RTVSPost2010Prop53
 90
        2
102
RTVSPost2010PropOp53
 70
     1
102
RTVSPost2010Prop54
  1
strokes_ogs.tif
102
RTVSPost2010PropOp54
 70
     1
102
RTVSPost2010Prop55
280
     0
102
RTVSPost2010PropOp55
 70
     1
102
RTVSPost2010Prop56
140
1.0
102
RTVSPost2010PropOp56
 70
     1
102
RTVSPost2010Prop57
140
1.0
102
RTVSPost2010PropOp57
 70
     1
  0
XRECORD
  5
13D
102
{ACAD_REACTORS
330
13C
102
}
330
13C
100
AcDbXrecord
280
     1
102
RTVSPropertyOp0
 70
     1
102
RTVSPropertyOp1
 70
     1
102
RTVSPropertyOp2
 70
     1
102
RTVSPropertyOp3
 70
     1
102
RTVSPropertyOp4
 70
     1
102
RTVSPropertyOp5
 70
     1
102
RTVSPropertyOp6
 70
     1
102
RTVSPropertyOp7
 70
     1
102
RTVSPropertyOp8
 70
     1
102
RTVSPropertyOp9
 70
     1
102
RTVSPropertyOp10
 70
     1
102
RTVSPropertyOp11
 70
     1
102
RTVSPropertyOp12
 70
     1
102
RTVSPropertyOp13
 70
     1
102
RTVSPropertyOp14
 70
     1
102
RTVSPropertyOp15
 70
     1
102
RTVSPropertyOp16
 70
     1
102
RTVSPropertyOp17
 70
     1
102
RTVSPropertyOp18
 70
     1
102
RTVSPropertyOp19
 70
     1
102
RTVSPropertyOp20
 70
     1
102
RTVSPropertyOp21
 70
     1
102
RTVSPropertyOp22
 70
     1
102
RTVSPropertyOp23
 70
     1
102
RTVSPropertyOp24
 70
     1
102
RTVSPropertyOp25
 70
     1
102
RTVSPropertyOp26
 70
     1
102
RTVSPropertyOp27
 70
     1
102
RTVSPropertyOp28
 70
     1
102
RTVSPropertyOp29
 70
     1
102
RTVSPropertyOp30
 70
     1
102
RTVSPropertyOp31
 70
     1
102
RTVSPropertyOp32
 70
     1
102
RTVSPropertyOp33
 70
     1
102
RTVSPropertyOp34
 70
     1
102
RTVSPropertyOp35
 70
     1
102
RTVSPropertyOp36
 70
     1
102
RTVSPropertyOp37
 70
     1
102
RTVSPropertyOp38
 70
     1
102
RTVSPropertyOp39
 70
     1
102
RTVSPropertyOp40
 70
     1
102
RTVSPropertyOp41
 70
     1
102
RTVSPropertyOp42
 70
     1
102
RTVSPropertyOp43
 70
     1
102
RTVSPropertyOp44
 70
     1
102
RTVSPropertyOp45
 70
     1
102
RTVSPropertyOp46
 70
     1
102
RTVSPropertyOp47
 70
     1
102
RTVSPropertyOp48
 70
     1
102
RTVSPropertyOp49
 70
     1
102
RTVSPropertyOp50
 70
     1
102
RTVSPropertyOp51
 70
     0
102
RTVSPropertyOp52
 70
     0
102
RTVSPropertyOp53
 70
     1
102
RTVSPropertyOp54
 70
     1
102
RTVSPropertyOp55
 70
     1
102
RTVSPropertyOp56
 70
     1
102
RTVSPropertyOp57
 70
     1
102
RTVSPost2010Prop28
280
     0
102
RTVSPost2010PropOp28
 70
     1
102
RTVSPost2010Prop29
280
     1
102
RTVSPost2010PropOp29
 70
     1
102
RTVSPost2010Prop30
280
     1
102
RTVSPost2010PropOp30
 70
     1
102
RTVSPost2010Prop31
280
     0
102
RTVSPost2010PropOp31
 70
     1
102
RTVSPost2010Prop32
280
     0
102
RTVSPost2010PropOp32
 70
     1
102
RTVSPost2010Prop33
280
     0
102
RTVSPost2010PropOp33
 70
     1
102
RTVSPost2010Prop34
280
     0
102
RTVSPost2010PropOp34
 70
     1
102
RTVSPost2010Prop35
280
     0
102
RTVSPost2010PropOp35
 70
     1
102
RTVSPost2010Prop36
280
     0
102
RTVSPost2010PropOp36
 70
     1
102
RTVSPost2010Prop37
 90
       50
102
RTVSPost2010PropOp37
 70
     1
102
RTVSPost2010Prop38
140
0.0
102
RTVSPost2010PropOp38
 70
     1
102
RTVSPost2010Prop39
140
1.0
102
RTVSPost2010PropOp39
 70
     1
102
RTVSPost2010Prop40
 90
        0
102
RTVSPost2010PropOp40
 70
     1
102
RTVSPost2010Prop41ColorIndex
 90
       18
102
RTVSPost2010Prop41ColorRGB
 90
        0
102
RTVSPost2010PropOp41
 70
     1
102
RTVSPost2010Prop42
 90
       50
102
RTVSPost2010PropOp42
 70
     1
102
RTVSPost2010Prop43
 90
        3
102
RTVSPost2010PropOp43
 70
     1
102
RTVSPost2010Prop44ColorIndex
 90
        5
102
RTVSPost2010Prop44ColorRGB
 90
      255
102
RTVSPost2010PropOp44
 70
     1
102
RTVSPost2010Prop45
280
     0
102
RTVSPost2010PropOp45
 70
     1
102
RTVSPost2010Prop46
 90
       50
102
RTVSPost2010PropOp46
 70
     1
102
RTVSPost2010Prop47
 90
       50
102
RTVSPost2010PropOp47
 70
     1
102
RTVSPost2010Prop48
 90
       50
102
RTVSPost2010PropOp48
 70
     1
102
RTVSPost2010Prop49
280
     0
102
RTVSPost2010PropOp49
 70
     1
102
RTVSPost2010Prop50
 90
       50
102
RTVSPost2010PropOp50
 70
     1
102
RTVSPost2010Prop51ColorIndex
 90
      256
102
RTVSPost2010Prop51ColorRGB
 90
-16777216
102
RTVSPost2010PropOp51
 70
     0
102
RTVSPost2010Prop52
140
1.0
102
RTVSPost2010PropOp52
 70
     0
102
RTVSPost2010Prop53
 90
        2
102
RTVSPost2010PropOp53
 70
     1
102
RTVSPost2010Prop54
  1
strokes_ogs.tif
102
RTVSPost2010PropOp54
 70
     1
102
RTVSPost2010Prop55
280
     0
102
RTVSPost2010PropOp55
 70
     1
102
RTVSPost2010Prop56
140
1.0
102
RTVSPost2010PropOp56
 70
     1
102
RTVSPost2010Prop57
140
1.0
102
RTVSPost2010PropOp57
 70
     1
  0
XRECORD
  5
15D
102
{ACAD_REACTORS
330
15C
102
}
330
15C
100
AcDbXrecord
280
     1
102
RTVSPropertyOp0
 70
     1
102
RTVSPropertyOp1
 70
     1
102
RTVSPropertyOp2
 70
     1
102
RTVSPropertyOp3
 70
     1
102
RTVSPropertyOp4
 70
     1
102
RTVSPropertyOp5
 70
     1
102
RTVSPropertyOp6
 70
     1
102
RTVSPropertyOp7
 70
     1
102
RTVSPropertyOp8
 70
     1
102
RTVSPropertyOp9
 70
     1
102
RTVSPropertyOp10
 70
     1
102
RTVSPropertyOp11
 70
     1
102
RTVSPropertyOp12
 70
     1
102
RTVSPropertyOp13
 70
     1
102
RTVSPropertyOp14
 70
     1
102
RTVSPropertyOp15
 70
     1
102
RTVSPropertyOp16
 70
     1
102
RTVSPropertyOp17
 70
     1
102
RTVSPropertyOp18
 70
     1
102
RTVSPropertyOp19
 70
     1
102
RTVSPropertyOp20
 70
     1
102
RTVSPropertyOp21
 70
     1
102
RTVSPropertyOp22
 70
     1
102
RTVSPropertyOp23
 70
     1
102
RTVSPropertyOp24
 70
     1
102
RTVSPropertyOp25
 70
     1
102
RTVSPropertyOp26
 70
     1
102
RTVSPropertyOp27
 70
     1
102
RTVSPropertyOp28
 70
     1
102
RTVSPropertyOp29
 70
     1
102
RTVSPropertyOp30
 70
     1
102
RTVSPropertyOp31
 70
     1
102
RTVSPropertyOp32
 70
     1
102
RTVSPropertyOp33
 70
     1
102
RTVSPropertyOp34
 70
     1
102
RTVSPropertyOp35
 70
     1
102
RTVSPropertyOp36
 70
     1
102
RTVSPropertyOp37
 70
     1
102
RTVSPropertyOp38
 70
     1
102
RTVSPropertyOp39
 70
     1
102
RTVSPropertyOp40
 70
     1
102
RTVSPropertyOp41
 70
     1
102
RTVSPropertyOp42
 70
     1
102
RTVSPropertyOp43
 70
     1
102
RTVSPropertyOp44
 70
     1
102
RTVSPropertyOp45
 70
     1
102
RTVSPropertyOp46
 70
     1
102
RTVSPropertyOp47
 70
     1
102
RTVSPropertyOp48
 70
     1
102
RTVSPropertyOp49
 70
     1
102
RTVSPropertyOp50
 70
     1
102
RTVSPropertyOp51
 70
     0
102
RTVSPropertyOp52
 70
     0
102
RTVSPropertyOp53
 70
     1
102
RTVSPropertyOp54
 70
     1
102
RTVSPropertyOp55
 70
     1
102
RTVSPropertyOp56
 70
     1
102
RTVSPropertyOp57
 70
     1
102
RTVSPost2010Prop28
280
     0
102
RTVSPost2010PropOp28
 70
     1
102
RTVSPost2010Prop29
280
     1
102
RTVSPost2010PropOp29
 70
     1
102
RTVSPost2010Prop30
280
     1
102
RTVSPost2010PropOp30
 70
     1
102
RTVSPost2010Prop31
280
     0
102
RTVSPost2010PropOp31
 70
     1
102
RTVSPost2010Prop32
280
     0
102
RTVSPost2010PropOp32
 70
     1
102
RTVSPost2010Prop33
280
     0
102
RTVSPost2010PropOp33
 70
     1
102
RTVSPost2010Prop34
280
     0
102
RTVSPost2010PropOp34
 70
     1
102
RTVSPost2010Prop35
280
     0
102
RTVSPost2010PropOp35
 70
     1
102
RTVSPost2010Prop36
280
     0
102
RTVSPost2010PropOp36
 70
     1
102
RTVSPost2010Prop37
 90
       50
102
RTVSPost2010PropOp37
 70
     1
102
RTVSPost2010Prop38
140
0.0
102
RTVSPost2010PropOp38
 70
     1
102
RTVSPost2010Prop39
140
1.0
102
RTVSPost2010PropOp39
 70
     1
102
RTVSPost2010Prop40
 90
        0
102
RTVSPost2010PropOp40
 70
     1
102
RTVSPost2010Prop41ColorIndex
 90
       18
102
RTVSPost2010Prop41ColorRGB
 90
        0
102
RTVSPost2010PropOp41
 70
     1
102
RTVSPost2010Prop42
 90
       50
102
RTVSPost2010PropOp42
 70
     1
102
RTVSPost2010Prop43
 90
        3
102
RTVSPost2010PropOp43
 70
     1
102
RTVSPost2010Prop44ColorIndex
 90
        5
102
RTVSPost2010Prop44ColorRGB
 90
      255
102
RTVSPost2010PropOp44
 70
     1
102
RTVSPost2010Prop45
280
     0
102
RTVSPost2010PropOp45
 70
     1
102
RTVSPost2010Prop46
 90
       50
102
RTVSPost2010PropOp46
 70
     1
102
RTVSPost2010Prop47
 90
       50
102
RTVSPost2010PropOp47
 70
     1
102
RTVSPost2010Prop48
 90
       50
102
RTVSPost2010PropOp48
 70
     1
102
RTVSPost2010Prop49
280
     0
102
RTVSPost2010PropOp49
 70
     1
102
RTVSPost2010Prop50
 90
       50
102
RTVSPost2010PropOp50
 70
     1
102
RTVSPost2010Prop51ColorIndex
 90
      256
102
RTVSPost2010Prop51ColorRGB
 90
-16777216
102
RTVSPost2010PropOp51
 70
     0
102
RTVSPost2010Prop52
140
1.0
102
RTVSPost2010PropOp52
 70
     0
102
RTVSPost2010Prop53
 90
        2
102
RTVSPost2010PropOp53
 70
     1
102
RTVSPost2010Prop54
  1
strokes_ogs.tif
102
RTVSPost2010PropOp54
 70
     1
102
RTVSPost2010Prop55
280
     0
102
RTVSPost2010PropOp55
 70
     1
102
RTVSPost2010Prop56
140
1.0
102
RTVSPost2010PropOp56
 70
     1
102
RTVSPost2010Prop57
140
1.0
102
RTVSPost2010PropOp57
 70
     1
  0
ENDSEC
  0
EOF
