  0
SECTION
  2
HEADER
  9
$ACADVER
  1
AC1015
  9
$ACADMAINTVER
 70
     6
  9
$DWGCODEPAGE
  3
ANSI_1252
  9
$INSBASE
 10
0.0
 20
0.0
 30
0.0
  9
$EXTMIN
 10
127.699661
 20
240.95256
 30
0.0
  9
$EXTMAX
 10
537.558838
 20
528.471497
 30
0.0
  9
$LIMMIN
 10
127.699661
 20
240.95256
  9
$LIMMAX
 10
537.558838
 20
528.471497
  9
$ORTHOMODE
 70
     0
  9
$REGENMODE
 70
     1
  9
$FILLMODE
 70
     1
  9
$QTEXTMODE
 70
     0
  9
$MIRRTEXT
 70
     1
  9
$LTSCALE
 40
1.0
  9
$ATTMODE
 70
     1
  9
$TEXTSIZE
 40
2.5
  9
$TRACEWID
 40
1.0
  9
$TEXTSTYLE
  7
Standard
  9
$CLAYER
  8
0
  9
$CELTYPE
  6
ByLayer
  9
$CECOLOR
 62
   256
  9
$CELTSCALE
 40
1.0
  9
$DISPSILH
 70
     0
  9
$DIMSCALE
 40
1.0
  9
$DIMASZ
 40
2.5
  9
$DIMEXO
 40
0.625
  9
$DIMDLI
 40
3.75
  9
$DIMRND
 40
0.0
  9
$DIMDLE
 40
0.0
  9
$DIMEXE
 40
1.25
  9
$DIMTP
 40
0.0
  9
$DIMTM
 40
0.0
  9
$DIMTXT
 40
2.5
  9
$DIMCEN
 40
2.5
  9
$DIMTSZ
 40
0.0
  9
$DIMTOL
 70
     0
  9
$DIMLIM
 70
     0
  9
$DIMTIH
 70
     0
  9
$DIMTOH
 70
     0
  9
$DIMSE1
 70
     0
  9
$DIMSE2
 70
     0
  9
$DIMTAD
 70
     1
  9
$DIMZIN
 70
     8
  9
$DIMBLK
  1

  9
$DIMASO
 70
     1
  9
$DIMSHO
 70
     1
  9
$DIMPOST
  1

  9
$DIMAPOST
  1

  9
$DIMALT
 70
     0
  9
$DIMALTD
 70
     3
  9
$DIMALTF
 40
0.03937
  9
$DIMLFAC
 40
1.0
  9
$DIMTOFL
 70
     1
  9
$DIMTVP
 40
0.0
  9
$DIMTIX
 70
     0
  9
$DIMSOXD
 70
     0
  9
$DIMSAH
 70
     0
  9
$DIMBLK1
  1

  9
$DIMBLK2
  1

  9
$DIMSTYLE
  2
ISO-25
  9
$DIMCLRD
 70
     0
  9
$DIMCLRE
 70
     0
  9
$DIMCLRT
 70
     0
  9
$DIMTFAC
 40
1.0
  9
$DIMGAP
 40
0.625
  9
$DIMJUST
 70
     0
  9
$DIMSD1
 70
     0
  9
$DIMSD2
 70
     0
  9
$DIMTOLJ
 70
     0
  9
$DIMTZIN
 70
     8
  9
$DIMALTZ
 70
     0
  9
$DIMALTTZ
 70
     0
  9
$DIMUPT
 70
     0
  9
$DIMDEC
 70
     2
  9
$DIMTDEC
 70
     2
  9
$DIMALTU
 70
     2
  9
$DIMALTTD
 70
     3
  9
$DIMTXSTY
  7
Standard
  9
$DIMAUNIT
 70
     0
  9
$DIMADEC
 70
     0
  9
$DIMALTRND
 40
0.0
  9
$DIMAZIN
 70
     0
  9
$DIMDSEP
 70
    44
  9
$DIMATFIT
 70
     3
  9
$DIMFRAC
 70
     0
  9
$DIMLDRBLK
  1

  9
$DIMLUNIT
 70
     2
  9
$DIMLWD
 70
    -2
  9
$DIMLWE
 70
    -2
  9
$DIMTMOVE
 70
     0
  9
$LUNITS
 70
     2
  9
$LUPREC
 70
     4
  9
$SKETCHINC
 40
1.0
  9
$FILLETRAD
 40
10.0
  9
$AUNITS
 70
     0
  9
$AUPREC
 70
     0
  9
$MENU
  1
.
  9
$ELEVATION
 40
0.0
  9
$PELEVATION
 40
0.0
  9
$THICKNESS
 40
0.0
  9
$LIMCHECK
 70
     0
  9
$CHAMFERA
 40
0.0
  9
$CHAMFERB
 40
0.0
  9
$CHAMFERC
 40
0.0
  9
$CHAMFERD
 40
0.0
  9
$SKPOLY
 70
     0
  9
$TDCREATE
 40
2460039.67955221
  9
$TDUCREATE
 40
2460039.596218877
  9
$TDUPDATE
 40
2460039.679553727
  9
$TDUUPDATE
 40
2460039.596220394
  9
$TDINDWG
 40
0.0000000116
  9
$TDUSRTIMER
 40
0.0000000116
  9
$USRTIMER
 70
     1
  9
$ANGBASE
 50
0.0
  9
$ANGDIR
 70
     0
  9
$PDMODE
 70
     0
  9
$PDSIZE
 40
0.0
  9
$PLINEWID
 40
0.0
  9
$SPLFRAME
 70
     0
  9
$SPLINETYPE
 70
     6
  9
$SPLINESEGS
 70
     8
  9
$HANDSEED
  5
4B6
  9
$SURFTAB1
 70
     6
  9
$SURFTAB2
 70
     6
  9
$SURFTYPE
 70
     6
  9
$SURFU
 70
     6
  9
$SURFV
 70
     6
  9
$UCSBASE
  2

  9
$UCSNAME
  2

  9
$UCSORG
 10
0.0
 20
0.0
 30
0.0
  9
$UCSXDIR
 10
1.0
 20
0.0
 30
0.0
  9
$UCSYDIR
 10
0.0
 20
1.0
 30
0.0
  9
$UCSORTHOREF
  2

  9
$UCSORTHOVIEW
 70
     0
  9
$UCSORGTOP
 10
0.0
 20
0.0
 30
0.0
  9
$UCSORGBOTTOM
 10
0.0
 20
0.0
 30
0.0
  9
$UCSORGLEFT
 10
0.0
 20
0.0
 30
0.0
  9
$UCSORGRIGHT
 10
0.0
 20
0.0
 30
0.0
  9
$UCSORGFRONT
 10
0.0
 20
0.0
 30
0.0
  9
$UCSORGBACK
 10
0.0
 20
0.0
 30
0.0
  9
$PUCSBASE
  2

  9
$PUCSNAME
  2

  9
$PUCSORG
 10
0.0
 20
0.0
 30
0.0
  9
$PUCSXDIR
 10
1.0
 20
0.0
 30
0.0
  9
$PUCSYDIR
 10
0.0
 20
1.0
 30
0.0
  9
$PUCSORTHOREF
  2

  9
$PUCSORTHOVIEW
 70
     0
  9
$PUCSORGTOP
 10
0.0
 20
0.0
 30
0.0
  9
$PUCSORGBOTTOM
 10
0.0
 20
0.0
 30
0.0
  9
$PUCSORGLEFT
 10
0.0
 20
0.0
 30
0.0
  9
$PUCSORGRIGHT
 10
0.0
 20
0.0
 30
0.0
  9
$PUCSORGFRONT
 10
0.0
 20
0.0
 30
0.0
  9
$PUCSORGBACK
 10
0.0
 20
0.0
 30
0.0
  9
$USERI1
 70
     0
  9
$USERI2
 70
     0
  9
$USERI3
 70
     0
  9
$USERI4
 70
     0
  9
$USERI5
 70
     0
  9
$USERR1
 40
0.0
  9
$USERR2
 40
0.0
  9
$USERR3
 40
0.0
  9
$USERR4
 40
0.0
  9
$USERR5
 40
0.0
  9
$WORLDVIEW
 70
     1
  9
$SHADEDGE
 70
     3
  9
$SHADEDIF
 70
    70
  9
$TILEMODE
 70
     1
  9
$MAXACTVP
 70
    64
  9
$PINSBASE
 10
0.0
 20
0.0
 30
0.0
  9
$PLIMCHECK
 70
     0
  9
$PEXTMIN
 10
1.000000E+20
 20
1.000000E+20
 30
1.000000E+20
  9
$PEXTMAX
 10
-1.000000E+20
 20
-1.000000E+20
 30
-1.000000E+20
  9
$PLIMMIN
 10
0.0
 20
0.0
  9
$PLIMMAX
 10
420.0
 20
297.0
  9
$UNITMODE
 70
     0
  9
$VISRETAIN
 70
     1
  9
$PLINEGEN
 70
     0
  9
$PSLTSCALE
 70
     1
  9
$TREEDEPTH
 70
  3020
  9
$CMLSTYLE
  2
Standard
  9
$CMLJUST
 70
     0
  9
$CMLSCALE
 40
20.0
  9
$PROXYGRAPHICS
 70
     1
  9
$MEASUREMENT
 70
     1
  9
$CELWEIGHT
370
    -1
  9
$ENDCAPS
280
     0
  9
$JOINSTYLE
280
     0
  9
$LWDISPLAY
290
     0
  9
$INSUNITS
 70
     4
  9
$HYPERLINKBASE
  1

  9
$STYLESHEET
  1

  9
$XEDIT
290
     1
  9
$CEPSNTYPE
380
     0
  9
$PSTYLEMODE
290
     1
  9
$FINGERPRINTGUID
  2
{f954f263-04de-47bb-9f5f-1d26d63e1cd4}
  9
$VERSIONGUID
  2
{FAEB1C32-E019-11D5-929B-00C0DF256EC4}
  9
$EXTNAMES
290
     1
  9
$PSVPSCALE
 40
0.0
  9
$OLESTARTUP
290
     0
  0
ENDSEC
  0
SECTION
  2
CLASSES
  0
CLASS
  1
ACDBDICTIONARYWDFLT
  2
AcDbDictionaryWithDefault
  3
ObjectDBX Classes
 90
        0
280
     0
281
     0
  0
CLASS
  1
VISUALSTYLE
  2
AcDbVisualStyle
  3
ObjectDBX Classes
 90
     4095
280
     0
281
     0
  0
CLASS
  1
MATERIAL
  2
AcDbMaterial
  3
ObjectDBX Classes
 90
     1153
280
     0
281
     0
  0
CLASS
  1
SCALE
  2
AcDbScale
  3
ObjectDBX Classes
 90
     1153
280
     0
281
     0
  0
CLASS
  1
TABLESTYLE
  2
AcDbTableStyle
  3
ObjectDBX Classes
 90
     4095
280
     0
281
     0
  0
CLASS
  1
MLEADERSTYLE
  2
AcDbMLeaderStyle
  3
ACDB_MLEADERSTYLE_CLASS
 90
     4095
280
     0
281
     0
  0
CLASS
  1
SUN
  2
AcDbSun
  3
SCENEOE
 90
     1153
280
     0
281
     0
  0
CLASS
  1
DICTIONARYVAR
  2
AcDbDictionaryVar
  3
ObjectDBX Classes
 90
        0
280
     0
281
     0
  0
CLASS
  1
ACDBPLACEHOLDER
  2
AcDbPlaceHolder
  3
ObjectDBX Classes
 90
        0
280
     0
281
     0
  0
CLASS
  1
LAYOUT
  2
AcDbLayout
  3
ObjectDBX Classes
 90
        0
280
     0
281
     0
  0
ENDSEC
  0
SECTION
  2
TABLES
  0
TABLE
  2
VPORT
  5
8
102
{ACAD_XDICTIONARY
360
479
102
}
330
0
100
AcDbSymbolTable
 70
     1
  0
VPORT
  5
29
330
8
100
AcDbSymbolTableRecord
100
AcDbViewportTableRecord
  2
*Active
 70
     0
 10
0.0
 20
0.0
 11
1.0
 21
1.0
 12
344.186916
 22
148.5
 13
0.0
 23
0.0
 14
10.0
 24
10.0
 15
10.0
 25
10.0
 16
0.0
 26
0.0
 36
1.0
 17
0.0
 27
0.0
 37
0.0
 40
297.0
 41
1.972973
 42
50.0
 43
0.0
 44
0.0
 50
0.0
 51
0.0
 71
     0
 72
   100
 73
     1
 74
     3
 75
     0
 76
     0
 77
     0
 78
     0
281
     0
 65
     1
110
0.0
120
0.0
130
0.0
111
1.0
121
0.0
131
0.0
112
0.0
122
1.0
132
0.0
 79
     0
146
0.0
  0
ENDTAB
  0
TABLE
  2
LTYPE
  5
5
330
0
100
AcDbSymbolTable
 70
     1
  0
LTYPE
  5
14
330
5
100
AcDbSymbolTableRecord
100
AcDbLinetypeTableRecord
  2
ByBlock
 70
     0
  3

 72
    65
 73
     0
 40
0.0
  0
LTYPE
  5
15
330
5
100
AcDbSymbolTableRecord
100
AcDbLinetypeTableRecord
  2
ByLayer
 70
     0
  3

 72
    65
 73
     0
 40
0.0
  0
LTYPE
  5
16
330
5
100
AcDbSymbolTableRecord
100
AcDbLinetypeTableRecord
  2
Continuous
 70
     0
  3
Solid line
 72
    65
 73
     0
 40
0.0
  0
ENDTAB
  0
TABLE
  2
LAYER
  5
2
330
0
100
AcDbSymbolTable
 70
     1
  0
LAYER
  5
10
330
2
100
AcDbSymbolTableRecord
100
AcDbLayerTableRecord
  2
0
 70
     0
 62
   106
  6
Continuous
370
     0
390
F
  0
ENDTAB
  0
TABLE
  2
STYLE
  5
3
330
0
100
AcDbSymbolTable
 70
     4
  0
STYLE
  5
11
330
3
100
AcDbSymbolTableRecord
100
AcDbTextStyleTableRecord
  2
Standard
 70
     0
 40
0.0
 41
1.0
 50
0.0
 71
     0
 42
2.5
  3
txt
  4

  0
STYLE
  5
6E
330
3
100
AcDbSymbolTableRecord
100
AcDbTextStyleTableRecord
  2
Default
 70
     0
 40
0.0
 41
1.0
 50
0.0
 71
     0
 42
2.5
  3

  4

1001
ACAD
1000
txt
1071
        0
  0
STYLE
  5
6F
330
3
100
AcDbSymbolTableRecord
100
AcDbTextStyleTableRecord
  2
ISO
 70
     0
 40
0.0
 41
1.0
 50
0.0
 71
     0
 42
2.5
  3

  4

1001
ACAD
1000
txt
1071
        0
  0
STYLE
  5
70
330
3
100
AcDbSymbolTableRecord
100
AcDbTextStyleTableRecord
  2
zucchetti
 70
     0
 40
0.0
 41
1.0
 50
0.0
 71
     0
 42
2.5
  3

  4

1001
ACAD
1000
Arial
1071
        0
  0
ENDTAB
  0
TABLE
  2
VIEW
  5
6
330
0
100
AcDbSymbolTable
 70
     0
  0
ENDTAB
  0
TABLE
  2
UCS
  5
7
330
0
100
AcDbSymbolTable
 70
     0
  0
ENDTAB
  0
TABLE
  2
APPID
  5
9
330
0
100
AcDbSymbolTable
 70
     2
  0
APPID
  5
12
330
9
100
AcDbSymbolTableRecord
100
AcDbRegAppTableRecord
  2
ACAD
 70
     0
  0
APPID
  5
4B3
330
9
100
AcDbSymbolTableRecord
100
AcDbRegAppTableRecord
  2
ACAD_MLEADERVER
 70
     0
  0
ENDTAB
  0
TABLE
  2
DIMSTYLE
  5
A
330
0
100
AcDbSymbolTable
 70
     4
100
AcDbDimStyleTable
  0
DIMSTYLE
105
27
330
A
100
AcDbSymbolTableRecord
100
AcDbDimStyleTableRecord
  2
ISO-25
 70
     0
 41
2.5
 42
0.625
 43
3.75
 44
1.25
 73
     0
 74
     0
 77
     1
 78
     8
140
2.5
141
2.5
143
0.03937
147
0.625
171
     3
172
     1
178
     0
271
     2
272
     2
274
     3
278
    44
283
     0
284
     8
340
11
  0
DIMSTYLE
105
71
330
A
100
AcDbSymbolTableRecord
100
AcDbDimStyleTableRecord
  2
Default
 70
     0
  3
<>
 41
4.375
 42
1.05
 44
2.1
 73
     0
 74
     0
 77
     1
 78
     8
140
3.5
146
0.4
147
1.75
172
     1
271
     2
178
     3
271
     2
272
     3
284
     8
340
6E
341
72
342
72
  0
DIMSTYLE
105
79
330
A
100
AcDbSymbolTableRecord
100
AcDbDimStyleTableRecord
  2
ISO
 70
     0
  3
<>
 41
4.375
 42
1.05
 44
2.1
 73
     0
 74
     0
 77
     1
 78
     8
140
3.5
146
0.4
147
1.75
172
     1
271
     2
178
     3
271
     2
272
     3
284
     8
340
6F
341
72
342
72
  0
DIMSTYLE
105
7A
330
A
100
AcDbSymbolTableRecord
100
AcDbDimStyleTableRecord
  2
zucchetti
 70
     0
  3
<>
 41
3.0
 42
0.9
 44
1.8
 73
     0
 74
     0
 77
     1
 78
     8
140
3.0
146
0.6
147
1.5
172
     1
176
     3
177
     3
271
     2
178
     3
271
     2
272
     2
284
     8
340
70
  0
ENDTAB
  0
TABLE
  2
BLOCK_RECORD
  5
1
330
0
100
AcDbSymbolTable
 70
     6
  0
BLOCK_RECORD
  5
1F
330
1
100
AcDbSymbolTableRecord
100
AcDbBlockTableRecord
  2
*Model_Space
340
22
  0
BLOCK_RECORD
  5
1B
330
1
100
AcDbSymbolTableRecord
100
AcDbBlockTableRecord
  2
*Paper_Space
340
1E
  0
BLOCK_RECORD
  5
23
330
1
100
AcDbSymbolTableRecord
100
AcDbBlockTableRecord
  2
*Paper_Space0
340
26
  0
BLOCK_RECORD
  5
72
330
1
100
AcDbSymbolTableRecord
100
AcDbBlockTableRecord
  2
_Closed
340
0
  0
BLOCK_RECORD
  5
7B
330
1
100
AcDbSymbolTableRecord
100
AcDbBlockTableRecord
  2
a
340
0
102
{BLKREFS
331
176
102
}
  0
BLOCK_RECORD
  5
177
330
1
100
AcDbSymbolTableRecord
100
AcDbBlockTableRecord
  2
b
340
0
102
{BLKREFS
331
26F
102
}
  0
BLOCK_RECORD
  5
270
330
1
100
AcDbSymbolTableRecord
100
AcDbBlockTableRecord
  2
c
340
0
102
{BLKREFS
331
375
102
}
  0
BLOCK_RECORD
  5
376
330
1
100
AcDbSymbolTableRecord
100
AcDbBlockTableRecord
  2
d
340
0
102
{BLKREFS
331
46D
102
}
  0
ENDTAB
  0
ENDSEC
  0
SECTION
  2
BLOCKS
  0
BLOCK
  5
20
330
1F
100
AcDbEntity
  8
0
100
AcDbBlockBegin
  2
*Model_Space
 70
     0
 10
0.0
 20
0.0
 30
0.0
  3
*Model_Space
  1

  0
ENDBLK
  5
21
330
1F
100
AcDbEntity
  8
0
100
AcDbBlockEnd
  0
BLOCK
  5
1C
330
1B
100
AcDbEntity
 67
     1
  8
0
100
AcDbBlockBegin
  2
*Paper_Space
 70
     0
 10
0.0
 20
0.0
 30
0.0
  3
*Paper_Space
  1

  0
ENDBLK
  5
1D
330
1B
100
AcDbEntity
 67
     1
  8
0
100
AcDbBlockEnd
  0
BLOCK
  5
24
330
23
100
AcDbEntity
  8
0
100
AcDbBlockBegin
  2
*Paper_Space0
 70
     0
 10
0.0
 20
0.0
 30
0.0
  3
*Paper_Space0
  1

  0
ENDBLK
  5
25
330
23
100
AcDbEntity
  8
0
100
AcDbBlockEnd
  0
BLOCK
  5
73
330
72
100
AcDbEntity
  8
0
100
AcDbBlockBegin
  2
_Closed
 70
     0
 10
0.0
 20
0.0
 30
0.0
  3
_Closed
  1

  0
LINE
  5
75
330
72
100
AcDbEntity
  8
0
  6
ByBlock
 62
     0
370
    -2
100
AcDbLine
 10
-1.0
 20
0.166667
 30
0.0
 11
0.0
 21
0.0
 31
0.0
  0
LINE
  5
76
330
72
100
AcDbEntity
  8
0
  6
ByBlock
 62
     0
370
    -2
100
AcDbLine
 10
0.0
 20
0.0
 30
0.0
 11
-1.0
 21
-0.166667
 31
0.0
  0
LINE
  5
77
330
72
100
AcDbEntity
  8
0
  6
ByBlock
 62
     0
370
    -2
100
AcDbLine
 10
-1.0
 20
0.166667
 30
0.0
 11
-1.0
 21
-0.166667
 31
0.0
  0
LINE
  5
78
330
72
100
AcDbEntity
  8
0
  6
ByBlock
 62
     0
370
    -2
100
AcDbLine
 10
0.0
 20
0.0
 30
0.0
 11
-1.0
 21
0.0
 31
0.0
  0
ENDBLK
  5
74
330
72
100
AcDbEntity
  8
0
100
AcDbBlockEnd
  0
BLOCK
  5
174
330
7B
100
AcDbEntity
  8
0
100
AcDbBlockBegin
  2
a
 70
     0
 10
227.498749
 20
120.475082
 30
0.0
  3
a
  1

  0
ARC
  5
7C
330
7B
100
AcDbEntity
  8
0
  6
Continuous
 62
     0
370
    30
100
AcDbCircle
 10
326.858727
 20
443.474829
 30
0.0
 40
22.00000000013718
100
AcDbArc
 50
201.6
 51
204.15148
  0
ARC
  5
7D
330
7B
100
AcDbEntity
  8
0
  6
Continuous
 62
     0
370
    30
100
AcDbCircle
 10
326.858727
 20
443.474829
 30
0.0
 40
21.99999999997394
100
AcDbArc
 50
88.437194
 51
90.0
  0
ARC
  5
7E
330
7B
100
AcDbEntity
  8
0
  6
Continuous
 62
     0
370
    30
100
AcDbCircle
 10
326.858727
 20
443.474829
 30
0.0
 40
21.99999999999667
100
AcDbArc
 50
78.705663
 51
88.437194
  0
ARC
  5
7F
330
7B
100
AcDbEntity
  8
0
  6
Continuous
 62
     0
370
    30
100
AcDbCircle
 10
326.858727
 20
443.474829
 30
0.0
 40
22.00000000000816
100
AcDbArc
 50
75.580051
 51
78.705663
  0
ARC
  5
80
330
7B
100
AcDbEntity
  8
0
  6
Continuous
 62
     0
370
    30
100
AcDbCircle
 10
326.858727
 20
443.474829
 30
0.0
 40
22.00000000000032
100
AcDbArc
 50
65.84852
 51
75.580051
  0
ARC
  5
81
330
7B
100
AcDbEntity
  8
0
  6
Continuous
 62
     0
370
    30
100
AcDbCircle
 10
326.858727
 20
443.474829
 30
0.0
 40
22.00000000003035
100
AcDbArc
 50
62.722908
 51
65.84852
  0
ARC
  5
82
330
7B
100
AcDbEntity
  8
0
  6
Continuous
 62
     0
370
    30
100
AcDbCircle
 10
326.858727
 20
443.474829
 30
0.0
 40
22.00000000000286
100
AcDbArc
 50
52.991377
 51
62.722908
  0
ARC
  5
83
330
7B
100
AcDbEntity
  8
0
  6
Continuous
 62
     0
370
    30
100
AcDbCircle
 10
326.858727
 20
443.474829
 30
0.0
 40
21.99999999999769
100
AcDbArc
 50
49.865765
 51
52.991377
  0
ARC
  5
84
330
7B
100
AcDbEntity
  8
0
  6
Continuous
 62
     0
370
    30
100
AcDbCircle
 10
326.858727
 20
443.474829
 30
0.0
 40
22.00000000000387
100
AcDbArc
 50
40.134235
 51
49.865765
  0
ARC
  5
85
330
7B
100
AcDbEntity
  8
0
  6
Continuous
 62
     0
370
    30
100
AcDbCircle
 10
326.858727
 20
443.474829
 30
0.0
 40
22.00000000001506
100
AcDbArc
 50
37.008623
 51
40.134235
  0
ARC
  5
86
330
7B
100
AcDbEntity
  8
0
  6
Continuous
 62
     0
370
    30
100
AcDbCircle
 10
326.858727
 20
443.474829
 30
0.0
 40
22.0000000000038
100
AcDbArc
 50
27.277092
 51
37.008623
  0
ARC
  5
87
330
7B
100
AcDbEntity
  8
0
  6
Continuous
 62
     0
370
    30
100
AcDbCircle
 10
326.858727
 20
443.474829
 30
0.0
 40
22.00000000003951
100
AcDbArc
 50
24.15148
 51
27.277092
  0
ARC
  5
88
330
7B
100
AcDbEntity
  8
0
  6
Continuous
 62
     0
370
    30
100
AcDbCircle
 10
326.858727
 20
443.474829
 30
0.0
 40
22.00000000000218
100
AcDbArc
 50
14.419949
 51
24.15148
  0
ARC
  5
89
330
7B
100
AcDbEntity
  8
0
  6
Continuous
 62
     0
370
    30
100
AcDbCircle
 10
326.858727
 20
443.474829
 30
0.0
 40
22.00000000003964
100
AcDbArc
 50
11.294337
 51
14.419949
  0
ARC
  5
8A
330
7B
100
AcDbEntity
  8
0
  6
Continuous
 62
     0
370
    30
100
AcDbCircle
 10
326.858727
 20
443.474829
 30
0.0
 40
21.99999999999575
100
AcDbArc
 50
1.562806
 51
11.294337
  0
ARC
  5
8B
330
7B
100
AcDbEntity
  8
0
  6
Continuous
 62
     0
370
    30
100
AcDbCircle
 10
326.858727
 20
443.474829
 30
0.0
 40
22.00000000009378
100
AcDbArc
 50
358.437194
 51
1.562806
  0
ARC
  5
8C
330
7B
100
AcDbEntity
  8
0
  6
Continuous
 62
     0
370
    30
100
AcDbCircle
 10
326.858727
 20
443.474829
 30
0.0
 40
21.99999999999555
100
AcDbArc
 50
348.705663
 51
358.437194
  0
ARC
  5
8D
330
7B
100
AcDbEntity
  8
0
  6
Continuous
 62
     0
370
    30
100
AcDbCircle
 10
326.858727
 20
443.474829
 30
0.0
 40
21.99999999997675
100
AcDbArc
 50
345.580051
 51
348.705663
  0
ARC
  5
8E
330
7B
100
AcDbEntity
  8
0
  6
Continuous
 62
     0
370
    30
100
AcDbCircle
 10
326.858727
 20
443.474829
 30
0.0
 40
22.00000000000348
100
AcDbArc
 50
335.84852
 51
345.580051
  0
ARC
  5
8F
330
7B
100
AcDbEntity
  8
0
  6
Continuous
 62
     0
370
    30
100
AcDbCircle
 10
326.858727
 20
443.474829
 30
0.0
 40
22.00000000002455
100
AcDbArc
 50
332.722908
 51
335.84852
  0
ARC
  5
90
330
7B
100
AcDbEntity
  8
0
  6
Continuous
 62
     0
370
    30
100
AcDbCircle
 10
326.858727
 20
443.474829
 30
0.0
 40
22.0000000000049
100
AcDbArc
 50
322.991377
 51
332.722908
  0
ARC
  5
91
330
7B
100
AcDbEntity
  8
0
  6
Continuous
 62
     0
370
    30
100
AcDbCircle
 10
326.858727
 20
443.474829
 30
0.0
 40
22.0000000000764
100
AcDbArc
 50
319.865765
 51
322.991377
  0
ARC
  5
92
330
7B
100
AcDbEntity
  8
0
  6
Continuous
 62
     0
370
    30
100
AcDbCircle
 10
326.858727
 20
443.474829
 30
0.0
 40
22.00000000000872
100
AcDbArc
 50
310.134235
 51
319.865765
  0
ARC
  5
93
330
7B
100
AcDbEntity
  8
0
  6
Continuous
 62
     0
370
    30
100
AcDbCircle
 10
326.858727
 20
443.474829
 30
0.0
 40
21.99999999996842
100
AcDbArc
 50
307.008623
 51
310.134235
  0
ARC
  5
94
330
7B
100
AcDbEntity
  8
0
  6
Continuous
 62
     0
370
    30
100
AcDbCircle
 10
326.858727
 20
443.474829
 30
0.0
 40
22.00000000000467
100
AcDbArc
 50
297.277092
 51
307.008623
  0
ARC
  5
95
330
7B
100
AcDbEntity
  8
0
  6
Continuous
 62
     0
370
    30
100
AcDbCircle
 10
326.858727
 20
443.474829
 30
0.0
 40
22.00000000003188
100
AcDbArc
 50
294.15148
 51
297.277092
  0
ARC
  5
96
330
7B
100
AcDbEntity
  8
0
  6
Continuous
 62
     0
370
    30
100
AcDbCircle
 10
326.858727
 20
443.474829
 30
0.0
 40
21.99999999999832
100
AcDbArc
 50
284.419949
 51
294.15148
  0
ARC
  5
97
330
7B
100
AcDbEntity
  8
0
  6
Continuous
 62
     0
370
    30
100
AcDbCircle
 10
326.858727
 20
443.474829
 30
0.0
 40
21.99999999997092
100
AcDbArc
 50
281.294337
 51
284.419949
  0
ARC
  5
98
330
7B
100
AcDbEntity
  8
0
  6
Continuous
 62
     0
370
    30
100
AcDbCircle
 10
326.858727
 20
443.474829
 30
0.0
 40
22.00000000000026
100
AcDbArc
 50
271.562806
 51
281.294337
  0
ARC
  5
99
330
7B
100
AcDbEntity
  8
0
  6
Continuous
 62
     0
370
    30
100
AcDbCircle
 10
326.858727
 20
443.474829
 30
0.0
 40
22.00000000003052
100
AcDbArc
 50
268.437194
 51
271.562806
  0
ARC
  5
9A
330
7B
100
AcDbEntity
  8
0
  6
Continuous
 62
     0
370
    30
100
AcDbCircle
 10
326.858727
 20
443.474829
 30
0.0
 40
22.00000000000151
100
AcDbArc
 50
258.705663
 51
268.437194
  0
ARC
  5
9B
330
7B
100
AcDbEntity
  8
0
  6
Continuous
 62
     0
370
    30
100
AcDbCircle
 10
326.858727
 20
443.474829
 30
0.0
 40
21.9999999999816
100
AcDbArc
 50
255.580051
 51
258.705663
  0
ARC
  5
9C
330
7B
100
AcDbEntity
  8
0
  6
Continuous
 62
     0
370
    30
100
AcDbCircle
 10
326.858727
 20
443.474829
 30
0.0
 40
21.99999999999681
100
AcDbArc
 50
245.84852
 51
255.580051
  0
ARC
  5
9D
330
7B
100
AcDbEntity
  8
0
  6
Continuous
 62
     0
370
    30
100
AcDbCircle
 10
326.858727
 20
443.474829
 30
0.0
 40
22.00000000002313
100
AcDbArc
 50
242.722908
 51
245.84852
  0
ARC
  5
9E
330
7B
100
AcDbEntity
  8
0
  6
Continuous
 62
     0
370
    30
100
AcDbCircle
 10
326.858727
 20
443.474829
 30
0.0
 40
22.00000000000373
100
AcDbArc
 50
232.991377
 51
242.722908
  0
ARC
  5
9F
330
7B
100
AcDbEntity
  8
0
  6
Continuous
 62
     0
370
    30
100
AcDbCircle
 10
326.858727
 20
443.474829
 30
0.0
 40
22.0000000000662
100
AcDbArc
 50
229.865765
 51
232.991377
  0
ARC
  5
A0
330
7B
100
AcDbEntity
  8
0
  6
Continuous
 62
     0
370
    30
100
AcDbCircle
 10
326.858727
 20
443.474829
 30
0.0
 40
22.00000000000007
100
AcDbArc
 50
220.134235
 51
229.865765
  0
ARC
  5
A1
330
7B
100
AcDbEntity
  8
0
  6
Continuous
 62
     0
370
    30
100
AcDbCircle
 10
326.858727
 20
443.474829
 30
0.0
 40
21.99999999999742
100
AcDbArc
 50
217.008623
 51
220.134235
  0
ARC
  5
A2
330
7B
100
AcDbEntity
  8
0
  6
Continuous
 62
     0
370
    30
100
AcDbCircle
 10
326.858727
 20
443.474829
 30
0.0
 40
21.99999999998781
100
AcDbArc
 50
207.277092
 51
217.008623
  0
ARC
  5
A3
330
7B
100
AcDbEntity
  8
0
  6
Continuous
 62
     0
370
    30
100
AcDbCircle
 10
326.858727
 20
443.474829
 30
0.0
 40
21.99999999999338
100
AcDbArc
 50
204.15148
 51
207.277092
  0
ARC
  5
A4
330
7B
100
AcDbEntity
  8
0
  6
Continuous
 62
     0
370
    30
100
AcDbCircle
 10
326.858727
 20
443.474829
 30
0.0
 40
21.99999999999024
100
AcDbArc
 50
194.419949
 51
201.6
  0
ARC
  5
A5
330
7B
100
AcDbEntity
  8
0
  6
Continuous
 62
     0
370
    30
100
AcDbCircle
 10
326.858727
 20
443.474829
 30
0.0
 40
21.99999999998539
100
AcDbArc
 50
191.294337
 51
194.419949
  0
ARC
  5
A6
330
7B
100
AcDbEntity
  8
0
  6
Continuous
 62
     0
370
    30
100
AcDbCircle
 10
326.858727
 20
443.474829
 30
0.0
 40
21.99999999999459
100
AcDbArc
 50
181.562806
 51
191.294337
  0
ARC
  5
A7
330
7B
100
AcDbEntity
  8
0
  6
Continuous
 62
     0
370
    30
100
AcDbCircle
 10
326.858727
 20
443.474829
 30
0.0
 40
22.00000000002667
100
AcDbArc
 50
178.437194
 51
181.562806
  0
ARC
  5
A8
330
7B
100
AcDbEntity
  8
0
  6
Continuous
 62
     0
370
    30
100
AcDbCircle
 10
326.858727
 20
443.474829
 30
0.0
 40
21.99999999999517
100
AcDbArc
 50
168.705663
 51
178.437194
  0
ARC
  5
A9
330
7B
100
AcDbEntity
  8
0
  6
Continuous
 62
     0
370
    30
100
AcDbCircle
 10
326.858727
 20
443.474829
 30
0.0
 40
22.00000000001172
100
AcDbArc
 50
165.580051
 51
168.705663
  0
ARC
  5
AA
330
7B
100
AcDbEntity
  8
0
  6
Continuous
 62
     0
370
    30
100
AcDbCircle
 10
326.858727
 20
443.474829
 30
0.0
 40
22.0000000000028
100
AcDbArc
 50
155.84852
 51
165.580051
  0
ARC
  5
AB
330
7B
100
AcDbEntity
  8
0
  6
Continuous
 62
     0
370
    30
100
AcDbCircle
 10
326.858727
 20
443.474829
 30
0.0
 40
21.99999999995835
100
AcDbArc
 50
152.722908
 51
155.84852
  0
ARC
  5
AC
330
7B
100
AcDbEntity
  8
0
  6
Continuous
 62
     0
370
    30
100
AcDbCircle
 10
326.858727
 20
443.474829
 30
0.0
 40
21.99999999999515
100
AcDbArc
 50
142.991377
 51
152.722908
  0
ARC
  5
AD
330
7B
100
AcDbEntity
  8
0
  6
Continuous
 62
     0
370
    30
100
AcDbCircle
 10
326.858727
 20
443.474829
 30
0.0
 40
22.00000000003273
100
AcDbArc
 50
139.865765
 51
142.991377
  0
ARC
  5
AE
330
7B
100
AcDbEntity
  8
0
  6
Continuous
 62
     0
370
    30
100
AcDbCircle
 10
326.858727
 20
443.474829
 30
0.0
 40
21.99999999999042
100
AcDbArc
 50
130.134235
 51
139.865765
  0
ARC
  5
AF
330
7B
100
AcDbEntity
  8
0
  6
Continuous
 62
     0
370
    30
100
AcDbCircle
 10
326.858727
 20
443.474829
 30
0.0
 40
22.00000000005279
100
AcDbArc
 50
127.008623
 51
130.134235
  0
ARC
  5
B0
330
7B
100
AcDbEntity
  8
0
  6
Continuous
 62
     0
370
    30
100
AcDbCircle
 10
326.858727
 20
443.474829
 30
0.0
 40
22.00000000000408
100
AcDbArc
 50
117.277092
 51
127.008623
  0
ARC
  5
B1
330
7B
100
AcDbEntity
  8
0
  6
Continuous
 62
     0
370
    30
100
AcDbCircle
 10
326.858727
 20
443.474829
 30
0.0
 40
22.000000000039
100
AcDbArc
 50
114.15148
 51
117.277092
  0
ARC
  5
B2
330
7B
100
AcDbEntity
  8
0
  6
Continuous
 62
     0
370
    30
100
AcDbCircle
 10
326.858727
 20
443.474829
 30
0.0
 40
22.00000000000066
100
AcDbArc
 50
104.419949
 51
114.15148
  0
ARC
  5
B3
330
7B
100
AcDbEntity
  8
0
  6
Continuous
 62
     0
370
    30
100
AcDbCircle
 10
326.858727
 20
443.474829
 30
0.0
 40
22.00000000001245
100
AcDbArc
 50
101.294337
 51
104.419949
  0
ARC
  5
B4
330
7B
100
AcDbEntity
  8
0
  6
Continuous
 62
     0
370
    30
100
AcDbCircle
 10
326.858727
 20
443.474829
 30
0.0
 40
21.99999999999789
100
AcDbArc
 50
91.562806
 51
101.294337
  0
ARC
  5
B5
330
7B
100
AcDbEntity
  8
0
  6
Continuous
 62
     0
370
    30
100
AcDbCircle
 10
326.858727
 20
443.474829
 30
0.0
 40
21.99999999997489
100
AcDbArc
 50
90.0
 51
91.562806
  0
ARC
  5
B6
330
7B
100
AcDbEntity
  8
0
  6
Continuous
 62
     0
370
    30
100
AcDbCircle
 10
326.858727
 20
443.474829
 30
0.0
 40
21.50000000000066
100
AcDbArc
 50
282.857143
 51
295.714286
  0
ARC
  5
B7
330
7B
100
AcDbEntity
  8
0
  6
Continuous
 62
     0
370
    30
100
AcDbCircle
 10
326.858727
 20
443.474829
 30
0.0
 40
21.49999999999999
100
AcDbArc
 50
295.714286
 51
308.571429
  0
ARC
  5
B8
330
7B
100
AcDbEntity
  8
0
  6
Continuous
 62
     0
370
    30
100
AcDbCircle
 10
326.858727
 20
443.474829
 30
0.0
 40
21.50000000000299
100
AcDbArc
 50
308.571429
 51
321.428571
  0
ARC
  5
B9
330
7B
100
AcDbEntity
  8
0
  6
Continuous
 62
     0
370
    30
100
AcDbCircle
 10
326.858727
 20
443.474829
 30
0.0
 40
21.50000000000329
100
AcDbArc
 50
321.428571
 51
334.285714
  0
ARC
  5
BA
330
7B
100
AcDbEntity
  8
0
  6
Continuous
 62
     0
370
    30
100
AcDbCircle
 10
326.858727
 20
443.474829
 30
0.0
 40
21.50000000000146
100
AcDbArc
 50
334.285714
 51
347.142857
  0
ARC
  5
BB
330
7B
100
AcDbEntity
  8
0
  6
Continuous
 62
     0
370
    30
100
AcDbCircle
 10
326.858727
 20
443.474829
 30
0.0
 40
21.50000000000018
100
AcDbArc
 50
347.142857
 51
360.0
  0
ARC
  5
BC
330
7B
100
AcDbEntity
  8
0
  6
Continuous
 62
     0
370
    30
100
AcDbCircle
 10
326.858727
 20
443.474829
 30
0.0
 40
21.49999999999876
100
AcDbArc
 50
360.0
 51
12.857143
  0
ARC
  5
BD
330
7B
100
AcDbEntity
  8
0
  6
Continuous
 62
     0
370
    30
100
AcDbCircle
 10
326.858727
 20
443.474829
 30
0.0
 40
21.50000000000075
100
AcDbArc
 50
12.857143
 51
25.714286
  0
ARC
  5
BE
330
7B
100
AcDbEntity
  8
0
  6
Continuous
 62
     0
370
    30
100
AcDbCircle
 10
326.858727
 20
443.474829
 30
0.0
 40
21.50000000000187
100
AcDbArc
 50
25.714286
 51
38.571429
  0
ARC
  5
BF
330
7B
100
AcDbEntity
  8
0
  6
Continuous
 62
     0
370
    30
100
AcDbCircle
 10
326.858727
 20
443.474829
 30
0.0
 40
21.5000000000018
100
AcDbArc
 50
38.571429
 51
51.428571
  0
ARC
  5
C0
330
7B
100
AcDbEntity
  8
0
  6
Continuous
 62
     0
370
    30
100
AcDbCircle
 10
326.858727
 20
443.474829
 30
0.0
 40
21.50000000000019
100
AcDbArc
 50
51.428571
 51
64.285714
  0
ARC
  5
C1
330
7B
100
AcDbEntity
  8
0
  6
Continuous
 62
     0
370
    30
100
AcDbCircle
 10
326.858727
 20
443.474829
 30
0.0
 40
21.49999999999837
100
AcDbArc
 50
64.285714
 51
77.142857
  0
ARC
  5
C2
330
7B
100
AcDbEntity
  8
0
  6
Continuous
 62
     0
370
    30
100
AcDbCircle
 10
326.858727
 20
443.474829
 30
0.0
 40
21.50000000000061
100
AcDbArc
 50
77.142857
 51
90.0
  0
ARC
  5
C3
330
7B
100
AcDbEntity
  8
0
  6
Continuous
 62
     0
370
    30
100
AcDbCircle
 10
326.858727
 20
443.474829
 30
0.0
 40
21.4999999999981
100
AcDbArc
 50
90.0
 51
102.857143
  0
ARC
  5
C4
330
7B
100
AcDbEntity
  8
0
  6
Continuous
 62
     0
370
    30
100
AcDbCircle
 10
326.858727
 20
443.474829
 30
0.0
 40
21.49999999999777
100
AcDbArc
 50
102.857143
 51
115.714286
  0
ARC
  5
C5
330
7B
100
AcDbEntity
  8
0
  6
Continuous
 62
     0
370
    30
100
AcDbCircle
 10
326.858727
 20
443.474829
 30
0.0
 40
21.4999999999994
100
AcDbArc
 50
115.714286
 51
128.571429
  0
ARC
  5
C6
330
7B
100
AcDbEntity
  8
0
  6
Continuous
 62
     0
370
    30
100
AcDbCircle
 10
326.858727
 20
443.474829
 30
0.0
 40
21.49999999999277
100
AcDbArc
 50
128.571429
 51
141.428571
  0
ARC
  5
C7
330
7B
100
AcDbEntity
  8
0
  6
Continuous
 62
     0
370
    30
100
AcDbCircle
 10
326.858727
 20
443.474829
 30
0.0
 40
21.49999999999839
100
AcDbArc
 50
141.428571
 51
154.285714
  0
ARC
  5
C8
330
7B
100
AcDbEntity
  8
0
  6
Continuous
 62
     0
370
    30
100
AcDbCircle
 10
326.858727
 20
443.474829
 30
0.0
 40
21.49999999999631
100
AcDbArc
 50
154.285714
 51
167.142857
  0
ARC
  5
C9
330
7B
100
AcDbEntity
  8
0
  6
Continuous
 62
     0
370
    30
100
AcDbCircle
 10
326.858727
 20
443.474829
 30
0.0
 40
21.49999999999479
100
AcDbArc
 50
167.142857
 51
180.0
  0
ARC
  5
CA
330
7B
100
AcDbEntity
  8
0
  6
Continuous
 62
     0
370
    30
100
AcDbCircle
 10
326.858727
 20
443.474829
 30
0.0
 40
21.49999999999576
100
AcDbArc
 50
180.0
 51
192.857143
  0
ARC
  5
CB
330
7B
100
AcDbEntity
  8
0
  6
Continuous
 62
     0
370
    30
100
AcDbCircle
 10
326.858727
 20
443.474829
 30
0.0
 40
21.49999999999741
100
AcDbArc
 50
192.857143
 51
205.714286
  0
ARC
  5
CC
330
7B
100
AcDbEntity
  8
0
  6
Continuous
 62
     0
370
    30
100
AcDbCircle
 10
326.858727
 20
443.474829
 30
0.0
 40
21.49999999999998
100
AcDbArc
 50
205.714286
 51
218.571429
  0
ARC
  5
CD
330
7B
100
AcDbEntity
  8
0
  6
Continuous
 62
     0
370
    30
100
AcDbCircle
 10
326.858727
 20
443.474829
 30
0.0
 40
21.50000000000254
100
AcDbArc
 50
218.571429
 51
231.428571
  0
ARC
  5
CE
330
7B
100
AcDbEntity
  8
0
  6
Continuous
 62
     0
370
    30
100
AcDbCircle
 10
326.858727
 20
443.474829
 30
0.0
 40
21.50000000000097
100
AcDbArc
 50
231.428571
 51
244.285714
  0
ARC
  5
CF
330
7B
100
AcDbEntity
  8
0
  6
Continuous
 62
     0
370
    30
100
AcDbCircle
 10
326.858727
 20
443.474829
 30
0.0
 40
21.50000000000029
100
AcDbArc
 50
244.285714
 51
257.142857
  0
ARC
  5
D0
330
7B
100
AcDbEntity
  8
0
  6
Continuous
 62
     0
370
    30
100
AcDbCircle
 10
326.858727
 20
443.474829
 30
0.0
 40
21.49999999999452
100
AcDbArc
 50
257.142857
 51
270.0
  0
ARC
  5
D1
330
7B
100
AcDbEntity
  8
0
  6
Continuous
 62
     0
370
    30
100
AcDbCircle
 10
326.858727
 20
443.474829
 30
0.0
 40
21.50000000000379
100
AcDbArc
 50
270.0
 51
282.857143
  0
LINE
  5
D2
330
7B
100
AcDbEntity
  8
0
  6
Continuous
 62
     0
370
    30
100
AcDbLine
 10
327.458727
 20
421.974829
 30
0.0
 11
326.858727
 21
421.974829
 31
0.0
  0
LINE
  5
D3
330
7B
100
AcDbEntity
  8
0
  6
Continuous
 62
     0
370
    30
100
AcDbLine
 10
326.858727
 20
421.974829
 30
0.0
 11
326.258727
 21
421.974829
 31
0.0
  0
LINE
  5
D4
330
7B
100
AcDbEntity
  8
0
  6
Continuous
 62
     0
370
     0
100
AcDbLine
 10
326.258727
 20
421.867139
 30
0.0
 11
327.458727
 21
421.867139
 31
0.0
  0
LINE
  5
D5
330
7B
100
AcDbEntity
  8
0
  6
Continuous
 62
     0
370
    30
100
AcDbLine
 10
327.458727
 20
421.483012
 30
0.0
 11
327.458727
 21
421.974829
 31
0.0
  0
LINE
  5
D6
330
7B
100
AcDbEntity
  8
0
  6
Continuous
 62
     0
370
    30
100
AcDbLine
 10
326.258727
 20
421.974829
 30
0.0
 11
326.258727
 21
421.483012
 31
0.0
  0
LINE
  5
D7
330
7B
100
AcDbEntity
  8
0
  6
Continuous
 62
     0
370
    30
100
AcDbLine
 10
331.16741
 20
421.900881
 30
0.0
 11
331.05797
 21
422.380366
 31
0.0
  0
LINE
  5
D8
330
7B
100
AcDbEntity
  8
0
  6
Continuous
 62
     0
370
    30
100
AcDbLine
 10
331.05797
 20
422.380366
 30
0.0
 11
331.642927
 21
422.513879
 31
0.0
  0
LINE
  5
D9
330
7B
100
AcDbEntity
  8
0
  6
Continuous
 62
     0
370
    30
100
AcDbLine
 10
322.074527
 20
422.513879
 30
0.0
 11
322.659483
 21
422.380366
 31
0.0
  0
LINE
  5
DA
330
7B
100
AcDbEntity
  8
0
  6
Continuous
 62
     0
370
    30
100
AcDbLine
 10
322.659483
 20
422.380366
 30
0.0
 11
322.550044
 21
421.900881
 31
0.0
  0
LINE
  5
DB
330
7B
100
AcDbEntity
  8
0
  6
Continuous
 62
     0
370
    30
100
AcDbLine
 10
335.860037
 20
423.400557
 30
0.0
 11
335.646646
 21
423.843668
 31
0.0
  0
LINE
  5
DC
330
7B
100
AcDbEntity
  8
0
  6
Continuous
 62
     0
370
    30
100
AcDbLine
 10
335.646646
 20
423.843668
 30
0.0
 11
336.187227
 21
424.103998
 31
0.0
  0
LINE
  5
DD
330
7B
100
AcDbEntity
  8
0
  6
Continuous
 62
     0
370
    30
100
AcDbLine
 10
331.642927
 20
422.513879
 30
0.0
 11
332.227884
 21
422.647392
 31
0.0
  0
LINE
  5
DE
330
7B
100
AcDbEntity
  8
0
  6
Continuous
 62
     0
370
    30
100
AcDbLine
 10
332.227884
 20
422.647392
 30
0.0
 11
332.337323
 21
422.167906
 31
0.0
  0
LINE
  5
DF
330
7B
100
AcDbEntity
  8
0
  6
Continuous
 62
     0
370
    30
100
AcDbLine
 10
340.101301
 20
425.906841
 30
0.0
 11
339.794659
 21
426.291358
 31
0.0
  0
LINE
  5
E0
330
7B
100
AcDbEntity
  8
0
  6
Continuous
 62
     0
370
    30
100
AcDbLine
 10
339.794659
 20
426.291358
 30
0.0
 11
340.263758
 21
426.665452
 31
0.0
  0
LINE
  5
E1
330
7B
100
AcDbEntity
  8
0
  6
Continuous
 62
     0
370
    30
100
AcDbLine
 10
336.187227
 20
424.103998
 30
0.0
 11
336.727809
 21
424.364329
 31
0.0
  0
LINE
  5
E2
330
7B
100
AcDbEntity
  8
0
  6
Continuous
 62
     0
370
    30
100
AcDbLine
 10
336.727809
 20
424.364329
 30
0.0
 11
336.9412
 21
423.921217
 31
0.0
  0
LINE
  5
E3
330
7B
100
AcDbEntity
  8
0
  6
Continuous
 62
     0
370
    30
100
AcDbLine
 10
343.678528
 20
429.294057
 30
0.0
 11
343.29401
 21
429.600699
 31
0.0
  0
LINE
  5
E4
330
7B
100
AcDbEntity
  8
0
  6
Continuous
 62
     0
370
    30
100
AcDbLine
 10
343.29401
 20
429.600699
 30
0.0
 11
343.668104
 21
430.069798
 31
0.0
  0
LINE
  5
E5
330
7B
100
AcDbEntity
  8
0
  6
Continuous
 62
     0
370
    30
100
AcDbLine
 10
340.263758
 20
426.665452
 30
0.0
 11
340.732856
 21
427.039546
 31
0.0
  0
LINE
  5
E6
330
7B
100
AcDbEntity
  8
0
  6
Continuous
 62
     0
370
    30
100
AcDbLine
 10
340.732856
 20
427.039546
 30
0.0
 11
341.039499
 21
426.655028
 31
0.0
  0
LINE
  5
E7
330
7B
100
AcDbEntity
  8
0
  6
Continuous
 62
     0
370
    30
100
AcDbLine
 10
346.412339
 20
433.392356
 30
0.0
 11
345.969227
 21
433.605747
 31
0.0
  0
LINE
  5
E8
330
7B
100
AcDbEntity
  8
0
  6
Continuous
 62
     0
370
    30
100
AcDbLine
 10
345.969227
 20
433.605747
 30
0.0
 11
346.229557
 21
434.146329
 31
0.0
  0
LINE
  5
E9
330
7B
100
AcDbEntity
  8
0
  6
Continuous
 62
     0
370
    30
100
AcDbLine
 10
343.668104
 20
430.069798
 30
0.0
 11
344.042198
 21
430.538897
 31
0.0
  0
LINE
  5
EA
330
7B
100
AcDbEntity
  8
0
  6
Continuous
 62
     0
370
    30
100
AcDbLine
 10
344.042198
 20
430.538897
 30
0.0
 11
344.426715
 21
430.232255
 31
0.0
  0
LINE
  5
EB
330
7B
100
AcDbEntity
  8
0
  6
Continuous
 62
     0
370
    30
100
AcDbLine
 10
348.16565
 20
437.996233
 30
0.0
 11
347.686164
 21
438.105672
 31
0.0
  0
LINE
  5
EC
330
7B
100
AcDbEntity
  8
0
  6
Continuous
 62
     0
370
    30
100
AcDbLine
 10
347.686164
 20
438.105672
 30
0.0
 11
347.819677
 21
438.690629
 31
0.0
  0
LINE
  5
ED
330
7B
100
AcDbEntity
  8
0
  6
Continuous
 62
     0
370
    30
100
AcDbLine
 10
346.229557
 20
434.146329
 30
0.0
 11
346.489888
 21
434.68691
 31
0.0
  0
LINE
  5
EE
330
7B
100
AcDbEntity
  8
0
  6
Continuous
 62
     0
370
    30
100
AcDbLine
 10
346.489888
 20
434.68691
 30
0.0
 11
346.932999
 21
434.473519
 31
0.0
  0
LINE
  5
EF
330
7B
100
AcDbEntity
  8
0
  6
Continuous
 62
     0
370
    30
100
AcDbLine
 10
348.850543
 20
442.874829
 30
0.0
 11
348.358727
 21
442.874829
 31
0.0
  0
LINE
  5
F0
330
7B
100
AcDbEntity
  8
0
  6
Continuous
 62
     0
370
    30
100
AcDbLine
 10
348.358727
 20
442.874829
 30
0.0
 11
348.358727
 21
443.474829
 31
0.0
  0
LINE
  5
F1
330
7B
100
AcDbEntity
  8
0
  6
Continuous
 62
     0
370
    30
100
AcDbLine
 10
347.819677
 20
438.690629
 30
0.0
 11
347.95319
 21
439.275586
 31
0.0
  0
LINE
  5
F2
330
7B
100
AcDbEntity
  8
0
  6
Continuous
 62
     0
370
    30
100
AcDbLine
 10
347.95319
 20
439.275586
 30
0.0
 11
348.432675
 21
439.166146
 31
0.0
  0
LINE
  5
F3
330
7B
100
AcDbEntity
  8
0
  6
Continuous
 62
     0
370
    30
100
AcDbLine
 10
348.432675
 20
447.783512
 30
0.0
 11
347.95319
 21
447.674072
 31
0.0
  0
LINE
  5
F4
330
7B
100
AcDbEntity
  8
0
  6
Continuous
 62
     0
370
    30
100
AcDbLine
 10
347.95319
 20
447.674072
 30
0.0
 11
347.819677
 21
448.259029
 31
0.0
  0
LINE
  5
F5
330
7B
100
AcDbEntity
  8
0
  6
Continuous
 62
     0
370
    30
100
AcDbLine
 10
348.358727
 20
443.474829
 30
0.0
 11
348.358727
 21
444.074829
 31
0.0
  0
LINE
  5
F6
330
7B
100
AcDbEntity
  8
0
  6
Continuous
 62
     0
370
    30
100
AcDbLine
 10
348.358727
 20
444.074829
 30
0.0
 11
348.850543
 21
444.074829
 31
0.0
  0
LINE
  5
F7
330
7B
100
AcDbEntity
  8
0
  6
Continuous
 62
     0
370
    30
100
AcDbLine
 10
346.932999
 20
452.476139
 30
0.0
 11
346.489888
 21
452.262748
 31
0.0
  0
LINE
  5
F8
330
7B
100
AcDbEntity
  8
0
  6
Continuous
 62
     0
370
    30
100
AcDbLine
 10
346.489888
 20
452.262748
 30
0.0
 11
346.229557
 21
452.803329
 31
0.0
  0
LINE
  5
F9
330
7B
100
AcDbEntity
  8
0
  6
Continuous
 62
     0
370
    30
100
AcDbLine
 10
347.819677
 20
448.259029
 30
0.0
 11
347.686164
 21
448.843986
 31
0.0
  0
LINE
  5
FA
330
7B
100
AcDbEntity
  8
0
  6
Continuous
 62
     0
370
    30
100
AcDbLine
 10
347.686164
 20
448.843986
 30
0.0
 11
348.16565
 21
448.953425
 31
0.0
  0
LINE
  5
FB
330
7B
100
AcDbEntity
  8
0
  6
Continuous
 62
     0
370
    30
100
AcDbLine
 10
344.426715
 20
456.717404
 30
0.0
 11
344.042198
 21
456.410761
 31
0.0
  0
LINE
  5
FC
330
7B
100
AcDbEntity
  8
0
  6
Continuous
 62
     0
370
    30
100
AcDbLine
 10
344.042198
 20
456.410761
 30
0.0
 11
343.668104
 21
456.87986
 31
0.0
  0
LINE
  5
FD
330
7B
100
AcDbEntity
  8
0
  6
Continuous
 62
     0
370
    30
100
AcDbLine
 10
346.229557
 20
452.803329
 30
0.0
 11
345.969227
 21
453.343911
 31
0.0
  0
LINE
  5
FE
330
7B
100
AcDbEntity
  8
0
  6
Continuous
 62
     0
370
    30
100
AcDbLine
 10
345.969227
 20
453.343911
 30
0.0
 11
346.412339
 21
453.557302
 31
0.0
  0
LINE
  5
FF
330
7B
100
AcDbEntity
  8
0
  6
Continuous
 62
     0
370
    30
100
AcDbLine
 10
341.039499
 20
460.29463
 30
0.0
 11
340.732856
 21
459.910112
 31
0.0
  0
LINE
  5
100
330
7B
100
AcDbEntity
  8
0
  6
Continuous
 62
     0
370
    30
100
AcDbLine
 10
340.732856
 20
459.910112
 30
0.0
 11
340.263758
 21
460.284206
 31
0.0
  0
LINE
  5
101
330
7B
100
AcDbEntity
  8
0
  6
Continuous
 62
     0
370
    30
100
AcDbLine
 10
343.668104
 20
456.87986
 30
0.0
 11
343.29401
 21
457.348959
 31
0.0
  0
LINE
  5
102
330
7B
100
AcDbEntity
  8
0
  6
Continuous
 62
     0
370
    30
100
AcDbLine
 10
343.29401
 20
457.348959
 30
0.0
 11
343.678528
 21
457.655601
 31
0.0
  0
LINE
  5
103
330
7B
100
AcDbEntity
  8
0
  6
Continuous
 62
     0
370
    30
100
AcDbLine
 10
336.9412
 20
463.028441
 30
0.0
 11
336.727809
 21
462.58533
 31
0.0
  0
LINE
  5
104
330
7B
100
AcDbEntity
  8
0
  6
Continuous
 62
     0
370
    30
100
AcDbLine
 10
336.727809
 20
462.58533
 30
0.0
 11
336.187227
 21
462.84566
 31
0.0
  0
LINE
  5
105
330
7B
100
AcDbEntity
  8
0
  6
Continuous
 62
     0
370
    30
100
AcDbLine
 10
340.263758
 20
460.284206
 30
0.0
 11
339.794659
 21
460.6583
 31
0.0
  0
LINE
  5
106
330
7B
100
AcDbEntity
  8
0
  6
Continuous
 62
     0
370
    30
100
AcDbLine
 10
339.794659
 20
460.6583
 30
0.0
 11
340.101301
 21
461.042818
 31
0.0
  0
LINE
  5
107
330
7B
100
AcDbEntity
  8
0
  6
Continuous
 62
     0
370
    30
100
AcDbLine
 10
332.337323
 20
464.781752
 30
0.0
 11
332.227884
 21
464.302267
 31
0.0
  0
LINE
  5
108
330
7B
100
AcDbEntity
  8
0
  6
Continuous
 62
     0
370
    30
100
AcDbLine
 10
332.227884
 20
464.302267
 30
0.0
 11
331.642927
 21
464.435779
 31
0.0
  0
LINE
  5
109
330
7B
100
AcDbEntity
  8
0
  6
Continuous
 62
     0
370
    30
100
AcDbLine
 10
336.187227
 20
462.84566
 30
0.0
 11
335.646646
 21
463.10599
 31
0.0
  0
LINE
  5
10A
330
7B
100
AcDbEntity
  8
0
  6
Continuous
 62
     0
370
    30
100
AcDbLine
 10
335.646646
 20
463.10599
 30
0.0
 11
335.860037
 21
463.549101
 31
0.0
  0
LINE
  5
10B
330
7B
100
AcDbEntity
  8
0
  6
Continuous
 62
     0
370
    30
100
AcDbLine
 10
327.458727
 20
465.466646
 30
0.0
 11
327.458727
 21
464.974829
 31
0.0
  0
LINE
  5
10C
330
7B
100
AcDbEntity
  8
0
  6
Continuous
 62
     0
370
    30
100
AcDbLine
 10
327.458727
 20
464.974829
 30
0.0
 11
326.858727
 21
464.974829
 31
0.0
  0
LINE
  5
10D
330
7B
100
AcDbEntity
  8
0
  6
Continuous
 62
     0
370
    30
100
AcDbLine
 10
331.642927
 20
464.435779
 30
0.0
 11
331.05797
 21
464.569292
 31
0.0
  0
LINE
  5
10E
330
7B
100
AcDbEntity
  8
0
  6
Continuous
 62
     0
370
    30
100
AcDbLine
 10
331.05797
 20
464.569292
 30
0.0
 11
331.16741
 21
465.048778
 31
0.0
  0
LINE
  5
10F
330
7B
100
AcDbEntity
  8
0
  6
Continuous
 62
     0
370
    30
100
AcDbLine
 10
326.858727
 20
464.974829
 30
0.0
 11
326.258727
 21
464.974829
 31
0.0
  0
LINE
  5
110
330
7B
100
AcDbEntity
  8
0
  6
Continuous
 62
     0
370
    30
100
AcDbLine
 10
326.258727
 20
464.974829
 30
0.0
 11
326.258727
 21
465.466646
 31
0.0
  0
LINE
  5
111
330
7B
100
AcDbEntity
  8
0
  6
Continuous
 62
     0
370
    30
100
AcDbLine
 10
322.550044
 20
465.048778
 30
0.0
 11
322.659483
 21
464.569292
 31
0.0
  0
LINE
  5
112
330
7B
100
AcDbEntity
  8
0
  6
Continuous
 62
     0
370
    30
100
AcDbLine
 10
322.659483
 20
464.569292
 30
0.0
 11
322.074527
 21
464.435779
 31
0.0
  0
LINE
  5
113
330
7B
100
AcDbEntity
  8
0
  6
Continuous
 62
     0
370
    30
100
AcDbLine
 10
317.857417
 20
463.549101
 30
0.0
 11
318.070808
 21
463.10599
 31
0.0
  0
LINE
  5
114
330
7B
100
AcDbEntity
  8
0
  6
Continuous
 62
     0
370
    30
100
AcDbLine
 10
318.070808
 20
463.10599
 30
0.0
 11
317.530226
 21
462.84566
 31
0.0
  0
LINE
  5
115
330
7B
100
AcDbEntity
  8
0
  6
Continuous
 62
     0
370
    30
100
AcDbLine
 10
322.074527
 20
464.435779
 30
0.0
 11
321.48957
 21
464.302267
 31
0.0
  0
LINE
  5
116
330
7B
100
AcDbEntity
  8
0
  6
Continuous
 62
     0
370
    30
100
AcDbLine
 10
321.48957
 20
464.302267
 30
0.0
 11
321.380131
 21
464.781752
 31
0.0
  0
LINE
  5
117
330
7B
100
AcDbEntity
  8
0
  6
Continuous
 62
     0
370
    30
100
AcDbLine
 10
313.616152
 20
461.042818
 30
0.0
 11
313.922795
 21
460.6583
 31
0.0
  0
LINE
  5
118
330
7B
100
AcDbEntity
  8
0
  6
Continuous
 62
     0
370
    30
100
AcDbLine
 10
313.922795
 20
460.6583
 30
0.0
 11
313.453696
 21
460.284206
 31
0.0
  0
LINE
  5
119
330
7B
100
AcDbEntity
  8
0
  6
Continuous
 62
     0
370
    30
100
AcDbLine
 10
317.530226
 20
462.84566
 30
0.0
 11
316.989645
 21
462.58533
 31
0.0
  0
LINE
  5
11A
330
7B
100
AcDbEntity
  8
0
  6
Continuous
 62
     0
370
    30
100
AcDbLine
 10
316.989645
 20
462.58533
 30
0.0
 11
316.776254
 21
463.028441
 31
0.0
  0
LINE
  5
11B
330
7B
100
AcDbEntity
  8
0
  6
Continuous
 62
     0
370
    30
100
AcDbLine
 10
310.038926
 20
457.655601
 30
0.0
 11
310.423444
 21
457.348959
 31
0.0
  0
LINE
  5
11C
330
7B
100
AcDbEntity
  8
0
  6
Continuous
 62
     0
370
    30
100
AcDbLine
 10
310.423444
 20
457.348959
 30
0.0
 11
310.04935
 21
456.87986
 31
0.0
  0
LINE
  5
11D
330
7B
100
AcDbEntity
  8
0
  6
Continuous
 62
     0
370
    30
100
AcDbLine
 10
313.453696
 20
460.284206
 30
0.0
 11
312.984597
 21
459.910112
 31
0.0
  0
LINE
  5
11E
330
7B
100
AcDbEntity
  8
0
  6
Continuous
 62
     0
370
    30
100
AcDbLine
 10
312.984597
 20
459.910112
 30
0.0
 11
312.677955
 21
460.29463
 31
0.0
  0
LINE
  5
11F
330
7B
100
AcDbEntity
  8
0
  6
Continuous
 62
     0
370
    30
100
AcDbLine
 10
307.305115
 20
453.557302
 30
0.0
 11
307.748226
 21
453.343911
 31
0.0
  0
LINE
  5
120
330
7B
100
AcDbEntity
  8
0
  6
Continuous
 62
     0
370
    30
100
AcDbLine
 10
307.748226
 20
453.343911
 30
0.0
 11
307.487896
 21
452.803329
 31
0.0
  0
LINE
  5
121
330
7B
100
AcDbEntity
  8
0
  6
Continuous
 62
     0
370
    30
100
AcDbLine
 10
310.04935
 20
456.87986
 30
0.0
 11
309.675256
 21
456.410761
 31
0.0
  0
LINE
  5
122
330
7B
100
AcDbEntity
  8
0
  6
Continuous
 62
     0
370
    30
100
AcDbLine
 10
309.675256
 20
456.410761
 30
0.0
 11
309.290738
 21
456.717404
 31
0.0
  0
LINE
  5
123
330
7B
100
AcDbEntity
  8
0
  6
Continuous
 62
     0
370
    30
100
AcDbLine
 10
305.551803
 20
448.953425
 30
0.0
 11
306.031289
 21
448.843986
 31
0.0
  0
LINE
  5
124
330
7B
100
AcDbEntity
  8
0
  6
Continuous
 62
     0
370
    30
100
AcDbLine
 10
306.031289
 20
448.843986
 30
0.0
 11
305.897777
 21
448.259029
 31
0.0
  0
LINE
  5
125
330
7B
100
AcDbEntity
  8
0
  6
Continuous
 62
     0
370
    30
100
AcDbLine
 10
307.487896
 20
452.803329
 30
0.0
 11
307.227566
 21
452.262748
 31
0.0
  0
LINE
  5
126
330
7B
100
AcDbEntity
  8
0
  6
Continuous
 62
     0
370
    30
100
AcDbLine
 10
307.227566
 20
452.262748
 30
0.0
 11
306.784454
 21
452.476139
 31
0.0
  0
LINE
  5
127
330
7B
100
AcDbEntity
  8
0
  6
Continuous
 62
     0
370
    30
100
AcDbLine
 10
304.86691
 20
444.074829
 30
0.0
 11
305.358727
 21
444.074829
 31
0.0
  0
LINE
  5
128
330
7B
100
AcDbEntity
  8
0
  6
Continuous
 62
     0
370
    30
100
AcDbLine
 10
305.358727
 20
444.074829
 30
0.0
 11
305.358727
 21
443.474829
 31
0.0
  0
LINE
  5
129
330
7B
100
AcDbEntity
  8
0
  6
Continuous
 62
     0
370
    30
100
AcDbLine
 10
305.897777
 20
448.259029
 30
0.0
 11
305.764264
 21
447.674072
 31
0.0
  0
LINE
  5
12A
330
7B
100
AcDbEntity
  8
0
  6
Continuous
 62
     0
370
    30
100
AcDbLine
 10
305.764264
 20
447.674072
 30
0.0
 11
305.284778
 21
447.783512
 31
0.0
  0
LINE
  5
12B
330
7B
100
AcDbEntity
  8
0
  6
Continuous
 62
     0
370
    30
100
AcDbLine
 10
305.284778
 20
439.166146
 30
0.0
 11
305.764264
 21
439.275586
 31
0.0
  0
LINE
  5
12C
330
7B
100
AcDbEntity
  8
0
  6
Continuous
 62
     0
370
    30
100
AcDbLine
 10
305.764264
 20
439.275586
 30
0.0
 11
305.897777
 21
438.690629
 31
0.0
  0
LINE
  5
12D
330
7B
100
AcDbEntity
  8
0
  6
Continuous
 62
     0
370
    30
100
AcDbLine
 10
305.358727
 20
443.474829
 30
0.0
 11
305.358727
 21
442.874829
 31
0.0
  0
LINE
  5
12E
330
7B
100
AcDbEntity
  8
0
  6
Continuous
 62
     0
370
    30
100
AcDbLine
 10
305.358727
 20
442.874829
 30
0.0
 11
304.86691
 21
442.874829
 31
0.0
  0
LINE
  5
12F
330
7B
100
AcDbEntity
  8
0
  6
Continuous
 62
     0
370
    30
100
AcDbLine
 10
306.784454
 20
434.473519
 30
0.0
 11
307.227566
 21
434.68691
 31
0.0
  0
LINE
  5
130
330
7B
100
AcDbEntity
  8
0
  6
Continuous
 62
     0
370
    30
100
AcDbLine
 10
307.227566
 20
434.68691
 30
0.0
 11
307.487896
 21
434.146329
 31
0.0
  0
LINE
  5
131
330
7B
100
AcDbEntity
  8
0
  6
Continuous
 62
     0
370
    30
100
AcDbLine
 10
305.897777
 20
438.690629
 30
0.0
 11
306.031289
 21
438.105672
 31
0.0
  0
LINE
  5
132
330
7B
100
AcDbEntity
  8
0
  6
Continuous
 62
     0
370
    30
100
AcDbLine
 10
306.031289
 20
438.105672
 30
0.0
 11
305.551803
 21
437.996233
 31
0.0
  0
LINE
  5
133
330
7B
100
AcDbEntity
  8
0
  6
Continuous
 62
     0
370
    30
100
AcDbLine
 10
309.290738
 20
430.232255
 30
0.0
 11
309.675256
 21
430.538897
 31
0.0
  0
LINE
  5
134
330
7B
100
AcDbEntity
  8
0
  6
Continuous
 62
     0
370
    30
100
AcDbLine
 10
309.675256
 20
430.538897
 30
0.0
 11
310.04935
 21
430.069798
 31
0.0
  0
LINE
  5
135
330
7B
100
AcDbEntity
  8
0
  6
Continuous
 62
     0
370
    30
100
AcDbLine
 10
307.487896
 20
434.146329
 30
0.0
 11
307.748226
 21
433.605747
 31
0.0
  0
LINE
  5
136
330
7B
100
AcDbEntity
  8
0
  6
Continuous
 62
     0
370
    30
100
AcDbLine
 10
307.748226
 20
433.605747
 30
0.0
 11
307.305115
 21
433.392356
 31
0.0
  0
LINE
  5
137
330
7B
100
AcDbEntity
  8
0
  6
Continuous
 62
     0
370
    30
100
AcDbLine
 10
312.677955
 20
426.655028
 30
0.0
 11
312.984597
 21
427.039546
 31
0.0
  0
LINE
  5
138
330
7B
100
AcDbEntity
  8
0
  6
Continuous
 62
     0
370
    30
100
AcDbLine
 10
312.984597
 20
427.039546
 30
0.0
 11
313.453696
 21
426.665452
 31
0.0
  0
LINE
  5
139
330
7B
100
AcDbEntity
  8
0
  6
Continuous
 62
     0
370
    30
100
AcDbLine
 10
310.04935
 20
430.069798
 30
0.0
 11
310.423444
 21
429.600699
 31
0.0
  0
LINE
  5
13A
330
7B
100
AcDbEntity
  8
0
  6
Continuous
 62
     0
370
    30
100
AcDbLine
 10
310.423444
 20
429.600699
 30
0.0
 11
310.038926
 21
429.294057
 31
0.0
  0
LINE
  5
13B
330
7B
100
AcDbEntity
  8
0
  6
Continuous
 62
     0
370
    30
100
AcDbLine
 10
316.776254
 20
423.921217
 30
0.0
 11
316.989645
 21
424.364329
 31
0.0
  0
LINE
  5
13C
330
7B
100
AcDbEntity
  8
0
  6
Continuous
 62
     0
370
    30
100
AcDbLine
 10
316.989645
 20
424.364329
 30
0.0
 11
317.530226
 21
424.103998
 31
0.0
  0
LINE
  5
13D
330
7B
100
AcDbEntity
  8
0
  6
Continuous
 62
     0
370
    30
100
AcDbLine
 10
313.453696
 20
426.665452
 30
0.0
 11
313.922795
 21
426.291358
 31
0.0
  0
LINE
  5
13E
330
7B
100
AcDbEntity
  8
0
  6
Continuous
 62
     0
370
    30
100
AcDbLine
 10
313.922795
 20
426.291358
 30
0.0
 11
313.616152
 21
425.906841
 31
0.0
  0
LINE
  5
13F
330
7B
100
AcDbEntity
  8
0
  6
Continuous
 62
     0
370
    30
100
AcDbLine
 10
321.380131
 20
422.167906
 30
0.0
 11
321.48957
 21
422.647392
 31
0.0
  0
LINE
  5
140
330
7B
100
AcDbEntity
  8
0
  6
Continuous
 62
     0
370
    30
100
AcDbLine
 10
321.48957
 20
422.647392
 30
0.0
 11
322.074527
 21
422.513879
 31
0.0
  0
LINE
  5
141
330
7B
100
AcDbEntity
  8
0
  6
Continuous
 62
     0
370
    30
100
AcDbLine
 10
317.530226
 20
424.103998
 30
0.0
 11
318.070808
 21
423.843668
 31
0.0
  0
LINE
  5
142
330
7B
100
AcDbEntity
  8
0
  6
Continuous
 62
     0
370
    30
100
AcDbLine
 10
318.070808
 20
423.843668
 30
0.0
 11
317.857417
 21
423.400557
 31
0.0
  0
LINE
  5
143
330
7B
100
AcDbEntity
  8
0
  6
Continuous
 62
     0
370
     0
100
AcDbLine
 10
331.081934
 20
422.275376
 30
0.0
 11
332.251847
 21
422.542401
 31
0.0
  0
LINE
  5
144
330
7B
100
AcDbEntity
  8
0
  6
Continuous
 62
     0
370
     0
100
AcDbLine
 10
335.693371
 20
423.746643
 30
0.0
 11
336.774534
 21
424.267303
 31
0.0
  0
LINE
  5
145
330
7B
100
AcDbEntity
  8
0
  6
Continuous
 62
     0
370
     0
100
AcDbLine
 10
339.861802
 20
426.207163
 30
0.0
 11
340.8
 21
426.95535
 31
0.0
  0
LINE
  5
146
330
7B
100
AcDbEntity
  8
0
  6
Continuous
 62
     0
370
     0
100
AcDbLine
 10
343.378205
 20
429.533556
 30
0.0
 11
344.126393
 21
430.471753
 31
0.0
  0
LINE
  5
147
330
7B
100
AcDbEntity
  8
0
  6
Continuous
 62
     0
370
     0
100
AcDbLine
 10
346.066253
 20
433.559022
 30
0.0
 11
346.586913
 21
434.640185
 31
0.0
  0
LINE
  5
148
330
7B
100
AcDbEntity
  8
0
  6
Continuous
 62
     0
370
     0
100
AcDbLine
 10
347.791155
 20
438.081709
 30
0.0
 11
348.05818
 21
439.251622
 31
0.0
  0
LINE
  5
149
330
7B
100
AcDbEntity
  8
0
  6
Continuous
 62
     0
370
     0
100
AcDbLine
 10
348.466417
 20
442.874829
 30
0.0
 11
348.466417
 21
444.074829
 31
0.0
  0
LINE
  5
14A
330
7B
100
AcDbEntity
  8
0
  6
Continuous
 62
     0
370
     0
100
AcDbLine
 10
348.05818
 20
447.698036
 30
0.0
 11
347.791155
 21
448.867949
 31
0.0
  0
LINE
  5
14B
330
7B
100
AcDbEntity
  8
0
  6
Continuous
 62
     0
370
     0
100
AcDbLine
 10
346.586913
 20
452.309473
 30
0.0
 11
346.066253
 21
453.390636
 31
0.0
  0
LINE
  5
14C
330
7B
100
AcDbEntity
  8
0
  6
Continuous
 62
     0
370
     0
100
AcDbLine
 10
344.126393
 20
456.477905
 30
0.0
 11
343.378205
 21
457.416103
 31
0.0
  0
LINE
  5
14D
330
7B
100
AcDbEntity
  8
0
  6
Continuous
 62
     0
370
     0
100
AcDbLine
 10
340.8
 20
459.994308
 30
0.0
 11
339.861802
 21
460.742496
 31
0.0
  0
LINE
  5
14E
330
7B
100
AcDbEntity
  8
0
  6
Continuous
 62
     0
370
     0
100
AcDbLine
 10
336.774534
 20
462.682355
 30
0.0
 11
335.693371
 21
463.203016
 31
0.0
  0
LINE
  5
14F
330
7B
100
AcDbEntity
  8
0
  6
Continuous
 62
     0
370
     0
100
AcDbLine
 10
332.251847
 20
464.407257
 30
0.0
 11
331.081934
 21
464.674282
 31
0.0
  0
LINE
  5
150
330
7B
100
AcDbEntity
  8
0
  6
Continuous
 62
     0
370
     0
100
AcDbLine
 10
322.63552
 20
464.674282
 30
0.0
 11
321.465607
 21
464.407257
 31
0.0
  0
LINE
  5
151
330
7B
100
AcDbEntity
  8
0
  6
Continuous
 62
     0
370
     0
100
AcDbLine
 10
318.024083
 20
463.203016
 30
0.0
 11
316.94292
 21
462.682355
 31
0.0
  0
LINE
  5
152
330
7B
100
AcDbEntity
  8
0
  6
Continuous
 62
     0
370
     0
100
AcDbLine
 10
313.855651
 20
460.742496
 30
0.0
 11
312.917453
 21
459.994308
 31
0.0
  0
LINE
  5
153
330
7B
100
AcDbEntity
  8
0
  6
Continuous
 62
     0
370
     0
100
AcDbLine
 10
310.339248
 20
457.416103
 30
0.0
 11
309.59106
 21
456.477905
 31
0.0
  0
LINE
  5
154
330
7B
100
AcDbEntity
  8
0
  6
Continuous
 62
     0
370
     0
100
AcDbLine
 10
307.651201
 20
453.390636
 30
0.0
 11
307.13054
 21
452.309473
 31
0.0
  0
LINE
  5
155
330
7B
100
AcDbEntity
  8
0
  6
Continuous
 62
     0
370
     0
100
AcDbLine
 10
305.926299
 20
448.867949
 30
0.0
 11
305.659274
 21
447.698036
 31
0.0
  0
LINE
  5
156
330
7B
100
AcDbEntity
  8
0
  6
Continuous
 62
     0
370
     0
100
AcDbLine
 10
305.251037
 20
444.074829
 30
0.0
 11
305.251037
 21
442.874829
 31
0.0
  0
LINE
  5
157
330
7B
100
AcDbEntity
  8
0
  6
Continuous
 62
     0
370
     0
100
AcDbLine
 10
305.659274
 20
439.251622
 30
0.0
 11
305.926299
 21
438.081709
 31
0.0
  0
LINE
  5
158
330
7B
100
AcDbEntity
  8
0
  6
Continuous
 62
     0
370
     0
100
AcDbLine
 10
307.13054
 20
434.640185
 30
0.0
 11
307.651201
 21
433.559022
 31
0.0
  0
LINE
  5
159
330
7B
100
AcDbEntity
  8
0
  6
Continuous
 62
     0
370
     0
100
AcDbLine
 10
309.59106
 20
430.471753
 30
0.0
 11
310.339248
 21
429.533556
 31
0.0
  0
LINE
  5
15A
330
7B
100
AcDbEntity
  8
0
  6
Continuous
 62
     0
370
     0
100
AcDbLine
 10
312.917453
 20
426.95535
 30
0.0
 11
313.855651
 21
426.207163
 31
0.0
  0
LINE
  5
15B
330
7B
100
AcDbEntity
  8
0
  6
Continuous
 62
     0
370
     0
100
AcDbLine
 10
316.94292
 20
424.267303
 30
0.0
 11
318.024083
 21
423.746643
 31
0.0
  0
LINE
  5
15C
330
7B
100
AcDbEntity
  8
0
  6
Continuous
 62
     0
370
     0
100
AcDbLine
 10
321.465607
 20
422.542401
 30
0.0
 11
322.63552
 21
422.275376
 31
0.0
  0
LINE
  5
15D
330
7B
100
AcDbEntity
  8
0
  6
Continuous
 62
     0
370
     0
100
AcDbLine
 10
327.458727
 20
465.086637
 30
0.0
 11
326.258727
 21
465.086637
 31
0.0
  0
ARC
  5
15E
330
7B
100
AcDbEntity
  8
0
  6
Continuous
 62
     0
370
    30
100
AcDbCircle
 10
326.858727
 20
443.471658
 30
0.0
 40
22.20000000000002
100
AcDbArc
 50
270.000503
 51
0.000503
  0
ARC
  5
15F
330
7B
100
AcDbEntity
  8
0
  6
Continuous
 62
     0
370
    30
100
AcDbCircle
 10
326.858727
 20
443.471658
 30
0.0
 40
22.20000000000012
100
AcDbArc
 50
0.000503
 51
90.000503
  0
ARC
  5
160
330
7B
100
AcDbEntity
  8
0
  6
Continuous
 62
     0
370
    30
100
AcDbCircle
 10
326.858727
 20
443.471658
 30
0.0
 40
22.19999999999998
100
AcDbArc
 50
90.000503
 51
270.000503
  0
ARC
  5
161
330
7B
100
AcDbEntity
  8
0
  6
Continuous
 62
     0
370
     0
100
AcDbCircle
 10
326.858727
 20
491.471657
 30
0.0
 40
10.64999998807905
100
AcDbArc
 50
22.44828
 51
202.44828
  0
ARC
  5
162
330
7B
100
AcDbEntity
  8
0
  6
Continuous
 62
     0
370
     0
100
AcDbCircle
 10
326.858727
 20
491.471657
 30
0.0
 40
10.64999998807905
100
AcDbArc
 50
202.44828
 51
22.44828
  0
LINE
  5
163
330
7B
100
AcDbEntity
  8
0
  6
Continuous
 62
     0
370
     0
100
AcDbLine
 10
317.015735
 20
487.404962
 30
0.0
 11
316.738467
 21
487.290407
 31
0.0
  0
ARC
  5
164
330
7B
100
AcDbEntity
  8
0
  6
Continuous
 62
     0
370
    30
100
AcDbCircle
 10
326.858727
 20
491.471657
 30
0.0
 40
10.95000000000002
100
AcDbArc
 50
202.44828
 51
22.44828
  0
LINE
  5
165
330
7B
100
AcDbEntity
  8
0
  6
Continuous
 62
     0
370
     0
100
AcDbLine
 10
336.978986
 20
495.652907
 30
0.0
 11
336.701719
 21
495.538352
 31
0.0
  0
ARC
  5
166
330
7B
100
AcDbEntity
  8
0
  6
Continuous
 62
     0
370
    30
100
AcDbCircle
 10
326.858727
 20
491.471657
 30
0.0
 40
10.95000000000007
100
AcDbArc
 50
22.44828
 51
112.44828
  0
ARC
  5
167
330
7B
100
AcDbEntity
  8
0
  6
Continuous
 62
     0
370
    30
100
AcDbCircle
 10
326.858727
 20
491.471657
 30
0.0
 40
10.95000000000006
100
AcDbArc
 50
112.44828
 51
202.44828
  0
LINE
  5
168
330
7B
100
AcDbEntity
  8
0
  6
Continuous
 62
     0
370
     0
100
AcDbLine
 10
326.858727
 20
480.521657
 30
0.0
 11
326.858727
 21
480.471658
 31
0.0
  0
ARC
  5
169
330
7B
100
AcDbEntity
  8
0
  6
Continuous
 62
     0
370
    30
100
AcDbCircle
 10
326.858727
 20
491.471658
 30
0.0
 40
11.0
100
AcDbArc
 50
270.0
 51
90.0
  0
LINE
  5
16A
330
7B
100
AcDbEntity
  8
0
  6
Continuous
 62
     0
370
     0
100
AcDbLine
 10
326.858727
 20
502.471658
 30
0.0
 11
326.858727
 21
502.421657
 31
0.0
  0
ARC
  5
16B
330
7B
100
AcDbEntity
  8
0
  6
Continuous
 62
     0
370
    30
100
AcDbCircle
 10
326.858727
 20
458.471558
 30
0.0
 40
69.4998997093201
100
AcDbArc
 50
270.0
 51
90.0
  0
ARC
  5
16C
330
7B
100
AcDbEntity
  8
0
  6
Continuous
 62
     0
370
    30
100
AcDbCircle
 10
326.858727
 20
458.471558
 30
0.0
 40
69.4998997093201
100
AcDbArc
 50
90.0
 51
270.0
  0
LINE
  5
16D
330
7B
100
AcDbEntity
  8
0
  6
Continuous
 62
     0
370
     0
100
AcDbLine
 10
326.858727
 20
527.971457
 30
0.0
 11
326.858727
 21
528.471457
 31
0.0
  0
ARC
  5
16E
330
7B
100
AcDbEntity
  8
0
  6
Continuous
 62
     0
370
    30
100
AcDbCircle
 10
326.858727
 20
458.471558
 30
0.0
 40
69.9998997093201
100
AcDbArc
 50
90.0
 51
180.0
  0
ARC
  5
16F
330
7B
100
AcDbEntity
  8
0
  6
Continuous
 62
     0
370
    30
100
AcDbCircle
 10
326.858727
 20
458.471558
 30
0.0
 40
69.99989970931999
100
AcDbArc
 50
180.0
 51
270.0
  0
LINE
  5
170
330
7B
100
AcDbEntity
  8
0
  6
Continuous
 62
     0
370
     0
100
AcDbLine
 10
326.858727
 20
388.471658
 30
0.0
 11
326.858727
 21
388.971658
 31
0.0
  0
ARC
  5
171
330
7B
100
AcDbEntity
  8
0
  6
Continuous
 62
     0
370
    30
100
AcDbCircle
 10
326.858727
 20
458.471558
 30
0.0
 40
69.99989970932005
100
AcDbArc
 50
270.0
 51
90.0
  0
ARC
  5
172
330
7B
100
AcDbEntity
  8
0
  6
Continuous
 62
     0
370
    30
100
AcDbCircle
 10
326.858727
 20
491.471658
 30
0.0
 40
11.00000000000006
100
AcDbArc
 50
90.0
 51
180.0
  0
ARC
  5
173
330
7B
100
AcDbEntity
  8
0
  6
Continuous
 62
     0
370
    30
100
AcDbCircle
 10
326.858727
 20
491.471658
 30
0.0
 40
10.99999999999998
100
AcDbArc
 50
180.0
 51
270.0
  0
ENDBLK
  5
175
330
7B
100
AcDbEntity
  8
0
100
AcDbBlockEnd
  0
BLOCK
  5
26D
330
177
100
AcDbEntity
  8
0
100
AcDbBlockBegin
  2
b
 70
     0
 10
227.498749
 20
251.215042
 30
0.0
  3
b
  1

  0
SPLINE
  5
178
330
177
100
AcDbEntity
  8
0
  6
Continuous
 62
     0
370
    30
100
AcDbSpline
210
0.0
220
0.0
230
1.0
 70
    12
 71
     2
 72
     6
 73
     3
 74
     0
 42
0.000000001
 43
0.0
 40
-45.1321689332418
 40
-45.1321689332418
 40
-45.1321689332418
 40
-12.40137501192337
 40
-12.40137501192337
 40
-12.40137501192337
 10
348.8587268326631
 20
295.268496409947
 30
0.0
 41
1.0
 10
348.8587268326632
 20
290.6141876870675
 30
0.0
 41
0.7875877049003557
 10
335.7587267904744
 20
288.7313082581007
 30
0.0
 41
0.8832670979065746
  0
SPLINE
  5
179
330
177
100
AcDbEntity
  8
0
  6
Continuous
 62
     0
370
     0
100
AcDbSpline
210
0.0
220
0.0
230
1.0
 70
     8
 71
     3
 72
    11
 73
     7
 74
     0
 42
0.000000001
 43
0.0
 40
5.641675042295999
 40
5.641675042295999
 40
5.641675042295999
 40
5.641675042295999
 40
5.74418998968105
 40
6.89294508620424
 40
7.65880443524045
 40
8.04173410975857
 40
8.04173410975857
 40
8.04173410975857
 40
8.04173410975857
 10
328.8794665125552
 20
276.9876486831423
 30
0.0
 10
328.8597978990916
 20
276.9606083932689
 30
0.0
 10
328.6130730423466
 20
276.6355024100793
 30
0.0
 10
328.0872684886155
 20
276.2146508685244
 30
0.0
 10
327.3551814870358
 20
275.991103560534
 30
0.0
 10
326.9828404962564
 20
275.9633567187837
 30
0.0
 10
326.8587268326631
 20
275.9633567187837
 30
0.0
  0
LINE
  5
17A
330
177
100
AcDbEntity
  8
0
  6
Continuous
 62
     0
370
     0
100
AcDbLine
 10
326.858727
 20
275.963357
 30
0.0
 11
326.858727
 21
273.958108
 31
0.0
  0
ARC
  5
17B
330
177
100
AcDbEntity
  8
0
  6
Continuous
 62
     0
370
    30
100
AcDbCircle
 10
326.855993
 20
271.199413
 30
0.0
 40
2.758696811321588
100
AcDbArc
 50
77.379931
 51
89.943216
  0
LINE
  5
17C
330
177
100
AcDbEntity
  8
0
  6
Continuous
 62
     0
370
    30
100
AcDbLine
 10
327.458727
 20
273.89146
 30
0.0
 11
327.458727
 21
249.768495
 31
0.0
  0
LINE
  5
17D
330
177
100
AcDbEntity
  8
0
  6
Continuous
 62
     0
370
    30
100
AcDbLine
 10
327.458727
 20
249.768495
 30
0.0
 11
331.16741
 21
249.768495
 31
0.0
  0
LINE
  5
17E
330
177
100
AcDbEntity
  8
0
  6
Continuous
 62
     0
370
    30
100
AcDbLine
 10
331.16741
 20
249.768495
 30
0.0
 11
331.16741
 21
276.987649
 31
0.0
  0
LINE
  5
17F
330
177
100
AcDbEntity
  8
0
  6
Continuous
 62
     0
370
    30
100
AcDbLine
 10
332.337323
 20
276.987649
 30
0.0
 11
332.337323
 21
249.768495
 31
0.0
  0
LINE
  5
180
330
177
100
AcDbEntity
  8
0
  6
Continuous
 62
     0
370
    30
100
AcDbLine
 10
332.337323
 20
249.768495
 30
0.0
 11
335.860037
 21
249.768496
 31
0.0
  0
LINE
  5
181
330
177
100
AcDbEntity
  8
0
  6
Continuous
 62
     0
370
    30
100
AcDbLine
 10
335.860037
 20
249.768496
 30
0.0
 11
335.860037
 21
276.987649
 31
0.0
  0
ARC
  5
182
330
177
100
AcDbEntity
  8
0
  6
Continuous
 62
     0
370
    30
100
AcDbCircle
 10
336.403032
 20
282.837311
 30
0.0
 40
2.164872804548814
100
AcDbArc
 50
75.605846
 51
98.959538
  0
LINE
  5
183
330
177
100
AcDbEntity
  8
0
  6
Continuous
 62
     0
370
    30
100
AcDbLine
 10
336.9412
 20
276.987649
 30
0.0
 11
336.9412
 21
249.768496
 31
0.0
  0
LINE
  5
184
330
177
100
AcDbEntity
  8
0
  6
Continuous
 62
     0
370
    30
100
AcDbLine
 10
336.9412
 20
284.934226
 30
0.0
 11
336.9412
 21
284.69522
 31
0.0
  0
LINE
  5
185
330
177
100
AcDbEntity
  8
0
  6
Continuous
 62
     0
370
    30
100
AcDbLine
 10
336.9412
 20
249.768496
 30
0.0
 11
340.101301
 21
249.768496
 31
0.0
  0
LINE
  5
186
330
177
100
AcDbEntity
  8
0
  6
Continuous
 62
     0
370
    30
100
AcDbLine
 10
340.101301
 20
249.768496
 30
0.0
 11
340.101301
 21
284.934226
 31
0.0
  0
ARC
  5
187
330
177
100
AcDbEntity
  8
0
  6
Continuous
 62
     0
370
    30
100
AcDbCircle
 10
340.5704
 20
283.348532
 30
0.0
 40
1.653626035836832
100
AcDbArc
 50
73.520103
 51
106.479901
  0
LINE
  5
188
330
177
100
AcDbEntity
  8
0
  6
Continuous
 62
     0
370
    30
100
AcDbLine
 10
341.039499
 20
284.934226
 30
0.0
 11
341.039499
 21
249.768496
 31
0.0
  0
LINE
  5
189
330
177
100
AcDbEntity
  8
0
  6
Continuous
 62
     0
370
    30
100
AcDbLine
 10
341.039499
 20
249.768496
 30
0.0
 11
343.678528
 21
249.768496
 31
0.0
  0
LINE
  5
18A
330
177
100
AcDbEntity
  8
0
  6
Continuous
 62
     0
370
    30
100
AcDbLine
 10
343.678528
 20
249.768496
 30
0.0
 11
343.678528
 21
284.934226
 31
0.0
  0
SPLINE
  5
18B
330
177
100
AcDbEntity
  8
0
  6
Continuous
 62
     0
370
    30
100
AcDbSpline
210
0.0
220
0.0
230
1.0
 70
    12
 71
     2
 72
     6
 73
     3
 74
     0
 42
0.000000001
 43
0.0
 40
-1.23082026699097
 40
-1.23082026699097
 40
-1.23082026699097
 40
0.0
 40
0.0
 40
0.0
 10
343.6785275728755
 20
284.9342258705365
 30
0.0
 41
1.0
 10
344.0654198206757
 20
285.0700995984968
 30
0.0
 41
0.9996280299930081
 10
344.4267153351059
 20
284.9342259115464
 30
0.0
 41
1.0
  0
LINE
  5
18C
330
177
100
AcDbEntity
  8
0
  6
Continuous
 62
     0
370
    30
100
AcDbLine
 10
344.426715
 20
284.934226
 30
0.0
 11
344.426715
 21
249.768496
 31
0.0
  0
LINE
  5
18D
330
177
100
AcDbEntity
  8
0
  6
Continuous
 62
     0
370
    30
100
AcDbLine
 10
344.426715
 20
249.768496
 30
0.0
 11
346.412339
 21
249.768496
 31
0.0
  0
LINE
  5
18E
330
177
100
AcDbEntity
  8
0
  6
Continuous
 62
     0
370
    30
100
AcDbLine
 10
346.412339
 20
249.768496
 30
0.0
 11
346.412339
 21
284.934226
 31
0.0
  0
SPLINE
  5
18F
330
177
100
AcDbEntity
  8
0
  6
Continuous
 62
     0
370
    30
100
AcDbSpline
210
0.0
220
0.0
230
1.0
 70
    12
 71
     2
 72
     6
 73
     3
 74
     0
 42
0.000000001
 43
0.0
 40
-1.23082026699092
 40
-1.23082026699092
 40
-1.23082026699092
 40
0.0
 40
0.0
 40
0.0
 10
346.412338748326
 20
284.9342260496788
 30
0.0
 41
1.0
 10
346.6874176047672
 20
285.0700997808995
 30
0.0
 41
0.999628029992593
 10
346.9329992352669
 20
284.934226096938
 30
0.0
 41
1.0
  0
LINE
  5
190
330
177
100
AcDbEntity
  8
0
  6
Continuous
 62
     0
370
    30
100
AcDbLine
 10
346.932999
 20
284.934226
 30
0.0
 11
346.932999
 21
249.768496
 31
0.0
  0
LINE
  5
191
330
177
100
AcDbEntity
  8
0
  6
Continuous
 62
     0
370
    30
100
AcDbLine
 10
346.932999
 20
249.768496
 30
0.0
 11
348.16565
 21
249.768496
 31
0.0
  0
LINE
  5
192
330
177
100
AcDbEntity
  8
0
  6
Continuous
 62
     0
370
    30
100
AcDbLine
 10
348.16565
 20
249.768496
 30
0.0
 11
348.16565
 21
284.934226
 31
0.0
  0
SPLINE
  5
193
330
177
100
AcDbEntity
  8
0
  6
Continuous
 62
     0
370
    30
100
AcDbSpline
210
0.0
220
0.0
230
1.0
 70
    12
 71
     2
 72
     6
 73
     3
 74
     0
 42
0.000000001
 43
0.0
 40
-1.23082026699101
 40
-1.23082026699101
 40
-1.23082026699101
 40
0.0
 40
0.0
 40
0.0
 10
348.1656501735523
 20
284.9342262509207
 30
0.0
 41
1.0
 10
348.3151220361434
 20
285.0700999842323
 30
0.0
 41
0.999628029992593
 10
348.4326752942998
 20
284.9342263020592
 30
0.0
 41
1.0
  0
LINE
  5
194
330
177
100
AcDbEntity
  8
0
  6
Continuous
 62
     0
370
    30
100
AcDbLine
 10
348.432675
 20
284.934226
 30
0.0
 11
348.432675
 21
249.768496
 31
0.0
  0
LINE
  5
195
330
177
100
AcDbEntity
  8
0
  6
Continuous
 62
     0
370
    30
100
AcDbLine
 10
348.432675
 20
249.768496
 30
0.0
 11
348.850543
 21
249.768496
 31
0.0
  0
LINE
  5
196
330
177
100
AcDbEntity
  8
0
  6
Continuous
 62
     0
370
    30
100
AcDbLine
 10
348.850543
 20
249.768496
 30
0.0
 11
348.850543
 21
284.934226
 31
0.0
  0
LINE
  5
197
330
177
100
AcDbEntity
  8
0
  6
Continuous
 62
     0
370
    30
100
AcDbLine
 10
348.850543
 20
284.934226
 30
0.0
 11
348.858727
 21
285.002151
 31
0.0
  0
LINE
  5
198
330
177
100
AcDbEntity
  8
0
  6
Continuous
 62
     0
370
    30
100
AcDbLine
 10
304.858727
 20
285.002151
 30
0.0
 11
304.86691
 21
284.934226
 31
0.0
  0
LINE
  5
199
330
177
100
AcDbEntity
  8
0
  6
Continuous
 62
     0
370
    30
100
AcDbLine
 10
304.86691
 20
284.934226
 30
0.0
 11
304.86691
 21
249.768496
 31
0.0
  0
LINE
  5
19A
330
177
100
AcDbEntity
  8
0
  6
Continuous
 62
     0
370
    30
100
AcDbLine
 10
304.86691
 20
249.768496
 30
0.0
 11
305.284778
 21
249.768496
 31
0.0
  0
LINE
  5
19B
330
177
100
AcDbEntity
  8
0
  6
Continuous
 62
     0
370
    30
100
AcDbLine
 10
305.284778
 20
249.768496
 30
0.0
 11
305.284778
 21
284.934226
 31
0.0
  0
SPLINE
  5
19C
330
177
100
AcDbEntity
  8
0
  6
Continuous
 62
     0
370
    30
100
AcDbSpline
210
0.0
220
0.0
230
1.0
 70
    12
 71
     2
 72
     6
 73
     3
 74
     0
 42
0.000000001
 43
0.0
 40
-1.23082026699098
 40
-1.23082026699098
 40
-1.23082026699098
 40
0.0
 40
0.0
 40
0.0
 10
305.2847783710264
 20
284.9342263020592
 30
0.0
 41
1.0
 10
305.4023316291828
 20
285.0700999842323
 30
0.0
 41
0.9996280299923859
 10
305.5518034917741
 20
284.9342262509207
 30
0.0
 41
1.0
  0
LINE
  5
19D
330
177
100
AcDbEntity
  8
0
  6
Continuous
 62
     0
370
    30
100
AcDbLine
 10
305.551803
 20
284.934226
 30
0.0
 11
305.551803
 21
249.768496
 31
0.0
  0
LINE
  5
19E
330
177
100
AcDbEntity
  8
0
  6
Continuous
 62
     0
370
    30
100
AcDbLine
 10
305.551803
 20
249.768496
 30
0.0
 11
306.784454
 21
249.768496
 31
0.0
  0
LINE
  5
19F
330
177
100
AcDbEntity
  8
0
  6
Continuous
 62
     0
370
    30
100
AcDbLine
 10
306.784454
 20
249.768496
 30
0.0
 11
306.784454
 21
284.934226
 31
0.0
  0
SPLINE
  5
1A0
330
177
100
AcDbEntity
  8
0
  6
Continuous
 62
     0
370
    30
100
AcDbSpline
210
0.0
220
0.0
230
1.0
 70
    12
 71
     2
 72
     6
 73
     3
 74
     0
 42
0.000000001
 43
0.0
 40
-1.230820266991
 40
-1.230820266991
 40
-1.230820266991
 40
0.0
 40
0.0
 40
0.0
 10
306.7844544300593
 20
284.934226096938
 30
0.0
 41
1.0
 10
307.0300360605588
 20
285.0700997808996
 30
0.0
 41
0.999628029992801
 10
307.3051149170004
 20
284.9342260496788
 30
0.0
 41
1.0
  0
LINE
  5
1A1
330
177
100
AcDbEntity
  8
0
  6
Continuous
 62
     0
370
    30
100
AcDbLine
 10
307.305115
 20
284.934226
 30
0.0
 11
307.305115
 21
249.768496
 31
0.0
  0
LINE
  5
1A2
330
177
100
AcDbEntity
  8
0
  6
Continuous
 62
     0
370
    30
100
AcDbLine
 10
307.305115
 20
249.768496
 30
0.0
 11
309.290738
 21
249.768496
 31
0.0
  0
LINE
  5
1A3
330
177
100
AcDbEntity
  8
0
  6
Continuous
 62
     0
370
    30
100
AcDbLine
 10
309.290738
 20
249.768496
 30
0.0
 11
309.290738
 21
284.934226
 31
0.0
  0
SPLINE
  5
1A4
330
177
100
AcDbEntity
  8
0
  6
Continuous
 62
     0
370
    30
100
AcDbSpline
210
0.0
220
0.0
230
1.0
 70
    12
 71
     2
 72
     6
 73
     3
 74
     0
 42
0.000000001
 43
0.0
 40
-1.230820266991
 40
-1.230820266991
 40
-1.230820266991
 40
0.0
 40
0.0
 40
0.0
 10
309.2907383302203
 20
284.9342259115464
 30
0.0
 41
1.0
 10
309.6520338446501
 20
285.0700995984968
 30
0.0
 41
0.999628029992801
 10
310.0389260924509
 20
284.9342258705365
 30
0.0
 41
1.0
  0
LINE
  5
1A5
330
177
100
AcDbEntity
  8
0
  6
Continuous
 62
     0
370
    30
100
AcDbLine
 10
310.038926
 20
284.934226
 30
0.0
 11
310.038926
 21
249.768496
 31
0.0
  0
LINE
  5
1A6
330
177
100
AcDbEntity
  8
0
  6
Continuous
 62
     0
370
    30
100
AcDbLine
 10
310.038926
 20
249.768496
 30
0.0
 11
312.677955
 21
249.768496
 31
0.0
  0
LINE
  5
1A7
330
177
100
AcDbEntity
  8
0
  6
Continuous
 62
     0
370
    30
100
AcDbLine
 10
312.677955
 20
249.768496
 30
0.0
 11
312.677955
 21
284.934226
 31
0.0
  0
ARC
  5
1A8
330
177
100
AcDbEntity
  8
0
  6
Continuous
 62
     0
370
    30
100
AcDbCircle
 10
313.147053
 20
283.348532
 30
0.0
 40
1.653626035838433
100
AcDbArc
 50
73.520099
 51
106.479897
  0
LINE
  5
1A9
330
177
100
AcDbEntity
  8
0
  6
Continuous
 62
     0
370
    30
100
AcDbLine
 10
313.616152
 20
284.934226
 30
0.0
 11
313.616152
 21
249.768496
 31
0.0
  0
LINE
  5
1AA
330
177
100
AcDbEntity
  8
0
  6
Continuous
 62
     0
370
    30
100
AcDbLine
 10
313.616152
 20
249.768496
 30
0.0
 11
316.776254
 21
249.768496
 31
0.0
  0
LINE
  5
1AB
330
177
100
AcDbEntity
  8
0
  6
Continuous
 62
     0
370
    30
100
AcDbLine
 10
316.776254
 20
284.69522
 30
0.0
 11
316.776254
 21
284.934226
 31
0.0
  0
LINE
  5
1AC
330
177
100
AcDbEntity
  8
0
  6
Continuous
 62
     0
370
    30
100
AcDbLine
 10
316.776254
 20
249.768496
 30
0.0
 11
316.776254
 21
276.987649
 31
0.0
  0
ARC
  5
1AD
330
177
100
AcDbEntity
  8
0
  6
Continuous
 62
     0
370
    30
100
AcDbCircle
 10
317.314422
 20
282.837313
 30
0.0
 40
2.164871376399448
100
AcDbArc
 50
81.041112
 51
104.394158
  0
LINE
  5
1AE
330
177
100
AcDbEntity
  8
0
  6
Continuous
 62
     0
370
    30
100
AcDbLine
 10
317.857417
 20
276.987649
 30
0.0
 11
317.857417
 21
249.768496
 31
0.0
  0
LINE
  5
1AF
330
177
100
AcDbEntity
  8
0
  6
Continuous
 62
     0
370
    30
100
AcDbLine
 10
317.857417
 20
249.768496
 30
0.0
 11
321.380131
 21
249.768495
 31
0.0
  0
LINE
  5
1B0
330
177
100
AcDbEntity
  8
0
  6
Continuous
 62
     0
370
    30
100
AcDbLine
 10
321.380131
 20
249.768495
 30
0.0
 11
321.380131
 21
276.987649
 31
0.0
  0
LINE
  5
1B1
330
177
100
AcDbEntity
  8
0
  6
Continuous
 62
     0
370
    30
100
AcDbLine
 10
322.550044
 20
276.987649
 30
0.0
 11
322.550044
 21
249.768495
 31
0.0
  0
LINE
  5
1B2
330
177
100
AcDbEntity
  8
0
  6
Continuous
 62
     0
370
    30
100
AcDbLine
 10
322.550044
 20
249.768495
 30
0.0
 11
326.258727
 21
249.768495
 31
0.0
  0
LINE
  5
1B3
330
177
100
AcDbEntity
  8
0
  6
Continuous
 62
     0
370
    30
100
AcDbLine
 10
326.258727
 20
249.768495
 30
0.0
 11
326.258727
 21
273.89146
 31
0.0
  0
ARC
  5
1B4
330
177
100
AcDbEntity
  8
0
  6
Continuous
 62
     0
370
    30
100
AcDbCircle
 10
326.861461
 20
271.199413
 30
0.0
 40
2.75869681133085
100
AcDbArc
 50
90.056784
 51
102.620069
  0
SPLINE
  5
1B5
330
177
100
AcDbEntity
  8
0
  6
Continuous
 62
     0
370
     0
100
AcDbSpline
210
0.0
220
0.0
230
1.0
 70
     8
 71
     3
 72
    11
 73
     7
 74
     0
 42
0.000000001
 43
0.0
 40
0.0
 40
0.0
 40
0.0
 40
0.0
 40
0.38292967451811
 40
1.14878902355434
 40
2.29754412007749
 40
2.400059067462469
 40
2.400059067462469
 40
2.400059067462469
 40
2.400059067462469
 10
326.8587268326631
 20
275.9633567187837
 30
0.0
 10
326.73461316907
 20
275.9633567187837
 30
0.0
 10
326.3622721782905
 20
275.991103560534
 30
0.0
 10
325.6301851767108
 20
276.2146508685244
 30
0.0
 10
325.1043806229798
 20
276.6355024100793
 30
0.0
 10
324.8576557662348
 20
276.960608393269
 30
0.0
 10
324.8379871527712
 20
276.9876486831423
 30
0.0
  0
SPLINE
  5
1B6
330
177
100
AcDbEntity
  8
0
  6
Continuous
 62
     0
370
    30
100
AcDbSpline
210
0.0
220
0.0
230
1.0
 70
    12
 71
     2
 72
     6
 73
     3
 74
     0
 42
0.000000001
 43
0.0
 40
-32.73079380310286
 40
-32.73079380310286
 40
-32.73079380310286
 40
0.0
 40
0.0
 40
0.0
 10
317.9587267904745
 20
288.7313082702283
 30
0.0
 41
0.8832670972154344
 10
304.8587268326632
 20
290.6141877084114
 30
0.0
 41
0.7875877056675373
 10
304.8587268326631
 20
295.268496409947
 30
0.0
 41
1.0
  0
LINE
  5
1B7
330
177
100
AcDbEntity
  8
0
  6
Continuous
 62
     0
370
    30
100
AcDbLine
 10
348.358727
 20
249.268496
 30
0.0
 11
347.819677
 21
249.268496
 31
0.0
  0
LINE
  5
1B8
330
177
100
AcDbEntity
  8
0
  6
Continuous
 62
     0
370
    30
100
AcDbLine
 10
347.819677
 20
249.268496
 30
0.0
 11
346.229557
 21
249.268496
 31
0.0
  0
LINE
  5
1B9
330
177
100
AcDbEntity
  8
0
  6
Continuous
 62
     0
370
    30
100
AcDbLine
 10
346.229557
 20
249.268496
 30
0.0
 11
343.668104
 21
249.268496
 31
0.0
  0
LINE
  5
1BA
330
177
100
AcDbEntity
  8
0
  6
Continuous
 62
     0
370
    30
100
AcDbLine
 10
343.668104
 20
249.268496
 30
0.0
 11
340.263758
 21
249.268496
 31
0.0
  0
LINE
  5
1BB
330
177
100
AcDbEntity
  8
0
  6
Continuous
 62
     0
370
    30
100
AcDbLine
 10
340.263758
 20
249.268496
 30
0.0
 11
336.187227
 21
249.268496
 31
0.0
  0
LINE
  5
1BC
330
177
100
AcDbEntity
  8
0
  6
Continuous
 62
     0
370
    30
100
AcDbLine
 10
336.187227
 20
249.268496
 30
0.0
 11
331.642927
 21
249.268495
 31
0.0
  0
LINE
  5
1BD
330
177
100
AcDbEntity
  8
0
  6
Continuous
 62
     0
370
    30
100
AcDbLine
 10
331.642927
 20
249.268495
 30
0.0
 11
326.858727
 21
249.268495
 31
0.0
  0
LINE
  5
1BE
330
177
100
AcDbEntity
  8
0
  6
Continuous
 62
     0
370
    30
100
AcDbLine
 10
326.858727
 20
249.268495
 30
0.0
 11
322.074527
 21
249.268495
 31
0.0
  0
LINE
  5
1BF
330
177
100
AcDbEntity
  8
0
  6
Continuous
 62
     0
370
    30
100
AcDbLine
 10
322.074527
 20
249.268495
 30
0.0
 11
317.530226
 21
249.268496
 31
0.0
  0
LINE
  5
1C0
330
177
100
AcDbEntity
  8
0
  6
Continuous
 62
     0
370
    30
100
AcDbLine
 10
317.530226
 20
249.268496
 30
0.0
 11
313.453696
 21
249.268496
 31
0.0
  0
LINE
  5
1C1
330
177
100
AcDbEntity
  8
0
  6
Continuous
 62
     0
370
    30
100
AcDbLine
 10
313.453696
 20
249.268496
 30
0.0
 11
310.04935
 21
249.268496
 31
0.0
  0
LINE
  5
1C2
330
177
100
AcDbEntity
  8
0
  6
Continuous
 62
     0
370
    30
100
AcDbLine
 10
310.04935
 20
249.268496
 30
0.0
 11
307.487896
 21
249.268496
 31
0.0
  0
LINE
  5
1C3
330
177
100
AcDbEntity
  8
0
  6
Continuous
 62
     0
370
    30
100
AcDbLine
 10
307.487896
 20
249.268496
 30
0.0
 11
305.897777
 21
249.268496
 31
0.0
  0
LINE
  5
1C4
330
177
100
AcDbEntity
  8
0
  6
Continuous
 62
     0
370
    30
100
AcDbLine
 10
305.897777
 20
249.268496
 30
0.0
 11
305.358727
 21
249.268496
 31
0.0
  0
LINE
  5
1C5
330
177
100
AcDbEntity
  8
0
  6
Continuous
 62
     0
370
    30
100
AcDbLine
 10
348.432675
 20
249.768496
 30
0.0
 11
347.95319
 21
249.276867
 31
0.0
  0
ARC
  5
1C6
330
177
100
AcDbEntity
  8
0
  6
Continuous
 62
     0
370
    30
100
AcDbCircle
 10
347.819467
 20
250.340812
 30
0.0
 40
1.072316255934686
100
AcDbArc
 50
270.011196
 51
277.163661
  0
LINE
  5
1C7
330
177
100
AcDbEntity
  8
0
  6
Continuous
 62
     0
370
    30
100
AcDbLine
 10
348.358727
 20
249.268555
 30
0.0
 11
348.358727
 21
249.276867
 31
0.0
  0
LINE
  5
1C8
330
177
100
AcDbEntity
  8
0
  6
Continuous
 62
     0
370
    30
100
AcDbLine
 10
348.358727
 20
249.276867
 30
0.0
 11
348.850543
 21
249.768496
 31
0.0
  0
LINE
  5
1C9
330
177
100
AcDbEntity
  8
0
  6
Continuous
 62
     0
370
    30
100
AcDbLine
 10
346.932999
 20
249.768496
 30
0.0
 11
346.489888
 21
249.276866
 31
0.0
  0
ARC
  5
1CA
330
177
100
AcDbEntity
  8
0
  6
Continuous
 62
     0
370
    30
100
AcDbCircle
 10
346.229432
 20
253.324854
 30
0.0
 40
4.056357866529009
100
AcDbArc
 50
270.001776
 51
273.681456
  0
ARC
  5
1CB
330
177
100
AcDbEntity
  8
0
  6
Continuous
 62
     0
370
    30
100
AcDbCircle
 10
347.819886
 20
250.340817
 30
0.0
 40
1.072320648527917
100
AcDbArc
 50
262.836375
 51
269.988811
  0
LINE
  5
1CC
330
177
100
AcDbEntity
  8
0
  6
Continuous
 62
     0
370
    30
100
AcDbLine
 10
347.686164
 20
249.276867
 30
0.0
 11
348.16565
 21
249.768496
 31
0.0
  0
LINE
  5
1CD
330
177
100
AcDbEntity
  8
0
  6
Continuous
 62
     0
370
    30
100
AcDbLine
 10
344.426715
 20
249.768496
 30
0.0
 11
344.042198
 21
249.276866
 31
0.0
  0
ARC
  5
1CE
330
177
100
AcDbEntity
  8
0
  6
Continuous
 62
     0
370
    30
100
AcDbCircle
 10
343.667998
 20
257.63692
 30
0.0
 40
8.368424424137494
100
AcDbArc
 50
270.000725
 51
272.562874
  0
ARC
  5
1CF
330
177
100
AcDbEntity
  8
0
  6
Continuous
 62
     0
370
    30
100
AcDbCircle
 10
346.229683
 20
253.324862
 30
0.0
 40
4.056366448725868
100
AcDbArc
 50
266.318558
 51
269.99823
  0
LINE
  5
1D0
330
177
100
AcDbEntity
  8
0
  6
Continuous
 62
     0
370
    30
100
AcDbLine
 10
345.969227
 20
249.276866
 30
0.0
 11
346.412339
 21
249.768496
 31
0.0
  0
LINE
  5
1D1
330
177
100
AcDbEntity
  8
0
  6
Continuous
 62
     0
370
    30
100
AcDbLine
 10
341.039499
 20
249.768496
 30
0.0
 11
340.732856
 21
249.276866
 31
0.0
  0
ARC
  5
1D2
330
177
100
AcDbEntity
  8
0
  6
Continuous
 62
     0
370
    30
100
AcDbCircle
 10
340.263657
 20
262.422954
 30
0.0
 40
13.15445824795946
100
AcDbArc
 50
270.000438
 51
272.044087
  0
ARC
  5
1D3
330
177
100
AcDbEntity
  8
0
  6
Continuous
 62
     0
370
    30
100
AcDbCircle
 10
343.668209
 20
257.636932
 30
0.0
 40
8.368436108065994
100
AcDbArc
 50
267.437134
 51
269.999279
  0
LINE
  5
1D4
330
177
100
AcDbEntity
  8
0
  6
Continuous
 62
     0
370
    30
100
AcDbLine
 10
343.29401
 20
249.276866
 30
0.0
 11
343.678528
 21
249.768496
 31
0.0
  0
LINE
  5
1D5
330
177
100
AcDbEntity
  8
0
  6
Continuous
 62
     0
370
    30
100
AcDbLine
 10
336.9412
 20
249.768496
 30
0.0
 11
336.727809
 21
249.276866
 31
0.0
  0
ARC
  5
1D6
330
177
100
AcDbEntity
  8
0
  6
Continuous
 62
     0
370
    30
100
AcDbCircle
 10
336.187127
 20
266.735022
 30
0.0
 40
17.46652664033105
100
AcDbArc
 50
270.000328
 51
271.77389
  0
ARC
  5
1D7
330
177
100
AcDbEntity
  8
0
  6
Continuous
 62
     0
370
    30
100
AcDbCircle
 10
340.263858
 20
262.422967
 30
0.0
 40
13.15447132889866
100
AcDbArc
 50
267.955918
 51
269.999565
  0
LINE
  5
1D8
330
177
100
AcDbEntity
  8
0
  6
Continuous
 62
     0
370
    30
100
AcDbLine
 10
339.794659
 20
249.276866
 30
0.0
 11
340.101301
 21
249.768496
 31
0.0
  0
LINE
  5
1D9
330
177
100
AcDbEntity
  8
0
  6
Continuous
 62
     0
370
    30
100
AcDbLine
 10
332.337323
 20
249.768495
 30
0.0
 11
332.227884
 21
249.276866
 31
0.0
  0
ARC
  5
1DA
330
177
100
AcDbEntity
  8
0
  6
Continuous
 62
     0
370
    30
100
AcDbCircle
 10
331.642827
 20
269.719067
 30
0.0
 40
20.45057157174362
100
AcDbArc
 50
270.000281
 51
271.639361
  0
ARC
  5
1DB
330
177
100
AcDbEntity
  8
0
  6
Continuous
 62
     0
370
    30
100
AcDbCircle
 10
336.187327
 20
266.735035
 30
0.0
 40
17.46653913853424
100
AcDbArc
 50
268.226113
 51
269.999674
  0
LINE
  5
1DC
330
177
100
AcDbEntity
  8
0
  6
Continuous
 62
     0
370
    30
100
AcDbLine
 10
335.646646
 20
249.276866
 30
0.0
 11
335.860037
 21
249.768496
 31
0.0
  0
LINE
  5
1DD
330
177
100
AcDbEntity
  8
0
  6
Continuous
 62
     0
370
    30
100
AcDbLine
 10
327.458727
 20
249.768495
 30
0.0
 11
327.458727
 21
249.276866
 31
0.0
  0
ARC
  5
1DE
330
177
100
AcDbEntity
  8
0
  6
Continuous
 62
     0
370
    30
100
AcDbCircle
 10
326.858626
 20
270.784062
 30
0.0
 40
21.51556634576296
100
AcDbArc
 50
270.000267
 51
271.59827
  0
ARC
  5
1DF
330
177
100
AcDbEntity
  8
0
  6
Continuous
 62
     0
370
    30
100
AcDbCircle
 10
331.643027
 20
269.719077
 30
0.0
 40
20.45058162400353
100
AcDbArc
 50
268.36064
 51
269.99972
  0
LINE
  5
1E0
330
177
100
AcDbEntity
  8
0
  6
Continuous
 62
     0
370
    30
100
AcDbLine
 10
331.05797
 20
249.276866
 30
0.0
 11
331.16741
 21
249.768495
 31
0.0
  0
ARC
  5
1E1
330
177
100
AcDbEntity
  8
0
  6
Continuous
 62
     0
370
    30
100
AcDbCircle
 10
326.858827
 20
270.784068
 30
0.0
 40
21.51557258760641
100
AcDbArc
 50
268.40173
 51
269.999732
  0
LINE
  5
1E2
330
177
100
AcDbEntity
  8
0
  6
Continuous
 62
     0
370
    30
100
AcDbLine
 10
326.258727
 20
249.276866
 30
0.0
 11
326.258727
 21
249.768495
 31
0.0
  0
LINE
  5
1E3
330
177
100
AcDbEntity
  8
0
  6
Continuous
 62
     0
370
    30
100
AcDbLine
 10
322.550044
 20
249.768495
 30
0.0
 11
322.659483
 21
249.276866
 31
0.0
  0
ARC
  5
1E4
330
177
100
AcDbEntity
  8
0
  6
Continuous
 62
     0
370
    30
100
AcDbCircle
 10
322.074427
 20
269.719071
 30
0.0
 40
20.45057568286165
100
AcDbArc
 50
270.00028
 51
271.63936
  0
LINE
  5
1E5
330
177
100
AcDbEntity
  8
0
  6
Continuous
 62
     0
370
    30
100
AcDbLine
 10
317.857417
 20
249.768496
 30
0.0
 11
318.070808
 21
249.276866
 31
0.0
  0
ARC
  5
1E6
330
177
100
AcDbEntity
  8
0
  6
Continuous
 62
     0
370
    30
100
AcDbCircle
 10
317.530127
 20
266.73503
 30
0.0
 40
17.46653404583102
100
AcDbArc
 50
270.000326
 51
271.773888
  0
ARC
  5
1E7
330
177
100
AcDbEntity
  8
0
  6
Continuous
 62
     0
370
    30
100
AcDbCircle
 10
322.074627
 20
269.719073
 30
0.0
 40
20.45057747410114
100
AcDbArc
 50
268.360639
 51
269.999719
  0
LINE
  5
1E8
330
177
100
AcDbEntity
  8
0
  6
Continuous
 62
     0
370
    30
100
AcDbLine
 10
321.48957
 20
249.276866
 30
0.0
 11
321.380131
 21
249.768495
 31
0.0
  0
LINE
  5
1E9
330
177
100
AcDbEntity
  8
0
  6
Continuous
 62
     0
370
    30
100
AcDbLine
 10
313.616152
 20
249.768496
 30
0.0
 11
313.922795
 21
249.276866
 31
0.0
  0
ARC
  5
1EA
330
177
100
AcDbEntity
  8
0
  6
Continuous
 62
     0
370
    30
100
AcDbCircle
 10
313.453596
 20
262.422963
 30
0.0
 40
13.15446747650326
100
AcDbArc
 50
270.000435
 51
272.044082
  0
ARC
  5
1EB
330
177
100
AcDbEntity
  8
0
  6
Continuous
 62
     0
370
    30
100
AcDbCircle
 10
317.530326
 20
266.735027
 30
0.0
 40
17.46653166294113
100
AcDbArc
 50
268.22611
 51
269.999672
  0
LINE
  5
1EC
330
177
100
AcDbEntity
  8
0
  6
Continuous
 62
     0
370
    30
100
AcDbLine
 10
316.989645
 20
249.276866
 30
0.0
 11
316.776254
 21
249.768496
 31
0.0
  0
LINE
  5
1ED
330
177
100
AcDbEntity
  8
0
  6
Continuous
 62
     0
370
    30
100
AcDbLine
 10
310.038926
 20
249.768496
 30
0.0
 11
310.423444
 21
249.276866
 31
0.0
  0
ARC
  5
1EE
330
177
100
AcDbEntity
  8
0
  6
Continuous
 62
     0
370
    30
100
AcDbCircle
 10
310.049245
 20
257.636929
 30
0.0
 40
8.368433641738239
100
AcDbArc
 50
270.00072
 51
272.562867
  0
ARC
  5
1EF
330
177
100
AcDbEntity
  8
0
  6
Continuous
 62
     0
370
    30
100
AcDbCircle
 10
313.453797
 20
262.422958
 30
0.0
 40
13.15446201336705
100
AcDbArc
 50
267.955913
 51
269.999561
  0
LINE
  5
1F0
330
177
100
AcDbEntity
  8
0
  6
Continuous
 62
     0
370
    30
100
AcDbLine
 10
312.984597
 20
249.276866
 30
0.0
 11
312.677955
 21
249.768496
 31
0.0
  0
LINE
  5
1F1
330
177
100
AcDbEntity
  8
0
  6
Continuous
 62
     0
370
    30
100
AcDbLine
 10
307.305115
 20
249.768496
 30
0.0
 11
307.748226
 21
249.276866
 31
0.0
  0
ARC
  5
1F2
330
177
100
AcDbEntity
  8
0
  6
Continuous
 62
     0
370
    30
100
AcDbCircle
 10
307.487771
 20
253.324861
 30
0.0
 40
4.056365239901218
100
AcDbArc
 50
270.001769
 51
273.681442
  0
ARC
  5
1F3
330
177
100
AcDbEntity
  8
0
  6
Continuous
 62
     0
370
    30
100
AcDbCircle
 10
310.049456
 20
257.636923
 30
0.0
 40
8.368426803682365
100
AcDbArc
 50
267.437126
 51
269.999275
  0
LINE
  5
1F4
330
177
100
AcDbEntity
  8
0
  6
Continuous
 62
     0
370
    30
100
AcDbLine
 10
309.675256
 20
249.276866
 30
0.0
 11
309.290738
 21
249.768496
 31
0.0
  0
LINE
  5
1F5
330
177
100
AcDbEntity
  8
0
  6
Continuous
 62
     0
370
    30
100
AcDbLine
 10
305.551803
 20
249.768496
 30
0.0
 11
306.031289
 21
249.276867
 31
0.0
  0
ARC
  5
1F6
330
177
100
AcDbEntity
  8
0
  6
Continuous
 62
     0
370
    30
100
AcDbCircle
 10
305.897567
 20
250.340816
 30
0.0
 40
1.072320319273462
100
AcDbArc
 50
270.011188
 51
277.163626
  0
ARC
  5
1F7
330
177
100
AcDbEntity
  8
0
  6
Continuous
 62
     0
370
    30
100
AcDbCircle
 10
307.488022
 20
253.324855
 30
0.0
 40
4.056359005654863
100
AcDbArc
 50
266.318544
 51
269.998223
  0
LINE
  5
1F8
330
177
100
AcDbEntity
  8
0
  6
Continuous
 62
     0
370
    30
100
AcDbLine
 10
307.227566
 20
249.276866
 30
0.0
 11
306.784454
 21
249.768496
 31
0.0
  0
LINE
  5
1F9
330
177
100
AcDbEntity
  8
0
  6
Continuous
 62
     0
370
    30
100
AcDbLine
 10
304.86691
 20
249.768496
 30
0.0
 11
305.358727
 21
249.276867
 31
0.0
  0
LINE
  5
1FA
330
177
100
AcDbEntity
  8
0
  6
Continuous
 62
     0
370
    30
100
AcDbLine
 10
305.358727
 20
249.276867
 30
0.0
 11
305.358727
 21
249.268555
 31
0.0
  0
ARC
  5
1FB
330
177
100
AcDbEntity
  8
0
  6
Continuous
 62
     0
370
    30
100
AcDbCircle
 10
305.897986
 20
250.340813
 30
0.0
 40
1.072316546374248
100
AcDbArc
 50
262.83634
 51
269.988803
  0
LINE
  5
1FC
330
177
100
AcDbEntity
  8
0
  6
Continuous
 62
     0
370
    30
100
AcDbLine
 10
305.764264
 20
249.276867
 30
0.0
 11
305.284778
 21
249.768496
 31
0.0
  0
LINE
  5
1FD
330
177
100
AcDbEntity
  8
0
  6
Continuous
 62
     0
370
    30
100
AcDbLine
 10
347.95319
 20
249.276867
 30
0.0
 11
347.95319
 21
249.550655
 31
0.0
  0
LINE
  5
1FE
330
177
100
AcDbEntity
  8
0
  6
Continuous
 62
     0
370
    30
100
AcDbLine
 10
348.16565
 20
282.660838
 30
0.0
 11
348.432675
 21
284.934226
 31
0.0
  0
LINE
  5
1FF
330
177
100
AcDbEntity
  8
0
  6
Continuous
 62
     0
370
    30
100
AcDbLine
 10
346.489888
 20
249.276866
 30
0.0
 11
346.489888
 21
279.951672
 31
0.0
  0
LINE
  5
200
330
177
100
AcDbEntity
  8
0
  6
Continuous
 62
     0
370
     0
100
AcDbLine
 10
346.489888
 20
279.951672
 30
0.0
 11
346.412339
 21
279.951672
 31
0.0
  0
ARC
  5
201
330
177
100
AcDbEntity
  8
0
  6
Continuous
 62
     0
370
    30
100
AcDbCircle
 10
363.11896
 20
279.952127
 30
0.0
 40
16.62907268861439
100
AcDbArc
 50
173.807611
 51
180.001569
  0
LINE
  5
202
330
177
100
AcDbEntity
  8
0
  6
Continuous
 62
     0
370
     0
100
AcDbLine
 10
346.586913
 20
281.74586
 30
0.0
 11
346.412339
 21
281.74586
 31
0.0
  0
LINE
  5
203
330
177
100
AcDbEntity
  8
0
  6
Continuous
 62
     0
370
    30
100
AcDbLine
 10
346.586913
 20
281.74586
 30
0.0
 11
346.932999
 21
284.934226
 31
0.0
  0
LINE
  5
204
330
177
100
AcDbEntity
  8
0
  6
Continuous
 62
     0
370
    30
100
AcDbLine
 10
344.042198
 20
249.276866
 30
0.0
 11
344.042198
 21
279.951672
 31
0.0
  0
LINE
  5
205
330
177
100
AcDbEntity
  8
0
  6
Continuous
 62
     0
370
     0
100
AcDbLine
 10
344.042198
 20
279.951672
 30
0.0
 11
343.678528
 21
279.951672
 31
0.0
  0
ARC
  5
206
330
177
100
AcDbEntity
  8
0
  6
Continuous
 62
     0
370
    30
100
AcDbCircle
 10
363.181107
 20
279.952612
 30
0.0
 40
19.13890990179429
100
AcDbArc
 50
174.623702
 51
180.002815
  0
LINE
  5
207
330
177
100
AcDbEntity
  8
0
  6
Continuous
 62
     0
370
     0
100
AcDbLine
 10
344.126393
 20
281.74586
 30
0.0
 11
343.678528
 21
281.74586
 31
0.0
  0
LINE
  5
208
330
177
100
AcDbEntity
  8
0
  6
Continuous
 62
     0
370
    30
100
AcDbLine
 10
344.426715
 20
284.934226
 30
0.0
 11
344.126393
 21
281.74586
 31
0.0
  0
LINE
  5
209
330
177
100
AcDbEntity
  8
0
  6
Continuous
 62
     0
370
    30
100
AcDbLine
 10
340.732856
 20
249.276866
 30
0.0
 11
340.732856
 21
279.951672
 31
0.0
  0
LINE
  5
20A
330
177
100
AcDbEntity
  8
0
  6
Continuous
 62
     0
370
     0
100
AcDbLine
 10
340.732856
 20
279.951672
 30
0.0
 11
340.101301
 21
279.951672
 31
0.0
  0
ARC
  5
20B
330
177
100
AcDbEntity
  8
0
  6
Continuous
 62
     0
370
    30
100
AcDbCircle
 10
364.698691
 20
279.95315
 30
0.0
 40
23.9658341685308
100
AcDbArc
 50
175.710112
 51
180.003535
  0
LINE
  5
20C
330
177
100
AcDbEntity
  8
0
  6
Continuous
 62
     0
370
     0
100
AcDbLine
 10
340.8
 20
281.74586
 30
0.0
 11
340.101301
 21
281.74586
 31
0.0
  0
LINE
  5
20D
330
177
100
AcDbEntity
  8
0
  6
Continuous
 62
     0
370
    30
100
AcDbLine
 10
340.8
 20
281.74586
 30
0.0
 11
341.039499
 21
284.934226
 31
0.0
  0
LINE
  5
20E
330
177
100
AcDbEntity
  8
0
  6
Continuous
 62
     0
370
    30
100
AcDbLine
 10
336.727809
 20
249.276866
 30
0.0
 11
336.727809
 21
276.987649
 31
0.0
  0
LINE
  5
20F
330
177
100
AcDbEntity
  8
0
  6
Continuous
 62
     0
370
    30
100
AcDbLine
 10
336.9412
 20
284.934226
 30
0.0
 11
336.928712
 21
284.695329
 31
0.0
  0
LINE
  5
210
330
177
100
AcDbEntity
  8
0
  6
Continuous
 62
     0
370
    30
100
AcDbLine
 10
332.227884
 20
249.276866
 30
0.0
 11
332.227884
 21
276.987649
 31
0.0
  0
LINE
  5
211
330
177
100
AcDbEntity
  8
0
  6
Continuous
 62
     0
370
    30
100
AcDbLine
 10
321.48957
 20
276.987649
 30
0.0
 11
321.48957
 21
249.276866
 31
0.0
  0
LINE
  5
212
330
177
100
AcDbEntity
  8
0
  6
Continuous
 62
     0
370
    30
100
AcDbLine
 10
316.989645
 20
276.987649
 30
0.0
 11
316.989645
 21
249.276866
 31
0.0
  0
LINE
  5
213
330
177
100
AcDbEntity
  8
0
  6
Continuous
 62
     0
370
    30
100
AcDbLine
 10
316.776254
 20
284.934226
 30
0.0
 11
316.788742
 21
284.695329
 31
0.0
  0
LINE
  5
214
330
177
100
AcDbEntity
  8
0
  6
Continuous
 62
     0
370
     0
100
AcDbLine
 10
313.616152
 20
279.951672
 30
0.0
 11
312.984597
 21
279.951672
 31
0.0
  0
LINE
  5
215
330
177
100
AcDbEntity
  8
0
  6
Continuous
 62
     0
370
    30
100
AcDbLine
 10
312.984597
 20
279.951672
 30
0.0
 11
312.984597
 21
249.276866
 31
0.0
  0
LINE
  5
216
330
177
100
AcDbEntity
  8
0
  6
Continuous
 62
     0
370
     0
100
AcDbLine
 10
313.616152
 20
281.74586
 30
0.0
 11
312.917453
 21
281.74586
 31
0.0
  0
ARC
  5
217
330
177
100
AcDbEntity
  8
0
  6
Continuous
 62
     0
370
    30
100
AcDbCircle
 10
289.018763
 20
279.95315
 30
0.0
 40
23.96583416852671
100
AcDbArc
 50
359.996465
 51
4.289888
  0
LINE
  5
218
330
177
100
AcDbEntity
  8
0
  6
Continuous
 62
     0
370
    30
100
AcDbLine
 10
312.917453
 20
281.74586
 30
0.0
 11
312.677955
 21
284.934226
 31
0.0
  0
LINE
  5
219
330
177
100
AcDbEntity
  8
0
  6
Continuous
 62
     0
370
     0
100
AcDbLine
 10
310.038926
 20
279.951672
 30
0.0
 11
309.675256
 21
279.951672
 31
0.0
  0
LINE
  5
21A
330
177
100
AcDbEntity
  8
0
  6
Continuous
 62
     0
370
    30
100
AcDbLine
 10
309.675256
 20
279.951672
 30
0.0
 11
309.675256
 21
249.276866
 31
0.0
  0
LINE
  5
21B
330
177
100
AcDbEntity
  8
0
  6
Continuous
 62
     0
370
     0
100
AcDbLine
 10
310.038926
 20
281.74586
 30
0.0
 11
309.59106
 21
281.74586
 31
0.0
  0
ARC
  5
21C
330
177
100
AcDbEntity
  8
0
  6
Continuous
 62
     0
370
    30
100
AcDbCircle
 10
290.536346
 20
279.952612
 30
0.0
 40
19.13890990179566
100
AcDbArc
 50
359.997185
 51
5.376298
  0
LINE
  5
21D
330
177
100
AcDbEntity
  8
0
  6
Continuous
 62
     0
370
    30
100
AcDbLine
 10
309.59106
 20
281.74586
 30
0.0
 11
309.290738
 21
284.934226
 31
0.0
  0
LINE
  5
21E
330
177
100
AcDbEntity
  8
0
  6
Continuous
 62
     0
370
     0
100
AcDbLine
 10
307.305115
 20
279.951672
 30
0.0
 11
307.227566
 21
279.951672
 31
0.0
  0
LINE
  5
21F
330
177
100
AcDbEntity
  8
0
  6
Continuous
 62
     0
370
    30
100
AcDbLine
 10
307.227566
 20
279.951672
 30
0.0
 11
307.227566
 21
249.276866
 31
0.0
  0
LINE
  5
220
330
177
100
AcDbEntity
  8
0
  6
Continuous
 62
     0
370
     0
100
AcDbLine
 10
307.305115
 20
281.74586
 30
0.0
 11
307.13054
 21
281.74586
 31
0.0
  0
ARC
  5
221
330
177
100
AcDbEntity
  8
0
  6
Continuous
 62
     0
370
    30
100
AcDbCircle
 10
290.598493
 20
279.952127
 30
0.0
 40
16.62907268861304
100
AcDbArc
 50
359.998431
 51
6.192389
  0
LINE
  5
222
330
177
100
AcDbEntity
  8
0
  6
Continuous
 62
     0
370
    30
100
AcDbLine
 10
306.784454
 20
284.934226
 30
0.0
 11
307.13054
 21
281.74586
 31
0.0
  0
LINE
  5
223
330
177
100
AcDbEntity
  8
0
  6
Continuous
 62
     0
370
    30
100
AcDbLine
 10
305.764264
 20
249.550655
 30
0.0
 11
305.764264
 21
249.276867
 31
0.0
  0
LINE
  5
224
330
177
100
AcDbEntity
  8
0
  6
Continuous
 62
     0
370
    30
100
AcDbLine
 10
305.284778
 20
284.934226
 30
0.0
 11
305.551803
 21
282.660838
 31
0.0
  0
LINE
  5
225
330
177
100
AcDbEntity
  8
0
  6
Continuous
 62
     0
370
     0
100
AcDbLine
 10
327.458727
 20
268.968495
 30
0.0
 11
326.258727
 21
268.968495
 31
0.0
  0
LINE
  5
226
330
177
100
AcDbEntity
  8
0
  6
Continuous
 62
     0
370
     0
100
AcDbLine
 10
327.458727
 20
270.796536
 30
0.0
 11
326.258727
 21
270.796536
 31
0.0
  0
LINE
  5
227
330
177
100
AcDbEntity
  8
0
  6
Continuous
 62
     0
370
    30
100
AcDbLine
 10
346.783911
 20
295.268496
 30
0.0
 11
348.858727
 21
295.268496
 31
0.0
  0
LINE
  5
228
330
177
100
AcDbEntity
  8
0
  6
Continuous
 62
     0
370
    30
100
AcDbLine
 10
304.858727
 20
295.268496
 30
0.0
 11
306.933541
 21
295.268496
 31
0.0
  0
LINE
  5
229
330
177
100
AcDbEntity
  8
0
  6
Continuous
 62
     0
370
    30
100
AcDbLine
 10
304.858727
 20
295.268496
 30
0.0
 11
304.858727
 21
285.002151
 31
0.0
  0
LINE
  5
22A
330
177
100
AcDbEntity
  8
0
  6
Continuous
 62
     0
370
    30
100
AcDbLine
 10
348.858727
 20
295.268496
 30
0.0
 11
348.858727
 21
285.002151
 31
0.0
  0
LINE
  5
22B
330
177
100
AcDbEntity
  8
0
  6
Continuous
 62
     0
370
    30
100
AcDbLine
 10
349.058727
 20
307.961594
 30
0.0
 11
349.058727
 21
297.768497
 31
0.0
  0
LINE
  5
22C
330
177
100
AcDbEntity
  8
0
  6
Continuous
 62
     0
370
    30
100
AcDbLine
 10
337.76563
 20
297.768496
 30
0.0
 11
349.058727
 21
297.768497
 31
0.0
  0
SPLINE
  5
22D
330
177
100
AcDbEntity
  8
0
  6
Continuous
 62
     0
370
    30
100
AcDbSpline
210
0.0
220
0.0
230
1.0
 70
    12
 71
     2
 72
     6
 73
     3
 74
     0
 42
0.000000001
 43
0.0
 40
44.4
 40
44.4
 40
44.4
 40
73.9294369099939
 40
73.9294369099939
 40
73.9294369099939
 10
304.6587268335543
 20
297.7684965918916
 30
0.0
 41
1.0
 10
304.6586131145488
 20
297.7684960251315
 30
0.0
 41
0.8052033372451151
 10
315.9518241122968
 20
297.7684957466813
 30
0.0
 41
0.8695163935486866
  0
LINE
  5
22E
330
177
100
AcDbEntity
  8
0
  6
Continuous
 62
     0
370
    30
100
AcDbLine
 10
336.701719
 20
276.987647
 30
0.0
 11
316.208727
 21
276.987648
 31
0.0
  0
SPLINE
  5
22F
330
177
100
AcDbEntity
  8
0
  6
Continuous
 62
     0
370
    30
100
AcDbSpline
210
0.0
220
0.0
230
1.0
 70
    12
 71
     2
 72
     6
 73
     3
 74
     0
 42
0.000000001
 43
0.0
 40
37.07637508010227
 40
37.07637508010227
 40
37.07637508010227
 40
42.5999999523163
 40
42.5999999523163
 40
42.5999999523163
 10
337.5087267785534
 20
276.9876475427206
 30
0.0
 41
0.8874847196202331
 10
337.508726780704
 20
276.98764745034
 30
0.0
 41
0.9240454333262109
 10
336.7017187266105
 20
276.9876473649597
 30
0.0
 41
1.0
  0
SPLINE
  5
230
330
177
100
AcDbEntity
  8
0
  6
Continuous
 62
     0
370
     0
100
AcDbSpline
210
0.0
220
0.0
230
1.0
 70
     8
 71
     3
 72
     9
 73
     5
 74
     0
 42
0.000000001
 43
0.0
 40
30.23971451800556
 40
30.23971451800556
 40
30.23971451800556
 40
30.23971451800556
 40
32.3996941270703
 40
34.55967373486349
 40
34.55967373486349
 40
34.55967373486349
 40
34.55967373486349
 10
337.8087223292927
 20
277.2876475550736
 30
0.0
 10
337.8093692513727
 20
277.287647523747
 30
0.0
 10
337.6694915086944
 20
277.2876474610881
 30
0.0
 10
337.2526460158001
 20
277.2876474008261
 30
0.0
 10
336.9789861164213
 20
277.2876473718733
 30
0.0
  0
SPLINE
  5
231
330
177
100
AcDbEntity
  8
0
  6
Continuous
 62
     0
370
     0
100
AcDbSpline
210
0.0
220
0.0
230
1.0
 70
     8
 71
     3
 72
    11
 73
     7
 74
     0
 42
0.000000001
 43
0.0
 40
0.0
 40
0.0
 40
0.0
 40
0.0
 40
0.119720534108342
 40
0.239441068216696
 40
0.359161602325045
 40
0.478882136433439
 40
0.478882136433439
 40
0.478882136433439
 40
0.478882136433439
 10
336.9789861164213
 20
277.2876473718733
 30
0.0
 10
336.9789861164211
 20
277.2486293059196
 30
0.0
 10
336.9645574607986
 20
277.1697390222456
 30
0.0
 10
336.9028520711096
 20
277.0700234911587
 30
0.0
 10
336.8106925236483
 20
277.0032589964468
 30
0.0
 10
336.7377801828524
 20
276.9876473643084
 30
0.0
 10
336.7017187266105
 20
276.9876473649597
 30
0.0
  0
LINE
  5
232
330
177
100
AcDbEntity
  8
0
  6
Continuous
 62
     0
370
     0
100
AcDbLine
 10
335.084326
 20
296.687647
 30
0.0
 11
335.758723
 21
296.687648
 31
0.0
  0
ARC
  5
233
330
177
100
AcDbEntity
  8
0
  6
Continuous
 62
     0
370
     0
100
AcDbCircle
 10
334.763058
 20
296.687319
 30
0.0
 40
0.3212676563785893
100
AcDbArc
 50
0.058475
 51
32.854028
  0
LINE
  5
234
330
177
100
AcDbEntity
  8
0
  6
Continuous
 62
     0
370
     0
100
AcDbLine
 10
336.978986
 20
284.390254
 30
0.0
 11
322.677477
 21
284.390254
 31
0.0
  0
LINE
  5
235
330
177
100
AcDbEntity
  8
0
  6
Continuous
 62
     0
370
     0
100
AcDbLine
 10
322.677477
 20
284.390254
 30
0.0
 11
322.677477
 21
277.287647
 31
0.0
  0
LINE
  5
236
330
177
100
AcDbEntity
  8
0
  6
Continuous
 62
     0
370
     0
100
AcDbLine
 10
322.677477
 20
277.287647
 30
0.0
 11
336.978986
 21
277.287647
 31
0.0
  0
SPLINE
  5
237
330
177
100
AcDbEntity
  8
0
  6
Continuous
 62
     0
370
     0
100
AcDbSpline
210
0.0
220
0.0
230
1.0
 70
    12
 71
     2
 72
     6
 73
     3
 74
     0
 42
0.000000001
 43
0.0
 40
38.1207800546426
 40
38.1207800546426
 40
38.1207800546426
 40
43.7999999999998
 40
43.7999999999998
 40
43.7999999999998
 10
337.8087267904745
 20
284.3902541677248
 30
0.0
 41
0.8874847196207056
 10
337.8087267926799
 20
284.390254072742
 30
0.0
 41
0.9240454333267016
 10
336.9789861164213
 20
284.3902539849565
 30
0.0
 41
1.0
  0
LINE
  5
238
330
177
100
AcDbEntity
  8
0
  6
Continuous
 62
     0
370
     0
100
AcDbLine
 10
315.908727
 20
277.287648
 30
0.0
 11
322.677477
 21
277.287647
 31
0.0
  0
LINE
  5
239
330
177
100
AcDbEntity
  8
0
  6
Continuous
 62
     0
370
     0
100
AcDbLine
 10
322.677477
 20
284.390254
 30
0.0
 11
315.908727
 21
284.390254
 31
0.0
  0
SPLINE
  5
23A
330
177
100
AcDbEntity
  8
0
  6
Continuous
 62
     0
370
     0
100
AcDbSpline
210
0.0
220
0.0
230
1.0
 70
     8
 71
     3
 72
    11
 73
     7
 74
     0
 42
0.000000001
 43
0.0
 40
0.0
 40
0.0
 40
0.0
 40
0.0
 40
0.119034169116566
 40
0.238068338233121
 40
0.357102507349677
 40
0.476136676466155
 40
0.476136676466155
 40
0.476136676466155
 40
0.476136676466155
 10
336.7041383103302
 20
284.6902425787598
 30
0.0
 10
336.7400006193927
 20
284.6899039530299
 30
0.0
 10
336.8123771871503
 20
284.6737834518949
 30
0.0
 10
336.9036708317055
 20
284.6068651722289
 30
0.0
 10
336.9647193179756
 20
284.5075063320108
 30
0.0
 10
336.9789861164213
 20
284.4290580535751
 30
0.0
 10
336.9789861164213
 20
284.3902539849565
 30
0.0
  0
SPLINE
  5
23B
330
177
100
AcDbEntity
  8
0
  6
Continuous
 62
     0
370
     0
100
AcDbSpline
210
0.0
220
0.0
230
1.0
 70
     8
 71
     3
 72
    10
 73
     6
 74
     0
 42
0.000000001
 43
0.0
 40
29.44723058089181
 40
29.44723058089181
 40
29.44723058089181
 40
29.44723058089181
 40
31.2501179623897
 40
32.8526911919522
 40
33.6539778067335
 40
33.6539778067335
 40
33.6539778067335
 40
33.6539778067335
 10
337.5114270857033
 20
284.690241983023
 30
0.0
 10
337.5119905451529
 20
284.6902419018585
 30
0.0
 10
337.4180711880447
 20
284.6902419552646
 30
0.0
 10
337.0814561910155
 20
284.6902426220876
 30
0.0
 10
336.8053467826214
 20
284.6902425894675
 30
0.0
 10
336.7041383103302
 20
284.6902425787598
 30
0.0
  0
LINE
  5
23C
330
177
100
AcDbEntity
  8
0
  6
Continuous
 62
     0
370
     0
100
AcDbLine
 10
336.000485
 20
284.696887
 30
0.0
 11
316.967453
 21
284.696887
 31
0.0
  0
LINE
  5
23D
330
177
100
AcDbEntity
  8
0
  6
Continuous
 62
     0
370
     0
100
AcDbLine
 10
316.206095
 20
284.690243
 30
0.0
 11
336.704138
 21
284.690243
 31
0.0
  0
LINE
  5
23E
330
177
100
AcDbEntity
  8
0
  6
Continuous
 62
     0
370
     0
100
AcDbLine
 10
336.704138
 20
284.690243
 30
0.0
 11
336.000485
 21
284.696887
 31
0.0
  0
LINE
  5
23F
330
177
100
AcDbEntity
  8
0
  6
Continuous
 62
     0
370
     0
100
AcDbLine
 10
317.95873
 20
285.696849
 30
0.0
 11
323.460268
 21
285.696848
 31
0.0
  0
LINE
  5
240
330
177
100
AcDbEntity
  8
0
  6
Continuous
 62
     0
370
     0
100
AcDbLine
 10
323.460268
 20
285.696848
 30
0.0
 11
323.460268
 21
296.687647
 31
0.0
  0
LINE
  5
241
330
177
100
AcDbEntity
  8
0
  6
Continuous
 62
     0
370
     0
100
AcDbLine
 10
323.460268
 20
296.687647
 30
0.0
 11
317.958727
 21
296.687648
 31
0.0
  0
LINE
  5
242
330
177
100
AcDbEntity
  8
0
  6
Continuous
 62
     0
370
     0
100
AcDbLine
 10
335.084326
 20
296.687647
 30
0.0
 11
323.460268
 21
296.687647
 31
0.0
  0
LINE
  5
243
330
177
100
AcDbEntity
  8
0
  6
Continuous
 62
     0
370
     0
100
AcDbLine
 10
323.460268
 20
285.696848
 30
0.0
 11
335.084326
 21
285.696849
 31
0.0
  0
LINE
  5
244
330
177
100
AcDbEntity
  8
0
  6
Continuous
 62
     0
370
     0
100
AcDbLine
 10
335.084326
 20
285.696849
 30
0.0
 11
335.758727
 21
285.696849
 31
0.0
  0
SPLINE
  5
245
330
177
100
AcDbEntity
  8
0
  6
Continuous
 62
     0
370
     0
100
AcDbSpline
210
0.0
220
0.0
230
1.0
 70
     8
 71
     3
 72
    11
 73
     7
 74
     0
 42
0.000000001
 43
0.0
 40
0.0
 40
0.0
 40
0.0
 40
0.0
 40
0.396780547955197
 40
0.7935610959103581
 40
1.19034164386552
 40
1.58712219180417
 40
1.58712219180417
 40
1.58712219180417
 40
1.58712219180417
 10
335.0843256946687
 20
285.6968486837352
 30
0.0
 10
335.0843256946687
 20
285.5675017934797
 30
0.0
 10
335.1318816875979
 20
285.3060075424179
 30
0.0
 10
335.3353766337451
 20
284.9748114215179
 30
0.0
 10
335.6396887701661
 20
284.7517504981648
 30
0.0
 10
335.8809439864322
 20
284.6980154965159
 30
0.0
 10
336.0004850118853
 20
284.6968867441256
 30
0.0
  0
LINE
  5
246
330
177
100
AcDbEntity
  8
0
  6
Continuous
 62
     0
370
     0
100
AcDbLine
 10
336.000485
 20
284.696887
 30
0.0
 11
336.749996
 21
284.696887
 31
0.0
  0
LINE
  5
247
330
177
100
AcDbEntity
  8
0
  6
Continuous
 62
     0
370
    30
100
AcDbLine
 10
326.858727
 20
296.861591
 30
0.0
 11
316.858727
 21
296.861592
 31
0.0
  0
LINE
  5
248
330
177
100
AcDbEntity
  8
0
  6
Continuous
 62
     0
370
    30
100
AcDbLine
 10
336.858727
 20
296.861592
 30
0.0
 11
326.858727
 21
296.861591
 31
0.0
  0
SPLINE
  5
249
330
177
100
AcDbEntity
  8
0
  6
Continuous
 62
     0
370
    30
100
AcDbSpline
210
0.0
220
0.0
230
1.0
 70
     8
 71
     3
 72
    15
 73
    11
 74
     0
 42
0.000000001
 43
0.0
 40
17.35874023207405
 40
17.35874023207405
 40
17.35874023207405
 40
17.35874023207405
 40
19.5285827610833
 40
21.6984252900926
 40
23.8682678191018
 40
26.0381103481111
 40
28.2079528771204
 40
30.3777954061297
 40
32.5476379351388
 40
34.7174804641481
 40
34.7174804641481
 40
34.7174804641481
 40
34.7174804641481
 10
337.8587268327005
 20
297.8615917733327
 30
0.0
 10
337.8587268632575
 20
297.8615917418631
 30
0.0
 10
337.7169107666011
 20
297.8615916789237
 30
0.0
 10
337.0869115248262
 20
297.8615915881427
 30
0.0
 10
336.0638532760421
 20
297.8615915044785
 30
0.0
 10
334.6870307791765
 20
297.8615914311462
 30
0.0
 10
333.0094321617672
 20
297.861591370964
 30
0.0
 10
331.0952369492516
 20
297.8615913262445
 30
0.0
 10
329.0190875735258
 20
297.8615912987065
 30
0.0
 10
327.5775191951173
 20
297.8615912925075
 30
0.0
 10
326.8587268327005
 20
297.8615912925075
 30
0.0
  0
LINE
  5
24A
330
177
100
AcDbEntity
  8
0
  6
Continuous
 62
     0
370
     0
100
AcDbLine
 10
326.858727
 20
297.861591
 30
0.0
 11
326.858727
 21
296.861591
 31
0.0
  0
LINE
  5
24B
330
177
100
AcDbEntity
  8
0
  6
Continuous
 62
     0
370
    30
100
AcDbLine
 10
396.358627
 20
307.961593
 30
0.0
 11
326.858727
 21
307.96159
 31
0.0
  0
LINE
  5
24C
330
177
100
AcDbEntity
  8
0
  6
Continuous
 62
     0
370
    30
100
AcDbLine
 10
326.858727
 20
307.96159
 30
0.0
 11
257.358827
 21
307.961593
 31
0.0
  0
LINE
  5
24D
330
177
100
AcDbEntity
  8
0
  6
Continuous
 62
     0
370
     0
100
AcDbLine
 10
326.858727
 20
307.96159
 30
0.0
 11
326.858727
 21
308.46159
 31
0.0
  0
LINE
  5
24E
330
177
100
AcDbEntity
  8
0
  6
Continuous
 62
     0
370
    30
100
AcDbLine
 10
326.858727
 20
308.46159
 30
0.0
 11
256.858827
 21
308.461593
 31
0.0
  0
LINE
  5
24F
330
177
100
AcDbEntity
  8
0
  6
Continuous
 62
     0
370
    30
100
AcDbLine
 10
326.858727
 20
318.461579
 30
0.0
 11
256.858827
 21
318.461582
 31
0.0
  0
LINE
  5
250
330
177
100
AcDbEntity
  8
0
  6
Continuous
 62
     0
370
    30
100
AcDbLine
 10
256.858827
 20
318.461582
 30
0.0
 11
256.858827
 21
308.461593
 31
0.0
  0
LINE
  5
251
330
177
100
AcDbEntity
  8
0
  6
Continuous
 62
     0
370
    30
100
AcDbLine
 10
396.858627
 20
308.461593
 30
0.0
 11
326.858727
 21
308.46159
 31
0.0
  0
LINE
  5
252
330
177
100
AcDbEntity
  8
0
  6
Continuous
 62
     0
370
    30
100
AcDbLine
 10
396.858627
 20
318.461582
 30
0.0
 11
326.858727
 21
318.461579
 31
0.0
  0
LINE
  5
253
330
177
100
AcDbEntity
  8
0
  6
Continuous
 62
     0
370
    30
100
AcDbLine
 10
315.858727
 20
307.961592
 30
0.0
 11
315.858727
 21
297.861592
 31
0.0
  0
LINE
  5
254
330
177
100
AcDbEntity
  8
0
  6
Continuous
 62
     0
370
    30
100
AcDbLine
 10
315.858727
 20
297.861592
 30
0.0
 11
326.858727
 21
297.861591
 31
0.0
  0
LINE
  5
255
330
177
100
AcDbEntity
  8
0
  6
Continuous
 62
     0
370
     0
100
AcDbLine
 10
326.858727
 20
297.861591
 30
0.0
 11
326.858727
 21
307.961591
 31
0.0
  0
LINE
  5
256
330
177
100
AcDbEntity
  8
0
  6
Continuous
 62
     0
370
    30
100
AcDbLine
 10
396.358627
 20
307.961593
 30
0.0
 11
396.858627
 21
308.461593
 31
0.0
  0
LINE
  5
257
330
177
100
AcDbEntity
  8
0
  6
Continuous
 62
     0
370
    30
100
AcDbLine
 10
315.858727
 20
297.861592
 30
0.0
 11
316.858727
 21
296.861592
 31
0.0
  0
ARC
  5
258
330
177
100
AcDbEntity
  8
0
  6
Continuous
 62
     0
370
    30
100
AcDbCircle
 10
316.958702
 20
285.696874
 30
0.0
 40
1.000024887257642
100
AcDbArc
 50
270.501411
 51
359.998586
  0
LINE
  5
259
330
177
100
AcDbEntity
  8
0
  6
Continuous
 62
     0
370
    30
100
AcDbLine
 10
337.511392
 20
284.690242
 30
0.0
 11
336.75
 21
284.696887
 31
0.0
  0
ARC
  5
25A
330
177
100
AcDbEntity
  8
0
  6
Continuous
 62
     0
370
    30
100
AcDbCircle
 10
316.208741
 20
284.390239
 30
0.0
 40
0.3000150316914866
100
AcDbArc
 50
90.502841
 51
179.997157
  0
ARC
  5
25B
330
177
100
AcDbEntity
  8
0
  6
Continuous
 62
     0
370
    30
100
AcDbCircle
 10
318.259358
 20
296.68743
 30
0.0
 40
0.3006313321745208
100
AcDbArc
 50
144.597186
 51
179.958476
  0
ARC
  5
25C
330
177
100
AcDbEntity
  8
0
  6
Continuous
 62
     0
370
    30
100
AcDbCircle
 10
316.208741
 20
277.287663
 30
0.0
 40
0.3000151221497624
100
AcDbArc
 50
180.002886
 51
269.996826
  0
ARC
  5
25D
330
177
100
AcDbEntity
  8
0
  6
Continuous
 62
     0
370
    30
100
AcDbCircle
 10
326.655388
 20
299.154824
 30
0.0
 40
20.50026725745641
100
AcDbArc
 50
349.072048
 51
356.122423
  0
LINE
  5
25E
330
177
100
AcDbEntity
  8
0
  6
Continuous
 62
     0
370
    30
100
AcDbLine
 10
337.858727
 20
307.961592
 30
0.0
 11
337.858727
 21
297.861592
 31
0.0
  0
LINE
  5
25F
330
177
100
AcDbEntity
  8
0
  6
Continuous
 62
     0
370
    30
100
AcDbLine
 10
396.858627
 20
308.461593
 30
0.0
 11
396.858627
 21
318.461582
 31
0.0
  0
LINE
  5
260
330
177
100
AcDbEntity
  8
0
  6
Continuous
 62
     0
370
    30
100
AcDbLine
 10
257.358827
 20
307.961593
 30
0.0
 11
256.858827
 21
308.461593
 31
0.0
  0
LINE
  5
261
330
177
100
AcDbEntity
  8
0
  6
Continuous
 62
     0
370
    30
100
AcDbLine
 10
337.858727
 20
297.861592
 30
0.0
 11
336.858727
 21
296.861592
 31
0.0
  0
ARC
  5
262
330
177
100
AcDbEntity
  8
0
  6
Continuous
 62
     0
370
    30
100
AcDbCircle
 10
336.758752
 20
285.696873
 30
0.0
 40
1.000024867380582
100
AcDbArc
 50
180.001412
 51
269.498588
  0
LINE
  5
263
330
177
100
AcDbEntity
  8
0
  6
Continuous
 62
     0
370
    30
100
AcDbLine
 10
335.758727
 20
285.696849
 30
0.0
 11
335.758727
 21
296.687648
 31
0.0
  0
LINE
  5
264
330
177
100
AcDbEntity
  8
0
  6
Continuous
 62
     0
370
    30
100
AcDbLine
 10
317.958727
 20
285.696849
 30
0.0
 11
317.958727
 21
296.687648
 31
0.0
  0
LINE
  5
265
330
177
100
AcDbEntity
  8
0
  6
Continuous
 62
     0
370
    30
100
AcDbLine
 10
316.967453
 20
284.696887
 30
0.0
 11
316.206114
 21
284.690243
 31
0.0
  0
ARC
  5
266
330
177
100
AcDbEntity
  8
0
  6
Continuous
 62
     0
370
    30
100
AcDbCircle
 10
337.508713
 20
284.39024
 30
0.0
 40
0.3000139797374667
100
AcDbArc
 50
0.002643
 51
89.475335
  0
LINE
  5
267
330
177
100
AcDbEntity
  8
0
  6
Continuous
 62
     0
370
    30
100
AcDbLine
 10
315.908727
 20
277.287648
 30
0.0
 11
315.908727
 21
284.390254
 31
0.0
  0
LINE
  5
268
330
177
100
AcDbEntity
  8
0
  6
Continuous
 62
     0
370
    30
100
AcDbLine
 10
337.808727
 20
277.287648
 30
0.0
 11
337.808727
 21
284.390254
 31
0.0
  0
ARC
  5
269
330
177
100
AcDbEntity
  8
0
  6
Continuous
 62
     0
370
    30
100
AcDbCircle
 10
335.458462
 20
296.687547
 30
0.0
 40
0.3002652266442711
100
AcDbArc
 50
0.019253
 51
35.425476
  0
ARC
  5
26A
330
177
100
AcDbEntity
  8
0
  6
Continuous
 62
     0
370
    30
100
AcDbCircle
 10
337.508712
 20
277.287662
 30
0.0
 40
0.3000149568805117
100
AcDbArc
 50
270.006554
 51
359.997146
  0
ARC
  5
26B
330
177
100
AcDbEntity
  8
0
  6
Continuous
 62
     0
370
    30
100
AcDbCircle
 10
327.063663
 20
299.155015
 30
0.0
 40
20.50187388809755
100
AcDbArc
 50
183.877809
 51
190.92763
  0
LINE
  5
26C
330
177
100
AcDbEntity
  8
0
  6
Continuous
 62
     0
370
    30
100
AcDbLine
 10
304.658727
 20
307.961594
 30
0.0
 11
304.658727
 21
297.768497
 31
0.0
  0
ENDBLK
  5
26E
330
177
100
AcDbEntity
  8
0
100
AcDbBlockEnd
  0
BLOCK
  5
373
330
270
100
AcDbEntity
  8
0
100
AcDbBlockBegin
  2
c
 70
     0
 10
227.498749
 20
120.475082
 30
0.0
  3
c
  1

  0
LINE
  5
271
330
270
100
AcDbEntity
  8
0
  6
Continuous
 62
     0
370
    30
100
AcDbLine
 10
537.05883
 20
434.473549
 30
0.0
 11
537.05883
 21
435.376119
 31
0.0
  0
LINE
  5
272
330
270
100
AcDbEntity
  8
0
  6
Continuous
 62
     0
370
     0
100
AcDbLine
 10
491.55883
 20
435.376119
 30
0.0
 11
537.05883
 21
435.376119
 31
0.0
  0
LINE
  5
273
330
270
100
AcDbEntity
  8
0
  6
Continuous
 62
     0
370
    30
100
AcDbLine
 10
491.55883
 20
435.376119
 30
0.0
 11
491.558829
 21
421.47486
 31
0.0
  0
LINE
  5
274
330
270
100
AcDbEntity
  8
0
  6
Continuous
 62
     0
370
    30
100
AcDbLine
 10
498.707062
 20
465.47486
 30
0.0
 11
505.83163
 21
465.47486
 31
0.0
  0
LINE
  5
275
330
270
100
AcDbEntity
  8
0
  6
Continuous
 62
     0
370
    30
100
AcDbLine
 10
510.863967
 20
465.47486
 30
0.0
 11
512.869216
 21
465.47486
 31
0.0
  0
LINE
  5
276
330
270
100
AcDbEntity
  8
0
  6
Continuous
 62
     0
370
    30
100
AcDbLine
 10
501.825174
 20
421.47486
 30
0.0
 11
501.893099
 21
421.483043
 31
0.0
  0
LINE
  5
277
330
270
100
AcDbEntity
  8
0
  6
Continuous
 62
     0
370
    30
100
AcDbLine
 10
501.893099
 20
421.483043
 30
0.0
 11
537.058829
 21
421.483043
 31
0.0
  0
LINE
  5
278
330
270
100
AcDbEntity
  8
0
  6
Continuous
 62
     0
370
    30
100
AcDbLine
 10
537.058829
 20
421.483043
 30
0.0
 11
537.058829
 21
421.900911
 31
0.0
  0
LINE
  5
279
330
270
100
AcDbEntity
  8
0
  6
Continuous
 62
     0
370
    30
100
AcDbLine
 10
537.058829
 20
421.900911
 30
0.0
 11
501.893099
 21
421.900911
 31
0.0
  0
SPLINE
  5
27A
330
270
100
AcDbEntity
  8
0
  6
Continuous
 62
     0
370
    30
100
AcDbSpline
210
0.0
220
0.0
230
1.0
 70
    12
 71
     2
 72
     6
 73
     3
 74
     0
 42
0.000000001
 43
0.0
 40
-1.23082026699097
 40
-1.23082026699097
 40
-1.23082026699097
 40
0.0
 40
0.0
 40
0.0
 10
501.8930987438799
 20
421.9009111486949
 30
0.0
 41
1.0
 10
501.7572250617069
 20
422.0184644068511
 30
0.0
 41
0.9996280299923859
 10
501.8930987950185
 20
422.1679362694424
 30
0.0
 41
1.0
  0
LINE
  5
27B
330
270
100
AcDbEntity
  8
0
  6
Continuous
 62
     0
370
    30
100
AcDbLine
 10
501.893099
 20
422.167936
 30
0.0
 11
537.058829
 21
422.167936
 31
0.0
  0
LINE
  5
27C
330
270
100
AcDbEntity
  8
0
  6
Continuous
 62
     0
370
    30
100
AcDbLine
 10
537.058829
 20
422.167936
 30
0.0
 11
537.058829
 21
423.400587
 31
0.0
  0
LINE
  5
27D
330
270
100
AcDbEntity
  8
0
  6
Continuous
 62
     0
370
    30
100
AcDbLine
 10
537.058829
 20
423.400587
 30
0.0
 11
501.893099
 21
423.400587
 31
0.0
  0
SPLINE
  5
27E
330
270
100
AcDbEntity
  8
0
  6
Continuous
 62
     0
370
    30
100
AcDbSpline
210
0.0
220
0.0
230
1.0
 70
    12
 71
     2
 72
     6
 73
     3
 74
     0
 42
0.000000001
 43
0.0
 40
-1.23082026699096
 40
-1.23082026699096
 40
-1.23082026699096
 40
0.0
 40
0.0
 40
0.0
 10
501.8930989490012
 20
423.4005872077278
 30
0.0
 41
1.0
 10
501.7572252650397
 20
423.6461688382273
 30
0.0
 41
0.999628029992801
 10
501.8930989962603
 20
423.9212476946688
 30
0.0
 41
1.0
  0
LINE
  5
27F
330
270
100
AcDbEntity
  8
0
  6
Continuous
 62
     0
370
    30
100
AcDbLine
 10
501.893099
 20
423.921248
 30
0.0
 11
537.058829
 21
423.921248
 31
0.0
  0
LINE
  5
280
330
270
100
AcDbEntity
  8
0
  6
Continuous
 62
     0
370
    30
100
AcDbLine
 10
537.058829
 20
423.921248
 30
0.0
 11
537.058829
 21
425.906871
 31
0.0
  0
LINE
  5
281
330
270
100
AcDbEntity
  8
0
  6
Continuous
 62
     0
370
    30
100
AcDbLine
 10
537.058829
 20
425.906871
 30
0.0
 11
501.893099
 21
425.906871
 31
0.0
  0
SPLINE
  5
282
330
270
100
AcDbEntity
  8
0
  6
Continuous
 62
     0
370
    30
100
AcDbSpline
210
0.0
220
0.0
230
1.0
 70
    12
 71
     2
 72
     6
 73
     3
 74
     0
 42
0.000000001
 43
0.0
 40
-1.23082026699094
 40
-1.23082026699094
 40
-1.23082026699094
 40
0.0
 40
0.0
 40
0.0
 10
501.8930991343927
 20
425.9068711078888
 30
0.0
 41
1.0
 10
501.7572254474424
 20
426.2681666223185
 30
0.0
 41
0.9996280299930081
 10
501.8930991754027
 20
426.6550588701193
 30
0.0
 41
1.0
  0
LINE
  5
283
330
270
100
AcDbEntity
  8
0
  6
Continuous
 62
     0
370
    30
100
AcDbLine
 10
501.893099
 20
426.655059
 30
0.0
 11
537.058829
 21
426.655059
 31
0.0
  0
LINE
  5
284
330
270
100
AcDbEntity
  8
0
  6
Continuous
 62
     0
370
    30
100
AcDbLine
 10
537.058829
 20
426.655059
 30
0.0
 11
537.058829
 21
429.294087
 31
0.0
  0
LINE
  5
285
330
270
100
AcDbEntity
  8
0
  6
Continuous
 62
     0
370
    30
100
AcDbLine
 10
537.058829
 20
429.294087
 30
0.0
 11
501.893099
 21
429.294087
 31
0.0
  0
ARC
  5
286
330
270
100
AcDbEntity
  8
0
  6
Continuous
 62
     0
370
    30
100
AcDbCircle
 10
503.478793
 20
429.763186
 30
0.0
 40
1.653626035839582
100
AcDbArc
 50
163.520099
 51
196.479897
  0
LINE
  5
287
330
270
100
AcDbEntity
  8
0
  6
Continuous
 62
     0
370
    30
100
AcDbLine
 10
501.893099
 20
430.232285
 30
0.0
 11
537.058829
 21
430.232285
 31
0.0
  0
LINE
  5
288
330
270
100
AcDbEntity
  8
0
  6
Continuous
 62
     0
370
    30
100
AcDbLine
 10
537.058829
 20
430.232285
 30
0.0
 11
537.058829
 21
433.392387
 31
0.0
  0
LINE
  5
289
330
270
100
AcDbEntity
  8
0
  6
Continuous
 62
     0
370
    30
100
AcDbLine
 10
537.058829
 20
433.392387
 30
0.0
 11
501.893099
 21
433.392387
 31
0.0
  0
ARC
  5
28A
330
270
100
AcDbEntity
  8
0
  6
Continuous
 62
     0
370
    30
100
AcDbCircle
 10
504.010178
 20
433.932968
 30
0.0
 40
2.185006070566801
100
AcDbArc
 50
165.675995
 51
194.324002
  0
LINE
  5
28B
330
270
100
AcDbEntity
  8
0
  6
Continuous
 62
     0
370
    30
100
AcDbLine
 10
501.893099
 20
434.473549
 30
0.0
 11
537.05883
 21
434.473549
 31
0.0
  0
LINE
  5
28C
330
270
100
AcDbEntity
  8
0
  6
Continuous
 62
     0
370
    30
100
AcDbLine
 10
491.55883
 20
443.47486
 30
0.0
 11
491.55883
 21
435.376119
 31
0.0
  0
LINE
  5
28D
330
270
100
AcDbEntity
  8
0
  6
Continuous
 62
     0
370
    30
100
AcDbLine
 10
537.05883
 20
435.376119
 30
0.0
 11
537.05883
 21
437.996263
 31
0.0
  0
LINE
  5
28E
330
270
100
AcDbEntity
  8
0
  6
Continuous
 62
     0
370
    30
100
AcDbLine
 10
537.05883
 20
437.996263
 30
0.0
 11
501.893099
 21
437.996263
 31
0.0
  0
ARC
  5
28F
330
270
100
AcDbEntity
  8
0
  6
Continuous
 62
     0
370
    30
100
AcDbCircle
 10
504.377908
 20
438.58122
 30
0.0
 40
2.552733679484125
100
AcDbArc
 50
166.753016
 51
193.246983
  0
LINE
  5
290
330
270
100
AcDbEntity
  8
0
  6
Continuous
 62
     0
370
    30
100
AcDbLine
 10
501.893099
 20
439.166177
 30
0.0
 11
537.05883
 21
439.166177
 31
0.0
  0
LINE
  5
291
330
270
100
AcDbEntity
  8
0
  6
Continuous
 62
     0
370
    30
100
AcDbLine
 10
537.05883
 20
439.166177
 30
0.0
 11
537.05883
 21
442.87486
 31
0.0
  0
LINE
  5
292
330
270
100
AcDbEntity
  8
0
  6
Continuous
 62
     0
370
    30
100
AcDbLine
 10
537.05883
 20
442.87486
 30
0.0
 11
501.8931
 21
442.87486
 31
0.0
  0
ARC
  5
293
330
270
100
AcDbEntity
  8
0
  6
Continuous
 62
     0
370
    30
100
AcDbCircle
 10
504.50915
 20
443.47486
 30
0.0
 40
2.683974291910086
100
AcDbArc
 50
167.082426
 51
192.917574
  0
LINE
  5
294
330
270
100
AcDbEntity
  8
0
  6
Continuous
 62
     0
370
    30
100
AcDbLine
 10
501.8931
 20
444.07486
 30
0.0
 11
537.05883
 21
444.07486
 31
0.0
  0
LINE
  5
295
330
270
100
AcDbEntity
  8
0
  6
Continuous
 62
     0
370
    30
100
AcDbLine
 10
537.05883
 20
444.07486
 30
0.0
 11
537.05883
 21
447.783542
 31
0.0
  0
LINE
  5
296
330
270
100
AcDbEntity
  8
0
  6
Continuous
 62
     0
370
    30
100
AcDbLine
 10
537.05883
 20
447.783542
 30
0.0
 11
501.893099
 21
447.783542
 31
0.0
  0
ARC
  5
297
330
270
100
AcDbEntity
  8
0
  6
Continuous
 62
     0
370
    30
100
AcDbCircle
 10
504.377908
 20
448.368499
 30
0.0
 40
2.552733679482635
100
AcDbArc
 50
166.753017
 51
193.246984
  0
LINE
  5
298
330
270
100
AcDbEntity
  8
0
  6
Continuous
 62
     0
370
    30
100
AcDbLine
 10
501.893099
 20
448.953456
 30
0.0
 11
537.05883
 21
448.953456
 31
0.0
  0
LINE
  5
299
330
270
100
AcDbEntity
  8
0
  6
Continuous
 62
     0
370
    30
100
AcDbLine
 10
537.05883
 20
448.953456
 30
0.0
 11
537.05883
 21
452.47617
 31
0.0
  0
LINE
  5
29A
330
270
100
AcDbEntity
  8
0
  6
Continuous
 62
     0
370
    30
100
AcDbLine
 10
537.05883
 20
452.47617
 30
0.0
 11
501.893099
 21
452.47617
 31
0.0
  0
ARC
  5
29B
330
270
100
AcDbEntity
  8
0
  6
Continuous
 62
     0
370
    30
100
AcDbCircle
 10
504.010178
 20
453.016751
 30
0.0
 40
2.185006070565497
100
AcDbArc
 50
165.675998
 51
194.324005
  0
LINE
  5
29C
330
270
100
AcDbEntity
  8
0
  6
Continuous
 62
     0
370
    30
100
AcDbLine
 10
501.893099
 20
453.557333
 30
0.0
 11
537.058829
 21
453.557333
 31
0.0
  0
LINE
  5
29D
330
270
100
AcDbEntity
  8
0
  6
Continuous
 62
     0
370
    30
100
AcDbLine
 10
537.058829
 20
453.557333
 30
0.0
 11
537.058829
 21
456.717434
 31
0.0
  0
LINE
  5
29E
330
270
100
AcDbEntity
  8
0
  6
Continuous
 62
     0
370
    30
100
AcDbLine
 10
537.058829
 20
456.717434
 30
0.0
 11
501.893099
 21
456.717434
 31
0.0
  0
ARC
  5
29F
330
270
100
AcDbEntity
  8
0
  6
Continuous
 62
     0
370
    30
100
AcDbCircle
 10
503.478793
 20
457.186533
 30
0.0
 40
1.653626035838093
100
AcDbArc
 50
163.520103
 51
196.479901
  0
LINE
  5
2A0
330
270
100
AcDbEntity
  8
0
  6
Continuous
 62
     0
370
    30
100
AcDbLine
 10
501.893099
 20
457.655632
 30
0.0
 11
537.058829
 21
457.655632
 31
0.0
  0
LINE
  5
2A1
330
270
100
AcDbEntity
  8
0
  6
Continuous
 62
     0
370
    30
100
AcDbLine
 10
537.058829
 20
457.655632
 30
0.0
 11
537.058829
 21
460.29466
 31
0.0
  0
LINE
  5
2A2
330
270
100
AcDbEntity
  8
0
  6
Continuous
 62
     0
370
    30
100
AcDbLine
 10
537.058829
 20
460.29466
 30
0.0
 11
501.893099
 21
460.29466
 31
0.0
  0
SPLINE
  5
2A3
330
270
100
AcDbEntity
  8
0
  6
Continuous
 62
     0
370
    30
100
AcDbSpline
210
0.0
220
0.0
230
1.0
 70
    12
 71
     2
 72
     6
 73
     3
 74
     0
 42
0.000000001
 43
0.0
 40
-1.23082026699092
 40
-1.23082026699092
 40
-1.23082026699092
 40
0.0
 40
0.0
 40
0.0
 10
501.8930991754027
 20
460.2946603505439
 30
0.0
 41
1.0
 10
501.7572254474424
 20
460.6815525983442
 30
0.0
 41
0.999628029992593
 10
501.8930991343927
 20
461.0428481127744
 30
0.0
 41
1.0
  0
LINE
  5
2A4
330
270
100
AcDbEntity
  8
0
  6
Continuous
 62
     0
370
    30
100
AcDbLine
 10
501.893099
 20
461.042848
 30
0.0
 11
537.058829
 21
461.042848
 31
0.0
  0
LINE
  5
2A5
330
270
100
AcDbEntity
  8
0
  6
Continuous
 62
     0
370
    30
100
AcDbLine
 10
537.058829
 20
461.042848
 30
0.0
 11
537.058829
 21
463.028472
 31
0.0
  0
LINE
  5
2A6
330
270
100
AcDbEntity
  8
0
  6
Continuous
 62
     0
370
    30
100
AcDbLine
 10
537.058829
 20
463.028472
 30
0.0
 11
501.893099
 21
463.028472
 31
0.0
  0
SPLINE
  5
2A7
330
270
100
AcDbEntity
  8
0
  6
Continuous
 62
     0
370
    30
100
AcDbSpline
210
0.0
220
0.0
230
1.0
 70
    12
 71
     2
 72
     6
 73
     3
 74
     0
 42
0.000000001
 43
0.0
 40
-1.23082026699096
 40
-1.23082026699096
 40
-1.23082026699096
 40
0.0
 40
0.0
 40
0.0
 10
501.8930989962603
 20
463.0284715259943
 30
0.0
 41
1.0
 10
501.7572252650397
 20
463.3035503824356
 30
0.0
 41
0.999628029992801
 10
501.8930989490011
 20
463.5491320129354
 30
0.0
 41
1.0
  0
LINE
  5
2A8
330
270
100
AcDbEntity
  8
0
  6
Continuous
 62
     0
370
    30
100
AcDbLine
 10
501.893099
 20
463.549132
 30
0.0
 11
537.058829
 21
463.549132
 31
0.0
  0
LINE
  5
2A9
330
270
100
AcDbEntity
  8
0
  6
Continuous
 62
     0
370
    30
100
AcDbLine
 10
537.058829
 20
463.549132
 30
0.0
 11
537.058829
 21
464.781783
 31
0.0
  0
LINE
  5
2AA
330
270
100
AcDbEntity
  8
0
  6
Continuous
 62
     0
370
    30
100
AcDbLine
 10
537.058829
 20
464.781783
 30
0.0
 11
501.893099
 21
464.781783
 31
0.0
  0
SPLINE
  5
2AB
330
270
100
AcDbEntity
  8
0
  6
Continuous
 62
     0
370
    30
100
AcDbSpline
210
0.0
220
0.0
230
1.0
 70
    12
 71
     2
 72
     6
 73
     3
 74
     0
 42
0.000000001
 43
0.0
 40
-1.23082026699099
 40
-1.23082026699099
 40
-1.23082026699099
 40
0.0
 40
0.0
 40
0.0
 10
501.8930987950184
 20
464.7817829512207
 30
0.0
 41
1.0
 10
501.7572250617068
 20
464.9312548138118
 30
0.0
 41
0.999628029992593
 10
501.8930987438799
 20
465.0488080719683
 30
0.0
 41
1.0
  0
LINE
  5
2AC
330
270
100
AcDbEntity
  8
0
  6
Continuous
 62
     0
370
    30
100
AcDbLine
 10
501.893099
 20
465.048808
 30
0.0
 11
537.058829
 21
465.048808
 31
0.0
  0
LINE
  5
2AD
330
270
100
AcDbEntity
  8
0
  6
Continuous
 62
     0
370
    30
100
AcDbLine
 10
537.058829
 20
465.048808
 30
0.0
 11
537.058829
 21
465.466676
 31
0.0
  0
LINE
  5
2AE
330
270
100
AcDbEntity
  8
0
  6
Continuous
 62
     0
370
    30
100
AcDbLine
 10
537.058829
 20
465.466676
 30
0.0
 11
512.935864
 21
465.466676
 31
0.0
  0
LINE
  5
2AF
330
270
100
AcDbEntity
  8
0
  6
Continuous
 62
     0
370
    30
100
AcDbLine
 10
512.935864
 20
465.466676
 30
0.0
 11
512.869216
 21
465.47486
 31
0.0
  0
SPLINE
  5
2B0
330
270
100
AcDbEntity
  8
0
  6
Continuous
 62
     0
370
     0
100
AcDbSpline
210
0.0
220
0.0
230
1.0
 70
     8
 71
     3
 72
    16
 73
    12
 74
     0
 42
0.000000001
 43
0.0
 40
0.0
 40
0.0
 40
0.0
 40
0.0
 40
0.38292967451811
 40
1.14878902355434
 40
2.29754412007749
 40
3.44628185482407
 40
4.59518199946818
 40
5.744377285219021
 40
6.893343255444991
 40
7.65893715832064
 40
8.041734109758462
 40
8.041734109758462
 40
8.041734109758462
 40
8.041734109758462
 10
510.8639673655049
 20
465.4748596103316
 30
0.0
 10
510.8639673709301
 20
465.4748596103316
 30
0.0
 10
510.8362205455931
 20
465.4717087509358
 30
0.0
 10
510.6126732707064
 20
465.4464720328114
 30
0.0
 10
509.973539055472
 20
465.3850599958239
 30
0.0
 10
508.9306071377041
 20
465.3298119231061
 30
0.0
 10
507.775540028868
 20
465.3305955738168
 30
0.0
 10
506.7358227156627
 20
465.3857477195115
 30
0.0
 10
506.0890466219823
 20
465.446475422086
 30
0.0
 10
505.8604443871754
 20
465.4717109347273
 30
0.0
 10
505.8316300719113
 20
465.4748596103316
 30
0.0
 10
505.8316300664879
 20
465.4748596103316
 30
0.0
  0
SPLINE
  5
2B1
330
270
100
AcDbEntity
  8
0
  6
Continuous
 62
     0
370
    30
100
AcDbSpline
210
0.0
220
0.0
230
1.0
 70
    12
 71
     2
 72
     6
 73
     3
 74
     0
 42
0.000000001
 43
0.0
 40
-45.1321689332418
 40
-45.1321689332418
 40
-45.1321689332418
 40
0.0
 40
0.0
 40
0.0
 10
498.7070619531161
 20
465.4748596103316
 30
0.0
 41
1.0
 10
498.7070629147665
 20
465.4748596103316
 30
0.0
 41
0.707106781186548
 10
491.5588295976427
 20
443.4748596103316
 30
0.0
 41
1.0
  0
LINE
  5
2B2
330
270
100
AcDbEntity
  8
0
  6
Continuous
 62
     0
370
    30
100
AcDbLine
 10
537.558829
 20
464.97486
 30
0.0
 11
537.558829
 21
464.43581
 31
0.0
  0
LINE
  5
2B3
330
270
100
AcDbEntity
  8
0
  6
Continuous
 62
     0
370
    30
100
AcDbLine
 10
537.558829
 20
464.43581
 30
0.0
 11
537.558829
 21
462.84569
 31
0.0
  0
LINE
  5
2B4
330
270
100
AcDbEntity
  8
0
  6
Continuous
 62
     0
370
    30
100
AcDbLine
 10
537.558829
 20
462.84569
 30
0.0
 11
537.558829
 21
460.284236
 31
0.0
  0
LINE
  5
2B5
330
270
100
AcDbEntity
  8
0
  6
Continuous
 62
     0
370
    30
100
AcDbLine
 10
537.558829
 20
460.284236
 30
0.0
 11
537.558829
 21
456.87989
 31
0.0
  0
LINE
  5
2B6
330
270
100
AcDbEntity
  8
0
  6
Continuous
 62
     0
370
    30
100
AcDbLine
 10
537.558829
 20
456.87989
 30
0.0
 11
537.558829
 21
452.80336
 31
0.0
  0
LINE
  5
2B7
330
270
100
AcDbEntity
  8
0
  6
Continuous
 62
     0
370
    30
100
AcDbLine
 10
537.558829
 20
452.80336
 30
0.0
 11
537.55883
 21
448.25906
 31
0.0
  0
LINE
  5
2B8
330
270
100
AcDbEntity
  8
0
  6
Continuous
 62
     0
370
    30
100
AcDbLine
 10
537.55883
 20
448.25906
 30
0.0
 11
537.55883
 21
443.47486
 31
0.0
  0
LINE
  5
2B9
330
270
100
AcDbEntity
  8
0
  6
Continuous
 62
     0
370
    30
100
AcDbLine
 10
537.55883
 20
443.47486
 30
0.0
 11
537.55883
 21
438.69066
 31
0.0
  0
LINE
  5
2BA
330
270
100
AcDbEntity
  8
0
  6
Continuous
 62
     0
370
    30
100
AcDbLine
 10
537.55883
 20
438.69066
 30
0.0
 11
537.558829
 21
434.146359
 31
0.0
  0
LINE
  5
2BB
330
270
100
AcDbEntity
  8
0
  6
Continuous
 62
     0
370
    30
100
AcDbLine
 10
537.558829
 20
434.146359
 30
0.0
 11
537.558829
 21
430.069829
 31
0.0
  0
LINE
  5
2BC
330
270
100
AcDbEntity
  8
0
  6
Continuous
 62
     0
370
    30
100
AcDbLine
 10
537.558829
 20
430.069829
 30
0.0
 11
537.558829
 21
426.665483
 31
0.0
  0
LINE
  5
2BD
330
270
100
AcDbEntity
  8
0
  6
Continuous
 62
     0
370
    30
100
AcDbLine
 10
537.558829
 20
426.665483
 30
0.0
 11
537.558829
 21
424.104029
 31
0.0
  0
LINE
  5
2BE
330
270
100
AcDbEntity
  8
0
  6
Continuous
 62
     0
370
    30
100
AcDbLine
 10
537.558829
 20
424.104029
 30
0.0
 11
537.558829
 21
422.513909
 31
0.0
  0
LINE
  5
2BF
330
270
100
AcDbEntity
  8
0
  6
Continuous
 62
     0
370
    30
100
AcDbLine
 10
537.558829
 20
422.513909
 30
0.0
 11
537.558829
 21
421.97486
 31
0.0
  0
LINE
  5
2C0
330
270
100
AcDbEntity
  8
0
  6
Continuous
 62
     0
370
    30
100
AcDbLine
 10
537.55877
 20
421.97486
 30
0.0
 11
537.550458
 21
421.97486
 31
0.0
  0
LINE
  5
2C1
330
270
100
AcDbEntity
  8
0
  6
Continuous
 62
     0
370
    30
100
AcDbLine
 10
537.550458
 20
421.97486
 30
0.0
 11
537.058829
 21
421.483043
 31
0.0
  0
ARC
  5
2C2
330
270
100
AcDbEntity
  8
0
  6
Continuous
 62
     0
370
    30
100
AcDbCircle
 10
536.486512
 20
422.514119
 30
0.0
 40
1.072316546287552
100
AcDbArc
 50
352.83634
 51
359.988803
  0
LINE
  5
2C3
330
270
100
AcDbEntity
  8
0
  6
Continuous
 62
     0
370
    30
100
AcDbLine
 10
537.550458
 20
422.380397
 30
0.0
 11
537.058829
 21
421.900911
 31
0.0
  0
LINE
  5
2C4
330
270
100
AcDbEntity
  8
0
  6
Continuous
 62
     0
370
    30
100
AcDbLine
 10
537.55877
 20
464.97486
 30
0.0
 11
537.550458
 21
464.97486
 31
0.0
  0
LINE
  5
2C5
330
270
100
AcDbEntity
  8
0
  6
Continuous
 62
     0
370
    30
100
AcDbLine
 10
537.550458
 20
464.97486
 30
0.0
 11
537.058829
 21
465.466676
 31
0.0
  0
LINE
  5
2C6
330
270
100
AcDbEntity
  8
0
  6
Continuous
 62
     0
370
    30
100
AcDbLine
 10
537.058829
 20
465.048808
 30
0.0
 11
537.550458
 21
464.569322
 31
0.0
  0
ARC
  5
2C7
330
270
100
AcDbEntity
  8
0
  6
Continuous
 62
     0
370
    30
100
AcDbCircle
 10
536.486513
 20
464.4356
 30
0.0
 40
1.072316255819107
100
AcDbArc
 50
0.011196
 51
7.163661
  0
LINE
  5
2C8
330
270
100
AcDbEntity
  8
0
  6
Continuous
 62
     0
370
    30
100
AcDbLine
 10
537.058829
 20
463.549132
 30
0.0
 11
537.550459
 21
463.106021
 31
0.0
  0
ARC
  5
2C9
330
270
100
AcDbEntity
  8
0
  6
Continuous
 62
     0
370
    30
100
AcDbCircle
 10
533.502471
 20
462.845565
 30
0.0
 40
4.056357866536036
100
AcDbArc
 50
0.001776
 51
3.681456
  0
ARC
  5
2CA
330
270
100
AcDbEntity
  8
0
  6
Continuous
 62
     0
370
    30
100
AcDbCircle
 10
536.486508
 20
464.436019
 30
0.0
 40
1.072320648412227
100
AcDbArc
 50
352.836375
 51
359.988811
  0
LINE
  5
2CB
330
270
100
AcDbEntity
  8
0
  6
Continuous
 62
     0
370
    30
100
AcDbLine
 10
537.550458
 20
464.302297
 30
0.0
 11
537.058829
 21
464.781783
 31
0.0
  0
LINE
  5
2CC
330
270
100
AcDbEntity
  8
0
  6
Continuous
 62
     0
370
    30
100
AcDbLine
 10
537.058829
 20
461.042848
 30
0.0
 11
537.550459
 21
460.65833
 31
0.0
  0
ARC
  5
2CD
330
270
100
AcDbEntity
  8
0
  6
Continuous
 62
     0
370
    30
100
AcDbCircle
 10
529.190405
 20
460.284131
 30
0.0
 40
8.368424424410616
100
AcDbArc
 50
0.000725
 51
2.562874
  0
ARC
  5
2CE
330
270
100
AcDbEntity
  8
0
  6
Continuous
 62
     0
370
    30
100
AcDbCircle
 10
533.502463
 20
462.845816
 30
0.0
 40
4.056366448513726
100
AcDbArc
 50
356.318558
 51
359.99823
  0
LINE
  5
2CF
330
270
100
AcDbEntity
  8
0
  6
Continuous
 62
     0
370
    30
100
AcDbLine
 10
537.550459
 20
462.58536
 30
0.0
 11
537.058829
 21
463.028472
 31
0.0
  0
LINE
  5
2D0
330
270
100
AcDbEntity
  8
0
  6
Continuous
 62
     0
370
    30
100
AcDbLine
 10
537.058829
 20
457.655632
 30
0.0
 11
537.550459
 21
457.348989
 31
0.0
  0
ARC
  5
2D1
330
270
100
AcDbEntity
  8
0
  6
Continuous
 62
     0
370
    30
100
AcDbCircle
 10
524.404371
 20
456.87979
 30
0.0
 40
13.15445824800765
100
AcDbArc
 50
0.000438
 51
2.044087
  0
ARC
  5
2D2
330
270
100
AcDbEntity
  8
0
  6
Continuous
 62
     0
370
    30
100
AcDbCircle
 10
529.190393
 20
460.284342
 30
0.0
 40
8.368436108145644
100
AcDbArc
 50
357.437134
 51
359.999279
  0
LINE
  5
2D3
330
270
100
AcDbEntity
  8
0
  6
Continuous
 62
     0
370
    30
100
AcDbLine
 10
537.550459
 20
459.910143
 30
0.0
 11
537.058829
 21
460.29466
 31
0.0
  0
LINE
  5
2D4
330
270
100
AcDbEntity
  8
0
  6
Continuous
 62
     0
370
    30
100
AcDbLine
 10
537.058829
 20
453.557333
 30
0.0
 11
537.550459
 21
453.343941
 31
0.0
  0
ARC
  5
2D5
330
270
100
AcDbEntity
  8
0
  6
Continuous
 62
     0
370
    30
100
AcDbCircle
 10
520.092303
 20
452.80326
 30
0.0
 40
17.46652664063887
100
AcDbArc
 50
0.000328
 51
1.77389
  0
ARC
  5
2D6
330
270
100
AcDbEntity
  8
0
  6
Continuous
 62
     0
370
    30
100
AcDbCircle
 10
524.404358
 20
456.87999
 30
0.0
 40
13.15447132893287
100
AcDbArc
 50
357.955918
 51
359.999565
  0
LINE
  5
2D7
330
270
100
AcDbEntity
  8
0
  6
Continuous
 62
     0
370
    30
100
AcDbLine
 10
537.550459
 20
456.410791
 30
0.0
 11
537.058829
 21
456.717434
 31
0.0
  0
LINE
  5
2D8
330
270
100
AcDbEntity
  8
0
  6
Continuous
 62
     0
370
    30
100
AcDbLine
 10
537.05883
 20
448.953456
 30
0.0
 11
537.550459
 21
448.844016
 31
0.0
  0
ARC
  5
2D9
330
270
100
AcDbEntity
  8
0
  6
Continuous
 62
     0
370
    30
100
AcDbCircle
 10
517.108258
 20
448.258959
 30
0.0
 40
20.4505715720341
100
AcDbArc
 50
0.000281
 51
1.639361
  0
ARC
  5
2DA
330
270
100
AcDbEntity
  8
0
  6
Continuous
 62
     0
370
    30
100
AcDbCircle
 10
520.09229
 20
452.803459
 30
0.0
 40
17.4665391388296
100
AcDbArc
 50
358.226113
 51
359.999674
  0
LINE
  5
2DB
330
270
100
AcDbEntity
  8
0
  6
Continuous
 62
     0
370
    30
100
AcDbLine
 10
537.550459
 20
452.262779
 30
0.0
 11
537.05883
 21
452.47617
 31
0.0
  0
LINE
  5
2DC
330
270
100
AcDbEntity
  8
0
  6
Continuous
 62
     0
370
    30
100
AcDbLine
 10
537.05883
 20
444.07486
 30
0.0
 11
537.550459
 21
444.07486
 31
0.0
  0
ARC
  5
2DD
330
270
100
AcDbEntity
  8
0
  6
Continuous
 62
     0
370
    30
100
AcDbCircle
 10
516.043263
 20
443.474759
 30
0.0
 40
21.51556634512772
100
AcDbArc
 50
0.000267
 51
1.59827
  0
ARC
  5
2DE
330
270
100
AcDbEntity
  8
0
  6
Continuous
 62
     0
370
    30
100
AcDbCircle
 10
517.108248
 20
448.25916
 30
0.0
 40
20.45058162393889
100
AcDbArc
 50
358.36064
 51
359.99972
  0
LINE
  5
2DF
330
270
100
AcDbEntity
  8
0
  6
Continuous
 62
     0
370
    30
100
AcDbLine
 10
537.550459
 20
447.674103
 30
0.0
 11
537.05883
 21
447.783542
 31
0.0
  0
LINE
  5
2E0
330
270
100
AcDbEntity
  8
0
  6
Continuous
 62
     0
370
    30
100
AcDbLine
 10
537.05883
 20
439.166177
 30
0.0
 11
537.550459
 21
439.275616
 31
0.0
  0
ARC
  5
2E1
330
270
100
AcDbEntity
  8
0
  6
Continuous
 62
     0
370
    30
100
AcDbCircle
 10
517.108254
 20
438.69056
 30
0.0
 40
20.450575682772
100
AcDbArc
 50
0.00028
 51
1.63936
  0
ARC
  5
2E2
330
270
100
AcDbEntity
  8
0
  6
Continuous
 62
     0
370
    30
100
AcDbCircle
 10
516.043257
 20
443.47496
 30
0.0
 40
21.51557257535852
100
AcDbArc
 50
358.40173
 51
359.999732
  0
LINE
  5
2E3
330
270
100
AcDbEntity
  8
0
  6
Continuous
 62
     0
370
    30
100
AcDbLine
 10
537.550459
 20
442.87486
 30
0.0
 11
537.05883
 21
442.87486
 31
0.0
  0
LINE
  5
2E4
330
270
100
AcDbEntity
  8
0
  6
Continuous
 62
     0
370
    30
100
AcDbLine
 10
537.05883
 20
434.473549
 30
0.0
 11
537.550459
 21
434.686941
 31
0.0
  0
ARC
  5
2E5
330
270
100
AcDbEntity
  8
0
  6
Continuous
 62
     0
370
    30
100
AcDbCircle
 10
520.092295
 20
434.14626
 30
0.0
 40
17.4665340462471
100
AcDbArc
 50
0.000326
 51
1.773888
  0
ARC
  5
2E6
330
270
100
AcDbEntity
  8
0
  6
Continuous
 62
     0
370
    30
100
AcDbCircle
 10
517.108252
 20
438.69076
 30
0.0
 40
20.45057747362557
100
AcDbArc
 50
358.360639
 51
359.999719
  0
LINE
  5
2E7
330
270
100
AcDbEntity
  8
0
  6
Continuous
 62
     0
370
    30
100
AcDbLine
 10
537.550459
 20
438.105703
 30
0.0
 11
537.05883
 21
437.996263
 31
0.0
  0
LINE
  5
2E8
330
270
100
AcDbEntity
  8
0
  6
Continuous
 62
     0
370
    30
100
AcDbLine
 10
537.058829
 20
430.232285
 30
0.0
 11
537.550459
 21
430.538928
 31
0.0
  0
ARC
  5
2E9
330
270
100
AcDbEntity
  8
0
  6
Continuous
 62
     0
370
    30
100
AcDbCircle
 10
524.404362
 20
430.069729
 30
0.0
 40
13.15446747677702
100
AcDbArc
 50
0.000435
 51
2.044082
  0
ARC
  5
2EA
330
270
100
AcDbEntity
  8
0
  6
Continuous
 62
     0
370
    30
100
AcDbCircle
 10
520.092298
 20
434.146459
 30
0.0
 40
17.4665316634409
100
AcDbArc
 50
358.22611
 51
359.999672
  0
LINE
  5
2EB
330
270
100
AcDbEntity
  8
0
  6
Continuous
 62
     0
370
    30
100
AcDbLine
 10
537.550459
 20
433.605778
 30
0.0
 11
537.058829
 21
433.392387
 31
0.0
  0
LINE
  5
2EC
330
270
100
AcDbEntity
  8
0
  6
Continuous
 62
     0
370
    30
100
AcDbLine
 10
537.058829
 20
426.655059
 30
0.0
 11
537.550459
 21
427.039577
 31
0.0
  0
ARC
  5
2ED
330
270
100
AcDbEntity
  8
0
  6
Continuous
 62
     0
370
    30
100
AcDbCircle
 10
529.190396
 20
426.665378
 30
0.0
 40
8.36843364187095
100
AcDbArc
 50
0.00072
 51
2.562867
  0
ARC
  5
2EE
330
270
100
AcDbEntity
  8
0
  6
Continuous
 62
     0
370
    30
100
AcDbCircle
 10
524.404367
 20
430.06993
 30
0.0
 40
13.1544620134204
100
AcDbArc
 50
357.955913
 51
359.999561
  0
LINE
  5
2EF
330
270
100
AcDbEntity
  8
0
  6
Continuous
 62
     0
370
    30
100
AcDbLine
 10
537.550459
 20
429.60073
 30
0.0
 11
537.058829
 21
429.294087
 31
0.0
  0
LINE
  5
2F0
330
270
100
AcDbEntity
  8
0
  6
Continuous
 62
     0
370
    30
100
AcDbLine
 10
537.058829
 20
423.921248
 30
0.0
 11
537.550459
 21
424.364359
 31
0.0
  0
ARC
  5
2F1
330
270
100
AcDbEntity
  8
0
  6
Continuous
 62
     0
370
    30
100
AcDbCircle
 10
533.502464
 20
424.103904
 30
0.0
 40
4.056365239972681
100
AcDbArc
 50
0.001769
 51
3.681442
  0
ARC
  5
2F2
330
270
100
AcDbEntity
  8
0
  6
Continuous
 62
     0
370
    30
100
AcDbCircle
 10
529.190402
 20
426.665589
 30
0.0
 40
8.368426803330127
100
AcDbArc
 50
357.437126
 51
359.999275
  0
LINE
  5
2F3
330
270
100
AcDbEntity
  8
0
  6
Continuous
 62
     0
370
    30
100
AcDbLine
 10
537.550459
 20
426.291389
 30
0.0
 11
537.058829
 21
425.906871
 31
0.0
  0
LINE
  5
2F4
330
270
100
AcDbEntity
  8
0
  6
Continuous
 62
     0
370
    30
100
AcDbLine
 10
537.058829
 20
422.167936
 30
0.0
 11
537.550458
 21
422.647422
 31
0.0
  0
ARC
  5
2F5
330
270
100
AcDbEntity
  8
0
  6
Continuous
 62
     0
370
    30
100
AcDbCircle
 10
536.486509
 20
422.5137
 30
0.0
 40
1.072320319312429
100
AcDbArc
 50
0.011188
 51
7.163626
  0
ARC
  5
2F6
330
270
100
AcDbEntity
  8
0
  6
Continuous
 62
     0
370
    30
100
AcDbCircle
 10
533.50247
 20
424.104155
 30
0.0
 40
4.05635900577287
100
AcDbArc
 50
356.318544
 51
359.998223
  0
LINE
  5
2F7
330
270
100
AcDbEntity
  8
0
  6
Continuous
 62
     0
370
    30
100
AcDbLine
 10
537.550459
 20
423.843699
 30
0.0
 11
537.058829
 21
423.400587
 31
0.0
  0
LINE
  5
2F8
330
270
100
AcDbEntity
  8
0
  6
Continuous
 62
     0
370
    30
100
AcDbLine
 10
537.550458
 20
464.569322
 30
0.0
 11
537.27667
 21
464.569322
 31
0.0
  0
LINE
  5
2F9
330
270
100
AcDbEntity
  8
0
  6
Continuous
 62
     0
370
    30
100
AcDbLine
 10
501.893099
 20
465.048808
 30
0.0
 11
504.166487
 21
464.781783
 31
0.0
  0
LINE
  5
2FA
330
270
100
AcDbEntity
  8
0
  6
Continuous
 62
     0
370
    30
100
AcDbLine
 10
537.550459
 20
463.106021
 30
0.0
 11
506.875653
 21
463.106021
 31
0.0
  0
LINE
  5
2FB
330
270
100
AcDbEntity
  8
0
  6
Continuous
 62
     0
370
     0
100
AcDbLine
 10
506.875653
 20
463.106021
 30
0.0
 11
506.875653
 21
463.028472
 31
0.0
  0
ARC
  5
2FC
330
270
100
AcDbEntity
  8
0
  6
Continuous
 62
     0
370
    30
100
AcDbCircle
 10
506.875198
 20
479.735093
 30
0.0
 40
16.62907268859604
100
AcDbArc
 50
263.807611
 51
270.001569
  0
LINE
  5
2FD
330
270
100
AcDbEntity
  8
0
  6
Continuous
 62
     0
370
     0
100
AcDbLine
 10
505.081465
 20
463.203046
 30
0.0
 11
505.081465
 21
463.028472
 31
0.0
  0
LINE
  5
2FE
330
270
100
AcDbEntity
  8
0
  6
Continuous
 62
     0
370
    30
100
AcDbLine
 10
501.893099
 20
463.549132
 30
0.0
 11
505.081465
 21
463.203046
 31
0.0
  0
LINE
  5
2FF
330
270
100
AcDbEntity
  8
0
  6
Continuous
 62
     0
370
    30
100
AcDbLine
 10
537.550459
 20
460.65833
 30
0.0
 11
506.875653
 21
460.65833
 31
0.0
  0
LINE
  5
300
330
270
100
AcDbEntity
  8
0
  6
Continuous
 62
     0
370
     0
100
AcDbLine
 10
506.875653
 20
460.65833
 30
0.0
 11
506.875653
 21
460.29466
 31
0.0
  0
ARC
  5
301
330
270
100
AcDbEntity
  8
0
  6
Continuous
 62
     0
370
    30
100
AcDbCircle
 10
506.874713
 20
479.79724
 30
0.0
 40
19.13890990181986
100
AcDbArc
 50
264.623702
 51
270.002815
  0
LINE
  5
302
330
270
100
AcDbEntity
  8
0
  6
Continuous
 62
     0
370
     0
100
AcDbLine
 10
505.081465
 20
460.742526
 30
0.0
 11
505.081465
 21
460.29466
 31
0.0
  0
LINE
  5
303
330
270
100
AcDbEntity
  8
0
  6
Continuous
 62
     0
370
    30
100
AcDbLine
 10
505.081465
 20
460.742526
 30
0.0
 11
501.893099
 21
461.042848
 31
0.0
  0
LINE
  5
304
330
270
100
AcDbEntity
  8
0
  6
Continuous
 62
     0
370
    30
100
AcDbLine
 10
537.550459
 20
457.348989
 30
0.0
 11
506.875653
 21
457.348989
 31
0.0
  0
LINE
  5
305
330
270
100
AcDbEntity
  8
0
  6
Continuous
 62
     0
370
     0
100
AcDbLine
 10
506.875653
 20
457.348989
 30
0.0
 11
506.875653
 21
456.717434
 31
0.0
  0
ARC
  5
306
330
270
100
AcDbEntity
  8
0
  6
Continuous
 62
     0
370
    30
100
AcDbCircle
 10
506.874175
 20
481.314823
 30
0.0
 40
23.96583416853816
100
AcDbArc
 50
265.710112
 51
270.003535
  0
LINE
  5
307
330
270
100
AcDbEntity
  8
0
  6
Continuous
 62
     0
370
     0
100
AcDbLine
 10
505.081465
 20
457.416133
 30
0.0
 11
505.081465
 21
456.717434
 31
0.0
  0
LINE
  5
308
330
270
100
AcDbEntity
  8
0
  6
Continuous
 62
     0
370
    30
100
AcDbLine
 10
505.081465
 20
457.416133
 30
0.0
 11
501.893099
 21
457.655632
 31
0.0
  0
LINE
  5
309
330
270
100
AcDbEntity
  8
0
  6
Continuous
 62
     0
370
    30
100
AcDbLine
 10
537.550459
 20
453.343941
 30
0.0
 11
506.875654
 21
453.343941
 31
0.0
  0
LINE
  5
30A
330
270
100
AcDbEntity
  8
0
  6
Continuous
 62
     0
370
     0
100
AcDbLine
 10
506.875654
 20
453.343941
 30
0.0
 11
506.875654
 21
452.47617
 31
0.0
  0
ARC
  5
30B
330
270
100
AcDbEntity
  8
0
  6
Continuous
 62
     0
370
    30
100
AcDbCircle
 10
506.87369
 20
487.739281
 30
0.0
 40
34.39533992688668
100
AcDbArc
 50
267.013158
 51
270.003271
  0
LINE
  5
30C
330
270
100
AcDbEntity
  8
0
  6
Continuous
 62
     0
370
     0
100
AcDbLine
 10
505.081465
 20
453.390666
 30
0.0
 11
505.081465
 21
452.47617
 31
0.0
  0
LINE
  5
30D
330
270
100
AcDbEntity
  8
0
  6
Continuous
 62
     0
370
    30
100
AcDbLine
 10
505.081465
 20
453.390666
 30
0.0
 11
501.893099
 21
453.557333
 31
0.0
  0
LINE
  5
30E
330
270
100
AcDbEntity
  8
0
  6
Continuous
 62
     0
370
    30
100
AcDbLine
 10
537.550459
 20
448.844016
 30
0.0
 11
506.875654
 21
448.844016
 31
0.0
  0
LINE
  5
30F
330
270
100
AcDbEntity
  8
0
  6
Continuous
 62
     0
370
     0
100
AcDbLine
 10
506.875654
 20
448.844016
 30
0.0
 11
506.875654
 21
447.783542
 31
0.0
  0
ARC
  5
310
330
270
100
AcDbEntity
  8
0
  6
Continuous
 62
     0
370
    30
100
AcDbCircle
 10
506.873355
 20
515.851272
 30
0.0
 40
67.00725571600172
100
AcDbArc
 50
268.46763
 51
270.001966
  0
LINE
  5
311
330
270
100
AcDbEntity
  8
0
  6
Continuous
 62
     0
370
     0
100
AcDbLine
 10
505.081465
 20
448.86798
 30
0.0
 11
505.081465
 21
447.783542
 31
0.0
  0
LINE
  5
312
330
270
100
AcDbEntity
  8
0
  6
Continuous
 62
     0
370
    30
100
AcDbLine
 10
505.081465
 20
448.86798
 30
0.0
 11
501.893099
 21
448.953456
 31
0.0
  0
LINE
  5
313
330
270
100
AcDbEntity
  8
0
  6
Continuous
 62
     0
370
     0
100
AcDbLine
 10
506.875654
 20
444.07486
 30
0.0
 11
506.875654
 21
442.87486
 31
0.0
  0
LINE
  5
314
330
270
100
AcDbEntity
  8
0
  6
Continuous
 62
     0
370
     0
100
AcDbLine
 10
505.081465
 20
444.07486
 30
0.0
 11
505.081465
 21
442.87486
 31
0.0
  0
LINE
  5
315
330
270
100
AcDbEntity
  8
0
  6
Continuous
 62
     0
370
     0
100
AcDbLine
 10
506.875654
 20
439.166177
 30
0.0
 11
506.875654
 21
438.105703
 31
0.0
  0
LINE
  5
316
330
270
100
AcDbEntity
  8
0
  6
Continuous
 62
     0
370
    30
100
AcDbLine
 10
506.875654
 20
438.105703
 30
0.0
 11
537.550459
 21
438.105703
 31
0.0
  0
LINE
  5
317
330
270
100
AcDbEntity
  8
0
  6
Continuous
 62
     0
370
     0
100
AcDbLine
 10
505.081465
 20
439.166177
 30
0.0
 11
505.081465
 21
438.081739
 31
0.0
  0
ARC
  5
318
330
270
100
AcDbEntity
  8
0
  6
Continuous
 62
     0
370
    30
100
AcDbCircle
 10
506.873355
 20
371.098447
 30
0.0
 40
67.00725571582632
100
AcDbArc
 50
89.998034
 51
91.53237
  0
LINE
  5
319
330
270
100
AcDbEntity
  8
0
  6
Continuous
 62
     0
370
    30
100
AcDbLine
 10
501.893099
 20
437.996263
 30
0.0
 11
505.081465
 21
438.081739
 31
0.0
  0
LINE
  5
31A
330
270
100
AcDbEntity
  8
0
  6
Continuous
 62
     0
370
     0
100
AcDbLine
 10
506.875654
 20
434.473549
 30
0.0
 11
506.875654
 21
433.605778
 31
0.0
  0
LINE
  5
31B
330
270
100
AcDbEntity
  8
0
  6
Continuous
 62
     0
370
    30
100
AcDbLine
 10
506.875654
 20
433.605778
 30
0.0
 11
537.550459
 21
433.605778
 31
0.0
  0
LINE
  5
31C
330
270
100
AcDbEntity
  8
0
  6
Continuous
 62
     0
370
     0
100
AcDbLine
 10
505.081465
 20
434.473549
 30
0.0
 11
505.081465
 21
433.559053
 31
0.0
  0
ARC
  5
31D
330
270
100
AcDbEntity
  8
0
  6
Continuous
 62
     0
370
    30
100
AcDbCircle
 10
506.87369
 20
399.210438
 30
0.0
 40
34.39533992692082
100
AcDbArc
 50
89.996729
 51
92.986842
  0
LINE
  5
31E
330
270
100
AcDbEntity
  8
0
  6
Continuous
 62
     0
370
    30
100
AcDbLine
 10
501.893099
 20
433.392387
 30
0.0
 11
505.081465
 21
433.559053
 31
0.0
  0
LINE
  5
31F
330
270
100
AcDbEntity
  8
0
  6
Continuous
 62
     0
370
     0
100
AcDbLine
 10
506.875653
 20
430.232285
 30
0.0
 11
506.875653
 21
429.60073
 31
0.0
  0
LINE
  5
320
330
270
100
AcDbEntity
  8
0
  6
Continuous
 62
     0
370
    30
100
AcDbLine
 10
506.875653
 20
429.60073
 30
0.0
 11
537.550459
 21
429.60073
 31
0.0
  0
LINE
  5
321
330
270
100
AcDbEntity
  8
0
  6
Continuous
 62
     0
370
     0
100
AcDbLine
 10
505.081465
 20
430.232285
 30
0.0
 11
505.081465
 21
429.533586
 31
0.0
  0
ARC
  5
322
330
270
100
AcDbEntity
  8
0
  6
Continuous
 62
     0
370
    30
100
AcDbCircle
 10
506.874175
 20
405.634896
 30
0.0
 40
23.96583416860057
100
AcDbArc
 50
89.996465
 51
94.289888
  0
LINE
  5
323
330
270
100
AcDbEntity
  8
0
  6
Continuous
 62
     0
370
    30
100
AcDbLine
 10
501.893099
 20
429.294087
 30
0.0
 11
505.081465
 21
429.533586
 31
0.0
  0
LINE
  5
324
330
270
100
AcDbEntity
  8
0
  6
Continuous
 62
     0
370
     0
100
AcDbLine
 10
506.875653
 20
426.655059
 30
0.0
 11
506.875653
 21
426.291389
 31
0.0
  0
LINE
  5
325
330
270
100
AcDbEntity
  8
0
  6
Continuous
 62
     0
370
    30
100
AcDbLine
 10
506.875653
 20
426.291389
 30
0.0
 11
537.550459
 21
426.291389
 31
0.0
  0
LINE
  5
326
330
270
100
AcDbEntity
  8
0
  6
Continuous
 62
     0
370
     0
100
AcDbLine
 10
505.081465
 20
426.655059
 30
0.0
 11
505.081465
 21
426.207193
 31
0.0
  0
ARC
  5
327
330
270
100
AcDbEntity
  8
0
  6
Continuous
 62
     0
370
    30
100
AcDbCircle
 10
506.874713
 20
407.152479
 30
0.0
 40
19.13890990183775
100
AcDbArc
 50
89.997185
 51
95.376298
  0
LINE
  5
328
330
270
100
AcDbEntity
  8
0
  6
Continuous
 62
     0
370
    30
100
AcDbLine
 10
505.081465
 20
426.207193
 30
0.0
 11
501.893099
 21
425.906871
 31
0.0
  0
LINE
  5
329
330
270
100
AcDbEntity
  8
0
  6
Continuous
 62
     0
370
     0
100
AcDbLine
 10
506.875653
 20
423.921248
 30
0.0
 11
506.875653
 21
423.843699
 31
0.0
  0
LINE
  5
32A
330
270
100
AcDbEntity
  8
0
  6
Continuous
 62
     0
370
    30
100
AcDbLine
 10
506.875653
 20
423.843699
 30
0.0
 11
537.550459
 21
423.843699
 31
0.0
  0
LINE
  5
32B
330
270
100
AcDbEntity
  8
0
  6
Continuous
 62
     0
370
     0
100
AcDbLine
 10
505.081465
 20
423.921248
 30
0.0
 11
505.081465
 21
423.746673
 31
0.0
  0
ARC
  5
32C
330
270
100
AcDbEntity
  8
0
  6
Continuous
 62
     0
370
    30
100
AcDbCircle
 10
506.875198
 20
407.214626
 30
0.0
 40
16.62907268861136
100
AcDbArc
 50
89.998431
 51
96.192389
  0
LINE
  5
32D
330
270
100
AcDbEntity
  8
0
  6
Continuous
 62
     0
370
    30
100
AcDbLine
 10
501.893099
 20
423.400587
 30
0.0
 11
505.081465
 21
423.746673
 31
0.0
  0
LINE
  5
32E
330
270
100
AcDbEntity
  8
0
  6
Continuous
 62
     0
370
    30
100
AcDbLine
 10
537.27667
 20
422.380397
 30
0.0
 11
537.550458
 21
422.380397
 31
0.0
  0
LINE
  5
32F
330
270
100
AcDbEntity
  8
0
  6
Continuous
 62
     0
370
    30
100
AcDbLine
 10
504.166487
 20
422.167936
 30
0.0
 11
501.893099
 21
421.900911
 31
0.0
  0
LINE
  5
330
330
270
100
AcDbEntity
  8
0
  6
Continuous
 62
     0
370
    30
100
AcDbLine
 10
510.863967
 20
465.47486
 30
0.0
 11
505.83163
 21
465.47486
 31
0.0
  0
LINE
  5
331
330
270
100
AcDbEntity
  8
0
  6
Continuous
 62
     0
370
    30
100
AcDbLine
 10
491.558829
 20
421.47486
 30
0.0
 11
501.825174
 21
421.47486
 31
0.0
  0
LINE
  5
332
330
270
100
AcDbEntity
  8
0
  6
Continuous
 62
     0
370
    30
100
AcDbLine
 10
489.058828
 20
421.271688
 30
0.0
 11
478.865731
 21
421.271688
 31
0.0
  0
SPLINE
  5
333
330
270
100
AcDbEntity
  8
0
  6
Continuous
 62
     0
370
    30
100
AcDbSpline
210
0.0
220
0.0
230
1.0
 70
    12
 71
     2
 72
     8
 73
     5
 74
     0
 42
0.000000001
 43
0.0
 40
0.0
 40
0.0
 40
0.0
 40
44.4
 40
44.4
 40
88.8
 40
88.8
 40
88.8
 10
489.0588284541863
 20
421.2716884262994
 30
0.0
 41
1.0
 10
489.0588294245791
 20
421.2714937193638
 30
0.0
 41
0.7071067811865471
 10
489.0588294245876
 20
443.4714937185099
 30
0.0
 41
1.0
 10
489.0588294245961
 20
465.6714937176561
 30
0.0
 41
0.7071067811865471
 10
489.0588284542033
 20
465.6716884245917
 30
0.0
 41
1.0
  0
SPLINE
  5
334
330
270
100
AcDbEntity
  8
0
  6
Continuous
 62
     0
370
     0
100
AcDbSpline
210
0.0
220
0.0
230
1.0
 70
    12
 71
     2
 72
     6
 73
     3
 74
     0
 42
0.000000001
 43
0.0
 40
-8.410932935990195
 40
-8.410932935990195
 40
-8.410932935990195
 40
0.0
 40
0.0
 40
0.0
 10
496.9628008472236
 20
460.1065749704309
 30
0.0
 41
0.9917107044840194
 10
493.2331753225337
 20
461.8519700273436
 30
0.0
 41
0.9757323340753401
 10
489.0588288000012
 20
462.11241113056
 30
0.0
 41
1.0
  0
SPLINE
  5
335
330
270
100
AcDbEntity
  8
0
  6
Continuous
 62
     0
370
    30
100
AcDbSpline
210
0.0
220
0.0
230
1.0
 70
    12
 71
     2
 72
     8
 73
     5
 74
     0
 42
0.000000001
 43
0.0
 40
15.7763751039798
 40
15.7763751039798
 40
15.7763751039798
 40
21.2999999761581
 40
21.2999999761581
 40
42.5999999523163
 40
42.5999999523163
 40
42.5999999523163
 10
509.8396754052106
 20
502.1216872034713
 30
0.0
 41
0.8874847196207057
 10
509.8396754975911
 20
502.1216872056163
 30
0.0
 41
0.9240454333267019
 10
509.8396755829715
 20
501.3146791515284
 30
0.0
 41
1.0
 10
509.8396760132223
 20
497.247983995601
 30
0.0
 41
0.7071067811865471
 10
509.8396758354615
 20
487.4049920594649
 30
0.0
 41
1.0
  0
LINE
  5
336
330
270
100
AcDbEntity
  8
0
  6
Continuous
 62
     0
370
    30
100
AcDbLine
 10
509.839676
 20
487.404992
 30
0.0
 11
509.839675
 21
480.821687
 31
0.0
  0
SPLINE
  5
337
330
270
100
AcDbEntity
  8
0
  6
Continuous
 62
     0
370
     0
100
AcDbSpline
210
0.0
220
0.0
230
1.0
 70
     8
 71
     3
 72
    11
 73
     7
 74
     0
 42
0.000000001
 43
0.0
 40
0.0
 40
0.0
 40
0.0
 40
0.0
 40
0.119720534108367
 40
0.239441068216713
 40
0.359161602325064
 40
0.4788821364334029
 40
0.4788821364334029
 40
0.4788821364334029
 40
0.4788821364334029
 10
509.8396758354615
 20
487.4049920594649
 30
0.0
 10
509.8396758370378
 20
487.3900930378701
 30
0.0
 10
509.8240642067698
 20
487.3599688373175
 30
0.0
 10
509.7572997144218
 20
487.321892530066
 30
0.0
 10
509.6575841849178
 20
487.2963985531359
 30
0.0
 10
509.5786939016139
 20
487.29043726166
 30
0.0
 10
509.5396758356603
 20
487.29043726166
 30
0.0
  0
LINE
  5
338
330
270
100
AcDbEntity
  8
0
  6
Continuous
 62
     0
370
     0
100
AcDbLine
 10
509.539676
 20
487.290437
 30
0.0
 11
509.539675
 21
480.521692
 31
0.0
  0
LINE
  5
339
330
270
100
AcDbEntity
  8
0
  6
Continuous
 62
     0
370
     0
100
AcDbLine
 10
490.139675
 20
482.571691
 30
0.0
 11
490.139676
 21
488.073228
 31
0.0
  0
ARC
  5
33A
330
270
100
AcDbEntity
  8
0
  6
Continuous
 62
     0
370
     0
100
AcDbCircle
 10
490.134424
 20
488.753538
 30
0.0
 40
0.6803298194194429
100
AcDbArc
 50
255.643826
 51
270.442292
  0
SPLINE
  5
33B
330
270
100
AcDbEntity
  8
0
  6
Continuous
 62
     0
370
     0
100
AcDbSpline
210
0.0
220
0.0
230
1.0
 70
    12
 71
     2
 72
     6
 73
     3
 74
     0
 42
0.000000001
 43
0.0
 40
16.22077998637836
 40
16.22077998637836
 40
16.22077998637836
 40
21.8999999999999
 40
21.8999999999999
 40
21.8999999999999
 10
502.4370687802065
 20
502.4216872153922
 30
0.0
 41
0.8874847187417856
 10
502.4370688751893
 20
502.4216872283909
 30
0.0
 41
0.9240454324137268
 10
502.4370689629748
 20
501.5919465413391
 30
0.0
 41
1.0
  0
LINE
  5
33C
330
270
100
AcDbEntity
  8
0
  6
Continuous
 62
     0
370
     0
100
AcDbLine
 10
502.437069
 20
501.591947
 30
0.0
 11
509.539676
 21
501.591947
 31
0.0
  0
LINE
  5
33D
330
270
100
AcDbEntity
  8
0
  6
Continuous
 62
     0
370
     0
100
AcDbLine
 10
509.539676
 20
501.591947
 30
0.0
 11
509.539675
 21
502.421687
 31
0.0
  0
LINE
  5
33E
330
270
100
AcDbEntity
  8
0
  6
Continuous
 62
     0
370
     0
100
AcDbLine
 10
509.539676
 20
487.290437
 30
0.0
 11
502.437069
 21
487.290437
 31
0.0
  0
LINE
  5
33F
330
270
100
AcDbEntity
  8
0
  6
Continuous
 62
     0
370
     0
100
AcDbLine
 10
502.437069
 20
487.290437
 30
0.0
 11
502.437069
 21
480.521687
 31
0.0
  0
LINE
  5
340
330
270
100
AcDbEntity
  8
0
  6
Continuous
 62
     0
370
     0
100
AcDbLine
 10
509.539676
 20
487.290437
 30
0.0
 11
509.539676
 21
501.591947
 31
0.0
  0
LINE
  5
341
330
270
100
AcDbEntity
  8
0
  6
Continuous
 62
     0
370
     0
100
AcDbLine
 10
502.437069
 20
501.591947
 30
0.0
 11
502.437069
 21
487.290437
 31
0.0
  0
SPLINE
  5
342
330
270
100
AcDbEntity
  8
0
  6
Continuous
 62
     0
370
     0
100
AcDbSpline
210
0.0
220
0.0
230
1.0
 70
     8
 71
     3
 72
    11
 73
     7
 74
     0
 42
0.000000001
 43
0.0
 40
0.0
 40
0.0
 40
0.0
 40
0.0
 40
0.119034169116469
 40
0.238068338233021
 40
0.357102507349574
 40
0.4761366764661359
 40
0.4761366764661359
 40
0.4761366764661359
 40
0.4761366764661359
 10
502.437069222577
 20
487.29043726166
 30
0.0
 10
502.3982651539584
 20
487.29043726166
 30
0.0
 10
502.3198168751568
 20
487.2963316808067
 30
0.0
 10
502.2204580333726
 20
487.3215542538823
 30
0.0
 10
502.1535397513648
 20
487.3592728078025
 30
0.0
 10
502.1374192483732
 20
487.3891756502931
 30
0.0
 10
502.1370806217234
 20
487.4039923929553
 30
0.0
  0
LINE
  5
343
330
270
100
AcDbEntity
  8
0
  6
Continuous
 62
     0
370
     0
100
AcDbLine
 10
502.137081
 20
487.403992
 30
0.0
 11
502.13708
 21
480.819131
 31
0.0
  0
SPLINE
  5
344
330
270
100
AcDbEntity
  8
0
  6
Continuous
 62
     0
370
     0
100
AcDbSpline
210
0.0
220
0.0
230
1.0
 70
    12
 71
     2
 72
     8
 73
     5
 74
     0
 42
0.000000001
 43
0.0
 40
14.65243573767228
 40
14.65243573767228
 40
14.65243573767228
 40
19.782546928971
 40
19.782546928971
 40
39.5650944174771
 40
39.5650944174771
 40
39.5650944174771
 10
502.1304360387088
 20
501.3629606798778
 30
0.0
 41
0.8874847196204033
 10
502.130436124508
 20
501.3629606818733
 30
0.0
 41
0.9240454333263876
 10
502.1304362038056
 20
500.6134454368032
 30
0.0
 41
1.0
 10
502.1304366034046
 20
496.8364692673705
 30
0.0
 41
0.7071067611865469
 10
502.1304364383077
 20
487.6947112596175
 30
0.0
 41
1.0
  0
LINE
  5
345
330
270
100
AcDbEntity
  8
0
  6
Continuous
 62
     0
370
     0
100
AcDbLine
 10
502.130436
 20
487.694711
 30
0.0
 11
502.137081
 21
487.403992
 31
0.0
  0
LINE
  5
346
330
270
100
AcDbEntity
  8
0
  6
Continuous
 62
     0
370
     0
100
AcDbLine
 10
502.137081
 20
487.403992
 30
0.0
 11
502.13708
 21
502.124219
 31
0.0
  0
LINE
  5
347
330
270
100
AcDbEntity
  8
0
  6
Continuous
 62
     0
370
     0
100
AcDbLine
 10
501.130474
 20
488.073228
 30
0.0
 11
501.130474
 21
499.697286
 31
0.0
  0
LINE
  5
348
330
270
100
AcDbEntity
  8
0
  6
Continuous
 62
     0
370
     0
100
AcDbLine
 10
501.130474
 20
499.697286
 30
0.0
 11
490.139676
 21
499.697286
 31
0.0
  0
LINE
  5
349
330
270
100
AcDbEntity
  8
0
  6
Continuous
 62
     0
370
     0
100
AcDbLine
 10
490.139676
 20
499.697286
 30
0.0
 11
490.139676
 21
488.073228
 31
0.0
  0
LINE
  5
34A
330
270
100
AcDbEntity
  8
0
  6
Continuous
 62
     0
370
     0
100
AcDbLine
 10
490.139676
 20
488.073228
 30
0.0
 11
501.130474
 21
488.073228
 31
0.0
  0
SPLINE
  5
34B
330
270
100
AcDbEntity
  8
0
  6
Continuous
 62
     0
370
     0
100
AcDbSpline
210
0.0
220
0.0
230
1.0
 70
    12
 71
     2
 72
     6
 73
     3
 74
     0
 42
0.000000001
 43
0.0
 40
13.18401302358327
 40
13.18401302358327
 40
13.18401302358327
 40
17.7999999999999
 40
17.7999999999999
 40
17.7999999999999
 10
490.1396754271315
 20
500.3716872153923
 30
0.0
 41
0.8874847197970781
 10
490.1396755043322
 20
500.3716872154244
 30
0.0
 41
0.9240454335099075
 10
490.1396755756829
 20
499.6972861195865
 30
0.0
 41
1.0
  0
LINE
  5
34C
330
270
100
AcDbEntity
  8
0
  6
Continuous
 62
     0
370
     0
100
AcDbLine
 10
501.130474
 20
499.697286
 30
0.0
 11
501.130474
 21
500.371687
 31
0.0
  0
LINE
  5
34D
330
270
100
AcDbEntity
  8
0
  6
Continuous
 62
     0
370
     0
100
AcDbLine
 10
501.130474
 20
482.571687
 30
0.0
 11
501.130474
 21
488.073228
 31
0.0
  0
LINE
  5
34E
330
270
100
AcDbEntity
  8
0
  6
Continuous
 62
     0
370
     0
100
AcDbLine
 10
502.130436
 20
481.580418
 30
0.0
 11
502.130436
 21
487.694711
 31
0.0
  0
SPLINE
  5
34F
330
270
100
AcDbEntity
  8
0
  6
Continuous
 62
     0
370
     0
100
AcDbSpline
210
0.0
220
0.0
230
1.0
 70
     8
 71
     3
 72
    11
 73
     7
 74
     0
 42
0.000000001
 43
0.0
 40
-1.58712219180409
 40
-1.58712219180409
 40
-1.58712219180409
 40
-1.58712219180409
 40
-1.19034164386541
 40
-0.7935610959102289
 40
-0.3967805479550409
 40
0.0
 40
0.0
 40
0.0
 40
0.0
 10
502.1304364383077
 20
487.6947112596175
 30
0.0
 10
502.1293076828508
 20
487.7441003992493
 30
0.0
 10
502.0755726750135
 20
487.8437765354449
 30
0.0
 10
501.8525117438541
 20
487.9695050409185
 30
0.0
 10
501.5213156177342
 20
488.0535802785666
 30
0.0
 10
501.2598213654526
 20
488.0732283401318
 30
0.0
 10
501.130474475197
 20
488.0732283395207
 30
0.0
  0
LINE
  5
350
330
270
100
AcDbEntity
  8
0
  6
Continuous
 62
     0
370
    30
100
AcDbLine
 10
489.965731
 20
501.471688
 30
0.0
 11
489.965731
 21
481.471688
 31
0.0
  0
LINE
  5
351
330
270
100
AcDbEntity
  8
0
  6
Continuous
 62
     0
370
    30
100
AcDbLine
 10
489.965731
 20
481.471688
 30
0.0
 11
488.965731
 21
480.471688
 31
0.0
  0
LINE
  5
352
330
270
100
AcDbEntity
  8
0
  6
Continuous
 62
     0
370
    30
100
AcDbLine
 10
488.965731
 20
502.471688
 30
0.0
 11
489.965731
 21
501.471688
 31
0.0
  0
LINE
  5
353
330
270
100
AcDbEntity
  8
0
  6
Continuous
 62
     0
370
    30
100
AcDbLine
 10
478.865731
 20
527.971488
 30
0.0
 11
478.865731
 21
388.971688
 31
0.0
  0
LINE
  5
354
330
270
100
AcDbEntity
  8
0
  6
Continuous
 62
     0
370
    30
100
AcDbLine
 10
478.865731
 20
527.971488
 30
0.0
 11
478.365731
 21
528.471488
 31
0.0
  0
LINE
  5
355
330
270
100
AcDbEntity
  8
0
  6
Continuous
 62
     0
370
    30
100
AcDbLine
 10
478.365731
 20
528.471488
 30
0.0
 11
478.365734
 21
458.471588
 31
0.0
  0
LINE
  5
356
330
270
100
AcDbEntity
  8
0
  6
Continuous
 62
     0
370
    30
100
AcDbLine
 10
478.365734
 20
458.471588
 30
0.0
 11
478.365731
 21
388.471688
 31
0.0
  0
LINE
  5
357
330
270
100
AcDbEntity
  8
0
  6
Continuous
 62
     0
370
    30
100
AcDbLine
 10
478.365731
 20
388.471688
 30
0.0
 11
478.865731
 21
388.971688
 31
0.0
  0
LINE
  5
358
330
270
100
AcDbEntity
  8
0
  6
Continuous
 62
     0
370
    30
100
AcDbLine
 10
468.365742
 20
528.471488
 30
0.0
 11
468.365745
 21
458.471588
 31
0.0
  0
LINE
  5
359
330
270
100
AcDbEntity
  8
0
  6
Continuous
 62
     0
370
     0
100
AcDbLine
 10
468.365745
 20
458.471588
 30
0.0
 11
478.365734
 21
458.471588
 31
0.0
  0
LINE
  5
35A
330
270
100
AcDbEntity
  8
0
  6
Continuous
 62
     0
370
    30
100
AcDbLine
 10
478.365731
 20
388.471688
 30
0.0
 11
468.365742
 21
388.471688
 31
0.0
  0
LINE
  5
35B
330
270
100
AcDbEntity
  8
0
  6
Continuous
 62
     0
370
    30
100
AcDbLine
 10
468.365745
 20
458.471588
 30
0.0
 11
468.365742
 21
388.471688
 31
0.0
  0
LINE
  5
35C
330
270
100
AcDbEntity
  8
0
  6
Continuous
 62
     0
370
     0
100
AcDbLine
 10
478.865732
 20
491.471688
 30
0.0
 11
488.965732
 21
491.471688
 31
0.0
  0
LINE
  5
35D
330
270
100
AcDbEntity
  8
0
  6
Continuous
 62
     0
370
    30
100
AcDbLine
 10
488.965732
 20
491.471688
 30
0.0
 11
488.965731
 21
502.471688
 31
0.0
  0
LINE
  5
35E
330
270
100
AcDbEntity
  8
0
  6
Continuous
 62
     0
370
    30
100
AcDbLine
 10
488.965731
 20
502.471688
 30
0.0
 11
478.865731
 21
502.471688
 31
0.0
  0
LINE
  5
35F
330
270
100
AcDbEntity
  8
0
  6
Continuous
 62
     0
370
    30
100
AcDbLine
 10
488.965731
 20
480.471688
 30
0.0
 11
488.965732
 21
491.471688
 31
0.0
  0
ARC
  5
360
330
270
100
AcDbEntity
  8
0
  6
Continuous
 62
     0
370
    30
100
AcDbCircle
 10
501.130449
 20
501.371712
 30
0.0
 40
1.000024867382082
100
AcDbArc
 50
270.001412
 51
359.498588
  0
LINE
  5
361
330
270
100
AcDbEntity
  8
0
  6
Continuous
 62
     0
370
    30
100
AcDbLine
 10
502.13708
 20
480.819128
 30
0.0
 11
502.130436
 21
481.580414
 31
0.0
  0
ARC
  5
362
330
270
100
AcDbEntity
  8
0
  6
Continuous
 62
     0
370
    30
100
AcDbCircle
 10
502.437084
 20
502.121672
 30
0.0
 40
0.3000150256933805
100
AcDbArc
 50
90.002842
 51
179.497158
  0
ARC
  5
363
330
270
100
AcDbEntity
  8
0
  6
Continuous
 62
     0
370
    30
100
AcDbCircle
 10
490.139893
 20
500.071057
 30
0.0
 40
0.3006299391301699
100
AcDbArc
 50
90.041448
 51
125.411618
  0
ARC
  5
364
330
270
100
AcDbEntity
  8
0
  6
Continuous
 62
     0
370
    30
100
AcDbCircle
 10
509.53966
 20
502.121672
 30
0.0
 40
0.3000149227139985
100
AcDbArc
 50
0.007279
 51
89.997153
  0
ARC
  5
365
330
270
100
AcDbEntity
  8
0
  6
Continuous
 62
     0
370
    30
100
AcDbCircle
 10
487.672487
 20
443.268313
 30
0.0
 40
20.50030459749265
100
AcDbArc
 50
61.794283
 51
86.12239
  0
LINE
  5
366
330
270
100
AcDbEntity
  8
0
  6
Continuous
 62
     0
370
    30
100
AcDbLine
 10
488.965731
 20
480.471688
 30
0.0
 11
478.865731
 21
480.471688
 31
0.0
  0
LINE
  5
367
330
270
100
AcDbEntity
  8
0
  6
Continuous
 62
     0
370
    30
100
AcDbLine
 10
468.365742
 20
528.471488
 30
0.0
 11
478.365731
 21
528.471488
 31
0.0
  0
ARC
  5
368
330
270
100
AcDbEntity
  8
0
  6
Continuous
 62
     0
370
    30
100
AcDbCircle
 10
501.130449
 20
481.571662
 30
0.0
 40
1.000024867142093
100
AcDbArc
 50
0.501412
 51
89.998588
  0
LINE
  5
369
330
270
100
AcDbEntity
  8
0
  6
Continuous
 62
     0
370
    30
100
AcDbLine
 10
490.139675
 20
500.371687
 30
0.0
 11
501.130474
 21
500.371687
 31
0.0
  0
LINE
  5
36A
330
270
100
AcDbEntity
  8
0
  6
Continuous
 62
     0
370
    30
100
AcDbLine
 10
501.130474
 20
482.571687
 30
0.0
 11
490.139675
 21
482.571687
 31
0.0
  0
LINE
  5
36B
330
270
100
AcDbEntity
  8
0
  6
Continuous
 62
     0
370
    30
100
AcDbLine
 10
502.130436
 20
501.362961
 30
0.0
 11
502.136885
 21
502.101946
 31
0.0
  0
ARC
  5
36C
330
270
100
AcDbEntity
  8
0
  6
Continuous
 62
     0
370
    30
100
AcDbCircle
 10
502.437084
 20
480.821702
 30
0.0
 40
0.3000149931198851
100
AcDbArc
 50
180.503523
 51
269.997164
  0
LINE
  5
36D
330
270
100
AcDbEntity
  8
0
  6
Continuous
 62
     0
370
    30
100
AcDbLine
 10
502.437069
 20
502.421687
 30
0.0
 11
509.539675
 21
502.421687
 31
0.0
  0
LINE
  5
36E
330
270
100
AcDbEntity
  8
0
  6
Continuous
 62
     0
370
    30
100
AcDbLine
 10
509.539675
 20
480.521687
 30
0.0
 11
502.437069
 21
480.521687
 31
0.0
  0
ARC
  5
36F
330
270
100
AcDbEntity
  8
0
  6
Continuous
 62
     0
370
    30
100
AcDbCircle
 10
490.139773
 20
482.871941
 30
0.0
 40
0.3002541734168823
100
AcDbArc
 50
234.559675
 51
269.981414
  0
ARC
  5
370
330
270
100
AcDbEntity
  8
0
  6
Continuous
 62
     0
370
    30
100
AcDbCircle
 10
509.53966
 20
480.821702
 30
0.0
 40
0.3000149308062559
100
AcDbArc
 50
270.002849
 51
359.992895
  0
ARC
  5
371
330
270
100
AcDbEntity
  8
0
  6
Continuous
 62
     0
370
    30
100
AcDbCircle
 10
487.67231
 20
443.676624
 30
0.0
 40
20.5018738880932
100
AcDbArc
 50
273.877809
 51
280.92763
  0
LINE
  5
372
330
270
100
AcDbEntity
  8
0
  6
Continuous
 62
     0
370
    30
100
AcDbLine
 10
489.058828
 20
465.671688
 30
0.0
 11
478.865731
 21
465.671688
 31
0.0
  0
ENDBLK
  5
374
330
270
100
AcDbEntity
  8
0
100
AcDbBlockEnd
  0
BLOCK
  5
46B
330
376
100
AcDbEntity
  8
0
100
AcDbBlockBegin
  2
d
 70
     0
 10
229.142792
 20
0.0
 30
0.0
  3
d
  1

  0
LINE
  5
377
330
376
100
AcDbEntity
  8
0
  6
Continuous
 62
     0
370
    30
100
AcDbLine
 10
173.69966
 20
421.474844
 30
0.0
 11
173.699659
 21
443.474844
 31
0.0
  0
LINE
  5
378
330
376
100
AcDbEntity
  8
0
  6
Continuous
 62
     0
370
    30
100
AcDbLine
 10
173.699659
 20
443.474844
 30
0.0
 11
166.551426
 21
465.474844
 31
0.0
  0
LINE
  5
379
330
376
100
AcDbEntity
  8
0
  6
Continuous
 62
     0
370
    30
100
AcDbLine
 10
166.551426
 20
465.474844
 30
0.0
 11
159.426858
 21
465.474844
 31
0.0
  0
SPLINE
  5
37A
330
376
100
AcDbEntity
  8
0
  6
Continuous
 62
     0
370
     0
100
AcDbSpline
210
0.0
220
0.0
230
1.0
 70
     8
 71
     3
 72
    16
 73
    12
 74
     0
 42
0.000000001
 43
0.0
 40
0.0
 40
0.0
 40
0.0
 40
0.0
 40
0.382796951437819
 40
1.14839085431346
 40
2.29735682453948
 40
3.44655211029031
 40
4.59545225493445
 40
5.74418998968105
 40
6.89294508620424
 40
7.65880443524045
 40
8.04173410975857
 40
8.04173410975857
 40
8.04173410975857
 40
8.04173410975857
 10
159.4268581117652
 20
465.4748443515425
 30
0.0
 10
159.4268581063419
 20
465.4748443515425
 30
0.0
 10
159.3980437910777
 20
465.4716956759382
 30
0.0
 10
159.1694415562709
 20
465.4464601632969
 30
0.0
 10
158.5226654625905
 20
465.3857324607224
 30
0.0
 10
157.4829481493852
 20
465.3305803150276
 30
0.0
 10
156.3278810405491
 20
465.3297966643171
 30
0.0
 10
155.284949122781
 20
465.3850447370348
 30
0.0
 10
154.6458149075468
 20
465.4464567740223
 30
0.0
 10
154.4222676326601
 20
465.4716934921467
 30
0.0
 10
154.394520807323
 20
465.4748443515425
 30
0.0
 10
154.3945208127482
 20
465.4748443515425
 30
0.0
  0
LINE
  5
37B
330
376
100
AcDbEntity
  8
0
  6
Continuous
 62
     0
370
    30
100
AcDbLine
 10
154.394521
 20
465.474844
 30
0.0
 11
152.389272
 21
465.474844
 31
0.0
  0
LINE
  5
37C
330
376
100
AcDbEntity
  8
0
  6
Continuous
 62
     0
370
    30
100
AcDbLine
 10
152.389272
 20
465.474844
 30
0.0
 11
152.322624
 21
465.466661
 31
0.0
  0
LINE
  5
37D
330
376
100
AcDbEntity
  8
0
  6
Continuous
 62
     0
370
    30
100
AcDbLine
 10
152.322624
 20
465.466661
 30
0.0
 11
128.19966
 21
465.466661
 31
0.0
  0
LINE
  5
37E
330
376
100
AcDbEntity
  8
0
  6
Continuous
 62
     0
370
    30
100
AcDbLine
 10
128.19966
 20
465.466661
 30
0.0
 11
128.199659
 21
465.048793
 31
0.0
  0
LINE
  5
37F
330
376
100
AcDbEntity
  8
0
  6
Continuous
 62
     0
370
    30
100
AcDbLine
 10
128.199659
 20
465.048793
 30
0.0
 11
163.365389
 21
465.048793
 31
0.0
  0
SPLINE
  5
380
330
376
100
AcDbEntity
  8
0
  6
Continuous
 62
     0
370
    30
100
AcDbSpline
210
0.0
220
0.0
230
1.0
 70
    12
 71
     2
 72
     6
 73
     3
 74
     0
 42
0.000000001
 43
0.0
 40
-1.23082026699095
 40
-1.23082026699095
 40
-1.23082026699095
 40
0.0
 40
0.0
 40
0.0
 10
163.3653894343732
 20
465.0487928131792
 30
0.0
 41
1.0
 10
163.5012631165462
 20
464.931239555023
 30
0.0
 41
0.999628029992593
 10
163.3653893832347
 20
464.7817676924316
 30
0.0
 41
1.0
  0
LINE
  5
381
330
376
100
AcDbEntity
  8
0
  6
Continuous
 62
     0
370
    30
100
AcDbLine
 10
163.365389
 20
464.781768
 30
0.0
 11
128.199659
 21
464.781768
 31
0.0
  0
LINE
  5
382
330
376
100
AcDbEntity
  8
0
  6
Continuous
 62
     0
370
    30
100
AcDbLine
 10
128.199659
 20
464.781768
 30
0.0
 11
128.199659
 21
463.549117
 31
0.0
  0
LINE
  5
383
330
376
100
AcDbEntity
  8
0
  6
Continuous
 62
     0
370
    30
100
AcDbLine
 10
128.199659
 20
463.549117
 30
0.0
 11
163.365389
 21
463.549117
 31
0.0
  0
SPLINE
  5
384
330
376
100
AcDbEntity
  8
0
  6
Continuous
 62
     0
370
    30
100
AcDbSpline
210
0.0
220
0.0
230
1.0
 70
    12
 71
     2
 72
     6
 73
     3
 74
     0
 42
0.000000001
 43
0.0
 40
-1.23082026699094
 40
-1.23082026699094
 40
-1.23082026699094
 40
0.0
 40
0.0
 40
0.0
 10
163.3653892292519
 20
463.5491167541463
 30
0.0
 41
1.0
 10
163.5012629132134
 20
463.3035351236469
 30
0.0
 41
0.999628029992801
 10
163.3653891819928
 20
463.0284562672052
 30
0.0
 41
1.0
  0
LINE
  5
385
330
376
100
AcDbEntity
  8
0
  6
Continuous
 62
     0
370
    30
100
AcDbLine
 10
163.365389
 20
463.028456
 30
0.0
 11
128.199659
 21
463.028456
 31
0.0
  0
LINE
  5
386
330
376
100
AcDbEntity
  8
0
  6
Continuous
 62
     0
370
    30
100
AcDbLine
 10
128.199659
 20
463.028456
 30
0.0
 11
128.199659
 21
461.042833
 31
0.0
  0
LINE
  5
387
330
376
100
AcDbEntity
  8
0
  6
Continuous
 62
     0
370
    30
100
AcDbLine
 10
128.199659
 20
461.042833
 30
0.0
 11
163.365389
 21
461.042833
 31
0.0
  0
SPLINE
  5
388
330
376
100
AcDbEntity
  8
0
  6
Continuous
 62
     0
370
    30
100
AcDbSpline
210
0.0
220
0.0
230
1.0
 70
    12
 71
     2
 72
     6
 73
     3
 74
     0
 42
0.000000001
 43
0.0
 40
-1.23082026699096
 40
-1.23082026699096
 40
-1.23082026699096
 40
0.0
 40
0.0
 40
0.0
 10
163.3653890438604
 20
461.0428328539853
 30
0.0
 41
1.0
 10
163.5012627308109
 20
460.6815373395555
 30
0.0
 41
0.9996280299930081
 10
163.3653890028505
 20
460.2946450917548
 30
0.0
 41
1.0
  0
LINE
  5
389
330
376
100
AcDbEntity
  8
0
  6
Continuous
 62
     0
370
    30
100
AcDbLine
 10
163.365389
 20
460.294645
 30
0.0
 11
128.199659
 21
460.294645
 31
0.0
  0
LINE
  5
38A
330
376
100
AcDbEntity
  8
0
  6
Continuous
 62
     0
370
    30
100
AcDbLine
 10
128.199659
 20
460.294645
 30
0.0
 11
128.199659
 21
457.655617
 31
0.0
  0
LINE
  5
38B
330
376
100
AcDbEntity
  8
0
  6
Continuous
 62
     0
370
    30
100
AcDbLine
 10
128.199659
 20
457.655617
 30
0.0
 11
163.365389
 21
457.655617
 31
0.0
  0
ARC
  5
38C
330
376
100
AcDbEntity
  8
0
  6
Continuous
 62
     0
370
    30
100
AcDbCircle
 10
161.779695
 20
457.186518
 30
0.0
 40
1.653626035837855
100
AcDbArc
 50
343.520099
 51
16.479897
  0
LINE
  5
38D
330
376
100
AcDbEntity
  8
0
  6
Continuous
 62
     0
370
    30
100
AcDbLine
 10
163.365389
 20
456.717419
 30
0.0
 11
128.199659
 21
456.717419
 31
0.0
  0
LINE
  5
38E
330
376
100
AcDbEntity
  8
0
  6
Continuous
 62
     0
370
    30
100
AcDbLine
 10
128.199659
 20
456.717419
 30
0.0
 11
128.199659
 21
453.557317
 31
0.0
  0
LINE
  5
38F
330
376
100
AcDbEntity
  8
0
  6
Continuous
 62
     0
370
    30
100
AcDbLine
 10
128.199659
 20
453.557317
 30
0.0
 11
163.365389
 21
453.557317
 31
0.0
  0
ARC
  5
390
330
376
100
AcDbEntity
  8
0
  6
Continuous
 62
     0
370
    30
100
AcDbCircle
 10
161.24831
 20
453.016736
 30
0.0
 40
2.185006070568468
100
AcDbArc
 50
345.675995
 51
14.324002
  0
LINE
  5
391
330
376
100
AcDbEntity
  8
0
  6
Continuous
 62
     0
370
    30
100
AcDbLine
 10
163.365389
 20
452.476155
 30
0.0
 11
128.199659
 21
452.476155
 31
0.0
  0
LINE
  5
392
330
376
100
AcDbEntity
  8
0
  6
Continuous
 62
     0
370
    30
100
AcDbLine
 10
128.199659
 20
452.476155
 30
0.0
 11
128.199659
 21
448.953441
 31
0.0
  0
LINE
  5
393
330
376
100
AcDbEntity
  8
0
  6
Continuous
 62
     0
370
    30
100
AcDbLine
 10
128.199659
 20
448.953441
 30
0.0
 11
163.365389
 21
448.953441
 31
0.0
  0
ARC
  5
394
330
376
100
AcDbEntity
  8
0
  6
Continuous
 62
     0
370
    30
100
AcDbCircle
 10
160.88058
 20
448.368484
 30
0.0
 40
2.552733679482448
100
AcDbArc
 50
346.753016
 51
13.246983
  0
LINE
  5
395
330
376
100
AcDbEntity
  8
0
  6
Continuous
 62
     0
370
    30
100
AcDbLine
 10
163.365389
 20
447.783527
 30
0.0
 11
128.199659
 21
447.783527
 31
0.0
  0
LINE
  5
396
330
376
100
AcDbEntity
  8
0
  6
Continuous
 62
     0
370
    30
100
AcDbLine
 10
128.199659
 20
447.783527
 30
0.0
 11
128.199659
 21
444.074844
 31
0.0
  0
LINE
  5
397
330
376
100
AcDbEntity
  8
0
  6
Continuous
 62
     0
370
    30
100
AcDbLine
 10
128.199659
 20
444.074844
 30
0.0
 11
163.365389
 21
444.074844
 31
0.0
  0
ARC
  5
398
330
376
100
AcDbEntity
  8
0
  6
Continuous
 62
     0
370
    30
100
AcDbCircle
 10
160.749339
 20
443.474844
 30
0.0
 40
2.683974291910709
100
AcDbArc
 50
347.082426
 51
12.917574
  0
LINE
  5
399
330
376
100
AcDbEntity
  8
0
  6
Continuous
 62
     0
370
    30
100
AcDbLine
 10
163.365389
 20
442.874844
 30
0.0
 11
128.199659
 21
442.874844
 31
0.0
  0
LINE
  5
39A
330
376
100
AcDbEntity
  8
0
  6
Continuous
 62
     0
370
    30
100
AcDbLine
 10
128.199659
 20
442.874844
 30
0.0
 11
128.199659
 21
439.166162
 31
0.0
  0
LINE
  5
39B
330
376
100
AcDbEntity
  8
0
  6
Continuous
 62
     0
370
    30
100
AcDbLine
 10
128.199659
 20
439.166162
 30
0.0
 11
163.365389
 21
439.166162
 31
0.0
  0
ARC
  5
39C
330
376
100
AcDbEntity
  8
0
  6
Continuous
 62
     0
370
    30
100
AcDbCircle
 10
160.88058
 20
438.581205
 30
0.0
 40
2.552733679483845
100
AcDbArc
 50
346.753017
 51
13.246984
  0
LINE
  5
39D
330
376
100
AcDbEntity
  8
0
  6
Continuous
 62
     0
370
    30
100
AcDbLine
 10
163.365389
 20
437.996248
 30
0.0
 11
128.199659
 21
437.996248
 31
0.0
  0
LINE
  5
39E
330
376
100
AcDbEntity
  8
0
  6
Continuous
 62
     0
370
    30
100
AcDbLine
 10
128.199659
 20
437.996248
 30
0.0
 11
128.199659
 21
434.473534
 31
0.0
  0
LINE
  5
39F
330
376
100
AcDbEntity
  8
0
  6
Continuous
 62
     0
370
    30
100
AcDbLine
 10
128.199659
 20
434.473534
 30
0.0
 11
163.365389
 21
434.473534
 31
0.0
  0
ARC
  5
3A0
330
376
100
AcDbEntity
  8
0
  6
Continuous
 62
     0
370
    30
100
AcDbCircle
 10
161.24831
 20
433.932953
 30
0.0
 40
2.185006070567655
100
AcDbArc
 50
345.675998
 51
14.324005
  0
LINE
  5
3A1
330
376
100
AcDbEntity
  8
0
  6
Continuous
 62
     0
370
    30
100
AcDbLine
 10
163.365389
 20
433.392371
 30
0.0
 11
128.199659
 21
433.392371
 31
0.0
  0
LINE
  5
3A2
330
376
100
AcDbEntity
  8
0
  6
Continuous
 62
     0
370
    30
100
AcDbLine
 10
128.199659
 20
433.392371
 30
0.0
 11
128.199659
 21
430.23227
 31
0.0
  0
LINE
  5
3A3
330
376
100
AcDbEntity
  8
0
  6
Continuous
 62
     0
370
    30
100
AcDbLine
 10
128.199659
 20
430.23227
 30
0.0
 11
163.365389
 21
430.23227
 31
0.0
  0
ARC
  5
3A4
330
376
100
AcDbEntity
  8
0
  6
Continuous
 62
     0
370
    30
100
AcDbCircle
 10
161.779695
 20
429.763171
 30
0.0
 40
1.653626035838546
100
AcDbArc
 50
343.520103
 51
16.479901
  0
LINE
  5
3A5
330
376
100
AcDbEntity
  8
0
  6
Continuous
 62
     0
370
    30
100
AcDbLine
 10
163.365389
 20
429.294072
 30
0.0
 11
128.199659
 21
429.294072
 31
0.0
  0
LINE
  5
3A6
330
376
100
AcDbEntity
  8
0
  6
Continuous
 62
     0
370
    30
100
AcDbLine
 10
128.199659
 20
429.294072
 30
0.0
 11
128.199659
 21
426.655044
 31
0.0
  0
LINE
  5
3A7
330
376
100
AcDbEntity
  8
0
  6
Continuous
 62
     0
370
    30
100
AcDbLine
 10
128.199659
 20
426.655044
 30
0.0
 11
163.365389
 21
426.655044
 31
0.0
  0
SPLINE
  5
3A8
330
376
100
AcDbEntity
  8
0
  6
Continuous
 62
     0
370
    30
100
AcDbSpline
210
0.0
220
0.0
230
1.0
 70
    12
 71
     2
 72
     6
 73
     3
 74
     0
 42
0.000000001
 43
0.0
 40
-1.23082026699096
 40
-1.23082026699096
 40
-1.23082026699096
 40
0.0
 40
0.0
 40
0.0
 10
163.3653890028503
 20
426.6550436113303
 30
0.0
 41
1.0
 10
163.5012627308108
 20
426.2681513635297
 30
0.0
 41
0.999628029992801
 10
163.3653890438604
 20
425.9068558490998
 30
0.0
 41
1.0
  0
LINE
  5
3A9
330
376
100
AcDbEntity
  8
0
  6
Continuous
 62
     0
370
    30
100
AcDbLine
 10
163.365389
 20
425.906856
 30
0.0
 11
128.199659
 21
425.906856
 31
0.0
  0
LINE
  5
3AA
330
376
100
AcDbEntity
  8
0
  6
Continuous
 62
     0
370
    30
100
AcDbLine
 10
128.199659
 20
425.906856
 30
0.0
 11
128.199659
 21
423.921232
 31
0.0
  0
LINE
  5
3AB
330
376
100
AcDbEntity
  8
0
  6
Continuous
 62
     0
370
    30
100
AcDbLine
 10
128.199659
 20
423.921232
 30
0.0
 11
163.365389
 21
423.921232
 31
0.0
  0
SPLINE
  5
3AC
330
376
100
AcDbEntity
  8
0
  6
Continuous
 62
     0
370
    30
100
AcDbSpline
210
0.0
220
0.0
230
1.0
 70
    12
 71
     2
 72
     6
 73
     3
 74
     0
 42
0.000000001
 43
0.0
 40
-1.23082026699091
 40
-1.23082026699091
 40
-1.23082026699091
 40
0.0
 40
0.0
 40
0.0
 10
163.3653891819928
 20
423.9212324358797
 30
0.0
 41
1.0
 10
163.5012629132134
 20
423.6461535794384
 30
0.0
 41
0.9996280299923859
 10
163.3653892292519
 20
423.4005719489388
 30
0.0
 41
1.0
  0
LINE
  5
3AD
330
376
100
AcDbEntity
  8
0
  6
Continuous
 62
     0
370
    30
100
AcDbLine
 10
163.365389
 20
423.400572
 30
0.0
 11
128.199659
 21
423.400572
 31
0.0
  0
LINE
  5
3AE
330
376
100
AcDbEntity
  8
0
  6
Continuous
 62
     0
370
    30
100
AcDbLine
 10
128.199659
 20
423.400572
 30
0.0
 11
128.199659
 21
422.167921
 31
0.0
  0
LINE
  5
3AF
330
376
100
AcDbEntity
  8
0
  6
Continuous
 62
     0
370
    30
100
AcDbLine
 10
128.199659
 20
422.167921
 30
0.0
 11
163.365389
 21
422.167921
 31
0.0
  0
SPLINE
  5
3B0
330
376
100
AcDbEntity
  8
0
  6
Continuous
 62
     0
370
    30
100
AcDbSpline
210
0.0
220
0.0
230
1.0
 70
    12
 71
     2
 72
     6
 73
     3
 74
     0
 42
0.000000001
 43
0.0
 40
-1.23082026699091
 40
-1.23082026699091
 40
-1.23082026699091
 40
0.0
 40
0.0
 40
0.0
 10
163.3653893832347
 20
422.1679210106533
 30
0.0
 41
1.0
 10
163.5012631165462
 20
422.0184491480622
 30
0.0
 41
0.999628029992593
 10
163.3653894343732
 20
421.9008958899059
 30
0.0
 41
1.0
  0
LINE
  5
3B1
330
376
100
AcDbEntity
  8
0
  6
Continuous
 62
     0
370
    30
100
AcDbLine
 10
163.365389
 20
421.900896
 30
0.0
 11
128.199659
 21
421.900896
 31
0.0
  0
LINE
  5
3B2
330
376
100
AcDbEntity
  8
0
  6
Continuous
 62
     0
370
    30
100
AcDbLine
 10
128.199659
 20
421.900896
 30
0.0
 11
128.19966
 21
421.483028
 31
0.0
  0
LINE
  5
3B3
330
376
100
AcDbEntity
  8
0
  6
Continuous
 62
     0
370
    30
100
AcDbLine
 10
128.19966
 20
421.483028
 30
0.0
 11
163.36539
 21
421.483028
 31
0.0
  0
LINE
  5
3B4
330
376
100
AcDbEntity
  8
0
  6
Continuous
 62
     0
370
    30
100
AcDbLine
 10
163.36539
 20
421.483028
 30
0.0
 11
163.433314
 21
421.474844
 31
0.0
  0
LINE
  5
3B5
330
376
100
AcDbEntity
  8
0
  6
Continuous
 62
     0
370
    30
100
AcDbLine
 10
127.699659
 20
422.513894
 30
0.0
 11
127.699659
 21
424.104014
 31
0.0
  0
LINE
  5
3B6
330
376
100
AcDbEntity
  8
0
  6
Continuous
 62
     0
370
    30
100
AcDbLine
 10
127.699659
 20
424.104014
 30
0.0
 11
127.699659
 21
426.665467
 31
0.0
  0
LINE
  5
3B7
330
376
100
AcDbEntity
  8
0
  6
Continuous
 62
     0
370
    30
100
AcDbLine
 10
127.699659
 20
426.665467
 30
0.0
 11
127.699659
 21
430.069814
 31
0.0
  0
LINE
  5
3B8
330
376
100
AcDbEntity
  8
0
  6
Continuous
 62
     0
370
    30
100
AcDbLine
 10
127.699659
 20
430.069814
 30
0.0
 11
127.699659
 21
434.146344
 31
0.0
  0
LINE
  5
3B9
330
376
100
AcDbEntity
  8
0
  6
Continuous
 62
     0
370
    30
100
AcDbLine
 10
127.699659
 20
434.146344
 30
0.0
 11
127.699659
 21
438.690644
 31
0.0
  0
LINE
  5
3BA
330
376
100
AcDbEntity
  8
0
  6
Continuous
 62
     0
370
    30
100
AcDbLine
 10
127.699659
 20
438.690644
 30
0.0
 11
127.699659
 21
443.474844
 31
0.0
  0
LINE
  5
3BB
330
376
100
AcDbEntity
  8
0
  6
Continuous
 62
     0
370
    30
100
AcDbLine
 10
127.699659
 20
443.474844
 30
0.0
 11
127.699659
 21
448.259044
 31
0.0
  0
LINE
  5
3BC
330
376
100
AcDbEntity
  8
0
  6
Continuous
 62
     0
370
    30
100
AcDbLine
 10
127.699659
 20
448.259044
 30
0.0
 11
127.699659
 21
452.803345
 31
0.0
  0
LINE
  5
3BD
330
376
100
AcDbEntity
  8
0
  6
Continuous
 62
     0
370
    30
100
AcDbLine
 10
127.699659
 20
452.803345
 30
0.0
 11
127.699659
 21
456.879875
 31
0.0
  0
LINE
  5
3BE
330
376
100
AcDbEntity
  8
0
  6
Continuous
 62
     0
370
    30
100
AcDbLine
 10
127.699659
 20
456.879875
 30
0.0
 11
127.699659
 21
460.284221
 31
0.0
  0
LINE
  5
3BF
330
376
100
AcDbEntity
  8
0
  6
Continuous
 62
     0
370
    30
100
AcDbLine
 10
127.699659
 20
460.284221
 30
0.0
 11
127.699659
 21
462.845675
 31
0.0
  0
LINE
  5
3C0
330
376
100
AcDbEntity
  8
0
  6
Continuous
 62
     0
370
    30
100
AcDbLine
 10
127.699659
 20
462.845675
 30
0.0
 11
127.699659
 21
464.435794
 31
0.0
  0
LINE
  5
3C1
330
376
100
AcDbEntity
  8
0
  6
Continuous
 62
     0
370
    30
100
AcDbLine
 10
127.699659
 20
464.435794
 30
0.0
 11
127.69966
 21
464.974844
 31
0.0
  0
LINE
  5
3C2
330
376
100
AcDbEntity
  8
0
  6
Continuous
 62
     0
370
    30
100
AcDbLine
 10
127.69966
 20
421.974844
 30
0.0
 11
127.699659
 21
422.513894
 31
0.0
  0
LINE
  5
3C3
330
376
100
AcDbEntity
  8
0
  6
Continuous
 62
     0
370
    30
100
AcDbLine
 10
127.70803
 20
421.974844
 30
0.0
 11
127.699718
 21
421.974844
 31
0.0
  0
LINE
  5
3C4
330
376
100
AcDbEntity
  8
0
  6
Continuous
 62
     0
370
    30
100
AcDbLine
 10
128.19966
 20
421.483028
 30
0.0
 11
127.70803
 21
421.974844
 31
0.0
  0
LINE
  5
3C5
330
376
100
AcDbEntity
  8
0
  6
Continuous
 62
     0
370
    30
100
AcDbLine
 10
128.199659
 20
421.900896
 30
0.0
 11
127.70803
 21
422.380382
 31
0.0
  0
ARC
  5
3C6
330
376
100
AcDbEntity
  8
0
  6
Continuous
 62
     0
370
    30
100
AcDbCircle
 10
128.771976
 20
422.514104
 30
0.0
 40
1.072316255831647
100
AcDbArc
 50
180.011196
 51
187.163661
  0
LINE
  5
3C7
330
376
100
AcDbEntity
  8
0
  6
Continuous
 62
     0
370
    30
100
AcDbLine
 10
128.199659
 20
423.400572
 30
0.0
 11
127.70803
 21
423.843683
 31
0.0
  0
ARC
  5
3C8
330
376
100
AcDbEntity
  8
0
  6
Continuous
 62
     0
370
    30
100
AcDbCircle
 10
131.756017
 20
424.104139
 30
0.0
 40
4.056357866429328
100
AcDbArc
 50
180.001776
 51
183.681456
  0
ARC
  5
3C9
330
376
100
AcDbEntity
  8
0
  6
Continuous
 62
     0
370
    30
100
AcDbCircle
 10
128.77198
 20
422.513685
 30
0.0
 40
1.072320648530016
100
AcDbArc
 50
172.836375
 51
179.988811
  0
LINE
  5
3CA
330
376
100
AcDbEntity
  8
0
  6
Continuous
 62
     0
370
    30
100
AcDbLine
 10
127.70803
 20
422.647407
 30
0.0
 11
128.199659
 21
422.167921
 31
0.0
  0
LINE
  5
3CB
330
376
100
AcDbEntity
  8
0
  6
Continuous
 62
     0
370
    30
100
AcDbLine
 10
128.199659
 20
425.906856
 30
0.0
 11
127.708029
 21
426.291374
 31
0.0
  0
ARC
  5
3CC
330
376
100
AcDbEntity
  8
0
  6
Continuous
 62
     0
370
    30
100
AcDbCircle
 10
136.068083
 20
426.665573
 30
0.0
 40
8.368424423980874
100
AcDbArc
 50
180.000725
 51
182.562874
  0
ARC
  5
3CD
330
376
100
AcDbEntity
  8
0
  6
Continuous
 62
     0
370
    30
100
AcDbCircle
 10
131.756026
 20
424.103888
 30
0.0
 40
4.056366448652343
100
AcDbArc
 50
176.318558
 51
179.99823
  0
LINE
  5
3CE
330
376
100
AcDbEntity
  8
0
  6
Continuous
 62
     0
370
    30
100
AcDbLine
 10
127.70803
 20
424.364344
 30
0.0
 11
128.199659
 21
423.921232
 31
0.0
  0
LINE
  5
3CF
330
376
100
AcDbEntity
  8
0
  6
Continuous
 62
     0
370
    30
100
AcDbLine
 10
128.199659
 20
429.294072
 30
0.0
 11
127.708029
 21
429.600715
 31
0.0
  0
ARC
  5
3D0
330
376
100
AcDbEntity
  8
0
  6
Continuous
 62
     0
370
    30
100
AcDbCircle
 10
140.854117
 20
430.069914
 30
0.0
 40
13.15445824802548
100
AcDbArc
 50
180.000438
 51
182.044087
  0
ARC
  5
3D1
330
376
100
AcDbEntity
  8
0
  6
Continuous
 62
     0
370
    30
100
AcDbCircle
 10
136.068095
 20
426.665362
 30
0.0
 40
8.368436107789218
100
AcDbArc
 50
177.437134
 51
179.999279
  0
LINE
  5
3D2
330
376
100
AcDbEntity
  8
0
  6
Continuous
 62
     0
370
    30
100
AcDbLine
 10
127.708029
 20
427.039561
 30
0.0
 11
128.199659
 21
426.655044
 31
0.0
  0
LINE
  5
3D3
330
376
100
AcDbEntity
  8
0
  6
Continuous
 62
     0
370
    30
100
AcDbLine
 10
128.199659
 20
433.392371
 30
0.0
 11
127.708029
 21
433.605763
 31
0.0
  0
ARC
  5
3D4
330
376
100
AcDbEntity
  8
0
  6
Continuous
 62
     0
370
    30
100
AcDbCircle
 10
145.166185
 20
434.146444
 30
0.0
 40
17.46652664068549
100
AcDbArc
 50
180.000328
 51
181.77389
  0
ARC
  5
3D5
330
376
100
AcDbEntity
  8
0
  6
Continuous
 62
     0
370
    30
100
AcDbCircle
 10
140.85413
 20
430.069714
 30
0.0
 40
13.15447132880961
100
AcDbArc
 50
177.955918
 51
179.999565
  0
LINE
  5
3D6
330
376
100
AcDbEntity
  8
0
  6
Continuous
 62
     0
370
    30
100
AcDbLine
 10
127.708029
 20
430.538913
 30
0.0
 11
128.199659
 21
430.23227
 31
0.0
  0
LINE
  5
3D7
330
376
100
AcDbEntity
  8
0
  6
Continuous
 62
     0
370
    30
100
AcDbLine
 10
128.199659
 20
437.996248
 30
0.0
 11
127.708029
 21
438.105688
 31
0.0
  0
ARC
  5
3D8
330
376
100
AcDbEntity
  8
0
  6
Continuous
 62
     0
370
    30
100
AcDbCircle
 10
148.15023
 20
438.690745
 30
0.0
 40
20.45057157186336
100
AcDbArc
 50
180.000281
 51
181.639361
  0
ARC
  5
3D9
330
376
100
AcDbEntity
  8
0
  6
Continuous
 62
     0
370
    30
100
AcDbCircle
 10
145.166198
 20
434.146245
 30
0.0
 40
17.46653913801478
100
AcDbArc
 50
178.226113
 51
179.999674
  0
LINE
  5
3DA
330
376
100
AcDbEntity
  8
0
  6
Continuous
 62
     0
370
    30
100
AcDbLine
 10
127.708029
 20
434.686925
 30
0.0
 11
128.199659
 21
434.473534
 31
0.0
  0
LINE
  5
3DB
330
376
100
AcDbEntity
  8
0
  6
Continuous
 62
     0
370
    30
100
AcDbLine
 10
128.199659
 20
442.874844
 30
0.0
 11
127.708029
 21
442.874844
 31
0.0
  0
ARC
  5
3DC
330
376
100
AcDbEntity
  8
0
  6
Continuous
 62
     0
370
    30
100
AcDbCircle
 10
149.215225
 20
443.474945
 30
0.0
 40
21.51556634523985
100
AcDbArc
 50
180.000267
 51
181.59827
  0
ARC
  5
3DD
330
376
100
AcDbEntity
  8
0
  6
Continuous
 62
     0
370
    30
100
AcDbCircle
 10
148.15024
 20
438.690544
 30
0.0
 40
20.45058162399588
100
AcDbArc
 50
178.36064
 51
179.99972
  0
LINE
  5
3DE
330
376
100
AcDbEntity
  8
0
  6
Continuous
 62
     0
370
    30
100
AcDbLine
 10
127.708029
 20
439.275601
 30
0.0
 11
128.199659
 21
439.166162
 31
0.0
  0
LINE
  5
3DF
330
376
100
AcDbEntity
  8
0
  6
Continuous
 62
     0
370
    30
100
AcDbLine
 10
128.199659
 20
447.783527
 30
0.0
 11
127.708029
 21
447.674088
 31
0.0
  0
ARC
  5
3E0
330
376
100
AcDbEntity
  8
0
  6
Continuous
 62
     0
370
    30
100
AcDbCircle
 10
148.150234
 20
448.259144
 30
0.0
 40
20.45057568312787
100
AcDbArc
 50
180.00028
 51
181.63936
  0
ARC
  5
3E1
330
376
100
AcDbEntity
  8
0
  6
Continuous
 62
     0
370
    30
100
AcDbCircle
 10
149.215231
 20
443.474744
 30
0.0
 40
21.51557257499134
100
AcDbArc
 50
178.40173
 51
179.999732
  0
LINE
  5
3E2
330
376
100
AcDbEntity
  8
0
  6
Continuous
 62
     0
370
    30
100
AcDbLine
 10
127.708029
 20
444.074844
 30
0.0
 11
128.199659
 21
444.074844
 31
0.0
  0
LINE
  5
3E3
330
376
100
AcDbEntity
  8
0
  6
Continuous
 62
     0
370
    30
100
AcDbLine
 10
128.199659
 20
452.476155
 30
0.0
 11
127.708029
 21
452.262763
 31
0.0
  0
ARC
  5
3E4
330
376
100
AcDbEntity
  8
0
  6
Continuous
 62
     0
370
    30
100
AcDbCircle
 10
145.166193
 20
452.803444
 30
0.0
 40
17.46653404609153
100
AcDbArc
 50
180.000326
 51
181.773888
  0
ARC
  5
3E5
330
376
100
AcDbEntity
  8
0
  6
Continuous
 62
     0
370
    30
100
AcDbCircle
 10
148.150236
 20
448.258944
 30
0.0
 40
20.45057747358504
100
AcDbArc
 50
178.360639
 51
179.999719
  0
LINE
  5
3E6
330
376
100
AcDbEntity
  8
0
  6
Continuous
 62
     0
370
    30
100
AcDbLine
 10
127.708029
 20
448.844001
 30
0.0
 11
128.199659
 21
448.953441
 31
0.0
  0
LINE
  5
3E7
330
376
100
AcDbEntity
  8
0
  6
Continuous
 62
     0
370
    30
100
AcDbLine
 10
128.199659
 20
456.717419
 30
0.0
 11
127.708029
 21
456.410776
 31
0.0
  0
ARC
  5
3E8
330
376
100
AcDbEntity
  8
0
  6
Continuous
 62
     0
370
    30
100
AcDbCircle
 10
140.854126
 20
456.879975
 30
0.0
 40
13.15446747653402
100
AcDbArc
 50
180.000435
 51
182.044082
  0
ARC
  5
3E9
330
376
100
AcDbEntity
  8
0
  6
Continuous
 62
     0
370
    30
100
AcDbCircle
 10
145.16619
 20
452.803245
 30
0.0
 40
17.46653166319427
100
AcDbArc
 50
178.22611
 51
179.999672
  0
LINE
  5
3EA
330
376
100
AcDbEntity
  8
0
  6
Continuous
 62
     0
370
    30
100
AcDbLine
 10
127.708029
 20
453.343926
 30
0.0
 11
128.199659
 21
453.557317
 31
0.0
  0
LINE
  5
3EB
330
376
100
AcDbEntity
  8
0
  6
Continuous
 62
     0
370
    30
100
AcDbLine
 10
128.199659
 20
460.294645
 30
0.0
 11
127.708029
 21
459.910127
 31
0.0
  0
ARC
  5
3EC
330
376
100
AcDbEntity
  8
0
  6
Continuous
 62
     0
370
    30
100
AcDbCircle
 10
136.068093
 20
460.284326
 30
0.0
 40
8.36843364174898
100
AcDbArc
 50
180.00072
 51
182.562867
  0
ARC
  5
3ED
330
376
100
AcDbEntity
  8
0
  6
Continuous
 62
     0
370
    30
100
AcDbCircle
 10
140.854121
 20
456.879774
 30
0.0
 40
13.15446201331767
100
AcDbArc
 50
177.955913
 51
179.999561
  0
LINE
  5
3EE
330
376
100
AcDbEntity
  8
0
  6
Continuous
 62
     0
370
    30
100
AcDbLine
 10
127.708029
 20
457.348974
 30
0.0
 11
128.199659
 21
457.655617
 31
0.0
  0
LINE
  5
3EF
330
376
100
AcDbEntity
  8
0
  6
Continuous
 62
     0
370
    30
100
AcDbLine
 10
128.199659
 20
463.028456
 30
0.0
 11
127.70803
 21
462.585345
 31
0.0
  0
ARC
  5
3F0
330
376
100
AcDbEntity
  8
0
  6
Continuous
 62
     0
370
    30
100
AcDbCircle
 10
131.756024
 20
462.8458
 30
0.0
 40
4.056365239584054
100
AcDbArc
 50
180.001769
 51
183.681442
  0
ARC
  5
3F1
330
376
100
AcDbEntity
  8
0
  6
Continuous
 62
     0
370
    30
100
AcDbCircle
 10
136.068086
 20
460.284115
 30
0.0
 40
8.368426803503752
100
AcDbArc
 50
177.437126
 51
179.999275
  0
LINE
  5
3F2
330
376
100
AcDbEntity
  8
0
  6
Continuous
 62
     0
370
    30
100
AcDbLine
 10
127.708029
 20
460.658315
 30
0.0
 11
128.199659
 21
461.042833
 31
0.0
  0
LINE
  5
3F3
330
376
100
AcDbEntity
  8
0
  6
Continuous
 62
     0
370
    30
100
AcDbLine
 10
128.199659
 20
464.781768
 30
0.0
 11
127.70803
 21
464.302282
 31
0.0
  0
ARC
  5
3F4
330
376
100
AcDbEntity
  8
0
  6
Continuous
 62
     0
370
    30
100
AcDbCircle
 10
128.77198
 20
464.436004
 30
0.0
 40
1.072320319256571
100
AcDbArc
 50
180.011188
 51
187.163626
  0
ARC
  5
3F5
330
376
100
AcDbEntity
  8
0
  6
Continuous
 62
     0
370
    30
100
AcDbCircle
 10
131.756018
 20
462.845549
 30
0.0
 40
4.05635900569759
100
AcDbArc
 50
176.318544
 51
179.998223
  0
LINE
  5
3F6
330
376
100
AcDbEntity
  8
0
  6
Continuous
 62
     0
370
    30
100
AcDbLine
 10
127.70803
 20
463.106005
 30
0.0
 11
128.199659
 21
463.549117
 31
0.0
  0
LINE
  5
3F7
330
376
100
AcDbEntity
  8
0
  6
Continuous
 62
     0
370
    30
100
AcDbLine
 10
128.19966
 20
465.466661
 30
0.0
 11
127.70803
 21
464.974844
 31
0.0
  0
LINE
  5
3F8
330
376
100
AcDbEntity
  8
0
  6
Continuous
 62
     0
370
    30
100
AcDbLine
 10
127.70803
 20
464.974844
 30
0.0
 11
127.699718
 21
464.974844
 31
0.0
  0
ARC
  5
3F9
330
376
100
AcDbEntity
  8
0
  6
Continuous
 62
     0
370
    30
100
AcDbCircle
 10
128.771976
 20
464.435585
 30
0.0
 40
1.072316546502837
100
AcDbArc
 50
172.83634
 51
179.988803
  0
LINE
  5
3FA
330
376
100
AcDbEntity
  8
0
  6
Continuous
 62
     0
370
    30
100
AcDbLine
 10
127.70803
 20
464.569307
 30
0.0
 11
128.199659
 21
465.048793
 31
0.0
  0
LINE
  5
3FB
330
376
100
AcDbEntity
  8
0
  6
Continuous
 62
     0
370
    30
100
AcDbLine
 10
127.70803
 20
422.380382
 30
0.0
 11
127.981818
 21
422.380382
 31
0.0
  0
LINE
  5
3FC
330
376
100
AcDbEntity
  8
0
  6
Continuous
 62
     0
370
    30
100
AcDbLine
 10
161.092001
 20
422.167921
 30
0.0
 11
163.365389
 21
421.900896
 31
0.0
  0
LINE
  5
3FD
330
376
100
AcDbEntity
  8
0
  6
Continuous
 62
     0
370
    30
100
AcDbLine
 10
127.70803
 20
423.843683
 30
0.0
 11
158.382835
 21
423.843683
 31
0.0
  0
LINE
  5
3FE
330
376
100
AcDbEntity
  8
0
  6
Continuous
 62
     0
370
     0
100
AcDbLine
 10
158.382835
 20
423.843683
 30
0.0
 11
158.382835
 21
423.921232
 31
0.0
  0
ARC
  5
3FF
330
376
100
AcDbEntity
  8
0
  6
Continuous
 62
     0
370
    30
100
AcDbCircle
 10
158.38329
 20
407.214611
 30
0.0
 40
16.629072688607
100
AcDbArc
 50
83.807611
 51
90.001569
  0
LINE
  5
400
330
376
100
AcDbEntity
  8
0
  6
Continuous
 62
     0
370
     0
100
AcDbLine
 10
160.177023
 20
423.746658
 30
0.0
 11
160.177023
 21
423.921232
 31
0.0
  0
LINE
  5
401
330
376
100
AcDbEntity
  8
0
  6
Continuous
 62
     0
370
    30
100
AcDbLine
 10
160.177023
 20
423.746658
 30
0.0
 11
163.365389
 21
423.400572
 31
0.0
  0
LINE
  5
402
330
376
100
AcDbEntity
  8
0
  6
Continuous
 62
     0
370
    30
100
AcDbLine
 10
127.708029
 20
426.291374
 30
0.0
 11
158.382835
 21
426.291374
 31
0.0
  0
LINE
  5
403
330
376
100
AcDbEntity
  8
0
  6
Continuous
 62
     0
370
     0
100
AcDbLine
 10
158.382835
 20
426.291374
 30
0.0
 11
158.382835
 21
426.655044
 31
0.0
  0
ARC
  5
404
330
376
100
AcDbEntity
  8
0
  6
Continuous
 62
     0
370
    30
100
AcDbCircle
 10
158.383775
 20
407.152464
 30
0.0
 40
19.13890990184495
100
AcDbArc
 50
84.623702
 51
90.002815
  0
LINE
  5
405
330
376
100
AcDbEntity
  8
0
  6
Continuous
 62
     0
370
     0
100
AcDbLine
 10
160.177023
 20
426.207178
 30
0.0
 11
160.177023
 21
426.655044
 31
0.0
  0
LINE
  5
406
330
376
100
AcDbEntity
  8
0
  6
Continuous
 62
     0
370
    30
100
AcDbLine
 10
160.177023
 20
426.207178
 30
0.0
 11
163.365389
 21
425.906856
 31
0.0
  0
LINE
  5
407
330
376
100
AcDbEntity
  8
0
  6
Continuous
 62
     0
370
    30
100
AcDbLine
 10
127.708029
 20
429.600715
 30
0.0
 11
158.382835
 21
429.600715
 31
0.0
  0
LINE
  5
408
330
376
100
AcDbEntity
  8
0
  6
Continuous
 62
     0
370
     0
100
AcDbLine
 10
158.382835
 20
429.600715
 30
0.0
 11
158.382835
 21
430.23227
 31
0.0
  0
ARC
  5
409
330
376
100
AcDbEntity
  8
0
  6
Continuous
 62
     0
370
    30
100
AcDbCircle
 10
158.384313
 20
405.634881
 30
0.0
 40
23.96583416859131
100
AcDbArc
 50
85.710112
 51
90.003535
  0
LINE
  5
40A
330
376
100
AcDbEntity
  8
0
  6
Continuous
 62
     0
370
     0
100
AcDbLine
 10
160.177023
 20
429.533571
 30
0.0
 11
160.177023
 21
430.23227
 31
0.0
  0
LINE
  5
40B
330
376
100
AcDbEntity
  8
0
  6
Continuous
 62
     0
370
    30
100
AcDbLine
 10
160.177023
 20
429.533571
 30
0.0
 11
163.365389
 21
429.294072
 31
0.0
  0
LINE
  5
40C
330
376
100
AcDbEntity
  8
0
  6
Continuous
 62
     0
370
    30
100
AcDbLine
 10
127.708029
 20
433.605763
 30
0.0
 11
158.382835
 21
433.605763
 31
0.0
  0
LINE
  5
40D
330
376
100
AcDbEntity
  8
0
  6
Continuous
 62
     0
370
     0
100
AcDbLine
 10
158.382835
 20
433.605763
 30
0.0
 11
158.382835
 21
434.473534
 31
0.0
  0
ARC
  5
40E
330
376
100
AcDbEntity
  8
0
  6
Continuous
 62
     0
370
    30
100
AcDbCircle
 10
158.384798
 20
399.210423
 30
0.0
 40
34.39533992691369
100
AcDbArc
 50
87.013158
 51
90.003271
  0
LINE
  5
40F
330
376
100
AcDbEntity
  8
0
  6
Continuous
 62
     0
370
     0
100
AcDbLine
 10
160.177023
 20
433.559038
 30
0.0
 11
160.177023
 21
434.473534
 31
0.0
  0
LINE
  5
410
330
376
100
AcDbEntity
  8
0
  6
Continuous
 62
     0
370
    30
100
AcDbLine
 10
160.177023
 20
433.559038
 30
0.0
 11
163.365389
 21
433.392371
 31
0.0
  0
LINE
  5
411
330
376
100
AcDbEntity
  8
0
  6
Continuous
 62
     0
370
    30
100
AcDbLine
 10
127.708029
 20
438.105688
 30
0.0
 11
158.382835
 21
438.105688
 31
0.0
  0
LINE
  5
412
330
376
100
AcDbEntity
  8
0
  6
Continuous
 62
     0
370
     0
100
AcDbLine
 10
158.382835
 20
438.105688
 30
0.0
 11
158.382835
 21
439.166162
 31
0.0
  0
ARC
  5
413
330
376
100
AcDbEntity
  8
0
  6
Continuous
 62
     0
370
    30
100
AcDbCircle
 10
158.385134
 20
371.098432
 30
0.0
 40
67.00725571609469
100
AcDbArc
 50
88.46763
 51
90.001966
  0
LINE
  5
414
330
376
100
AcDbEntity
  8
0
  6
Continuous
 62
     0
370
     0
100
AcDbLine
 10
160.177023
 20
438.081724
 30
0.0
 11
160.177023
 21
439.166162
 31
0.0
  0
LINE
  5
415
330
376
100
AcDbEntity
  8
0
  6
Continuous
 62
     0
370
    30
100
AcDbLine
 10
160.177023
 20
438.081724
 30
0.0
 11
163.365389
 21
437.996248
 31
0.0
  0
LINE
  5
416
330
376
100
AcDbEntity
  8
0
  6
Continuous
 62
     0
370
     0
100
AcDbLine
 10
158.382835
 20
442.874844
 30
0.0
 11
158.382835
 21
444.074844
 31
0.0
  0
LINE
  5
417
330
376
100
AcDbEntity
  8
0
  6
Continuous
 62
     0
370
     0
100
AcDbLine
 10
160.177023
 20
442.874844
 30
0.0
 11
160.177023
 21
444.074844
 31
0.0
  0
LINE
  5
418
330
376
100
AcDbEntity
  8
0
  6
Continuous
 62
     0
370
     0
100
AcDbLine
 10
158.382835
 20
447.783527
 30
0.0
 11
158.382835
 21
448.844001
 31
0.0
  0
LINE
  5
419
330
376
100
AcDbEntity
  8
0
  6
Continuous
 62
     0
370
    30
100
AcDbLine
 10
158.382835
 20
448.844001
 30
0.0
 11
127.708029
 21
448.844001
 31
0.0
  0
LINE
  5
41A
330
376
100
AcDbEntity
  8
0
  6
Continuous
 62
     0
370
     0
100
AcDbLine
 10
160.177023
 20
447.783527
 30
0.0
 11
160.177023
 21
448.867965
 31
0.0
  0
ARC
  5
41B
330
376
100
AcDbEntity
  8
0
  6
Continuous
 62
     0
370
    30
100
AcDbCircle
 10
158.385134
 20
515.851257
 30
0.0
 40
67.00725571603422
100
AcDbArc
 50
269.998034
 51
271.53237
  0
LINE
  5
41C
330
376
100
AcDbEntity
  8
0
  6
Continuous
 62
     0
370
    30
100
AcDbLine
 10
163.365389
 20
448.953441
 30
0.0
 11
160.177023
 21
448.867965
 31
0.0
  0
LINE
  5
41D
330
376
100
AcDbEntity
  8
0
  6
Continuous
 62
     0
370
     0
100
AcDbLine
 10
158.382835
 20
452.476155
 30
0.0
 11
158.382835
 21
453.343926
 31
0.0
  0
LINE
  5
41E
330
376
100
AcDbEntity
  8
0
  6
Continuous
 62
     0
370
    30
100
AcDbLine
 10
158.382835
 20
453.343926
 30
0.0
 11
127.708029
 21
453.343926
 31
0.0
  0
LINE
  5
41F
330
376
100
AcDbEntity
  8
0
  6
Continuous
 62
     0
370
     0
100
AcDbLine
 10
160.177023
 20
452.476155
 30
0.0
 11
160.177023
 21
453.390651
 31
0.0
  0
ARC
  5
420
330
376
100
AcDbEntity
  8
0
  6
Continuous
 62
     0
370
    30
100
AcDbCircle
 10
158.384798
 20
487.739266
 30
0.0
 40
34.39533992692652
100
AcDbArc
 50
269.996729
 51
272.986842
  0
LINE
  5
421
330
376
100
AcDbEntity
  8
0
  6
Continuous
 62
     0
370
    30
100
AcDbLine
 10
160.177023
 20
453.390651
 30
0.0
 11
163.365389
 21
453.557317
 31
0.0
  0
LINE
  5
422
330
376
100
AcDbEntity
  8
0
  6
Continuous
 62
     0
370
     0
100
AcDbLine
 10
158.382835
 20
456.717419
 30
0.0
 11
158.382835
 21
457.348974
 31
0.0
  0
LINE
  5
423
330
376
100
AcDbEntity
  8
0
  6
Continuous
 62
     0
370
    30
100
AcDbLine
 10
158.382835
 20
457.348974
 30
0.0
 11
127.708029
 21
457.348974
 31
0.0
  0
LINE
  5
424
330
376
100
AcDbEntity
  8
0
  6
Continuous
 62
     0
370
     0
100
AcDbLine
 10
160.177023
 20
456.717419
 30
0.0
 11
160.177023
 21
457.416118
 31
0.0
  0
ARC
  5
425
330
376
100
AcDbEntity
  8
0
  6
Continuous
 62
     0
370
    30
100
AcDbCircle
 10
158.384313
 20
481.314808
 30
0.0
 40
23.96583416855559
100
AcDbArc
 50
269.996465
 51
274.289888
  0
LINE
  5
426
330
376
100
AcDbEntity
  8
0
  6
Continuous
 62
     0
370
    30
100
AcDbLine
 10
160.177023
 20
457.416118
 30
0.0
 11
163.365389
 21
457.655617
 31
0.0
  0
LINE
  5
427
330
376
100
AcDbEntity
  8
0
  6
Continuous
 62
     0
370
     0
100
AcDbLine
 10
158.382835
 20
460.294645
 30
0.0
 11
158.382835
 21
460.658315
 31
0.0
  0
LINE
  5
428
330
376
100
AcDbEntity
  8
0
  6
Continuous
 62
     0
370
    30
100
AcDbLine
 10
158.382835
 20
460.658315
 30
0.0
 11
127.708029
 21
460.658315
 31
0.0
  0
LINE
  5
429
330
376
100
AcDbEntity
  8
0
  6
Continuous
 62
     0
370
     0
100
AcDbLine
 10
160.177023
 20
460.294645
 30
0.0
 11
160.177023
 21
460.742511
 31
0.0
  0
ARC
  5
42A
330
376
100
AcDbEntity
  8
0
  6
Continuous
 62
     0
370
    30
100
AcDbCircle
 10
158.383775
 20
479.797225
 30
0.0
 40
19.13890990181683
100
AcDbArc
 50
269.997185
 51
275.376298
  0
LINE
  5
42B
330
376
100
AcDbEntity
  8
0
  6
Continuous
 62
     0
370
    30
100
AcDbLine
 10
160.177023
 20
460.742511
 30
0.0
 11
163.365389
 21
461.042833
 31
0.0
  0
LINE
  5
42C
330
376
100
AcDbEntity
  8
0
  6
Continuous
 62
     0
370
     0
100
AcDbLine
 10
158.382835
 20
463.028456
 30
0.0
 11
158.382835
 21
463.106005
 31
0.0
  0
LINE
  5
42D
330
376
100
AcDbEntity
  8
0
  6
Continuous
 62
     0
370
    30
100
AcDbLine
 10
158.382835
 20
463.106005
 30
0.0
 11
127.70803
 21
463.106005
 31
0.0
  0
LINE
  5
42E
330
376
100
AcDbEntity
  8
0
  6
Continuous
 62
     0
370
     0
100
AcDbLine
 10
160.177023
 20
463.028456
 30
0.0
 11
160.177023
 21
463.203031
 31
0.0
  0
ARC
  5
42F
330
376
100
AcDbEntity
  8
0
  6
Continuous
 62
     0
370
    30
100
AcDbCircle
 10
158.38329
 20
479.735078
 30
0.0
 40
16.62907268859369
100
AcDbArc
 50
269.998431
 51
276.192389
  0
LINE
  5
430
330
376
100
AcDbEntity
  8
0
  6
Continuous
 62
     0
370
    30
100
AcDbLine
 10
163.365389
 20
463.549117
 30
0.0
 11
160.177023
 21
463.203031
 31
0.0
  0
LINE
  5
431
330
376
100
AcDbEntity
  8
0
  6
Continuous
 62
     0
370
    30
100
AcDbLine
 10
127.981818
 20
464.569307
 30
0.0
 11
127.70803
 21
464.569307
 31
0.0
  0
LINE
  5
432
330
376
100
AcDbEntity
  8
0
  6
Continuous
 62
     0
370
    30
100
AcDbLine
 10
161.092001
 20
464.781768
 30
0.0
 11
163.365389
 21
465.048793
 31
0.0
  0
LINE
  5
433
330
376
100
AcDbEntity
  8
0
  6
Continuous
 62
     0
370
    30
100
AcDbLine
 10
154.394521
 20
465.474844
 30
0.0
 11
159.426858
 21
465.474844
 31
0.0
  0
LINE
  5
434
330
376
100
AcDbEntity
  8
0
  6
Continuous
 62
     0
370
    30
100
AcDbLine
 10
173.69966
 20
421.474844
 30
0.0
 11
163.433314
 21
421.474844
 31
0.0
  0
LINE
  5
435
330
376
100
AcDbEntity
  8
0
  6
Continuous
 62
     0
370
     0
100
AcDbLine
 10
186.392756
 20
443.471868
 30
0.0
 11
176.199659
 21
443.471868
 31
0.0
  0
LINE
  5
436
330
376
100
AcDbEntity
  8
0
  6
Continuous
 62
     0
370
    30
100
AcDbLine
 10
176.199659
 20
443.471868
 30
0.0
 11
176.19966
 21
421.271673
 31
0.0
  0
LINE
  5
437
330
376
100
AcDbEntity
  8
0
  6
Continuous
 62
     0
370
    30
100
AcDbLine
 10
176.19966
 20
421.271673
 30
0.0
 11
186.392757
 21
421.271673
 31
0.0
  0
SPLINE
  5
438
330
376
100
AcDbEntity
  8
0
  6
Continuous
 62
     0
370
    30
100
AcDbSpline
210
0.0
220
0.0
230
1.0
 70
    12
 71
     2
 72
     6
 73
     3
 74
     0
 42
0.000000001
 43
0.0
 40
0.0
 40
0.0
 40
0.0
 40
44.3999999999998
 40
44.3999999999998
 40
44.3999999999998
 10
176.1996597240669
 20
465.6716731658026
 30
0.0
 41
1.0
 10
176.1996587536741
 20
465.6718678727381
 30
0.0
 41
0.7071067811865499
 10
176.1996587536656
 20
443.471867873592
 30
0.0
 41
1.0
  0
ARC
  5
439
330
376
100
AcDbEntity
  8
0
  6
Continuous
 62
     0
370
     0
100
AcDbCircle
 10
177.579602
 20
446.970087
 30
0.0
 40
22.18210076011049
100
AcDbArc
 50
259.926393
 51
266.433343
  0
LINE
  5
43A
330
376
100
AcDbEntity
  8
0
  6
Continuous
 62
     0
370
    30
100
AcDbLine
 10
155.418812
 20
495.538367
 30
0.0
 11
155.418813
 21
502.121672
 31
0.0
  0
SPLINE
  5
43B
330
376
100
AcDbEntity
  8
0
  6
Continuous
 62
     0
370
    30
100
AcDbSpline
210
0.0
220
0.0
230
1.0
 70
    12
 71
     2
 72
     8
 73
     5
 74
     0
 42
0.000000001
 43
0.0
 40
15.77637510394412
 40
15.77637510394412
 40
15.77637510394412
 40
21.2999999761581
 40
21.2999999761581
 40
42.5999999523163
 40
42.5999999523163
 40
42.5999999523163
 10
155.4188127730425
 20
480.8216719685241
 30
0.0
 41
0.8874847196202333
 10
155.418812680662
 20
480.8216719663735
 30
0.0
 41
0.9240454333262111
 10
155.4188125952816
 20
481.6286800204671
 30
0.0
 41
1.0
 10
155.4188121650308
 20
485.6953751763945
 30
0.0
 41
0.7071067811865471
 10
155.4188123427917
 20
495.5383671125306
 30
0.0
 41
1.0
  0
SPLINE
  5
43C
330
376
100
AcDbEntity
  8
0
  6
Continuous
 62
     0
370
     0
100
AcDbSpline
210
0.0
220
0.0
230
1.0
 70
     8
 71
     3
 72
    17
 73
    13
 74
     0
 42
0.000000001
 43
0.0
 40
12.95987765057381
 40
12.95987765057381
 40
12.95987765057381
 40
12.95987765057381
 40
15.1198572647251
 40
17.2798368725183
 40
19.4398164803115
 40
21.5997960881046
 40
23.7597756958977
 40
25.9197553036909
 40
28.079734911484
 40
30.2397145192772
 40
32.3996941270703
 40
34.55967373486349
 40
34.55967373486349
 40
34.55967373486349
 40
34.55967373486349
 10
155.7188127853955
 20
480.5216764177896
 30
0.0
 10
155.7188127540688
 20
480.5210298871016
 30
0.0
 10
155.71881269141
 20
480.6609070566589
 30
0.0
 10
155.718812601017
 20
481.286175526418
 30
0.0
 10
155.718812517693
 20
482.3028666216078
 30
0.0
 10
155.71881244464
 20
483.6719098416789
 30
0.0
 10
155.7188123846653
 20
485.3406935248278
 30
0.0
 10
155.718812340074
 20
487.245087276402
 30
0.0
 10
155.7188123125795
 20
489.311906305444
 30
0.0
 10
155.7188123032385
 20
491.4617239176503
 30
0.0
 10
155.7188123124099
 20
493.6119238273077
 30
0.0
 10
155.7188123306308
 20
494.9905579810145
 30
0.0
 10
155.7188123425928
 20
495.6529219103356
 30
0.0
  0
SPLINE
  5
43D
330
376
100
AcDbEntity
  8
0
  6
Continuous
 62
     0
370
     0
100
AcDbSpline
210
0.0
220
0.0
230
1.0
 70
     8
 71
     3
 72
    11
 73
     7
 74
     0
 42
0.000000001
 43
0.0
 40
0.0
 40
0.0
 40
0.0
 40
0.0
 40
0.119720534108342
 40
0.239441068216696
 40
0.359161602325045
 40
0.478882136433439
 40
0.478882136433439
 40
0.478882136433439
 40
0.478882136433439
 10
155.7188123425928
 20
495.6529219103356
 30
0.0
 10
155.6797942766392
 20
495.6529219103356
 30
0.0
 10
155.6009039933353
 20
495.6469606188596
 30
0.0
 10
155.5011884638313
 20
495.6214666419295
 30
0.0
 10
155.4344239714834
 20
495.5833903346781
 30
0.0
 10
155.4188123412154
 20
495.5532661341255
 30
0.0
 10
155.4188123427917
 20
495.5383671125306
 30
0.0
  0
LINE
  5
43E
330
376
100
AcDbEntity
  8
0
  6
Continuous
 62
     0
370
     0
100
AcDbLine
 10
175.118812
 20
494.870131
 30
0.0
 11
175.118813
 21
482.571676
 31
0.0
  0
ARC
  5
43F
330
376
100
AcDbEntity
  8
0
  6
Continuous
 62
     0
370
     0
100
AcDbCircle
 10
175.123043
 20
494.181484
 30
0.0
 40
0.6886602528093406
100
AcDbArc
 50
75.731669
 51
90.351974
  0
LINE
  5
440
330
376
100
AcDbEntity
  8
0
  6
Continuous
 62
     0
370
     0
100
AcDbLine
 10
162.821419
 20
495.652922
 30
0.0
 11
162.821419
 21
502.421672
 31
0.0
  0
LINE
  5
441
330
376
100
AcDbEntity
  8
0
  6
Continuous
 62
     0
370
     0
100
AcDbLine
 10
155.718813
 20
502.421672
 30
0.0
 11
155.718812
 21
495.652922
 31
0.0
  0
SPLINE
  5
442
330
376
100
AcDbEntity
  8
0
  6
Continuous
 62
     0
370
     0
100
AcDbSpline
210
0.0
220
0.0
230
1.0
 70
    12
 71
     2
 72
     8
 73
     5
 74
     0
 42
0.000000001
 43
0.0
 40
16.22078005460601
 40
16.22078005460601
 40
16.22078005460601
 40
21.8999999999999
 40
21.8999999999999
 40
43.7999999999998
 40
43.7999999999998
 40
43.7999999999998
 10
162.8214193980467
 20
480.5216719566032
 30
0.0
 41
0.8874847196202333
 10
162.8214193030639
 20
480.5216719543921
 30
0.0
 41
0.9240454333262109
 10
162.8214192152785
 20
481.3514126306565
 30
0.0
 41
1.0
 10
162.8214187729079
 20
485.5326625843888
 30
0.0
 41
0.707106781186548
 10
162.8214189556761
 20
495.6529219103356
 30
0.0
 41
1.0
  0
SPLINE
  5
443
330
376
100
AcDbEntity
  8
0
  6
Continuous
 62
     0
370
     0
100
AcDbSpline
210
0.0
220
0.0
230
1.0
 70
     8
 71
     3
 72
    11
 73
     7
 74
     0
 42
0.000000001
 43
0.0
 40
0.0
 40
0.0
 40
0.0
 40
0.0
 40
0.119034169116566
 40
0.238068338233121
 40
0.357102507349677
 40
0.476136676466155
 40
0.476136676466155
 40
0.476136676466155
 40
0.476136676466155
 10
163.1214075565297
 20
495.5393667790402
 30
0.0
 10
163.1210689298799
 20
495.5541835217024
 30
0.0
 10
163.1049484268883
 20
495.5840863641931
 30
0.0
 10
163.0380301448805
 20
495.6218049181132
 30
0.0
 10
162.9386713030963
 20
495.6470274911889
 30
0.0
 10
162.8602230242947
 20
495.6529219103356
 30
0.0
 10
162.8214189556761
 20
495.6529219103356
 30
0.0
  0
SPLINE
  5
444
330
376
100
AcDbEntity
  8
0
  6
Continuous
 62
     0
370
     0
100
AcDbSpline
210
0.0
220
0.0
230
1.0
 70
     8
 71
     3
 72
    17
 73
    13
 74
     0
 42
0.000000001
 43
0.0
 40
12.62024167752506
 40
12.62024167752506
 40
12.62024167752506
 40
12.62024167752506
 40
14.4231311156675
 40
16.8269843941746
 40
19.2308376341094
 40
21.6346896757548
 40
24.0385413359735
 40
26.4423920541662
 40
28.8462508411423
 40
31.2501179623897
 40
32.8526911919522
 40
33.6539778067335
 40
33.6539778067335
 40
33.6539778067335
 40
33.6539778067335
 10
163.1214079552423
 20
480.8191153862202
 30
0.0
 10
163.1214079473384
 20
480.8186258765323
 30
0.0
 10
163.1214079173651
 20
480.9347681844117
 30
0.0
 10
163.1214076994751
 20
481.5432687895301
 30
0.0
 10
163.1214077556822
 20
482.7049988763275
 30
0.0
 10
163.1214075535822
 20
484.3062890070831
 30
0.0
 10
163.1214074021278
 20
486.2669242350441
 30
0.0
 10
163.1214077102994
 20
488.4884047176201
 30
0.0
 10
163.1214066558348
 20
490.8600001799679
 30
0.0
 10
163.1214066931819
 20
492.9935631602507
 30
0.0
 10
163.1214075400366
 20
494.5481421037989
 30
0.0
 10
163.1214075521057
 20
495.2944027140109
 30
0.0
 10
163.1214075565297
 20
495.5393667790402
 30
0.0
  0
LINE
  5
445
330
376
100
AcDbEntity
  8
0
  6
Continuous
 62
     0
370
     0
100
AcDbLine
 10
163.128052
 20
495.248648
 30
0.0
 11
163.128052
 21
501.362945
 31
0.0
  0
LINE
  5
446
330
376
100
AcDbEntity
  8
0
  6
Continuous
 62
     0
370
     0
100
AcDbLine
 10
163.121408
 20
502.124204
 30
0.0
 11
163.121408
 21
495.539367
 31
0.0
  0
LINE
  5
447
330
376
100
AcDbEntity
  8
0
  6
Continuous
 62
     0
370
     0
100
AcDbLine
 10
163.121408
 20
495.539367
 30
0.0
 11
163.128052
 21
495.248648
 31
0.0
  0
LINE
  5
448
330
376
100
AcDbEntity
  8
0
  6
Continuous
 62
     0
370
     0
100
AcDbLine
 10
175.118812
 20
494.870131
 30
0.0
 11
175.118813
 21
500.371672
 31
0.0
  0
LINE
  5
449
330
376
100
AcDbEntity
  8
0
  6
Continuous
 62
     0
370
     0
100
AcDbLine
 10
164.128014
 20
500.371672
 30
0.0
 11
164.128014
 21
494.870131
 31
0.0
  0
LINE
  5
44A
330
376
100
AcDbEntity
  8
0
  6
Continuous
 62
     0
370
     0
100
AcDbLine
 10
164.128014
 20
494.870131
 30
0.0
 11
164.128014
 21
482.571672
 31
0.0
  0
SPLINE
  5
44B
330
376
100
AcDbEntity
  8
0
  6
Continuous
 62
     0
370
     0
100
AcDbSpline
210
0.0
220
0.0
230
1.0
 70
     8
 71
     3
 72
    11
 73
     7
 74
     0
 42
0.000000001
 43
0.0
 40
0.0
 40
0.0
 40
0.0
 40
0.0
 40
0.396780547955197
 40
0.7935610959103581
 40
1.19034164386552
 40
1.58712219180417
 40
1.58712219180417
 40
1.58712219180417
 40
1.58712219180417
 10
164.1280137030562
 20
494.8701308231072
 30
0.0
 10
163.9986668128006
 20
494.870130823107
 30
0.0
 10
163.7371725605189
 20
494.8897788861489
 30
0.0
 10
163.405976434399
 20
494.9738541263931
 30
0.0
 10
163.1829155032397
 20
495.0995826344629
 30
0.0
 10
163.1291804954023
 20
495.1992587721351
 30
0.0
 10
163.1280517399455
 20
495.248647912378
 30
0.0
  0
LINE
  5
44C
330
376
100
AcDbEntity
  8
0
  6
Continuous
 62
     0
370
     0
100
AcDbLine
 10
163.128052
 20
495.248648
 30
0.0
 11
163.128052
 21
481.580403
 31
0.0
  0
LINE
  5
44D
330
376
100
AcDbEntity
  8
0
  6
Continuous
 62
     0
370
    30
100
AcDbLine
 10
175.292757
 20
481.471673
 30
0.0
 11
175.292757
 21
501.471673
 31
0.0
  0
LINE
  5
44E
330
376
100
AcDbEntity
  8
0
  6
Continuous
 62
     0
370
    30
100
AcDbLine
 10
175.292757
 20
481.471673
 30
0.0
 11
176.292757
 21
480.471673
 31
0.0
  0
LINE
  5
44F
330
376
100
AcDbEntity
  8
0
  6
Continuous
 62
     0
370
    30
100
AcDbLine
 10
176.292757
 20
480.471673
 30
0.0
 11
176.292757
 21
502.471673
 31
0.0
  0
LINE
  5
450
330
376
100
AcDbEntity
  8
0
  6
Continuous
 62
     0
370
    30
100
AcDbLine
 10
176.292757
 20
502.471673
 30
0.0
 11
175.292757
 21
501.471673
 31
0.0
  0
LINE
  5
451
330
376
100
AcDbEntity
  8
0
  6
Continuous
 62
     0
370
    30
100
AcDbLine
 10
186.392757
 20
388.971673
 30
0.0
 11
186.392757
 21
527.971473
 31
0.0
  0
LINE
  5
452
330
376
100
AcDbEntity
  8
0
  6
Continuous
 62
     0
370
    30
100
AcDbLine
 10
186.392757
 20
527.971473
 30
0.0
 11
186.892757
 21
528.471473
 31
0.0
  0
LINE
  5
453
330
376
100
AcDbEntity
  8
0
  6
Continuous
 62
     0
370
    30
100
AcDbLine
 10
186.892757
 20
388.471673
 30
0.0
 11
186.392757
 21
388.971673
 31
0.0
  0
LINE
  5
454
330
376
100
AcDbEntity
  8
0
  6
Continuous
 62
     0
370
    30
100
AcDbLine
 10
186.892757
 20
388.471673
 30
0.0
 11
186.892757
 21
528.471473
 31
0.0
  0
LINE
  5
455
330
376
100
AcDbEntity
  8
0
  6
Continuous
 62
     0
370
    30
100
AcDbLine
 10
186.892757
 20
388.471673
 30
0.0
 11
196.892746
 21
388.471673
 31
0.0
  0
LINE
  5
456
330
376
100
AcDbEntity
  8
0
  6
Continuous
 62
     0
370
    30
100
AcDbLine
 10
196.892746
 20
388.471673
 30
0.0
 11
196.892746
 21
528.471473
 31
0.0
  0
LINE
  5
457
330
376
100
AcDbEntity
  8
0
  6
Continuous
 62
     0
370
    30
100
AcDbLine
 10
176.292757
 20
502.471673
 30
0.0
 11
186.392757
 21
502.471673
 31
0.0
  0
ARC
  5
458
330
376
100
AcDbEntity
  8
0
  6
Continuous
 62
     0
370
    30
100
AcDbCircle
 10
164.128039
 20
501.371697
 30
0.0
 40
1.000024867382407
100
AcDbArc
 50
180.501412
 51
269.998588
  0
LINE
  5
459
330
376
100
AcDbEntity
  8
0
  6
Continuous
 62
     0
370
    30
100
AcDbLine
 10
163.121408
 20
480.819112
 30
0.0
 11
163.128052
 21
481.580398
 31
0.0
  0
ARC
  5
45A
330
376
100
AcDbEntity
  8
0
  6
Continuous
 62
     0
370
    30
100
AcDbCircle
 10
162.821405
 20
502.121657
 30
0.0
 40
0.3000150256931364
100
AcDbArc
 50
0.502842
 51
89.997158
  0
ARC
  5
45B
330
376
100
AcDbEntity
  8
0
  6
Continuous
 62
     0
370
    30
100
AcDbCircle
 10
175.118595
 20
500.071042
 30
0.0
 40
0.3006299391322456
100
AcDbArc
 50
54.588382
 51
89.958552
  0
ARC
  5
45C
330
376
100
AcDbEntity
  8
0
  6
Continuous
 62
     0
370
    30
100
AcDbCircle
 10
155.718828
 20
502.121657
 30
0.0
 40
0.3000149227120835
100
AcDbArc
 50
90.002847
 51
179.992721
  0
ARC
  5
45D
330
376
100
AcDbEntity
  8
0
  6
Continuous
 62
     0
370
    30
100
AcDbCircle
 10
177.586001
 20
443.268298
 30
0.0
 40
20.50030459749262
100
AcDbArc
 50
93.87761
 51
118.205717
  0
LINE
  5
45E
330
376
100
AcDbEntity
  8
0
  6
Continuous
 62
     0
370
    30
100
AcDbLine
 10
176.292757
 20
480.471673
 30
0.0
 11
186.392757
 21
480.471673
 31
0.0
  0
LINE
  5
45F
330
376
100
AcDbEntity
  8
0
  6
Continuous
 62
     0
370
    30
100
AcDbLine
 10
196.892746
 20
528.471473
 30
0.0
 11
186.892757
 21
528.471473
 31
0.0
  0
ARC
  5
460
330
376
100
AcDbEntity
  8
0
  6
Continuous
 62
     0
370
    30
100
AcDbCircle
 10
164.128039
 20
481.571647
 30
0.0
 40
1.000024867141584
100
AcDbArc
 50
90.001412
 51
179.498588
  0
LINE
  5
461
330
376
100
AcDbEntity
  8
0
  6
Continuous
 62
     0
370
    30
100
AcDbLine
 10
175.118813
 20
500.371672
 30
0.0
 11
164.128014
 21
500.371672
 31
0.0
  0
LINE
  5
462
330
376
100
AcDbEntity
  8
0
  6
Continuous
 62
     0
370
    30
100
AcDbLine
 10
164.128014
 20
482.571672
 30
0.0
 11
175.118813
 21
482.571672
 31
0.0
  0
LINE
  5
463
330
376
100
AcDbEntity
  8
0
  6
Continuous
 62
     0
370
    30
100
AcDbLine
 10
163.128052
 20
501.362945
 30
0.0
 11
163.121409
 21
502.124188
 31
0.0
  0
ARC
  5
464
330
376
100
AcDbEntity
  8
0
  6
Continuous
 62
     0
370
    30
100
AcDbCircle
 10
162.821405
 20
480.821687
 30
0.0
 40
0.3000149931197592
100
AcDbArc
 50
270.002836
 51
359.496477
  0
LINE
  5
465
330
376
100
AcDbEntity
  8
0
  6
Continuous
 62
     0
370
    30
100
AcDbLine
 10
162.821419
 20
502.421672
 30
0.0
 11
155.718813
 21
502.421672
 31
0.0
  0
LINE
  5
466
330
376
100
AcDbEntity
  8
0
  6
Continuous
 62
     0
370
    30
100
AcDbLine
 10
155.718813
 20
480.521672
 30
0.0
 11
162.821419
 21
480.521672
 31
0.0
  0
ARC
  5
467
330
376
100
AcDbEntity
  8
0
  6
Continuous
 62
     0
370
    30
100
AcDbCircle
 10
175.118715
 20
482.871926
 30
0.0
 40
0.3002541734174936
100
AcDbArc
 50
270.018586
 51
305.440325
  0
ARC
  5
468
330
376
100
AcDbEntity
  8
0
  6
Continuous
 62
     0
370
    30
100
AcDbCircle
 10
155.718828
 20
480.821687
 30
0.0
 40
0.3000149308057211
100
AcDbArc
 50
180.007105
 51
269.997151
  0
ARC
  5
469
330
376
100
AcDbEntity
  8
0
  6
Continuous
 62
     0
370
    30
100
AcDbCircle
 10
177.586178
 20
443.676609
 30
0.0
 40
20.50187388809594
100
AcDbArc
 50
259.07237
 51
266.122191
  0
LINE
  5
46A
330
376
100
AcDbEntity
  8
0
  6
Continuous
 62
     0
370
    30
100
AcDbLine
 10
176.19966
 20
465.671673
 30
0.0
 11
186.392757
 21
465.671673
 31
0.0
  0
ENDBLK
  5
46C
330
376
100
AcDbEntity
  8
0
100
AcDbBlockEnd
  0
ENDSEC
  0
SECTION
  2
ENTITIES
  0
INSERT
  5
176
330
1F
100
AcDbEntity
  8
0
  6
Continuous
 62
     7
370
     0
100
AcDbBlockReference
  2
a
 10
227.498749
 20
120.475082
 30
0.0
  0
INSERT
  5
26F
330
1F
100
AcDbEntity
  8
0
  6
Continuous
 62
     7
370
     0
100
AcDbBlockReference
  2
b
 10
227.498749
 20
251.215042
 30
0.0
  0
INSERT
  5
375
330
1F
100
AcDbEntity
  8
0
  6
Continuous
 62
     7
370
     0
100
AcDbBlockReference
  2
c
 10
227.498749
 20
120.475082
 30
0.0
  0
INSERT
  5
46D
330
1F
100
AcDbEntity
  8
0
  6
Continuous
 62
     7
370
     0
100
AcDbBlockReference
  2
d
 10
229.142792
 20
0.0
 30
0.0
  0
ENDSEC
  0
SECTION
  2
OBJECTS
  0
DICTIONARY
  5
C
330
0
100
AcDbDictionary
281
     1
  3
ACAD_GROUP
350
D
  3
ACAD_LAYOUT
350
1A
  3
ACAD_MATERIAL
350
43
  3
ACAD_MLEADERSTYLE
350
6B
  3
ACAD_MLINESTYLE
350
17
  3
ACAD_PLOTSETTINGS
350
19
  3
ACAD_PLOTSTYLENAME
350
E
  3
ACAD_SCALELIST
350
47
  3
ACAD_TABLESTYLE
350
69
  3
ACAD_VISUALSTYLE
350
2A
  3
AcDbVariableDictionary
350
46E
  0
DICTIONARY
  5
479
330
8
100
AcDbDictionary
280
     1
281
     1
  3
ACAD_XREC_ROUNDTRIP
360
47A
  0
DICTIONARY
  5
D
102
{ACAD_REACTORS
330
C
102
}
330
C
100
AcDbDictionary
281
     1
  0
DICTIONARY
  5
1A
102
{ACAD_REACTORS
330
C
102
}
330
C
100
AcDbDictionary
281
     1
  3
Layout1
350
1E
  3
Layout2
350
26
  3
Model
350
22
  0
DICTIONARY
  5
43
102
{ACAD_REACTORS
330
C
102
}
330
C
100
AcDbDictionary
281
     1
  3
ByBlock
350
45
  3
ByLayer
350
44
  3
Global
350
46
  0
DICTIONARY
  5
6B
102
{ACAD_REACTORS
330
C
102
}
330
C
100
AcDbDictionary
281
     1
  3
Standard
350
6C
  0
DICTIONARY
  5
17
102
{ACAD_REACTORS
330
C
102
}
330
C
100
AcDbDictionary
281
     1
  3
Standard
350
18
  0
DICTIONARY
  5
19
102
{ACAD_REACTORS
330
C
102
}
330
C
100
AcDbDictionary
281
     1
  0
ACDBDICTIONARYWDFLT
  5
E
102
{ACAD_REACTORS
330
C
102
}
330
C
100
AcDbDictionary
281
     1
  3
Normal
350
F
100
AcDbDictionaryWithDefault
340
F
  0
DICTIONARY
  5
47
102
{ACAD_REACTORS
330
C
102
}
330
C
100
AcDbDictionary
281
     1
  3
A0
350
48
  3
A1
350
49
  3
A2
350
4A
  3
A3
350
4B
  3
A4
350
4C
  3
A5
350
4D
  3
A6
350
4E
  3
A7
350
4F
  3
A8
350
50
  3
A9
350
51
  3
B0
350
52
  3
B1
350
53
  3
B2
350
54
  3
B3
350
55
  3
B4
350
56
  3
B5
350
57
  3
B6
350
58
  3
B7
350
59
  3
B8
350
5A
  3
B9
350
5B
  3
C0
350
5C
  3
C1
350
5D
  3
C2
350
5E
  3
C3
350
5F
  3
C4
350
60
  3
C5
350
61
  3
C6
350
62
  3
C7
350
63
  3
C8
350
64
  3
C9
350
65
  3
D0
350
66
  3
D1
350
67
  3
D2
350
68
  0
DICTIONARY
  5
69
102
{ACAD_REACTORS
330
C
102
}
330
C
100
AcDbDictionary
281
     1
  3
Standard
350
6A
  0
DICTIONARY
  5
2A
102
{ACAD_REACTORS
330
C
102
}
330
C
100
AcDbDictionary
281
     1
  3
2dWireframe
350
2F
  3
Basic
350
32
  3
Brighten
350
36
  3
ColorChange
350
3A
  3
Conceptual
350
34
  3
Dim
350
35
  3
EdgeColorOff
350
3D
  3
Facepattern
350
39
  3
Flat
350
2B
  3
FlatWithEdges
350
2C
  3
Gouraud
350
2D
  3
GouraudWithEdges
350
2E
  3
Hidden
350
31
  3
JitterOff
350
3B
  3
Linepattern
350
38
  3
OverhangOff
350
3C
  3
Realistic
350
33
  3
Shaded
350
42
  3
Shaded with edges
350
41
  3
Shades of Gray
350
3E
  3
Sketchy
350
3F
  3
Thicken
350
37
  3
Wireframe
350
30
  3
X-Ray
350
40
  0
DICTIONARY
  5
46E
102
{ACAD_REACTORS
330
C
102
}
330
C
100
AcDbDictionary
281
     1
  3
CANNOSCALE
350
47B
  3
CENTEREXE
350
475
  3
CENTERLTYPEFILE
350
476
  3
CMLEADERSTYLE
350
470
  3
CTABLESTYLE
350
46F
  3
DIMASSOC
350
477
  3
HIDETEXT
350
478
  3
MSLTSCALE
350
47C
  3
PSOLHEIGHT
350
472
  3
PSOLWIDTH
350
471
  0
XRECORD
  5
47A
102
{ACAD_REACTORS
330
479
102
}
330
479
100
AcDbXrecord
280
     1
102
VTR_0.000_0.000_1.000_1.000_VISUALSTYLE
340
2F
102
VTR_0.000_0.000_1.000_1.000_GRIDDISPLAY
 70
     3
102
VTR_0.000_0.000_1.000_1.000_GRIDMAJOR
 70
     5
102
VTR_0.000_0.000_1.000_1.000_DEFAULTLIGHTING
280
     1
102
VTR_0.000_0.000_1.000_1.000_DEFAULTLIGHTINGTYPE
 70
     1
102
VTR_0.000_0.000_1.000_1.000_BRIGHTNESS
141
0.0
102
VTR_0.000_0.000_1.000_1.000_CONTRAST
142
0.0
  0
LAYOUT
  5
1E
102
{ACAD_REACTORS
330
1A
102
}
330
1A
100
AcDbPlotSettings
  1

  2
none_device
  4

  6

 40
0.0
 41
0.0
 42
0.0
 43
0.0
 44
0.0
 45
0.0
 46
0.0
 47
0.0
 48
0.0
 49
0.0
140
0.0
141
0.0
142
1.0
143
1.0
 70
   688
 72
     1
 73
     0
 74
     5
  7

 75
    16
147
1.0
148
0.0
149
0.0
100
AcDbLayout
  1
Layout1
 70
     1
 71
     1
 10
0.0
 20
0.0
 11
420.0
 21
297.0
 12
0.0
 22
0.0
 32
0.0
 14
1.000000E+20
 24
1.000000E+20
 34
1.000000E+20
 15
-1.000000E+20
 25
-1.000000E+20
 35
-1.000000E+20
146
0.0
 13
0.0
 23
0.0
 33
0.0
 16
1.0
 26
0.0
 36
0.0
 17
0.0
 27
1.0
 37
0.0
 76
     0
330
1B
  0
LAYOUT
  5
26
102
{ACAD_REACTORS
330
1A
102
}
330
1A
100
AcDbPlotSettings
  1

  2
none_device
  4

  6

 40
0.0
 41
0.0
 42
0.0
 43
0.0
 44
0.0
 45
0.0
 46
0.0
 47
0.0
 48
0.0
 49
0.0
140
0.0
141
0.0
142
1.0
143
1.0
 70
   688
 72
     1
 73
     0
 74
     5
  7

 75
    16
147
1.0
148
0.0
149
0.0
100
AcDbLayout
  1
Layout2
 70
     1
 71
     2
 10
0.0
 20
0.0
 11
0.0
 21
0.0
 12
0.0
 22
0.0
 32
0.0
 14
0.0
 24
0.0
 34
0.0
 15
0.0
 25
0.0
 35
0.0
146
0.0
 13
0.0
 23
0.0
 33
0.0
 16
1.0
 26
0.0
 36
0.0
 17
0.0
 27
1.0
 37
0.0
 76
     0
330
23
  0
LAYOUT
  5
22
102
{ACAD_REACTORS
330
1A
102
}
330
1A
100
AcDbPlotSettings
  1

  2
none_device
  4
Letter_(8.50_x_11.00_Inches)
  6

 40
6.35
 41
6.35
 42
6.350005
 43
6.350005
 44
215.9
 45
279.4
 46
0.0
 47
0.0
 48
0.0
 49
0.0
140
0.0
141
0.0
142
1.0
143
1.0
 70
  1712
 72
     1
 73
     0
 74
     0
  7

 75
     0
147
1.0
148
0.0
149
0.0
100
AcDbLayout
  1
Model
 70
     1
 71
     0
 10
127.699661
 20
240.95256
 11
537.558838
 21
528.471497
 12
0.0
 22
0.0
 32
0.0
 14
127.699661
 24
240.95256
 34
0.0
 15
537.558838
 25
528.471497
 35
0.0
146
0.0
 13
0.0
 23
0.0
 33
0.0
 16
1.0
 26
0.0
 36
0.0
 17
0.0
 27
1.0
 37
0.0
 76
     0
330
1F
331
29
  0
MATERIAL
  5
45
102
{ACAD_REACTORS
330
43
102
}
102
{ACAD_XDICTIONARY
360
4AF
102
}
330
43
100
AcDbMaterial
  1
ByBlock
  0
MATERIAL
  5
44
102
{ACAD_REACTORS
330
43
102
}
102
{ACAD_XDICTIONARY
360
4AD
102
}
330
43
100
AcDbMaterial
  1
ByLayer
  0
MATERIAL
  5
46
102
{ACAD_REACTORS
330
43
102
}
102
{ACAD_XDICTIONARY
360
4B1
102
}
330
43
100
AcDbMaterial
  1
Global
  0
MLEADERSTYLE
  5
6C
102
{ACAD_REACTORS
330
6B
102
}
102
{ACAD_XDICTIONARY
360
4B4
102
}
330
6B
100
AcDbMLeaderStyle
170
     2
171
     1
172
     0
 90
        2
 40
0.0
 41
0.0
173
     1
 91
-1056964608
340
14
 92
       -2
290
     1
 42
2.0
291
     1
 43
8.0
  3
Standard
341
0
 44
4.0
300

342
11
174
     1
178
     6
175
     1
176
     0
 93
-1056964608
 45
4.0
292
     0
297
     0
 46
4.0
343
0
 94
-1056964608
 47
1.0
 49
1.0
140
1.0
293
     1
141
0.0
294
     1
177
     0
142
1.0
295
     0
296
     0
143
3.75
1001
ACAD_MLEADERVER
1070
     2
  0
MLINESTYLE
  5
18
102
{ACAD_REACTORS
330
17
102
}
330
17
100
AcDbMlineStyle
  2
Standard
 70
     0
  3

 62
   256
 51
90.0
 52
90.0
 71
     2
 49
0.5
 62
   256
  6
BYLAYER
 49
-0.5
 62
   256
  6
BYLAYER
  0
ACDBPLACEHOLDER
  5
F
102
{ACAD_REACTORS
330
E
102
}
330
E
  0
SCALE
  5
48
102
{ACAD_REACTORS
330
47
102
}
330
47
100
AcDbScale
 70
     0
300
1:1
140
1.0
141
1.0
290
     1
  0
SCALE
  5
49
102
{ACAD_REACTORS
330
47
102
}
330
47
100
AcDbScale
 70
     0
300
1:2
140
1.0
141
2.0
290
     0
  0
SCALE
  5
4A
102
{ACAD_REACTORS
330
47
102
}
330
47
100
AcDbScale
 70
     0
300
1:4
140
1.0
141
4.0
290
     0
  0
SCALE
  5
4B
102
{ACAD_REACTORS
330
47
102
}
330
47
100
AcDbScale
 70
     0
300
1:5
140
1.0
141
5.0
290
     0
  0
SCALE
  5
4C
102
{ACAD_REACTORS
330
47
102
}
330
47
100
AcDbScale
 70
     0
300
1:8
140
1.0
141
8.0
290
     0
  0
SCALE
  5
4D
102
{ACAD_REACTORS
330
47
102
}
330
47
100
AcDbScale
 70
     0
300
1:10
140
1.0
141
10.0
290
     0
  0
SCALE
  5
4E
102
{ACAD_REACTORS
330
47
102
}
330
47
100
AcDbScale
 70
     0
300
1:16
140
1.0
141
16.0
290
     0
  0
SCALE
  5
4F
102
{ACAD_REACTORS
330
47
102
}
330
47
100
AcDbScale
 70
     0
300
1:20
140
1.0
141
20.0
290
     0
  0
SCALE
  5
50
102
{ACAD_REACTORS
330
47
102
}
330
47
100
AcDbScale
 70
     0
300
1:30
140
1.0
141
30.0
290
     0
  0
SCALE
  5
51
102
{ACAD_REACTORS
330
47
102
}
330
47
100
AcDbScale
 70
     0
300
1:40
140
1.0
141
40.0
290
     0
  0
SCALE
  5
52
102
{ACAD_REACTORS
330
47
102
}
330
47
100
AcDbScale
 70
     0
300
1:50
140
1.0
141
50.0
290
     0
  0
SCALE
  5
53
102
{ACAD_REACTORS
330
47
102
}
330
47
100
AcDbScale
 70
     0
300
1:100
140
1.0
141
100.0
290
     0
  0
SCALE
  5
54
102
{ACAD_REACTORS
330
47
102
}
330
47
100
AcDbScale
 70
     0
300
2:1
140
2.0
141
1.0
290
     0
  0
SCALE
  5
55
102
{ACAD_REACTORS
330
47
102
}
330
47
100
AcDbScale
 70
     0
300
4:1
140
4.0
141
1.0
290
     0
  0
SCALE
  5
56
102
{ACAD_REACTORS
330
47
102
}
330
47
100
AcDbScale
 70
     0
300
8:1
140
8.0
141
1.0
290
     0
  0
SCALE
  5
57
102
{ACAD_REACTORS
330
47
102
}
330
47
100
AcDbScale
 70
     0
300
10:1
140
10.0
141
1.0
290
     0
  0
SCALE
  5
58
102
{ACAD_REACTORS
330
47
102
}
330
47
100
AcDbScale
 70
     0
300
100:1
140
100.0
141
1.0
290
     0
  0
SCALE
  5
59
102
{ACAD_REACTORS
330
47
102
}
330
47
100
AcDbScale
 70
     0
300
1/128" = 1'-0"
140
0.007812
141
12.0
290
     0
  0
SCALE
  5
5A
102
{ACAD_REACTORS
330
47
102
}
330
47
100
AcDbScale
 70
     0
300
1/64" = 1'-0"
140
0.015625
141
12.0
290
     0
  0
SCALE
  5
5B
102
{ACAD_REACTORS
330
47
102
}
330
47
100
AcDbScale
 70
     0
300
1/32" = 1'-0"
140
0.03125
141
12.0
290
     0
  0
SCALE
  5
5C
102
{ACAD_REACTORS
330
47
102
}
330
47
100
AcDbScale
 70
     0
300
1/16" = 1'-0"
140
0.0625
141
12.0
290
     0
  0
SCALE
  5
5D
102
{ACAD_REACTORS
330
47
102
}
330
47
100
AcDbScale
 70
     0
300
3/32" = 1'-0"
140
0.09375
141
12.0
290
     0
  0
SCALE
  5
5E
102
{ACAD_REACTORS
330
47
102
}
330
47
100
AcDbScale
 70
     0
300
1/8" = 1'-0"
140
0.125
141
12.0
290
     0
  0
SCALE
  5
5F
102
{ACAD_REACTORS
330
47
102
}
330
47
100
AcDbScale
 70
     0
300
3/16" = 1'-0"
140
0.1875
141
12.0
290
     0
  0
SCALE
  5
60
102
{ACAD_REACTORS
330
47
102
}
330
47
100
AcDbScale
 70
     0
300
1/4" = 1'-0"
140
0.25
141
12.0
290
     0
  0
SCALE
  5
61
102
{ACAD_REACTORS
330
47
102
}
330
47
100
AcDbScale
 70
     0
300
3/8" = 1'-0"
140
0.375
141
12.0
290
     0
  0
SCALE
  5
62
102
{ACAD_REACTORS
330
47
102
}
330
47
100
AcDbScale
 70
     0
300
1/2" = 1'-0"
140
0.5
141
12.0
290
     0
  0
SCALE
  5
63
102
{ACAD_REACTORS
330
47
102
}
330
47
100
AcDbScale
 70
     0
300
3/4" = 1'-0"
140
0.75
141
12.0
290
     0
  0
SCALE
  5
64
102
{ACAD_REACTORS
330
47
102
}
330
47
100
AcDbScale
 70
     0
300
1" = 1'-0"
140
1.0
141
12.0
290
     0
  0
SCALE
  5
65
102
{ACAD_REACTORS
330
47
102
}
330
47
100
AcDbScale
 70
     0
300
1-1/2" = 1'-0"
140
1.5
141
12.0
290
     0
  0
SCALE
  5
66
102
{ACAD_REACTORS
330
47
102
}
330
47
100
AcDbScale
 70
     0
300
3" = 1'-0"
140
3.0
141
12.0
290
     0
  0
SCALE
  5
67
102
{ACAD_REACTORS
330
47
102
}
330
47
100
AcDbScale
 70
     0
300
6" = 1'-0"
140
6.0
141
12.0
290
     0
  0
SCALE
  5
68
102
{ACAD_REACTORS
330
47
102
}
330
47
100
AcDbScale
 70
     0
300
1'-0" = 1'-0"
140
12.0
141
12.0
290
     0
  0
TABLESTYLE
  5
6A
102
{ACAD_REACTORS
330
69
102
}
330
69
100
AcDbTableStyle
  3
Standard
 70
     0
 71
     0
 40
1.5
 41
1.5
280
     0
281
     0
  7
Standard
140
4.5
170
     2
 62
     0
 63
   257
283
     0
274
    -2
284
     1
 64
     0
275
    -2
285
     1
 65
     0
276
    -2
286
     1
 66
     0
277
    -2
287
     1
 67
     0
278
    -2
288
     1
 68
     0
279
    -2
289
     1
 69
     0
  7
Standard
140
6.0
170
     5
 62
     0
 63
   257
283
     0
274
    -2
284
     1
 64
     0
275
    -2
285
     1
 65
     0
276
    -2
286
     1
 66
     0
277
    -2
287
     1
 67
     0
278
    -2
288
     1
 68
     0
279
    -2
289
     1
 69
     0
  7
Standard
140
4.5
170
     5
 62
     0
 63
   257
283
     0
274
    -2
284
     1
 64
     0
275
    -2
285
     1
 65
     0
276
    -2
286
     1
 66
     0
277
    -2
287
     1
 67
     0
278
    -2
288
     1
 68
     0
279
    -2
289
     1
 69
     0
  0
VISUALSTYLE
  5
2F
102
{ACAD_REACTORS
330
2A
102
}
102
{ACAD_XDICTIONARY
360
485
102
}
330
2A
100
AcDbVisualStyle
  2
2dWireframe
 70
     4
 71
     0
 72
     2
 73
     0
 90
        0
 40
0.6
 41
30.0
 62
     5
 63
     7
 74
     1
 91
        4
 64
     7
 65
   257
 75
     1
175
     1
 42
1.0
 92
        0
 66
   257
 43
1.0
 76
     1
 77
     6
 78
     2
 67
     7
 79
     5
170
     0
171
     0
290
     0
174
     0
 93
        1
 44
0.0
173
     0
291
     0
 45
0.0
1001
ACAD
1000
AcDbSavedByObjectVersion
1070
     0
  0
VISUALSTYLE
  5
32
102
{ACAD_REACTORS
330
2A
102
}
102
{ACAD_XDICTIONARY
360
48B
102
}
330
2A
100
AcDbVisualStyle
  2
Basic
 70
     7
 71
     1
 72
     0
 73
     1
 90
        0
 40
0.6
 41
30.0
 62
     5
 63
     7
 74
     0
 91
        4
 64
     7
 65
   257
 75
     1
175
     1
 42
1.0
 92
        8
 66
     7
 43
1.0
 76
     1
 77
     6
 78
     2
 67
     7
 79
     5
170
     0
171
     0
290
     0
174
     0
 93
        1
 44
0.0
173
     0
291
     1
 45
0.0
1001
ACAD
1000
AcDbSavedByObjectVersion
1070
     0
  0
VISUALSTYLE
  5
36
102
{ACAD_REACTORS
330
2A
102
}
102
{ACAD_XDICTIONARY
360
493
102
}
330
2A
100
AcDbVisualStyle
  2
Brighten
 70
    12
 71
     2
 72
     2
 73
     0
 90
        0
 40
0.6
 41
30.0
 62
     5
 63
     7
 74
     1
 91
        4
 64
     7
 65
   257
 75
     1
175
     1
 42
1.0
 92
        8
 66
     7
 43
1.0
 76
     1
 77
     6
 78
     2
 67
     7
 79
     5
170
     0
171
     0
290
     0
174
     0
 93
        1
 44
50.0
173
     0
291
     1
 45
0.0
1001
ACAD
1000
AcDbSavedByObjectVersion
1070
     0
  0
VISUALSTYLE
  5
3A
102
{ACAD_REACTORS
330
2A
102
}
102
{ACAD_XDICTIONARY
360
49B
102
}
330
2A
100
AcDbVisualStyle
  2
ColorChange
 70
    16
 71
     2
 72
     2
 73
     3
 90
        0
 40
0.6
 41
30.0
 62
     5
 63
     8
 74
     1
 91
        4
 64
     7
 65
   257
 75
     1
175
     1
 42
1.0
 92
        8
 66
     8
 43
1.0
 76
     1
 77
     6
 78
     2
 67
     7
 79
     5
170
     0
171
     0
290
     0
174
     0
 93
        1
 44
0.0
173
     0
291
     1
 45
0.0
1001
ACAD
1000
AcDbSavedByObjectVersion
1070
     0
  0
VISUALSTYLE
  5
34
102
{ACAD_REACTORS
330
2A
102
}
102
{ACAD_XDICTIONARY
360
48F
102
}
330
2A
100
AcDbVisualStyle
  2
Conceptual
 70
     9
 71
     3
 72
     2
 73
     0
 90
        0
 40
0.6
 41
30.0
 62
     5
 63
     7
 74
     2
 91
        2
 64
     7
 65
   257
 75
     1
175
     1
 42
179.0
 92
        8
 66
     7
 43
1.0
 76
     1
 77
     6
 78
     2
 67
     7
 79
     3
170
     0
171
     0
290
     0
174
     0
 93
        1
 44
0.0
173
     0
291
     0
 45
0.0
1001
ACAD
1000
AcDbSavedByObjectVersion
1070
     0
  0
VISUALSTYLE
  5
35
102
{ACAD_REACTORS
330
2A
102
}
102
{ACAD_XDICTIONARY
360
491
102
}
330
2A
100
AcDbVisualStyle
  2
Dim
 70
    11
 71
     2
 72
     2
 73
     0
 90
        0
 40
0.6
 41
30.0
 62
     5
 63
     7
 74
     1
 91
        4
 64
     7
 65
   257
 75
     1
175
     1
 42
1.0
 92
        8
 66
     7
 43
1.0
 76
     1
 77
     6
 78
     2
 67
     7
 79
     5
170
     0
171
     0
290
     0
174
     0
 93
        1
 44
-50.0
173
     0
291
     1
 45
0.0
1001
ACAD
1000
AcDbSavedByObjectVersion
1070
     0
  0
VISUALSTYLE
  5
3D
102
{ACAD_REACTORS
330
2A
102
}
102
{ACAD_XDICTIONARY
360
4A1
102
}
330
2A
100
AcDbVisualStyle
  2
EdgeColorOff
 70
    22
 71
     2
 72
     2
 73
     0
 90
        0
 40
0.6
 41
30.0
 62
     5
 63
     7
 74
     1
 91
        4
 64
     7
 65
   257
 75
     1
175
     1
 42
1.0
 92
        8
 66
     7
 43
1.0
 76
     1
 77
     6
 78
     2
 67
     7
 79
     5
170
     0
171
     0
290
     0
174
     0
 93
        1
 44
0.0
173
     0
291
     1
 45
0.0
1001
ACAD
1000
AcDbSavedByObjectVersion
1070
     0
  0
VISUALSTYLE
  5
39
102
{ACAD_REACTORS
330
2A
102
}
102
{ACAD_XDICTIONARY
360
499
102
}
330
2A
100
AcDbVisualStyle
  2
Facepattern
 70
    15
 71
     2
 72
     2
 73
     0
 90
        0
 40
0.6
 41
30.0
 62
     5
 63
     7
 74
     1
 91
        4
 64
     7
 65
   257
 75
     1
175
     1
 42
1.0
 92
        8
 66
     7
 43
1.0
 76
     1
 77
     6
 78
     2
 67
     7
 79
     5
170
     0
171
     0
290
     0
174
     0
 93
        1
 44
0.0
173
     0
291
     1
 45
0.0
1001
ACAD
1000
AcDbSavedByObjectVersion
1070
     0
  0
VISUALSTYLE
  5
2B
102
{ACAD_REACTORS
330
2A
102
}
102
{ACAD_XDICTIONARY
360
47D
102
}
330
2A
100
AcDbVisualStyle
  2
Flat
 70
     0
 71
     2
 72
     1
 73
     1
 90
        2
 40
0.6
 41
30.0
 62
     5
 63
     7
 74
     0
 91
        0
 64
     7
 65
   257
 75
     1
175
     1
 42
1.0
 92
        8
 66
     7
 43
1.0
 76
     1
 77
     6
 78
     2
 67
     7
 79
     5
170
     0
171
     0
290
     0
174
     0
 93
       13
 44
0.0
173
     0
291
     1
 45
0.0
1001
ACAD
1000
AcDbSavedByObjectVersion
1070
     0
  0
VISUALSTYLE
  5
2C
102
{ACAD_REACTORS
330
2A
102
}
102
{ACAD_XDICTIONARY
360
47F
102
}
330
2A
100
AcDbVisualStyle
  2
FlatWithEdges
 70
     1
 71
     2
 72
     1
 73
     1
 90
        2
 40
0.6
 41
30.0
 62
     5
 63
     7
 74
     1
 91
        0
 64
     7
 65
   257
 75
     1
175
     1
 42
1.0
 92
        0
 66
   257
 43
1.0
 76
     1
 77
     6
 78
     2
 67
     7
 79
     5
170
     0
171
     0
290
     0
174
     0
 93
       13
 44
0.0
173
     0
291
     1
 45
0.0
1001
ACAD
1000
AcDbSavedByObjectVersion
1070
     0
  0
VISUALSTYLE
  5
2D
102
{ACAD_REACTORS
330
2A
102
}
102
{ACAD_XDICTIONARY
360
481
102
}
330
2A
100
AcDbVisualStyle
  2
Gouraud
 70
     2
 71
     2
 72
     2
 73
     1
 90
        2
 40
0.6
 41
30.0
 62
     5
 63
     7
 74
     0
 91
        0
 64
     7
 65
   257
 75
     1
175
     1
 42
1.0
 92
        0
 66
     7
 43
1.0
 76
     1
 77
     6
 78
     2
 67
     7
 79
     5
170
     0
171
     0
290
     0
174
     0
 93
       13
 44
0.0
173
     0
291
     1
 45
0.0
1001
ACAD
1000
AcDbSavedByObjectVersion
1070
     0
  0
VISUALSTYLE
  5
2E
102
{ACAD_REACTORS
330
2A
102
}
102
{ACAD_XDICTIONARY
360
483
102
}
330
2A
100
AcDbVisualStyle
  2
GouraudWithEdges
 70
     3
 71
     2
 72
     2
 73
     1
 90
        2
 40
0.6
 41
30.0
 62
     5
 63
     7
 74
     1
 91
        0
 64
     7
 65
   257
 75
     1
175
     1
 42
1.0
 92
        0
 66
   257
 43
1.0
 76
     1
 77
     6
 78
     2
 67
     7
 79
     5
170
     0
171
     0
290
     0
174
     0
 93
       13
 44
0.0
173
     0
291
     1
 45
0.0
1001
ACAD
1000
AcDbSavedByObjectVersion
1070
     0
  0
VISUALSTYLE
  5
31
102
{ACAD_REACTORS
330
2A
102
}
102
{ACAD_XDICTIONARY
360
489
102
}
330
2A
100
AcDbVisualStyle
  2
Hidden
 70
     6
 71
     1
 72
     2
 73
     2
 90
        0
 40
0.6
 41
30.0
 62
     5
 63
     7
 74
     2
 91
        2
 64
     7
 65
   257
 75
     2
175
     1
 42
40.0
 92
        0
 66
   257
 43
1.0
 76
     1
 77
     6
 78
     2
 67
     7
 79
     3
170
     0
171
     0
290
     0
174
     0
 93
        1
 44
0.0
173
     0
291
     0
 45
0.0
1001
ACAD
1000
AcDbSavedByObjectVersion
1070
     0
  0
VISUALSTYLE
  5
3B
102
{ACAD_REACTORS
330
2A
102
}
102
{ACAD_XDICTIONARY
360
49D
102
}
330
2A
100
AcDbVisualStyle
  2
JitterOff
 70
    20
 71
     2
 72
     2
 73
     0
 90
        0
 40
0.6
 41
30.0
 62
     5
 63
     7
 74
     1
 91
        4
 64
     7
 65
   257
 75
     1
175
     1
 42
1.0
 92
       10
 66
     7
 43
1.0
 76
     1
 77
     6
 78
     2
 67
     7
 79
     5
170
     0
171
     0
290
     0
174
     0
 93
        1
 44
0.0
173
     0
291
     1
 45
0.0
1001
ACAD
1000
AcDbSavedByObjectVersion
1070
     0
  0
VISUALSTYLE
  5
38
102
{ACAD_REACTORS
330
2A
102
}
102
{ACAD_XDICTIONARY
360
497
102
}
330
2A
100
AcDbVisualStyle
  2
Linepattern
 70
    14
 71
     2
 72
     2
 73
     0
 90
        0
 40
0.6
 41
30.0
 62
     5
 63
     7
 74
     1
 91
        4
 64
     7
 65
   257
 75
     7
175
     7
 42
1.0
 92
        8
 66
     7
 43
1.0
 76
     1
 77
     6
 78
     2
 67
     7
 79
     5
170
     0
171
     0
290
     0
174
     0
 93
        1
 44
0.0
173
     0
291
     1
 45
0.0
1001
ACAD
1000
AcDbSavedByObjectVersion
1070
     0
  0
VISUALSTYLE
  5
3C
102
{ACAD_REACTORS
330
2A
102
}
102
{ACAD_XDICTIONARY
360
49F
102
}
330
2A
100
AcDbVisualStyle
  2
OverhangOff
 70
    21
 71
     2
 72
     2
 73
     0
 90
        0
 40
0.6
 41
30.0
 62
     5
 63
     7
 74
     1
 91
        4
 64
     7
 65
   257
 75
     1
175
     1
 42
1.0
 92
        9
 66
     7
 43
1.0
 76
     1
 77
     6
 78
     2
 67
     7
 79
     5
170
     0
171
     0
290
     0
174
     0
 93
        1
 44
0.0
173
     0
291
     1
 45
0.0
1001
ACAD
1000
AcDbSavedByObjectVersion
1070
     0
  0
VISUALSTYLE
  5
33
102
{ACAD_REACTORS
330
2A
102
}
102
{ACAD_XDICTIONARY
360
48D
102
}
330
2A
100
AcDbVisualStyle
  2
Realistic
 70
     8
 71
     2
 72
     3
 73
     0
 90
        2
 40
0.6
 41
30.0
 62
     5
 63
     7
 74
     0
 91
        0
 64
     7
 65
   257
 75
     1
175
     1
 42
1.0
 92
        8
 66
   257
 43
1.0
 76
     1
 77
     6
 78
     2
 67
     7
 79
     3
170
     0
171
     0
290
     0
174
     0
 93
       13
 44
0.0
173
     0
291
     0
 45
0.0
1001
ACAD
1000
AcDbSavedByObjectVersion
1070
     0
  0
VISUALSTYLE
  5
42
102
{ACAD_REACTORS
330
2A
102
}
102
{ACAD_XDICTIONARY
360
4AB
102
}
330
2A
100
AcDbVisualStyle
  2
Shaded
 70
    27
 71
     2
 72
     2
 73
     1
 90
        2
 40
0.6
 41
30.0
 62
     5
 63
     7
 74
     0
 91
        4
 64
     7
 65
   257
 75
     1
175
     1
 42
1.0
 92
        8
 66
   257
 43
1.0
 76
     1
 77
     6
 78
     2
 67
     8
 79
     3
170
     0
171
     0
290
     0
174
     0
 93
        5
 44
0.0
173
     0
291
     0
 45
0.0
1001
ACAD
1000
AcDbSavedByObjectVersion
1070
     0
  0
VISUALSTYLE
  5
41
102
{ACAD_REACTORS
330
2A
102
}
102
{ACAD_XDICTIONARY
360
4A9
102
}
330
2A
100
AcDbVisualStyle
  2
Shaded with edges
 70
    26
 71
     2
 72
     2
 73
     1
 90
        2
 40
0.6
 41
30.0
 62
     5
 63
     7
 74
     1
 91
       10
 64
     7
 65
   257
 75
     2
175
     1
 42
1.0
 92
        8
 66
   257
 43
1.0
 76
     1
 77
     6
 78
     2
 67
     7
 79
     3
170
     0
171
     0
290
     0
174
     0
 93
        5
 44
0.0
173
     0
291
     0
 45
0.0
1001
ACAD
1000
AcDbSavedByObjectVersion
1070
     0
  0
VISUALSTYLE
  5
3E
102
{ACAD_REACTORS
330
2A
102
}
102
{ACAD_XDICTIONARY
360
4A3
102
}
330
2A
100
AcDbVisualStyle
  2
Shades of Gray
 70
    23
 71
     2
 72
     2
 73
     3
 90
        0
 40
0.6
 41
30.0
 62
     5
 63
     7
 74
     2
 91
        2
 64
     7
 65
     7
 75
     1
175
     1
 42
40.0
 92
        8
 66
     7
 43
1.0
 76
     1
 77
     6
 78
     2
 67
     7
 79
     3
170
     0
171
     0
290
     0
174
     0
 93
        1
 44
0.0
173
     0
291
     0
 45
0.0
1001
ACAD
1000
AcDbSavedByObjectVersion
1070
     0
  0
VISUALSTYLE
  5
3F
102
{ACAD_REACTORS
330
2A
102
}
102
{ACAD_XDICTIONARY
360
4A5
102
}
330
2A
100
AcDbVisualStyle
  2
Sketchy
 70
    24
 71
     1
 72
     2
 73
     2
 90
        0
 40
0.6
 41
30.0
 62
     5
 63
     7
 74
     2
 91
        2
 64
     7
 65
     7
 75
     1
175
     1
 42
40.0
 92
       11
 66
     7
 43
1.0
 76
     1
 77
     6
 78
     2
 67
     7
 79
     6
170
     0
171
     0
290
     0
174
     0
 93
        1
 44
0.0
173
     0
291
     0
 45
0.0
1001
ACAD
1000
AcDbSavedByObjectVersion
1070
     0
  0
VISUALSTYLE
  5
37
102
{ACAD_REACTORS
330
2A
102
}
102
{ACAD_XDICTIONARY
360
495
102
}
330
2A
100
AcDbVisualStyle
  2
Thicken
 70
    13
 71
     2
 72
     2
 73
     0
 90
        0
 40
0.6
 41
30.0
 62
     5
 63
     7
 74
     1
 91
        4
 64
     7
 65
   257
 75
     1
175
     1
 42
1.0
 92
       12
 66
     7
 43
1.0
 76
     1
 77
     6
 78
     2
 67
     7
 79
     5
170
     0
171
     0
290
     0
174
     0
 93
        1
 44
0.0
173
     0
291
     1
 45
0.0
1001
ACAD
1000
AcDbSavedByObjectVersion
1070
     0
  0
VISUALSTYLE
  5
30
102
{ACAD_REACTORS
330
2A
102
}
102
{ACAD_XDICTIONARY
360
487
102
}
330
2A
100
AcDbVisualStyle
  2
Wireframe
 70
     5
 71
     0
 72
     2
 73
     0
 90
        0
 40
0.6
 41
30.0
 62
     5
 63
     7
 74
     1
 91
        4
 64
     7
 65
   257
 75
     1
175
     1
 42
1.0
 92
        0
 66
   257
 43
1.0
 76
     1
 77
     6
 78
     2
 67
     7
 79
     3
170
     0
171
     0
290
     0
174
     0
 93
        1
 44
0.0
173
     0
291
     0
 45
0.0
1001
ACAD
1000
AcDbSavedByObjectVersion
1070
     0
  0
VISUALSTYLE
  5
40
102
{ACAD_REACTORS
330
2A
102
}
102
{ACAD_XDICTIONARY
360
4A7
102
}
330
2A
100
AcDbVisualStyle
  2
X-Ray
 70
    25
 71
     2
 72
     2
 73
     1
 90
        1
 40
0.5
 41
30.0
 62
     5
 63
     7
 74
     1
 91
        0
 64
     7
 65
   257
 75
     1
175
     1
 42
1.0
 92
        8
 66
     7
 43
1.0
 76
     1
 77
     6
 78
     2
 67
     7
 79
     3
170
     0
171
     0
290
     0
174
     0
 93
       13
 44
0.0
173
     0
291
     0
 45
0.0
1001
ACAD
1000
AcDbSavedByObjectVersion
1070
     0
  0
DICTIONARYVAR
  5
47B
102
{ACAD_REACTORS
330
46E
102
}
330
46E
100
DictionaryVariables
280
     0
  1
1:1
  0
DICTIONARYVAR
  5
475
102
{ACAD_REACTORS
330
46E
102
}
330
46E
100
DictionaryVariables
280
     0
  1
3.500000
  0
DICTIONARYVAR
  5
476
102
{ACAD_REACTORS
330
46E
102
}
330
46E
100
DictionaryVariables
280
     0
  1
acadiso.lin
  0
DICTIONARYVAR
  5
470
102
{ACAD_REACTORS
330
46E
102
}
330
46E
100
DictionaryVariables
280
     0
  1
Standard
  0
DICTIONARYVAR
  5
46F
102
{ACAD_REACTORS
330
46E
102
}
330
46E
100
DictionaryVariables
280
     0
  1
Standard
  0
DICTIONARYVAR
  5
477
102
{ACAD_REACTORS
330
46E
102
}
330
46E
100
DictionaryVariables
280
     0
  1
2
  0
DICTIONARYVAR
  5
478
102
{ACAD_REACTORS
330
46E
102
}
330
46E
100
DictionaryVariables
280
     0
  1
1
  0
DICTIONARYVAR
  5
47C
102
{ACAD_REACTORS
330
46E
102
}
330
46E
100
DictionaryVariables
280
     0
  1
1
  0
DICTIONARYVAR
  5
472
102
{ACAD_REACTORS
330
46E
102
}
330
46E
100
DictionaryVariables
280
     0
  1
80.000000
  0
DICTIONARYVAR
  5
471
102
{ACAD_REACTORS
330
46E
102
}
330
46E
100
DictionaryVariables
280
     0
  1
5.000000
  0
DICTIONARY
  5
4AF
330
45
100
AcDbDictionary
280
     1
281
     1
  3
ACAD_XREC_ROUNDTRIP
360
4B0
  0
DICTIONARY
  5
4AD
330
44
100
AcDbDictionary
280
     1
281
     1
  3
ACAD_XREC_ROUNDTRIP
360
4AE
  0
DICTIONARY
  5
4B1
330
46
100
AcDbDictionary
280
     1
281
     1
  3
ACAD_XREC_ROUNDTRIP
360
4B2
  0
DICTIONARY
  5
4B4
330
6C
100
AcDbDictionary
280
     1
281
     1
  3
ACAD_XREC_ROUNDTRIP
360
4B5
  0
DICTIONARY
  5
485
330
2F
100
AcDbDictionary
280
     1
281
     1
  3
ACAD_XREC_ROUNDTRIP
360
486
  0
DICTIONARY
  5
48B
330
32
100
AcDbDictionary
280
     1
281
     1
  3
ACAD_XREC_ROUNDTRIP
360
48C
  0
DICTIONARY
  5
493
330
36
100
AcDbDictionary
280
     1
281
     1
  3
ACAD_XREC_ROUNDTRIP
360
494
  0
DICTIONARY
  5
49B
330
3A
100
AcDbDictionary
280
     1
281
     1
  3
ACAD_XREC_ROUNDTRIP
360
49C
  0
DICTIONARY
  5
48F
330
34
100
AcDbDictionary
280
     1
281
     1
  3
ACAD_XREC_ROUNDTRIP
360
490
  0
DICTIONARY
  5
491
330
35
100
AcDbDictionary
280
     1
281
     1
  3
ACAD_XREC_ROUNDTRIP
360
492
  0
DICTIONARY
  5
4A1
330
3D
100
AcDbDictionary
280
     1
281
     1
  3
ACAD_XREC_ROUNDTRIP
360
4A2
  0
DICTIONARY
  5
499
330
39
100
AcDbDictionary
280
     1
281
     1
  3
ACAD_XREC_ROUNDTRIP
360
49A
  0
DICTIONARY
  5
47D
330
2B
100
AcDbDictionary
280
     1
281
     1
  3
ACAD_XREC_ROUNDTRIP
360
47E
  0
DICTIONARY
  5
47F
330
2C
100
AcDbDictionary
280
     1
281
     1
  3
ACAD_XREC_ROUNDTRIP
360
480
  0
DICTIONARY
  5
481
330
2D
100
AcDbDictionary
280
     1
281
     1
  3
ACAD_XREC_ROUNDTRIP
360
482
  0
DICTIONARY
  5
483
330
2E
100
AcDbDictionary
280
     1
281
     1
  3
ACAD_XREC_ROUNDTRIP
360
484
  0
DICTIONARY
  5
489
330
31
100
AcDbDictionary
280
     1
281
     1
  3
ACAD_XREC_ROUNDTRIP
360
48A
  0
DICTIONARY
  5
49D
330
3B
100
AcDbDictionary
280
     1
281
     1
  3
ACAD_XREC_ROUNDTRIP
360
49E
  0
DICTIONARY
  5
497
330
38
100
AcDbDictionary
280
     1
281
     1
  3
ACAD_XREC_ROUNDTRIP
360
498
  0
DICTIONARY
  5
49F
330
3C
100
AcDbDictionary
280
     1
281
     1
  3
ACAD_XREC_ROUNDTRIP
360
4A0
  0
DICTIONARY
  5
48D
330
33
100
AcDbDictionary
280
     1
281
     1
  3
ACAD_XREC_ROUNDTRIP
360
48E
  0
DICTIONARY
  5
4AB
330
42
100
AcDbDictionary
280
     1
281
     1
  3
ACAD_XREC_ROUNDTRIP
360
4AC
  0
DICTIONARY
  5
4A9
330
41
100
AcDbDictionary
280
     1
281
     1
  3
ACAD_XREC_ROUNDTRIP
360
4AA
  0
DICTIONARY
  5
4A3
330
3E
100
AcDbDictionary
280
     1
281
     1
  3
ACAD_XREC_ROUNDTRIP
360
4A4
  0
DICTIONARY
  5
4A5
330
3F
100
AcDbDictionary
280
     1
281
     1
  3
ACAD_XREC_ROUNDTRIP
360
4A6
  0
DICTIONARY
  5
495
330
37
100
AcDbDictionary
280
     1
281
     1
  3
ACAD_XREC_ROUNDTRIP
360
496
  0
DICTIONARY
  5
487
330
30
100
AcDbDictionary
280
     1
281
     1
  3
ACAD_XREC_ROUNDTRIP
360
488
  0
DICTIONARY
  5
4A7
330
40
100
AcDbDictionary
280
     1
281
     1
  3
ACAD_XREC_ROUNDTRIP
360
4A8
  0
XRECORD
  5
4B0
102
{ACAD_REACTORS
330
4AF
102
}
330
4AF
100
AcDbXrecord
280
     1
102
MATERIAL
148
0.0
149
0.0
149
0.0
 93
        0
 94
      127
282
     0
 72
     1
 77
     1
171
     1
175
     1
179
     1
273
     0
  0
XRECORD
  5
4AE
102
{ACAD_REACTORS
330
4AD
102
}
330
4AD
100
AcDbXrecord
280
     1
102
MATERIAL
148
0.0
149
0.0
149
0.0
 93
        0
 94
      127
282
     0
 72
     1
 77
     1
171
     1
175
     1
179
     1
273
     0
  0
XRECORD
  5
4B2
102
{ACAD_REACTORS
330
4B1
102
}
330
4B1
100
AcDbXrecord
280
     1
102
MATERIAL
148
0.0
149
0.0
149
0.0
 93
        0
 94
      127
282
     0
 72
     1
 77
     1
171
     1
175
     1
179
     1
273
     0
  0
XRECORD
  5
4B5
102
{ACAD_REACTORS
330
4B4
102
}
330
4B4
100
AcDbXrecord
280
     1
102
ACAD_ROUNDTRIP_2010_MLEADER_STYLE
  0
XRECORD
  5
486
102
{ACAD_REACTORS
330
485
102
}
330
485
100
AcDbXrecord
280
     1
102
RTVSPropertyOp0
 70
     1
102
RTVSPropertyOp1
 70
     1
102
RTVSPropertyOp2
 70
     1
102
RTVSPropertyOp3
 70
     1
102
RTVSPropertyOp4
 70
     1
102
RTVSPropertyOp5
 70
     1
102
RTVSPropertyOp6
 70
     1
102
RTVSPropertyOp7
 70
     1
102
RTVSPropertyOp8
 70
     1
102
RTVSPropertyOp9
 70
     1
102
RTVSPropertyOp10
 70
     1
102
RTVSPropertyOp11
 70
     1
102
RTVSPropertyOp12
 70
     1
102
RTVSPropertyOp13
 70
     1
102
RTVSPropertyOp14
 70
     1
102
RTVSPropertyOp15
 70
     1
102
RTVSPropertyOp16
 70
     1
102
RTVSPropertyOp17
 70
     1
102
RTVSPropertyOp18
 70
     1
102
RTVSPropertyOp19
 70
     1
102
RTVSPropertyOp20
 70
     1
102
RTVSPropertyOp21
 70
     1
102
RTVSPropertyOp22
 70
     1
102
RTVSPropertyOp23
 70
     1
102
RTVSPropertyOp24
 70
     1
102
RTVSPropertyOp25
 70
     1
102
RTVSPropertyOp26
 70
     1
102
RTVSPropertyOp27
 70
     1
102
RTVSPropertyOp28
 70
     1
102
RTVSPropertyOp29
 70
     1
102
RTVSPropertyOp30
 70
     1
102
RTVSPropertyOp31
 70
     1
102
RTVSPropertyOp32
 70
     1
102
RTVSPropertyOp33
 70
     1
102
RTVSPropertyOp34
 70
     1
102
RTVSPropertyOp35
 70
     1
102
RTVSPropertyOp36
 70
     1
102
RTVSPropertyOp37
 70
     1
102
RTVSPropertyOp38
 70
     1
102
RTVSPropertyOp39
 70
     1
102
RTVSPropertyOp40
 70
     1
102
RTVSPropertyOp41
 70
     1
102
RTVSPropertyOp42
 70
     1
102
RTVSPropertyOp43
 70
     1
102
RTVSPropertyOp44
 70
     1
102
RTVSPropertyOp45
 70
     1
102
RTVSPropertyOp46
 70
     1
102
RTVSPropertyOp47
 70
     1
102
RTVSPropertyOp48
 70
     1
102
RTVSPropertyOp49
 70
     1
102
RTVSPropertyOp50
 70
     1
102
RTVSPropertyOp51
 70
     0
102
RTVSPropertyOp52
 70
     0
102
RTVSPropertyOp53
 70
     1
102
RTVSPropertyOp54
 70
     1
102
RTVSPropertyOp55
 70
     1
102
RTVSPropertyOp56
 70
     1
102
RTVSPropertyOp57
 70
     1
102
RTVSPost2010Prop28
280
     1
102
RTVSPost2010PropOp28
 70
     1
102
RTVSPost2010Prop29
280
     1
102
RTVSPost2010PropOp29
 70
     1
102
RTVSPost2010Prop30
280
     0
102
RTVSPost2010PropOp30
 70
     1
102
RTVSPost2010Prop31
280
     0
102
RTVSPost2010PropOp31
 70
     1
102
RTVSPost2010Prop32
280
     0
102
RTVSPost2010PropOp32
 70
     1
102
RTVSPost2010Prop33
280
     0
102
RTVSPost2010PropOp33
 70
     1
102
RTVSPost2010Prop34
280
     0
102
RTVSPost2010PropOp34
 70
     1
102
RTVSPost2010Prop35
280
     0
102
RTVSPost2010PropOp35
 70
     1
102
RTVSPost2010Prop36
280
     0
102
RTVSPost2010PropOp36
 70
     1
102
RTVSPost2010Prop37
 90
       50
102
RTVSPost2010PropOp37
 70
     1
102
RTVSPost2010Prop38
140
0.0
102
RTVSPost2010PropOp38
 70
     1
102
RTVSPost2010Prop39
140
1.0
102
RTVSPost2010PropOp39
 70
     1
102
RTVSPost2010Prop40
 90
        0
102
RTVSPost2010PropOp40
 70
     1
102
RTVSPost2010Prop41ColorIndex
 90
       18
102
RTVSPost2010Prop41ColorRGB
 90
        0
102
RTVSPost2010PropOp41
 70
     1
102
RTVSPost2010Prop42
 90
       50
102
RTVSPost2010PropOp42
 70
     1
102
RTVSPost2010Prop43
 90
        3
102
RTVSPost2010PropOp43
 70
     1
102
RTVSPost2010Prop44ColorIndex
 90
        5
102
RTVSPost2010Prop44ColorRGB
 90
      255
102
RTVSPost2010PropOp44
 70
     1
102
RTVSPost2010Prop45
280
     0
102
RTVSPost2010PropOp45
 70
     1
102
RTVSPost2010Prop46
 90
       50
102
RTVSPost2010PropOp46
 70
     1
102
RTVSPost2010Prop47
 90
       50
102
RTVSPost2010PropOp47
 70
     1
102
RTVSPost2010Prop48
 90
       50
102
RTVSPost2010PropOp48
 70
     1
102
RTVSPost2010Prop49
280
     0
102
RTVSPost2010PropOp49
 70
     1
102
RTVSPost2010Prop50
 90
       50
102
RTVSPost2010PropOp50
 70
     1
102
RTVSPost2010Prop51ColorIndex
 90
      256
102
RTVSPost2010Prop51ColorRGB
 90
-16777216
102
RTVSPost2010PropOp51
 70
     0
102
RTVSPost2010Prop52
140
1.0
102
RTVSPost2010PropOp52
 70
     0
102
RTVSPost2010Prop53
 90
        2
102
RTVSPost2010PropOp53
 70
     1
102
RTVSPost2010Prop54
  1
strokes_ogs.tif
102
RTVSPost2010PropOp54
 70
     1
102
RTVSPost2010Prop55
280
     0
102
RTVSPost2010PropOp55
 70
     1
102
RTVSPost2010Prop56
140
1.0
102
RTVSPost2010PropOp56
 70
     1
102
RTVSPost2010Prop57
140
1.0
102
RTVSPost2010PropOp57
 70
     1
  0
XRECORD
  5
48C
102
{ACAD_REACTORS
330
48B
102
}
330
48B
100
AcDbXrecord
280
     1
102
RTVSPropertyOp0
 70
     1
102
RTVSPropertyOp1
 70
     1
102
RTVSPropertyOp2
 70
     1
102
RTVSPropertyOp3
 70
     1
102
RTVSPropertyOp4
 70
     1
102
RTVSPropertyOp5
 70
     1
102
RTVSPropertyOp6
 70
     1
102
RTVSPropertyOp7
 70
     1
102
RTVSPropertyOp8
 70
     1
102
RTVSPropertyOp9
 70
     1
102
RTVSPropertyOp10
 70
     1
102
RTVSPropertyOp11
 70
     1
102
RTVSPropertyOp12
 70
     1
102
RTVSPropertyOp13
 70
     1
102
RTVSPropertyOp14
 70
     1
102
RTVSPropertyOp15
 70
     1
102
RTVSPropertyOp16
 70
     1
102
RTVSPropertyOp17
 70
     1
102
RTVSPropertyOp18
 70
     1
102
RTVSPropertyOp19
 70
     1
102
RTVSPropertyOp20
 70
     1
102
RTVSPropertyOp21
 70
     1
102
RTVSPropertyOp22
 70
     1
102
RTVSPropertyOp23
 70
     1
102
RTVSPropertyOp24
 70
     1
102
RTVSPropertyOp25
 70
     1
102
RTVSPropertyOp26
 70
     1
102
RTVSPropertyOp27
 70
     1
102
RTVSPropertyOp28
 70
     1
102
RTVSPropertyOp29
 70
     1
102
RTVSPropertyOp30
 70
     1
102
RTVSPropertyOp31
 70
     1
102
RTVSPropertyOp32
 70
     1
102
RTVSPropertyOp33
 70
     1
102
RTVSPropertyOp34
 70
     1
102
RTVSPropertyOp35
 70
     1
102
RTVSPropertyOp36
 70
     1
102
RTVSPropertyOp37
 70
     1
102
RTVSPropertyOp38
 70
     1
102
RTVSPropertyOp39
 70
     1
102
RTVSPropertyOp40
 70
     1
102
RTVSPropertyOp41
 70
     1
102
RTVSPropertyOp42
 70
     1
102
RTVSPropertyOp43
 70
     1
102
RTVSPropertyOp44
 70
     1
102
RTVSPropertyOp45
 70
     1
102
RTVSPropertyOp46
 70
     1
102
RTVSPropertyOp47
 70
     1
102
RTVSPropertyOp48
 70
     1
102
RTVSPropertyOp49
 70
     1
102
RTVSPropertyOp50
 70
     1
102
RTVSPropertyOp51
 70
     0
102
RTVSPropertyOp52
 70
     0
102
RTVSPropertyOp53
 70
     1
102
RTVSPropertyOp54
 70
     1
102
RTVSPropertyOp55
 70
     1
102
RTVSPropertyOp56
 70
     1
102
RTVSPropertyOp57
 70
     1
102
RTVSPost2010Prop28
280
     0
102
RTVSPost2010PropOp28
 70
     1
102
RTVSPost2010Prop29
280
     1
102
RTVSPost2010PropOp29
 70
     1
102
RTVSPost2010Prop30
280
     1
102
RTVSPost2010PropOp30
 70
     1
102
RTVSPost2010Prop31
280
     0
102
RTVSPost2010PropOp31
 70
     1
102
RTVSPost2010Prop32
280
     0
102
RTVSPost2010PropOp32
 70
     1
102
RTVSPost2010Prop33
280
     0
102
RTVSPost2010PropOp33
 70
     1
102
RTVSPost2010Prop34
280
     0
102
RTVSPost2010PropOp34
 70
     1
102
RTVSPost2010Prop35
280
     0
102
RTVSPost2010PropOp35
 70
     1
102
RTVSPost2010Prop36
280
     0
102
RTVSPost2010PropOp36
 70
     1
102
RTVSPost2010Prop37
 90
       50
102
RTVSPost2010PropOp37
 70
     1
102
RTVSPost2010Prop38
140
0.0
102
RTVSPost2010PropOp38
 70
     1
102
RTVSPost2010Prop39
140
1.0
102
RTVSPost2010PropOp39
 70
     1
102
RTVSPost2010Prop40
 90
        0
102
RTVSPost2010PropOp40
 70
     1
102
RTVSPost2010Prop41ColorIndex
 90
       18
102
RTVSPost2010Prop41ColorRGB
 90
        0
102
RTVSPost2010PropOp41
 70
     1
102
RTVSPost2010Prop42
 90
       50
102
RTVSPost2010PropOp42
 70
     1
102
RTVSPost2010Prop43
 90
        3
102
RTVSPost2010PropOp43
 70
     1
102
RTVSPost2010Prop44ColorIndex
 90
        5
102
RTVSPost2010Prop44ColorRGB
 90
      255
102
RTVSPost2010PropOp44
 70
     1
102
RTVSPost2010Prop45
280
     0
102
RTVSPost2010PropOp45
 70
     1
102
RTVSPost2010Prop46
 90
       50
102
RTVSPost2010PropOp46
 70
     1
102
RTVSPost2010Prop47
 90
       50
102
RTVSPost2010PropOp47
 70
     1
102
RTVSPost2010Prop48
 90
       50
102
RTVSPost2010PropOp48
 70
     1
102
RTVSPost2010Prop49
280
     0
102
RTVSPost2010PropOp49
 70
     1
102
RTVSPost2010Prop50
 90
       50
102
RTVSPost2010PropOp50
 70
     1
102
RTVSPost2010Prop51ColorIndex
 90
      256
102
RTVSPost2010Prop51ColorRGB
 90
-16777216
102
RTVSPost2010PropOp51
 70
     0
102
RTVSPost2010Prop52
140
1.0
102
RTVSPost2010PropOp52
 70
     0
102
RTVSPost2010Prop53
 90
        2
102
RTVSPost2010PropOp53
 70
     1
102
RTVSPost2010Prop54
  1
strokes_ogs.tif
102
RTVSPost2010PropOp54
 70
     1
102
RTVSPost2010Prop55
280
     0
102
RTVSPost2010PropOp55
 70
     1
102
RTVSPost2010Prop56
140
1.0
102
RTVSPost2010PropOp56
 70
     1
102
RTVSPost2010Prop57
140
1.0
102
RTVSPost2010PropOp57
 70
     1
  0
XRECORD
  5
494
102
{ACAD_REACTORS
330
493
102
}
330
493
100
AcDbXrecord
280
     1
102
RTVSPropertyOp0
 70
     1
102
RTVSPropertyOp1
 70
     1
102
RTVSPropertyOp2
 70
     1
102
RTVSPropertyOp3
 70
     1
102
RTVSPropertyOp4
 70
     1
102
RTVSPropertyOp5
 70
     1
102
RTVSPropertyOp6
 70
     1
102
RTVSPropertyOp7
 70
     1
102
RTVSPropertyOp8
 70
     1
102
RTVSPropertyOp9
 70
     1
102
RTVSPropertyOp10
 70
     1
102
RTVSPropertyOp11
 70
     1
102
RTVSPropertyOp12
 70
     1
102
RTVSPropertyOp13
 70
     1
102
RTVSPropertyOp14
 70
     1
102
RTVSPropertyOp15
 70
     1
102
RTVSPropertyOp16
 70
     1
102
RTVSPropertyOp17
 70
     1
102
RTVSPropertyOp18
 70
     1
102
RTVSPropertyOp19
 70
     1
102
RTVSPropertyOp20
 70
     1
102
RTVSPropertyOp21
 70
     1
102
RTVSPropertyOp22
 70
     1
102
RTVSPropertyOp23
 70
     1
102
RTVSPropertyOp24
 70
     1
102
RTVSPropertyOp25
 70
     1
102
RTVSPropertyOp26
 70
     1
102
RTVSPropertyOp27
 70
     1
102
RTVSPropertyOp28
 70
     1
102
RTVSPropertyOp29
 70
     1
102
RTVSPropertyOp30
 70
     1
102
RTVSPropertyOp31
 70
     1
102
RTVSPropertyOp32
 70
     1
102
RTVSPropertyOp33
 70
     1
102
RTVSPropertyOp34
 70
     1
102
RTVSPropertyOp35
 70
     1
102
RTVSPropertyOp36
 70
     1
102
RTVSPropertyOp37
 70
     1
102
RTVSPropertyOp38
 70
     1
102
RTVSPropertyOp39
 70
     1
102
RTVSPropertyOp40
 70
     1
102
RTVSPropertyOp41
 70
     1
102
RTVSPropertyOp42
 70
     1
102
RTVSPropertyOp43
 70
     1
102
RTVSPropertyOp44
 70
     1
102
RTVSPropertyOp45
 70
     1
102
RTVSPropertyOp46
 70
     1
102
RTVSPropertyOp47
 70
     1
102
RTVSPropertyOp48
 70
     1
102
RTVSPropertyOp49
 70
     1
102
RTVSPropertyOp50
 70
     1
102
RTVSPropertyOp51
 70
     0
102
RTVSPropertyOp52
 70
     0
102
RTVSPropertyOp53
 70
     1
102
RTVSPropertyOp54
 70
     1
102
RTVSPropertyOp55
 70
     1
102
RTVSPropertyOp56
 70
     1
102
RTVSPropertyOp57
 70
     1
102
RTVSPost2010Prop28
280
     0
102
RTVSPost2010PropOp28
 70
     1
102
RTVSPost2010Prop29
280
     1
102
RTVSPost2010PropOp29
 70
     1
102
RTVSPost2010Prop30
280
     1
102
RTVSPost2010PropOp30
 70
     1
102
RTVSPost2010Prop31
280
     0
102
RTVSPost2010PropOp31
 70
     1
102
RTVSPost2010Prop32
280
     0
102
RTVSPost2010PropOp32
 70
     1
102
RTVSPost2010Prop33
280
     0
102
RTVSPost2010PropOp33
 70
     1
102
RTVSPost2010Prop34
280
     0
102
RTVSPost2010PropOp34
 70
     1
102
RTVSPost2010Prop35
280
     0
102
RTVSPost2010PropOp35
 70
     1
102
RTVSPost2010Prop36
280
     0
102
RTVSPost2010PropOp36
 70
     1
102
RTVSPost2010Prop37
 90
       50
102
RTVSPost2010PropOp37
 70
     1
102
RTVSPost2010Prop38
140
0.0
102
RTVSPost2010PropOp38
 70
     1
102
RTVSPost2010Prop39
140
1.0
102
RTVSPost2010PropOp39
 70
     1
102
RTVSPost2010Prop40
 90
        0
102
RTVSPost2010PropOp40
 70
     1
102
RTVSPost2010Prop41ColorIndex
 90
       18
102
RTVSPost2010Prop41ColorRGB
 90
        0
102
RTVSPost2010PropOp41
 70
     1
102
RTVSPost2010Prop42
 90
       50
102
RTVSPost2010PropOp42
 70
     1
102
RTVSPost2010Prop43
 90
        3
102
RTVSPost2010PropOp43
 70
     1
102
RTVSPost2010Prop44ColorIndex
 90
        5
102
RTVSPost2010Prop44ColorRGB
 90
      255
102
RTVSPost2010PropOp44
 70
     1
102
RTVSPost2010Prop45
280
     0
102
RTVSPost2010PropOp45
 70
     1
102
RTVSPost2010Prop46
 90
       50
102
RTVSPost2010PropOp46
 70
     1
102
RTVSPost2010Prop47
 90
       50
102
RTVSPost2010PropOp47
 70
     1
102
RTVSPost2010Prop48
 90
       50
102
RTVSPost2010PropOp48
 70
     1
102
RTVSPost2010Prop49
280
     0
102
RTVSPost2010PropOp49
 70
     1
102
RTVSPost2010Prop50
 90
       50
102
RTVSPost2010PropOp50
 70
     1
102
RTVSPost2010Prop51ColorIndex
 90
      256
102
RTVSPost2010Prop51ColorRGB
 90
-16777216
102
RTVSPost2010PropOp51
 70
     0
102
RTVSPost2010Prop52
140
1.0
102
RTVSPost2010PropOp52
 70
     0
102
RTVSPost2010Prop53
 90
        2
102
RTVSPost2010PropOp53
 70
     1
102
RTVSPost2010Prop54
  1
strokes_ogs.tif
102
RTVSPost2010PropOp54
 70
     1
102
RTVSPost2010Prop55
280
     0
102
RTVSPost2010PropOp55
 70
     1
102
RTVSPost2010Prop56
140
1.0
102
RTVSPost2010PropOp56
 70
     1
102
RTVSPost2010Prop57
140
1.0
102
RTVSPost2010PropOp57
 70
     1
  0
XRECORD
  5
49C
102
{ACAD_REACTORS
330
49B
102
}
330
49B
100
AcDbXrecord
280
     1
102
RTVSPropertyOp0
 70
     1
102
RTVSPropertyOp1
 70
     1
102
RTVSPropertyOp2
 70
     1
102
RTVSPropertyOp3
 70
     1
102
RTVSPropertyOp4
 70
     1
102
RTVSPropertyOp5
 70
     1
102
RTVSPropertyOp6
 70
     1
102
RTVSPropertyOp7
 70
     1
102
RTVSPropertyOp8
 70
     1
102
RTVSPropertyOp9
 70
     1
102
RTVSPropertyOp10
 70
     1
102
RTVSPropertyOp11
 70
     1
102
RTVSPropertyOp12
 70
     1
102
RTVSPropertyOp13
 70
     1
102
RTVSPropertyOp14
 70
     1
102
RTVSPropertyOp15
 70
     1
102
RTVSPropertyOp16
 70
     1
102
RTVSPropertyOp17
 70
     1
102
RTVSPropertyOp18
 70
     1
102
RTVSPropertyOp19
 70
     1
102
RTVSPropertyOp20
 70
     1
102
RTVSPropertyOp21
 70
     1
102
RTVSPropertyOp22
 70
     1
102
RTVSPropertyOp23
 70
     1
102
RTVSPropertyOp24
 70
     1
102
RTVSPropertyOp25
 70
     1
102
RTVSPropertyOp26
 70
     1
102
RTVSPropertyOp27
 70
     1
102
RTVSPropertyOp28
 70
     1
102
RTVSPropertyOp29
 70
     1
102
RTVSPropertyOp30
 70
     1
102
RTVSPropertyOp31
 70
     1
102
RTVSPropertyOp32
 70
     1
102
RTVSPropertyOp33
 70
     1
102
RTVSPropertyOp34
 70
     1
102
RTVSPropertyOp35
 70
     1
102
RTVSPropertyOp36
 70
     1
102
RTVSPropertyOp37
 70
     1
102
RTVSPropertyOp38
 70
     1
102
RTVSPropertyOp39
 70
     1
102
RTVSPropertyOp40
 70
     1
102
RTVSPropertyOp41
 70
     1
102
RTVSPropertyOp42
 70
     1
102
RTVSPropertyOp43
 70
     1
102
RTVSPropertyOp44
 70
     1
102
RTVSPropertyOp45
 70
     1
102
RTVSPropertyOp46
 70
     1
102
RTVSPropertyOp47
 70
     1
102
RTVSPropertyOp48
 70
     1
102
RTVSPropertyOp49
 70
     1
102
RTVSPropertyOp50
 70
     1
102
RTVSPropertyOp51
 70
     0
102
RTVSPropertyOp52
 70
     0
102
RTVSPropertyOp53
 70
     1
102
RTVSPropertyOp54
 70
     1
102
RTVSPropertyOp55
 70
     1
102
RTVSPropertyOp56
 70
     1
102
RTVSPropertyOp57
 70
     1
102
RTVSPost2010Prop28
280
     0
102
RTVSPost2010PropOp28
 70
     1
102
RTVSPost2010Prop29
280
     1
102
RTVSPost2010PropOp29
 70
     1
102
RTVSPost2010Prop30
280
     1
102
RTVSPost2010PropOp30
 70
     1
102
RTVSPost2010Prop31
280
     0
102
RTVSPost2010PropOp31
 70
     1
102
RTVSPost2010Prop32
280
     0
102
RTVSPost2010PropOp32
 70
     1
102
RTVSPost2010Prop33
280
     0
102
RTVSPost2010PropOp33
 70
     1
102
RTVSPost2010Prop34
280
     0
102
RTVSPost2010PropOp34
 70
     1
102
RTVSPost2010Prop35
280
     0
102
RTVSPost2010PropOp35
 70
     1
102
RTVSPost2010Prop36
280
     0
102
RTVSPost2010PropOp36
 70
     1
102
RTVSPost2010Prop37
 90
       50
102
RTVSPost2010PropOp37
 70
     1
102
RTVSPost2010Prop38
140
0.0
102
RTVSPost2010PropOp38
 70
     1
102
RTVSPost2010Prop39
140
1.0
102
RTVSPost2010PropOp39
 70
     1
102
RTVSPost2010Prop40
 90
        0
102
RTVSPost2010PropOp40
 70
     1
102
RTVSPost2010Prop41ColorIndex
 90
       18
102
RTVSPost2010Prop41ColorRGB
 90
        0
102
RTVSPost2010PropOp41
 70
     1
102
RTVSPost2010Prop42
 90
       50
102
RTVSPost2010PropOp42
 70
     1
102
RTVSPost2010Prop43
 90
        3
102
RTVSPost2010PropOp43
 70
     1
102
RTVSPost2010Prop44ColorIndex
 90
        5
102
RTVSPost2010Prop44ColorRGB
 90
      255
102
RTVSPost2010PropOp44
 70
     1
102
RTVSPost2010Prop45
280
     0
102
RTVSPost2010PropOp45
 70
     1
102
RTVSPost2010Prop46
 90
       50
102
RTVSPost2010PropOp46
 70
     1
102
RTVSPost2010Prop47
 90
       50
102
RTVSPost2010PropOp47
 70
     1
102
RTVSPost2010Prop48
 90
       50
102
RTVSPost2010PropOp48
 70
     1
102
RTVSPost2010Prop49
280
     0
102
RTVSPost2010PropOp49
 70
     1
102
RTVSPost2010Prop50
 90
       50
102
RTVSPost2010PropOp50
 70
     1
102
RTVSPost2010Prop51ColorIndex
 90
      256
102
RTVSPost2010Prop51ColorRGB
 90
-16777216
102
RTVSPost2010PropOp51
 70
     0
102
RTVSPost2010Prop52
140
1.0
102
RTVSPost2010PropOp52
 70
     0
102
RTVSPost2010Prop53
 90
        2
102
RTVSPost2010PropOp53
 70
     1
102
RTVSPost2010Prop54
  1
strokes_ogs.tif
102
RTVSPost2010PropOp54
 70
     1
102
RTVSPost2010Prop55
280
     0
102
RTVSPost2010PropOp55
 70
     1
102
RTVSPost2010Prop56
140
1.0
102
RTVSPost2010PropOp56
 70
     1
102
RTVSPost2010Prop57
140
1.0
102
RTVSPost2010PropOp57
 70
     1
  0
XRECORD
  5
490
102
{ACAD_REACTORS
330
48F
102
}
330
48F
100
AcDbXrecord
280
     1
102
RTVSPropertyOp0
 70
     1
102
RTVSPropertyOp1
 70
     1
102
RTVSPropertyOp2
 70
     1
102
RTVSPropertyOp3
 70
     1
102
RTVSPropertyOp4
 70
     1
102
RTVSPropertyOp5
 70
     1
102
RTVSPropertyOp6
 70
     1
102
RTVSPropertyOp7
 70
     1
102
RTVSPropertyOp8
 70
     1
102
RTVSPropertyOp9
 70
     1
102
RTVSPropertyOp10
 70
     1
102
RTVSPropertyOp11
 70
     1
102
RTVSPropertyOp12
 70
     1
102
RTVSPropertyOp13
 70
     1
102
RTVSPropertyOp14
 70
     1
102
RTVSPropertyOp15
 70
     1
102
RTVSPropertyOp16
 70
     1
102
RTVSPropertyOp17
 70
     1
102
RTVSPropertyOp18
 70
     1
102
RTVSPropertyOp19
 70
     1
102
RTVSPropertyOp20
 70
     1
102
RTVSPropertyOp21
 70
     1
102
RTVSPropertyOp22
 70
     1
102
RTVSPropertyOp23
 70
     1
102
RTVSPropertyOp24
 70
     1
102
RTVSPropertyOp25
 70
     1
102
RTVSPropertyOp26
 70
     1
102
RTVSPropertyOp27
 70
     1
102
RTVSPropertyOp28
 70
     1
102
RTVSPropertyOp29
 70
     1
102
RTVSPropertyOp30
 70
     1
102
RTVSPropertyOp31
 70
     1
102
RTVSPropertyOp32
 70
     1
102
RTVSPropertyOp33
 70
     1
102
RTVSPropertyOp34
 70
     1
102
RTVSPropertyOp35
 70
     1
102
RTVSPropertyOp36
 70
     1
102
RTVSPropertyOp37
 70
     1
102
RTVSPropertyOp38
 70
     1
102
RTVSPropertyOp39
 70
     1
102
RTVSPropertyOp40
 70
     1
102
RTVSPropertyOp41
 70
     1
102
RTVSPropertyOp42
 70
     1
102
RTVSPropertyOp43
 70
     1
102
RTVSPropertyOp44
 70
     1
102
RTVSPropertyOp45
 70
     1
102
RTVSPropertyOp46
 70
     1
102
RTVSPropertyOp47
 70
     1
102
RTVSPropertyOp48
 70
     1
102
RTVSPropertyOp49
 70
     1
102
RTVSPropertyOp50
 70
     1
102
RTVSPropertyOp51
 70
     0
102
RTVSPropertyOp52
 70
     0
102
RTVSPropertyOp53
 70
     1
102
RTVSPropertyOp54
 70
     1
102
RTVSPropertyOp55
 70
     1
102
RTVSPropertyOp56
 70
     1
102
RTVSPropertyOp57
 70
     1
102
RTVSPost2010Prop28
280
     0
102
RTVSPost2010PropOp28
 70
     1
102
RTVSPost2010Prop29
280
     1
102
RTVSPost2010PropOp29
 70
     1
102
RTVSPost2010Prop30
280
     1
102
RTVSPost2010PropOp30
 70
     1
102
RTVSPost2010Prop31
280
     0
102
RTVSPost2010PropOp31
 70
     1
102
RTVSPost2010Prop32
280
     0
102
RTVSPost2010PropOp32
 70
     1
102
RTVSPost2010Prop33
280
     0
102
RTVSPost2010PropOp33
 70
     1
102
RTVSPost2010Prop34
280
     0
102
RTVSPost2010PropOp34
 70
     1
102
RTVSPost2010Prop35
280
     0
102
RTVSPost2010PropOp35
 70
     1
102
RTVSPost2010Prop36
280
     0
102
RTVSPost2010PropOp36
 70
     1
102
RTVSPost2010Prop37
 90
       50
102
RTVSPost2010PropOp37
 70
     1
102
RTVSPost2010Prop38
140
0.0
102
RTVSPost2010PropOp38
 70
     1
102
RTVSPost2010Prop39
140
1.0
102
RTVSPost2010PropOp39
 70
     1
102
RTVSPost2010Prop40
 90
        0
102
RTVSPost2010PropOp40
 70
     1
102
RTVSPost2010Prop41ColorIndex
 90
       18
102
RTVSPost2010Prop41ColorRGB
 90
        0
102
RTVSPost2010PropOp41
 70
     1
102
RTVSPost2010Prop42
 90
       50
102
RTVSPost2010PropOp42
 70
     1
102
RTVSPost2010Prop43
 90
        3
102
RTVSPost2010PropOp43
 70
     1
102
RTVSPost2010Prop44ColorIndex
 90
        5
102
RTVSPost2010Prop44ColorRGB
 90
      255
102
RTVSPost2010PropOp44
 70
     1
102
RTVSPost2010Prop45
280
     0
102
RTVSPost2010PropOp45
 70
     1
102
RTVSPost2010Prop46
 90
       50
102
RTVSPost2010PropOp46
 70
     1
102
RTVSPost2010Prop47
 90
       50
102
RTVSPost2010PropOp47
 70
     1
102
RTVSPost2010Prop48
 90
       50
102
RTVSPost2010PropOp48
 70
     1
102
RTVSPost2010Prop49
280
     0
102
RTVSPost2010PropOp49
 70
     1
102
RTVSPost2010Prop50
 90
       50
102
RTVSPost2010PropOp50
 70
     1
102
RTVSPost2010Prop51ColorIndex
 90
      256
102
RTVSPost2010Prop51ColorRGB
 90
-16777216
102
RTVSPost2010PropOp51
 70
     0
102
RTVSPost2010Prop52
140
1.0
102
RTVSPost2010PropOp52
 70
     0
102
RTVSPost2010Prop53
 90
        2
102
RTVSPost2010PropOp53
 70
     1
102
RTVSPost2010Prop54
  1
strokes_ogs.tif
102
RTVSPost2010PropOp54
 70
     1
102
RTVSPost2010Prop55
280
     0
102
RTVSPost2010PropOp55
 70
     1
102
RTVSPost2010Prop56
140
1.0
102
RTVSPost2010PropOp56
 70
     1
102
RTVSPost2010Prop57
140
1.0
102
RTVSPost2010PropOp57
 70
     1
  0
XRECORD
  5
492
102
{ACAD_REACTORS
330
491
102
}
330
491
100
AcDbXrecord
280
     1
102
RTVSPropertyOp0
 70
     1
102
RTVSPropertyOp1
 70
     1
102
RTVSPropertyOp2
 70
     1
102
RTVSPropertyOp3
 70
     1
102
RTVSPropertyOp4
 70
     1
102
RTVSPropertyOp5
 70
     1
102
RTVSPropertyOp6
 70
     1
102
RTVSPropertyOp7
 70
     1
102
RTVSPropertyOp8
 70
     1
102
RTVSPropertyOp9
 70
     1
102
RTVSPropertyOp10
 70
     1
102
RTVSPropertyOp11
 70
     1
102
RTVSPropertyOp12
 70
     1
102
RTVSPropertyOp13
 70
     1
102
RTVSPropertyOp14
 70
     1
102
RTVSPropertyOp15
 70
     1
102
RTVSPropertyOp16
 70
     1
102
RTVSPropertyOp17
 70
     1
102
RTVSPropertyOp18
 70
     1
102
RTVSPropertyOp19
 70
     1
102
RTVSPropertyOp20
 70
     1
102
RTVSPropertyOp21
 70
     1
102
RTVSPropertyOp22
 70
     1
102
RTVSPropertyOp23
 70
     1
102
RTVSPropertyOp24
 70
     1
102
RTVSPropertyOp25
 70
     1
102
RTVSPropertyOp26
 70
     1
102
RTVSPropertyOp27
 70
     1
102
RTVSPropertyOp28
 70
     1
102
RTVSPropertyOp29
 70
     1
102
RTVSPropertyOp30
 70
     1
102
RTVSPropertyOp31
 70
     1
102
RTVSPropertyOp32
 70
     1
102
RTVSPropertyOp33
 70
     1
102
RTVSPropertyOp34
 70
     1
102
RTVSPropertyOp35
 70
     1
102
RTVSPropertyOp36
 70
     1
102
RTVSPropertyOp37
 70
     1
102
RTVSPropertyOp38
 70
     1
102
RTVSPropertyOp39
 70
     1
102
RTVSPropertyOp40
 70
     1
102
RTVSPropertyOp41
 70
     1
102
RTVSPropertyOp42
 70
     1
102
RTVSPropertyOp43
 70
     1
102
RTVSPropertyOp44
 70
     1
102
RTVSPropertyOp45
 70
     1
102
RTVSPropertyOp46
 70
     1
102
RTVSPropertyOp47
 70
     1
102
RTVSPropertyOp48
 70
     1
102
RTVSPropertyOp49
 70
     1
102
RTVSPropertyOp50
 70
     1
102
RTVSPropertyOp51
 70
     0
102
RTVSPropertyOp52
 70
     0
102
RTVSPropertyOp53
 70
     1
102
RTVSPropertyOp54
 70
     1
102
RTVSPropertyOp55
 70
     1
102
RTVSPropertyOp56
 70
     1
102
RTVSPropertyOp57
 70
     1
102
RTVSPost2010Prop28
280
     0
102
RTVSPost2010PropOp28
 70
     1
102
RTVSPost2010Prop29
280
     1
102
RTVSPost2010PropOp29
 70
     1
102
RTVSPost2010Prop30
280
     1
102
RTVSPost2010PropOp30
 70
     1
102
RTVSPost2010Prop31
280
     0
102
RTVSPost2010PropOp31
 70
     1
102
RTVSPost2010Prop32
280
     0
102
RTVSPost2010PropOp32
 70
     1
102
RTVSPost2010Prop33
280
     0
102
RTVSPost2010PropOp33
 70
     1
102
RTVSPost2010Prop34
280
     0
102
RTVSPost2010PropOp34
 70
     1
102
RTVSPost2010Prop35
280
     0
102
RTVSPost2010PropOp35
 70
     1
102
RTVSPost2010Prop36
280
     0
102
RTVSPost2010PropOp36
 70
     1
102
RTVSPost2010Prop37
 90
       50
102
RTVSPost2010PropOp37
 70
     1
102
RTVSPost2010Prop38
140
0.0
102
RTVSPost2010PropOp38
 70
     1
102
RTVSPost2010Prop39
140
1.0
102
RTVSPost2010PropOp39
 70
     1
102
RTVSPost2010Prop40
 90
        0
102
RTVSPost2010PropOp40
 70
     1
102
RTVSPost2010Prop41ColorIndex
 90
       18
102
RTVSPost2010Prop41ColorRGB
 90
        0
102
RTVSPost2010PropOp41
 70
     1
102
RTVSPost2010Prop42
 90
       50
102
RTVSPost2010PropOp42
 70
     1
102
RTVSPost2010Prop43
 90
        3
102
RTVSPost2010PropOp43
 70
     1
102
RTVSPost2010Prop44ColorIndex
 90
        5
102
RTVSPost2010Prop44ColorRGB
 90
      255
102
RTVSPost2010PropOp44
 70
     1
102
RTVSPost2010Prop45
280
     0
102
RTVSPost2010PropOp45
 70
     1
102
RTVSPost2010Prop46
 90
       50
102
RTVSPost2010PropOp46
 70
     1
102
RTVSPost2010Prop47
 90
       50
102
RTVSPost2010PropOp47
 70
     1
102
RTVSPost2010Prop48
 90
       50
102
RTVSPost2010PropOp48
 70
     1
102
RTVSPost2010Prop49
280
     0
102
RTVSPost2010PropOp49
 70
     1
102
RTVSPost2010Prop50
 90
       50
102
RTVSPost2010PropOp50
 70
     1
102
RTVSPost2010Prop51ColorIndex
 90
      256
102
RTVSPost2010Prop51ColorRGB
 90
-16777216
102
RTVSPost2010PropOp51
 70
     0
102
RTVSPost2010Prop52
140
1.0
102
RTVSPost2010PropOp52
 70
     0
102
RTVSPost2010Prop53
 90
        2
102
RTVSPost2010PropOp53
 70
     1
102
RTVSPost2010Prop54
  1
strokes_ogs.tif
102
RTVSPost2010PropOp54
 70
     1
102
RTVSPost2010Prop55
280
     0
102
RTVSPost2010PropOp55
 70
     1
102
RTVSPost2010Prop56
140
1.0
102
RTVSPost2010PropOp56
 70
     1
102
RTVSPost2010Prop57
140
1.0
102
RTVSPost2010PropOp57
 70
     1
  0
XRECORD
  5
4A2
102
{ACAD_REACTORS
330
4A1
102
}
330
4A1
100
AcDbXrecord
280
     1
102
RTVSPropertyOp0
 70
     0
102
RTVSPropertyOp1
 70
     0
102
RTVSPropertyOp2
 70
     0
102
RTVSPropertyOp3
 70
     0
102
RTVSPropertyOp4
 70
     0
102
RTVSPropertyOp5
 70
     0
102
RTVSPropertyOp6
 70
     0
102
RTVSPropertyOp7
 70
     0
102
RTVSPropertyOp8
 70
     0
102
RTVSPropertyOp9
 70
     0
102
RTVSPropertyOp10
 70
     0
102
RTVSPropertyOp11
 70
     0
102
RTVSPropertyOp12
 70
     0
102
RTVSPropertyOp13
 70
     0
102
RTVSPropertyOp14
 70
     2
102
RTVSPropertyOp15
 70
     0
102
RTVSPropertyOp16
 70
     0
102
RTVSPropertyOp17
 70
     0
102
RTVSPropertyOp18
 70
     0
102
RTVSPropertyOp19
 70
     0
102
RTVSPropertyOp20
 70
     0
102
RTVSPropertyOp21
 70
     0
102
RTVSPropertyOp22
 70
     0
102
RTVSPropertyOp23
 70
     0
102
RTVSPropertyOp24
 70
     0
102
RTVSPropertyOp25
 70
     0
102
RTVSPropertyOp26
 70
     0
102
RTVSPropertyOp27
 70
     0
102
RTVSPropertyOp28
 70
     0
102
RTVSPropertyOp29
 70
     0
102
RTVSPropertyOp30
 70
     0
102
RTVSPropertyOp31
 70
     0
102
RTVSPropertyOp32
 70
     0
102
RTVSPropertyOp33
 70
     0
102
RTVSPropertyOp34
 70
     0
102
RTVSPropertyOp35
 70
     0
102
RTVSPropertyOp36
 70
     0
102
RTVSPropertyOp37
 70
     0
102
RTVSPropertyOp38
 70
     0
102
RTVSPropertyOp39
 70
     0
102
RTVSPropertyOp40
 70
     0
102
RTVSPropertyOp41
 70
     0
102
RTVSPropertyOp42
 70
     0
102
RTVSPropertyOp43
 70
     0
102
RTVSPropertyOp44
 70
     0
102
RTVSPropertyOp45
 70
     0
102
RTVSPropertyOp46
 70
     0
102
RTVSPropertyOp47
 70
     0
102
RTVSPropertyOp48
 70
     0
102
RTVSPropertyOp49
 70
     0
102
RTVSPropertyOp50
 70
     0
102
RTVSPropertyOp51
 70
     0
102
RTVSPropertyOp52
 70
     0
102
RTVSPropertyOp53
 70
     0
102
RTVSPropertyOp54
 70
     0
102
RTVSPropertyOp55
 70
     0
102
RTVSPropertyOp56
 70
     0
102
RTVSPropertyOp57
 70
     0
102
RTVSPost2010Prop28
280
     0
102
RTVSPost2010PropOp28
 70
     0
102
RTVSPost2010Prop29
280
     1
102
RTVSPost2010PropOp29
 70
     0
102
RTVSPost2010Prop30
280
     1
102
RTVSPost2010PropOp30
 70
     0
102
RTVSPost2010Prop31
280
     0
102
RTVSPost2010PropOp31
 70
     0
102
RTVSPost2010Prop32
280
     0
102
RTVSPost2010PropOp32
 70
     0
102
RTVSPost2010Prop33
280
     0
102
RTVSPost2010PropOp33
 70
     0
102
RTVSPost2010Prop34
280
     0
102
RTVSPost2010PropOp34
 70
     0
102
RTVSPost2010Prop35
280
     0
102
RTVSPost2010PropOp35
 70
     0
102
RTVSPost2010Prop36
280
     0
102
RTVSPost2010PropOp36
 70
     0
102
RTVSPost2010Prop37
 90
       50
102
RTVSPost2010PropOp37
 70
     0
102
RTVSPost2010Prop38
140
0.0
102
RTVSPost2010PropOp38
 70
     0
102
RTVSPost2010Prop39
140
1.0
102
RTVSPost2010PropOp39
 70
     0
102
RTVSPost2010Prop40
 90
        0
102
RTVSPost2010PropOp40
 70
     0
102
RTVSPost2010Prop41ColorIndex
 90
       18
102
RTVSPost2010Prop41ColorRGB
 90
        0
102
RTVSPost2010PropOp41
 70
     0
102
RTVSPost2010Prop42
 90
       50
102
RTVSPost2010PropOp42
 70
     0
102
RTVSPost2010Prop43
 90
        3
102
RTVSPost2010PropOp43
 70
     0
102
RTVSPost2010Prop44ColorIndex
 90
        5
102
RTVSPost2010Prop44ColorRGB
 90
      255
102
RTVSPost2010PropOp44
 70
     0
102
RTVSPost2010Prop45
280
     0
102
RTVSPost2010PropOp45
 70
     0
102
RTVSPost2010Prop46
 90
       50
102
RTVSPost2010PropOp46
 70
     0
102
RTVSPost2010Prop47
 90
       50
102
RTVSPost2010PropOp47
 70
     0
102
RTVSPost2010Prop48
 90
       50
102
RTVSPost2010PropOp48
 70
     0
102
RTVSPost2010Prop49
280
     0
102
RTVSPost2010PropOp49
 70
     0
102
RTVSPost2010Prop50
 90
       50
102
RTVSPost2010PropOp50
 70
     0
102
RTVSPost2010Prop51ColorIndex
 90
      256
102
RTVSPost2010Prop51ColorRGB
 90
-16777216
102
RTVSPost2010PropOp51
 70
     0
102
RTVSPost2010Prop52
140
1.0
102
RTVSPost2010PropOp52
 70
     0
102
RTVSPost2010Prop53
 90
        2
102
RTVSPost2010PropOp53
 70
     0
102
RTVSPost2010Prop54
  1
strokes_ogs.tif
102
RTVSPost2010PropOp54
 70
     0
102
RTVSPost2010Prop55
280
     0
102
RTVSPost2010PropOp55
 70
     0
102
RTVSPost2010Prop56
140
1.0
102
RTVSPost2010PropOp56
 70
     0
102
RTVSPost2010Prop57
140
1.0
102
RTVSPost2010PropOp57
 70
     0
  0
XRECORD
  5
49A
102
{ACAD_REACTORS
330
499
102
}
330
499
100
AcDbXrecord
280
     1
102
RTVSPropertyOp0
 70
     1
102
RTVSPropertyOp1
 70
     1
102
RTVSPropertyOp2
 70
     1
102
RTVSPropertyOp3
 70
     1
102
RTVSPropertyOp4
 70
     1
102
RTVSPropertyOp5
 70
     1
102
RTVSPropertyOp6
 70
     1
102
RTVSPropertyOp7
 70
     1
102
RTVSPropertyOp8
 70
     1
102
RTVSPropertyOp9
 70
     1
102
RTVSPropertyOp10
 70
     1
102
RTVSPropertyOp11
 70
     1
102
RTVSPropertyOp12
 70
     1
102
RTVSPropertyOp13
 70
     1
102
RTVSPropertyOp14
 70
     1
102
RTVSPropertyOp15
 70
     1
102
RTVSPropertyOp16
 70
     1
102
RTVSPropertyOp17
 70
     1
102
RTVSPropertyOp18
 70
     1
102
RTVSPropertyOp19
 70
     1
102
RTVSPropertyOp20
 70
     1
102
RTVSPropertyOp21
 70
     1
102
RTVSPropertyOp22
 70
     1
102
RTVSPropertyOp23
 70
     1
102
RTVSPropertyOp24
 70
     1
102
RTVSPropertyOp25
 70
     1
102
RTVSPropertyOp26
 70
     1
102
RTVSPropertyOp27
 70
     1
102
RTVSPropertyOp28
 70
     1
102
RTVSPropertyOp29
 70
     1
102
RTVSPropertyOp30
 70
     1
102
RTVSPropertyOp31
 70
     1
102
RTVSPropertyOp32
 70
     1
102
RTVSPropertyOp33
 70
     1
102
RTVSPropertyOp34
 70
     1
102
RTVSPropertyOp35
 70
     1
102
RTVSPropertyOp36
 70
     1
102
RTVSPropertyOp37
 70
     1
102
RTVSPropertyOp38
 70
     1
102
RTVSPropertyOp39
 70
     1
102
RTVSPropertyOp40
 70
     1
102
RTVSPropertyOp41
 70
     1
102
RTVSPropertyOp42
 70
     1
102
RTVSPropertyOp43
 70
     1
102
RTVSPropertyOp44
 70
     1
102
RTVSPropertyOp45
 70
     1
102
RTVSPropertyOp46
 70
     1
102
RTVSPropertyOp47
 70
     1
102
RTVSPropertyOp48
 70
     1
102
RTVSPropertyOp49
 70
     1
102
RTVSPropertyOp50
 70
     1
102
RTVSPropertyOp51
 70
     0
102
RTVSPropertyOp52
 70
     0
102
RTVSPropertyOp53
 70
     1
102
RTVSPropertyOp54
 70
     1
102
RTVSPropertyOp55
 70
     1
102
RTVSPropertyOp56
 70
     1
102
RTVSPropertyOp57
 70
     1
102
RTVSPost2010Prop28
280
     0
102
RTVSPost2010PropOp28
 70
     1
102
RTVSPost2010Prop29
280
     1
102
RTVSPost2010PropOp29
 70
     1
102
RTVSPost2010Prop30
280
     1
102
RTVSPost2010PropOp30
 70
     1
102
RTVSPost2010Prop31
280
     0
102
RTVSPost2010PropOp31
 70
     1
102
RTVSPost2010Prop32
280
     0
102
RTVSPost2010PropOp32
 70
     1
102
RTVSPost2010Prop33
280
     0
102
RTVSPost2010PropOp33
 70
     1
102
RTVSPost2010Prop34
280
     0
102
RTVSPost2010PropOp34
 70
     1
102
RTVSPost2010Prop35
280
     0
102
RTVSPost2010PropOp35
 70
     1
102
RTVSPost2010Prop36
280
     0
102
RTVSPost2010PropOp36
 70
     1
102
RTVSPost2010Prop37
 90
       50
102
RTVSPost2010PropOp37
 70
     1
102
RTVSPost2010Prop38
140
0.0
102
RTVSPost2010PropOp38
 70
     1
102
RTVSPost2010Prop39
140
1.0
102
RTVSPost2010PropOp39
 70
     1
102
RTVSPost2010Prop40
 90
        0
102
RTVSPost2010PropOp40
 70
     1
102
RTVSPost2010Prop41ColorIndex
 90
       18
102
RTVSPost2010Prop41ColorRGB
 90
        0
102
RTVSPost2010PropOp41
 70
     1
102
RTVSPost2010Prop42
 90
       50
102
RTVSPost2010PropOp42
 70
     1
102
RTVSPost2010Prop43
 90
        3
102
RTVSPost2010PropOp43
 70
     1
102
RTVSPost2010Prop44ColorIndex
 90
        5
102
RTVSPost2010Prop44ColorRGB
 90
      255
102
RTVSPost2010PropOp44
 70
     1
102
RTVSPost2010Prop45
280
     0
102
RTVSPost2010PropOp45
 70
     1
102
RTVSPost2010Prop46
 90
       50
102
RTVSPost2010PropOp46
 70
     1
102
RTVSPost2010Prop47
 90
       50
102
RTVSPost2010PropOp47
 70
     1
102
RTVSPost2010Prop48
 90
       50
102
RTVSPost2010PropOp48
 70
     1
102
RTVSPost2010Prop49
280
     0
102
RTVSPost2010PropOp49
 70
     1
102
RTVSPost2010Prop50
 90
       50
102
RTVSPost2010PropOp50
 70
     1
102
RTVSPost2010Prop51ColorIndex
 90
      256
102
RTVSPost2010Prop51ColorRGB
 90
-16777216
102
RTVSPost2010PropOp51
 70
     0
102
RTVSPost2010Prop52
140
1.0
102
RTVSPost2010PropOp52
 70
     0
102
RTVSPost2010Prop53
 90
        2
102
RTVSPost2010PropOp53
 70
     1
102
RTVSPost2010Prop54
  1
strokes_ogs.tif
102
RTVSPost2010PropOp54
 70
     1
102
RTVSPost2010Prop55
280
     0
102
RTVSPost2010PropOp55
 70
     1
102
RTVSPost2010Prop56
140
1.0
102
RTVSPost2010PropOp56
 70
     1
102
RTVSPost2010Prop57
140
1.0
102
RTVSPost2010PropOp57
 70
     1
  0
XRECORD
  5
47E
102
{ACAD_REACTORS
330
47D
102
}
330
47D
100
AcDbXrecord
280
     1
102
RTVSPropertyOp0
 70
     1
102
RTVSPropertyOp1
 70
     1
102
RTVSPropertyOp2
 70
     1
102
RTVSPropertyOp3
 70
     1
102
RTVSPropertyOp4
 70
     1
102
RTVSPropertyOp5
 70
     1
102
RTVSPropertyOp6
 70
     1
102
RTVSPropertyOp7
 70
     1
102
RTVSPropertyOp8
 70
     1
102
RTVSPropertyOp9
 70
     1
102
RTVSPropertyOp10
 70
     1
102
RTVSPropertyOp11
 70
     1
102
RTVSPropertyOp12
 70
     1
102
RTVSPropertyOp13
 70
     1
102
RTVSPropertyOp14
 70
     1
102
RTVSPropertyOp15
 70
     1
102
RTVSPropertyOp16
 70
     1
102
RTVSPropertyOp17
 70
     1
102
RTVSPropertyOp18
 70
     1
102
RTVSPropertyOp19
 70
     1
102
RTVSPropertyOp20
 70
     1
102
RTVSPropertyOp21
 70
     1
102
RTVSPropertyOp22
 70
     1
102
RTVSPropertyOp23
 70
     1
102
RTVSPropertyOp24
 70
     1
102
RTVSPropertyOp25
 70
     1
102
RTVSPropertyOp26
 70
     1
102
RTVSPropertyOp27
 70
     1
102
RTVSPropertyOp28
 70
     1
102
RTVSPropertyOp29
 70
     1
102
RTVSPropertyOp30
 70
     1
102
RTVSPropertyOp31
 70
     1
102
RTVSPropertyOp32
 70
     1
102
RTVSPropertyOp33
 70
     1
102
RTVSPropertyOp34
 70
     1
102
RTVSPropertyOp35
 70
     1
102
RTVSPropertyOp36
 70
     1
102
RTVSPropertyOp37
 70
     1
102
RTVSPropertyOp38
 70
     1
102
RTVSPropertyOp39
 70
     1
102
RTVSPropertyOp40
 70
     1
102
RTVSPropertyOp41
 70
     1
102
RTVSPropertyOp42
 70
     1
102
RTVSPropertyOp43
 70
     1
102
RTVSPropertyOp44
 70
     1
102
RTVSPropertyOp45
 70
     1
102
RTVSPropertyOp46
 70
     1
102
RTVSPropertyOp47
 70
     1
102
RTVSPropertyOp48
 70
     1
102
RTVSPropertyOp49
 70
     1
102
RTVSPropertyOp50
 70
     1
102
RTVSPropertyOp51
 70
     0
102
RTVSPropertyOp52
 70
     0
102
RTVSPropertyOp53
 70
     1
102
RTVSPropertyOp54
 70
     1
102
RTVSPropertyOp55
 70
     1
102
RTVSPropertyOp56
 70
     1
102
RTVSPropertyOp57
 70
     1
102
RTVSPost2010Prop28
280
     0
102
RTVSPost2010PropOp28
 70
     1
102
RTVSPost2010Prop29
280
     1
102
RTVSPost2010PropOp29
 70
     1
102
RTVSPost2010Prop30
280
     1
102
RTVSPost2010PropOp30
 70
     1
102
RTVSPost2010Prop31
280
     0
102
RTVSPost2010PropOp31
 70
     1
102
RTVSPost2010Prop32
280
     0
102
RTVSPost2010PropOp32
 70
     1
102
RTVSPost2010Prop33
280
     0
102
RTVSPost2010PropOp33
 70
     1
102
RTVSPost2010Prop34
280
     0
102
RTVSPost2010PropOp34
 70
     1
102
RTVSPost2010Prop35
280
     0
102
RTVSPost2010PropOp35
 70
     1
102
RTVSPost2010Prop36
280
     0
102
RTVSPost2010PropOp36
 70
     1
102
RTVSPost2010Prop37
 90
       50
102
RTVSPost2010PropOp37
 70
     1
102
RTVSPost2010Prop38
140
0.0
102
RTVSPost2010PropOp38
 70
     1
102
RTVSPost2010Prop39
140
1.0
102
RTVSPost2010PropOp39
 70
     1
102
RTVSPost2010Prop40
 90
        0
102
RTVSPost2010PropOp40
 70
     1
102
RTVSPost2010Prop41ColorIndex
 90
       18
102
RTVSPost2010Prop41ColorRGB
 90
        0
102
RTVSPost2010PropOp41
 70
     1
102
RTVSPost2010Prop42
 90
       50
102
RTVSPost2010PropOp42
 70
     1
102
RTVSPost2010Prop43
 90
        3
102
RTVSPost2010PropOp43
 70
     1
102
RTVSPost2010Prop44ColorIndex
 90
        5
102
RTVSPost2010Prop44ColorRGB
 90
      255
102
RTVSPost2010PropOp44
 70
     1
102
RTVSPost2010Prop45
280
     0
102
RTVSPost2010PropOp45
 70
     1
102
RTVSPost2010Prop46
 90
       50
102
RTVSPost2010PropOp46
 70
     1
102
RTVSPost2010Prop47
 90
       50
102
RTVSPost2010PropOp47
 70
     1
102
RTVSPost2010Prop48
 90
       50
102
RTVSPost2010PropOp48
 70
     1
102
RTVSPost2010Prop49
280
     0
102
RTVSPost2010PropOp49
 70
     1
102
RTVSPost2010Prop50
 90
       50
102
RTVSPost2010PropOp50
 70
     1
102
RTVSPost2010Prop51ColorIndex
 90
      256
102
RTVSPost2010Prop51ColorRGB
 90
-16777216
102
RTVSPost2010PropOp51
 70
     0
102
RTVSPost2010Prop52
140
1.0
102
RTVSPost2010PropOp52
 70
     0
102
RTVSPost2010Prop53
 90
        2
102
RTVSPost2010PropOp53
 70
     1
102
RTVSPost2010Prop54
  1
strokes_ogs.tif
102
RTVSPost2010PropOp54
 70
     1
102
RTVSPost2010Prop55
280
     0
102
RTVSPost2010PropOp55
 70
     1
102
RTVSPost2010Prop56
140
1.0
102
RTVSPost2010PropOp56
 70
     1
102
RTVSPost2010Prop57
140
1.0
102
RTVSPost2010PropOp57
 70
     1
  0
XRECORD
  5
480
102
{ACAD_REACTORS
330
47F
102
}
330
47F
100
AcDbXrecord
280
     1
102
RTVSPropertyOp0
 70
     1
102
RTVSPropertyOp1
 70
     1
102
RTVSPropertyOp2
 70
     1
102
RTVSPropertyOp3
 70
     1
102
RTVSPropertyOp4
 70
     1
102
RTVSPropertyOp5
 70
     1
102
RTVSPropertyOp6
 70
     1
102
RTVSPropertyOp7
 70
     1
102
RTVSPropertyOp8
 70
     1
102
RTVSPropertyOp9
 70
     1
102
RTVSPropertyOp10
 70
     1
102
RTVSPropertyOp11
 70
     1
102
RTVSPropertyOp12
 70
     1
102
RTVSPropertyOp13
 70
     1
102
RTVSPropertyOp14
 70
     1
102
RTVSPropertyOp15
 70
     1
102
RTVSPropertyOp16
 70
     1
102
RTVSPropertyOp17
 70
     1
102
RTVSPropertyOp18
 70
     1
102
RTVSPropertyOp19
 70
     1
102
RTVSPropertyOp20
 70
     1
102
RTVSPropertyOp21
 70
     1
102
RTVSPropertyOp22
 70
     1
102
RTVSPropertyOp23
 70
     1
102
RTVSPropertyOp24
 70
     1
102
RTVSPropertyOp25
 70
     1
102
RTVSPropertyOp26
 70
     1
102
RTVSPropertyOp27
 70
     1
102
RTVSPropertyOp28
 70
     1
102
RTVSPropertyOp29
 70
     1
102
RTVSPropertyOp30
 70
     1
102
RTVSPropertyOp31
 70
     1
102
RTVSPropertyOp32
 70
     1
102
RTVSPropertyOp33
 70
     1
102
RTVSPropertyOp34
 70
     1
102
RTVSPropertyOp35
 70
     1
102
RTVSPropertyOp36
 70
     1
102
RTVSPropertyOp37
 70
     1
102
RTVSPropertyOp38
 70
     1
102
RTVSPropertyOp39
 70
     1
102
RTVSPropertyOp40
 70
     1
102
RTVSPropertyOp41
 70
     1
102
RTVSPropertyOp42
 70
     1
102
RTVSPropertyOp43
 70
     1
102
RTVSPropertyOp44
 70
     1
102
RTVSPropertyOp45
 70
     1
102
RTVSPropertyOp46
 70
     1
102
RTVSPropertyOp47
 70
     1
102
RTVSPropertyOp48
 70
     1
102
RTVSPropertyOp49
 70
     1
102
RTVSPropertyOp50
 70
     1
102
RTVSPropertyOp51
 70
     0
102
RTVSPropertyOp52
 70
     0
102
RTVSPropertyOp53
 70
     1
102
RTVSPropertyOp54
 70
     1
102
RTVSPropertyOp55
 70
     1
102
RTVSPropertyOp56
 70
     1
102
RTVSPropertyOp57
 70
     1
102
RTVSPost2010Prop28
280
     0
102
RTVSPost2010PropOp28
 70
     1
102
RTVSPost2010Prop29
280
     1
102
RTVSPost2010PropOp29
 70
     1
102
RTVSPost2010Prop30
280
     1
102
RTVSPost2010PropOp30
 70
     1
102
RTVSPost2010Prop31
280
     0
102
RTVSPost2010PropOp31
 70
     1
102
RTVSPost2010Prop32
280
     0
102
RTVSPost2010PropOp32
 70
     1
102
RTVSPost2010Prop33
280
     0
102
RTVSPost2010PropOp33
 70
     1
102
RTVSPost2010Prop34
280
     0
102
RTVSPost2010PropOp34
 70
     1
102
RTVSPost2010Prop35
280
     0
102
RTVSPost2010PropOp35
 70
     1
102
RTVSPost2010Prop36
280
     0
102
RTVSPost2010PropOp36
 70
     1
102
RTVSPost2010Prop37
 90
       50
102
RTVSPost2010PropOp37
 70
     1
102
RTVSPost2010Prop38
140
0.0
102
RTVSPost2010PropOp38
 70
     1
102
RTVSPost2010Prop39
140
1.0
102
RTVSPost2010PropOp39
 70
     1
102
RTVSPost2010Prop40
 90
        0
102
RTVSPost2010PropOp40
 70
     1
102
RTVSPost2010Prop41ColorIndex
 90
       18
102
RTVSPost2010Prop41ColorRGB
 90
        0
102
RTVSPost2010PropOp41
 70
     1
102
RTVSPost2010Prop42
 90
       50
102
RTVSPost2010PropOp42
 70
     1
102
RTVSPost2010Prop43
 90
        3
102
RTVSPost2010PropOp43
 70
     1
102
RTVSPost2010Prop44ColorIndex
 90
        5
102
RTVSPost2010Prop44ColorRGB
 90
      255
102
RTVSPost2010PropOp44
 70
     1
102
RTVSPost2010Prop45
280
     0
102
RTVSPost2010PropOp45
 70
     1
102
RTVSPost2010Prop46
 90
       50
102
RTVSPost2010PropOp46
 70
     1
102
RTVSPost2010Prop47
 90
       50
102
RTVSPost2010PropOp47
 70
     1
102
RTVSPost2010Prop48
 90
       50
102
RTVSPost2010PropOp48
 70
     1
102
RTVSPost2010Prop49
280
     0
102
RTVSPost2010PropOp49
 70
     1
102
RTVSPost2010Prop50
 90
       50
102
RTVSPost2010PropOp50
 70
     1
102
RTVSPost2010Prop51ColorIndex
 90
      256
102
RTVSPost2010Prop51ColorRGB
 90
-16777216
102
RTVSPost2010PropOp51
 70
     0
102
RTVSPost2010Prop52
140
1.0
102
RTVSPost2010PropOp52
 70
     0
102
RTVSPost2010Prop53
 90
        2
102
RTVSPost2010PropOp53
 70
     1
102
RTVSPost2010Prop54
  1
strokes_ogs.tif
102
RTVSPost2010PropOp54
 70
     1
102
RTVSPost2010Prop55
280
     0
102
RTVSPost2010PropOp55
 70
     1
102
RTVSPost2010Prop56
140
1.0
102
RTVSPost2010PropOp56
 70
     1
102
RTVSPost2010Prop57
140
1.0
102
RTVSPost2010PropOp57
 70
     1
  0
XRECORD
  5
482
102
{ACAD_REACTORS
330
481
102
}
330
481
100
AcDbXrecord
280
     1
102
RTVSPropertyOp0
 70
     1
102
RTVSPropertyOp1
 70
     1
102
RTVSPropertyOp2
 70
     1
102
RTVSPropertyOp3
 70
     1
102
RTVSPropertyOp4
 70
     1
102
RTVSPropertyOp5
 70
     1
102
RTVSPropertyOp6
 70
     1
102
RTVSPropertyOp7
 70
     1
102
RTVSPropertyOp8
 70
     1
102
RTVSPropertyOp9
 70
     1
102
RTVSPropertyOp10
 70
     1
102
RTVSPropertyOp11
 70
     1
102
RTVSPropertyOp12
 70
     1
102
RTVSPropertyOp13
 70
     1
102
RTVSPropertyOp14
 70
     1
102
RTVSPropertyOp15
 70
     1
102
RTVSPropertyOp16
 70
     1
102
RTVSPropertyOp17
 70
     1
102
RTVSPropertyOp18
 70
     1
102
RTVSPropertyOp19
 70
     1
102
RTVSPropertyOp20
 70
     1
102
RTVSPropertyOp21
 70
     1
102
RTVSPropertyOp22
 70
     1
102
RTVSPropertyOp23
 70
     1
102
RTVSPropertyOp24
 70
     1
102
RTVSPropertyOp25
 70
     1
102
RTVSPropertyOp26
 70
     1
102
RTVSPropertyOp27
 70
     1
102
RTVSPropertyOp28
 70
     1
102
RTVSPropertyOp29
 70
     1
102
RTVSPropertyOp30
 70
     1
102
RTVSPropertyOp31
 70
     1
102
RTVSPropertyOp32
 70
     1
102
RTVSPropertyOp33
 70
     1
102
RTVSPropertyOp34
 70
     1
102
RTVSPropertyOp35
 70
     1
102
RTVSPropertyOp36
 70
     1
102
RTVSPropertyOp37
 70
     1
102
RTVSPropertyOp38
 70
     1
102
RTVSPropertyOp39
 70
     1
102
RTVSPropertyOp40
 70
     1
102
RTVSPropertyOp41
 70
     1
102
RTVSPropertyOp42
 70
     1
102
RTVSPropertyOp43
 70
     1
102
RTVSPropertyOp44
 70
     1
102
RTVSPropertyOp45
 70
     1
102
RTVSPropertyOp46
 70
     1
102
RTVSPropertyOp47
 70
     1
102
RTVSPropertyOp48
 70
     1
102
RTVSPropertyOp49
 70
     1
102
RTVSPropertyOp50
 70
     1
102
RTVSPropertyOp51
 70
     0
102
RTVSPropertyOp52
 70
     0
102
RTVSPropertyOp53
 70
     1
102
RTVSPropertyOp54
 70
     1
102
RTVSPropertyOp55
 70
     1
102
RTVSPropertyOp56
 70
     1
102
RTVSPropertyOp57
 70
     1
102
RTVSPost2010Prop28
280
     0
102
RTVSPost2010PropOp28
 70
     1
102
RTVSPost2010Prop29
280
     1
102
RTVSPost2010PropOp29
 70
     1
102
RTVSPost2010Prop30
280
     1
102
RTVSPost2010PropOp30
 70
     1
102
RTVSPost2010Prop31
280
     0
102
RTVSPost2010PropOp31
 70
     1
102
RTVSPost2010Prop32
280
     0
102
RTVSPost2010PropOp32
 70
     1
102
RTVSPost2010Prop33
280
     0
102
RTVSPost2010PropOp33
 70
     1
102
RTVSPost2010Prop34
280
     0
102
RTVSPost2010PropOp34
 70
     1
102
RTVSPost2010Prop35
280
     0
102
RTVSPost2010PropOp35
 70
     1
102
RTVSPost2010Prop36
280
     0
102
RTVSPost2010PropOp36
 70
     1
102
RTVSPost2010Prop37
 90
       50
102
RTVSPost2010PropOp37
 70
     1
102
RTVSPost2010Prop38
140
0.0
102
RTVSPost2010PropOp38
 70
     1
102
RTVSPost2010Prop39
140
1.0
102
RTVSPost2010PropOp39
 70
     1
102
RTVSPost2010Prop40
 90
        0
102
RTVSPost2010PropOp40
 70
     1
102
RTVSPost2010Prop41ColorIndex
 90
       18
102
RTVSPost2010Prop41ColorRGB
 90
        0
102
RTVSPost2010PropOp41
 70
     1
102
RTVSPost2010Prop42
 90
       50
102
RTVSPost2010PropOp42
 70
     1
102
RTVSPost2010Prop43
 90
        3
102
RTVSPost2010PropOp43
 70
     1
102
RTVSPost2010Prop44ColorIndex
 90
        5
102
RTVSPost2010Prop44ColorRGB
 90
      255
102
RTVSPost2010PropOp44
 70
     1
102
RTVSPost2010Prop45
280
     0
102
RTVSPost2010PropOp45
 70
     1
102
RTVSPost2010Prop46
 90
       50
102
RTVSPost2010PropOp46
 70
     1
102
RTVSPost2010Prop47
 90
       50
102
RTVSPost2010PropOp47
 70
     1
102
RTVSPost2010Prop48
 90
       50
102
RTVSPost2010PropOp48
 70
     1
102
RTVSPost2010Prop49
280
     0
102
RTVSPost2010PropOp49
 70
     1
102
RTVSPost2010Prop50
 90
       50
102
RTVSPost2010PropOp50
 70
     1
102
RTVSPost2010Prop51ColorIndex
 90
      256
102
RTVSPost2010Prop51ColorRGB
 90
-16777216
102
RTVSPost2010PropOp51
 70
     0
102
RTVSPost2010Prop52
140
1.0
102
RTVSPost2010PropOp52
 70
     0
102
RTVSPost2010Prop53
 90
        2
102
RTVSPost2010PropOp53
 70
     1
102
RTVSPost2010Prop54
  1
strokes_ogs.tif
102
RTVSPost2010PropOp54
 70
     1
102
RTVSPost2010Prop55
280
     0
102
RTVSPost2010PropOp55
 70
     1
102
RTVSPost2010Prop56
140
1.0
102
RTVSPost2010PropOp56
 70
     1
102
RTVSPost2010Prop57
140
1.0
102
RTVSPost2010PropOp57
 70
     1
  0
XRECORD
  5
484
102
{ACAD_REACTORS
330
483
102
}
330
483
100
AcDbXrecord
280
     1
102
RTVSPropertyOp0
 70
     1
102
RTVSPropertyOp1
 70
     1
102
RTVSPropertyOp2
 70
     1
102
RTVSPropertyOp3
 70
     1
102
RTVSPropertyOp4
 70
     1
102
RTVSPropertyOp5
 70
     1
102
RTVSPropertyOp6
 70
     1
102
RTVSPropertyOp7
 70
     1
102
RTVSPropertyOp8
 70
     1
102
RTVSPropertyOp9
 70
     1
102
RTVSPropertyOp10
 70
     1
102
RTVSPropertyOp11
 70
     1
102
RTVSPropertyOp12
 70
     1
102
RTVSPropertyOp13
 70
     1
102
RTVSPropertyOp14
 70
     1
102
RTVSPropertyOp15
 70
     1
102
RTVSPropertyOp16
 70
     1
102
RTVSPropertyOp17
 70
     1
102
RTVSPropertyOp18
 70
     1
102
RTVSPropertyOp19
 70
     1
102
RTVSPropertyOp20
 70
     1
102
RTVSPropertyOp21
 70
     1
102
RTVSPropertyOp22
 70
     1
102
RTVSPropertyOp23
 70
     1
102
RTVSPropertyOp24
 70
     1
102
RTVSPropertyOp25
 70
     1
102
RTVSPropertyOp26
 70
     1
102
RTVSPropertyOp27
 70
     1
102
RTVSPropertyOp28
 70
     1
102
RTVSPropertyOp29
 70
     1
102
RTVSPropertyOp30
 70
     1
102
RTVSPropertyOp31
 70
     1
102
RTVSPropertyOp32
 70
     1
102
RTVSPropertyOp33
 70
     1
102
RTVSPropertyOp34
 70
     1
102
RTVSPropertyOp35
 70
     1
102
RTVSPropertyOp36
 70
     1
102
RTVSPropertyOp37
 70
     1
102
RTVSPropertyOp38
 70
     1
102
RTVSPropertyOp39
 70
     1
102
RTVSPropertyOp40
 70
     1
102
RTVSPropertyOp41
 70
     1
102
RTVSPropertyOp42
 70
     1
102
RTVSPropertyOp43
 70
     1
102
RTVSPropertyOp44
 70
     1
102
RTVSPropertyOp45
 70
     1
102
RTVSPropertyOp46
 70
     1
102
RTVSPropertyOp47
 70
     1
102
RTVSPropertyOp48
 70
     1
102
RTVSPropertyOp49
 70
     1
102
RTVSPropertyOp50
 70
     1
102
RTVSPropertyOp51
 70
     0
102
RTVSPropertyOp52
 70
     0
102
RTVSPropertyOp53
 70
     1
102
RTVSPropertyOp54
 70
     1
102
RTVSPropertyOp55
 70
     1
102
RTVSPropertyOp56
 70
     1
102
RTVSPropertyOp57
 70
     1
102
RTVSPost2010Prop28
280
     0
102
RTVSPost2010PropOp28
 70
     1
102
RTVSPost2010Prop29
280
     1
102
RTVSPost2010PropOp29
 70
     1
102
RTVSPost2010Prop30
280
     1
102
RTVSPost2010PropOp30
 70
     1
102
RTVSPost2010Prop31
280
     0
102
RTVSPost2010PropOp31
 70
     1
102
RTVSPost2010Prop32
280
     0
102
RTVSPost2010PropOp32
 70
     1
102
RTVSPost2010Prop33
280
     0
102
RTVSPost2010PropOp33
 70
     1
102
RTVSPost2010Prop34
280
     0
102
RTVSPost2010PropOp34
 70
     1
102
RTVSPost2010Prop35
280
     0
102
RTVSPost2010PropOp35
 70
     1
102
RTVSPost2010Prop36
280
     0
102
RTVSPost2010PropOp36
 70
     1
102
RTVSPost2010Prop37
 90
       50
102
RTVSPost2010PropOp37
 70
     1
102
RTVSPost2010Prop38
140
0.0
102
RTVSPost2010PropOp38
 70
     1
102
RTVSPost2010Prop39
140
1.0
102
RTVSPost2010PropOp39
 70
     1
102
RTVSPost2010Prop40
 90
        0
102
RTVSPost2010PropOp40
 70
     1
102
RTVSPost2010Prop41ColorIndex
 90
       18
102
RTVSPost2010Prop41ColorRGB
 90
        0
102
RTVSPost2010PropOp41
 70
     1
102
RTVSPost2010Prop42
 90
       50
102
RTVSPost2010PropOp42
 70
     1
102
RTVSPost2010Prop43
 90
        3
102
RTVSPost2010PropOp43
 70
     1
102
RTVSPost2010Prop44ColorIndex
 90
        5
102
RTVSPost2010Prop44ColorRGB
 90
      255
102
RTVSPost2010PropOp44
 70
     1
102
RTVSPost2010Prop45
280
     0
102
RTVSPost2010PropOp45
 70
     1
102
RTVSPost2010Prop46
 90
       50
102
RTVSPost2010PropOp46
 70
     1
102
RTVSPost2010Prop47
 90
       50
102
RTVSPost2010PropOp47
 70
     1
102
RTVSPost2010Prop48
 90
       50
102
RTVSPost2010PropOp48
 70
     1
102
RTVSPost2010Prop49
280
     0
102
RTVSPost2010PropOp49
 70
     1
102
RTVSPost2010Prop50
 90
       50
102
RTVSPost2010PropOp50
 70
     1
102
RTVSPost2010Prop51ColorIndex
 90
      256
102
RTVSPost2010Prop51ColorRGB
 90
-16777216
102
RTVSPost2010PropOp51
 70
     0
102
RTVSPost2010Prop52
140
1.0
102
RTVSPost2010PropOp52
 70
     0
102
RTVSPost2010Prop53
 90
        2
102
RTVSPost2010PropOp53
 70
     1
102
RTVSPost2010Prop54
  1
strokes_ogs.tif
102
RTVSPost2010PropOp54
 70
     1
102
RTVSPost2010Prop55
280
     0
102
RTVSPost2010PropOp55
 70
     1
102
RTVSPost2010Prop56
140
1.0
102
RTVSPost2010PropOp56
 70
     1
102
RTVSPost2010Prop57
140
1.0
102
RTVSPost2010PropOp57
 70
     1
  0
XRECORD
  5
48A
102
{ACAD_REACTORS
330
489
102
}
330
489
100
AcDbXrecord
280
     1
102
RTVSPropertyOp0
 70
     1
102
RTVSPropertyOp1
 70
     1
102
RTVSPropertyOp2
 70
     1
102
RTVSPropertyOp3
 70
     1
102
RTVSPropertyOp4
 70
     1
102
RTVSPropertyOp5
 70
     1
102
RTVSPropertyOp6
 70
     1
102
RTVSPropertyOp7
 70
     1
102
RTVSPropertyOp8
 70
     1
102
RTVSPropertyOp9
 70
     1
102
RTVSPropertyOp10
 70
     1
102
RTVSPropertyOp11
 70
     1
102
RTVSPropertyOp12
 70
     1
102
RTVSPropertyOp13
 70
     1
102
RTVSPropertyOp14
 70
     1
102
RTVSPropertyOp15
 70
     1
102
RTVSPropertyOp16
 70
     1
102
RTVSPropertyOp17
 70
     1
102
RTVSPropertyOp18
 70
     1
102
RTVSPropertyOp19
 70
     1
102
RTVSPropertyOp20
 70
     1
102
RTVSPropertyOp21
 70
     1
102
RTVSPropertyOp22
 70
     1
102
RTVSPropertyOp23
 70
     1
102
RTVSPropertyOp24
 70
     1
102
RTVSPropertyOp25
 70
     1
102
RTVSPropertyOp26
 70
     1
102
RTVSPropertyOp27
 70
     1
102
RTVSPropertyOp28
 70
     1
102
RTVSPropertyOp29
 70
     1
102
RTVSPropertyOp30
 70
     1
102
RTVSPropertyOp31
 70
     1
102
RTVSPropertyOp32
 70
     1
102
RTVSPropertyOp33
 70
     1
102
RTVSPropertyOp34
 70
     1
102
RTVSPropertyOp35
 70
     1
102
RTVSPropertyOp36
 70
     1
102
RTVSPropertyOp37
 70
     1
102
RTVSPropertyOp38
 70
     1
102
RTVSPropertyOp39
 70
     1
102
RTVSPropertyOp40
 70
     1
102
RTVSPropertyOp41
 70
     1
102
RTVSPropertyOp42
 70
     1
102
RTVSPropertyOp43
 70
     1
102
RTVSPropertyOp44
 70
     1
102
RTVSPropertyOp45
 70
     1
102
RTVSPropertyOp46
 70
     1
102
RTVSPropertyOp47
 70
     1
102
RTVSPropertyOp48
 70
     1
102
RTVSPropertyOp49
 70
     1
102
RTVSPropertyOp50
 70
     1
102
RTVSPropertyOp51
 70
     0
102
RTVSPropertyOp52
 70
     0
102
RTVSPropertyOp53
 70
     1
102
RTVSPropertyOp54
 70
     1
102
RTVSPropertyOp55
 70
     1
102
RTVSPropertyOp56
 70
     1
102
RTVSPropertyOp57
 70
     1
102
RTVSPost2010Prop28
280
     0
102
RTVSPost2010PropOp28
 70
     1
102
RTVSPost2010Prop29
280
     1
102
RTVSPost2010PropOp29
 70
     1
102
RTVSPost2010Prop30
280
     1
102
RTVSPost2010PropOp30
 70
     1
102
RTVSPost2010Prop31
280
     0
102
RTVSPost2010PropOp31
 70
     1
102
RTVSPost2010Prop32
280
     0
102
RTVSPost2010PropOp32
 70
     1
102
RTVSPost2010Prop33
280
     0
102
RTVSPost2010PropOp33
 70
     1
102
RTVSPost2010Prop34
280
     0
102
RTVSPost2010PropOp34
 70
     1
102
RTVSPost2010Prop35
280
     0
102
RTVSPost2010PropOp35
 70
     1
102
RTVSPost2010Prop36
280
     0
102
RTVSPost2010PropOp36
 70
     1
102
RTVSPost2010Prop37
 90
       50
102
RTVSPost2010PropOp37
 70
     1
102
RTVSPost2010Prop38
140
0.0
102
RTVSPost2010PropOp38
 70
     1
102
RTVSPost2010Prop39
140
1.0
102
RTVSPost2010PropOp39
 70
     1
102
RTVSPost2010Prop40
 90
        0
102
RTVSPost2010PropOp40
 70
     1
102
RTVSPost2010Prop41ColorIndex
 90
       18
102
RTVSPost2010Prop41ColorRGB
 90
        0
102
RTVSPost2010PropOp41
 70
     1
102
RTVSPost2010Prop42
 90
       50
102
RTVSPost2010PropOp42
 70
     1
102
RTVSPost2010Prop43
 90
        3
102
RTVSPost2010PropOp43
 70
     1
102
RTVSPost2010Prop44ColorIndex
 90
        5
102
RTVSPost2010Prop44ColorRGB
 90
      255
102
RTVSPost2010PropOp44
 70
     1
102
RTVSPost2010Prop45
280
     0
102
RTVSPost2010PropOp45
 70
     1
102
RTVSPost2010Prop46
 90
       50
102
RTVSPost2010PropOp46
 70
     1
102
RTVSPost2010Prop47
 90
       50
102
RTVSPost2010PropOp47
 70
     1
102
RTVSPost2010Prop48
 90
       50
102
RTVSPost2010PropOp48
 70
     1
102
RTVSPost2010Prop49
280
     0
102
RTVSPost2010PropOp49
 70
     1
102
RTVSPost2010Prop50
 90
       50
102
RTVSPost2010PropOp50
 70
     1
102
RTVSPost2010Prop51ColorIndex
 90
      256
102
RTVSPost2010Prop51ColorRGB
 90
-16777216
102
RTVSPost2010PropOp51
 70
     0
102
RTVSPost2010Prop52
140
1.0
102
RTVSPost2010PropOp52
 70
     0
102
RTVSPost2010Prop53
 90
        2
102
RTVSPost2010PropOp53
 70
     1
102
RTVSPost2010Prop54
  1
strokes_ogs.tif
102
RTVSPost2010PropOp54
 70
     1
102
RTVSPost2010Prop55
280
     0
102
RTVSPost2010PropOp55
 70
     1
102
RTVSPost2010Prop56
140
1.0
102
RTVSPost2010PropOp56
 70
     1
102
RTVSPost2010Prop57
140
1.0
102
RTVSPost2010PropOp57
 70
     1
  0
XRECORD
  5
49E
102
{ACAD_REACTORS
330
49D
102
}
330
49D
100
AcDbXrecord
280
     1
102
RTVSPropertyOp0
 70
     0
102
RTVSPropertyOp1
 70
     0
102
RTVSPropertyOp2
 70
     0
102
RTVSPropertyOp3
 70
     0
102
RTVSPropertyOp4
 70
     0
102
RTVSPropertyOp5
 70
     0
102
RTVSPropertyOp6
 70
     0
102
RTVSPropertyOp7
 70
     0
102
RTVSPropertyOp8
 70
     0
102
RTVSPropertyOp9
 70
     0
102
RTVSPropertyOp10
 70
     0
102
RTVSPropertyOp11
 70
     0
102
RTVSPropertyOp12
 70
     0
102
RTVSPropertyOp13
 70
     0
102
RTVSPropertyOp14
 70
     2
102
RTVSPropertyOp15
 70
     0
102
RTVSPropertyOp16
 70
     0
102
RTVSPropertyOp17
 70
     0
102
RTVSPropertyOp18
 70
     0
102
RTVSPropertyOp19
 70
     0
102
RTVSPropertyOp20
 70
     0
102
RTVSPropertyOp21
 70
     0
102
RTVSPropertyOp22
 70
     0
102
RTVSPropertyOp23
 70
     0
102
RTVSPropertyOp24
 70
     0
102
RTVSPropertyOp25
 70
     0
102
RTVSPropertyOp26
 70
     0
102
RTVSPropertyOp27
 70
     0
102
RTVSPropertyOp28
 70
     0
102
RTVSPropertyOp29
 70
     0
102
RTVSPropertyOp30
 70
     0
102
RTVSPropertyOp31
 70
     0
102
RTVSPropertyOp32
 70
     0
102
RTVSPropertyOp33
 70
     0
102
RTVSPropertyOp34
 70
     0
102
RTVSPropertyOp35
 70
     0
102
RTVSPropertyOp36
 70
     0
102
RTVSPropertyOp37
 70
     0
102
RTVSPropertyOp38
 70
     0
102
RTVSPropertyOp39
 70
     0
102
RTVSPropertyOp40
 70
     0
102
RTVSPropertyOp41
 70
     0
102
RTVSPropertyOp42
 70
     0
102
RTVSPropertyOp43
 70
     0
102
RTVSPropertyOp44
 70
     0
102
RTVSPropertyOp45
 70
     0
102
RTVSPropertyOp46
 70
     0
102
RTVSPropertyOp47
 70
     0
102
RTVSPropertyOp48
 70
     0
102
RTVSPropertyOp49
 70
     0
102
RTVSPropertyOp50
 70
     0
102
RTVSPropertyOp51
 70
     0
102
RTVSPropertyOp52
 70
     0
102
RTVSPropertyOp53
 70
     0
102
RTVSPropertyOp54
 70
     0
102
RTVSPropertyOp55
 70
     0
102
RTVSPropertyOp56
 70
     0
102
RTVSPropertyOp57
 70
     0
102
RTVSPost2010Prop28
280
     0
102
RTVSPost2010PropOp28
 70
     0
102
RTVSPost2010Prop29
280
     1
102
RTVSPost2010PropOp29
 70
     0
102
RTVSPost2010Prop30
280
     1
102
RTVSPost2010PropOp30
 70
     0
102
RTVSPost2010Prop31
280
     0
102
RTVSPost2010PropOp31
 70
     0
102
RTVSPost2010Prop32
280
     0
102
RTVSPost2010PropOp32
 70
     0
102
RTVSPost2010Prop33
280
     0
102
RTVSPost2010PropOp33
 70
     0
102
RTVSPost2010Prop34
280
     0
102
RTVSPost2010PropOp34
 70
     0
102
RTVSPost2010Prop35
280
     0
102
RTVSPost2010PropOp35
 70
     0
102
RTVSPost2010Prop36
280
     0
102
RTVSPost2010PropOp36
 70
     0
102
RTVSPost2010Prop37
 90
       50
102
RTVSPost2010PropOp37
 70
     0
102
RTVSPost2010Prop38
140
0.0
102
RTVSPost2010PropOp38
 70
     0
102
RTVSPost2010Prop39
140
1.0
102
RTVSPost2010PropOp39
 70
     0
102
RTVSPost2010Prop40
 90
        0
102
RTVSPost2010PropOp40
 70
     0
102
RTVSPost2010Prop41ColorIndex
 90
       18
102
RTVSPost2010Prop41ColorRGB
 90
        0
102
RTVSPost2010PropOp41
 70
     0
102
RTVSPost2010Prop42
 90
       50
102
RTVSPost2010PropOp42
 70
     0
102
RTVSPost2010Prop43
 90
        3
102
RTVSPost2010PropOp43
 70
     0
102
RTVSPost2010Prop44ColorIndex
 90
        5
102
RTVSPost2010Prop44ColorRGB
 90
      255
102
RTVSPost2010PropOp44
 70
     0
102
RTVSPost2010Prop45
280
     0
102
RTVSPost2010PropOp45
 70
     0
102
RTVSPost2010Prop46
 90
       50
102
RTVSPost2010PropOp46
 70
     0
102
RTVSPost2010Prop47
 90
       50
102
RTVSPost2010PropOp47
 70
     0
102
RTVSPost2010Prop48
 90
       50
102
RTVSPost2010PropOp48
 70
     0
102
RTVSPost2010Prop49
280
     0
102
RTVSPost2010PropOp49
 70
     0
102
RTVSPost2010Prop50
 90
       50
102
RTVSPost2010PropOp50
 70
     0
102
RTVSPost2010Prop51ColorIndex
 90
      256
102
RTVSPost2010Prop51ColorRGB
 90
-16777216
102
RTVSPost2010PropOp51
 70
     0
102
RTVSPost2010Prop52
140
1.0
102
RTVSPost2010PropOp52
 70
     0
102
RTVSPost2010Prop53
 90
        2
102
RTVSPost2010PropOp53
 70
     0
102
RTVSPost2010Prop54
  1
strokes_ogs.tif
102
RTVSPost2010PropOp54
 70
     0
102
RTVSPost2010Prop55
280
     0
102
RTVSPost2010PropOp55
 70
     0
102
RTVSPost2010Prop56
140
1.0
102
RTVSPost2010PropOp56
 70
     0
102
RTVSPost2010Prop57
140
1.0
102
RTVSPost2010PropOp57
 70
     0
  0
XRECORD
  5
498
102
{ACAD_REACTORS
330
497
102
}
330
497
100
AcDbXrecord
280
     1
102
RTVSPropertyOp0
 70
     1
102
RTVSPropertyOp1
 70
     1
102
RTVSPropertyOp2
 70
     1
102
RTVSPropertyOp3
 70
     1
102
RTVSPropertyOp4
 70
     1
102
RTVSPropertyOp5
 70
     1
102
RTVSPropertyOp6
 70
     1
102
RTVSPropertyOp7
 70
     1
102
RTVSPropertyOp8
 70
     1
102
RTVSPropertyOp9
 70
     1
102
RTVSPropertyOp10
 70
     1
102
RTVSPropertyOp11
 70
     1
102
RTVSPropertyOp12
 70
     1
102
RTVSPropertyOp13
 70
     1
102
RTVSPropertyOp14
 70
     1
102
RTVSPropertyOp15
 70
     1
102
RTVSPropertyOp16
 70
     1
102
RTVSPropertyOp17
 70
     1
102
RTVSPropertyOp18
 70
     1
102
RTVSPropertyOp19
 70
     1
102
RTVSPropertyOp20
 70
     1
102
RTVSPropertyOp21
 70
     1
102
RTVSPropertyOp22
 70
     1
102
RTVSPropertyOp23
 70
     1
102
RTVSPropertyOp24
 70
     1
102
RTVSPropertyOp25
 70
     1
102
RTVSPropertyOp26
 70
     1
102
RTVSPropertyOp27
 70
     1
102
RTVSPropertyOp28
 70
     1
102
RTVSPropertyOp29
 70
     1
102
RTVSPropertyOp30
 70
     1
102
RTVSPropertyOp31
 70
     1
102
RTVSPropertyOp32
 70
     1
102
RTVSPropertyOp33
 70
     1
102
RTVSPropertyOp34
 70
     1
102
RTVSPropertyOp35
 70
     1
102
RTVSPropertyOp36
 70
     1
102
RTVSPropertyOp37
 70
     1
102
RTVSPropertyOp38
 70
     1
102
RTVSPropertyOp39
 70
     1
102
RTVSPropertyOp40
 70
     1
102
RTVSPropertyOp41
 70
     1
102
RTVSPropertyOp42
 70
     1
102
RTVSPropertyOp43
 70
     1
102
RTVSPropertyOp44
 70
     1
102
RTVSPropertyOp45
 70
     1
102
RTVSPropertyOp46
 70
     1
102
RTVSPropertyOp47
 70
     1
102
RTVSPropertyOp48
 70
     1
102
RTVSPropertyOp49
 70
     1
102
RTVSPropertyOp50
 70
     1
102
RTVSPropertyOp51
 70
     0
102
RTVSPropertyOp52
 70
     0
102
RTVSPropertyOp53
 70
     1
102
RTVSPropertyOp54
 70
     1
102
RTVSPropertyOp55
 70
     1
102
RTVSPropertyOp56
 70
     1
102
RTVSPropertyOp57
 70
     1
102
RTVSPost2010Prop28
280
     0
102
RTVSPost2010PropOp28
 70
     1
102
RTVSPost2010Prop29
280
     1
102
RTVSPost2010PropOp29
 70
     1
102
RTVSPost2010Prop30
280
     1
102
RTVSPost2010PropOp30
 70
     1
102
RTVSPost2010Prop31
280
     0
102
RTVSPost2010PropOp31
 70
     1
102
RTVSPost2010Prop32
280
     0
102
RTVSPost2010PropOp32
 70
     1
102
RTVSPost2010Prop33
280
     0
102
RTVSPost2010PropOp33
 70
     1
102
RTVSPost2010Prop34
280
     0
102
RTVSPost2010PropOp34
 70
     1
102
RTVSPost2010Prop35
280
     0
102
RTVSPost2010PropOp35
 70
     1
102
RTVSPost2010Prop36
280
     0
102
RTVSPost2010PropOp36
 70
     1
102
RTVSPost2010Prop37
 90
       50
102
RTVSPost2010PropOp37
 70
     1
102
RTVSPost2010Prop38
140
0.0
102
RTVSPost2010PropOp38
 70
     1
102
RTVSPost2010Prop39
140
1.0
102
RTVSPost2010PropOp39
 70
     1
102
RTVSPost2010Prop40
 90
        0
102
RTVSPost2010PropOp40
 70
     1
102
RTVSPost2010Prop41ColorIndex
 90
       18
102
RTVSPost2010Prop41ColorRGB
 90
        0
102
RTVSPost2010PropOp41
 70
     1
102
RTVSPost2010Prop42
 90
       50
102
RTVSPost2010PropOp42
 70
     1
102
RTVSPost2010Prop43
 90
        3
102
RTVSPost2010PropOp43
 70
     1
102
RTVSPost2010Prop44ColorIndex
 90
        5
102
RTVSPost2010Prop44ColorRGB
 90
      255
102
RTVSPost2010PropOp44
 70
     1
102
RTVSPost2010Prop45
280
     0
102
RTVSPost2010PropOp45
 70
     1
102
RTVSPost2010Prop46
 90
       50
102
RTVSPost2010PropOp46
 70
     1
102
RTVSPost2010Prop47
 90
       50
102
RTVSPost2010PropOp47
 70
     1
102
RTVSPost2010Prop48
 90
       50
102
RTVSPost2010PropOp48
 70
     1
102
RTVSPost2010Prop49
280
     0
102
RTVSPost2010PropOp49
 70
     1
102
RTVSPost2010Prop50
 90
       50
102
RTVSPost2010PropOp50
 70
     1
102
RTVSPost2010Prop51ColorIndex
 90
      256
102
RTVSPost2010Prop51ColorRGB
 90
-16777216
102
RTVSPost2010PropOp51
 70
     0
102
RTVSPost2010Prop52
140
1.0
102
RTVSPost2010PropOp52
 70
     0
102
RTVSPost2010Prop53
 90
        2
102
RTVSPost2010PropOp53
 70
     1
102
RTVSPost2010Prop54
  1
strokes_ogs.tif
102
RTVSPost2010PropOp54
 70
     1
102
RTVSPost2010Prop55
280
     0
102
RTVSPost2010PropOp55
 70
     1
102
RTVSPost2010Prop56
140
1.0
102
RTVSPost2010PropOp56
 70
     1
102
RTVSPost2010Prop57
140
1.0
102
RTVSPost2010PropOp57
 70
     1
  0
XRECORD
  5
4A0
102
{ACAD_REACTORS
330
49F
102
}
330
49F
100
AcDbXrecord
280
     1
102
RTVSPropertyOp0
 70
     0
102
RTVSPropertyOp1
 70
     0
102
RTVSPropertyOp2
 70
     0
102
RTVSPropertyOp3
 70
     0
102
RTVSPropertyOp4
 70
     0
102
RTVSPropertyOp5
 70
     0
102
RTVSPropertyOp6
 70
     0
102
RTVSPropertyOp7
 70
     0
102
RTVSPropertyOp8
 70
     0
102
RTVSPropertyOp9
 70
     0
102
RTVSPropertyOp10
 70
     0
102
RTVSPropertyOp11
 70
     0
102
RTVSPropertyOp12
 70
     0
102
RTVSPropertyOp13
 70
     0
102
RTVSPropertyOp14
 70
     2
102
RTVSPropertyOp15
 70
     0
102
RTVSPropertyOp16
 70
     0
102
RTVSPropertyOp17
 70
     0
102
RTVSPropertyOp18
 70
     0
102
RTVSPropertyOp19
 70
     0
102
RTVSPropertyOp20
 70
     0
102
RTVSPropertyOp21
 70
     0
102
RTVSPropertyOp22
 70
     0
102
RTVSPropertyOp23
 70
     0
102
RTVSPropertyOp24
 70
     0
102
RTVSPropertyOp25
 70
     0
102
RTVSPropertyOp26
 70
     0
102
RTVSPropertyOp27
 70
     0
102
RTVSPropertyOp28
 70
     0
102
RTVSPropertyOp29
 70
     0
102
RTVSPropertyOp30
 70
     0
102
RTVSPropertyOp31
 70
     0
102
RTVSPropertyOp32
 70
     0
102
RTVSPropertyOp33
 70
     0
102
RTVSPropertyOp34
 70
     0
102
RTVSPropertyOp35
 70
     0
102
RTVSPropertyOp36
 70
     0
102
RTVSPropertyOp37
 70
     0
102
RTVSPropertyOp38
 70
     0
102
RTVSPropertyOp39
 70
     0
102
RTVSPropertyOp40
 70
     0
102
RTVSPropertyOp41
 70
     0
102
RTVSPropertyOp42
 70
     0
102
RTVSPropertyOp43
 70
     0
102
RTVSPropertyOp44
 70
     0
102
RTVSPropertyOp45
 70
     0
102
RTVSPropertyOp46
 70
     0
102
RTVSPropertyOp47
 70
     0
102
RTVSPropertyOp48
 70
     0
102
RTVSPropertyOp49
 70
     0
102
RTVSPropertyOp50
 70
     0
102
RTVSPropertyOp51
 70
     0
102
RTVSPropertyOp52
 70
     0
102
RTVSPropertyOp53
 70
     0
102
RTVSPropertyOp54
 70
     0
102
RTVSPropertyOp55
 70
     0
102
RTVSPropertyOp56
 70
     0
102
RTVSPropertyOp57
 70
     0
102
RTVSPost2010Prop28
280
     0
102
RTVSPost2010PropOp28
 70
     0
102
RTVSPost2010Prop29
280
     1
102
RTVSPost2010PropOp29
 70
     0
102
RTVSPost2010Prop30
280
     1
102
RTVSPost2010PropOp30
 70
     0
102
RTVSPost2010Prop31
280
     0
102
RTVSPost2010PropOp31
 70
     0
102
RTVSPost2010Prop32
280
     0
102
RTVSPost2010PropOp32
 70
     0
102
RTVSPost2010Prop33
280
     0
102
RTVSPost2010PropOp33
 70
     0
102
RTVSPost2010Prop34
280
     0
102
RTVSPost2010PropOp34
 70
     0
102
RTVSPost2010Prop35
280
     0
102
RTVSPost2010PropOp35
 70
     0
102
RTVSPost2010Prop36
280
     0
102
RTVSPost2010PropOp36
 70
     0
102
RTVSPost2010Prop37
 90
       50
102
RTVSPost2010PropOp37
 70
     0
102
RTVSPost2010Prop38
140
0.0
102
RTVSPost2010PropOp38
 70
     0
102
RTVSPost2010Prop39
140
1.0
102
RTVSPost2010PropOp39
 70
     0
102
RTVSPost2010Prop40
 90
        0
102
RTVSPost2010PropOp40
 70
     0
102
RTVSPost2010Prop41ColorIndex
 90
       18
102
RTVSPost2010Prop41ColorRGB
 90
        0
102
RTVSPost2010PropOp41
 70
     0
102
RTVSPost2010Prop42
 90
       50
102
RTVSPost2010PropOp42
 70
     0
102
RTVSPost2010Prop43
 90
        3
102
RTVSPost2010PropOp43
 70
     0
102
RTVSPost2010Prop44ColorIndex
 90
        5
102
RTVSPost2010Prop44ColorRGB
 90
      255
102
RTVSPost2010PropOp44
 70
     0
102
RTVSPost2010Prop45
280
     0
102
RTVSPost2010PropOp45
 70
     0
102
RTVSPost2010Prop46
 90
       50
102
RTVSPost2010PropOp46
 70
     0
102
RTVSPost2010Prop47
 90
       50
102
RTVSPost2010PropOp47
 70
     0
102
RTVSPost2010Prop48
 90
       50
102
RTVSPost2010PropOp48
 70
     0
102
RTVSPost2010Prop49
280
     0
102
RTVSPost2010PropOp49
 70
     0
102
RTVSPost2010Prop50
 90
       50
102
RTVSPost2010PropOp50
 70
     0
102
RTVSPost2010Prop51ColorIndex
 90
      256
102
RTVSPost2010Prop51ColorRGB
 90
-16777216
102
RTVSPost2010PropOp51
 70
     0
102
RTVSPost2010Prop52
140
1.0
102
RTVSPost2010PropOp52
 70
     0
102
RTVSPost2010Prop53
 90
        2
102
RTVSPost2010PropOp53
 70
     0
102
RTVSPost2010Prop54
  1
strokes_ogs.tif
102
RTVSPost2010PropOp54
 70
     0
102
RTVSPost2010Prop55
280
     0
102
RTVSPost2010PropOp55
 70
     0
102
RTVSPost2010Prop56
140
1.0
102
RTVSPost2010PropOp56
 70
     0
102
RTVSPost2010Prop57
140
1.0
102
RTVSPost2010PropOp57
 70
     0
  0
XRECORD
  5
48E
102
{ACAD_REACTORS
330
48D
102
}
330
48D
100
AcDbXrecord
280
     1
102
RTVSPropertyOp0
 70
     1
102
RTVSPropertyOp1
 70
     1
102
RTVSPropertyOp2
 70
     1
102
RTVSPropertyOp3
 70
     1
102
RTVSPropertyOp4
 70
     1
102
RTVSPropertyOp5
 70
     1
102
RTVSPropertyOp6
 70
     1
102
RTVSPropertyOp7
 70
     1
102
RTVSPropertyOp8
 70
     1
102
RTVSPropertyOp9
 70
     1
102
RTVSPropertyOp10
 70
     1
102
RTVSPropertyOp11
 70
     1
102
RTVSPropertyOp12
 70
     1
102
RTVSPropertyOp13
 70
     1
102
RTVSPropertyOp14
 70
     1
102
RTVSPropertyOp15
 70
     1
102
RTVSPropertyOp16
 70
     1
102
RTVSPropertyOp17
 70
     1
102
RTVSPropertyOp18
 70
     1
102
RTVSPropertyOp19
 70
     1
102
RTVSPropertyOp20
 70
     1
102
RTVSPropertyOp21
 70
     1
102
RTVSPropertyOp22
 70
     1
102
RTVSPropertyOp23
 70
     1
102
RTVSPropertyOp24
 70
     1
102
RTVSPropertyOp25
 70
     1
102
RTVSPropertyOp26
 70
     1
102
RTVSPropertyOp27
 70
     1
102
RTVSPropertyOp28
 70
     1
102
RTVSPropertyOp29
 70
     1
102
RTVSPropertyOp30
 70
     1
102
RTVSPropertyOp31
 70
     1
102
RTVSPropertyOp32
 70
     1
102
RTVSPropertyOp33
 70
     1
102
RTVSPropertyOp34
 70
     1
102
RTVSPropertyOp35
 70
     1
102
RTVSPropertyOp36
 70
     1
102
RTVSPropertyOp37
 70
     1
102
RTVSPropertyOp38
 70
     1
102
RTVSPropertyOp39
 70
     1
102
RTVSPropertyOp40
 70
     1
102
RTVSPropertyOp41
 70
     1
102
RTVSPropertyOp42
 70
     1
102
RTVSPropertyOp43
 70
     1
102
RTVSPropertyOp44
 70
     1
102
RTVSPropertyOp45
 70
     1
102
RTVSPropertyOp46
 70
     1
102
RTVSPropertyOp47
 70
     1
102
RTVSPropertyOp48
 70
     1
102
RTVSPropertyOp49
 70
     1
102
RTVSPropertyOp50
 70
     1
102
RTVSPropertyOp51
 70
     0
102
RTVSPropertyOp52
 70
     0
102
RTVSPropertyOp53
 70
     1
102
RTVSPropertyOp54
 70
     1
102
RTVSPropertyOp55
 70
     1
102
RTVSPropertyOp56
 70
     1
102
RTVSPropertyOp57
 70
     1
102
RTVSPost2010Prop28
280
     0
102
RTVSPost2010PropOp28
 70
     1
102
RTVSPost2010Prop29
280
     1
102
RTVSPost2010PropOp29
 70
     1
102
RTVSPost2010Prop30
280
     1
102
RTVSPost2010PropOp30
 70
     1
102
RTVSPost2010Prop31
280
     0
102
RTVSPost2010PropOp31
 70
     1
102
RTVSPost2010Prop32
280
     0
102
RTVSPost2010PropOp32
 70
     1
102
RTVSPost2010Prop33
280
     0
102
RTVSPost2010PropOp33
 70
     1
102
RTVSPost2010Prop34
280
     0
102
RTVSPost2010PropOp34
 70
     1
102
RTVSPost2010Prop35
280
     0
102
RTVSPost2010PropOp35
 70
     1
102
RTVSPost2010Prop36
280
     0
102
RTVSPost2010PropOp36
 70
     1
102
RTVSPost2010Prop37
 90
       50
102
RTVSPost2010PropOp37
 70
     1
102
RTVSPost2010Prop38
140
0.0
102
RTVSPost2010PropOp38
 70
     1
102
RTVSPost2010Prop39
140
1.0
102
RTVSPost2010PropOp39
 70
     1
102
RTVSPost2010Prop40
 90
        0
102
RTVSPost2010PropOp40
 70
     1
102
RTVSPost2010Prop41ColorIndex
 90
       18
102
RTVSPost2010Prop41ColorRGB
 90
        0
102
RTVSPost2010PropOp41
 70
     1
102
RTVSPost2010Prop42
 90
       50
102
RTVSPost2010PropOp42
 70
     1
102
RTVSPost2010Prop43
 90
        3
102
RTVSPost2010PropOp43
 70
     1
102
RTVSPost2010Prop44ColorIndex
 90
        5
102
RTVSPost2010Prop44ColorRGB
 90
      255
102
RTVSPost2010PropOp44
 70
     1
102
RTVSPost2010Prop45
280
     0
102
RTVSPost2010PropOp45
 70
     1
102
RTVSPost2010Prop46
 90
       50
102
RTVSPost2010PropOp46
 70
     1
102
RTVSPost2010Prop47
 90
       50
102
RTVSPost2010PropOp47
 70
     1
102
RTVSPost2010Prop48
 90
       50
102
RTVSPost2010PropOp48
 70
     1
102
RTVSPost2010Prop49
280
     0
102
RTVSPost2010PropOp49
 70
     1
102
RTVSPost2010Prop50
 90
       50
102
RTVSPost2010PropOp50
 70
     1
102
RTVSPost2010Prop51ColorIndex
 90
      256
102
RTVSPost2010Prop51ColorRGB
 90
-16777216
102
RTVSPost2010PropOp51
 70
     0
102
RTVSPost2010Prop52
140
1.0
102
RTVSPost2010PropOp52
 70
     0
102
RTVSPost2010Prop53
 90
        2
102
RTVSPost2010PropOp53
 70
     1
102
RTVSPost2010Prop54
  1
strokes_ogs.tif
102
RTVSPost2010PropOp54
 70
     1
102
RTVSPost2010Prop55
280
     0
102
RTVSPost2010PropOp55
 70
     1
102
RTVSPost2010Prop56
140
1.0
102
RTVSPost2010PropOp56
 70
     1
102
RTVSPost2010Prop57
140
1.0
102
RTVSPost2010PropOp57
 70
     1
  0
XRECORD
  5
4AC
102
{ACAD_REACTORS
330
4AB
102
}
330
4AB
100
AcDbXrecord
280
     1
102
RTVSPropertyOp0
 70
     1
102
RTVSPropertyOp1
 70
     1
102
RTVSPropertyOp2
 70
     1
102
RTVSPropertyOp3
 70
     1
102
RTVSPropertyOp4
 70
     1
102
RTVSPropertyOp5
 70
     1
102
RTVSPropertyOp6
 70
     1
102
RTVSPropertyOp7
 70
     1
102
RTVSPropertyOp8
 70
     1
102
RTVSPropertyOp9
 70
     1
102
RTVSPropertyOp10
 70
     1
102
RTVSPropertyOp11
 70
     1
102
RTVSPropertyOp12
 70
     1
102
RTVSPropertyOp13
 70
     1
102
RTVSPropertyOp14
 70
     1
102
RTVSPropertyOp15
 70
     1
102
RTVSPropertyOp16
 70
     1
102
RTVSPropertyOp17
 70
     1
102
RTVSPropertyOp18
 70
     1
102
RTVSPropertyOp19
 70
     1
102
RTVSPropertyOp20
 70
     1
102
RTVSPropertyOp21
 70
     1
102
RTVSPropertyOp22
 70
     1
102
RTVSPropertyOp23
 70
     1
102
RTVSPropertyOp24
 70
     1
102
RTVSPropertyOp25
 70
     1
102
RTVSPropertyOp26
 70
     1
102
RTVSPropertyOp27
 70
     1
102
RTVSPropertyOp28
 70
     1
102
RTVSPropertyOp29
 70
     1
102
RTVSPropertyOp30
 70
     1
102
RTVSPropertyOp31
 70
     1
102
RTVSPropertyOp32
 70
     1
102
RTVSPropertyOp33
 70
     1
102
RTVSPropertyOp34
 70
     1
102
RTVSPropertyOp35
 70
     1
102
RTVSPropertyOp36
 70
     1
102
RTVSPropertyOp37
 70
     1
102
RTVSPropertyOp38
 70
     1
102
RTVSPropertyOp39
 70
     1
102
RTVSPropertyOp40
 70
     1
102
RTVSPropertyOp41
 70
     1
102
RTVSPropertyOp42
 70
     1
102
RTVSPropertyOp43
 70
     1
102
RTVSPropertyOp44
 70
     1
102
RTVSPropertyOp45
 70
     1
102
RTVSPropertyOp46
 70
     1
102
RTVSPropertyOp47
 70
     1
102
RTVSPropertyOp48
 70
     1
102
RTVSPropertyOp49
 70
     1
102
RTVSPropertyOp50
 70
     1
102
RTVSPropertyOp51
 70
     0
102
RTVSPropertyOp52
 70
     0
102
RTVSPropertyOp53
 70
     1
102
RTVSPropertyOp54
 70
     1
102
RTVSPropertyOp55
 70
     1
102
RTVSPropertyOp56
 70
     1
102
RTVSPropertyOp57
 70
     1
102
RTVSPost2010Prop28
280
     0
102
RTVSPost2010PropOp28
 70
     1
102
RTVSPost2010Prop29
280
     1
102
RTVSPost2010PropOp29
 70
     1
102
RTVSPost2010Prop30
280
     1
102
RTVSPost2010PropOp30
 70
     1
102
RTVSPost2010Prop31
280
     0
102
RTVSPost2010PropOp31
 70
     1
102
RTVSPost2010Prop32
280
     0
102
RTVSPost2010PropOp32
 70
     1
102
RTVSPost2010Prop33
280
     0
102
RTVSPost2010PropOp33
 70
     1
102
RTVSPost2010Prop34
280
     0
102
RTVSPost2010PropOp34
 70
     1
102
RTVSPost2010Prop35
280
     0
102
RTVSPost2010PropOp35
 70
     1
102
RTVSPost2010Prop36
280
     0
102
RTVSPost2010PropOp36
 70
     1
102
RTVSPost2010Prop37
 90
       50
102
RTVSPost2010PropOp37
 70
     1
102
RTVSPost2010Prop38
140
0.0
102
RTVSPost2010PropOp38
 70
     1
102
RTVSPost2010Prop39
140
1.0
102
RTVSPost2010PropOp39
 70
     1
102
RTVSPost2010Prop40
 90
        0
102
RTVSPost2010PropOp40
 70
     1
102
RTVSPost2010Prop41ColorIndex
 90
       18
102
RTVSPost2010Prop41ColorRGB
 90
        0
102
RTVSPost2010PropOp41
 70
     1
102
RTVSPost2010Prop42
 90
       50
102
RTVSPost2010PropOp42
 70
     1
102
RTVSPost2010Prop43
 90
        3
102
RTVSPost2010PropOp43
 70
     1
102
RTVSPost2010Prop44ColorIndex
 90
        5
102
RTVSPost2010Prop44ColorRGB
 90
      255
102
RTVSPost2010PropOp44
 70
     1
102
RTVSPost2010Prop45
280
     0
102
RTVSPost2010PropOp45
 70
     1
102
RTVSPost2010Prop46
 90
       50
102
RTVSPost2010PropOp46
 70
     1
102
RTVSPost2010Prop47
 90
       50
102
RTVSPost2010PropOp47
 70
     1
102
RTVSPost2010Prop48
 90
       50
102
RTVSPost2010PropOp48
 70
     1
102
RTVSPost2010Prop49
280
     0
102
RTVSPost2010PropOp49
 70
     1
102
RTVSPost2010Prop50
 90
       50
102
RTVSPost2010PropOp50
 70
     1
102
RTVSPost2010Prop51ColorIndex
 90
      256
102
RTVSPost2010Prop51ColorRGB
 90
-16777216
102
RTVSPost2010PropOp51
 70
     0
102
RTVSPost2010Prop52
140
1.0
102
RTVSPost2010PropOp52
 70
     0
102
RTVSPost2010Prop53
 90
        2
102
RTVSPost2010PropOp53
 70
     1
102
RTVSPost2010Prop54
  1
strokes_ogs.tif
102
RTVSPost2010PropOp54
 70
     1
102
RTVSPost2010Prop55
280
     0
102
RTVSPost2010PropOp55
 70
     1
102
RTVSPost2010Prop56
140
1.0
102
RTVSPost2010PropOp56
 70
     1
102
RTVSPost2010Prop57
140
1.0
102
RTVSPost2010PropOp57
 70
     1
  0
XRECORD
  5
4AA
102
{ACAD_REACTORS
330
4A9
102
}
330
4A9
100
AcDbXrecord
280
     1
102
RTVSPropertyOp0
 70
     1
102
RTVSPropertyOp1
 70
     1
102
RTVSPropertyOp2
 70
     1
102
RTVSPropertyOp3
 70
     1
102
RTVSPropertyOp4
 70
     1
102
RTVSPropertyOp5
 70
     1
102
RTVSPropertyOp6
 70
     1
102
RTVSPropertyOp7
 70
     1
102
RTVSPropertyOp8
 70
     1
102
RTVSPropertyOp9
 70
     1
102
RTVSPropertyOp10
 70
     1
102
RTVSPropertyOp11
 70
     1
102
RTVSPropertyOp12
 70
     1
102
RTVSPropertyOp13
 70
     1
102
RTVSPropertyOp14
 70
     1
102
RTVSPropertyOp15
 70
     1
102
RTVSPropertyOp16
 70
     1
102
RTVSPropertyOp17
 70
     1
102
RTVSPropertyOp18
 70
     1
102
RTVSPropertyOp19
 70
     1
102
RTVSPropertyOp20
 70
     1
102
RTVSPropertyOp21
 70
     1
102
RTVSPropertyOp22
 70
     1
102
RTVSPropertyOp23
 70
     1
102
RTVSPropertyOp24
 70
     1
102
RTVSPropertyOp25
 70
     1
102
RTVSPropertyOp26
 70
     1
102
RTVSPropertyOp27
 70
     1
102
RTVSPropertyOp28
 70
     1
102
RTVSPropertyOp29
 70
     1
102
RTVSPropertyOp30
 70
     1
102
RTVSPropertyOp31
 70
     1
102
RTVSPropertyOp32
 70
     1
102
RTVSPropertyOp33
 70
     1
102
RTVSPropertyOp34
 70
     1
102
RTVSPropertyOp35
 70
     1
102
RTVSPropertyOp36
 70
     1
102
RTVSPropertyOp37
 70
     1
102
RTVSPropertyOp38
 70
     1
102
RTVSPropertyOp39
 70
     1
102
RTVSPropertyOp40
 70
     1
102
RTVSPropertyOp41
 70
     1
102
RTVSPropertyOp42
 70
     1
102
RTVSPropertyOp43
 70
     1
102
RTVSPropertyOp44
 70
     1
102
RTVSPropertyOp45
 70
     1
102
RTVSPropertyOp46
 70
     1
102
RTVSPropertyOp47
 70
     1
102
RTVSPropertyOp48
 70
     1
102
RTVSPropertyOp49
 70
     1
102
RTVSPropertyOp50
 70
     1
102
RTVSPropertyOp51
 70
     0
102
RTVSPropertyOp52
 70
     0
102
RTVSPropertyOp53
 70
     1
102
RTVSPropertyOp54
 70
     1
102
RTVSPropertyOp55
 70
     1
102
RTVSPropertyOp56
 70
     1
102
RTVSPropertyOp57
 70
     1
102
RTVSPost2010Prop28
280
     0
102
RTVSPost2010PropOp28
 70
     1
102
RTVSPost2010Prop29
280
     1
102
RTVSPost2010PropOp29
 70
     1
102
RTVSPost2010Prop30
280
     1
102
RTVSPost2010PropOp30
 70
     1
102
RTVSPost2010Prop31
280
     0
102
RTVSPost2010PropOp31
 70
     1
102
RTVSPost2010Prop32
280
     0
102
RTVSPost2010PropOp32
 70
     1
102
RTVSPost2010Prop33
280
     0
102
RTVSPost2010PropOp33
 70
     1
102
RTVSPost2010Prop34
280
     0
102
RTVSPost2010PropOp34
 70
     1
102
RTVSPost2010Prop35
280
     0
102
RTVSPost2010PropOp35
 70
     1
102
RTVSPost2010Prop36
280
     0
102
RTVSPost2010PropOp36
 70
     1
102
RTVSPost2010Prop37
 90
       50
102
RTVSPost2010PropOp37
 70
     1
102
RTVSPost2010Prop38
140
0.0
102
RTVSPost2010PropOp38
 70
     1
102
RTVSPost2010Prop39
140
1.0
102
RTVSPost2010PropOp39
 70
     1
102
RTVSPost2010Prop40
 90
        0
102
RTVSPost2010PropOp40
 70
     1
102
RTVSPost2010Prop41ColorIndex
 90
       18
102
RTVSPost2010Prop41ColorRGB
 90
        0
102
RTVSPost2010PropOp41
 70
     1
102
RTVSPost2010Prop42
 90
       50
102
RTVSPost2010PropOp42
 70
     1
102
RTVSPost2010Prop43
 90
        3
102
RTVSPost2010PropOp43
 70
     1
102
RTVSPost2010Prop44ColorIndex
 90
        5
102
RTVSPost2010Prop44ColorRGB
 90
      255
102
RTVSPost2010PropOp44
 70
     1
102
RTVSPost2010Prop45
280
     0
102
RTVSPost2010PropOp45
 70
     1
102
RTVSPost2010Prop46
 90
       50
102
RTVSPost2010PropOp46
 70
     1
102
RTVSPost2010Prop47
 90
       50
102
RTVSPost2010PropOp47
 70
     1
102
RTVSPost2010Prop48
 90
       50
102
RTVSPost2010PropOp48
 70
     1
102
RTVSPost2010Prop49
280
     0
102
RTVSPost2010PropOp49
 70
     1
102
RTVSPost2010Prop50
 90
       50
102
RTVSPost2010PropOp50
 70
     1
102
RTVSPost2010Prop51ColorIndex
 90
      256
102
RTVSPost2010Prop51ColorRGB
 90
-16777216
102
RTVSPost2010PropOp51
 70
     0
102
RTVSPost2010Prop52
140
1.0
102
RTVSPost2010PropOp52
 70
     0
102
RTVSPost2010Prop53
 90
        2
102
RTVSPost2010PropOp53
 70
     1
102
RTVSPost2010Prop54
  1
strokes_ogs.tif
102
RTVSPost2010PropOp54
 70
     1
102
RTVSPost2010Prop55
280
     0
102
RTVSPost2010PropOp55
 70
     1
102
RTVSPost2010Prop56
140
1.0
102
RTVSPost2010PropOp56
 70
     1
102
RTVSPost2010Prop57
140
1.0
102
RTVSPost2010PropOp57
 70
     1
  0
XRECORD
  5
4A4
102
{ACAD_REACTORS
330
4A3
102
}
330
4A3
100
AcDbXrecord
280
     1
102
RTVSPropertyOp0
 70
     1
102
RTVSPropertyOp1
 70
     1
102
RTVSPropertyOp2
 70
     1
102
RTVSPropertyOp3
 70
     1
102
RTVSPropertyOp4
 70
     1
102
RTVSPropertyOp5
 70
     1
102
RTVSPropertyOp6
 70
     1
102
RTVSPropertyOp7
 70
     1
102
RTVSPropertyOp8
 70
     1
102
RTVSPropertyOp9
 70
     1
102
RTVSPropertyOp10
 70
     1
102
RTVSPropertyOp11
 70
     1
102
RTVSPropertyOp12
 70
     1
102
RTVSPropertyOp13
 70
     1
102
RTVSPropertyOp14
 70
     1
102
RTVSPropertyOp15
 70
     1
102
RTVSPropertyOp16
 70
     1
102
RTVSPropertyOp17
 70
     1
102
RTVSPropertyOp18
 70
     1
102
RTVSPropertyOp19
 70
     1
102
RTVSPropertyOp20
 70
     1
102
RTVSPropertyOp21
 70
     1
102
RTVSPropertyOp22
 70
     1
102
RTVSPropertyOp23
 70
     1
102
RTVSPropertyOp24
 70
     1
102
RTVSPropertyOp25
 70
     1
102
RTVSPropertyOp26
 70
     1
102
RTVSPropertyOp27
 70
     1
102
RTVSPropertyOp28
 70
     1
102
RTVSPropertyOp29
 70
     1
102
RTVSPropertyOp30
 70
     1
102
RTVSPropertyOp31
 70
     1
102
RTVSPropertyOp32
 70
     1
102
RTVSPropertyOp33
 70
     1
102
RTVSPropertyOp34
 70
     1
102
RTVSPropertyOp35
 70
     1
102
RTVSPropertyOp36
 70
     1
102
RTVSPropertyOp37
 70
     1
102
RTVSPropertyOp38
 70
     1
102
RTVSPropertyOp39
 70
     1
102
RTVSPropertyOp40
 70
     1
102
RTVSPropertyOp41
 70
     1
102
RTVSPropertyOp42
 70
     1
102
RTVSPropertyOp43
 70
     1
102
RTVSPropertyOp44
 70
     1
102
RTVSPropertyOp45
 70
     1
102
RTVSPropertyOp46
 70
     1
102
RTVSPropertyOp47
 70
     1
102
RTVSPropertyOp48
 70
     1
102
RTVSPropertyOp49
 70
     1
102
RTVSPropertyOp50
 70
     1
102
RTVSPropertyOp51
 70
     0
102
RTVSPropertyOp52
 70
     0
102
RTVSPropertyOp53
 70
     1
102
RTVSPropertyOp54
 70
     1
102
RTVSPropertyOp55
 70
     1
102
RTVSPropertyOp56
 70
     1
102
RTVSPropertyOp57
 70
     1
102
RTVSPost2010Prop28
280
     0
102
RTVSPost2010PropOp28
 70
     1
102
RTVSPost2010Prop29
280
     1
102
RTVSPost2010PropOp29
 70
     1
102
RTVSPost2010Prop30
280
     1
102
RTVSPost2010PropOp30
 70
     1
102
RTVSPost2010Prop31
280
     0
102
RTVSPost2010PropOp31
 70
     1
102
RTVSPost2010Prop32
280
     0
102
RTVSPost2010PropOp32
 70
     1
102
RTVSPost2010Prop33
280
     0
102
RTVSPost2010PropOp33
 70
     1
102
RTVSPost2010Prop34
280
     0
102
RTVSPost2010PropOp34
 70
     1
102
RTVSPost2010Prop35
280
     0
102
RTVSPost2010PropOp35
 70
     1
102
RTVSPost2010Prop36
280
     0
102
RTVSPost2010PropOp36
 70
     1
102
RTVSPost2010Prop37
 90
       50
102
RTVSPost2010PropOp37
 70
     1
102
RTVSPost2010Prop38
140
0.0
102
RTVSPost2010PropOp38
 70
     1
102
RTVSPost2010Prop39
140
1.0
102
RTVSPost2010PropOp39
 70
     1
102
RTVSPost2010Prop40
 90
        0
102
RTVSPost2010PropOp40
 70
     1
102
RTVSPost2010Prop41ColorIndex
 90
       18
102
RTVSPost2010Prop41ColorRGB
 90
        0
102
RTVSPost2010PropOp41
 70
     1
102
RTVSPost2010Prop42
 90
       50
102
RTVSPost2010PropOp42
 70
     1
102
RTVSPost2010Prop43
 90
        3
102
RTVSPost2010PropOp43
 70
     1
102
RTVSPost2010Prop44ColorIndex
 90
        5
102
RTVSPost2010Prop44ColorRGB
 90
      255
102
RTVSPost2010PropOp44
 70
     1
102
RTVSPost2010Prop45
280
     0
102
RTVSPost2010PropOp45
 70
     1
102
RTVSPost2010Prop46
 90
       50
102
RTVSPost2010PropOp46
 70
     1
102
RTVSPost2010Prop47
 90
       50
102
RTVSPost2010PropOp47
 70
     1
102
RTVSPost2010Prop48
 90
       50
102
RTVSPost2010PropOp48
 70
     1
102
RTVSPost2010Prop49
280
     0
102
RTVSPost2010PropOp49
 70
     1
102
RTVSPost2010Prop50
 90
       50
102
RTVSPost2010PropOp50
 70
     1
102
RTVSPost2010Prop51ColorIndex
 90
      256
102
RTVSPost2010Prop51ColorRGB
 90
-16777216
102
RTVSPost2010PropOp51
 70
     0
102
RTVSPost2010Prop52
140
1.0
102
RTVSPost2010PropOp52
 70
     0
102
RTVSPost2010Prop53
 90
        2
102
RTVSPost2010PropOp53
 70
     1
102
RTVSPost2010Prop54
  1
strokes_ogs.tif
102
RTVSPost2010PropOp54
 70
     1
102
RTVSPost2010Prop55
280
     0
102
RTVSPost2010PropOp55
 70
     1
102
RTVSPost2010Prop56
140
1.0
102
RTVSPost2010PropOp56
 70
     1
102
RTVSPost2010Prop57
140
1.0
102
RTVSPost2010PropOp57
 70
     1
  0
XRECORD
  5
4A6
102
{ACAD_REACTORS
330
4A5
102
}
330
4A5
100
AcDbXrecord
280
     1
102
RTVSPropertyOp0
 70
     1
102
RTVSPropertyOp1
 70
     1
102
RTVSPropertyOp2
 70
     1
102
RTVSPropertyOp3
 70
     1
102
RTVSPropertyOp4
 70
     1
102
RTVSPropertyOp5
 70
     1
102
RTVSPropertyOp6
 70
     1
102
RTVSPropertyOp7
 70
     1
102
RTVSPropertyOp8
 70
     1
102
RTVSPropertyOp9
 70
     1
102
RTVSPropertyOp10
 70
     1
102
RTVSPropertyOp11
 70
     1
102
RTVSPropertyOp12
 70
     1
102
RTVSPropertyOp13
 70
     1
102
RTVSPropertyOp14
 70
     1
102
RTVSPropertyOp15
 70
     1
102
RTVSPropertyOp16
 70
     1
102
RTVSPropertyOp17
 70
     1
102
RTVSPropertyOp18
 70
     1
102
RTVSPropertyOp19
 70
     1
102
RTVSPropertyOp20
 70
     1
102
RTVSPropertyOp21
 70
     1
102
RTVSPropertyOp22
 70
     1
102
RTVSPropertyOp23
 70
     1
102
RTVSPropertyOp24
 70
     1
102
RTVSPropertyOp25
 70
     1
102
RTVSPropertyOp26
 70
     1
102
RTVSPropertyOp27
 70
     1
102
RTVSPropertyOp28
 70
     1
102
RTVSPropertyOp29
 70
     1
102
RTVSPropertyOp30
 70
     1
102
RTVSPropertyOp31
 70
     1
102
RTVSPropertyOp32
 70
     1
102
RTVSPropertyOp33
 70
     1
102
RTVSPropertyOp34
 70
     1
102
RTVSPropertyOp35
 70
     1
102
RTVSPropertyOp36
 70
     1
102
RTVSPropertyOp37
 70
     1
102
RTVSPropertyOp38
 70
     1
102
RTVSPropertyOp39
 70
     1
102
RTVSPropertyOp40
 70
     1
102
RTVSPropertyOp41
 70
     1
102
RTVSPropertyOp42
 70
     1
102
RTVSPropertyOp43
 70
     1
102
RTVSPropertyOp44
 70
     1
102
RTVSPropertyOp45
 70
     1
102
RTVSPropertyOp46
 70
     1
102
RTVSPropertyOp47
 70
     1
102
RTVSPropertyOp48
 70
     1
102
RTVSPropertyOp49
 70
     1
102
RTVSPropertyOp50
 70
     1
102
RTVSPropertyOp51
 70
     0
102
RTVSPropertyOp52
 70
     0
102
RTVSPropertyOp53
 70
     1
102
RTVSPropertyOp54
 70
     1
102
RTVSPropertyOp55
 70
     1
102
RTVSPropertyOp56
 70
     1
102
RTVSPropertyOp57
 70
     1
102
RTVSPost2010Prop28
280
     0
102
RTVSPost2010PropOp28
 70
     1
102
RTVSPost2010Prop29
280
     1
102
RTVSPost2010PropOp29
 70
     1
102
RTVSPost2010Prop30
280
     1
102
RTVSPost2010PropOp30
 70
     1
102
RTVSPost2010Prop31
280
     0
102
RTVSPost2010PropOp31
 70
     1
102
RTVSPost2010Prop32
280
     0
102
RTVSPost2010PropOp32
 70
     1
102
RTVSPost2010Prop33
280
     0
102
RTVSPost2010PropOp33
 70
     1
102
RTVSPost2010Prop34
280
     0
102
RTVSPost2010PropOp34
 70
     1
102
RTVSPost2010Prop35
280
     0
102
RTVSPost2010PropOp35
 70
     1
102
RTVSPost2010Prop36
280
     0
102
RTVSPost2010PropOp36
 70
     1
102
RTVSPost2010Prop37
 90
       50
102
RTVSPost2010PropOp37
 70
     1
102
RTVSPost2010Prop38
140
0.0
102
RTVSPost2010PropOp38
 70
     1
102
RTVSPost2010Prop39
140
1.0
102
RTVSPost2010PropOp39
 70
     1
102
RTVSPost2010Prop40
 90
        0
102
RTVSPost2010PropOp40
 70
     1
102
RTVSPost2010Prop41ColorIndex
 90
       18
102
RTVSPost2010Prop41ColorRGB
 90
        0
102
RTVSPost2010PropOp41
 70
     1
102
RTVSPost2010Prop42
 90
       50
102
RTVSPost2010PropOp42
 70
     1
102
RTVSPost2010Prop43
 90
        3
102
RTVSPost2010PropOp43
 70
     1
102
RTVSPost2010Prop44ColorIndex
 90
        5
102
RTVSPost2010Prop44ColorRGB
 90
      255
102
RTVSPost2010PropOp44
 70
     1
102
RTVSPost2010Prop45
280
     0
102
RTVSPost2010PropOp45
 70
     1
102
RTVSPost2010Prop46
 90
       50
102
RTVSPost2010PropOp46
 70
     1
102
RTVSPost2010Prop47
 90
       50
102
RTVSPost2010PropOp47
 70
     1
102
RTVSPost2010Prop48
 90
       50
102
RTVSPost2010PropOp48
 70
     1
102
RTVSPost2010Prop49
280
     0
102
RTVSPost2010PropOp49
 70
     1
102
RTVSPost2010Prop50
 90
       50
102
RTVSPost2010PropOp50
 70
     1
102
RTVSPost2010Prop51ColorIndex
 90
      256
102
RTVSPost2010Prop51ColorRGB
 90
-16777216
102
RTVSPost2010PropOp51
 70
     0
102
RTVSPost2010Prop52
140
1.0
102
RTVSPost2010PropOp52
 70
     0
102
RTVSPost2010Prop53
 90
        2
102
RTVSPost2010PropOp53
 70
     1
102
RTVSPost2010Prop54
  1
strokes_ogs.tif
102
RTVSPost2010PropOp54
 70
     1
102
RTVSPost2010Prop55
280
     0
102
RTVSPost2010PropOp55
 70
     1
102
RTVSPost2010Prop56
140
1.0
102
RTVSPost2010PropOp56
 70
     1
102
RTVSPost2010Prop57
140
1.0
102
RTVSPost2010PropOp57
 70
     1
  0
XRECORD
  5
496
102
{ACAD_REACTORS
330
495
102
}
330
495
100
AcDbXrecord
280
     1
102
RTVSPropertyOp0
 70
     1
102
RTVSPropertyOp1
 70
     1
102
RTVSPropertyOp2
 70
     1
102
RTVSPropertyOp3
 70
     1
102
RTVSPropertyOp4
 70
     1
102
RTVSPropertyOp5
 70
     1
102
RTVSPropertyOp6
 70
     1
102
RTVSPropertyOp7
 70
     1
102
RTVSPropertyOp8
 70
     1
102
RTVSPropertyOp9
 70
     1
102
RTVSPropertyOp10
 70
     1
102
RTVSPropertyOp11
 70
     1
102
RTVSPropertyOp12
 70
     1
102
RTVSPropertyOp13
 70
     1
102
RTVSPropertyOp14
 70
     1
102
RTVSPropertyOp15
 70
     1
102
RTVSPropertyOp16
 70
     1
102
RTVSPropertyOp17
 70
     1
102
RTVSPropertyOp18
 70
     1
102
RTVSPropertyOp19
 70
     1
102
RTVSPropertyOp20
 70
     1
102
RTVSPropertyOp21
 70
     1
102
RTVSPropertyOp22
 70
     1
102
RTVSPropertyOp23
 70
     1
102
RTVSPropertyOp24
 70
     1
102
RTVSPropertyOp25
 70
     1
102
RTVSPropertyOp26
 70
     1
102
RTVSPropertyOp27
 70
     1
102
RTVSPropertyOp28
 70
     1
102
RTVSPropertyOp29
 70
     1
102
RTVSPropertyOp30
 70
     1
102
RTVSPropertyOp31
 70
     1
102
RTVSPropertyOp32
 70
     1
102
RTVSPropertyOp33
 70
     1
102
RTVSPropertyOp34
 70
     1
102
RTVSPropertyOp35
 70
     1
102
RTVSPropertyOp36
 70
     1
102
RTVSPropertyOp37
 70
     1
102
RTVSPropertyOp38
 70
     1
102
RTVSPropertyOp39
 70
     1
102
RTVSPropertyOp40
 70
     1
102
RTVSPropertyOp41
 70
     1
102
RTVSPropertyOp42
 70
     1
102
RTVSPropertyOp43
 70
     1
102
RTVSPropertyOp44
 70
     1
102
RTVSPropertyOp45
 70
     1
102
RTVSPropertyOp46
 70
     1
102
RTVSPropertyOp47
 70
     1
102
RTVSPropertyOp48
 70
     1
102
RTVSPropertyOp49
 70
     1
102
RTVSPropertyOp50
 70
     1
102
RTVSPropertyOp51
 70
     0
102
RTVSPropertyOp52
 70
     0
102
RTVSPropertyOp53
 70
     1
102
RTVSPropertyOp54
 70
     1
102
RTVSPropertyOp55
 70
     1
102
RTVSPropertyOp56
 70
     1
102
RTVSPropertyOp57
 70
     1
102
RTVSPost2010Prop28
280
     0
102
RTVSPost2010PropOp28
 70
     1
102
RTVSPost2010Prop29
280
     1
102
RTVSPost2010PropOp29
 70
     1
102
RTVSPost2010Prop30
280
     1
102
RTVSPost2010PropOp30
 70
     1
102
RTVSPost2010Prop31
280
     0
102
RTVSPost2010PropOp31
 70
     1
102
RTVSPost2010Prop32
280
     0
102
RTVSPost2010PropOp32
 70
     1
102
RTVSPost2010Prop33
280
     0
102
RTVSPost2010PropOp33
 70
     1
102
RTVSPost2010Prop34
280
     0
102
RTVSPost2010PropOp34
 70
     1
102
RTVSPost2010Prop35
280
     0
102
RTVSPost2010PropOp35
 70
     1
102
RTVSPost2010Prop36
280
     0
102
RTVSPost2010PropOp36
 70
     1
102
RTVSPost2010Prop37
 90
       50
102
RTVSPost2010PropOp37
 70
     1
102
RTVSPost2010Prop38
140
0.0
102
RTVSPost2010PropOp38
 70
     1
102
RTVSPost2010Prop39
140
1.0
102
RTVSPost2010PropOp39
 70
     1
102
RTVSPost2010Prop40
 90
        0
102
RTVSPost2010PropOp40
 70
     1
102
RTVSPost2010Prop41ColorIndex
 90
       18
102
RTVSPost2010Prop41ColorRGB
 90
        0
102
RTVSPost2010PropOp41
 70
     1
102
RTVSPost2010Prop42
 90
       50
102
RTVSPost2010PropOp42
 70
     1
102
RTVSPost2010Prop43
 90
        3
102
RTVSPost2010PropOp43
 70
     1
102
RTVSPost2010Prop44ColorIndex
 90
        5
102
RTVSPost2010Prop44ColorRGB
 90
      255
102
RTVSPost2010PropOp44
 70
     1
102
RTVSPost2010Prop45
280
     0
102
RTVSPost2010PropOp45
 70
     1
102
RTVSPost2010Prop46
 90
       50
102
RTVSPost2010PropOp46
 70
     1
102
RTVSPost2010Prop47
 90
       50
102
RTVSPost2010PropOp47
 70
     1
102
RTVSPost2010Prop48
 90
       50
102
RTVSPost2010PropOp48
 70
     1
102
RTVSPost2010Prop49
280
     0
102
RTVSPost2010PropOp49
 70
     1
102
RTVSPost2010Prop50
 90
       50
102
RTVSPost2010PropOp50
 70
     1
102
RTVSPost2010Prop51ColorIndex
 90
      256
102
RTVSPost2010Prop51ColorRGB
 90
-16777216
102
RTVSPost2010PropOp51
 70
     0
102
RTVSPost2010Prop52
140
1.0
102
RTVSPost2010PropOp52
 70
     0
102
RTVSPost2010Prop53
 90
        2
102
RTVSPost2010PropOp53
 70
     1
102
RTVSPost2010Prop54
  1
strokes_ogs.tif
102
RTVSPost2010PropOp54
 70
     1
102
RTVSPost2010Prop55
280
     0
102
RTVSPost2010PropOp55
 70
     1
102
RTVSPost2010Prop56
140
1.0
102
RTVSPost2010PropOp56
 70
     1
102
RTVSPost2010Prop57
140
1.0
102
RTVSPost2010PropOp57
 70
     1
  0
XRECORD
  5
488
102
{ACAD_REACTORS
330
487
102
}
330
487
100
AcDbXrecord
280
     1
102
RTVSPropertyOp0
 70
     1
102
RTVSPropertyOp1
 70
     1
102
RTVSPropertyOp2
 70
     1
102
RTVSPropertyOp3
 70
     1
102
RTVSPropertyOp4
 70
     1
102
RTVSPropertyOp5
 70
     1
102
RTVSPropertyOp6
 70
     1
102
RTVSPropertyOp7
 70
     1
102
RTVSPropertyOp8
 70
     1
102
RTVSPropertyOp9
 70
     1
102
RTVSPropertyOp10
 70
     1
102
RTVSPropertyOp11
 70
     1
102
RTVSPropertyOp12
 70
     1
102
RTVSPropertyOp13
 70
     1
102
RTVSPropertyOp14
 70
     1
102
RTVSPropertyOp15
 70
     1
102
RTVSPropertyOp16
 70
     1
102
RTVSPropertyOp17
 70
     1
102
RTVSPropertyOp18
 70
     1
102
RTVSPropertyOp19
 70
     1
102
RTVSPropertyOp20
 70
     1
102
RTVSPropertyOp21
 70
     1
102
RTVSPropertyOp22
 70
     1
102
RTVSPropertyOp23
 70
     1
102
RTVSPropertyOp24
 70
     1
102
RTVSPropertyOp25
 70
     1
102
RTVSPropertyOp26
 70
     1
102
RTVSPropertyOp27
 70
     1
102
RTVSPropertyOp28
 70
     1
102
RTVSPropertyOp29
 70
     1
102
RTVSPropertyOp30
 70
     1
102
RTVSPropertyOp31
 70
     1
102
RTVSPropertyOp32
 70
     1
102
RTVSPropertyOp33
 70
     1
102
RTVSPropertyOp34
 70
     1
102
RTVSPropertyOp35
 70
     1
102
RTVSPropertyOp36
 70
     1
102
RTVSPropertyOp37
 70
     1
102
RTVSPropertyOp38
 70
     1
102
RTVSPropertyOp39
 70
     1
102
RTVSPropertyOp40
 70
     1
102
RTVSPropertyOp41
 70
     1
102
RTVSPropertyOp42
 70
     1
102
RTVSPropertyOp43
 70
     1
102
RTVSPropertyOp44
 70
     1
102
RTVSPropertyOp45
 70
     1
102
RTVSPropertyOp46
 70
     1
102
RTVSPropertyOp47
 70
     1
102
RTVSPropertyOp48
 70
     1
102
RTVSPropertyOp49
 70
     1
102
RTVSPropertyOp50
 70
     1
102
RTVSPropertyOp51
 70
     0
102
RTVSPropertyOp52
 70
     0
102
RTVSPropertyOp53
 70
     1
102
RTVSPropertyOp54
 70
     1
102
RTVSPropertyOp55
 70
     1
102
RTVSPropertyOp56
 70
     1
102
RTVSPropertyOp57
 70
     1
102
RTVSPost2010Prop28
280
     0
102
RTVSPost2010PropOp28
 70
     1
102
RTVSPost2010Prop29
280
     1
102
RTVSPost2010PropOp29
 70
     1
102
RTVSPost2010Prop30
280
     1
102
RTVSPost2010PropOp30
 70
     1
102
RTVSPost2010Prop31
280
     0
102
RTVSPost2010PropOp31
 70
     1
102
RTVSPost2010Prop32
280
     0
102
RTVSPost2010PropOp32
 70
     1
102
RTVSPost2010Prop33
280
     0
102
RTVSPost2010PropOp33
 70
     1
102
RTVSPost2010Prop34
280
     0
102
RTVSPost2010PropOp34
 70
     1
102
RTVSPost2010Prop35
280
     0
102
RTVSPost2010PropOp35
 70
     1
102
RTVSPost2010Prop36
280
     0
102
RTVSPost2010PropOp36
 70
     1
102
RTVSPost2010Prop37
 90
       50
102
RTVSPost2010PropOp37
 70
     1
102
RTVSPost2010Prop38
140
0.0
102
RTVSPost2010PropOp38
 70
     1
102
RTVSPost2010Prop39
140
1.0
102
RTVSPost2010PropOp39
 70
     1
102
RTVSPost2010Prop40
 90
        0
102
RTVSPost2010PropOp40
 70
     1
102
RTVSPost2010Prop41ColorIndex
 90
       18
102
RTVSPost2010Prop41ColorRGB
 90
        0
102
RTVSPost2010PropOp41
 70
     1
102
RTVSPost2010Prop42
 90
       50
102
RTVSPost2010PropOp42
 70
     1
102
RTVSPost2010Prop43
 90
        3
102
RTVSPost2010PropOp43
 70
     1
102
RTVSPost2010Prop44ColorIndex
 90
        5
102
RTVSPost2010Prop44ColorRGB
 90
      255
102
RTVSPost2010PropOp44
 70
     1
102
RTVSPost2010Prop45
280
     0
102
RTVSPost2010PropOp45
 70
     1
102
RTVSPost2010Prop46
 90
       50
102
RTVSPost2010PropOp46
 70
     1
102
RTVSPost2010Prop47
 90
       50
102
RTVSPost2010PropOp47
 70
     1
102
RTVSPost2010Prop48
 90
       50
102
RTVSPost2010PropOp48
 70
     1
102
RTVSPost2010Prop49
280
     0
102
RTVSPost2010PropOp49
 70
     1
102
RTVSPost2010Prop50
 90
       50
102
RTVSPost2010PropOp50
 70
     1
102
RTVSPost2010Prop51ColorIndex
 90
      256
102
RTVSPost2010Prop51ColorRGB
 90
-16777216
102
RTVSPost2010PropOp51
 70
     0
102
RTVSPost2010Prop52
140
1.0
102
RTVSPost2010PropOp52
 70
     0
102
RTVSPost2010Prop53
 90
        2
102
RTVSPost2010PropOp53
 70
     1
102
RTVSPost2010Prop54
  1
strokes_ogs.tif
102
RTVSPost2010PropOp54
 70
     1
102
RTVSPost2010Prop55
280
     0
102
RTVSPost2010PropOp55
 70
     1
102
RTVSPost2010Prop56
140
1.0
102
RTVSPost2010PropOp56
 70
     1
102
RTVSPost2010Prop57
140
1.0
102
RTVSPost2010PropOp57
 70
     1
  0
XRECORD
  5
4A8
102
{ACAD_REACTORS
330
4A7
102
}
330
4A7
100
AcDbXrecord
280
     1
102
RTVSPropertyOp0
 70
     1
102
RTVSPropertyOp1
 70
     1
102
RTVSPropertyOp2
 70
     1
102
RTVSPropertyOp3
 70
     1
102
RTVSPropertyOp4
 70
     1
102
RTVSPropertyOp5
 70
     1
102
RTVSPropertyOp6
 70
     1
102
RTVSPropertyOp7
 70
     1
102
RTVSPropertyOp8
 70
     1
102
RTVSPropertyOp9
 70
     1
102
RTVSPropertyOp10
 70
     1
102
RTVSPropertyOp11
 70
     1
102
RTVSPropertyOp12
 70
     1
102
RTVSPropertyOp13
 70
     1
102
RTVSPropertyOp14
 70
     1
102
RTVSPropertyOp15
 70
     1
102
RTVSPropertyOp16
 70
     1
102
RTVSPropertyOp17
 70
     1
102
RTVSPropertyOp18
 70
     1
102
RTVSPropertyOp19
 70
     1
102
RTVSPropertyOp20
 70
     1
102
RTVSPropertyOp21
 70
     1
102
RTVSPropertyOp22
 70
     1
102
RTVSPropertyOp23
 70
     1
102
RTVSPropertyOp24
 70
     1
102
RTVSPropertyOp25
 70
     1
102
RTVSPropertyOp26
 70
     1
102
RTVSPropertyOp27
 70
     1
102
RTVSPropertyOp28
 70
     1
102
RTVSPropertyOp29
 70
     1
102
RTVSPropertyOp30
 70
     1
102
RTVSPropertyOp31
 70
     1
102
RTVSPropertyOp32
 70
     1
102
RTVSPropertyOp33
 70
     1
102
RTVSPropertyOp34
 70
     1
102
RTVSPropertyOp35
 70
     1
102
RTVSPropertyOp36
 70
     1
102
RTVSPropertyOp37
 70
     1
102
RTVSPropertyOp38
 70
     1
102
RTVSPropertyOp39
 70
     1
102
RTVSPropertyOp40
 70
     1
102
RTVSPropertyOp41
 70
     1
102
RTVSPropertyOp42
 70
     1
102
RTVSPropertyOp43
 70
     1
102
RTVSPropertyOp44
 70
     1
102
RTVSPropertyOp45
 70
     1
102
RTVSPropertyOp46
 70
     1
102
RTVSPropertyOp47
 70
     1
102
RTVSPropertyOp48
 70
     1
102
RTVSPropertyOp49
 70
     1
102
RTVSPropertyOp50
 70
     1
102
RTVSPropertyOp51
 70
     0
102
RTVSPropertyOp52
 70
     0
102
RTVSPropertyOp53
 70
     1
102
RTVSPropertyOp54
 70
     1
102
RTVSPropertyOp55
 70
     1
102
RTVSPropertyOp56
 70
     1
102
RTVSPropertyOp57
 70
     1
102
RTVSPost2010Prop28
280
     0
102
RTVSPost2010PropOp28
 70
     1
102
RTVSPost2010Prop29
280
     1
102
RTVSPost2010PropOp29
 70
     1
102
RTVSPost2010Prop30
280
     1
102
RTVSPost2010PropOp30
 70
     1
102
RTVSPost2010Prop31
280
     0
102
RTVSPost2010PropOp31
 70
     1
102
RTVSPost2010Prop32
280
     0
102
RTVSPost2010PropOp32
 70
     1
102
RTVSPost2010Prop33
280
     0
102
RTVSPost2010PropOp33
 70
     1
102
RTVSPost2010Prop34
280
     0
102
RTVSPost2010PropOp34
 70
     1
102
RTVSPost2010Prop35
280
     0
102
RTVSPost2010PropOp35
 70
     1
102
RTVSPost2010Prop36
280
     0
102
RTVSPost2010PropOp36
 70
     1
102
RTVSPost2010Prop37
 90
       50
102
RTVSPost2010PropOp37
 70
     1
102
RTVSPost2010Prop38
140
0.0
102
RTVSPost2010PropOp38
 70
     1
102
RTVSPost2010Prop39
140
1.0
102
RTVSPost2010PropOp39
 70
     1
102
RTVSPost2010Prop40
 90
        0
102
RTVSPost2010PropOp40
 70
     1
102
RTVSPost2010Prop41ColorIndex
 90
       18
102
RTVSPost2010Prop41ColorRGB
 90
        0
102
RTVSPost2010PropOp41
 70
     1
102
RTVSPost2010Prop42
 90
       50
102
RTVSPost2010PropOp42
 70
     1
102
RTVSPost2010Prop43
 90
        3
102
RTVSPost2010PropOp43
 70
     1
102
RTVSPost2010Prop44ColorIndex
 90
        5
102
RTVSPost2010Prop44ColorRGB
 90
      255
102
RTVSPost2010PropOp44
 70
     1
102
RTVSPost2010Prop45
280
     0
102
RTVSPost2010PropOp45
 70
     1
102
RTVSPost2010Prop46
 90
       50
102
RTVSPost2010PropOp46
 70
     1
102
RTVSPost2010Prop47
 90
       50
102
RTVSPost2010PropOp47
 70
     1
102
RTVSPost2010Prop48
 90
       50
102
RTVSPost2010PropOp48
 70
     1
102
RTVSPost2010Prop49
280
     0
102
RTVSPost2010PropOp49
 70
     1
102
RTVSPost2010Prop50
 90
       50
102
RTVSPost2010PropOp50
 70
     1
102
RTVSPost2010Prop51ColorIndex
 90
      256
102
RTVSPost2010Prop51ColorRGB
 90
-16777216
102
RTVSPost2010PropOp51
 70
     0
102
RTVSPost2010Prop52
140
1.0
102
RTVSPost2010PropOp52
 70
     0
102
RTVSPost2010Prop53
 90
        2
102
RTVSPost2010PropOp53
 70
     1
102
RTVSPost2010Prop54
  1
strokes_ogs.tif
102
RTVSPost2010PropOp54
 70
     1
102
RTVSPost2010Prop55
280
     0
102
RTVSPost2010PropOp55
 70
     1
102
RTVSPost2010Prop56
140
1.0
102
RTVSPost2010PropOp56
 70
     1
102
RTVSPost2010Prop57
140
1.0
102
RTVSPost2010PropOp57
 70
     1
  0
ENDSEC
  0
EOF
