  0
SECTION
  2
HEADER
  9
$ACADVER
  1
AC1024
  9
$ACADMAINTVER
 70
     6
  9
$DWGCODEPAGE
  3
ANSI_1252
  9
$INSBASE
 10
0.0
 20
0.0
 30
0.0
  9
$EXTMIN
 10
1.000000E+20
 20
1.000000E+20
 30
1.000000E+20
  9
$EXTMAX
 10
-1.000000E+20
 20
-1.000000E+20
 30
-1.000000E+20
  9
$LIMMIN
 10
0.0
 20
0.0
  9
$LIMMAX
 10
420.0
 20
297.0
  9
$ORTHOMODE
 70
     0
  9
$REGENMODE
 70
     1
  9
$FILLMODE
 70
     1
  9
$QTEXTMODE
 70
     0
  9
$MIRRTEXT
 70
     1
  9
$LTSCALE
 40
1.0
  9
$ATTMODE
 70
     1
  9
$TEXTSIZE
 40
2.5
  9
$TRACEWID
 40
1.0
  9
$TEXTSTYLE
  7
Standard
  9
$CLAYER
  8
0
  9
$CELTYPE
  6
ByLayer
  9
$CECOLOR
 62
   256
  9
$CELTSCALE
 40
1.0
  9
$DISPSILH
 70
     0
  9
$DIMSCALE
 40
1.0
  9
$DIMASZ
 40
2.5
  9
$DIMEXO
 40
0.625
  9
$DIMDLI
 40
3.75
  9
$DIMRND
 40
0.0
  9
$DIMDLE
 40
0.0
  9
$DIMEXE
 40
1.25
  9
$DIMTP
 40
0.0
  9
$DIMTM
 40
0.0
  9
$DIMTXT
 40
2.5
  9
$DIMCEN
 40
2.5
  9
$DIMTSZ
 40
0.0
  9
$DIMTOL
 70
     0
  9
$DIMLIM
 70
     0
  9
$DIMTIH
 70
     0
  9
$DIMTOH
 70
     0
  9
$DIMSE1
 70
     0
  9
$DIMSE2
 70
     0
  9
$DIMTAD
 70
     1
  9
$DIMZIN
 70
     8
  9
$DIMBLK
  1

  9
$DIMASO
 70
     1
  9
$DIMSHO
 70
     1
  9
$DIMPOST
  1

  9
$DIMAPOST
  1

  9
$DIMALT
 70
     0
  9
$DIMALTD
 70
     3
  9
$DIMALTF
 40
0.03937
  9
$DIMLFAC
 40
1.0
  9
$DIMTOFL
 70
     1
  9
$DIMTVP
 40
0.0
  9
$DIMTIX
 70
     0
  9
$DIMSOXD
 70
     0
  9
$DIMSAH
 70
     0
  9
$DIMBLK1
  1

  9
$DIMBLK2
  1

  9
$DIMSTYLE
  2
ISO-25
  9
$DIMCLRD
 70
     0
  9
$DIMCLRE
 70
     0
  9
$DIMCLRT
 70
     0
  9
$DIMTFAC
 40
1.0
  9
$DIMGAP
 40
0.625
  9
$DIMJUST
 70
     0
  9
$DIMSD1
 70
     0
  9
$DIMSD2
 70
     0
  9
$DIMTOLJ
 70
     0
  9
$DIMTZIN
 70
     8
  9
$DIMALTZ
 70
     0
  9
$DIMALTTZ
 70
     0
  9
$DIMUPT
 70
     0
  9
$DIMDEC
 70
     2
  9
$DIMTDEC
 70
     2
  9
$DIMALTU
 70
     2
  9
$DIMALTTD
 70
     3
  9
$DIMTXSTY
  7
Standard
  9
$DIMAUNIT
 70
     0
  9
$DIMADEC
 70
     0
  9
$DIMALTRND
 40
0.0
  9
$DIMAZIN
 70
     0
  9
$DIMDSEP
 70
    44
  9
$DIMATFIT
 70
     3
  9
$DIMFRAC
 70
     0
  9
$DIMLDRBLK
  1

  9
$DIMLUNIT
 70
     2
  9
$DIMLWD
 70
    -2
  9
$DIMLWE
 70
    -2
  9
$DIMTMOVE
 70
     0
  9
$DIMFXL
 40
1.0
  9
$DIMFXLON
 70
     0
  9
$DIMJOGANG
 40
0.785398
  9
$DIMTFILL
 70
     0
  9
$DIMTFILLCLR
 70
     0
  9
$DIMARCSYM
 70
     0
  9
$DIMLTYPE
  6

  9
$DIMLTEX1
  6

  9
$DIMLTEX2
  6

  9
$DIMTXTDIRECTION
 70
     0
  9
$LUNITS
 70
     2
  9
$LUPREC
 70
     4
  9
$SKETCHINC
 40
1.0
  9
$FILLETRAD
 40
10.0
  9
$AUNITS
 70
     0
  9
$AUPREC
 70
     0
  9
$MENU
  1
.
  9
$ELEVATION
 40
0.0
  9
$PELEVATION
 40
0.0
  9
$THICKNESS
 40
0.0
  9
$LIMCHECK
 70
     0
  9
$CHAMFERA
 40
0.0
  9
$CHAMFERB
 40
0.0
  9
$CHAMFERC
 40
0.0
  9
$CHAMFERD
 40
0.0
  9
$SKPOLY
 70
     0
  9
$TDCREATE
 40
2458673.40141779
  9
$TDUCREATE
 40
2458673.318084456
  9
$TDUPDATE
 40
2458673.401420208
  9
$TDUUPDATE
 40
2458673.318086875
  9
$TDINDWG
 40
0.0000000116
  9
$TDUSRTIMER
 40
0.0000000116
  9
$USRTIMER
 70
     1
  9
$ANGBASE
 50
0.0
  9
$ANGDIR
 70
     0
  9
$PDMODE
 70
     0
  9
$PDSIZE
 40
0.0
  9
$PLINEWID
 40
0.0
  9
$SPLFRAME
 70
     0
  9
$SPLINETYPE
 70
     6
  9
$SPLINESEGS
 70
     8
  9
$HANDSEED
  5
241
  9
$SURFTAB1
 70
     6
  9
$SURFTAB2
 70
     6
  9
$SURFTYPE
 70
     6
  9
$SURFU
 70
     6
  9
$SURFV
 70
     6
  9
$UCSBASE
  2

  9
$UCSNAME
  2

  9
$UCSORG
 10
0.0
 20
0.0
 30
0.0
  9
$UCSXDIR
 10
1.0
 20
0.0
 30
0.0
  9
$UCSYDIR
 10
0.0
 20
1.0
 30
0.0
  9
$UCSORTHOREF
  2

  9
$UCSORTHOVIEW
 70
     0
  9
$UCSORGTOP
 10
0.0
 20
0.0
 30
0.0
  9
$UCSORGBOTTOM
 10
0.0
 20
0.0
 30
0.0
  9
$UCSORGLEFT
 10
0.0
 20
0.0
 30
0.0
  9
$UCSORGRIGHT
 10
0.0
 20
0.0
 30
0.0
  9
$UCSORGFRONT
 10
0.0
 20
0.0
 30
0.0
  9
$UCSORGBACK
 10
0.0
 20
0.0
 30
0.0
  9
$PUCSBASE
  2

  9
$PUCSNAME
  2

  9
$PUCSORG
 10
0.0
 20
0.0
 30
0.0
  9
$PUCSXDIR
 10
1.0
 20
0.0
 30
0.0
  9
$PUCSYDIR
 10
0.0
 20
1.0
 30
0.0
  9
$PUCSORTHOREF
  2

  9
$PUCSORTHOVIEW
 70
     0
  9
$PUCSORGTOP
 10
0.0
 20
0.0
 30
0.0
  9
$PUCSORGBOTTOM
 10
0.0
 20
0.0
 30
0.0
  9
$PUCSORGLEFT
 10
0.0
 20
0.0
 30
0.0
  9
$PUCSORGRIGHT
 10
0.0
 20
0.0
 30
0.0
  9
$PUCSORGFRONT
 10
0.0
 20
0.0
 30
0.0
  9
$PUCSORGBACK
 10
0.0
 20
0.0
 30
0.0
  9
$USERI1
 70
     0
  9
$USERI2
 70
     0
  9
$USERI3
 70
     0
  9
$USERI4
 70
     0
  9
$USERI5
 70
     0
  9
$USERR1
 40
0.0
  9
$USERR2
 40
0.0
  9
$USERR3
 40
0.0
  9
$USERR4
 40
0.0
  9
$USERR5
 40
0.0
  9
$WORLDVIEW
 70
     1
  9
$SHADEDGE
 70
     3
  9
$SHADEDIF
 70
    70
  9
$TILEMODE
 70
     1
  9
$MAXACTVP
 70
    64
  9
$PINSBASE
 10
0.0
 20
0.0
 30
0.0
  9
$PLIMCHECK
 70
     0
  9
$PEXTMIN
 10
1.000000E+20
 20
1.000000E+20
 30
1.000000E+20
  9
$PEXTMAX
 10
-1.000000E+20
 20
-1.000000E+20
 30
-1.000000E+20
  9
$PLIMMIN
 10
0.0
 20
0.0
  9
$PLIMMAX
 10
420.0
 20
297.0
  9
$UNITMODE
 70
     0
  9
$VISRETAIN
 70
     1
  9
$PLINEGEN
 70
     0
  9
$PSLTSCALE
 70
     1
  9
$TREEDEPTH
 70
  3020
  9
$CMLSTYLE
  2
Standard
  9
$CMLJUST
 70
     0
  9
$CMLSCALE
 40
20.0
  9
$PROXYGRAPHICS
 70
     1
  9
$MEASUREMENT
 70
     1
  9
$CELWEIGHT
370
    -1
  9
$ENDCAPS
280
     0
  9
$JOINSTYLE
280
     0
  9
$LWDISPLAY
290
     0
  9
$INSUNITS
 70
     4
  9
$HYPERLINKBASE
  1

  9
$STYLESHEET
  1

  9
$XEDIT
290
     1
  9
$CEPSNTYPE
380
     0
  9
$PSTYLEMODE
290
     1
  9
$FINGERPRINTGUID
  2
{A7595285-C347-4E55-B563-ADFF20EE9E37}
  9
$VERSIONGUID
  2
{FAEB1C32-E019-11D5-929B-00C0DF256EC4}
  9
$EXTNAMES
290
     1
  9
$PSVPSCALE
 40
0.0
  9
$OLESTARTUP
290
     0
  9
$SORTENTS
280
   127
  9
$INDEXCTL
280
     0
  9
$HIDETEXT
280
     1
  9
$XCLIPFRAME
280
     2
  9
$HALOGAP
280
     0
  9
$OBSCOLOR
 70
   257
  9
$OBSLTYPE
280
     0
  9
$INTERSECTIONDISPLAY
280
     0
  9
$INTERSECTIONCOLOR
 70
   257
  9
$DIMASSOC
280
     2
  9
$PROJECTNAME
  1

  9
$CAMERADISPLAY
290
     0
  9
$LENSLENGTH
 40
50.0
  9
$CAMERAHEIGHT
 40
0.0
  9
$STEPSPERSEC
 40
2.0
  9
$STEPSIZE
 40
6.0
  9
$3DDWFPREC
 40
2.0
  9
$PSOLWIDTH
 40
5.0
  9
$PSOLHEIGHT
 40
80.0
  9
$LOFTANG1
 40
1.570796
  9
$LOFTANG2
 40
1.570796
  9
$LOFTMAG1
 40
0.0
  9
$LOFTMAG2
 40
0.0
  9
$LOFTPARAM
 70
     7
  9
$LOFTNORMALS
280
     1
  9
$LATITUDE
 40
37.795
  9
$LONGITUDE
 40
-122.394
  9
$NORTHDIRECTION
 40
0.0
  9
$TIMEZONE
 70
 -8000
  9
$LIGHTGLYPHDISPLAY
280
     1
  9
$TILEMODELIGHTSYNCH
280
     1
  9
$CMATERIAL
347
44
  9
$SOLIDHIST
280
     0
  9
$SHOWHIST
280
     1
  9
$DWFFRAME
280
     2
  9
$DGNFRAME
280
     2
  9
$REALWORLDSCALE
290
     1
  9
$INTERFERECOLOR
 62
   256
  9
$CSHADOW
280
     0
  9
$SHADOWPLANELOCATION
 40
0.0
  0
ENDSEC
  0
SECTION
  2
CLASSES
  0
CLASS
  1
ACDBDICTIONARYWDFLT
  2
AcDbDictionaryWithDefault
  3
ObjectDBX Classes
 90
        0
 91
        4
280
     0
281
     0
  0
CLASS
  1
VISUALSTYLE
  2
AcDbVisualStyle
  3
ObjectDBX Classes
 90
     4095
 91
        4
280
     0
281
     0
  0
CLASS
  1
MATERIAL
  2
AcDbMaterial
  3
ObjectDBX Classes
 90
     1153
 91
        4
280
     0
281
     0
  0
CLASS
  1
SCALE
  2
AcDbScale
  3
ObjectDBX Classes
 90
     1153
 91
        4
280
     0
281
     0
  0
CLASS
  1
TABLESTYLE
  2
AcDbTableStyle
  3
ObjectDBX Classes
 90
     4095
 91
        4
280
     0
281
     0
  0
CLASS
  1
MLEADERSTYLE
  2
AcDbMLeaderStyle
  3
ACDB_MLEADERSTYLE_CLASS
 90
     4095
 91
        4
280
     0
281
     0
  0
CLASS
  1
SUN
  2
AcDbSun
  3
SCENEOE
 90
     1153
 91
        4
280
     0
281
     0
  0
CLASS
  1
DICTIONARYVAR
  2
AcDbDictionaryVar
  3
ObjectDBX Classes
 90
        0
 91
        4
280
     0
281
     0
  0
CLASS
  1
CELLSTYLEMAP
  2
AcDbCellStyleMap
  3
ObjectDBX Classes
 90
     1152
 91
        4
280
     0
281
     0
  0
ENDSEC
  0
SECTION
  2
TABLES
  0
TABLE
  2
VPORT
  5
8
330
0
100
AcDbSymbolTable
 70
     1
  0
VPORT
  5
29
330
8
100
AcDbSymbolTableRecord
100
AcDbViewportTableRecord
  2
*Active
 70
     0
 10
0.0
 20
0.0
 11
1.0
 21
1.0
 12
344.186916
 22
148.5
 13
0.0
 23
0.0
 14
10.0
 24
10.0
 15
10.0
 25
10.0
 16
0.0
 26
0.0
 36
1.0
 17
0.0
 27
0.0
 37
0.0
 40
297.0
 41
1.972973
 42
50.0
 43
0.0
 44
0.0
 50
0.0
 51
0.0
 71
     0
 72
   100
 73
     1
 74
     3
 75
     0
 76
     0
 77
     0
 78
     0
281
     0
 65
     1
110
0.0
120
0.0
130
0.0
111
1.0
121
0.0
131
0.0
112
0.0
122
1.0
132
0.0
 79
     0
146
0.0
348
2F
 60
     3
 61
     5
292
     1
282
     1
141
0.0
142
0.0
 63
   250
361
6D
  0
ENDTAB
  0
TABLE
  2
LTYPE
  5
5
330
0
100
AcDbSymbolTable
 70
     1
  0
LTYPE
  5
14
330
5
100
AcDbSymbolTableRecord
100
AcDbLinetypeTableRecord
  2
ByBlock
 70
     0
  3

 72
    65
 73
     0
 40
0.0
  0
LTYPE
  5
15
330
5
100
AcDbSymbolTableRecord
100
AcDbLinetypeTableRecord
  2
ByLayer
 70
     0
  3

 72
    65
 73
     0
 40
0.0
  0
LTYPE
  5
16
330
5
100
AcDbSymbolTableRecord
100
AcDbLinetypeTableRecord
  2
Continuous
 70
     0
  3
Solid line
 72
    65
 73
     0
 40
0.0
  0
ENDTAB
  0
TABLE
  2
LAYER
  5
2
330
0
100
AcDbSymbolTable
 70
     1
  0
LAYER
  5
10
330
2
100
AcDbSymbolTableRecord
100
AcDbLayerTableRecord
  2
0
 70
     0
 62
   106
  6
Continuous
370
     0
390
F
347
46
  0
ENDTAB
  0
TABLE
  2
STYLE
  5
3
330
0
100
AcDbSymbolTable
 70
     4
  0
STYLE
  5
11
330
3
100
AcDbSymbolTableRecord
100
AcDbTextStyleTableRecord
  2
Standard
 70
     0
 40
0.0
 41
1.0
 50
0.0
 71
     0
 42
2.5
  3
txt
  4

  0
STYLE
  5
6E
330
3
100
AcDbSymbolTableRecord
100
AcDbTextStyleTableRecord
  2
Default
 70
     0
 40
0.0
 41
1.0
 50
0.0
 71
     0
 42
2.5
  3

  4

1001
ACAD
1000
txt
1071
        0
  0
STYLE
  5
6F
330
3
100
AcDbSymbolTableRecord
100
AcDbTextStyleTableRecord
  2
ISO
 70
     0
 40
0.0
 41
1.0
 50
0.0
 71
     0
 42
2.5
  3

  4

1001
ACAD
1000
txt
1071
        0
  0
STYLE
  5
70
330
3
100
AcDbSymbolTableRecord
100
AcDbTextStyleTableRecord
  2
zucchetti
 70
     0
 40
0.0
 41
1.0
 50
0.0
 71
     0
 42
2.5
  3

  4

1001
ACAD
1000
Arial
1071
        0
  0
ENDTAB
  0
TABLE
  2
VIEW
  5
6
330
0
100
AcDbSymbolTable
 70
     0
  0
ENDTAB
  0
TABLE
  2
UCS
  5
7
330
0
100
AcDbSymbolTable
 70
     0
  0
ENDTAB
  0
TABLE
  2
APPID
  5
9
330
0
100
AcDbSymbolTable
 70
     1
  0
APPID
  5
12
330
9
100
AcDbSymbolTableRecord
100
AcDbRegAppTableRecord
  2
ACAD
 70
     0
  0
ENDTAB
  0
TABLE
  2
DIMSTYLE
  5
A
330
0
100
AcDbSymbolTable
 70
     4
100
AcDbDimStyleTable
  0
DIMSTYLE
105
27
330
A
100
AcDbSymbolTableRecord
100
AcDbDimStyleTableRecord
  2
ISO-25
 70
     0
 41
2.5
 42
0.625
 43
3.75
 44
1.25
 73
     0
 74
     0
 77
     1
 78
     8
140
2.5
141
2.5
143
0.03937
147
0.625
171
     3
172
     1
178
     0
271
     2
272
     2
274
     3
278
    44
283
     0
284
     8
340
11
  0
DIMSTYLE
105
71
330
A
100
AcDbSymbolTableRecord
100
AcDbDimStyleTableRecord
  2
Default
 70
     0
  3
<>
 41
4.375
 42
1.05
 44
2.1
 49
10.01
 73
     0
 74
     0
 77
     1
 78
     8
140
3.5
146
0.4
147
1.75
172
     1
271
     2
178
     3
271
     2
272
     3
284
     8
340
6E
341
72
342
72
  0
DIMSTYLE
105
79
330
A
100
AcDbSymbolTableRecord
100
AcDbDimStyleTableRecord
  2
ISO
 70
     0
  3
<>
 41
4.375
 42
1.05
 44
2.1
 49
10.01
 73
     0
 74
     0
 77
     1
 78
     8
140
3.5
146
0.4
147
1.75
172
     1
271
     2
178
     3
271
     2
272
     3
284
     8
340
6F
341
72
342
72
  0
DIMSTYLE
105
7A
330
A
100
AcDbSymbolTableRecord
100
AcDbDimStyleTableRecord
  2
zucchetti
 70
     0
  3
<>
 41
3.0
 42
0.9
 44
1.8
 49
8.58
 73
     0
 74
     0
 77
     1
 78
     8
140
3.0
146
0.6
147
1.5
172
     1
176
     3
177
     3
271
     2
178
     3
271
     2
272
     2
284
     8
340
70
  0
ENDTAB
  0
TABLE
  2
BLOCK_RECORD
  5
1
330
0
100
AcDbSymbolTable
 70
     6
  0
BLOCK_RECORD
  5
1F
330
1
100
AcDbSymbolTableRecord
100
AcDbBlockTableRecord
  2
*Model_Space
340
22
 70
     0
280
     1
281
     0
  0
BLOCK_RECORD
  5
1B
330
1
100
AcDbSymbolTableRecord
100
AcDbBlockTableRecord
  2
*Paper_Space
340
1E
 70
     0
280
     1
281
     0
  0
BLOCK_RECORD
  5
23
330
1
100
AcDbSymbolTableRecord
100
AcDbBlockTableRecord
  2
*Paper_Space0
340
26
 70
     0
280
     1
281
     0
  0
BLOCK_RECORD
  5
72
330
1
100
AcDbSymbolTableRecord
100
AcDbBlockTableRecord
  2
_CLOSED
340
0
 70
     0
280
     1
281
     0
  0
BLOCK_RECORD
  5
7B
330
1
100
AcDbSymbolTableRecord
100
AcDbBlockTableRecord
  2
a
340
0
102
{BLKREFS
331
E2
102
}
 70
     0
280
     1
281
     0
  0
BLOCK_RECORD
  5
E3
330
1
100
AcDbSymbolTableRecord
100
AcDbBlockTableRecord
  2
b
340
0
102
{BLKREFS
331
111
102
}
 70
     0
280
     1
281
     0
  0
BLOCK_RECORD
  5
112
330
1
100
AcDbSymbolTableRecord
100
AcDbBlockTableRecord
  2
c
340
0
102
{BLKREFS
331
18C
102
}
 70
     0
280
     1
281
     0
  0
BLOCK_RECORD
  5
18D
330
1
100
AcDbSymbolTableRecord
100
AcDbBlockTableRecord
  2
d
340
0
102
{BLKREFS
331
207
102
}
 70
     0
280
     1
281
     0
  0
ENDTAB
  0
ENDSEC
  0
SECTION
  2
BLOCKS
  0
BLOCK
  5
20
330
1F
100
AcDbEntity
  8
0
100
AcDbBlockBegin
  2
*Model_Space
 70
     0
 10
0.0
 20
0.0
 30
0.0
  3
*Model_Space
  1

  0
ENDBLK
  5
21
330
1F
100
AcDbEntity
  8
0
100
AcDbBlockEnd
  0
BLOCK
  5
1C
330
1B
100
AcDbEntity
 67
     1
  8
0
100
AcDbBlockBegin
  2
*Paper_Space
 70
     0
 10
0.0
 20
0.0
 30
0.0
  3
*Paper_Space
  1

  0
ENDBLK
  5
1D
330
1B
100
AcDbEntity
 67
     1
  8
0
100
AcDbBlockEnd
  0
BLOCK
  5
24
330
23
100
AcDbEntity
  8
0
100
AcDbBlockBegin
  2
*Paper_Space0
 70
     0
 10
0.0
 20
0.0
 30
0.0
  3
*Paper_Space0
  1

  0
ENDBLK
  5
25
330
23
100
AcDbEntity
  8
0
100
AcDbBlockEnd
  0
BLOCK
  5
73
330
72
100
AcDbEntity
  8
0
100
AcDbBlockBegin
  2
_CLOSED
 70
     0
 10
0.0
 20
0.0
 30
0.0
  3
_CLOSED
  1

  0
LINE
  5
75
330
72
100
AcDbEntity
  8
0
  6
ByBlock
 62
     0
370
    -2
100
AcDbLine
 10
-1.0
 20
0.166667
 30
0.0
 11
0.0
 21
0.0
 31
0.0
  0
LINE
  5
76
330
72
100
AcDbEntity
  8
0
  6
ByBlock
 62
     0
370
    -2
100
AcDbLine
 10
0.0
 20
0.0
 30
0.0
 11
-1.0
 21
-0.166667
 31
0.0
  0
LINE
  5
77
330
72
100
AcDbEntity
  8
0
  6
ByBlock
 62
     0
370
    -2
100
AcDbLine
 10
-1.0
 20
0.166667
 30
0.0
 11
-1.0
 21
-0.166667
 31
0.0
  0
LINE
  5
78
330
72
100
AcDbEntity
  8
0
  6
ByBlock
 62
     0
370
    -2
100
AcDbLine
 10
0.0
 20
0.0
 30
0.0
 11
-1.0
 21
0.0
 31
0.0
  0
ENDBLK
  5
74
330
72
100
AcDbEntity
  8
0
100
AcDbBlockEnd
  0
BLOCK
  5
E0
330
7B
100
AcDbEntity
  8
0
100
AcDbBlockBegin
  2
a
 70
     0
 10
23.38316
 20
113.18148
 30
0.0
  3
a
  1

  0
LWPOLYLINE
  5
7C
330
7B
100
AcDbEntity
  8
0
  6
Continuous
 62
     0
370
     0
100
AcDbPolyline
 90
       18
 70
     0
 43
0.0
 10
90.961731
 20
1245.638306
 10
90.343002
 20
1245.616699
 10
89.730202
 20
1245.553589
 10
89.133446
 20
1245.452026
 10
88.560562
 20
1245.315918
 10
88.015343
 20
1245.151001
 10
87.501114
 20
1244.963135
 10
87.019905
 20
1244.758545
 10
86.573189
 20
1244.543091
 10
86.162621
 20
1244.322998
 10
85.790176
 20
1244.103882
 10
85.457924
 20
1243.891724
 10
85.168274
 20
1243.693726
 10
84.923782
 20
1243.517822
 10
84.727486
 20
1243.370728
 10
84.582848
 20
1243.258667
 10
84.493233
 20
1243.187134
 10
84.461731
 20
1243.161377
  0
LWPOLYLINE
  5
7D
330
7B
100
AcDbEntity
  8
0
  6
Continuous
 62
     0
370
     0
100
AcDbPolyline
 90
       18
 70
     0
 43
0.0
 10
97.461685
 20
1243.161377
 10
97.431465
 20
1243.186035
 10
97.343056
 20
1243.256714
 10
97.199547
 20
1243.368042
 10
97.004303
 20
1243.514404
 10
96.76078
 20
1243.689697
 10
96.472031
 20
1243.887329
 10
96.140633
 20
1244.099243
 10
95.76902
 20
1244.318237
 10
95.359268
 20
1244.538452
 10
94.913345
 20
1244.75415
 10
94.432892
 20
1244.959106
 10
93.919342
 20
1245.147339
 10
93.374695
 20
1245.312744
 10
92.802299
 20
1245.449341
 10
92.205978
 20
1245.551636
 10
91.59343
 20
1245.615601
 10
90.961731
 20
1245.638306
  0
LINE
  5
7E
330
7B
100
AcDbEntity
  8
0
  6
Continuous
 62
     0
370
     0
100
AcDbLine
 10
90.96173
 20
1257.138325
 30
0.0
 11
84.46173
 21
1257.138325
 31
0.0
  0
LINE
  5
7F
330
7B
100
AcDbEntity
  8
0
  6
Continuous
 62
     0
370
     0
100
AcDbLine
 10
97.46173
 20
1257.138325
 30
0.0
 11
90.96173
 21
1257.138325
 31
0.0
  0
LINE
  5
80
330
7B
100
AcDbEntity
  8
0
  6
Continuous
 62
     0
370
    30
100
AcDbLine
 10
90.96173
 20
1257.638325
 30
0.0
 11
96.961812
 21
1257.638325
 31
0.0
  0
LINE
  5
81
330
7B
100
AcDbEntity
  8
0
  6
Continuous
 62
     0
370
    30
100
AcDbLine
 10
84.961649
 20
1257.638325
 30
0.0
 11
90.96173
 21
1257.638325
 31
0.0
  0
ARC
  5
82
330
7B
100
AcDbEntity
  8
0
  6
Continuous
 62
     0
370
    30
100
AcDbCircle
 10
90.96173
 20
1222.138325
 30
0.0
 40
19.49999999999997
100
AcDbArc
 50
90.0
 51
270.0
  0
ARC
  5
83
330
7B
100
AcDbEntity
  8
0
  6
Continuous
 62
     0
370
    30
100
AcDbCircle
 10
90.96173
 20
1222.138325
 30
0.0
 40
19.49999999999997
100
AcDbArc
 50
270.0
 51
90.0
  0
ARC
  5
84
330
7B
100
AcDbEntity
  8
0
  6
Continuous
 62
     0
370
     0
100
AcDbCircle
 10
90.961989
 20
1222.138325
 30
0.0
 40
19.00000000175917
100
AcDbArc
 50
269.99922
 51
90.00078
  0
ARC
  5
85
330
7B
100
AcDbEntity
  8
0
  6
Continuous
 62
     0
370
     0
100
AcDbCircle
 10
90.961472
 20
1222.138325
 30
0.0
 40
19.00000000175917
100
AcDbArc
 50
89.99922
 51
270.00078
  0
LINE
  5
86
330
7B
100
AcDbEntity
  8
0
  6
Continuous
 62
     0
370
    30
100
AcDbLine
 10
130.963364
 20
728.141029
 30
0.0
 11
50.963364
 21
728.141029
 31
0.0
  0
LINE
  5
87
330
7B
100
AcDbEntity
  8
0
  6
Continuous
 62
     0
370
    30
100
AcDbLine
 10
130.963364
 20
1296.141029
 30
0.0
 11
130.963364
 21
728.141029
 31
0.0
  0
LINE
  5
88
330
7B
100
AcDbEntity
  8
0
  6
Continuous
 62
     0
370
    30
100
AcDbLine
 10
50.963364
 20
1296.141029
 30
0.0
 11
130.963364
 21
1296.141029
 31
0.0
  0
LINE
  5
89
330
7B
100
AcDbEntity
  8
0
  6
Continuous
 62
     0
370
    30
100
AcDbLine
 10
50.963364
 20
728.141029
 30
0.0
 11
50.963364
 21
1296.141029
 31
0.0
  0
LWPOLYLINE
  5
8A
330
7B
100
AcDbEntity
  8
0
  6
Continuous
 62
     0
370
     0
100
AcDbPolyline
 90
       18
 70
     0
 43
0.0
 10
90.963364
 20
1045.640991
 10
90.344643
 20
1045.619385
 10
89.731834
 20
1045.556396
 10
89.135078
 20
1045.454712
 10
88.562195
 20
1045.318604
 10
88.016983
 20
1045.153687
 10
87.502754
 20
1044.965942
 10
87.021545
 20
1044.76123
 10
86.574829
 20
1044.545776
 10
86.164253
 20
1044.325684
 10
85.791809
 20
1044.106567
 10
85.459557
 20
1043.894409
 10
85.169907
 20
1043.696411
 10
84.925423
 20
1043.520508
 10
84.729126
 20
1043.373413
 10
84.58448
 20
1043.261353
 10
84.494873
 20
1043.189819
 10
84.463364
 20
1043.164062
  0
LWPOLYLINE
  5
8B
330
7B
100
AcDbEntity
  8
0
  6
Continuous
 62
     0
370
     0
100
AcDbPolyline
 90
       18
 70
     0
 43
0.0
 10
97.463318
 20
1043.164062
 10
97.433098
 20
1043.188721
 10
97.344688
 20
1043.259399
 10
97.201187
 20
1043.370728
 10
97.005936
 20
1043.51709
 10
96.762413
 20
1043.692505
 10
96.473663
 20
1043.890015
 10
96.142265
 20
1044.101929
 10
95.77066
 20
1044.320923
 10
95.360909
 20
1044.541138
 10
94.914986
 20
1044.756836
 10
94.434532
 20
1044.961792
 10
93.920982
 20
1045.150024
 10
93.376328
 20
1045.31543
 10
92.803932
 20
1045.452026
 10
92.207611
 20
1045.554443
 10
91.595062
 20
1045.618286
 10
90.963364
 20
1045.640991
  0
LINE
  5
8C
330
7B
100
AcDbEntity
  8
0
  6
Continuous
 62
     0
370
     0
100
AcDbLine
 10
90.963367
 20
1057.14103
 30
0.0
 11
84.463367
 21
1057.14103
 31
0.0
  0
LINE
  5
8D
330
7B
100
AcDbEntity
  8
0
  6
Continuous
 62
     0
370
     0
100
AcDbLine
 10
97.463367
 20
1057.14103
 30
0.0
 11
90.963367
 21
1057.14103
 31
0.0
  0
LINE
  5
8E
330
7B
100
AcDbEntity
  8
0
  6
Continuous
 62
     0
370
    30
100
AcDbLine
 10
90.963367
 20
1057.64103
 30
0.0
 11
96.963449
 21
1057.64103
 31
0.0
  0
LINE
  5
8F
330
7B
100
AcDbEntity
  8
0
  6
Continuous
 62
     0
370
    30
100
AcDbLine
 10
84.963285
 20
1057.64103
 30
0.0
 11
90.963367
 21
1057.64103
 31
0.0
  0
ARC
  5
90
330
7B
100
AcDbEntity
  8
0
  6
Continuous
 62
     0
370
    30
100
AcDbCircle
 10
90.963367
 20
1022.14103
 30
0.0
 40
19.49999999999997
100
AcDbArc
 50
90.0
 51
270.0
  0
ARC
  5
91
330
7B
100
AcDbEntity
  8
0
  6
Continuous
 62
     0
370
    30
100
AcDbCircle
 10
90.963367
 20
1022.14103
 30
0.0
 40
19.49999999999997
100
AcDbArc
 50
270.0
 51
90.0
  0
ARC
  5
92
330
7B
100
AcDbEntity
  8
0
  6
Continuous
 62
     0
370
     0
100
AcDbCircle
 10
90.963626
 20
1022.14103
 30
0.0
 40
19.00000000175911
100
AcDbArc
 50
269.99922
 51
90.00078
  0
ARC
  5
93
330
7B
100
AcDbEntity
  8
0
  6
Continuous
 62
     0
370
     0
100
AcDbCircle
 10
90.963109
 20
1022.14103
 30
0.0
 40
19.00000000175913
100
AcDbArc
 50
89.99922
 51
270.00078
  0
LWPOLYLINE
  5
94
330
7B
100
AcDbEntity
  8
0
  6
Continuous
 62
     0
370
     0
100
AcDbPolyline
 90
       18
 70
     0
 43
0.0
 10
90.963356
 20
1145.640991
 10
90.344627
 20
1145.619385
 10
89.731827
 20
1145.556396
 10
89.135071
 20
1145.454712
 10
88.562187
 20
1145.318604
 10
88.016968
 20
1145.153687
 10
87.502739
 20
1144.965942
 10
87.02153
 20
1144.76123
 10
86.574814
 20
1144.545776
 10
86.164246
 20
1144.325684
 10
85.791801
 20
1144.106567
 10
85.459541
 20
1143.894409
 10
85.169891
 20
1143.696411
 10
84.925407
 20
1143.520508
 10
84.729111
 20
1143.373413
 10
84.584473
 20
1143.261353
 10
84.494858
 20
1143.189819
 10
84.463356
 20
1143.164062
  0
LWPOLYLINE
  5
95
330
7B
100
AcDbEntity
  8
0
  6
Continuous
 62
     0
370
     0
100
AcDbPolyline
 90
       18
 70
     0
 43
0.0
 10
97.46331
 20
1143.164062
 10
97.433083
 20
1143.188721
 10
97.344681
 20
1143.259399
 10
97.201172
 20
1143.370728
 10
97.005928
 20
1143.51709
 10
96.762405
 20
1143.692505
 10
96.473648
 20
1143.890015
 10
96.14225
 20
1144.101929
 10
95.770645
 20
1144.321045
 10
95.360893
 20
1144.541138
 10
94.91497
 20
1144.756836
 10
94.434517
 20
1144.961792
 10
93.920967
 20
1145.150024
 10
93.37632
 20
1145.31543
 10
92.803925
 20
1145.452026
 10
92.207596
 20
1145.554443
 10
91.595055
 20
1145.618286
 10
90.963356
 20
1145.640991
  0
LINE
  5
96
330
7B
100
AcDbEntity
  8
0
  6
Continuous
 62
     0
370
     0
100
AcDbLine
 10
90.963354
 20
1157.141033
 30
0.0
 11
84.463354
 21
1157.141033
 31
0.0
  0
LINE
  5
97
330
7B
100
AcDbEntity
  8
0
  6
Continuous
 62
     0
370
     0
100
AcDbLine
 10
97.463354
 20
1157.141033
 30
0.0
 11
90.963354
 21
1157.141033
 31
0.0
  0
LINE
  5
98
330
7B
100
AcDbEntity
  8
0
  6
Continuous
 62
     0
370
    30
100
AcDbLine
 10
90.963354
 20
1157.641033
 30
0.0
 11
96.963435
 21
1157.641033
 31
0.0
  0
LINE
  5
99
330
7B
100
AcDbEntity
  8
0
  6
Continuous
 62
     0
370
    30
100
AcDbLine
 10
84.963272
 20
1157.641033
 30
0.0
 11
90.963354
 21
1157.641033
 31
0.0
  0
ARC
  5
9A
330
7B
100
AcDbEntity
  8
0
  6
Continuous
 62
     0
370
    30
100
AcDbCircle
 10
90.963354
 20
1122.141033
 30
0.0
 40
19.5
100
AcDbArc
 50
90.0
 51
270.0
  0
ARC
  5
9B
330
7B
100
AcDbEntity
  8
0
  6
Continuous
 62
     0
370
    30
100
AcDbCircle
 10
90.963354
 20
1122.141033
 30
0.0
 40
19.5
100
AcDbArc
 50
270.0
 51
90.0
  0
ARC
  5
9C
330
7B
100
AcDbEntity
  8
0
  6
Continuous
 62
     0
370
     0
100
AcDbCircle
 10
90.963612
 20
1122.141033
 30
0.0
 40
19.00000000175911
100
AcDbArc
 50
269.99922
 51
90.00078
  0
ARC
  5
9D
330
7B
100
AcDbEntity
  8
0
  6
Continuous
 62
     0
370
     0
100
AcDbCircle
 10
90.963095
 20
1122.141033
 30
0.0
 40
19.00000000175911
100
AcDbArc
 50
89.99922
 51
270.00078
  0
LWPOLYLINE
  5
9E
330
7B
100
AcDbEntity
  8
0
  6
Continuous
 62
     0
370
     0
100
AcDbPolyline
 90
       18
 70
     0
 43
0.0
 10
90.963364
 20
945.641052
 10
90.344635
 20
945.619324
 10
89.731827
 20
945.556335
 10
89.135071
 20
945.454773
 10
88.562195
 20
945.318665
 10
88.016975
 20
945.153748
 10
87.502747
 20
944.965881
 10
87.021538
 20
944.76123
 10
86.574821
 20
944.545776
 10
86.164253
 20
944.325684
 10
85.791809
 20
944.106567
 10
85.459549
 20
943.894409
 10
85.169899
 20
943.696411
 10
84.925415
 20
943.520508
 10
84.729118
 20
943.373474
 10
84.584473
 20
943.261292
 10
84.494865
 20
943.189819
 10
84.463364
 20
943.164062
  0
LWPOLYLINE
  5
9F
330
7B
100
AcDbEntity
  8
0
  6
Continuous
 62
     0
370
     0
100
AcDbPolyline
 90
       18
 70
     0
 43
0.0
 10
97.463318
 20
943.164062
 10
97.43309
 20
943.188782
 10
97.344688
 20
943.259399
 10
97.20118
 20
943.370728
 10
97.005928
 20
943.51709
 10
96.762413
 20
943.692444
 10
96.473656
 20
943.890015
 10
96.142258
 20
944.101929
 10
95.770653
 20
944.320984
 10
95.360901
 20
944.541199
 10
94.914978
 20
944.756836
 10
94.434525
 20
944.961853
 10
93.920975
 20
945.150085
 10
93.376328
 20
945.31543
 10
92.803932
 20
945.452087
 10
92.207603
 20
945.554382
 10
91.595062
 20
945.618286
 10
90.963364
 20
945.641052
  0
LINE
  5
A0
330
7B
100
AcDbEntity
  8
0
  6
Continuous
 62
     0
370
     0
100
AcDbLine
 10
90.963361
 20
957.141031
 30
0.0
 11
84.463361
 21
957.141031
 31
0.0
  0
LINE
  5
A1
330
7B
100
AcDbEntity
  8
0
  6
Continuous
 62
     0
370
     0
100
AcDbLine
 10
97.463361
 20
957.141031
 30
0.0
 11
90.963361
 21
957.141031
 31
0.0
  0
LINE
  5
A2
330
7B
100
AcDbEntity
  8
0
  6
Continuous
 62
     0
370
    30
100
AcDbLine
 10
90.963361
 20
957.641031
 30
0.0
 11
96.963442
 21
957.641031
 31
0.0
  0
LINE
  5
A3
330
7B
100
AcDbEntity
  8
0
  6
Continuous
 62
     0
370
    30
100
AcDbLine
 10
84.963279
 20
957.641031
 30
0.0
 11
90.963361
 21
957.641031
 31
0.0
  0
ARC
  5
A4
330
7B
100
AcDbEntity
  8
0
  6
Continuous
 62
     0
370
    30
100
AcDbCircle
 10
90.963361
 20
922.141031
 30
0.0
 40
19.50000000000001
100
AcDbArc
 50
90.0
 51
270.0
  0
ARC
  5
A5
330
7B
100
AcDbEntity
  8
0
  6
Continuous
 62
     0
370
    30
100
AcDbCircle
 10
90.963361
 20
922.141031
 30
0.0
 40
19.50000000000001
100
AcDbArc
 50
270.0
 51
90.0
  0
ARC
  5
A6
330
7B
100
AcDbEntity
  8
0
  6
Continuous
 62
     0
370
     0
100
AcDbCircle
 10
90.963619
 20
922.141031
 30
0.0
 40
19.00000000175916
100
AcDbArc
 50
269.99922
 51
90.00078
  0
ARC
  5
A7
330
7B
100
AcDbEntity
  8
0
  6
Continuous
 62
     0
370
     0
100
AcDbCircle
 10
90.963102
 20
922.141031
 30
0.0
 40
19.0000000017591
100
AcDbArc
 50
89.99922
 51
270.00078
  0
LINE
  5
A8
330
7B
100
AcDbEntity
  8
0
  6
Continuous
 62
     0
370
    30
100
AcDbLine
 10
90.963364
 20
831.471029
 30
0.0
 11
87.013364
 21
831.471029
 31
0.0
  0
LINE
  5
A9
330
7B
100
AcDbEntity
  8
0
  6
Continuous
 62
     0
370
    30
100
AcDbLine
 10
94.913364
 20
831.471029
 30
0.0
 11
90.963364
 21
831.471029
 31
0.0
  0
LWPOLYLINE
  5
AA
330
7B
100
AcDbEntity
  8
0
  6
Continuous
 62
     0
370
    30
100
AcDbPolyline
 90
        7
 70
     0
 43
0.0
 10
87.513168
 20
831.970825
 10
87.546791
 20
831.970703
 10
87.6465
 20
831.970032
 10
87.809402
 20
831.96991
 10
88.03167
 20
831.970276
 10
88.3097
 20
831.970764
 10
88.669952
 20
831.970642
  0
LWPOLYLINE
  5
AB
330
7B
100
AcDbEntity
  8
0
  6
Continuous
 62
     0
370
    30
100
AcDbPolyline
 90
       12
 70
     0
 43
0.0
 10
90.963364
 20
831.971008
 10
90.475731
 20
831.970764
 10
89.993958
 20
831.970703
 10
89.530945
 20
831.970764
 10
89.100311
 20
831.970947
 10
88.709267
 20
831.970703
 10
88.363846
 20
831.969727
 10
88.071289
 20
831.96814
 10
87.836159
 20
831.96698
 10
87.662025
 20
831.967224
 10
87.553223
 20
831.968994
 10
87.513168
 20
831.970825
  0
LWPOLYLINE
  5
AC
330
7B
100
AcDbEntity
  8
0
  6
Continuous
 62
     0
370
    30
100
AcDbPolyline
 90
       12
 70
     0
 43
0.0
 10
94.413559
 20
831.970825
 10
94.378006
 20
831.969116
 10
94.273384
 20
831.967285
 10
94.103172
 20
831.966919
 10
93.871704
 20
831.968018
 10
93.582603
 20
831.969604
 10
93.240257
 20
831.970703
 10
92.851837
 20
831.970947
 10
92.423515
 20
831.970825
 10
91.962151
 20
831.970703
 10
91.48111
 20
831.970764
 10
90.963364
 20
831.971008
  0
LWPOLYLINE
  5
AD
330
7B
100
AcDbEntity
  8
0
  6
Continuous
 62
     0
370
    30
100
AcDbPolyline
 90
        7
 70
     0
 43
0.0
 10
93.256775
 20
831.970642
 10
93.590408
 20
831.970764
 10
93.873108
 20
831.970337
 10
94.100342
 20
831.96991
 10
94.268555
 20
831.970032
 10
94.373878
 20
831.970642
 10
94.413559
 20
831.970825
  0
ARC
  5
AE
330
7B
100
AcDbEntity
  8
0
  6
Continuous
 62
     0
370
    30
100
AcDbCircle
 10
90.96366
 20
802.141029
 30
0.0
 40
21.50000000203893
100
AcDbArc
 50
269.999211
 51
90.000789
  0
ARC
  5
AF
330
7B
100
AcDbEntity
  8
0
  6
Continuous
 62
     0
370
    30
100
AcDbCircle
 10
90.963071
 20
802.141029
 30
0.0
 40
21.50000000199056
100
AcDbArc
 50
89.99922
 51
270.00078
  0
LWPOLYLINE
  5
B0
330
7B
100
AcDbEntity
  8
0
  6
Continuous
 62
     0
370
    30
100
AcDbPolyline
 90
       54
 70
     0
 43
0.0
 10
90.963364
 20
780.141052
 10
92.264244
 20
780.180298
 10
93.562492
 20
780.297241
 10
94.853271
 20
780.490723
 10
96.130569
 20
780.759583
 10
97.388977
 20
781.102722
 10
98.624306
 20
781.519226
 10
99.832542
 20
782.008118
 10
101.009659
 20
782.56842
 10
102.151581
 20
783.198242
 10
103.254173
 20
783.894714
 10
104.313286
 20
784.654663
 10
105.324829
 20
785.475159
 10
106.285271
 20
786.353638
 10
107.191536
 20
787.287598
 10
108.041138
 20
788.274109
 10
108.831787
 20
789.309814
 10
109.560692
 20
790.390808
 10
110.224838
 20
791.513184
 10
110.821213
 20
792.672913
 10
111.347168
 20
793.866028
 10
111.801247
 20
795.088196
 10
112.182228
 20
796.335083
 10
112.488899
 20
797.602356
 10
112.720184
 20
798.885498
 10
112.875275
 20
800.180115
 10
112.953407
 20
801.481567
 10
112.953819
 20
802.785278
 10
112.876511
 20
804.086792
 10
112.722244
 20
805.38147
 10
112.491821
 20
806.664795
 10
112.18605
 20
807.932251
 10
111.806
 20
809.179443
 10
111.352875
 20
810.401917
 10
110.827881
 20
811.595459
 10
110.23246
 20
812.755737
 10
109.569206
 20
813.878662
 10
108.841103
 20
814.960205
 10
108.051117
 20
815.996399
 10
107.202034
 20
816.983398
 10
106.29615
 20
817.917725
 10
105.336006
 20
818.796509
 10
104.324791
 20
819.617371
 10
103.266113
 20
820.377869
 10
102.16404
 20
821.075073
 10
101.022697
 20
821.705994
 10
99.846207
 20
822.2677
 10
98.63858
 20
822.758179
 10
97.403786
 20
823.176208
 10
96.14576
 20
823.520569
 10
94.868645
 20
823.790161
 10
93.577888
 20
823.984009
 10
92.279617
 20
824.101196
 10
90.963364
 20
824.141052
  0
LWPOLYLINE
  5
B1
330
7B
100
AcDbEntity
  8
0
  6
Continuous
 62
     0
370
    30
100
AcDbPolyline
 90
       54
 70
     0
 43
0.0
 10
90.963364
 20
824.141052
 10
89.662468
 20
824.102112
 10
88.364143
 20
823.98584
 10
87.073265
 20
823.792908
 10
85.795944
 20
823.524231
 10
84.537674
 20
823.180664
 10
83.302582
 20
822.763489
 10
82.094612
 20
822.273865
 10
80.917725
 20
821.713013
 10
79.775948
 20
821.082886
 10
78.673386
 20
820.386475
 10
77.614166
 20
819.626709
 10
76.602371
 20
818.806519
 10
75.641602
 20
817.928467
 10
74.735062
 20
816.994751
 10
73.8853
 20
816.008362
 10
73.094604
 20
814.972717
 10
72.365746
 20
813.891663
 10
71.701714
 20
812.769226
 10
71.105469
 20
811.609375
 10
70.579636
 20
810.416199
 10
70.125656
 20
809.194031
 10
69.744736
 20
807.947144
 10
69.43808
 20
806.679871
 10
69.206757
 20
805.396729
 10
69.05159
 20
804.102112
 10
68.973373
 20
802.80072
 10
68.972862
 20
801.496948
 10
69.050079
 20
800.195435
 10
69.204269
 20
798.900757
 10
69.434662
 20
797.617432
 10
69.74044
 20
796.349976
 10
70.120552
 20
795.102783
 10
70.573776
 20
793.88031
 10
71.098892
 20
792.686829
 10
71.69445
 20
791.526672
 10
72.357811
 20
790.403809
 10
73.085968
 20
789.322327
 10
73.875908
 20
788.286072
 10
74.724823
 20
787.29895
 10
75.630432
 20
786.364319
 10
76.590248
 20
785.485229
 10
77.601204
 20
784.664001
 10
78.659782
 20
783.90332
 10
79.761887
 20
783.206116
 10
80.903366
 20
782.575439
 10
82.080093
 20
782.014282
 10
83.287987
 20
781.524536
 10
84.523018
 20
781.107239
 10
85.781174
 20
780.763184
 10
87.058281
 20
780.493469
 10
88.34893
 20
780.299133
 10
89.647125
 20
780.181213
 10
90.963364
 20
780.141052
  0
ARC
  5
B2
330
7B
100
AcDbEntity
  8
0
  6
Continuous
 62
     0
370
    30
100
AcDbCircle
 10
90.963364
 20
802.141029
 30
0.0
 40
22.00000000000001
100
AcDbArc
 50
282.470598
 51
359.968217
  0
ARC
  5
B3
330
7B
100
AcDbEntity
  8
0
  6
Continuous
 62
     0
370
    30
100
AcDbCircle
 10
90.963364
 20
802.141029
 30
0.0
 40
21.99999999999999
100
AcDbArc
 50
180.02895
 51
257.529402
  0
LWPOLYLINE
  5
B4
330
7B
100
AcDbEntity
  8
0
  6
Continuous
 62
     0
370
    30
100
AcDbPolyline
 90
       14
 70
     0
 43
0.0
 10
86.212715
 20
780.660095
 10
86.248215
 20
780.652222
 10
86.351212
 20
780.629883
 10
86.519554
 20
780.594482
 10
86.752731
 20
780.547729
 10
87.04805
 20
780.492249
 10
87.398949
 20
780.431702
 10
87.798203
 20
780.369873
 10
88.243744
 20
780.309814
 10
88.730827
 20
780.254578
 10
89.249519
 20
780.207886
 10
89.796814
 20
780.172119
 10
90.362282
 20
780.149292
 10
90.963364
 20
780.141052
  0
LWPOLYLINE
  5
B5
330
7B
100
AcDbEntity
  8
0
  6
Continuous
 62
     0
370
    30
100
AcDbPolyline
 90
       14
 70
     0
 43
0.0
 10
90.963364
 20
780.141052
 10
91.534782
 20
780.148499
 10
92.100822
 20
780.170593
 10
92.649391
 20
780.20575
 10
93.169655
 20
780.251953
 10
93.658569
 20
780.306763
 10
94.106476
 20
780.366699
 10
94.508163
 20
780.428467
 10
94.86171
 20
780.489197
 10
95.160133
 20
780.545044
 10
95.396622
 20
780.592346
 10
95.568375
 20
780.628357
 10
95.674774
 20
780.651428
 10
95.714012
 20
780.660095
  0
LWPOLYLINE
  5
B6
330
7B
100
AcDbEntity
  8
0
  6
Continuous
 62
     0
370
    30
100
AcDbPolyline
 90
       12
 70
     0
 43
0.0
 10
95.063591
 20
823.755554
 10
95.031647
 20
823.761597
 10
94.938614
 20
823.778931
 10
94.786247
 20
823.806335
 10
94.575195
 20
823.842529
 10
94.307968
 20
823.885254
 10
93.991898
 20
823.931641
 10
93.632744
 20
823.978638
 10
93.227829
 20
824.023987
 10
92.780067
 20
824.065125
 10
92.301582
 20
824.099609
 10
91.750359
 20
824.12677
  0
LWPOLYLINE
  5
B7
330
7B
100
AcDbEntity
  8
0
  6
Continuous
 62
     0
370
    30
100
AcDbPolyline
 90
       10
 70
     0
 43
0.0
 10
89.094078
 20
824.06073
 10
88.662178
 20
824.020203
 10
88.271637
 20
823.975891
 10
87.924225
 20
823.930115
 10
87.6175
 20
823.885071
 10
87.35704
 20
823.843445
 10
87.149773
 20
823.807983
 10
86.997932
 20
823.780701
 10
86.902069
 20
823.762939
 10
86.862984
 20
823.755554
  0
LINE
  5
B8
330
7B
100
AcDbEntity
  8
0
  6
Continuous
 62
     0
370
    30
100
AcDbLine
 10
94.913363
 20
831.471052
 30
0.0
 11
94.413576
 21
831.970836
 31
0.0
  0
LINE
  5
B9
330
7B
100
AcDbEntity
  8
0
  6
Continuous
 62
     0
370
    30
100
AcDbLine
 10
87.013365
 20
831.471052
 30
0.0
 11
87.513151
 21
831.970836
 31
0.0
  0
LINE
  5
BA
330
7B
100
AcDbEntity
  8
0
  6
Continuous
 62
     0
370
    30
100
AcDbLine
 10
87.013364
 20
831.471029
 30
0.0
 11
87.013364
 21
823.783478
 31
0.0
  0
LINE
  5
BB
330
7B
100
AcDbEntity
  8
0
  6
Continuous
 62
     0
370
    30
100
AcDbLine
 10
94.913364
 20
831.471029
 30
0.0
 11
94.913364
 21
823.783478
 31
0.0
  0
ARC
  5
BC
330
7B
100
AcDbEntity
  8
0
  6
Continuous
 62
     0
370
    30
100
AcDbCircle
 10
96.963358
 20
957.141028
 30
0.0
 40
0.5000028044171319
100
AcDbArc
 50
0.000321
 51
89.974932
  0
ARC
  5
BD
330
7B
100
AcDbEntity
  8
0
  6
Continuous
 62
     0
370
    30
100
AcDbCircle
 10
84.963364
 20
957.141027
 30
0.0
 40
0.5000034945680457
100
AcDbArc
 50
90.025147
 51
179.9996
  0
LINE
  5
BE
330
7B
100
AcDbEntity
  8
0
  6
Continuous
 62
     0
370
    30
100
AcDbLine
 10
84.463361
 20
943.163475
 30
0.0
 11
84.463361
 21
957.141031
 31
0.0
  0
LINE
  5
BF
330
7B
100
AcDbEntity
  8
0
  6
Continuous
 62
     0
370
    30
100
AcDbLine
 10
97.463361
 20
957.141031
 30
0.0
 11
97.463361
 21
943.163475
 31
0.0
  0
ARC
  5
C0
330
7B
100
AcDbEntity
  8
0
  6
Continuous
 62
     0
370
    30
100
AcDbCircle
 10
80.463332
 20
943.164836
 30
0.0
 40
4.000028231156961
100
AcDbArc
 50
297.11717
 51
359.989099
  0
ARC
  5
C1
330
7B
100
AcDbEntity
  8
0
  6
Continuous
 62
     0
370
    30
100
AcDbCircle
 10
101.463323
 20
943.164906
 30
0.0
 40
4.000007680139273
100
AcDbArc
 50
180.011831
 51
242.854391
  0
LWPOLYLINE
  5
C2
330
7B
100
AcDbEntity
  8
0
  6
Continuous
 62
     0
370
    30
100
AcDbPolyline
 90
        4
 70
     0
 43
0.0
 10
99.626404
 20
939.611633
 10
99.618896
 20
939.61554
 10
99.630638
 20
939.609497
 10
99.639793
 20
939.604736
  0
LINE
  5
C3
330
7B
100
AcDbEntity
  8
0
  6
Continuous
 62
     0
370
    30
100
AcDbLine
 10
99.576896
 20
939.636527
 30
0.0
 11
99.622436
 21
939.613685
 31
0.0
  0
LWPOLYLINE
  5
C4
330
7B
100
AcDbEntity
  8
0
  6
Continuous
 62
     0
370
    30
100
AcDbPolyline
 90
        9
 70
     0
 43
0.0
 10
82.438034
 20
939.67981
 10
82.392174
 20
939.65741
 10
82.355347
 20
939.639221
 10
82.327713
 20
939.625427
 10
82.309502
 20
939.616272
 10
82.301308
 20
939.612122
 10
82.306854
 20
939.61499
 10
82.296143
 20
939.609436
 10
82.286606
 20
939.604492
  0
ARC
  5
C5
330
7B
100
AcDbEntity
  8
0
  6
Continuous
 62
     0
370
    30
100
AcDbCircle
 10
96.963351
 20
1157.14103
 30
0.0
 40
0.5000028044190077
100
AcDbArc
 50
0.000321
 51
89.974932
  0
ARC
  5
C6
330
7B
100
AcDbEntity
  8
0
  6
Continuous
 62
     0
370
    30
100
AcDbCircle
 10
84.963357
 20
1157.141029
 30
0.0
 40
0.5000034945539593
100
AcDbArc
 50
90.025147
 51
179.9996
  0
LINE
  5
C7
330
7B
100
AcDbEntity
  8
0
  6
Continuous
 62
     0
370
    30
100
AcDbLine
 10
84.463354
 20
1143.163477
 30
0.0
 11
84.463354
 21
1157.141033
 31
0.0
  0
LINE
  5
C8
330
7B
100
AcDbEntity
  8
0
  6
Continuous
 62
     0
370
    30
100
AcDbLine
 10
97.463354
 20
1157.141033
 30
0.0
 11
97.463354
 21
1143.163477
 31
0.0
  0
ARC
  5
C9
330
7B
100
AcDbEntity
  8
0
  6
Continuous
 62
     0
370
    30
100
AcDbCircle
 10
80.463325
 20
1143.164838
 30
0.0
 40
4.00002823116231
100
AcDbArc
 50
297.11717
 51
359.989099
  0
ARC
  5
CA
330
7B
100
AcDbEntity
  8
0
  6
Continuous
 62
     0
370
    30
100
AcDbCircle
 10
101.463316
 20
1143.164908
 30
0.0
 40
4.000007679975975
100
AcDbArc
 50
180.01183
 51
242.854377
  0
LWPOLYLINE
  5
CB
330
7B
100
AcDbEntity
  8
0
  6
Continuous
 62
     0
370
    30
100
AcDbPolyline
 90
        4
 70
     0
 43
0.0
 10
99.626396
 20
1139.611694
 10
99.618889
 20
1139.615601
 10
99.63063
 20
1139.609497
 10
99.639786
 20
1139.604736
  0
LINE
  5
CC
330
7B
100
AcDbEntity
  8
0
  6
Continuous
 62
     0
370
    30
100
AcDbLine
 10
99.576889
 20
1139.636529
 30
0.0
 11
99.622429
 21
1139.613686
 31
0.0
  0
LWPOLYLINE
  5
CD
330
7B
100
AcDbEntity
  8
0
  6
Continuous
 62
     0
370
    30
100
AcDbPolyline
 90
        9
 70
     0
 43
0.0
 10
82.438026
 20
1139.67981
 10
82.392174
 20
1139.657471
 10
82.355339
 20
1139.639282
 10
82.327705
 20
1139.625488
 10
82.309494
 20
1139.616333
 10
82.301308
 20
1139.612183
 10
82.306847
 20
1139.61499
 10
82.296135
 20
1139.609497
 10
82.286598
 20
1139.604492
  0
ARC
  5
CE
330
7B
100
AcDbEntity
  8
0
  6
Continuous
 62
     0
370
    30
100
AcDbCircle
 10
96.963364
 20
1057.141027
 30
0.0
 40
0.5000028044011569
100
AcDbArc
 50
0.000321
 51
89.974932
  0
ARC
  5
CF
330
7B
100
AcDbEntity
  8
0
  6
Continuous
 62
     0
370
    30
100
AcDbCircle
 10
84.963371
 20
1057.141026
 30
0.0
 40
0.5000034945642942
100
AcDbArc
 50
90.025147
 51
179.9996
  0
LINE
  5
D0
330
7B
100
AcDbEntity
  8
0
  6
Continuous
 62
     0
370
    30
100
AcDbLine
 10
84.463367
 20
1043.163474
 30
0.0
 11
84.463367
 21
1057.14103
 31
0.0
  0
LINE
  5
D1
330
7B
100
AcDbEntity
  8
0
  6
Continuous
 62
     0
370
    30
100
AcDbLine
 10
97.463367
 20
1057.14103
 30
0.0
 11
97.463367
 21
1043.163474
 31
0.0
  0
ARC
  5
D2
330
7B
100
AcDbEntity
  8
0
  6
Continuous
 62
     0
370
    30
100
AcDbCircle
 10
80.463339
 20
1043.164835
 30
0.0
 40
4.000028231158224
100
AcDbArc
 50
297.11717
 51
359.989099
  0
ARC
  5
D3
330
7B
100
AcDbEntity
  8
0
  6
Continuous
 62
     0
370
    30
100
AcDbCircle
 10
101.46333
 20
1043.164905
 30
0.0
 40
4.000007679804646
100
AcDbArc
 50
180.01183
 51
242.854363
  0
LWPOLYLINE
  5
D4
330
7B
100
AcDbEntity
  8
0
  6
Continuous
 62
     0
370
    30
100
AcDbPolyline
 90
        4
 70
     0
 43
0.0
 10
99.626411
 20
1039.611694
 10
99.618904
 20
1039.615479
 10
99.630646
 20
1039.609497
 10
99.639793
 20
1039.604736
  0
LINE
  5
D5
330
7B
100
AcDbEntity
  8
0
  6
Continuous
 62
     0
370
    30
100
AcDbLine
 10
99.576903
 20
1039.636526
 30
0.0
 11
99.622442
 21
1039.613683
 31
0.0
  0
LWPOLYLINE
  5
D6
330
7B
100
AcDbEntity
  8
0
  6
Continuous
 62
     0
370
    30
100
AcDbPolyline
 90
        9
 70
     0
 43
0.0
 10
82.438042
 20
1039.67981
 10
82.392181
 20
1039.657471
 10
82.355354
 20
1039.639282
 10
82.327721
 20
1039.625488
 10
82.309502
 20
1039.616333
 10
82.301315
 20
1039.612061
 10
82.306862
 20
1039.61499
 10
82.29615
 20
1039.609497
 10
82.286613
 20
1039.604492
  0
ARC
  5
D7
330
7B
100
AcDbEntity
  8
0
  6
Continuous
 62
     0
370
    30
100
AcDbCircle
 10
96.961728
 20
1257.138322
 30
0.0
 40
0.5000028044582039
100
AcDbArc
 50
0.000321
 51
89.974932
  0
ARC
  5
D8
330
7B
100
AcDbEntity
  8
0
  6
Continuous
 62
     0
370
    30
100
AcDbCircle
 10
84.961734
 20
1257.138321
 30
0.0
 40
0.5000034945646529
100
AcDbArc
 50
90.025147
 51
179.9996
  0
LINE
  5
D9
330
7B
100
AcDbEntity
  8
0
  6
Continuous
 62
     0
370
    30
100
AcDbLine
 10
84.46173
 20
1243.160769
 30
0.0
 11
84.46173
 21
1257.138325
 31
0.0
  0
LINE
  5
DA
330
7B
100
AcDbEntity
  8
0
  6
Continuous
 62
     0
370
    30
100
AcDbLine
 10
97.46173
 20
1257.138325
 30
0.0
 11
97.46173
 21
1243.160769
 31
0.0
  0
ARC
  5
DB
330
7B
100
AcDbEntity
  8
0
  6
Continuous
 62
     0
370
    30
100
AcDbCircle
 10
80.461702
 20
1243.16213
 30
0.0
 40
4.000028231157622
100
AcDbArc
 50
297.11717
 51
359.989099
  0
ARC
  5
DC
330
7B
100
AcDbEntity
  8
0
  6
Continuous
 62
     0
370
    30
100
AcDbCircle
 10
101.461693
 20
1243.1622
 30
0.0
 40
4.00000767999497
100
AcDbArc
 50
180.01183
 51
242.85438
  0
LWPOLYLINE
  5
DD
330
7B
100
AcDbEntity
  8
0
  6
Continuous
 62
     0
370
    30
100
AcDbPolyline
 90
        4
 70
     0
 43
0.0
 10
99.624779
 20
1239.609009
 10
99.617271
 20
1239.612793
 10
99.629005
 20
1239.606812
 10
99.638161
 20
1239.602051
  0
LINE
  5
DE
330
7B
100
AcDbEntity
  8
0
  6
Continuous
 62
     0
370
    30
100
AcDbLine
 10
99.575266
 20
1239.633821
 30
0.0
 11
99.620805
 21
1239.610979
 31
0.0
  0
LWPOLYLINE
  5
DF
330
7B
100
AcDbEntity
  8
0
  6
Continuous
 62
     0
370
    30
100
AcDbPolyline
 90
        9
 70
     0
 43
0.0
 10
82.436401
 20
1239.677124
 10
82.390549
 20
1239.654663
 10
82.353722
 20
1239.636475
 10
82.326088
 20
1239.622803
 10
82.307869
 20
1239.613525
 10
82.299683
 20
1239.609375
 10
82.305222
 20
1239.612305
 10
82.294518
 20
1239.606812
 10
82.284981
 20
1239.601807
  0
ENDBLK
  5
E1
330
7B
100
AcDbEntity
  8
0
100
AcDbBlockEnd
  0
BLOCK
  5
10F
330
E3
100
AcDbEntity
  8
0
100
AcDbBlockBegin
  2
b
 70
     0
 10
23.38316
 20
560.344505
 30
0.0
  3
b
  1

  0
LWPOLYLINE
  5
E4
330
E3
100
AcDbEntity
  8
0
  6
Continuous
 62
     0
370
     0
100
AcDbPolyline
 90
       41
 70
     0
 43
0.0
 10
90.961731
 20
549.836365
 10
91.723694
 20
549.877197
 10
92.479271
 20
549.997742
 10
93.217186
 20
550.194641
 10
93.927231
 20
550.463623
 10
94.604584
 20
550.798828
 10
95.245255
 20
551.19397
 10
95.846245
 20
551.643127
 10
96.406036
 20
552.140503
 10
96.923286
 20
552.680603
 10
97.397057
 20
553.258606
 10
97.826828
 20
553.870728
 10
98.212097
 20
554.513123
 10
98.552628
 20
555.182251
 10
98.84832
 20
555.874817
 10
99.099068
 20
556.587402
 10
99.304817
 20
557.316772
 10
99.465515
 20
558.05957
 10
99.581032
 20
558.812622
 10
99.650848
 20
559.57251
 10
99.674332
 20
560.335815
 10
99.65107
 20
561.099121
 10
99.581482
 20
561.85907
 10
99.466202
 20
562.612183
 10
99.30571
 20
563.355042
 10
99.10006
 20
564.084412
 10
98.849236
 20
564.797058
 10
98.553322
 20
565.489563
 10
98.212585
 20
566.15863
 10
97.827316
 20
566.800964
 10
97.397865
 20
567.413147
 10
96.924622
 20
567.991455
 10
96.407997
 20
568.532227
 10
95.848709
 20
569.030273
 10
95.247711
 20
569.479248
 10
94.606194
 20
569.872803
 10
93.927612
 20
570.205688
 10
93.216675
 20
570.47345
 10
92.478836
 20
570.671448
 10
91.723763
 20
570.79425
 10
90.961739
 20
570.836365
  0
LWPOLYLINE
  5
E5
330
E3
100
AcDbEntity
  8
0
  6
Continuous
 62
     0
370
     0
100
AcDbPolyline
 90
       41
 70
     0
 43
0.0
 10
90.961739
 20
570.836365
 10
90.199875
 20
570.794434
 10
89.444756
 20
570.671753
 10
88.706871
 20
570.473816
 10
87.995911
 20
570.206055
 10
87.317314
 20
569.873169
 10
86.675835
 20
569.479553
 10
86.074905
 20
569.030518
 10
85.515686
 20
568.53241
 10
84.999092
 20
567.991638
 10
84.525826
 20
567.41333
 10
84.096321
 20
566.801208
 10
83.710999
 20
566.158875
 10
83.370216
 20
565.489746
 10
83.074265
 20
564.797241
 10
82.823425
 20
564.084656
 10
82.61776
 20
563.355286
 10
82.457253
 20
562.612366
 10
82.341942
 20
561.859253
 10
82.272331
 20
561.099365
 10
82.249046
 20
560.33606
 10
82.27253
 20
559.572693
 10
82.342361
 20
558.812805
 10
82.457893
 20
558.059753
 10
82.618591
 20
557.316956
 10
82.824341
 20
556.587585
 10
83.075089
 20
555.875
 10
83.370766
 20
555.182434
 10
83.711281
 20
554.513245
 10
84.09655
 20
553.870789
 10
84.526314
 20
553.258667
 10
85.000092
 20
552.680664
 10
85.517349
 20
552.140564
 10
86.077148
 20
551.643188
 10
86.678123
 20
551.194031
 10
87.318771
 20
550.798828
 10
87.996086
 20
550.463562
 10
88.706116
 20
550.194458
 10
89.444038
 20
549.997559
 10
90.199646
 20
549.877075
 10
90.961731
 20
549.836365
  0
ARC
  5
E6
330
E3
100
AcDbEntity
  8
0
  6
Continuous
 62
     0
370
    30
100
AcDbCircle
 10
90.96173
 20
560.336354
 30
0.0
 40
6.499999999999986
100
AcDbArc
 50
90.0
 51
270.0
  0
ARC
  5
E7
330
E3
100
AcDbEntity
  8
0
  6
Continuous
 62
     0
370
    30
100
AcDbCircle
 10
90.96173
 20
560.336354
 30
0.0
 40
6.499999999999986
100
AcDbArc
 50
270.0
 51
90.0
  0
ARC
  5
E8
330
E3
100
AcDbEntity
  8
0
  6
Continuous
 62
     0
370
     0
100
AcDbCircle
 10
90.961812
 20
560.336354
 30
0.0
 40
6.000000000555697
100
AcDbArc
 50
269.99922
 51
90.00078
  0
ARC
  5
E9
330
E3
100
AcDbEntity
  8
0
  6
Continuous
 62
     0
370
     0
100
AcDbCircle
 10
90.961649
 20
560.336354
 30
0.0
 40
6.000000000555704
100
AcDbArc
 50
89.99922
 51
270.00078
  0
LINE
  5
EA
330
E3
100
AcDbEntity
  8
0
  6
Continuous
 62
     0
370
     0
100
AcDbLine
 10
71.46173
 20
545.836356
 30
0.0
 11
90.96173
 21
545.836355
 31
0.0
  0
LINE
  5
EB
330
E3
100
AcDbEntity
  8
0
  6
Continuous
 62
     0
370
     0
100
AcDbLine
 10
90.96173
 20
545.836355
 30
0.0
 11
110.46173
 21
545.836356
 31
0.0
  0
LINE
  5
EC
330
E3
100
AcDbEntity
  8
0
  6
Continuous
 62
     0
370
    30
100
AcDbLine
 10
110.46173
 20
587.336356
 30
0.0
 11
90.96173
 21
587.336355
 31
0.0
  0
LINE
  5
ED
330
E3
100
AcDbEntity
  8
0
  6
Continuous
 62
     0
370
    30
100
AcDbLine
 10
90.96173
 20
587.336355
 30
0.0
 11
71.46173
 21
587.336356
 31
0.0
  0
LINE
  5
EE
330
E3
100
AcDbEntity
  8
0
  6
Continuous
 62
     0
370
    30
100
AcDbLine
 10
109.961989
 20
545.336356
 30
0.0
 11
90.96173
 21
545.336355
 31
0.0
  0
LINE
  5
EF
330
E3
100
AcDbEntity
  8
0
  6
Continuous
 62
     0
370
    30
100
AcDbLine
 10
90.96173
 20
545.336355
 30
0.0
 11
71.961472
 21
545.336356
 31
0.0
  0
LINE
  5
F0
330
E3
100
AcDbEntity
  8
0
  6
Continuous
 62
     0
370
    30
100
AcDbLine
 10
130.963364
 20
592.336282
 30
0.0
 11
130.963364
 21
590.336282
 31
0.0
  0
LINE
  5
F1
330
E3
100
AcDbEntity
  8
0
  6
Continuous
 62
     0
370
    30
100
AcDbLine
 10
130.963364
 20
592.336282
 30
0.0
 11
50.963364
 21
592.336282
 31
0.0
  0
LINE
  5
F2
330
E3
100
AcDbEntity
  8
0
  6
Continuous
 62
     0
370
    30
100
AcDbLine
 10
50.963364
 20
592.336282
 30
0.0
 11
50.963364
 21
590.336282
 31
0.0
  0
LINE
  5
F3
330
E3
100
AcDbEntity
  8
0
  6
Continuous
 62
     0
370
    30
100
AcDbLine
 10
50.963364
 20
590.336282
 30
0.0
 11
130.963364
 21
590.336282
 31
0.0
  0
LINE
  5
F4
330
E3
100
AcDbEntity
  8
0
  6
Continuous
 62
     0
370
    30
100
AcDbLine
 10
105.963364
 20
590.336285
 30
0.0
 11
105.963364
 21
587.336356
 31
0.0
  0
LINE
  5
F5
330
E3
100
AcDbEntity
  8
0
  6
Continuous
 62
     0
370
    30
100
AcDbLine
 10
110.963368
 20
590.336304
 30
0.0
 11
110.963368
 21
587.336304
 31
0.0
  0
ARC
  5
F6
330
E3
100
AcDbEntity
  8
0
  6
Continuous
 62
     0
370
    30
100
AcDbCircle
 10
90.963364
 20
546.336302
 30
0.0
 40
3.950000000000323
100
AcDbArc
 50
194.6638
 51
270.0
  0
ARC
  5
F7
330
E3
100
AcDbEntity
  8
0
  6
Continuous
 62
     0
370
    30
100
AcDbCircle
 10
90.963364
 20
546.336302
 30
0.0
 40
3.949999999999929
100
AcDbArc
 50
270.0
 51
345.3362
  0
LWPOLYLINE
  5
F8
330
E3
100
AcDbEntity
  8
0
  6
Continuous
 62
     0
370
    30
100
AcDbPolyline
 90
       10
 70
     0
 43
0.0
 10
90.963364
 20
542.886292
 10
90.480667
 20
542.920837
 10
90.003601
 20
543.023499
 10
89.544624
 20
543.19104
 10
89.117065
 20
543.419861
 10
88.728081
 20
543.706665
 10
88.383446
 20
544.046631
 10
88.090225
 20
544.431702
 10
87.853035
 20
544.853577
 10
87.665108
 20
545.336365
  0
LWPOLYLINE
  5
F9
330
E3
100
AcDbEntity
  8
0
  6
Continuous
 62
     0
370
    30
100
AcDbPolyline
 90
       10
 70
     0
 43
0.0
 10
94.26162
 20
545.336365
 10
94.088219
 20
544.884521
 10
93.855103
 20
544.460388
 10
93.56572
 20
544.072388
 10
93.224487
 20
543.729004
 10
92.838409
 20
543.438232
 10
92.413406
 20
543.2052
 10
91.956245
 20
543.033203
 10
91.479988
 20
542.925842
 10
90.963364
 20
542.886292
  0
LINE
  5
FA
330
E3
100
AcDbEntity
  8
0
  6
Continuous
 62
     0
370
    30
100
AcDbLine
 10
112.46366
 20
537.336304
 30
0.0
 11
90.963364
 21
537.336303
 31
0.0
  0
LINE
  5
FB
330
E3
100
AcDbEntity
  8
0
  6
Continuous
 62
     0
370
    30
100
AcDbLine
 10
90.963364
 20
537.336303
 30
0.0
 11
69.463071
 21
537.336304
 31
0.0
  0
LINE
  5
FC
330
E3
100
AcDbEntity
  8
0
  6
Continuous
 62
     0
370
    30
100
AcDbLine
 10
112.963363
 20
537.836303
 30
0.0
 11
90.963364
 21
537.836303
 31
0.0
  0
LINE
  5
FD
330
E3
100
AcDbEntity
  8
0
  6
Continuous
 62
     0
370
    30
100
AcDbLine
 10
90.963364
 20
537.836303
 30
0.0
 11
68.963364
 21
537.836303
 31
0.0
  0
LINE
  5
FE
330
E3
100
AcDbEntity
  8
0
  6
Continuous
 62
     0
370
    30
100
AcDbLine
 10
112.963364
 20
587.336304
 30
0.0
 11
110.463354
 21
587.336303
 31
0.0
  0
LINE
  5
FF
330
E3
100
AcDbEntity
  8
0
  6
Continuous
 62
     0
370
    30
100
AcDbLine
 10
71.46173
 20
587.336303
 30
0.0
 11
68.963364
 21
587.336304
 31
0.0
  0
LWPOLYLINE
  5
100
330
E3
100
AcDbEntity
  8
0
  6
Continuous
 62
     0
370
     0
100
AcDbPolyline
 90
       11
 70
     0
 43
0.0
 10
94.939018
 20
545.336365
 10
94.774689
 20
544.823608
 10
94.543785
 20
544.337769
 10
94.249802
 20
543.887695
 10
93.902229
 20
543.478943
 10
93.505302
 20
543.117126
 10
93.056
 20
542.809387
 10
92.563034
 20
542.562134
 10
92.041832
 20
542.381348
 10
91.50753
 20
542.272705
 10
90.963402
 20
542.236694
  0
LWPOLYLINE
  5
101
330
E3
100
AcDbEntity
  8
0
  6
Continuous
 62
     0
370
     0
100
AcDbPolyline
 90
       11
 70
     0
 43
0.0
 10
90.963402
 20
542.236694
 10
90.425026
 20
542.271912
 10
89.890633
 20
542.379761
 10
89.369179
 20
542.559814
 10
88.875801
 20
542.806396
 10
88.425957
 20
543.113525
 10
88.028496
 20
543.474792
 10
87.680344
 20
543.883118
 10
87.385696
 20
544.332764
 10
87.154175
 20
544.818359
 10
86.987823
 20
545.336365
  0
LINE
  5
102
330
E3
100
AcDbEntity
  8
0
  6
Continuous
 62
     0
370
    30
100
AcDbLine
 10
112.963364
 20
587.336304
 30
0.0
 11
112.963364
 21
537.836303
 31
0.0
  0
LINE
  5
103
330
E3
100
AcDbEntity
  8
0
  6
Continuous
 62
     0
370
    30
100
AcDbLine
 10
68.963364
 20
587.336304
 30
0.0
 11
68.963364
 21
537.836303
 31
0.0
  0
LINE
  5
104
330
E3
100
AcDbEntity
  8
0
  6
Continuous
 62
     0
370
    30
100
AcDbLine
 10
112.463752
 20
537.336692
 30
0.0
 11
112.963364
 21
537.836304
 31
0.0
  0
LINE
  5
105
330
E3
100
AcDbEntity
  8
0
  6
Continuous
 62
     0
370
    30
100
AcDbLine
 10
68.963364
 20
537.836304
 30
0.0
 11
69.462977
 21
537.336691
 31
0.0
  0
LINE
  5
106
330
E3
100
AcDbEntity
  8
0
  6
Continuous
 62
     0
370
    30
100
AcDbLine
 10
71.961472
 20
545.336293
 30
0.0
 11
71.941163
 21
545.336789
 31
0.0
  0
ARC
  5
107
330
E3
100
AcDbEntity
  8
0
  6
Continuous
 62
     0
370
    30
100
AcDbCircle
 10
109.963351
 20
545.836293
 30
0.0
 40
0.5000029309035021
100
AcDbArc
 50
270.078698
 51
359.999663
  0
LINE
  5
108
330
E3
100
AcDbEntity
  8
0
  6
Continuous
 62
     0
370
    30
100
AcDbLine
 10
110.463354
 20
545.836289
 30
0.0
 11
110.463354
 21
587.33629
 31
0.0
  0
LINE
  5
109
330
E3
100
AcDbEntity
  8
0
  6
Continuous
 62
     0
370
    30
100
AcDbLine
 10
70.963368
 20
590.336304
 30
0.0
 11
70.963368
 21
587.336304
 31
0.0
  0
LINE
  5
10A
330
E3
100
AcDbEntity
  8
0
  6
Continuous
 62
     0
370
    30
100
AcDbLine
 10
75.963364
 20
590.336285
 30
0.0
 11
75.963364
 21
587.336356
 31
0.0
  0
ARC
  5
10B
330
E3
100
AcDbEntity
  8
0
  6
Continuous
 62
     0
370
    30
100
AcDbCircle
 10
71.961733
 20
545.836359
 30
0.0
 40
0.5000029309069594
100
AcDbArc
 50
180.000337
 51
269.921302
  0
ARC
  5
10C
330
E3
100
AcDbEntity
  8
0
  6
Continuous
 62
     0
370
    30
100
AcDbCircle
 10
109.961728
 20
545.836359
 30
0.0
 40
0.5000029309041558
100
AcDbArc
 50
270.078698
 51
359.999663
  0
LINE
  5
10D
330
E3
100
AcDbEntity
  8
0
  6
Continuous
 62
     0
370
    30
100
AcDbLine
 10
71.46173
 20
545.836355
 30
0.0
 11
71.46173
 21
587.336356
 31
0.0
  0
LINE
  5
10E
330
E3
100
AcDbEntity
  8
0
  6
Continuous
 62
     0
370
    30
100
AcDbLine
 10
110.46173
 20
545.836355
 30
0.0
 11
110.46173
 21
587.336356
 31
0.0
  0
ENDBLK
  5
110
330
E3
100
AcDbEntity
  8
0
100
AcDbBlockEnd
  0
BLOCK
  5
18A
330
112
100
AcDbEntity
  8
0
100
AcDbBlockBegin
  2
c
 70
     0
 10
52.027172
 20
113.18148
 30
0.0
  3
c
  1

  0
ARC
  5
113
330
112
100
AcDbEntity
  8
0
  6
Continuous
 62
     0
370
    30
100
AcDbCircle
 10
321.412474
 20
1245.638325
 30
0.0
 40
4.000000000000178
100
AcDbArc
 50
180.0
 51
270.0
  0
LWPOLYLINE
  5
114
330
112
100
AcDbEntity
  8
0
  6
Continuous
 62
     0
370
     0
100
AcDbPolyline
 90
       34
 70
     0
 43
0.0
 10
317.412476
 20
1245.638306
 10
317.380768
 20
1245.615356
 10
317.28717
 20
1245.548462
 10
317.134125
 20
1245.440796
 10
316.924957
 20
1245.296997
 10
316.663971
 20
1245.123413
 10
316.355377
 20
1244.926392
 10
316.002686
 20
1244.712646
 10
315.609222
 20
1244.489014
 10
315.177246
 20
1244.261841
 10
314.708038
 20
1244.037354
 10
314.203094
 20
1243.82251
 10
313.664124
 20
1243.62561
 10
313.093414
 20
1243.455078
 10
312.495239
 20
1243.317749
 10
311.874878
 20
1243.220093
 10
311.240112
 20
1243.168335
 10
310.600433
 20
1243.167725
 10
309.965393
 20
1243.218262
 10
309.344543
 20
1243.314697
 10
308.745819
 20
1243.451172
 10
308.17453
 20
1243.621094
 10
307.634979
 20
1243.817383
 10
307.129242
 20
1244.031738
 10
306.658936
 20
1244.255859
 10
306.225494
 20
1244.483154
 10
305.830322
 20
1244.70752
 10
305.476074
 20
1244.921997
 10
305.166779
 20
1245.119263
 10
304.90625
 20
1245.292236
 10
304.697388
 20
1245.435425
 10
304.542999
 20
1245.544067
 10
304.446594
 20
1245.613403
 10
304.412476
 20
1245.638306
  0
LWPOLYLINE
  5
115
330
112
100
AcDbEntity
  8
0
  6
Continuous
 62
     0
370
     0
100
AcDbPolyline
 90
       43
 70
     0
 43
0.0
 10
300.412476
 20
1241.638306
 10
300.4505
 20
1241.624023
 10
300.56192
 20
1241.582764
 10
300.742004
 20
1241.517334
 10
300.986023
 20
1241.430298
 10
301.289886
 20
1241.324341
 10
301.649719
 20
1241.202515
 10
302.061279
 20
1241.067505
 10
302.519318
 20
1240.923218
 10
303.018219
 20
1240.773438
 10
303.552856
 20
1240.621948
 10
304.11972
 20
1240.47168
 10
304.715668
 20
1240.325439
 10
305.337646
 20
1240.186157
 10
305.982727
 20
1240.056396
 10
306.648041
 20
1239.938843
 10
307.330719
 20
1239.835693
 10
308.027954
 20
1239.748535
 10
308.736847
 20
1239.678467
 10
309.45462
 20
1239.626831
 10
310.178284
 20
1239.594727
 10
310.904907
 20
1239.583618
 10
311.631561
 20
1239.594238
 10
312.355316
 20
1239.625854
 10
313.073181
 20
1239.677124
 10
313.782257
 20
1239.746948
 10
314.479706
 20
1239.833862
 10
315.16272
 20
1239.93689
 10
315.828491
 20
1240.054443
 10
316.474152
 20
1240.184082
 10
317.096741
 20
1240.323242
 10
317.693359
 20
1240.469116
 10
318.260773
 20
1240.619019
 10
318.795685
 20
1240.77002
 10
319.294647
 20
1240.919189
 10
319.753113
 20
1241.063232
 10
320.16626
 20
1241.198608
 10
320.529114
 20
1241.321899
 10
320.836395
 20
1241.429443
 10
321.082733
 20
1241.5177
 10
321.263062
 20
1241.583252
 10
321.373932
 20
1241.624023
 10
321.412476
 20
1241.638306
  0
LINE
  5
116
330
112
100
AcDbEntity
  8
0
  6
Continuous
 62
     0
370
    30
100
AcDbLine
 10
317.412474
 20
1245.638325
 30
0.0
 11
317.412474
 21
1257.138325
 31
0.0
  0
LWPOLYLINE
  5
117
330
112
100
AcDbEntity
  8
0
  6
Continuous
 62
     0
370
     0
100
AcDbPolyline
 90
       30
 70
     0
 43
0.0
 10
317.412476
 20
1257.138306
 10
317.380371
 20
1257.138306
 10
317.279633
 20
1257.138306
 10
317.104858
 20
1257.138306
 10
316.852661
 20
1257.138306
 10
316.522339
 20
1257.138306
 10
316.116089
 20
1257.138306
 10
315.639282
 20
1257.138306
 10
315.100189
 20
1257.138306
 10
314.509583
 20
1257.138306
 10
313.879944
 20
1257.138306
 10
313.224701
 20
1257.138306
 10
312.557312
 20
1257.138306
 10
311.890503
 20
1257.138306
 10
311.235565
 20
1257.138306
 10
310.595734
 20
1257.138306
 10
309.940979
 20
1257.138306
 10
309.274231
 20
1257.138306
 10
308.606781
 20
1257.138306
 10
307.951355
 20
1257.138306
 10
307.321411
 20
1257.138306
 10
306.730347
 20
1257.138306
 10
306.190704
 20
1257.138306
 10
305.713226
 20
1257.138306
 10
305.306274
 20
1257.138306
 10
304.975159
 20
1257.138306
 10
304.722198
 20
1257.138306
 10
304.546661
 20
1257.138306
 10
304.445221
 20
1257.138306
 10
304.412476
 20
1257.138306
  0
LWPOLYLINE
  5
118
330
112
100
AcDbEntity
  8
0
  6
Continuous
 62
     0
370
    30
100
AcDbPolyline
 90
       29
 70
     0
 43
0.0
 10
304.912476
 20
1257.638306
 10
304.950134
 20
1257.638306
 10
305.062561
 20
1257.638306
 10
305.248322
 20
1257.638306
 10
305.505341
 20
1257.638306
 10
305.830017
 20
1257.638306
 10
306.218445
 20
1257.638306
 10
306.665924
 20
1257.638306
 10
307.166534
 20
1257.638306
 10
307.714203
 20
1257.638306
 10
308.302032
 20
1257.638306
 10
308.922516
 20
1257.638306
 10
309.568024
 20
1257.638306
 10
310.230408
 20
1257.638306
 10
310.901306
 20
1257.638306
 10
311.572357
 20
1257.638306
 10
312.235168
 20
1257.638306
 10
312.881348
 20
1257.638306
 10
313.502808
 20
1257.638306
 10
314.091827
 20
1257.638306
 10
314.640961
 20
1257.638306
 10
315.143219
 20
1257.638306
 10
315.59256
 20
1257.638306
 10
315.983032
 20
1257.638306
 10
316.309875
 20
1257.638306
 10
316.569214
 20
1257.638306
 10
316.757385
 20
1257.638306
 10
316.872284
 20
1257.638306
 10
316.912476
 20
1257.638306
  0
LINE
  5
119
330
112
100
AcDbEntity
  8
0
  6
Continuous
 62
     0
370
    30
100
AcDbLine
 10
283.912474
 20
1202.638325
 30
0.0
 11
309.012474
 21
1202.638325
 31
0.0
  0
LWPOLYLINE
  5
11A
330
112
100
AcDbEntity
  8
0
  6
Continuous
 62
     0
370
     0
100
AcDbPolyline
 90
       27
 70
     0
 43
0.0
 10
309.012482
 20
1202.638306
 10
309.050598
 20
1202.648071
 10
309.161896
 20
1202.676758
 10
309.346283
 20
1202.722778
 10
309.599152
 20
1202.783203
 10
309.914185
 20
1202.855103
 10
310.292664
 20
1202.933716
 10
310.728882
 20
1203.014648
 10
311.210846
 20
1203.09436
 10
311.73407
 20
1203.167725
 10
312.294556
 20
1203.229736
 10
312.882965
 20
1203.276733
 10
313.490021
 20
1203.306641
 10
314.106598
 20
1203.317261
 10
314.723267
 20
1203.307007
 10
315.330597
 20
1203.277466
 10
315.919434
 20
1203.230713
 10
316.48056
 20
1203.168945
 10
317.004517
 20
1203.095825
 10
317.487274
 20
1203.016235
 10
317.924469
 20
1202.935181
 10
318.304169
 20
1202.856567
 10
318.620361
 20
1202.784546
 10
318.874481
 20
1202.723755
 10
319.060181
 20
1202.67749
 10
319.172882
 20
1202.648438
 10
319.212463
 20
1202.638306
  0
LINE
  5
11B
330
112
100
AcDbEntity
  8
0
  6
Continuous
 62
     0
370
    30
100
AcDbLine
 10
319.212474
 20
1202.638325
 30
0.0
 11
325.412474
 21
1202.638325
 31
0.0
  0
LINE
  5
11C
330
112
100
AcDbEntity
  8
0
  6
Continuous
 62
     0
370
     0
100
AcDbLine
 10
325.412474
 20
1202.638325
 30
0.0
 11
325.412474
 21
1241.638325
 31
0.0
  0
LINE
  5
11D
330
112
100
AcDbEntity
  8
0
  6
Continuous
 62
     0
370
    30
100
AcDbLine
 10
283.912474
 20
1241.638325
 30
0.0
 11
283.912474
 21
1202.638325
 31
0.0
  0
LWPOLYLINE
  5
11E
330
112
100
AcDbEntity
  8
0
  6
Continuous
 62
     0
370
    30
100
AcDbPolyline
 90
       50
 70
     0
 43
0.0
 10
325.912476
 20
1241.138306
 10
325.912476
 20
1241.099365
 10
325.912476
 20
1240.9823
 10
325.912476
 20
1240.788086
 10
325.912476
 20
1240.517456
 10
325.912476
 20
1240.171265
 10
325.912476
 20
1239.75061
 10
325.912476
 20
1239.25769
 10
325.912476
 20
1238.694702
 10
325.912476
 20
1238.063965
 10
325.912476
 20
1237.367676
 10
325.912476
 20
1236.608521
 10
325.912476
 20
1235.790039
 10
325.912476
 20
1234.915527
 10
325.912476
 20
1233.98877
 10
325.912476
 20
1233.013306
 10
325.912476
 20
1231.99292
 10
325.912476
 20
1230.932129
 10
325.912476
 20
1229.835327
 10
325.912476
 20
1228.707031
 10
325.912476
 20
1227.551636
 10
325.912476
 20
1226.374023
 10
325.912476
 20
1225.178833
 10
325.912476
 20
1223.971313
 10
325.912476
 20
1222.756348
 10
325.912476
 20
1221.538818
 10
325.912476
 20
1220.32373
 10
325.912476
 20
1219.115967
 10
325.912476
 20
1217.920654
 10
325.912476
 20
1216.742676
 10
325.912476
 20
1215.587036
 10
325.912476
 20
1214.458252
 10
325.912476
 20
1213.360962
 10
325.912476
 20
1212.299561
 10
325.912476
 20
1211.278564
 10
325.912476
 20
1210.302246
 10
325.912476
 20
1209.374756
 10
325.912476
 20
1208.499512
 10
325.912476
 20
1207.680054
 10
325.912476
 20
1206.920044
 10
325.912476
 20
1206.222778
 10
325.912476
 20
1205.591064
 10
325.912476
 20
1205.026978
 10
325.912476
 20
1204.532959
 10
325.912476
 20
1204.111328
 10
325.912476
 20
1203.763916
 10
325.912476
 20
1203.492065
 10
325.912476
 20
1203.296631
 10
325.912476
 20
1203.178467
 10
325.912476
 20
1203.138306
  0
ARC
  5
11F
330
112
100
AcDbEntity
  8
0
  6
Continuous
 62
     0
370
    30
100
AcDbCircle
 10
325.412474
 20
1203.138325
 30
0.0
 40
0.5000000000189999
100
AcDbArc
 50
270.0
 51
360.0
  0
ARC
  5
120
330
112
100
AcDbEntity
  8
0
  6
Continuous
 62
     0
370
    30
100
AcDbCircle
 10
316.912474
 20
1257.138325
 30
0.0
 40
0.5000000000470133
100
AcDbArc
 50
0.0
 51
89.999921
  0
LINE
  5
121
330
112
100
AcDbEntity
  8
0
  6
Continuous
 62
     0
370
    30
100
AcDbLine
 10
280.912546
 20
728.141029
 30
0.0
 11
278.912546
 21
728.141029
 31
0.0
  0
LINE
  5
122
330
112
100
AcDbEntity
  8
0
  6
Continuous
 62
     0
370
    30
100
AcDbLine
 10
278.912546
 20
1296.141029
 30
0.0
 11
280.912546
 21
1296.141029
 31
0.0
  0
LINE
  5
123
330
112
100
AcDbEntity
  8
0
  6
Continuous
 62
     0
370
    30
100
AcDbLine
 10
278.912546
 20
1296.141029
 30
0.0
 11
278.912546
 21
728.141029
 31
0.0
  0
LINE
  5
124
330
112
100
AcDbEntity
  8
0
  6
Continuous
 62
     0
370
    30
100
AcDbLine
 10
280.912546
 20
728.141029
 30
0.0
 11
280.912546
 21
1296.141029
 31
0.0
  0
ARC
  5
125
330
112
100
AcDbEntity
  8
0
  6
Continuous
 62
     0
370
    30
100
AcDbCircle
 10
321.412544
 20
1045.64103
 30
0.0
 40
3.99999999999833
100
AcDbArc
 50
180.0
 51
270.0
  0
LWPOLYLINE
  5
126
330
112
100
AcDbEntity
  8
0
  6
Continuous
 62
     0
370
     0
100
AcDbPolyline
 90
       34
 70
     0
 43
0.0
 10
317.412537
 20
1045.640991
 10
317.380829
 20
1045.618042
 10
317.287231
 20
1045.551147
 10
317.134186
 20
1045.443481
 10
316.925018
 20
1045.299683
 10
316.664032
 20
1045.126099
 10
316.355438
 20
1044.929077
 10
316.002747
 20
1044.715454
 10
315.609283
 20
1044.491699
 10
315.177307
 20
1044.264526
 10
314.70813
 20
1044.040039
 10
314.203156
 20
1043.825195
 10
313.664215
 20
1043.628296
 10
313.093506
 20
1043.457764
 10
312.495331
 20
1043.320435
 10
311.874939
 20
1043.2229
 10
311.240173
 20
1043.171021
 10
310.600494
 20
1043.17041
 10
309.965454
 20
1043.220947
 10
309.344635
 20
1043.317505
 10
308.74588
 20
1043.453979
 10
308.174591
 20
1043.623901
 10
307.63504
 20
1043.820068
 10
307.129303
 20
1044.034424
 10
306.658997
 20
1044.258667
 10
306.225586
 20
1044.48584
 10
305.830414
 20
1044.710205
 10
305.476166
 20
1044.924683
 10
305.16684
 20
1045.121948
 10
304.906311
 20
1045.294922
 10
304.697449
 20
1045.43811
 10
304.54306
 20
1045.546875
 10
304.446655
 20
1045.616089
 10
304.412537
 20
1045.640991
  0
LWPOLYLINE
  5
127
330
112
100
AcDbEntity
  8
0
  6
Continuous
 62
     0
370
     0
100
AcDbPolyline
 90
       43
 70
     0
 43
0.0
 10
300.412537
 20
1041.640991
 10
300.450562
 20
1041.626709
 10
300.561981
 20
1041.585571
 10
300.742065
 20
1041.52002
 10
300.986084
 20
1041.432983
 10
301.289948
 20
1041.327148
 10
301.64978
 20
1041.2052
 10
302.061371
 20
1041.070312
 10
302.519409
 20
1040.926025
 10
303.01828
 20
1040.776245
 10
303.552917
 20
1040.624634
 10
304.119781
 20
1040.474365
 10
304.715729
 20
1040.328125
 10
305.337708
 20
1040.188843
 10
305.982788
 20
1040.059082
 10
306.648102
 20
1039.941528
 10
307.33078
 20
1039.838379
 10
308.028015
 20
1039.751221
 10
308.736938
 20
1039.681152
 10
309.454681
 20
1039.629517
 10
310.178345
 20
1039.597534
 10
310.904968
 20
1039.586304
 10
311.631653
 20
1039.596924
 10
312.355377
 20
1039.62854
 10
313.073273
 20
1039.67981
 10
313.782349
 20
1039.749634
 10
314.479797
 20
1039.83667
 10
315.162811
 20
1039.939575
 10
315.828583
 20
1040.057129
 10
316.474213
 20
1040.186768
 10
317.096802
 20
1040.325928
 10
317.69342
 20
1040.471802
 10
318.260834
 20
1040.621704
 10
318.795776
 20
1040.772705
 10
319.294739
 20
1040.921875
 10
319.753204
 20
1041.065918
 10
320.166321
 20
1041.201294
 10
320.529175
 20
1041.324585
 10
320.836456
 20
1041.432129
 10
321.082794
 20
1041.520386
 10
321.263153
 20
1041.585938
 10
321.373993
 20
1041.626709
 10
321.412537
 20
1041.640991
  0
LINE
  5
128
330
112
100
AcDbEntity
  8
0
  6
Continuous
 62
     0
370
    30
100
AcDbLine
 10
317.412544
 20
1045.64103
 30
0.0
 11
317.412544
 21
1057.14103
 31
0.0
  0
LWPOLYLINE
  5
129
330
112
100
AcDbEntity
  8
0
  6
Continuous
 62
     0
370
     0
100
AcDbPolyline
 90
       30
 70
     0
 43
0.0
 10
317.412537
 20
1057.140991
 10
317.380432
 20
1057.140991
 10
317.279724
 20
1057.140991
 10
317.104919
 20
1057.140991
 10
316.852722
 20
1057.140991
 10
316.5224
 20
1057.140991
 10
316.11615
 20
1057.140991
 10
315.639343
 20
1057.140991
 10
315.10025
 20
1057.140991
 10
314.509644
 20
1057.140991
 10
313.880005
 20
1057.140991
 10
313.224762
 20
1057.140991
 10
312.557373
 20
1057.140991
 10
311.890564
 20
1057.140991
 10
311.235626
 20
1057.140991
 10
310.595825
 20
1057.140991
 10
309.94104
 20
1057.140991
 10
309.274292
 20
1057.140991
 10
308.606873
 20
1057.140991
 10
307.951447
 20
1057.140991
 10
307.321472
 20
1057.140991
 10
306.730408
 20
1057.140991
 10
306.190765
 20
1057.140991
 10
305.713318
 20
1057.140991
 10
305.306335
 20
1057.140991
 10
304.97522
 20
1057.140991
 10
304.72226
 20
1057.140991
 10
304.546722
 20
1057.140991
 10
304.445282
 20
1057.140991
 10
304.412537
 20
1057.140991
  0
LWPOLYLINE
  5
12A
330
112
100
AcDbEntity
  8
0
  6
Continuous
 62
     0
370
    30
100
AcDbPolyline
 90
       29
 70
     0
 43
0.0
 10
304.912537
 20
1057.640991
 10
304.950195
 20
1057.640991
 10
305.062622
 20
1057.640991
 10
305.248383
 20
1057.640991
 10
305.505432
 20
1057.640991
 10
305.830078
 20
1057.640991
 10
306.218506
 20
1057.640991
 10
306.666016
 20
1057.640991
 10
307.166595
 20
1057.640991
 10
307.714264
 20
1057.640991
 10
308.302094
 20
1057.640991
 10
308.922577
 20
1057.640991
 10
309.568085
 20
1057.640991
 10
310.230469
 20
1057.640991
 10
310.901367
 20
1057.640991
 10
311.572418
 20
1057.640991
 10
312.235229
 20
1057.640991
 10
312.881439
 20
1057.640991
 10
313.502869
 20
1057.640991
 10
314.091919
 20
1057.640991
 10
314.641022
 20
1057.640991
 10
315.14328
 20
1057.640991
 10
315.592621
 20
1057.640991
 10
315.983124
 20
1057.640991
 10
316.309967
 20
1057.640991
 10
316.569275
 20
1057.640991
 10
316.757477
 20
1057.640991
 10
316.872345
 20
1057.640991
 10
316.912537
 20
1057.640991
  0
LINE
  5
12B
330
112
100
AcDbEntity
  8
0
  6
Continuous
 62
     0
370
    30
100
AcDbLine
 10
283.912544
 20
1002.64103
 30
0.0
 11
309.012544
 21
1002.64103
 31
0.0
  0
LWPOLYLINE
  5
12C
330
112
100
AcDbEntity
  8
0
  6
Continuous
 62
     0
370
     0
100
AcDbPolyline
 90
       27
 70
     0
 43
0.0
 10
309.012543
 20
1002.641052
 10
309.050659
 20
1002.650818
 10
309.161987
 20
1002.679504
 10
309.346344
 20
1002.725464
 10
309.599213
 20
1002.78595
 10
309.914246
 20
1002.857788
 10
310.292755
 20
1002.936401
 10
310.728973
 20
1003.017395
 10
311.210907
 20
1003.097046
 10
311.734161
 20
1003.170349
 10
312.294647
 20
1003.232422
 10
312.883057
 20
1003.27948
 10
313.490082
 20
1003.309326
 10
314.106689
 20
1003.320007
 10
314.723328
 20
1003.309692
 10
315.330658
 20
1003.280212
 10
315.919525
 20
1003.233459
 10
316.480621
 20
1003.171692
 10
317.004608
 20
1003.098511
 10
317.487335
 20
1003.018921
 10
317.92453
 20
1002.937927
 10
318.30423
 20
1002.859253
 10
318.620453
 20
1002.787231
 10
318.874542
 20
1002.72644
 10
319.060242
 20
1002.680237
 10
319.172974
 20
1002.651184
 10
319.212555
 20
1002.641052
  0
LINE
  5
12D
330
112
100
AcDbEntity
  8
0
  6
Continuous
 62
     0
370
    30
100
AcDbLine
 10
319.212544
 20
1002.64103
 30
0.0
 11
325.412544
 21
1002.64103
 31
0.0
  0
LINE
  5
12E
330
112
100
AcDbEntity
  8
0
  6
Continuous
 62
     0
370
     0
100
AcDbLine
 10
325.412544
 20
1002.64103
 30
0.0
 11
325.412544
 21
1041.64103
 31
0.0
  0
LINE
  5
12F
330
112
100
AcDbEntity
  8
0
  6
Continuous
 62
     0
370
    30
100
AcDbLine
 10
283.912544
 20
1041.64103
 30
0.0
 11
283.912544
 21
1002.64103
 31
0.0
  0
LWPOLYLINE
  5
130
330
112
100
AcDbEntity
  8
0
  6
Continuous
 62
     0
370
    30
100
AcDbPolyline
 90
       50
 70
     0
 43
0.0
 10
325.912537
 20
1041.140991
 10
325.912537
 20
1041.102051
 10
325.912537
 20
1040.984985
 10
325.912537
 20
1040.790771
 10
325.912537
 20
1040.520142
 10
325.912537
 20
1040.17395
 10
325.912537
 20
1039.753296
 10
325.912537
 20
1039.260376
 10
325.912537
 20
1038.697388
 10
325.912537
 20
1038.06665
 10
325.912537
 20
1037.370361
 10
325.912537
 20
1036.611206
 10
325.912537
 20
1035.792725
 10
325.912537
 20
1034.918213
 10
325.912537
 20
1033.991455
 10
325.912537
 20
1033.015991
 10
325.912537
 20
1031.995605
 10
325.912537
 20
1030.934814
 10
325.912537
 20
1029.838013
 10
325.912537
 20
1028.709717
 10
325.912537
 20
1027.554321
 10
325.912537
 20
1026.376709
 10
325.912537
 20
1025.181641
 10
325.912537
 20
1023.97406
 10
325.912537
 20
1022.759033
 10
325.912537
 20
1021.541504
 10
325.912537
 20
1020.326416
 10
325.912537
 20
1019.118713
 10
325.912537
 20
1017.923401
 10
325.912537
 20
1016.745422
 10
325.912537
 20
1015.589722
 10
325.912537
 20
1014.460938
 10
325.912537
 20
1013.363647
 10
325.912537
 20
1012.302246
 10
325.912537
 20
1011.281189
 10
325.912537
 20
1010.304993
 10
325.912537
 20
1009.377502
 10
325.912537
 20
1008.502258
 10
325.912537
 20
1007.6828
 10
325.912537
 20
1006.922729
 10
325.912537
 20
1006.225525
 10
325.912537
 20
1005.59375
 10
325.912537
 20
1005.029724
 10
325.912537
 20
1004.535706
 10
325.912537
 20
1004.113953
 10
325.912537
 20
1003.766602
 10
325.912537
 20
1003.494812
 10
325.912537
 20
1003.299377
 10
325.912537
 20
1003.181213
 10
325.912537
 20
1003.141052
  0
ARC
  5
131
330
112
100
AcDbEntity
  8
0
  6
Continuous
 62
     0
370
    30
100
AcDbCircle
 10
325.412544
 20
1003.14103
 30
0.0
 40
0.499999999994877
100
AcDbArc
 50
270.0
 51
0.0
  0
ARC
  5
132
330
112
100
AcDbEntity
  8
0
  6
Continuous
 62
     0
370
    30
100
AcDbCircle
 10
316.912544
 20
1057.14103
 30
0.0
 40
0.5000000000181509
100
AcDbArc
 50
0.0
 51
89.999921
  0
ARC
  5
133
330
112
100
AcDbEntity
  8
0
  6
Continuous
 62
     0
370
    30
100
AcDbCircle
 10
321.412544
 20
1145.641033
 30
0.0
 40
3.99999999999514
100
AcDbArc
 50
180.0
 51
270.0
  0
LWPOLYLINE
  5
134
330
112
100
AcDbEntity
  8
0
  6
Continuous
 62
     0
370
     0
100
AcDbPolyline
 90
       34
 70
     0
 43
0.0
 10
317.412537
 20
1145.640991
 10
317.380829
 20
1145.618042
 10
317.287231
 20
1145.551147
 10
317.134186
 20
1145.443481
 10
316.925018
 20
1145.299683
 10
316.664032
 20
1145.126099
 10
316.355438
 20
1144.929077
 10
316.002747
 20
1144.715454
 10
315.609283
 20
1144.491699
 10
315.177307
 20
1144.264526
 10
314.70813
 20
1144.040039
 10
314.203156
 20
1143.825195
 10
313.664215
 20
1143.628296
 10
313.093506
 20
1143.457764
 10
312.495331
 20
1143.320435
 10
311.874939
 20
1143.2229
 10
311.240173
 20
1143.171021
 10
310.600494
 20
1143.17041
 10
309.965454
 20
1143.220947
 10
309.344635
 20
1143.317505
 10
308.74588
 20
1143.453979
 10
308.174591
 20
1143.623901
 10
307.63504
 20
1143.820068
 10
307.129303
 20
1144.034424
 10
306.658997
 20
1144.258667
 10
306.225586
 20
1144.48584
 10
305.830414
 20
1144.710205
 10
305.476166
 20
1144.924683
 10
305.16684
 20
1145.121948
 10
304.906311
 20
1145.294922
 10
304.697449
 20
1145.43811
 10
304.54306
 20
1145.546875
 10
304.446655
 20
1145.616089
 10
304.412537
 20
1145.640991
  0
LWPOLYLINE
  5
135
330
112
100
AcDbEntity
  8
0
  6
Continuous
 62
     0
370
     0
100
AcDbPolyline
 90
       43
 70
     0
 43
0.0
 10
300.412537
 20
1141.640991
 10
300.450562
 20
1141.626709
 10
300.561981
 20
1141.585571
 10
300.742065
 20
1141.52002
 10
300.986084
 20
1141.432983
 10
301.289948
 20
1141.327148
 10
301.64978
 20
1141.2052
 10
302.061371
 20
1141.070312
 10
302.519409
 20
1140.926025
 10
303.01828
 20
1140.776245
 10
303.552917
 20
1140.624634
 10
304.119781
 20
1140.474365
 10
304.715729
 20
1140.328247
 10
305.337708
 20
1140.188843
 10
305.982788
 20
1140.059082
 10
306.648102
 20
1139.941528
 10
307.33078
 20
1139.838379
 10
308.028015
 20
1139.751221
 10
308.736938
 20
1139.681152
 10
309.454681
 20
1139.629517
 10
310.178345
 20
1139.597534
 10
310.904968
 20
1139.586304
 10
311.631653
 20
1139.596924
 10
312.355377
 20
1139.62854
 10
313.073273
 20
1139.67981
 10
313.782349
 20
1139.749634
 10
314.479797
 20
1139.83667
 10
315.162811
 20
1139.939575
 10
315.828583
 20
1140.057129
 10
316.474213
 20
1140.186768
 10
317.096802
 20
1140.325928
 10
317.69342
 20
1140.471802
 10
318.260834
 20
1140.621704
 10
318.795776
 20
1140.772705
 10
319.294739
 20
1140.921875
 10
319.753204
 20
1141.065918
 10
320.166321
 20
1141.201294
 10
320.529175
 20
1141.324585
 10
320.836456
 20
1141.432129
 10
321.082794
 20
1141.520386
 10
321.263153
 20
1141.585938
 10
321.373993
 20
1141.626709
 10
321.412537
 20
1141.640991
  0
LINE
  5
136
330
112
100
AcDbEntity
  8
0
  6
Continuous
 62
     0
370
    30
100
AcDbLine
 10
317.412544
 20
1145.641033
 30
0.0
 11
317.412544
 21
1157.141033
 31
0.0
  0
LWPOLYLINE
  5
137
330
112
100
AcDbEntity
  8
0
  6
Continuous
 62
     0
370
     0
100
AcDbPolyline
 90
       30
 70
     0
 43
0.0
 10
317.412537
 20
1157.140991
 10
317.380432
 20
1157.140991
 10
317.279724
 20
1157.140991
 10
317.104919
 20
1157.140991
 10
316.852722
 20
1157.140991
 10
316.5224
 20
1157.140991
 10
316.11615
 20
1157.140991
 10
315.639343
 20
1157.140991
 10
315.10025
 20
1157.140991
 10
314.509644
 20
1157.140991
 10
313.880005
 20
1157.140991
 10
313.224762
 20
1157.140991
 10
312.557373
 20
1157.140991
 10
311.890564
 20
1157.140991
 10
311.235626
 20
1157.140991
 10
310.595825
 20
1157.140991
 10
309.94104
 20
1157.140991
 10
309.274292
 20
1157.140991
 10
308.606873
 20
1157.140991
 10
307.951447
 20
1157.140991
 10
307.321472
 20
1157.140991
 10
306.730408
 20
1157.140991
 10
306.190765
 20
1157.140991
 10
305.713318
 20
1157.140991
 10
305.306335
 20
1157.140991
 10
304.97522
 20
1157.140991
 10
304.72226
 20
1157.140991
 10
304.546722
 20
1157.140991
 10
304.445282
 20
1157.140991
 10
304.412537
 20
1157.140991
  0
LWPOLYLINE
  5
138
330
112
100
AcDbEntity
  8
0
  6
Continuous
 62
     0
370
    30
100
AcDbPolyline
 90
       29
 70
     0
 43
0.0
 10
304.912537
 20
1157.640991
 10
304.950195
 20
1157.640991
 10
305.062622
 20
1157.640991
 10
305.248383
 20
1157.640991
 10
305.505432
 20
1157.640991
 10
305.830078
 20
1157.640991
 10
306.218506
 20
1157.640991
 10
306.666016
 20
1157.640991
 10
307.166595
 20
1157.640991
 10
307.714264
 20
1157.640991
 10
308.302094
 20
1157.640991
 10
308.922577
 20
1157.640991
 10
309.568085
 20
1157.640991
 10
310.230469
 20
1157.640991
 10
310.901367
 20
1157.640991
 10
311.572418
 20
1157.640991
 10
312.235229
 20
1157.640991
 10
312.881439
 20
1157.640991
 10
313.502869
 20
1157.640991
 10
314.091919
 20
1157.640991
 10
314.641022
 20
1157.640991
 10
315.14328
 20
1157.640991
 10
315.592621
 20
1157.640991
 10
315.983124
 20
1157.640991
 10
316.309967
 20
1157.640991
 10
316.569275
 20
1157.640991
 10
316.757477
 20
1157.640991
 10
316.872345
 20
1157.640991
 10
316.912537
 20
1157.640991
  0
LINE
  5
139
330
112
100
AcDbEntity
  8
0
  6
Continuous
 62
     0
370
    30
100
AcDbLine
 10
283.912544
 20
1102.641033
 30
0.0
 11
309.012544
 21
1102.641033
 31
0.0
  0
LWPOLYLINE
  5
13A
330
112
100
AcDbEntity
  8
0
  6
Continuous
 62
     0
370
     0
100
AcDbPolyline
 90
       27
 70
     0
 43
0.0
 10
309.012543
 20
1102.640991
 10
309.050659
 20
1102.650757
 10
309.161987
 20
1102.679565
 10
309.346344
 20
1102.725464
 10
309.599213
 20
1102.785889
 10
309.914246
 20
1102.857788
 10
310.292755
 20
1102.936401
 10
310.728973
 20
1103.017456
 10
311.210907
 20
1103.097046
 10
311.734161
 20
1103.17041
 10
312.294647
 20
1103.232422
 10
312.883057
 20
1103.279541
 10
313.490082
 20
1103.309326
 10
314.106689
 20
1103.319946
 10
314.723328
 20
1103.309692
 10
315.330658
 20
1103.280273
 10
315.919525
 20
1103.233398
 10
316.480621
 20
1103.171631
 10
317.004608
 20
1103.098511
 10
317.487335
 20
1103.018921
 10
317.92453
 20
1102.937988
 10
318.30423
 20
1102.859253
 10
318.620453
 20
1102.787231
 10
318.874542
 20
1102.72644
 10
319.060242
 20
1102.680298
 10
319.172974
 20
1102.651123
 10
319.212555
 20
1102.640991
  0
LINE
  5
13B
330
112
100
AcDbEntity
  8
0
  6
Continuous
 62
     0
370
    30
100
AcDbLine
 10
319.212544
 20
1102.641033
 30
0.0
 11
325.412544
 21
1102.641033
 31
0.0
  0
LINE
  5
13C
330
112
100
AcDbEntity
  8
0
  6
Continuous
 62
     0
370
     0
100
AcDbLine
 10
325.412544
 20
1102.641033
 30
0.0
 11
325.412544
 21
1141.641033
 31
0.0
  0
LINE
  5
13D
330
112
100
AcDbEntity
  8
0
  6
Continuous
 62
     0
370
    30
100
AcDbLine
 10
283.912544
 20
1141.641033
 30
0.0
 11
283.912544
 21
1102.641033
 31
0.0
  0
LWPOLYLINE
  5
13E
330
112
100
AcDbEntity
  8
0
  6
Continuous
 62
     0
370
    30
100
AcDbPolyline
 90
       50
 70
     0
 43
0.0
 10
325.912537
 20
1141.140991
 10
325.912537
 20
1141.102051
 10
325.912537
 20
1140.984985
 10
325.912537
 20
1140.790771
 10
325.912537
 20
1140.520142
 10
325.912537
 20
1140.17395
 10
325.912537
 20
1139.753296
 10
325.912537
 20
1139.260376
 10
325.912537
 20
1138.697388
 10
325.912537
 20
1138.06665
 10
325.912537
 20
1137.370361
 10
325.912537
 20
1136.611206
 10
325.912537
 20
1135.792725
 10
325.912537
 20
1134.918213
 10
325.912537
 20
1133.991577
 10
325.912537
 20
1133.015991
 10
325.912537
 20
1131.995605
 10
325.912537
 20
1130.934814
 10
325.912537
 20
1129.838013
 10
325.912537
 20
1128.709717
 10
325.912537
 20
1127.554321
 10
325.912537
 20
1126.376709
 10
325.912537
 20
1125.181641
 10
325.912537
 20
1123.973999
 10
325.912537
 20
1122.759033
 10
325.912537
 20
1121.541504
 10
325.912537
 20
1120.326416
 10
325.912537
 20
1119.118774
 10
325.912537
 20
1117.923462
 10
325.912537
 20
1116.745483
 10
325.912537
 20
1115.589722
 10
325.912537
 20
1114.460938
 10
325.912537
 20
1113.363647
 10
325.912537
 20
1112.302246
 10
325.912537
 20
1111.28125
 10
325.912537
 20
1110.305054
 10
325.912537
 20
1109.377441
 10
325.912537
 20
1108.502197
 10
325.912537
 20
1107.682861
 10
325.912537
 20
1106.922729
 10
325.912537
 20
1106.225464
 10
325.912537
 20
1105.59375
 10
325.912537
 20
1105.029785
 10
325.912537
 20
1104.535767
 10
325.912537
 20
1104.114014
 10
325.912537
 20
1103.766602
 10
325.912537
 20
1103.494873
 10
325.912537
 20
1103.299438
 10
325.912537
 20
1103.181152
 10
325.912537
 20
1103.140991
  0
ARC
  5
13F
330
112
100
AcDbEntity
  8
0
  6
Continuous
 62
     0
370
    30
100
AcDbCircle
 10
325.412544
 20
1103.141033
 30
0.0
 40
0.5000000000144524
100
AcDbArc
 50
270.0
 51
360.0
  0
ARC
  5
140
330
112
100
AcDbEntity
  8
0
  6
Continuous
 62
     0
370
    30
100
AcDbCircle
 10
316.912544
 20
1157.141033
 30
0.0
 40
0.5000000000137385
100
AcDbArc
 50
0.0
 51
89.999921
  0
ARC
  5
141
330
112
100
AcDbEntity
  8
0
  6
Continuous
 62
     0
370
    30
100
AcDbCircle
 10
321.412544
 20
945.641031
 30
0.0
 40
4.000000000001414
100
AcDbArc
 50
180.0
 51
270.0
  0
LWPOLYLINE
  5
142
330
112
100
AcDbEntity
  8
0
  6
Continuous
 62
     0
370
     0
100
AcDbPolyline
 90
       34
 70
     0
 43
0.0
 10
317.412537
 20
945.641052
 10
317.380829
 20
945.618042
 10
317.287231
 20
945.551147
 10
317.134186
 20
945.443542
 10
316.925018
 20
945.299744
 10
316.664032
 20
945.126099
 10
316.355438
 20
944.929077
 10
316.002747
 20
944.715393
 10
315.609283
 20
944.491699
 10
315.177307
 20
944.264526
 10
314.70813
 20
944.040039
 10
314.203156
 20
943.825256
 10
313.664215
 20
943.628357
 10
313.093506
 20
943.457703
 10
312.495331
 20
943.320374
 10
311.874939
 20
943.222839
 10
311.240173
 20
943.171082
 10
310.600494
 20
943.17041
 10
309.965454
 20
943.220947
 10
309.344635
 20
943.317444
 10
308.74588
 20
943.453918
 10
308.174591
 20
943.62384
 10
307.63504
 20
943.820129
 10
307.129303
 20
944.034485
 10
306.658997
 20
944.258606
 10
306.225586
 20
944.485901
 10
305.830414
 20
944.710205
 10
305.476166
 20
944.924683
 10
305.16684
 20
945.121948
 10
304.906311
 20
945.294861
 10
304.697449
 20
945.438171
 10
304.54306
 20
945.546814
 10
304.446655
 20
945.616089
 10
304.412537
 20
945.641052
  0
LWPOLYLINE
  5
143
330
112
100
AcDbEntity
  8
0
  6
Continuous
 62
     0
370
     0
100
AcDbPolyline
 90
       43
 70
     0
 43
0.0
 10
300.412537
 20
941.641052
 10
300.450562
 20
941.62677
 10
300.561981
 20
941.58551
 10
300.742065
 20
941.52002
 10
300.986084
 20
941.432983
 10
301.289948
 20
941.327087
 10
301.64978
 20
941.2052
 10
302.061371
 20
941.070251
 10
302.519409
 20
940.925964
 10
303.01828
 20
940.776184
 10
303.552917
 20
940.624695
 10
304.119781
 20
940.474365
 10
304.715729
 20
940.328186
 10
305.337708
 20
940.188904
 10
305.982788
 20
940.059082
 10
306.648102
 20
939.941467
 10
307.33078
 20
939.838379
 10
308.028015
 20
939.751221
 10
308.736938
 20
939.681152
 10
309.454681
 20
939.629517
 10
310.178345
 20
939.597473
 10
310.904968
 20
939.586365
 10
311.631653
 20
939.596985
 10
312.355377
 20
939.62854
 10
313.073273
 20
939.67981
 10
313.782349
 20
939.749634
 10
314.479797
 20
939.836609
 10
315.162811
 20
939.939575
 10
315.828583
 20
940.057129
 10
316.474213
 20
940.186768
 10
317.096802
 20
940.325928
 10
317.69342
 20
940.471863
 10
318.260834
 20
940.621704
 10
318.795776
 20
940.772644
 10
319.294739
 20
940.921875
 10
319.753204
 20
941.065918
 10
320.166321
 20
941.201294
 10
320.529175
 20
941.324585
 10
320.836456
 20
941.432129
 10
321.082794
 20
941.520386
 10
321.263153
 20
941.585938
 10
321.373993
 20
941.62677
 10
321.412537
 20
941.641052
  0
LINE
  5
144
330
112
100
AcDbEntity
  8
0
  6
Continuous
 62
     0
370
    30
100
AcDbLine
 10
317.412544
 20
945.641031
 30
0.0
 11
317.412544
 21
957.141031
 31
0.0
  0
LWPOLYLINE
  5
145
330
112
100
AcDbEntity
  8
0
  6
Continuous
 62
     0
370
     0
100
AcDbPolyline
 90
       30
 70
     0
 43
0.0
 10
317.412537
 20
957.141052
 10
317.380432
 20
957.141052
 10
317.279724
 20
957.141052
 10
317.104919
 20
957.141052
 10
316.852722
 20
957.141052
 10
316.5224
 20
957.141052
 10
316.11615
 20
957.141052
 10
315.639343
 20
957.141052
 10
315.10025
 20
957.141052
 10
314.509644
 20
957.141052
 10
313.880005
 20
957.141052
 10
313.224762
 20
957.141052
 10
312.557373
 20
957.141052
 10
311.890564
 20
957.141052
 10
311.235626
 20
957.141052
 10
310.595825
 20
957.141052
 10
309.94104
 20
957.141052
 10
309.274292
 20
957.141052
 10
308.606873
 20
957.141052
 10
307.951447
 20
957.141052
 10
307.321472
 20
957.141052
 10
306.730408
 20
957.141052
 10
306.190765
 20
957.141052
 10
305.713318
 20
957.141052
 10
305.306335
 20
957.141052
 10
304.97522
 20
957.141052
 10
304.72226
 20
957.141052
 10
304.546722
 20
957.141052
 10
304.445282
 20
957.141052
 10
304.412537
 20
957.141052
  0
LWPOLYLINE
  5
146
330
112
100
AcDbEntity
  8
0
  6
Continuous
 62
     0
370
    30
100
AcDbPolyline
 90
       29
 70
     0
 43
0.0
 10
304.912537
 20
957.641052
 10
304.950195
 20
957.641052
 10
305.062622
 20
957.641052
 10
305.248383
 20
957.641052
 10
305.505432
 20
957.641052
 10
305.830078
 20
957.641052
 10
306.218506
 20
957.641052
 10
306.666016
 20
957.641052
 10
307.166595
 20
957.641052
 10
307.714264
 20
957.641052
 10
308.302094
 20
957.641052
 10
308.922577
 20
957.641052
 10
309.568085
 20
957.641052
 10
310.230469
 20
957.641052
 10
310.901367
 20
957.641052
 10
311.572418
 20
957.641052
 10
312.235229
 20
957.641052
 10
312.881439
 20
957.641052
 10
313.502869
 20
957.641052
 10
314.091919
 20
957.641052
 10
314.641022
 20
957.641052
 10
315.14328
 20
957.641052
 10
315.592621
 20
957.641052
 10
315.983124
 20
957.641052
 10
316.309967
 20
957.641052
 10
316.569275
 20
957.641052
 10
316.757477
 20
957.641052
 10
316.872345
 20
957.641052
 10
316.912537
 20
957.641052
  0
LINE
  5
147
330
112
100
AcDbEntity
  8
0
  6
Continuous
 62
     0
370
    30
100
AcDbLine
 10
283.912544
 20
902.641031
 30
0.0
 11
309.012544
 21
902.641031
 31
0.0
  0
LWPOLYLINE
  5
148
330
112
100
AcDbEntity
  8
0
  6
Continuous
 62
     0
370
     0
100
AcDbPolyline
 90
       27
 70
     0
 43
0.0
 10
309.012543
 20
902.641052
 10
309.050659
 20
902.650818
 10
309.161987
 20
902.679504
 10
309.346344
 20
902.725464
 10
309.599213
 20
902.78595
 10
309.914246
 20
902.857788
 10
310.292755
 20
902.936401
 10
310.728973
 20
903.017395
 10
311.210907
 20
903.097046
 10
311.734161
 20
903.170349
 10
312.294647
 20
903.232422
 10
312.883057
 20
903.27948
 10
313.490082
 20
903.309326
 10
314.106689
 20
903.320007
 10
314.723328
 20
903.309692
 10
315.330658
 20
903.280212
 10
315.919525
 20
903.233459
 10
316.480621
 20
903.171692
 10
317.004608
 20
903.098511
 10
317.487335
 20
903.018921
 10
317.92453
 20
902.937927
 10
318.30423
 20
902.859253
 10
318.620453
 20
902.787231
 10
318.874542
 20
902.72644
 10
319.060242
 20
902.680237
 10
319.172974
 20
902.651184
 10
319.212555
 20
902.641052
  0
LINE
  5
149
330
112
100
AcDbEntity
  8
0
  6
Continuous
 62
     0
370
    30
100
AcDbLine
 10
319.212544
 20
902.641031
 30
0.0
 11
325.412544
 21
902.641031
 31
0.0
  0
LINE
  5
14A
330
112
100
AcDbEntity
  8
0
  6
Continuous
 62
     0
370
     0
100
AcDbLine
 10
325.412544
 20
902.641031
 30
0.0
 11
325.412544
 21
941.641031
 31
0.0
  0
LINE
  5
14B
330
112
100
AcDbEntity
  8
0
  6
Continuous
 62
     0
370
    30
100
AcDbLine
 10
283.912544
 20
941.641031
 30
0.0
 11
283.912544
 21
902.641031
 31
0.0
  0
LWPOLYLINE
  5
14C
330
112
100
AcDbEntity
  8
0
  6
Continuous
 62
     0
370
    30
100
AcDbPolyline
 90
       50
 70
     0
 43
0.0
 10
325.912537
 20
941.141052
 10
325.912537
 20
941.102051
 10
325.912537
 20
940.985046
 10
325.912537
 20
940.790771
 10
325.912537
 20
940.520142
 10
325.912537
 20
940.173889
 10
325.912537
 20
939.753296
 10
325.912537
 20
939.260376
 10
325.912537
 20
938.697388
 10
325.912537
 20
938.06665
 10
325.912537
 20
937.370361
 10
325.912537
 20
936.611267
 10
325.912537
 20
935.792664
 10
325.912537
 20
934.918274
 10
325.912537
 20
933.991516
 10
325.912537
 20
933.015991
 10
325.912537
 20
931.995667
 10
325.912537
 20
930.934814
 10
325.912537
 20
929.838013
 10
325.912537
 20
928.709717
 10
325.912537
 20
927.554382
 10
325.912537
 20
926.376648
 10
325.912537
 20
925.18158
 10
325.912537
 20
923.97406
 10
325.912537
 20
922.759033
 10
325.912537
 20
921.541504
 10
325.912537
 20
920.326416
 10
325.912537
 20
919.118713
 10
325.912537
 20
917.923401
 10
325.912537
 20
916.745422
 10
325.912537
 20
915.589722
 10
325.912537
 20
914.460938
 10
325.912537
 20
913.363647
 10
325.912537
 20
912.302246
 10
325.912537
 20
911.281189
 10
325.912537
 20
910.304993
 10
325.912537
 20
909.377502
 10
325.912537
 20
908.502258
 10
325.912537
 20
907.6828
 10
325.912537
 20
906.922729
 10
325.912537
 20
906.225525
 10
325.912537
 20
905.59375
 10
325.912537
 20
905.029724
 10
325.912537
 20
904.535706
 10
325.912537
 20
904.113953
 10
325.912537
 20
903.766602
 10
325.912537
 20
903.494812
 10
325.912537
 20
903.299377
 10
325.912537
 20
903.181213
 10
325.912537
 20
903.141052
  0
ARC
  5
14D
330
112
100
AcDbEntity
  8
0
  6
Continuous
 62
     0
370
    30
100
AcDbCircle
 10
325.412544
 20
903.141031
 30
0.0
 40
0.4999999999924043
100
AcDbArc
 50
270.0
 51
0.0
  0
ARC
  5
14E
330
112
100
AcDbEntity
  8
0
  6
Continuous
 62
     0
370
    30
100
AcDbCircle
 10
316.912544
 20
957.141031
 30
0.0
 40
0.500000000001439
100
AcDbArc
 50
0.0
 51
89.999921
  0
LWPOLYLINE
  5
14F
330
112
100
AcDbEntity
  8
0
  6
Continuous
 62
     0
370
    30
100
AcDbPolyline
 90
       24
 70
     0
 43
0.0
 10
328.862549
 20
831.471008
 10
328.831299
 20
831.471008
 10
328.732422
 20
831.471008
 10
328.560272
 20
831.471008
 10
328.312836
 20
831.471008
 10
327.992462
 20
831.471008
 10
327.606293
 20
831.471008
 10
327.16571
 20
831.471008
 10
326.685242
 20
831.471008
 10
326.181122
 20
831.471008
 10
325.669495
 20
831.471008
 10
325.165039
 20
831.471008
 10
324.674103
 20
831.471008
 10
324.170044
 20
831.471008
 10
323.658417
 20
831.471008
 10
323.15387
 20
831.471008
 10
322.672516
 20
831.471008
 10
322.23056
 20
831.471008
 10
321.842682
 20
831.471008
 10
321.520355
 20
831.471008
 10
321.270782
 20
831.471008
 10
321.096497
 20
831.471008
 10
320.995636
 20
831.471008
 10
320.962555
 20
831.471008
  0
LINE
  5
150
330
112
100
AcDbEntity
  8
0
  6
Continuous
 62
     0
370
    30
100
AcDbLine
 10
328.862544
 20
824.141029
 30
0.0
 11
328.862544
 21
831.471029
 31
0.0
  0
LWPOLYLINE
  5
151
330
112
100
AcDbEntity
  8
0
  6
Continuous
 62
     0
370
    30
100
AcDbPolyline
 90
       24
 70
     0
 43
0.0
 10
328.862549
 20
824.141052
 10
328.825714
 20
824.13446
 10
328.716003
 20
824.115173
 10
328.535645
 20
824.084656
 10
328.288452
 20
824.045227
 10
327.97876
 20
823.999634
 10
327.612427
 20
823.951294
 10
327.19632
 20
823.903687
 10
326.73761
 20
823.860352
 10
326.244476
 20
823.824463
 10
325.726105
 20
823.798828
 10
325.192169
 20
823.785339
 10
324.652832
 20
823.785095
 10
324.1185
 20
823.798096
 10
323.599365
 20
823.823303
 10
323.105164
 20
823.858887
 10
322.644958
 20
823.901978
 10
322.227051
 20
823.949524
 10
321.858887
 20
823.997864
 10
321.547058
 20
824.04364
 10
321.297333
 20
824.083374
 10
321.114471
 20
824.114258
 10
321.002136
 20
824.133972
 10
320.962555
 20
824.140991
  0
LINE
  5
152
330
112
100
AcDbEntity
  8
0
  6
Continuous
 62
     0
370
    30
100
AcDbLine
 10
328.362544
 20
831.971029
 30
0.0
 11
328.862544
 21
831.471029
 31
0.0
  0
LWPOLYLINE
  5
153
330
112
100
AcDbEntity
  8
0
  6
Continuous
 62
     0
370
    30
100
AcDbPolyline
 90
       22
 70
     0
 43
0.0
 10
328.362549
 20
831.971008
 10
328.323486
 20
831.970764
 10
328.20755
 20
831.970703
 10
328.018738
 20
831.970825
 10
327.761322
 20
831.970947
 10
327.439362
 20
831.97052
 10
327.059998
 20
831.969238
 10
326.633118
 20
831.96759
 10
326.168976
 20
831.966858
 10
325.67749
 20
831.967896
 10
325.168701
 20
831.970093
 10
324.653961
 20
831.970947
 10
324.14502
 20
831.970276
 10
323.653412
 20
831.96991
 10
323.189423
 20
831.970154
 10
322.763489
 20
831.970703
 10
322.385834
 20
831.970703
 10
322.065247
 20
831.969971
 10
321.808136
 20
831.969055
 10
321.619019
 20
831.969055
 10
321.502747
 20
831.970276
 10
321.462555
 20
831.971008
  0
LWPOLYLINE
  5
154
330
112
100
AcDbEntity
  8
0
  6
Continuous
 62
     0
370
    30
100
AcDbPolyline
 90
       53
 70
     0
 43
0.0
 10
333.912537
 20
823.641052
 10
333.912537
 20
823.601868
 10
333.912537
 20
823.484253
 10
333.912537
 20
823.288879
 10
333.912537
 20
823.016663
 10
333.912537
 20
822.668274
 10
333.912537
 20
822.24469
 10
333.912537
 20
821.74762
 10
333.912537
 20
821.17926
 10
333.912537
 20
820.541748
 10
333.912537
 20
819.837219
 10
333.912537
 20
819.067871
 10
333.912537
 20
818.236511
 10
333.912537
 20
817.346558
 10
333.912537
 20
816.401367
 10
333.912537
 20
815.404297
 10
333.912537
 20
814.358765
 10
333.912537
 20
813.268372
 10
333.912537
 20
812.137512
 10
333.912537
 20
810.970276
 10
333.912537
 20
809.770935
 10
333.912537
 20
808.543762
 10
333.912537
 20
807.293152
 10
333.912537
 20
806.023682
 10
333.912537
 20
804.740051
 10
333.912537
 20
803.447021
 10
333.912537
 20
802.149292
 10
333.912537
 20
800.851501
 10
333.912537
 20
799.55835
 10
333.912537
 20
798.274597
 10
333.912537
 20
797.004944
 10
333.912537
 20
795.754028
 10
333.912537
 20
794.52655
 10
333.912537
 20
793.326843
 10
333.912537
 20
792.15918
 10
333.912537
 20
791.027771
 10
333.912537
 20
789.93689
 10
333.912537
 20
788.890747
 10
333.912537
 20
787.893005
 10
333.912537
 20
786.947144
 10
333.912537
 20
786.056458
 10
333.912537
 20
785.224365
 10
333.912537
 20
784.454224
 10
333.912537
 20
783.74884
 10
333.912537
 20
783.110474
 10
333.912537
 20
782.541199
 10
333.912537
 20
782.043274
 10
333.912537
 20
781.618713
 10
333.912537
 20
781.269348
 10
333.912537
 20
780.996155
 10
333.912537
 20
780.799805
 10
333.912537
 20
780.681152
 10
333.912537
 20
780.641052
  0
LINE
  5
155
330
112
100
AcDbEntity
  8
0
  6
Continuous
 62
     0
370
    30
100
AcDbLine
 10
333.912544
 20
780.641029
 30
0.0
 11
333.412544
 21
780.141029
 31
0.0
  0
LINE
  5
156
330
112
100
AcDbEntity
  8
0
  6
Continuous
 62
     0
370
    30
100
AcDbLine
 10
333.412544
 20
824.141029
 30
0.0
 11
333.412544
 21
780.141029
 31
0.0
  0
LINE
  5
157
330
112
100
AcDbEntity
  8
0
  6
Continuous
 62
     0
370
    30
100
AcDbLine
 10
320.162544
 20
780.141029
 30
0.0
 11
283.912544
 21
780.141029
 31
0.0
  0
LINE
  5
158
330
112
100
AcDbEntity
  8
0
  6
Continuous
 62
     0
370
    30
100
AcDbLine
 10
283.912544
 20
824.141029
 30
0.0
 11
283.912544
 21
780.141029
 31
0.0
  0
LWPOLYLINE
  5
159
330
112
100
AcDbEntity
  8
0
  6
Continuous
 62
     0
370
     0
100
AcDbPolyline
 90
       26
 70
     0
 43
0.0
 10
320.162537
 20
780.141052
 10
320.200287
 20
780.14917
 10
320.314117
 20
780.173157
 10
320.500366
 20
780.211243
 10
320.753693
 20
780.260986
 10
321.070404
 20
780.31958
 10
321.451385
 20
780.382874
 10
321.88681
 20
780.447388
 10
322.366425
 20
780.509521
 10
322.886902
 20
780.56488
 10
323.441101
 20
780.609619
 10
324.019073
 20
780.641174
 10
324.61145
 20
780.657898
 10
325.20874
 20
780.657959
 10
325.801208
 20
780.641418
 10
326.379303
 20
780.609985
 10
326.933777
 20
780.565308
 10
327.454529
 20
780.51001
 10
327.93454
 20
780.447876
 10
328.370331
 20
780.383423
 10
328.751831
 20
780.320068
 10
329.069031
 20
780.261475
 10
329.322906
 20
780.211548
 10
329.509705
 20
780.173401
 10
329.624146
 20
780.149292
 10
329.662537
 20
780.141052
  0
LINE
  5
15A
330
112
100
AcDbEntity
  8
0
  6
Continuous
 62
     0
370
    30
100
AcDbLine
 10
329.662544
 20
780.141029
 30
0.0
 11
333.412544
 21
780.141029
 31
0.0
  0
LWPOLYLINE
  5
15B
330
112
100
AcDbEntity
  8
0
  6
Continuous
 62
     0
370
     0
100
AcDbPolyline
 90
       25
 70
     0
 43
0.0
 10
329.012146
 20
824.141052
 10
328.977722
 20
824.134521
 10
328.872345
 20
824.11499
 10
328.696289
 20
824.083618
 10
328.455017
 20
824.043274
 10
328.154266
 20
823.99707
 10
327.800171
 20
823.947937
 10
327.399719
 20
823.898499
 10
326.958466
 20
823.852173
 10
326.481445
 20
823.812378
 10
325.977112
 20
823.781921
 10
325.45459
 20
823.762512
 10
324.922791
 20
823.755554
 10
324.390808
 20
823.762024
 10
323.867767
 20
823.780945
 10
323.36261
 20
823.811035
 10
322.884399
 20
823.850525
 10
322.44165
 20
823.896667
 10
322.039429
 20
823.945984
 10
321.68338
 20
823.995239
 10
321.380493
 20
824.041626
 10
321.136871
 20
824.082214
 10
320.958221
 20
824.114014
 10
320.849945
 20
824.134033
 10
320.812531
 20
824.141052
  0
LINE
  5
15C
330
112
100
AcDbEntity
  8
0
  6
Continuous
 62
     0
370
    30
100
AcDbLine
 10
329.662544
 20
780.141029
 30
0.0
 11
320.162544
 21
780.141029
 31
0.0
  0
LINE
  5
15D
330
112
100
AcDbEntity
  8
0
  6
Continuous
 62
     0
370
    30
100
AcDbLine
 10
328.862544
 20
824.141029
 30
0.0
 11
329.012147
 21
824.141029
 31
0.0
  0
LINE
  5
15E
330
112
100
AcDbEntity
  8
0
  6
Continuous
 62
     0
370
    30
100
AcDbLine
 10
320.962567
 20
824.141029
 30
0.0
 11
320.812544
 21
824.141029
 31
0.0
  0
LINE
  5
15F
330
112
100
AcDbEntity
  8
0
  6
Continuous
 62
     0
370
    30
100
AcDbLine
 10
283.912544
 20
824.141029
 30
0.0
 11
320.812544
 21
824.141029
 31
0.0
  0
LINE
  5
160
330
112
100
AcDbEntity
  8
0
  6
Continuous
 62
     0
370
    30
100
AcDbLine
 10
333.412545
 20
824.141029
 30
0.0
 11
329.012147
 21
824.141029
 31
0.0
  0
LINE
  5
161
330
112
100
AcDbEntity
  8
0
  6
Continuous
 62
     0
370
    30
100
AcDbLine
 10
333.912544
 20
823.641029
 30
0.0
 11
333.412544
 21
824.141029
 31
0.0
  0
LINE
  5
162
330
112
100
AcDbEntity
  8
0
  6
Continuous
 62
     0
370
    30
100
AcDbLine
 10
320.962544
 20
831.471029
 30
0.0
 11
321.462544
 21
831.971029
 31
0.0
  0
LINE
  5
163
330
112
100
AcDbEntity
  8
0
  6
Continuous
 62
     0
370
    30
100
AcDbLine
 10
320.962544
 20
831.471029
 30
0.0
 11
320.962544
 21
824.141015
 31
0.0
  0
LINE
  5
164
330
112
100
AcDbEntity
  8
0
  6
Continuous
 62
     0
370
    30
100
AcDbLine
 10
309.012544
 20
902.641031
 30
0.0
 11
319.212544
 21
902.641031
 31
0.0
  0
ARC
  5
165
330
112
100
AcDbEntity
  8
0
  6
Continuous
 62
     0
370
    30
100
AcDbCircle
 10
304.912548
 20
957.141027
 30
0.0
 40
0.5000034422861974
100
AcDbArc
 50
90.000394
 51
179.999606
  0
ARC
  5
166
330
112
100
AcDbEntity
  8
0
  6
Continuous
 62
     0
370
    30
100
AcDbCircle
 10
325.412541
 20
941.141027
 30
0.0
 40
0.5000034422883077
100
AcDbArc
 50
0.000394
 51
89.999606
  0
LINE
  5
167
330
112
100
AcDbEntity
  8
0
  6
Continuous
 62
     0
370
    30
100
AcDbLine
 10
325.412545
 20
941.641031
 30
0.0
 11
321.412544
 21
941.641031
 31
0.0
  0
LINE
  5
168
330
112
100
AcDbEntity
  8
0
  6
Continuous
 62
     0
370
    30
100
AcDbLine
 10
283.912544
 20
941.641031
 30
0.0
 11
300.41255
 21
941.641031
 31
0.0
  0
LINE
  5
169
330
112
100
AcDbEntity
  8
0
  6
Continuous
 62
     0
370
    30
100
AcDbLine
 10
304.412544
 20
945.641031
 30
0.0
 11
304.412544
 21
957.141031
 31
0.0
  0
ARC
  5
16A
330
112
100
AcDbEntity
  8
0
  6
Continuous
 62
     0
370
    30
100
AcDbCircle
 10
300.412526
 20
945.641043
 30
0.0
 40
4.000019106928804
100
AcDbArc
 50
270.000356
 51
359.999828
  0
LINE
  5
16B
330
112
100
AcDbEntity
  8
0
  6
Continuous
 62
     0
370
    30
100
AcDbLine
 10
309.012544
 20
1102.641033
 30
0.0
 11
319.212544
 21
1102.641033
 31
0.0
  0
ARC
  5
16C
330
112
100
AcDbEntity
  8
0
  6
Continuous
 62
     0
370
    30
100
AcDbCircle
 10
304.912548
 20
1157.141029
 30
0.0
 40
0.5000034422867836
100
AcDbArc
 50
90.000394
 51
179.999606
  0
ARC
  5
16D
330
112
100
AcDbEntity
  8
0
  6
Continuous
 62
     0
370
    30
100
AcDbCircle
 10
325.412541
 20
1141.141029
 30
0.0
 40
0.5000034422814226
100
AcDbArc
 50
0.000394
 51
89.999606
  0
LINE
  5
16E
330
112
100
AcDbEntity
  8
0
  6
Continuous
 62
     0
370
    30
100
AcDbLine
 10
325.412545
 20
1141.641033
 30
0.0
 11
321.412544
 21
1141.641033
 31
0.0
  0
LINE
  5
16F
330
112
100
AcDbEntity
  8
0
  6
Continuous
 62
     0
370
    30
100
AcDbLine
 10
283.912544
 20
1141.641033
 30
0.0
 11
300.41255
 21
1141.641033
 31
0.0
  0
LINE
  5
170
330
112
100
AcDbEntity
  8
0
  6
Continuous
 62
     0
370
    30
100
AcDbLine
 10
304.412544
 20
1145.641033
 30
0.0
 11
304.412544
 21
1157.141033
 31
0.0
  0
ARC
  5
171
330
112
100
AcDbEntity
  8
0
  6
Continuous
 62
     0
370
    30
100
AcDbCircle
 10
300.412526
 20
1145.641045
 30
0.0
 40
4.000019106932324
100
AcDbArc
 50
270.000356
 51
359.999828
  0
LINE
  5
172
330
112
100
AcDbEntity
  8
0
  6
Continuous
 62
     0
370
    30
100
AcDbLine
 10
309.012544
 20
1002.64103
 30
0.0
 11
319.212544
 21
1002.64103
 31
0.0
  0
ARC
  5
173
330
112
100
AcDbEntity
  8
0
  6
Continuous
 62
     0
370
    30
100
AcDbCircle
 10
304.912548
 20
1057.141026
 30
0.0
 40
0.5000034422975058
100
AcDbArc
 50
90.000394
 51
179.999606
  0
ARC
  5
174
330
112
100
AcDbEntity
  8
0
  6
Continuous
 62
     0
370
    30
100
AcDbCircle
 10
325.412541
 20
1041.141026
 30
0.0
 40
0.5000034422866948
100
AcDbArc
 50
0.000394
 51
89.999606
  0
LINE
  5
175
330
112
100
AcDbEntity
  8
0
  6
Continuous
 62
     0
370
    30
100
AcDbLine
 10
325.412545
 20
1041.64103
 30
0.0
 11
321.412544
 21
1041.64103
 31
0.0
  0
LINE
  5
176
330
112
100
AcDbEntity
  8
0
  6
Continuous
 62
     0
370
    30
100
AcDbLine
 10
283.912544
 20
1041.64103
 30
0.0
 11
300.41255
 21
1041.64103
 31
0.0
  0
LINE
  5
177
330
112
100
AcDbEntity
  8
0
  6
Continuous
 62
     0
370
    30
100
AcDbLine
 10
304.412544
 20
1045.64103
 30
0.0
 11
304.412544
 21
1057.14103
 31
0.0
  0
ARC
  5
178
330
112
100
AcDbEntity
  8
0
  6
Continuous
 62
     0
370
    30
100
AcDbCircle
 10
300.412526
 20
1045.641042
 30
0.0
 40
4.000019106931322
100
AcDbArc
 50
270.000356
 51
359.999828
  0
LINE
  5
179
330
112
100
AcDbEntity
  8
0
  6
Continuous
 62
     0
370
    30
100
AcDbLine
 10
280.912544
 20
822.141029
 30
0.0
 11
283.912544
 21
822.141029
 31
0.0
  0
LINE
  5
17A
330
112
100
AcDbEntity
  8
0
  6
Continuous
 62
     0
370
    30
100
AcDbLine
 10
280.912544
 20
782.141029
 30
0.0
 11
283.912544
 21
782.141029
 31
0.0
  0
LINE
  5
17B
330
112
100
AcDbEntity
  8
0
  6
Continuous
 62
     0
370
    30
100
AcDbLine
 10
280.912544
 20
937.141031
 30
0.0
 11
283.912544
 21
937.141031
 31
0.0
  0
LINE
  5
17C
330
112
100
AcDbEntity
  8
0
  6
Continuous
 62
     0
370
    30
100
AcDbLine
 10
280.912544
 20
907.141031
 30
0.0
 11
283.912544
 21
907.141031
 31
0.0
  0
LINE
  5
17D
330
112
100
AcDbEntity
  8
0
  6
Continuous
 62
     0
370
    30
100
AcDbLine
 10
280.912544
 20
1037.14103
 30
0.0
 11
283.912544
 21
1037.14103
 31
0.0
  0
LINE
  5
17E
330
112
100
AcDbEntity
  8
0
  6
Continuous
 62
     0
370
    30
100
AcDbLine
 10
280.912544
 20
1007.14103
 30
0.0
 11
283.912544
 21
1007.14103
 31
0.0
  0
LINE
  5
17F
330
112
100
AcDbEntity
  8
0
  6
Continuous
 62
     0
370
    30
100
AcDbLine
 10
280.912544
 20
1137.141033
 30
0.0
 11
283.912544
 21
1137.141033
 31
0.0
  0
LINE
  5
180
330
112
100
AcDbEntity
  8
0
  6
Continuous
 62
     0
370
    30
100
AcDbLine
 10
280.912544
 20
1107.141033
 30
0.0
 11
283.912544
 21
1107.141033
 31
0.0
  0
LINE
  5
181
330
112
100
AcDbEntity
  8
0
  6
Continuous
 62
     0
370
    30
100
AcDbLine
 10
280.912544
 20
1237.141029
 30
0.0
 11
283.912474
 21
1237.141029
 31
0.0
  0
LINE
  5
182
330
112
100
AcDbEntity
  8
0
  6
Continuous
 62
     0
370
    30
100
AcDbLine
 10
280.912544
 20
1207.141029
 30
0.0
 11
283.912474
 21
1207.141029
 31
0.0
  0
LINE
  5
183
330
112
100
AcDbEntity
  8
0
  6
Continuous
 62
     0
370
    30
100
AcDbLine
 10
309.012474
 20
1202.638325
 30
0.0
 11
319.212474
 21
1202.638325
 31
0.0
  0
ARC
  5
184
330
112
100
AcDbEntity
  8
0
  6
Continuous
 62
     0
370
    30
100
AcDbCircle
 10
304.912477
 20
1257.138321
 30
0.0
 40
0.5000034422994455
100
AcDbArc
 50
90.000394
 51
179.999606
  0
ARC
  5
185
330
112
100
AcDbEntity
  8
0
  6
Continuous
 62
     0
370
    30
100
AcDbCircle
 10
325.412471
 20
1241.138321
 30
0.0
 40
0.5000034422553739
100
AcDbArc
 50
0.000394
 51
89.999606
  0
LINE
  5
186
330
112
100
AcDbEntity
  8
0
  6
Continuous
 62
     0
370
    30
100
AcDbLine
 10
325.412474
 20
1241.638325
 30
0.0
 11
321.412474
 21
1241.638325
 31
0.0
  0
LINE
  5
187
330
112
100
AcDbEntity
  8
0
  6
Continuous
 62
     0
370
    30
100
AcDbLine
 10
283.912474
 20
1241.638325
 30
0.0
 11
300.41248
 21
1241.638325
 31
0.0
  0
LINE
  5
188
330
112
100
AcDbEntity
  8
0
  6
Continuous
 62
     0
370
    30
100
AcDbLine
 10
304.412474
 20
1245.638325
 30
0.0
 11
304.412474
 21
1257.138325
 31
0.0
  0
ARC
  5
189
330
112
100
AcDbEntity
  8
0
  6
Continuous
 62
     0
370
    30
100
AcDbCircle
 10
300.412455
 20
1245.638337
 30
0.0
 40
4.000019106922824
100
AcDbArc
 50
270.000356
 51
359.999828
  0
ENDBLK
  5
18B
330
112
100
AcDbEntity
  8
0
100
AcDbBlockEnd
  0
BLOCK
  5
205
330
18D
100
AcDbEntity
  8
0
100
AcDbBlockBegin
  2
d
 70
     0
 10
-64.476364
 20
0.0
 30
0.0
  3
d
  1

  0
ARC
  5
18E
330
18D
100
AcDbEntity
  8
0
  6
Continuous
 62
     0
370
    30
100
AcDbCircle
 10
-149.502432
 20
1245.638363
 30
0.0
 40
4.000000000002046
100
AcDbArc
 50
270.0
 51
360.0
  0
LWPOLYLINE
  5
18F
330
18D
100
AcDbEntity
  8
0
  6
Continuous
 62
     0
370
     0
100
AcDbPolyline
 90
       34
 70
     0
 43
0.0
 10
-132.502426
 20
1245.638306
 10
-132.535049
 20
1245.614502
 10
-132.630051
 20
1245.546265
 10
-132.783127
 20
1245.438354
 10
-132.990723
 20
1245.295898
 10
-133.250061
 20
1245.123657
 10
-133.558258
 20
1244.92688
 10
-133.911514
 20
1244.712646
 10
-134.305771
 20
1244.488525
 10
-134.738312
 20
1244.26123
 10
-135.207764
 20
1244.036987
 10
-135.712692
 20
1243.822266
 10
-136.25145
 20
1243.625488
 10
-136.822052
 20
1243.454834
 10
-137.420197
 20
1243.317505
 10
-138.040588
 20
1243.220093
 10
-138.6754
 20
1243.168335
 10
-139.315079
 20
1243.167847
 10
-139.950058
 20
1243.218384
 10
-140.570877
 20
1243.314941
 10
-141.169632
 20
1243.451416
 10
-141.741043
 20
1243.621338
 10
-142.280762
 20
1243.817627
 10
-142.78653
 20
1244.032104
 10
-143.256561
 20
1244.25647
 10
-143.689438
 20
1244.483643
 10
-144.083862
 20
1244.707642
 10
-144.437576
 20
1244.921631
 10
-144.747253
 20
1245.119141
 10
-145.009338
 20
1245.293335
 10
-145.219696
 20
1245.437744
 10
-145.374084
 20
1245.546265
 10
-145.469147
 20
1245.614136
 10
-145.502426
 20
1245.638306
  0
LWPOLYLINE
  5
190
330
18D
100
AcDbEntity
  8
0
  6
Continuous
 62
     0
370
     0
100
AcDbPolyline
 90
       43
 70
     0
 43
0.0
 10
-149.502426
 20
1241.638306
 10
-149.465424
 20
1241.624634
 10
-149.356033
 20
1241.584351
 10
-149.17717
 20
1241.519287
 10
-148.932251
 20
1241.431519
 10
-148.626297
 20
1241.324341
 10
-148.264664
 20
1241.201416
 10
-147.852615
 20
1241.066284
 10
-147.395081
 20
1240.922363
 10
-146.896957
 20
1240.773193
 10
-146.362762
 20
1240.622314
 10
-145.796036
 20
1240.472412
 10
-145.200043
 20
1240.326416
 10
-144.577988
 20
1240.187012
 10
-143.932831
 20
1240.057129
 10
-143.267471
 20
1239.939331
 10
-142.584808
 20
1239.83606
 10
-141.88765
 20
1239.748657
 10
-141.178802
 20
1239.678589
 10
-140.461105
 20
1239.626831
 10
-139.737457
 20
1239.594849
 10
-139.010834
 20
1239.58374
 10
-138.28418
 20
1239.594482
 10
-137.560425
 20
1239.625977
 10
-136.842514
 20
1239.677246
 10
-136.133392
 20
1239.746826
 10
-135.435883
 20
1239.833618
 10
-134.752853
 20
1239.936401
 10
-134.087143
 20
1240.053833
 10
-133.441589
 20
1240.18335
 10
-132.819061
 20
1240.322388
 10
-132.222473
 20
1240.468506
 10
-131.654922
 20
1240.618652
 10
-131.119553
 20
1240.770142
 10
-130.619858
 20
1240.9198
 10
-130.16095
 20
1241.064209
 10
-129.748367
 20
1241.199341
 10
-129.387436
 20
1241.321533
 10
-129.082321
 20
1241.427734
 10
-128.836945
 20
1241.515381
 10
-128.655334
 20
1241.581421
 10
-128.542252
 20
1241.623291
 10
-128.502441
 20
1241.638306
  0
LINE
  5
191
330
18D
100
AcDbEntity
  8
0
  6
Continuous
 62
     0
370
    30
100
AcDbLine
 10
-145.502432
 20
1245.638363
 30
0.0
 11
-145.502432
 21
1257.138363
 31
0.0
  0
LINE
  5
192
330
18D
100
AcDbEntity
  8
0
  6
Continuous
 62
     0
370
     0
100
AcDbLine
 10
-132.502432
 20
1257.138363
 30
0.0
 11
-145.502432
 21
1257.138363
 31
0.0
  0
LWPOLYLINE
  5
193
330
18D
100
AcDbEntity
  8
0
  6
Continuous
 62
     0
370
    30
100
AcDbPolyline
 90
       29
 70
     0
 43
0.0
 10
-145.002426
 20
1257.638306
 10
-144.964783
 20
1257.638306
 10
-144.852356
 20
1257.638306
 10
-144.66658
 20
1257.638306
 10
-144.409561
 20
1257.638306
 10
-144.0849
 20
1257.638306
 10
-143.696457
 20
1257.638306
 10
-143.248978
 20
1257.638306
 10
-142.748367
 20
1257.638306
 10
-142.200714
 20
1257.638306
 10
-141.612869
 20
1257.638306
 10
-140.992401
 20
1257.638306
 10
-140.346893
 20
1257.638306
 10
-139.684509
 20
1257.638306
 10
-139.013596
 20
1257.638306
 10
-138.342545
 20
1257.638306
 10
-137.679749
 20
1257.638306
 10
-137.033539
 20
1257.638306
 10
-136.412109
 20
1257.638306
 10
-135.823074
 20
1257.638306
 10
-135.273956
 20
1257.638306
 10
-134.771698
 20
1257.638306
 10
-134.322357
 20
1257.638306
 10
-133.931854
 20
1257.638306
 10
-133.605026
 20
1257.638306
 10
-133.345688
 20
1257.638306
 10
-133.157516
 20
1257.638306
 10
-133.042633
 20
1257.638306
 10
-133.002426
 20
1257.638306
  0
LINE
  5
194
330
18D
100
AcDbEntity
  8
0
  6
Continuous
 62
     0
370
    30
100
AcDbLine
 10
-112.002432
 20
1202.638363
 30
0.0
 11
-137.102432
 21
1202.638363
 31
0.0
  0
LINE
  5
195
330
18D
100
AcDbEntity
  8
0
  6
Continuous
 62
     0
370
    30
100
AcDbLine
 10
-147.302432
 20
1202.638363
 30
0.0
 11
-153.502432
 21
1202.638363
 31
0.0
  0
LINE
  5
196
330
18D
100
AcDbEntity
  8
0
  6
Continuous
 62
     0
370
     0
100
AcDbLine
 10
-153.502432
 20
1241.638363
 30
0.0
 11
-153.502432
 21
1202.638363
 31
0.0
  0
LWPOLYLINE
  5
197
330
18D
100
AcDbEntity
  8
0
  6
Continuous
 62
     0
370
     0
100
AcDbPolyline
 90
       27
 70
     0
 43
0.0
 10
-147.302429
 20
1202.638306
 10
-147.264282
 20
1202.648071
 10
-147.152954
 20
1202.67688
 10
-146.968597
 20
1202.722778
 10
-146.715729
 20
1202.783325
 10
-146.400696
 20
1202.855103
 10
-146.022186
 20
1202.933716
 10
-145.585953
 20
1203.014771
 10
-145.104004
 20
1203.09436
 10
-144.580811
 20
1203.167725
 10
-144.020309
 20
1203.229736
 10
-143.4319
 20
1203.276855
 10
-142.824844
 20
1203.306641
 10
-142.208267
 20
1203.317261
 10
-141.591599
 20
1203.307007
 10
-140.984283
 20
1203.277588
 10
-140.395432
 20
1203.230835
 10
-139.834335
 20
1203.168945
 10
-139.310333
 20
1203.095825
 10
-138.827576
 20
1203.016235
 10
-138.390396
 20
1202.935303
 10
-138.010712
 20
1202.856567
 10
-137.694519
 20
1202.784546
 10
-137.440399
 20
1202.723755
 10
-137.254684
 20
1202.677612
 10
-137.141983
 20
1202.648438
 10
-137.102432
 20
1202.638306
  0
LINE
  5
198
330
18D
100
AcDbEntity
  8
0
  6
Continuous
 62
     0
370
    30
100
AcDbLine
 10
-112.002432
 20
1202.638363
 30
0.0
 11
-112.002432
 21
1241.638363
 31
0.0
  0
LWPOLYLINE
  5
199
330
18D
100
AcDbEntity
  8
0
  6
Continuous
 62
     0
370
    30
100
AcDbPolyline
 90
       50
 70
     0
 43
0.0
 10
-154.002426
 20
1203.138306
 10
-154.002426
 20
1203.177368
 10
-154.002426
 20
1203.294312
 10
-154.002426
 20
1203.488647
 10
-154.002426
 20
1203.759277
 10
-154.002426
 20
1204.105469
 10
-154.002426
 20
1204.526123
 10
-154.002426
 20
1205.019043
 10
-154.002426
 20
1205.582031
 10
-154.002426
 20
1206.212769
 10
-154.002426
 20
1206.909058
 10
-154.002426
 20
1207.668091
 10
-154.002426
 20
1208.486694
 10
-154.002426
 20
1209.361084
 10
-154.002426
 20
1210.287842
 10
-154.002426
 20
1211.263428
 10
-154.002426
 20
1212.283691
 10
-154.002426
 20
1213.344604
 10
-154.002426
 20
1214.441406
 10
-154.002426
 20
1215.569702
 10
-154.002426
 20
1216.724976
 10
-154.002426
 20
1217.90271
 10
-154.002426
 20
1219.097778
 10
-154.002426
 20
1220.305298
 10
-154.002426
 20
1221.520386
 10
-154.002426
 20
1222.737915
 10
-154.002426
 20
1223.953003
 10
-154.002426
 20
1225.160645
 10
-154.002426
 20
1226.355957
 10
-154.002426
 20
1227.533936
 10
-154.002426
 20
1228.689697
 10
-154.002426
 20
1229.818481
 10
-154.002426
 20
1230.915771
 10
-154.002426
 20
1231.977173
 10
-154.002426
 20
1232.998169
 10
-154.002426
 20
1233.974365
 10
-154.002426
 20
1234.901855
 10
-154.002426
 20
1235.7771
 10
-154.002426
 20
1236.596558
 10
-154.002426
 20
1237.356689
 10
-154.002426
 20
1238.053833
 10
-154.002426
 20
1238.685669
 10
-154.002426
 20
1239.249634
 10
-154.002426
 20
1239.743652
 10
-154.002426
 20
1240.165405
 10
-154.002426
 20
1240.512817
 10
-154.002426
 20
1240.784546
 10
-154.002426
 20
1240.97998
 10
-154.002426
 20
1241.098267
 10
-154.002426
 20
1241.138306
  0
ARC
  5
19A
330
18D
100
AcDbEntity
  8
0
  6
Continuous
 62
     0
370
    30
100
AcDbCircle
 10
-153.502432
 20
1203.138363
 30
0.0
 40
0.4999999999885958
100
AcDbArc
 50
180.0
 51
270.0
  0
ARC
  5
19B
330
18D
100
AcDbEntity
  8
0
  6
Continuous
 62
     0
370
    30
100
AcDbCircle
 10
-145.002432
 20
1257.138363
 30
0.0
 40
0.5000000000055814
100
AcDbArc
 50
90.000079
 51
180.0
  0
LINE
  5
19C
330
18D
100
AcDbEntity
  8
0
  6
Continuous
 62
     0
370
    30
100
AcDbLine
 10
-107.002504
 20
728.141068
 30
0.0
 11
-109.002504
 21
728.141068
 31
0.0
  0
LINE
  5
19D
330
18D
100
AcDbEntity
  8
0
  6
Continuous
 62
     0
370
    30
100
AcDbLine
 10
-107.002504
 20
728.141068
 30
0.0
 11
-107.002504
 21
1296.141068
 31
0.0
  0
LINE
  5
19E
330
18D
100
AcDbEntity
  8
0
  6
Continuous
 62
     0
370
    30
100
AcDbLine
 10
-107.002504
 20
1296.141068
 30
0.0
 11
-109.002504
 21
1296.141068
 31
0.0
  0
LINE
  5
19F
330
18D
100
AcDbEntity
  8
0
  6
Continuous
 62
     0
370
    30
100
AcDbLine
 10
-109.002504
 20
1296.141068
 30
0.0
 11
-109.002504
 21
728.141068
 31
0.0
  0
ARC
  5
1A0
330
18D
100
AcDbEntity
  8
0
  6
Continuous
 62
     0
370
    30
100
AcDbCircle
 10
-149.502502
 20
1045.641068
 30
0.0
 40
3.99999999999897
100
AcDbArc
 50
270.0
 51
360.0
  0
LWPOLYLINE
  5
1A1
330
18D
100
AcDbEntity
  8
0
  6
Continuous
 62
     0
370
     0
100
AcDbPolyline
 90
       34
 70
     0
 43
0.0
 10
-132.502502
 20
1045.641113
 10
-132.535126
 20
1045.617188
 10
-132.630112
 20
1045.54895
 10
-132.783203
 20
1045.441162
 10
-132.990784
 20
1045.298584
 10
-133.250137
 20
1045.126343
 10
-133.558334
 20
1044.929565
 10
-133.911575
 20
1044.715332
 10
-134.305832
 20
1044.491211
 10
-134.738388
 20
1044.263916
 10
-135.20784
 20
1044.039673
 10
-135.712753
 20
1043.825073
 10
-136.251526
 20
1043.628174
 10
-136.822113
 20
1043.457642
 10
-137.420273
 20
1043.320312
 10
-138.040665
 20
1043.222778
 10
-138.675476
 20
1043.171021
 10
-139.315155
 20
1043.170532
 10
-139.950134
 20
1043.221191
 10
-140.570953
 20
1043.317627
 10
-141.169708
 20
1043.454102
 10
-141.741119
 20
1043.624023
 10
-142.280823
 20
1043.820312
 10
-142.786606
 20
1044.034912
 10
-143.256638
 20
1044.259155
 10
-143.689514
 20
1044.48645
 10
-144.083923
 20
1044.710327
 10
-144.437653
 20
1044.924438
 10
-144.74733
 20
1045.121826
 10
-145.009415
 20
1045.296021
 10
-145.219772
 20
1045.44043
 10
-145.374146
 20
1045.54895
 10
-145.469223
 20
1045.616821
 10
-145.502502
 20
1045.641113
  0
LWPOLYLINE
  5
1A2
330
18D
100
AcDbEntity
  8
0
  6
Continuous
 62
     0
370
     0
100
AcDbPolyline
 90
       43
 70
     0
 43
0.0
 10
-149.502502
 20
1041.641113
 10
-149.4655
 20
1041.627319
 10
-149.35611
 20
1041.587036
 10
-149.177231
 20
1041.521973
 10
-148.932327
 20
1041.434204
 10
-148.626373
 20
1041.327026
 10
-148.26474
 20
1041.204102
 10
-147.852676
 20
1041.06897
 10
-147.395157
 20
1040.925049
 10
-146.897018
 20
1040.776001
 10
-146.362839
 20
1040.625
 10
-145.796112
 20
1040.475098
 10
-145.200104
 20
1040.329102
 10
-144.578049
 20
1040.189819
 10
-143.932907
 20
1040.059814
 10
-143.267548
 20
1039.942017
 10
-142.584885
 20
1039.838745
 10
-141.887726
 20
1039.751465
 10
-141.178879
 20
1039.681274
 10
-140.461166
 20
1039.629517
 10
-139.737534
 20
1039.597534
 10
-139.01091
 20
1039.586548
 10
-138.284256
 20
1039.597168
 10
-137.560501
 20
1039.628662
 10
-136.84259
 20
1039.679932
 10
-136.133453
 20
1039.749512
 10
-135.435959
 20
1039.836426
 10
-134.75293
 20
1039.939209
 10
-134.087204
 20
1040.056519
 10
-133.44165
 20
1040.186035
 10
-132.819138
 20
1040.325195
 10
-132.222549
 20
1040.471191
 10
-131.654984
 20
1040.621338
 10
-131.119614
 20
1040.772827
 10
-130.619934
 20
1040.922607
 10
-130.161026
 20
1041.066895
 10
-129.748444
 20
1041.202026
 10
-129.387497
 20
1041.324219
 10
-129.082397
 20
1041.430542
 10
-128.837006
 20
1041.518066
 10
-128.655411
 20
1041.584106
 10
-128.542328
 20
1041.625977
 10
-128.502502
 20
1041.641113
  0
LINE
  5
1A3
330
18D
100
AcDbEntity
  8
0
  6
Continuous
 62
     0
370
    30
100
AcDbLine
 10
-145.502502
 20
1045.641068
 30
0.0
 11
-145.502502
 21
1057.141068
 31
0.0
  0
LINE
  5
1A4
330
18D
100
AcDbEntity
  8
0
  6
Continuous
 62
     0
370
     0
100
AcDbLine
 10
-132.502502
 20
1057.141068
 30
0.0
 11
-145.502502
 21
1057.141068
 31
0.0
  0
LWPOLYLINE
  5
1A5
330
18D
100
AcDbEntity
  8
0
  6
Continuous
 62
     0
370
    30
100
AcDbPolyline
 90
       29
 70
     0
 43
0.0
 10
-145.002502
 20
1057.641113
 10
-144.964844
 20
1057.641113
 10
-144.852417
 20
1057.641113
 10
-144.666656
 20
1057.641113
 10
-144.409622
 20
1057.641113
 10
-144.084976
 20
1057.641113
 10
-143.696533
 20
1057.641113
 10
-143.249039
 20
1057.641113
 10
-142.748444
 20
1057.641113
 10
-142.200775
 20
1057.641113
 10
-141.612946
 20
1057.641113
 10
-140.992462
 20
1057.641113
 10
-140.34697
 20
1057.641113
 10
-139.68457
 20
1057.641113
 10
-139.013672
 20
1057.641113
 10
-138.342621
 20
1057.641113
 10
-137.67981
 20
1057.641113
 10
-137.033615
 20
1057.641113
 10
-136.412186
 20
1057.641113
 10
-135.823135
 20
1057.641113
 10
-135.274033
 20
1057.641113
 10
-134.771759
 20
1057.641113
 10
-134.322418
 20
1057.641113
 10
-133.931931
 20
1057.641113
 10
-133.605087
 20
1057.641113
 10
-133.345764
 20
1057.641113
 10
-133.157578
 20
1057.641113
 10
-133.042694
 20
1057.641113
 10
-133.002502
 20
1057.641113
  0
LINE
  5
1A6
330
18D
100
AcDbEntity
  8
0
  6
Continuous
 62
     0
370
    30
100
AcDbLine
 10
-112.002502
 20
1002.641068
 30
0.0
 11
-137.102502
 21
1002.641068
 31
0.0
  0
LINE
  5
1A7
330
18D
100
AcDbEntity
  8
0
  6
Continuous
 62
     0
370
    30
100
AcDbLine
 10
-147.302502
 20
1002.641068
 30
0.0
 11
-153.502502
 21
1002.641068
 31
0.0
  0
LINE
  5
1A8
330
18D
100
AcDbEntity
  8
0
  6
Continuous
 62
     0
370
     0
100
AcDbLine
 10
-153.502502
 20
1041.641068
 30
0.0
 11
-153.502502
 21
1002.641068
 31
0.0
  0
LWPOLYLINE
  5
1A9
330
18D
100
AcDbEntity
  8
0
  6
Continuous
 62
     0
370
     0
100
AcDbPolyline
 90
       27
 70
     0
 43
0.0
 10
-147.302505
 20
1002.641052
 10
-147.264343
 20
1002.650818
 10
-147.15303
 20
1002.679565
 10
-146.968674
 20
1002.725464
 10
-146.715805
 20
1002.78595
 10
-146.400757
 20
1002.857849
 10
-146.022263
 20
1002.936462
 10
-145.586029
 20
1003.017456
 10
-145.10408
 20
1003.097107
 10
-144.580872
 20
1003.17041
 10
-144.020386
 20
1003.232422
 10
-143.431976
 20
1003.279541
 10
-142.824921
 20
1003.309387
 10
-142.208344
 20
1003.320007
 10
-141.591675
 20
1003.309753
 10
-140.984344
 20
1003.280273
 10
-140.395508
 20
1003.233459
 10
-139.834396
 20
1003.171692
 10
-139.31041
 20
1003.098572
 10
-138.827652
 20
1003.018982
 10
-138.390457
 20
1002.937988
 10
-138.010788
 20
1002.859314
 10
-137.69458
 20
1002.787231
 10
-137.440475
 20
1002.726501
 10
-137.254761
 20
1002.680298
 10
-137.142044
 20
1002.651184
 10
-137.102509
 20
1002.641052
  0
LINE
  5
1AA
330
18D
100
AcDbEntity
  8
0
  6
Continuous
 62
     0
370
    30
100
AcDbLine
 10
-112.002502
 20
1002.641068
 30
0.0
 11
-112.002502
 21
1041.641068
 31
0.0
  0
LWPOLYLINE
  5
1AB
330
18D
100
AcDbEntity
  8
0
  6
Continuous
 62
     0
370
    30
100
AcDbPolyline
 90
       50
 70
     0
 43
0.0
 10
-154.002502
 20
1003.141052
 10
-154.002502
 20
1003.180054
 10
-154.002502
 20
1003.297058
 10
-154.002502
 20
1003.491333
 10
-154.002502
 20
1003.761963
 10
-154.002502
 20
1004.108215
 10
-154.002502
 20
1004.528809
 10
-154.002502
 20
1005.021729
 10
-154.002502
 20
1005.584717
 10
-154.002502
 20
1006.215454
 10
-154.002502
 20
1006.911743
 10
-154.002502
 20
1007.670837
 10
-154.002502
 20
1008.48938
 10
-154.002502
 20
1009.363831
 10
-154.002502
 20
1010.290588
 10
-154.002502
 20
1011.266052
 10
-154.002502
 20
1012.286438
 10
-154.002502
 20
1013.34729
 10
-154.002502
 20
1014.444092
 10
-154.002502
 20
1015.572388
 10
-154.002502
 20
1016.727722
 10
-154.002502
 20
1017.905396
 10
-154.002502
 20
1019.100525
 10
-154.002502
 20
1020.308044
 10
-154.002502
 20
1021.523071
 10
-154.002502
 20
1022.740601
 10
-154.002502
 20
1023.955688
 10
-154.002502
 20
1025.16333
 10
-154.002502
 20
1026.358643
 10
-154.002502
 20
1027.536621
 10
-154.002502
 20
1028.692383
 10
-154.002502
 20
1029.821167
 10
-154.002502
 20
1030.918457
 10
-154.002502
 20
1031.979858
 10
-154.002502
 20
1033.000854
 10
-154.002502
 20
1033.977051
 10
-154.002502
 20
1034.904663
 10
-154.002502
 20
1035.779907
 10
-154.002502
 20
1036.599243
 10
-154.002502
 20
1037.359375
 10
-154.002502
 20
1038.056641
 10
-154.002502
 20
1038.688354
 10
-154.002502
 20
1039.252319
 10
-154.002502
 20
1039.746338
 10
-154.002502
 20
1040.168091
 10
-154.002502
 20
1040.515503
 10
-154.002502
 20
1040.787231
 10
-154.002502
 20
1040.982666
 10
-154.002502
 20
1041.100952
 10
-154.002502
 20
1041.141113
  0
ARC
  5
1AC
330
18D
100
AcDbEntity
  8
0
  6
Continuous
 62
     0
370
    30
100
AcDbCircle
 10
-153.502502
 20
1003.141068
 30
0.0
 40
0.4999999999891571
100
AcDbArc
 50
180.0
 51
270.0
  0
ARC
  5
1AD
330
18D
100
AcDbEntity
  8
0
  6
Continuous
 62
     0
370
    30
100
AcDbCircle
 10
-145.002502
 20
1057.141068
 30
0.0
 40
0.5000000000183001
100
AcDbArc
 50
90.000079
 51
180.0
  0
ARC
  5
1AE
330
18D
100
AcDbEntity
  8
0
  6
Continuous
 62
     0
370
    30
100
AcDbCircle
 10
-149.502502
 20
1145.641071
 30
0.0
 40
3.99999999999995
100
AcDbArc
 50
270.0
 51
360.0
  0
LWPOLYLINE
  5
1AF
330
18D
100
AcDbEntity
  8
0
  6
Continuous
 62
     0
370
     0
100
AcDbPolyline
 90
       34
 70
     0
 43
0.0
 10
-132.502502
 20
1145.641113
 10
-132.535126
 20
1145.617188
 10
-132.630112
 20
1145.54895
 10
-132.783203
 20
1145.441162
 10
-132.990784
 20
1145.298584
 10
-133.250137
 20
1145.126343
 10
-133.558334
 20
1144.929565
 10
-133.911575
 20
1144.715332
 10
-134.305832
 20
1144.491211
 10
-134.738388
 20
1144.263916
 10
-135.20784
 20
1144.039673
 10
-135.712753
 20
1143.825073
 10
-136.251526
 20
1143.628174
 10
-136.822113
 20
1143.457642
 10
-137.420273
 20
1143.320312
 10
-138.040665
 20
1143.222778
 10
-138.675476
 20
1143.171021
 10
-139.315155
 20
1143.170532
 10
-139.950134
 20
1143.221191
 10
-140.570953
 20
1143.317627
 10
-141.169708
 20
1143.454102
 10
-141.741119
 20
1143.624023
 10
-142.280823
 20
1143.820312
 10
-142.786606
 20
1144.034912
 10
-143.256638
 20
1144.259155
 10
-143.689514
 20
1144.48645
 10
-144.083923
 20
1144.710327
 10
-144.437653
 20
1144.924438
 10
-144.74733
 20
1145.121826
 10
-145.009415
 20
1145.296021
 10
-145.219772
 20
1145.44043
 10
-145.374146
 20
1145.54895
 10
-145.469223
 20
1145.616821
 10
-145.502502
 20
1145.641113
  0
LWPOLYLINE
  5
1B0
330
18D
100
AcDbEntity
  8
0
  6
Continuous
 62
     0
370
     0
100
AcDbPolyline
 90
       43
 70
     0
 43
0.0
 10
-149.502502
 20
1141.641113
 10
-149.4655
 20
1141.627319
 10
-149.35611
 20
1141.587036
 10
-149.177231
 20
1141.521973
 10
-148.932327
 20
1141.434204
 10
-148.626373
 20
1141.327026
 10
-148.26474
 20
1141.204102
 10
-147.852676
 20
1141.06897
 10
-147.395157
 20
1140.925049
 10
-146.897018
 20
1140.776001
 10
-146.362839
 20
1140.625
 10
-145.796112
 20
1140.475098
 10
-145.200104
 20
1140.329102
 10
-144.578049
 20
1140.189819
 10
-143.932907
 20
1140.059814
 10
-143.267548
 20
1139.942017
 10
-142.584885
 20
1139.838745
 10
-141.887726
 20
1139.751465
 10
-141.178879
 20
1139.681274
 10
-140.461166
 20
1139.629517
 10
-139.737534
 20
1139.597534
 10
-139.01091
 20
1139.586548
 10
-138.284256
 20
1139.597168
 10
-137.560501
 20
1139.628662
 10
-136.84259
 20
1139.679932
 10
-136.133453
 20
1139.749512
 10
-135.435959
 20
1139.836426
 10
-134.75293
 20
1139.939209
 10
-134.087204
 20
1140.056519
 10
-133.44165
 20
1140.186035
 10
-132.819138
 20
1140.325195
 10
-132.222549
 20
1140.471191
 10
-131.654984
 20
1140.621338
 10
-131.119614
 20
1140.772827
 10
-130.619934
 20
1140.922607
 10
-130.161026
 20
1141.066895
 10
-129.748444
 20
1141.202026
 10
-129.387497
 20
1141.324219
 10
-129.082397
 20
1141.430542
 10
-128.837006
 20
1141.518066
 10
-128.655411
 20
1141.584106
 10
-128.542328
 20
1141.625977
 10
-128.502502
 20
1141.641113
  0
LINE
  5
1B1
330
18D
100
AcDbEntity
  8
0
  6
Continuous
 62
     0
370
    30
100
AcDbLine
 10
-145.502502
 20
1145.641071
 30
0.0
 11
-145.502502
 21
1157.141071
 31
0.0
  0
LINE
  5
1B2
330
18D
100
AcDbEntity
  8
0
  6
Continuous
 62
     0
370
     0
100
AcDbLine
 10
-132.502502
 20
1157.141071
 30
0.0
 11
-145.502502
 21
1157.141071
 31
0.0
  0
LWPOLYLINE
  5
1B3
330
18D
100
AcDbEntity
  8
0
  6
Continuous
 62
     0
370
    30
100
AcDbPolyline
 90
       29
 70
     0
 43
0.0
 10
-145.002502
 20
1157.641113
 10
-144.964844
 20
1157.641113
 10
-144.852417
 20
1157.641113
 10
-144.666656
 20
1157.641113
 10
-144.409622
 20
1157.641113
 10
-144.084976
 20
1157.641113
 10
-143.696533
 20
1157.641113
 10
-143.249039
 20
1157.641113
 10
-142.748444
 20
1157.641113
 10
-142.200775
 20
1157.641113
 10
-141.612946
 20
1157.641113
 10
-140.992462
 20
1157.641113
 10
-140.34697
 20
1157.641113
 10
-139.68457
 20
1157.641113
 10
-139.013672
 20
1157.641113
 10
-138.342621
 20
1157.641113
 10
-137.67981
 20
1157.641113
 10
-137.033615
 20
1157.641113
 10
-136.412186
 20
1157.641113
 10
-135.823135
 20
1157.641113
 10
-135.274033
 20
1157.641113
 10
-134.771759
 20
1157.641113
 10
-134.322418
 20
1157.641113
 10
-133.931931
 20
1157.641113
 10
-133.605087
 20
1157.641113
 10
-133.345764
 20
1157.641113
 10
-133.157578
 20
1157.641113
 10
-133.042694
 20
1157.641113
 10
-133.002502
 20
1157.641113
  0
LINE
  5
1B4
330
18D
100
AcDbEntity
  8
0
  6
Continuous
 62
     0
370
    30
100
AcDbLine
 10
-112.002502
 20
1102.641071
 30
0.0
 11
-137.102502
 21
1102.641071
 31
0.0
  0
LINE
  5
1B5
330
18D
100
AcDbEntity
  8
0
  6
Continuous
 62
     0
370
    30
100
AcDbLine
 10
-147.302502
 20
1102.641071
 30
0.0
 11
-153.502502
 21
1102.641071
 31
0.0
  0
LINE
  5
1B6
330
18D
100
AcDbEntity
  8
0
  6
Continuous
 62
     0
370
     0
100
AcDbLine
 10
-153.502502
 20
1141.641071
 30
0.0
 11
-153.502502
 21
1102.641071
 31
0.0
  0
LWPOLYLINE
  5
1B7
330
18D
100
AcDbEntity
  8
0
  6
Continuous
 62
     0
370
     0
100
AcDbPolyline
 90
       27
 70
     0
 43
0.0
 10
-147.302505
 20
1102.641113
 10
-147.264343
 20
1102.650879
 10
-147.15303
 20
1102.679565
 10
-146.968674
 20
1102.725464
 10
-146.715805
 20
1102.786011
 10
-146.400757
 20
1102.85791
 10
-146.022263
 20
1102.936401
 10
-145.586029
 20
1103.017456
 10
-145.10408
 20
1103.097046
 10
-144.580872
 20
1103.17041
 10
-144.020386
 20
1103.232422
 10
-143.431976
 20
1103.279541
 10
-142.824921
 20
1103.309326
 10
-142.208344
 20
1103.320068
 10
-141.591675
 20
1103.309814
 10
-140.984344
 20
1103.280273
 10
-140.395508
 20
1103.233521
 10
-139.834396
 20
1103.171753
 10
-139.31041
 20
1103.098511
 10
-138.827652
 20
1103.019043
 10
-138.390457
 20
1102.937988
 10
-138.010788
 20
1102.859253
 10
-137.69458
 20
1102.787231
 10
-137.440475
 20
1102.726562
 10
-137.254761
 20
1102.680298
 10
-137.142044
 20
1102.651245
 10
-137.102509
 20
1102.641113
  0
LINE
  5
1B8
330
18D
100
AcDbEntity
  8
0
  6
Continuous
 62
     0
370
    30
100
AcDbLine
 10
-112.002502
 20
1102.641071
 30
0.0
 11
-112.002502
 21
1141.641071
 31
0.0
  0
LWPOLYLINE
  5
1B9
330
18D
100
AcDbEntity
  8
0
  6
Continuous
 62
     0
370
    30
100
AcDbPolyline
 90
       50
 70
     0
 43
0.0
 10
-154.002502
 20
1103.141113
 10
-154.002502
 20
1103.180054
 10
-154.002502
 20
1103.296997
 10
-154.002502
 20
1103.491333
 10
-154.002502
 20
1103.761963
 10
-154.002502
 20
1104.108154
 10
-154.002502
 20
1104.528809
 10
-154.002502
 20
1105.021729
 10
-154.002502
 20
1105.584717
 10
-154.002502
 20
1106.215454
 10
-154.002502
 20
1106.911743
 10
-154.002502
 20
1107.670898
 10
-154.002502
 20
1108.48938
 10
-154.002502
 20
1109.363892
 10
-154.002502
 20
1110.290527
 10
-154.002502
 20
1111.266113
 10
-154.002502
 20
1112.286499
 10
-154.002502
 20
1113.34729
 10
-154.002502
 20
1114.444092
 10
-154.002502
 20
1115.572388
 10
-154.002502
 20
1116.727783
 10
-154.002502
 20
1117.905396
 10
-154.002502
 20
1119.100464
 10
-154.002502
 20
1120.308105
 10
-154.002502
 20
1121.523071
 10
-154.002502
 20
1122.740601
 10
-154.002502
 20
1123.955688
 10
-154.002502
 20
1125.16333
 10
-154.002502
 20
1126.358643
 10
-154.002502
 20
1127.536621
 10
-154.002502
 20
1128.692383
 10
-154.002502
 20
1129.821167
 10
-154.002502
 20
1130.918457
 10
-154.002502
 20
1131.979858
 10
-154.002502
 20
1133.000854
 10
-154.002502
 20
1133.977051
 10
-154.002502
 20
1134.904663
 10
-154.002502
 20
1135.779907
 10
-154.002502
 20
1136.599243
 10
-154.002502
 20
1137.359375
 10
-154.002502
 20
1138.056641
 10
-154.002502
 20
1138.688354
 10
-154.002502
 20
1139.252319
 10
-154.002502
 20
1139.746338
 10
-154.002502
 20
1140.168091
 10
-154.002502
 20
1140.515503
 10
-154.002502
 20
1140.787231
 10
-154.002502
 20
1140.982666
 10
-154.002502
 20
1141.100952
 10
-154.002502
 20
1141.141113
  0
ARC
  5
1BA
330
18D
100
AcDbEntity
  8
0
  6
Continuous
 62
     0
370
    30
100
AcDbCircle
 10
-153.502502
 20
1103.141071
 30
0.0
 40
0.499999999993527
100
AcDbArc
 50
180.0
 51
270.0
  0
ARC
  5
1BB
330
18D
100
AcDbEntity
  8
0
  6
Continuous
 62
     0
370
    30
100
AcDbCircle
 10
-145.002502
 20
1157.141071
 30
0.0
 40
0.4999999999781758
100
AcDbArc
 50
90.000079
 51
180.0
  0
ARC
  5
1BC
330
18D
100
AcDbEntity
  8
0
  6
Continuous
 62
     0
370
    30
100
AcDbCircle
 10
-149.502502
 20
945.641069
 30
0.0
 40
4.000000000001542
100
AcDbArc
 50
270.0
 51
360.0
  0
LWPOLYLINE
  5
1BD
330
18D
100
AcDbEntity
  8
0
  6
Continuous
 62
     0
370
     0
100
AcDbPolyline
 90
       34
 70
     0
 43
0.0
 10
-132.502502
 20
945.641052
 10
-132.535126
 20
945.617188
 10
-132.630112
 20
945.54895
 10
-132.783203
 20
945.441101
 10
-132.990784
 20
945.298584
 10
-133.250137
 20
945.126343
 10
-133.558334
 20
944.929565
 10
-133.911575
 20
944.715332
 10
-134.305832
 20
944.491211
 10
-134.738388
 20
944.263977
 10
-135.20784
 20
944.039673
 10
-135.712753
 20
943.825012
 10
-136.251526
 20
943.628235
 10
-136.822113
 20
943.457581
 10
-137.420273
 20
943.320251
 10
-138.040665
 20
943.222778
 10
-138.675476
 20
943.171082
 10
-139.315155
 20
943.170471
 10
-139.950134
 20
943.22113
 10
-140.570953
 20
943.317688
 10
-141.169708
 20
943.454102
 10
-141.741119
 20
943.624023
 10
-142.280823
 20
943.820374
 10
-142.786606
 20
944.034851
 10
-143.256638
 20
944.259155
 10
-143.689514
 20
944.486389
 10
-144.083923
 20
944.710327
 10
-144.437653
 20
944.924377
 10
-144.74733
 20
945.121826
 10
-145.009415
 20
945.295959
 10
-145.219772
 20
945.44043
 10
-145.374146
 20
945.54895
 10
-145.469223
 20
945.616821
 10
-145.502502
 20
945.641052
  0
LWPOLYLINE
  5
1BE
330
18D
100
AcDbEntity
  8
0
  6
Continuous
 62
     0
370
     0
100
AcDbPolyline
 90
       43
 70
     0
 43
0.0
 10
-149.502502
 20
941.641052
 10
-149.4655
 20
941.627319
 10
-149.35611
 20
941.587036
 10
-149.177231
 20
941.521973
 10
-148.932327
 20
941.434204
 10
-148.626373
 20
941.327087
 10
-148.26474
 20
941.204163
 10
-147.852676
 20
941.06897
 10
-147.395157
 20
940.925049
 10
-146.897018
 20
940.77594
 10
-146.362839
 20
940.625
 10
-145.796112
 20
940.475098
 10
-145.200104
 20
940.329102
 10
-144.578049
 20
940.189758
 10
-143.932907
 20
940.059875
 10
-143.267548
 20
939.942078
 10
-142.584885
 20
939.838745
 10
-141.887726
 20
939.751404
 10
-141.178879
 20
939.681274
 10
-140.461166
 20
939.629578
 10
-139.737534
 20
939.597595
 10
-139.01091
 20
939.586487
 10
-138.284256
 20
939.597168
 10
-137.560501
 20
939.628723
 10
-136.84259
 20
939.679932
 10
-136.133453
 20
939.749573
 10
-135.435959
 20
939.836365
 10
-134.75293
 20
939.939148
 10
-134.087204
 20
940.056458
 10
-133.44165
 20
940.186035
 10
-132.819138
 20
940.325134
 10
-132.222549
 20
940.471191
 10
-131.654984
 20
940.621338
 10
-131.119614
 20
940.772827
 10
-130.619934
 20
940.922546
 10
-130.161026
 20
941.066956
 10
-129.748444
 20
941.202026
 10
-129.387497
 20
941.324219
 10
-129.082397
 20
941.430481
 10
-128.837006
 20
941.518066
 10
-128.655411
 20
941.584106
 10
-128.542328
 20
941.626038
 10
-128.502502
 20
941.641052
  0
LINE
  5
1BF
330
18D
100
AcDbEntity
  8
0
  6
Continuous
 62
     0
370
    30
100
AcDbLine
 10
-145.502502
 20
945.641069
 30
0.0
 11
-145.502502
 21
957.141069
 31
0.0
  0
LINE
  5
1C0
330
18D
100
AcDbEntity
  8
0
  6
Continuous
 62
     0
370
     0
100
AcDbLine
 10
-132.502502
 20
957.141069
 30
0.0
 11
-145.502502
 21
957.141069
 31
0.0
  0
LWPOLYLINE
  5
1C1
330
18D
100
AcDbEntity
  8
0
  6
Continuous
 62
     0
370
    30
100
AcDbPolyline
 90
       29
 70
     0
 43
0.0
 10
-145.002502
 20
957.641052
 10
-144.964844
 20
957.641052
 10
-144.852417
 20
957.641052
 10
-144.666656
 20
957.641052
 10
-144.409622
 20
957.641052
 10
-144.084976
 20
957.641052
 10
-143.696533
 20
957.641052
 10
-143.249039
 20
957.641052
 10
-142.748444
 20
957.641052
 10
-142.200775
 20
957.641052
 10
-141.612946
 20
957.641052
 10
-140.992462
 20
957.641052
 10
-140.34697
 20
957.641052
 10
-139.68457
 20
957.641052
 10
-139.013672
 20
957.641052
 10
-138.342621
 20
957.641052
 10
-137.67981
 20
957.641052
 10
-137.033615
 20
957.641052
 10
-136.412186
 20
957.641052
 10
-135.823135
 20
957.641052
 10
-135.274033
 20
957.641052
 10
-134.771759
 20
957.641052
 10
-134.322418
 20
957.641052
 10
-133.931931
 20
957.641052
 10
-133.605087
 20
957.641052
 10
-133.345764
 20
957.641052
 10
-133.157578
 20
957.641052
 10
-133.042694
 20
957.641052
 10
-133.002502
 20
957.641052
  0
LINE
  5
1C2
330
18D
100
AcDbEntity
  8
0
  6
Continuous
 62
     0
370
    30
100
AcDbLine
 10
-112.002502
 20
902.641069
 30
0.0
 11
-137.102502
 21
902.641069
 31
0.0
  0
LINE
  5
1C3
330
18D
100
AcDbEntity
  8
0
  6
Continuous
 62
     0
370
    30
100
AcDbLine
 10
-147.302502
 20
902.641069
 30
0.0
 11
-153.502502
 21
902.641069
 31
0.0
  0
LINE
  5
1C4
330
18D
100
AcDbEntity
  8
0
  6
Continuous
 62
     0
370
     0
100
AcDbLine
 10
-153.502502
 20
941.641069
 30
0.0
 11
-153.502502
 21
902.641069
 31
0.0
  0
LWPOLYLINE
  5
1C5
330
18D
100
AcDbEntity
  8
0
  6
Continuous
 62
     0
370
     0
100
AcDbPolyline
 90
       27
 70
     0
 43
0.0
 10
-147.302505
 20
902.641052
 10
-147.264343
 20
902.650818
 10
-147.15303
 20
902.679565
 10
-146.968674
 20
902.725464
 10
-146.715805
 20
902.786011
 10
-146.400757
 20
902.857849
 10
-146.022263
 20
902.936462
 10
-145.586029
 20
903.017456
 10
-145.10408
 20
903.097107
 10
-144.580872
 20
903.17041
 10
-144.020386
 20
903.232483
 10
-143.431976
 20
903.279541
 10
-142.824921
 20
903.309387
 10
-142.208344
 20
903.320007
 10
-141.591675
 20
903.309753
 10
-140.984344
 20
903.280273
 10
-140.395508
 20
903.233459
 10
-139.834396
 20
903.171692
 10
-139.31041
 20
903.098572
 10
-138.827652
 20
903.018982
 10
-138.390457
 20
902.937988
 10
-138.010788
 20
902.859314
 10
-137.69458
 20
902.787231
 10
-137.440475
 20
902.726501
 10
-137.254761
 20
902.680298
 10
-137.142044
 20
902.651184
 10
-137.102509
 20
902.641052
  0
LINE
  5
1C6
330
18D
100
AcDbEntity
  8
0
  6
Continuous
 62
     0
370
    30
100
AcDbLine
 10
-112.002502
 20
902.641069
 30
0.0
 11
-112.002502
 21
941.641069
 31
0.0
  0
LWPOLYLINE
  5
1C7
330
18D
100
AcDbEntity
  8
0
  6
Continuous
 62
     0
370
    30
100
AcDbPolyline
 90
       50
 70
     0
 43
0.0
 10
-154.002502
 20
903.141052
 10
-154.002502
 20
903.180054
 10
-154.002502
 20
903.297058
 10
-154.002502
 20
903.491333
 10
-154.002502
 20
903.761963
 10
-154.002502
 20
904.108215
 10
-154.002502
 20
904.528809
 10
-154.002502
 20
905.021729
 10
-154.002502
 20
905.584717
 10
-154.002502
 20
906.215454
 10
-154.002502
 20
906.911743
 10
-154.002502
 20
907.670837
 10
-154.002502
 20
908.48938
 10
-154.002502
 20
909.363831
 10
-154.002502
 20
910.290588
 10
-154.002502
 20
911.266052
 10
-154.002502
 20
912.286438
 10
-154.002502
 20
913.34729
 10
-154.002502
 20
914.444092
 10
-154.002502
 20
915.572388
 10
-154.002502
 20
916.727722
 10
-154.002502
 20
917.905396
 10
-154.002502
 20
919.100525
 10
-154.002502
 20
920.308044
 10
-154.002502
 20
921.523071
 10
-154.002502
 20
922.740601
 10
-154.002502
 20
923.955688
 10
-154.002502
 20
925.163391
 10
-154.002502
 20
926.358704
 10
-154.002502
 20
927.536682
 10
-154.002502
 20
928.692383
 10
-154.002502
 20
929.821167
 10
-154.002502
 20
930.918457
 10
-154.002502
 20
931.979858
 10
-154.002502
 20
933.000916
 10
-154.002502
 20
933.977112
 10
-154.002502
 20
934.904602
 10
-154.002502
 20
935.779846
 10
-154.002502
 20
936.599304
 10
-154.002502
 20
937.359375
 10
-154.002502
 20
938.05658
 10
-154.002502
 20
938.688354
 10
-154.002502
 20
939.25238
 10
-154.002502
 20
939.746399
 10
-154.002502
 20
940.168091
 10
-154.002502
 20
940.515442
 10
-154.002502
 20
940.787292
 10
-154.002502
 20
940.982727
 10
-154.002502
 20
941.100891
 10
-154.002502
 20
941.141052
  0
ARC
  5
1C8
330
18D
100
AcDbEntity
  8
0
  6
Continuous
 62
     0
370
    30
100
AcDbCircle
 10
-153.502502
 20
903.141069
 30
0.0
 40
0.4999999999922764
100
AcDbArc
 50
180.0
 51
270.0
  0
ARC
  5
1C9
330
18D
100
AcDbEntity
  8
0
  6
Continuous
 62
     0
370
    30
100
AcDbCircle
 10
-145.002502
 20
957.141069
 30
0.0
 40
0.500000000005688
100
AcDbArc
 50
90.000079
 51
180.0
  0
LINE
  5
1CA
330
18D
100
AcDbEntity
  8
0
  6
Continuous
 62
     0
370
    30
100
AcDbLine
 10
-149.052502
 20
831.471067
 30
0.0
 11
-156.952502
 21
831.471067
 31
0.0
  0
LINE
  5
1CB
330
18D
100
AcDbEntity
  8
0
  6
Continuous
 62
     0
370
    30
100
AcDbLine
 10
-156.952502
 20
824.141068
 30
0.0
 11
-156.952502
 21
831.471067
 31
0.0
  0
LWPOLYLINE
  5
1CC
330
18D
100
AcDbEntity
  8
0
  6
Continuous
 62
     0
370
    30
100
AcDbPolyline
 90
       24
 70
     0
 43
0.0
 10
-149.052521
 20
824.141052
 10
-149.08934
 20
824.13446
 10
-149.19902
 20
824.115234
 10
-149.379333
 20
824.084717
 10
-149.626678
 20
824.045227
 10
-149.936325
 20
823.999695
 10
-150.302597
 20
823.951294
 10
-150.718826
 20
823.903687
 10
-151.177628
 20
823.860352
 10
-151.670776
 20
823.824524
 10
-152.189178
 20
823.798828
 10
-152.72316
 20
823.7854
 10
-153.262512
 20
823.785156
 10
-153.796875
 20
823.798157
 10
-154.31601
 20
823.823425
 10
-154.810226
 20
823.858948
 10
-155.270401
 20
823.902039
 10
-155.688293
 20
823.949585
 10
-156.056473
 20
823.997986
 10
-156.368256
 20
824.043701
 10
-156.617935
 20
824.083496
 10
-156.800674
 20
824.114319
 10
-156.912994
 20
824.134033
 10
-156.952499
 20
824.141052
  0
LINE
  5
1CD
330
18D
100
AcDbEntity
  8
0
  6
Continuous
 62
     0
370
    30
100
AcDbLine
 10
-156.452502
 20
831.971067
 30
0.0
 11
-156.952502
 21
831.471067
 31
0.0
  0
LWPOLYLINE
  5
1CE
330
18D
100
AcDbEntity
  8
0
  6
Continuous
 62
     0
370
    30
100
AcDbPolyline
 90
       22
 70
     0
 43
0.0
 10
-149.552505
 20
831.971069
 10
-149.591705
 20
831.970337
 10
-149.706985
 20
831.969055
 10
-149.895187
 20
831.969116
 10
-150.151443
 20
831.969971
 10
-150.471237
 20
831.970764
 10
-150.848221
 20
831.970764
 10
-151.273605
 20
831.970215
 10
-151.737152
 20
831.96991
 10
-152.22847
 20
831.970276
 10
-152.737274
 20
831.971008
 10
-153.252014
 20
831.970154
 10
-153.760941
 20
831.967957
 10
-154.252716
 20
831.966919
 10
-154.717285
 20
831.96759
 10
-155.144714
 20
831.969238
 10
-155.524765
 20
831.970581
 10
-155.847519
 20
831.971008
 10
-156.105774
 20
831.970886
 10
-156.295517
 20
831.970703
 10
-156.41243
 20
831.970825
 10
-156.452499
 20
831.971069
  0
LWPOLYLINE
  5
1CF
330
18D
100
AcDbEntity
  8
0
  6
Continuous
 62
     0
370
    30
100
AcDbPolyline
 90
       53
 70
     0
 43
0.0
 10
-162.002502
 20
780.641052
 10
-162.002502
 20
780.680176
 10
-162.002502
 20
780.797852
 10
-162.002502
 20
780.993164
 10
-162.002502
 20
781.265442
 10
-162.002502
 20
781.613831
 10
-162.002502
 20
782.037415
 10
-162.002502
 20
782.534485
 10
-162.002502
 20
783.102844
 10
-162.002502
 20
783.740356
 10
-162.002502
 20
784.444885
 10
-162.002502
 20
785.214233
 10
-162.002502
 20
786.045593
 10
-162.002502
 20
786.935547
 10
-162.002502
 20
787.880737
 10
-162.002502
 20
788.877808
 10
-162.002502
 20
789.92334
 10
-162.002502
 20
791.013672
 10
-162.002502
 20
792.144592
 10
-162.002502
 20
793.311829
 10
-162.002502
 20
794.511108
 10
-162.002502
 20
795.738281
 10
-162.002502
 20
796.988953
 10
-162.002502
 20
798.258423
 10
-162.002502
 20
799.541992
 10
-162.002502
 20
800.835083
 10
-162.002502
 20
802.132812
 10
-162.002502
 20
803.430603
 10
-162.002502
 20
804.723755
 10
-162.002502
 20
806.007507
 10
-162.002502
 20
807.277161
 10
-162.002502
 20
808.528076
 10
-162.002502
 20
809.755615
 10
-162.002502
 20
810.955261
 10
-162.002502
 20
812.122925
 10
-162.002502
 20
813.254333
 10
-162.002502
 20
814.345215
 10
-162.002502
 20
815.391357
 10
-162.002502
 20
816.389099
 10
-162.002502
 20
817.334961
 10
-162.002502
 20
818.225586
 10
-162.002502
 20
819.057678
 10
-162.002502
 20
819.827881
 10
-162.002502
 20
820.533203
 10
-162.002502
 20
821.171631
 10
-162.002502
 20
821.740845
 10
-162.002502
 20
822.238831
 10
-162.002502
 20
822.663391
 10
-162.002502
 20
823.012756
 10
-162.002502
 20
823.28595
 10
-162.002502
 20
823.4823
 10
-162.002502
 20
823.600952
 10
-162.002502
 20
823.641052
  0
LINE
  5
1D0
330
18D
100
AcDbEntity
  8
0
  6
Continuous
 62
     0
370
    30
100
AcDbLine
 10
-162.002502
 20
780.641067
 30
0.0
 11
-161.502502
 21
780.141068
 31
0.0
  0
LINE
  5
1D1
330
18D
100
AcDbEntity
  8
0
  6
Continuous
 62
     0
370
    30
100
AcDbLine
 10
-161.502502
 20
780.141068
 30
0.0
 11
-161.502502
 21
824.141068
 31
0.0
  0
LINE
  5
1D2
330
18D
100
AcDbEntity
  8
0
  6
Continuous
 62
     0
370
    30
100
AcDbLine
 10
-148.252502
 20
780.141068
 30
0.0
 11
-112.002502
 21
780.141068
 31
0.0
  0
LINE
  5
1D3
330
18D
100
AcDbEntity
  8
0
  6
Continuous
 62
     0
370
    30
100
AcDbLine
 10
-112.002502
 20
780.141068
 30
0.0
 11
-112.002502
 21
824.141068
 31
0.0
  0
LINE
  5
1D4
330
18D
100
AcDbEntity
  8
0
  6
Continuous
 62
     0
370
    30
100
AcDbLine
 10
-157.752502
 20
780.141068
 30
0.0
 11
-161.502502
 21
780.141068
 31
0.0
  0
LWPOLYLINE
  5
1D5
330
18D
100
AcDbEntity
  8
0
  6
Continuous
 62
     0
370
     0
100
AcDbPolyline
 90
       26
 70
     0
 43
0.0
 10
-157.752502
 20
780.141052
 10
-157.714737
 20
780.14917
 10
-157.600891
 20
780.173218
 10
-157.414673
 20
780.211243
 10
-157.161331
 20
780.261047
 10
-156.84465
 20
780.319641
 10
-156.463669
 20
780.382935
 10
-156.028259
 20
780.447388
 10
-155.548599
 20
780.509583
 10
-155.028152
 20
780.56488
 10
-154.473923
 20
780.60968
 10
-153.895966
 20
780.641235
 10
-153.303574
 20
780.657898
 10
-152.706314
 20
780.657959
 10
-152.113846
 20
780.641418
 10
-151.535721
 20
780.609985
 10
-150.981277
 20
780.565308
 10
-150.46051
 20
780.510071
 10
-149.980515
 20
780.447937
 10
-149.544708
 20
780.383423
 10
-149.163239
 20
780.320129
 10
-148.846008
 20
780.261475
 10
-148.592133
 20
780.211609
 10
-148.405319
 20
780.173462
 10
-148.290878
 20
780.149353
 10
-148.252502
 20
780.141052
  0
LWPOLYLINE
  5
1D6
330
18D
100
AcDbEntity
  8
0
  6
Continuous
 62
     0
370
     0
100
AcDbPolyline
 90
       25
 70
     0
 43
0.0
 10
-148.902496
 20
824.141052
 10
-148.93718
 20
824.134583
 10
-149.042664
 20
824.115051
 10
-149.218674
 20
824.083679
 10
-149.4599
 20
824.043335
 10
-149.76062
 20
823.997131
 10
-150.114746
 20
823.947937
 10
-150.515213
 20
823.89856
 10
-150.956375
 20
823.852173
 10
-151.43335
 20
823.812378
 10
-151.937683
 20
823.781921
 10
-152.460251
 20
823.762573
 10
-152.99205
 20
823.755615
 10
-153.524048
 20
823.762024
 10
-154.047119
 20
823.780945
 10
-154.552307
 20
823.811035
 10
-155.030518
 20
823.850525
 10
-155.473282
 20
823.896667
 10
-155.875443
 20
823.945984
 10
-156.231445
 20
823.995239
 10
-156.534378
 20
824.041626
 10
-156.778076
 20
824.082275
 10
-156.956772
 20
824.114014
 10
-157.064957
 20
824.134094
 10
-157.102112
 20
824.141052
  0
LINE
  5
1D7
330
18D
100
AcDbEntity
  8
0
  6
Continuous
 62
     0
370
    30
100
AcDbLine
 10
-157.752502
 20
780.141068
 30
0.0
 11
-148.252502
 21
780.141068
 31
0.0
  0
LINE
  5
1D8
330
18D
100
AcDbEntity
  8
0
  6
Continuous
 62
     0
370
    30
100
AcDbLine
 10
-156.952502
 20
824.141068
 30
0.0
 11
-157.102105
 21
824.141068
 31
0.0
  0
LINE
  5
1D9
330
18D
100
AcDbEntity
  8
0
  6
Continuous
 62
     0
370
    30
100
AcDbLine
 10
-149.052525
 20
824.141068
 30
0.0
 11
-148.902502
 21
824.141068
 31
0.0
  0
LINE
  5
1DA
330
18D
100
AcDbEntity
  8
0
  6
Continuous
 62
     0
370
    30
100
AcDbLine
 10
-112.002502
 20
824.141068
 30
0.0
 11
-148.902502
 21
824.141068
 31
0.0
  0
LINE
  5
1DB
330
18D
100
AcDbEntity
  8
0
  6
Continuous
 62
     0
370
    30
100
AcDbLine
 10
-161.502503
 20
824.141068
 30
0.0
 11
-157.102105
 21
824.141068
 31
0.0
  0
LINE
  5
1DC
330
18D
100
AcDbEntity
  8
0
  6
Continuous
 62
     0
370
    30
100
AcDbLine
 10
-162.002502
 20
823.641068
 30
0.0
 11
-161.502502
 21
824.141068
 31
0.0
  0
LINE
  5
1DD
330
18D
100
AcDbEntity
  8
0
  6
Continuous
 62
     0
370
    30
100
AcDbLine
 10
-149.052502
 20
831.471067
 30
0.0
 11
-149.552502
 21
831.971067
 31
0.0
  0
LINE
  5
1DE
330
18D
100
AcDbEntity
  8
0
  6
Continuous
 62
     0
370
    30
100
AcDbLine
 10
-149.052502
 20
831.471068
 30
0.0
 11
-149.052502
 21
824.141053
 31
0.0
  0
LINE
  5
1DF
330
18D
100
AcDbEntity
  8
0
  6
Continuous
 62
     0
370
    30
100
AcDbLine
 10
-137.102502
 20
902.641069
 30
0.0
 11
-147.302502
 21
902.641069
 31
0.0
  0
ARC
  5
1E0
330
18D
100
AcDbEntity
  8
0
  6
Continuous
 62
     0
370
    30
100
AcDbCircle
 10
-133.002506
 20
957.141066
 30
0.0
 40
0.5000034422906738
100
AcDbArc
 50
0.000394
 51
89.999606
  0
ARC
  5
1E1
330
18D
100
AcDbEntity
  8
0
  6
Continuous
 62
     0
370
    30
100
AcDbCircle
 10
-153.502499
 20
941.141066
 30
0.0
 40
0.5000034422911641
100
AcDbArc
 50
90.000394
 51
179.999606
  0
LINE
  5
1E2
330
18D
100
AcDbEntity
  8
0
  6
Continuous
 62
     0
370
    30
100
AcDbLine
 10
-153.502503
 20
941.641069
 30
0.0
 11
-149.502502
 21
941.641069
 31
0.0
  0
LINE
  5
1E3
330
18D
100
AcDbEntity
  8
0
  6
Continuous
 62
     0
370
    30
100
AcDbLine
 10
-112.002502
 20
941.641069
 30
0.0
 11
-128.502509
 21
941.641069
 31
0.0
  0
LINE
  5
1E4
330
18D
100
AcDbEntity
  8
0
  6
Continuous
 62
     0
370
    30
100
AcDbLine
 10
-132.502502
 20
945.641069
 30
0.0
 11
-132.502502
 21
957.141069
 31
0.0
  0
ARC
  5
1E5
330
18D
100
AcDbEntity
  8
0
  6
Continuous
 62
     0
370
    30
100
AcDbCircle
 10
-128.502484
 20
945.641081
 30
0.0
 40
4.000019106963556
100
AcDbArc
 50
180.000172
 51
269.999644
  0
LINE
  5
1E6
330
18D
100
AcDbEntity
  8
0
  6
Continuous
 62
     0
370
    30
100
AcDbLine
 10
-137.102502
 20
1102.641071
 30
0.0
 11
-147.302502
 21
1102.641071
 31
0.0
  0
ARC
  5
1E7
330
18D
100
AcDbEntity
  8
0
  6
Continuous
 62
     0
370
    30
100
AcDbCircle
 10
-133.002506
 20
1157.141067
 30
0.0
 40
0.5000034423025649
100
AcDbArc
 50
0.000394
 51
89.999606
  0
ARC
  5
1E8
330
18D
100
AcDbEntity
  8
0
  6
Continuous
 62
     0
370
    30
100
AcDbCircle
 10
-153.502499
 20
1141.141067
 30
0.0
 40
0.5000034422781113
100
AcDbArc
 50
90.000394
 51
179.999606
  0
LINE
  5
1E9
330
18D
100
AcDbEntity
  8
0
  6
Continuous
 62
     0
370
    30
100
AcDbLine
 10
-153.502503
 20
1141.641071
 30
0.0
 11
-149.502502
 21
1141.641071
 31
0.0
  0
LINE
  5
1EA
330
18D
100
AcDbEntity
  8
0
  6
Continuous
 62
     0
370
    30
100
AcDbLine
 10
-112.002502
 20
1141.641071
 30
0.0
 11
-128.502509
 21
1141.641071
 31
0.0
  0
LINE
  5
1EB
330
18D
100
AcDbEntity
  8
0
  6
Continuous
 62
     0
370
    30
100
AcDbLine
 10
-132.502502
 20
1145.641071
 30
0.0
 11
-132.502502
 21
1157.141071
 31
0.0
  0
ARC
  5
1EC
330
18D
100
AcDbEntity
  8
0
  6
Continuous
 62
     0
370
    30
100
AcDbCircle
 10
-128.502484
 20
1145.641083
 30
0.0
 40
4.000019106966839
100
AcDbArc
 50
180.000172
 51
269.999644
  0
LINE
  5
1ED
330
18D
100
AcDbEntity
  8
0
  6
Continuous
 62
     0
370
    30
100
AcDbLine
 10
-137.102502
 20
1002.641068
 30
0.0
 11
-147.302502
 21
1002.641068
 31
0.0
  0
ARC
  5
1EE
330
18D
100
AcDbEntity
  8
0
  6
Continuous
 62
     0
370
    30
100
AcDbCircle
 10
-133.002506
 20
1057.141064
 30
0.0
 40
0.500003442262227
100
AcDbArc
 50
0.000394
 51
89.999606
  0
ARC
  5
1EF
330
18D
100
AcDbEntity
  8
0
  6
Continuous
 62
     0
370
    30
100
AcDbCircle
 10
-153.502499
 20
1041.141064
 30
0.0
 40
0.500003442286844
100
AcDbArc
 50
90.000394
 51
179.999606
  0
LINE
  5
1F0
330
18D
100
AcDbEntity
  8
0
  6
Continuous
 62
     0
370
    30
100
AcDbLine
 10
-153.502503
 20
1041.641068
 30
0.0
 11
-149.502502
 21
1041.641068
 31
0.0
  0
LINE
  5
1F1
330
18D
100
AcDbEntity
  8
0
  6
Continuous
 62
     0
370
    30
100
AcDbLine
 10
-112.002502
 20
1041.641068
 30
0.0
 11
-128.502509
 21
1041.641068
 31
0.0
  0
LINE
  5
1F2
330
18D
100
AcDbEntity
  8
0
  6
Continuous
 62
     0
370
    30
100
AcDbLine
 10
-132.502502
 20
1045.641068
 30
0.0
 11
-132.502502
 21
1057.141068
 31
0.0
  0
ARC
  5
1F3
330
18D
100
AcDbEntity
  8
0
  6
Continuous
 62
     0
370
    30
100
AcDbCircle
 10
-128.502484
 20
1045.64108
 30
0.0
 40
4.000019106965201
100
AcDbArc
 50
180.000172
 51
269.999644
  0
LINE
  5
1F4
330
18D
100
AcDbEntity
  8
0
  6
Continuous
 62
     0
370
    30
100
AcDbLine
 10
-109.002502
 20
822.141067
 30
0.0
 11
-112.002502
 21
822.141067
 31
0.0
  0
LINE
  5
1F5
330
18D
100
AcDbEntity
  8
0
  6
Continuous
 62
     0
370
    30
100
AcDbLine
 10
-109.002502
 20
782.141067
 30
0.0
 11
-112.002502
 21
782.141067
 31
0.0
  0
LINE
  5
1F6
330
18D
100
AcDbEntity
  8
0
  6
Continuous
 62
     0
370
    30
100
AcDbLine
 10
-109.002502
 20
937.141069
 30
0.0
 11
-112.002502
 21
937.141069
 31
0.0
  0
LINE
  5
1F7
330
18D
100
AcDbEntity
  8
0
  6
Continuous
 62
     0
370
    30
100
AcDbLine
 10
-109.002502
 20
907.141069
 30
0.0
 11
-112.002502
 21
907.141069
 31
0.0
  0
LINE
  5
1F8
330
18D
100
AcDbEntity
  8
0
  6
Continuous
 62
     0
370
    30
100
AcDbLine
 10
-109.002502
 20
1037.141068
 30
0.0
 11
-112.002502
 21
1037.141068
 31
0.0
  0
LINE
  5
1F9
330
18D
100
AcDbEntity
  8
0
  6
Continuous
 62
     0
370
    30
100
AcDbLine
 10
-109.002502
 20
1007.141068
 30
0.0
 11
-112.002502
 21
1007.141068
 31
0.0
  0
LINE
  5
1FA
330
18D
100
AcDbEntity
  8
0
  6
Continuous
 62
     0
370
    30
100
AcDbLine
 10
-109.002502
 20
1137.141071
 30
0.0
 11
-112.002502
 21
1137.141071
 31
0.0
  0
LINE
  5
1FB
330
18D
100
AcDbEntity
  8
0
  6
Continuous
 62
     0
370
    30
100
AcDbLine
 10
-109.002502
 20
1107.141071
 30
0.0
 11
-112.002502
 21
1107.141071
 31
0.0
  0
LINE
  5
1FC
330
18D
100
AcDbEntity
  8
0
  6
Continuous
 62
     0
370
    30
100
AcDbLine
 10
-109.002502
 20
1237.141068
 30
0.0
 11
-112.002432
 21
1237.141068
 31
0.0
  0
LINE
  5
1FD
330
18D
100
AcDbEntity
  8
0
  6
Continuous
 62
     0
370
    30
100
AcDbLine
 10
-109.002502
 20
1207.141068
 30
0.0
 11
-112.002432
 21
1207.141068
 31
0.0
  0
LINE
  5
1FE
330
18D
100
AcDbEntity
  8
0
  6
Continuous
 62
     0
370
    30
100
AcDbLine
 10
-137.102432
 20
1202.638363
 30
0.0
 11
-147.302432
 21
1202.638363
 31
0.0
  0
ARC
  5
1FF
330
18D
100
AcDbEntity
  8
0
  6
Continuous
 62
     0
370
    30
100
AcDbCircle
 10
-133.002436
 20
1257.138359
 30
0.0
 40
0.5000034423401387
100
AcDbArc
 50
0.000394
 51
89.999606
  0
ARC
  5
200
330
18D
100
AcDbEntity
  8
0
  6
Continuous
 62
     0
370
    30
100
AcDbCircle
 10
-153.502429
 20
1241.138359
 30
0.0
 40
0.5000034422249127
100
AcDbArc
 50
90.000394
 51
179.999606
  0
LINE
  5
201
330
18D
100
AcDbEntity
  8
0
  6
Continuous
 62
     0
370
    30
100
AcDbLine
 10
-153.502433
 20
1241.638363
 30
0.0
 11
-149.502432
 21
1241.638363
 31
0.0
  0
LINE
  5
202
330
18D
100
AcDbEntity
  8
0
  6
Continuous
 62
     0
370
    30
100
AcDbLine
 10
-112.002432
 20
1241.638363
 30
0.0
 11
-128.502438
 21
1241.638363
 31
0.0
  0
LINE
  5
203
330
18D
100
AcDbEntity
  8
0
  6
Continuous
 62
     0
370
    30
100
AcDbLine
 10
-132.502432
 20
1245.638363
 30
0.0
 11
-132.502432
 21
1257.138363
 31
0.0
  0
ARC
  5
204
330
18D
100
AcDbEntity
  8
0
  6
Continuous
 62
     0
370
    30
100
AcDbCircle
 10
-128.502413
 20
1245.638375
 30
0.0
 40
4.000019106961165
100
AcDbArc
 50
180.000172
 51
269.999644
  0
ENDBLK
  5
206
330
18D
100
AcDbEntity
  8
0
100
AcDbBlockEnd
  0
ENDSEC
  0
SECTION
  2
ENTITIES
  0
INSERT
  5
E2
330
1F
100
AcDbEntity
  8
0
  6
Continuous
 62
     7
420
 16250871
370
     0
100
AcDbBlockReference
  2
a
 10
23.38316
 20
113.18148
 30
0.0
  0
INSERT
  5
111
330
1F
100
AcDbEntity
  8
0
  6
Continuous
 62
     7
420
 16250871
370
     0
100
AcDbBlockReference
  2
b
 10
23.38316
 20
560.344505
 30
0.0
  0
INSERT
  5
18C
330
1F
100
AcDbEntity
  8
0
  6
Continuous
 62
     7
420
 16250871
370
     0
100
AcDbBlockReference
  2
c
 10
52.027172
 20
113.18148
 30
0.0
  0
INSERT
  5
207
330
1F
100
AcDbEntity
  8
0
  6
Continuous
 62
     7
420
 16250871
370
     0
100
AcDbBlockReference
  2
d
 10
-64.476364
 20
0.0
 30
0.0
  0
ENDSEC
  0
SECTION
  2
OBJECTS
  0
DICTIONARY
  5
C
330
0
100
AcDbDictionary
281
     1
  3
ACAD_DETAILVIEWSTYLE
350
23F
  3
ACAD_GROUP
350
D
  3
ACAD_LAYOUT
350
1A
  3
ACAD_MATERIAL
350
43
  3
ACAD_MLEADERSTYLE
350
6B
  3
ACAD_MLINESTYLE
350
17
  3
ACAD_PLOTSETTINGS
350
19
  3
ACAD_PLOTSTYLENAME
350
E
  3
ACAD_SCALELIST
350
47
  3
ACAD_SECTIONVIEWSTYLE
350
240
  3
ACAD_TABLESTYLE
350
69
  3
ACAD_VISUALSTYLE
350
2A
  3
ACDB_RECOMPOSE_DATA
350
23C
  3
AcDbVariableDictionary
350
208
  0
SUN
  5
6D
330
29
100
AcDbSun
 90
        1
290
     0
 63
     7
421
 16777215
 40
1.0
291
     1
 91
  2455826
 92
 54000000
292
     0
 70
     2
 71
   256
280
     1
  0
DICTIONARY
  5
23F
102
{ACAD_REACTORS
330
C
102
}
330
C
100
AcDbDictionary
281
     1
  0
DICTIONARY
  5
D
102
{ACAD_REACTORS
330
C
102
}
330
C
100
AcDbDictionary
281
     1
  0
DICTIONARY
  5
1A
102
{ACAD_REACTORS
330
C
102
}
330
C
100
AcDbDictionary
281
     1
  3
Layout1
350
1E
  3
Layout2
350
26
  3
Model
350
22
  0
DICTIONARY
  5
43
102
{ACAD_REACTORS
330
C
102
}
330
C
100
AcDbDictionary
281
     1
  3
ByBlock
350
45
  3
ByLayer
350
44
  3
Global
350
46
  0
DICTIONARY
  5
6B
102
{ACAD_REACTORS
330
C
102
}
330
C
100
AcDbDictionary
281
     1
  3
Standard
350
6C
  0
DICTIONARY
  5
17
102
{ACAD_REACTORS
330
C
102
}
330
C
100
AcDbDictionary
281
     1
  3
Standard
350
18
  0
DICTIONARY
  5
19
102
{ACAD_REACTORS
330
C
102
}
330
C
100
AcDbDictionary
281
     1
  0
ACDBDICTIONARYWDFLT
  5
E
102
{ACAD_REACTORS
330
C
102
}
330
C
100
AcDbDictionary
281
     1
  3
Normal
350
F
100
AcDbDictionaryWithDefault
340
F
  0
DICTIONARY
  5
47
102
{ACAD_REACTORS
330
C
102
}
330
C
100
AcDbDictionary
281
     1
  3
A0
350
48
  3
A1
350
49
  3
A2
350
4A
  3
A3
350
4B
  3
A4
350
4C
  3
A5
350
4D
  3
A6
350
4E
  3
A7
350
4F
  3
A8
350
50
  3
A9
350
51
  3
B0
350
52
  3
B1
350
53
  3
B2
350
54
  3
B3
350
55
  3
B4
350
56
  3
B5
350
57
  3
B6
350
58
  3
B7
350
59
  3
B8
350
5A
  3
B9
350
5B
  3
C0
350
5C
  3
C1
350
5D
  3
C2
350
5E
  3
C3
350
5F
  3
C4
350
60
  3
C5
350
61
  3
C6
350
62
  3
C7
350
63
  3
C8
350
64
  3
C9
350
65
  3
D0
350
66
  3
D1
350
67
  3
D2
350
68
  0
DICTIONARY
  5
240
102
{ACAD_REACTORS
330
C
102
}
330
C
100
AcDbDictionary
281
     1
  0
DICTIONARY
  5
69
102
{ACAD_REACTORS
330
C
102
}
330
C
100
AcDbDictionary
281
     1
  3
Standard
350
6A
  0
DICTIONARY
  5
2A
102
{ACAD_REACTORS
330
C
102
}
330
C
100
AcDbDictionary
281
     1
  3
2dWireframe
350
2F
  3
Basic
350
32
  3
Brighten
350
36
  3
ColorChange
350
3A
  3
Conceptual
350
34
  3
Dim
350
35
  3
EdgeColorOff
350
3D
  3
Facepattern
350
39
  3
Flat
350
2B
  3
FlatWithEdges
350
2C
  3
Gouraud
350
2D
  3
GouraudWithEdges
350
2E
  3
Hidden
350
31
  3
JitterOff
350
3B
  3
Linepattern
350
38
  3
OverhangOff
350
3C
  3
Realistic
350
33
  3
Shaded
350
42
  3
Shaded with edges
350
41
  3
Shades of Gray
350
3E
  3
Sketchy
350
3F
  3
Thicken
350
37
  3
Wireframe
350
30
  3
X-Ray
350
40
  0
XRECORD
  5
23C
102
{ACAD_REACTORS
330
C
102
}
330
C
100
AcDbXrecord
280
     1
 90
        1
330
6A
  0
DICTIONARY
  5
208
102
{ACAD_REACTORS
330
C
102
}
330
C
100
AcDbDictionary
281
     1
  3
CANNOSCALE
350
209
  3
CMLEADERSTYLE
350
23E
  3
CTABLESTYLE
350
23D
  0
LAYOUT
  5
1E
102
{ACAD_REACTORS
330
1A
102
}
330
1A
100
AcDbPlotSettings
  1

  2
none_device
  4

  6

 40
0.0
 41
0.0
 42
0.0
 43
0.0
 44
0.0
 45
0.0
 46
0.0
 47
0.0
 48
0.0
 49
0.0
140
0.0
141
0.0
142
1.0
143
1.0
 70
   688
 72
     1
 73
     0
 74
     5
  7

 75
    16
 76
     0
 77
     2
 78
   300
147
1.0
148
0.0
149
0.0
100
AcDbLayout
  1
Layout1
 70
     1
 71
     1
 10
0.0
 20
0.0
 11
420.0
 21
297.0
 12
0.0
 22
0.0
 32
0.0
 14
1.000000E+20
 24
1.000000E+20
 34
1.000000E+20
 15
-1.000000E+20
 25
-1.000000E+20
 35
-1.000000E+20
146
0.0
 13
0.0
 23
0.0
 33
0.0
 16
1.0
 26
0.0
 36
0.0
 17
0.0
 27
1.0
 37
0.0
 76
     0
330
1B
  0
LAYOUT
  5
26
102
{ACAD_REACTORS
330
1A
102
}
330
1A
100
AcDbPlotSettings
  1

  2
none_device
  4

  6

 40
0.0
 41
0.0
 42
0.0
 43
0.0
 44
0.0
 45
0.0
 46
0.0
 47
0.0
 48
0.0
 49
0.0
140
0.0
141
0.0
142
1.0
143
1.0
 70
   688
 72
     1
 73
     0
 74
     5
  7

 75
    16
 76
     0
 77
     2
 78
   300
147
1.0
148
0.0
149
0.0
100
AcDbLayout
  1
Layout2
 70
     1
 71
     2
 10
0.0
 20
0.0
 11
0.0
 21
0.0
 12
0.0
 22
0.0
 32
0.0
 14
0.0
 24
0.0
 34
0.0
 15
0.0
 25
0.0
 35
0.0
146
0.0
 13
0.0
 23
0.0
 33
0.0
 16
1.0
 26
0.0
 36
0.0
 17
0.0
 27
1.0
 37
0.0
 76
     0
330
23
  0
LAYOUT
  5
22
102
{ACAD_REACTORS
330
1A
102
}
330
1A
100
AcDbPlotSettings
  1

  2
none_device
  4
Letter_(8.50_x_11.00_Inches)
  6

 40
6.35
 41
6.35
 42
6.350005
 43
6.350005
 44
215.9
 45
279.4
 46
0.0
 47
0.0
 48
0.0
 49
0.0
140
0.0
141
0.0
142
1.0
143
1.0
 70
  1712
 72
     1
 73
     0
 74
     0
  7

 75
     0
 76
     0
 77
     2
 78
   300
147
1.0
148
0.0
149
0.0
100
AcDbLayout
  1
Model
 70
     1
 71
     0
 10
0.0
 20
0.0
 11
420.0
 21
297.0
 12
0.0
 22
0.0
 32
0.0
 14
1.000000E+20
 24
1.000000E+20
 34
1.000000E+20
 15
-1.000000E+20
 25
-1.000000E+20
 35
-1.000000E+20
146
0.0
 13
0.0
 23
0.0
 33
0.0
 16
1.0
 26
0.0
 36
0.0
 17
0.0
 27
1.0
 37
0.0
 76
     0
330
1F
331
29
  0
MATERIAL
  5
45
102
{ACAD_REACTORS
330
43
102
}
330
43
100
AcDbMaterial
  1
ByBlock
 72
     1
 94
      127
  0
MATERIAL
  5
44
102
{ACAD_REACTORS
330
43
102
}
330
43
100
AcDbMaterial
  1
ByLayer
 72
     1
 94
      127
  0
MATERIAL
  5
46
102
{ACAD_REACTORS
330
43
102
}
330
43
100
AcDbMaterial
  1
Global
 72
     1
 94
      127
  0
MLEADERSTYLE
  5
6C
102
{ACAD_REACTORS
330
6B
102
}
330
6B
100
AcDbMLeaderStyle
179
     2
170
     2
171
     1
172
     0
 90
        2
 40
0.0
 41
0.0
173
     1
 91
-1056964608
340
14
 92
       -2
290
     1
 42
2.0
291
     1
 43
8.0
  3
Standard
341
0
 44
4.0
300

342
11
174
     1
178
     6
175
     1
176
     0
 93
-1056964608
 45
4.0
292
     0
297
     0
 46
4.0
343
0
 94
-1056964608
 47
1.0
 49
1.0
140
1.0
293
     1
141
0.0
294
     1
177
     0
142
1.0
295
     0
296
     0
143
3.75
271
     0
272
     9
273
     9
  0
MLINESTYLE
  5
18
102
{ACAD_REACTORS
330
17
102
}
330
17
100
AcDbMlineStyle
  2
Standard
 70
     0
  3

 62
   256
 51
90.0
 52
90.0
 71
     2
 49
0.5
 62
   256
  6
BYLAYER
 49
-0.5
 62
   256
  6
BYLAYER
  0
ACDBPLACEHOLDER
  5
F
102
{ACAD_REACTORS
330
E
102
}
330
E
  0
SCALE
  5
48
102
{ACAD_REACTORS
330
47
102
}
330
47
100
AcDbScale
 70
     0
300
1:1
140
1.0
141
1.0
290
     1
  0
SCALE
  5
49
102
{ACAD_REACTORS
330
47
102
}
330
47
100
AcDbScale
 70
     0
300
1:2
140
1.0
141
2.0
290
     0
  0
SCALE
  5
4A
102
{ACAD_REACTORS
330
47
102
}
330
47
100
AcDbScale
 70
     0
300
1:4
140
1.0
141
4.0
290
     0
  0
SCALE
  5
4B
102
{ACAD_REACTORS
330
47
102
}
330
47
100
AcDbScale
 70
     0
300
1:5
140
1.0
141
5.0
290
     0
  0
SCALE
  5
4C
102
{ACAD_REACTORS
330
47
102
}
330
47
100
AcDbScale
 70
     0
300
1:8
140
1.0
141
8.0
290
     0
  0
SCALE
  5
4D
102
{ACAD_REACTORS
330
47
102
}
330
47
100
AcDbScale
 70
     0
300
1:10
140
1.0
141
10.0
290
     0
  0
SCALE
  5
4E
102
{ACAD_REACTORS
330
47
102
}
330
47
100
AcDbScale
 70
     0
300
1:16
140
1.0
141
16.0
290
     0
  0
SCALE
  5
4F
102
{ACAD_REACTORS
330
47
102
}
330
47
100
AcDbScale
 70
     0
300
1:20
140
1.0
141
20.0
290
     0
  0
SCALE
  5
50
102
{ACAD_REACTORS
330
47
102
}
330
47
100
AcDbScale
 70
     0
300
1:30
140
1.0
141
30.0
290
     0
  0
SCALE
  5
51
102
{ACAD_REACTORS
330
47
102
}
330
47
100
AcDbScale
 70
     0
300
1:40
140
1.0
141
40.0
290
     0
  0
SCALE
  5
52
102
{ACAD_REACTORS
330
47
102
}
330
47
100
AcDbScale
 70
     0
300
1:50
140
1.0
141
50.0
290
     0
  0
SCALE
  5
53
102
{ACAD_REACTORS
330
47
102
}
330
47
100
AcDbScale
 70
     0
300
1:100
140
1.0
141
100.0
290
     0
  0
SCALE
  5
54
102
{ACAD_REACTORS
330
47
102
}
330
47
100
AcDbScale
 70
     0
300
2:1
140
2.0
141
1.0
290
     0
  0
SCALE
  5
55
102
{ACAD_REACTORS
330
47
102
}
330
47
100
AcDbScale
 70
     0
300
4:1
140
4.0
141
1.0
290
     0
  0
SCALE
  5
56
102
{ACAD_REACTORS
330
47
102
}
330
47
100
AcDbScale
 70
     0
300
8:1
140
8.0
141
1.0
290
     0
  0
SCALE
  5
57
102
{ACAD_REACTORS
330
47
102
}
330
47
100
AcDbScale
 70
     0
300
10:1
140
10.0
141
1.0
290
     0
  0
SCALE
  5
58
102
{ACAD_REACTORS
330
47
102
}
330
47
100
AcDbScale
 70
     0
300
100:1
140
100.0
141
1.0
290
     0
  0
SCALE
  5
59
102
{ACAD_REACTORS
330
47
102
}
330
47
100
AcDbScale
 70
     0
300
1/128" = 1'-0"
140
0.007812
141
12.0
290
     0
  0
SCALE
  5
5A
102
{ACAD_REACTORS
330
47
102
}
330
47
100
AcDbScale
 70
     0
300
1/64" = 1'-0"
140
0.015625
141
12.0
290
     0
  0
SCALE
  5
5B
102
{ACAD_REACTORS
330
47
102
}
330
47
100
AcDbScale
 70
     0
300
1/32" = 1'-0"
140
0.03125
141
12.0
290
     0
  0
SCALE
  5
5C
102
{ACAD_REACTORS
330
47
102
}
330
47
100
AcDbScale
 70
     0
300
1/16" = 1'-0"
140
0.0625
141
12.0
290
     0
  0
SCALE
  5
5D
102
{ACAD_REACTORS
330
47
102
}
330
47
100
AcDbScale
 70
     0
300
3/32" = 1'-0"
140
0.09375
141
12.0
290
     0
  0
SCALE
  5
5E
102
{ACAD_REACTORS
330
47
102
}
330
47
100
AcDbScale
 70
     0
300
1/8" = 1'-0"
140
0.125
141
12.0
290
     0
  0
SCALE
  5
5F
102
{ACAD_REACTORS
330
47
102
}
330
47
100
AcDbScale
 70
     0
300
3/16" = 1'-0"
140
0.1875
141
12.0
290
     0
  0
SCALE
  5
60
102
{ACAD_REACTORS
330
47
102
}
330
47
100
AcDbScale
 70
     0
300
1/4" = 1'-0"
140
0.25
141
12.0
290
     0
  0
SCALE
  5
61
102
{ACAD_REACTORS
330
47
102
}
330
47
100
AcDbScale
 70
     0
300
3/8" = 1'-0"
140
0.375
141
12.0
290
     0
  0
SCALE
  5
62
102
{ACAD_REACTORS
330
47
102
}
330
47
100
AcDbScale
 70
     0
300
1/2" = 1'-0"
140
0.5
141
12.0
290
     0
  0
SCALE
  5
63
102
{ACAD_REACTORS
330
47
102
}
330
47
100
AcDbScale
 70
     0
300
3/4" = 1'-0"
140
0.75
141
12.0
290
     0
  0
SCALE
  5
64
102
{ACAD_REACTORS
330
47
102
}
330
47
100
AcDbScale
 70
     0
300
1" = 1'-0"
140
1.0
141
12.0
290
     0
  0
SCALE
  5
65
102
{ACAD_REACTORS
330
47
102
}
330
47
100
AcDbScale
 70
     0
300
1-1/2" = 1'-0"
140
1.5
141
12.0
290
     0
  0
SCALE
  5
66
102
{ACAD_REACTORS
330
47
102
}
330
47
100
AcDbScale
 70
     0
300
3" = 1'-0"
140
3.0
141
12.0
290
     0
  0
SCALE
  5
67
102
{ACAD_REACTORS
330
47
102
}
330
47
100
AcDbScale
 70
     0
300
6" = 1'-0"
140
6.0
141
12.0
290
     0
  0
SCALE
  5
68
102
{ACAD_REACTORS
330
47
102
}
330
47
100
AcDbScale
 70
     0
300
1'-0" = 1'-0"
140
12.0
141
12.0
290
     0
  0
TABLESTYLE
  5
6A
102
{ACAD_REACTORS
330
69
102
}
102
{ACAD_XDICTIONARY
360
23A
102
}
330
69
100
AcDbTableStyle
  3
Standard
 70
     0
 71
     0
 40
0.06
 41
0.06
280
     0
281
     0
  7
Standard
140
4.5
170
     2
 62
     0
 63
   257
283
     0
 90
        4
 91
        0
  1

274
    -2
284
     1
 64
     0
275
    -2
285
     1
 65
     0
276
    -2
286
     1
 66
     0
277
    -2
287
     1
 67
     0
278
    -2
288
     1
 68
     0
279
    -2
289
     1
 69
     0
  7
Standard
140
6.0
170
     5
 62
     0
 63
   257
283
     0
 90
        4
 91
        0
  1

274
    -2
284
     1
 64
     0
275
    -2
285
     1
 65
     0
276
    -2
286
     1
 66
     0
277
    -2
287
     1
 67
     0
278
    -2
288
     1
 68
     0
279
    -2
289
     1
 69
     0
  7
Standard
140
4.5
170
     5
 62
     0
 63
   257
283
     0
 90
        4
 91
        0
  1

274
    -2
284
     1
 64
     0
275
    -2
285
     1
 65
     0
276
    -2
286
     1
 66
     0
277
    -2
287
     1
 67
     0
278
    -2
288
     1
 68
     0
279
    -2
289
     1
 69
     0
  0
VISUALSTYLE
  5
2F
102
{ACAD_REACTORS
330
2A
102
}
102
{ACAD_XDICTIONARY
360
212
102
}
330
2A
100
AcDbVisualStyle
  2
2dWireframe
 70
     4
177
     2
291
     0
 71
     0
176
     1
 72
     2
176
     1
 73
     0
176
     1
 90
        0
176
     1
 40
0.6
176
     1
 41
30.0
176
     1
 62
     5
 63
     7
421
 16777215
176
     1
 74
     1
176
     1
 91
        4
176
     1
 64
     7
176
     1
 65
   257
176
     1
 75
     1
176
     1
175
     1
176
     1
 42
1.0
176
     1
 92
        0
176
     1
 66
   257
176
     1
 43
1.0
176
     1
 76
     1
176
     1
 77
     6
176
     1
 78
     2
176
     1
 67
     7
176
     1
 79
     5
176
     1
170
     0
176
     1
171
     0
176
     1
290
     0
176
     1
 93
        1
176
     1
 44
0.0
176
     1
173
     0
176
     1
  0
VISUALSTYLE
  5
32
102
{ACAD_REACTORS
330
2A
102
}
102
{ACAD_XDICTIONARY
360
218
102
}
330
2A
100
AcDbVisualStyle
  2
Basic
 70
     7
177
     2
291
     1
 71
     1
176
     1
 72
     0
176
     1
 73
     1
176
     1
 90
        0
176
     1
 40
0.6
176
     1
 41
30.0
176
     1
 62
     5
 63
     7
421
 16777215
176
     1
 74
     0
176
     1
 91
        4
176
     1
 64
     7
176
     1
 65
   257
176
     1
 75
     1
176
     1
175
     1
176
     1
 42
1.0
176
     1
 92
        8
176
     1
 66
     7
176
     1
 43
1.0
176
     1
 76
     1
176
     1
 77
     6
176
     1
 78
     2
176
     1
 67
     7
176
     1
 79
     5
176
     1
170
     0
176
     1
171
     0
176
     1
290
     0
176
     1
 93
        1
176
     1
 44
0.0
176
     1
173
     0
176
     1
  0
VISUALSTYLE
  5
36
102
{ACAD_REACTORS
330
2A
102
}
102
{ACAD_XDICTIONARY
360
220
102
}
330
2A
100
AcDbVisualStyle
  2
Brighten
 70
    12
177
     2
291
     1
 71
     2
176
     1
 72
     2
176
     1
 73
     0
176
     1
 90
        0
176
     1
 40
0.6
176
     1
 41
30.0
176
     1
 62
     5
 63
     7
421
 16777215
176
     1
 74
     1
176
     1
 91
        4
176
     1
 64
     7
176
     1
 65
   257
176
     1
 75
     1
176
     1
175
     1
176
     1
 42
1.0
176
     1
 92
        8
176
     1
 66
     7
176
     1
 43
1.0
176
     1
 76
     1
176
     1
 77
     6
176
     1
 78
     2
176
     1
 67
     7
176
     1
 79
     5
176
     1
170
     0
176
     1
171
     0
176
     1
290
     0
176
     1
 93
        1
176
     1
 44
50.0
176
     1
173
     0
176
     1
  0
VISUALSTYLE
  5
3A
102
{ACAD_REACTORS
330
2A
102
}
102
{ACAD_XDICTIONARY
360
228
102
}
330
2A
100
AcDbVisualStyle
  2
ColorChange
 70
    16
177
     2
291
     1
 71
     2
176
     1
 72
     2
176
     1
 73
     3
176
     1
 90
        0
176
     1
 40
0.6
176
     1
 41
30.0
176
     1
 62
     5
 63
     8
421
  8421504
176
     1
 74
     1
176
     1
 91
        4
176
     1
 64
     7
176
     1
 65
   257
176
     1
 75
     1
176
     1
175
     1
176
     1
 42
1.0
176
     1
 92
        8
176
     1
 66
     8
424
  8421504
176
     1
 43
1.0
176
     1
 76
     1
176
     1
 77
     6
176
     1
 78
     2
176
     1
 67
     7
176
     1
 79
     5
176
     1
170
     0
176
     1
171
     0
176
     1
290
     0
176
     1
 93
        1
176
     1
 44
0.0
176
     1
173
     0
176
     1
  0
VISUALSTYLE
  5
34
102
{ACAD_REACTORS
330
2A
102
}
102
{ACAD_XDICTIONARY
360
21C
102
}
330
2A
100
AcDbVisualStyle
  2
Conceptual
 70
     9
177
     2
291
     0
 71
     3
176
     1
 72
     2
176
     1
 73
     0
176
     1
 90
        0
176
     1
 40
0.6
176
     1
 41
30.0
176
     1
 62
     5
 63
     7
421
 16777215
176
     1
 74
     2
176
     1
 91
        2
176
     1
 64
     7
176
     1
 65
   257
176
     1
 75
     1
176
     1
175
     1
176
     1
 42
179.0
176
     1
 92
        8
176
     1
 66
     7
176
     1
 43
1.0
176
     1
 76
     1
176
     1
 77
     6
176
     1
 78
     2
176
     1
 67
     7
176
     1
 79
     3
176
     1
170
     0
176
     1
171
     0
176
     1
290
     0
176
     1
 93
        1
176
     1
 44
0.0
176
     1
173
     0
176
     1
  0
VISUALSTYLE
  5
35
102
{ACAD_REACTORS
330
2A
102
}
102
{ACAD_XDICTIONARY
360
21E
102
}
330
2A
100
AcDbVisualStyle
  2
Dim
 70
    11
177
     2
291
     1
 71
     2
176
     1
 72
     2
176
     1
 73
     0
176
     1
 90
        0
176
     1
 40
0.6
176
     1
 41
30.0
176
     1
 62
     5
 63
     7
421
 16777215
176
     1
 74
     1
176
     1
 91
        4
176
     1
 64
     7
176
     1
 65
   257
176
     1
 75
     1
176
     1
175
     1
176
     1
 42
1.0
176
     1
 92
        8
176
     1
 66
     7
176
     1
 43
1.0
176
     1
 76
     1
176
     1
 77
     6
176
     1
 78
     2
176
     1
 67
     7
176
     1
 79
     5
176
     1
170
     0
176
     1
171
     0
176
     1
290
     0
176
     1
 93
        1
176
     1
 44
-50.0
176
     1
173
     0
176
     1
  0
VISUALSTYLE
  5
3D
102
{ACAD_REACTORS
330
2A
102
}
102
{ACAD_XDICTIONARY
360
22E
102
}
330
2A
100
AcDbVisualStyle
  2
EdgeColorOff
 70
    22
177
     2
291
     1
 71
     2
176
     0
 72
     2
176
     0
 73
     0
176
     0
 90
        0
176
     0
 40
0.6
176
     0
 41
30.0
176
     0
 62
     5
 63
     7
421
 16777215
176
     0
 74
     1
176
     0
 91
        4
176
     0
 64
     7
176
     0
 65
   257
176
     0
 75
     1
176
     0
175
     1
176
     0
 42
1.0
176
     0
 92
        8
176
     2
 66
     7
176
     0
 43
1.0
176
     0
 76
     1
176
     0
 77
     6
176
     0
 78
     2
176
     0
 67
     7
176
     0
 79
     5
176
     0
170
     0
176
     0
171
     0
176
     0
290
     0
176
     0
 93
        1
176
     0
 44
0.0
176
     0
173
     0
176
     0
  0
VISUALSTYLE
  5
39
102
{ACAD_REACTORS
330
2A
102
}
102
{ACAD_XDICTIONARY
360
226
102
}
330
2A
100
AcDbVisualStyle
  2
Facepattern
 70
    15
177
     2
291
     1
 71
     2
176
     1
 72
     2
176
     1
 73
     0
176
     1
 90
        0
176
     1
 40
0.6
176
     1
 41
30.0
176
     1
 62
     5
 63
     7
421
 16777215
176
     1
 74
     1
176
     1
 91
        4
176
     1
 64
     7
176
     1
 65
   257
176
     1
 75
     1
176
     1
175
     1
176
     1
 42
1.0
176
     1
 92
        8
176
     1
 66
     7
176
     1
 43
1.0
176
     1
 76
     1
176
     1
 77
     6
176
     1
 78
     2
176
     1
 67
     7
176
     1
 79
     5
176
     1
170
     0
176
     1
171
     0
176
     1
290
     0
176
     1
 93
        1
176
     1
 44
0.0
176
     1
173
     0
176
     1
  0
VISUALSTYLE
  5
2B
102
{ACAD_REACTORS
330
2A
102
}
102
{ACAD_XDICTIONARY
360
20A
102
}
330
2A
100
AcDbVisualStyle
  2
Flat
 70
     0
177
     2
291
     1
 71
     2
176
     1
 72
     1
176
     1
 73
     1
176
     1
 90
        2
176
     1
 40
0.6
176
     1
 41
30.0
176
     1
 62
     5
 63
     7
421
 16777215
176
     1
 74
     0
176
     1
 91
        0
176
     1
 64
     7
176
     1
 65
   257
176
     1
 75
     1
176
     1
175
     1
176
     1
 42
1.0
176
     1
 92
        8
176
     1
 66
     7
176
     1
 43
1.0
176
     1
 76
     1
176
     1
 77
     6
176
     1
 78
     2
176
     1
 67
     7
176
     1
 79
     5
176
     1
170
     0
176
     1
171
     0
176
     1
290
     0
176
     1
 93
       13
176
     1
 44
0.0
176
     1
173
     0
176
     1
  0
VISUALSTYLE
  5
2C
102
{ACAD_REACTORS
330
2A
102
}
102
{ACAD_XDICTIONARY
360
20C
102
}
330
2A
100
AcDbVisualStyle
  2
FlatWithEdges
 70
     1
177
     2
291
     1
 71
     2
176
     1
 72
     1
176
     1
 73
     1
176
     1
 90
        2
176
     1
 40
0.6
176
     1
 41
30.0
176
     1
 62
     5
 63
     7
421
 16777215
176
     1
 74
     1
176
     1
 91
        0
176
     1
 64
     7
176
     1
 65
   257
176
     1
 75
     1
176
     1
175
     1
176
     1
 42
1.0
176
     1
 92
        0
176
     1
 66
   257
176
     1
 43
1.0
176
     1
 76
     1
176
     1
 77
     6
176
     1
 78
     2
176
     1
 67
     7
176
     1
 79
     5
176
     1
170
     0
176
     1
171
     0
176
     1
290
     0
176
     1
 93
       13
176
     1
 44
0.0
176
     1
173
     0
176
     1
  0
VISUALSTYLE
  5
2D
102
{ACAD_REACTORS
330
2A
102
}
102
{ACAD_XDICTIONARY
360
20E
102
}
330
2A
100
AcDbVisualStyle
  2
Gouraud
 70
     2
177
     2
291
     1
 71
     2
176
     1
 72
     2
176
     1
 73
     1
176
     1
 90
        2
176
     1
 40
0.6
176
     1
 41
30.0
176
     1
 62
     5
 63
     7
421
 16777215
176
     1
 74
     0
176
     1
 91
        0
176
     1
 64
     7
176
     1
 65
   257
176
     1
 75
     1
176
     1
175
     1
176
     1
 42
1.0
176
     1
 92
        0
176
     1
 66
     7
176
     1
 43
1.0
176
     1
 76
     1
176
     1
 77
     6
176
     1
 78
     2
176
     1
 67
     7
176
     1
 79
     5
176
     1
170
     0
176
     1
171
     0
176
     1
290
     0
176
     1
 93
       13
176
     1
 44
0.0
176
     1
173
     0
176
     1
  0
VISUALSTYLE
  5
2E
102
{ACAD_REACTORS
330
2A
102
}
102
{ACAD_XDICTIONARY
360
210
102
}
330
2A
100
AcDbVisualStyle
  2
GouraudWithEdges
 70
     3
177
     2
291
     1
 71
     2
176
     1
 72
     2
176
     1
 73
     1
176
     1
 90
        2
176
     1
 40
0.6
176
     1
 41
30.0
176
     1
 62
     5
 63
     7
421
 16777215
176
     1
 74
     1
176
     1
 91
        0
176
     1
 64
     7
176
     1
 65
   257
176
     1
 75
     1
176
     1
175
     1
176
     1
 42
1.0
176
     1
 92
        0
176
     1
 66
   257
176
     1
 43
1.0
176
     1
 76
     1
176
     1
 77
     6
176
     1
 78
     2
176
     1
 67
     7
176
     1
 79
     5
176
     1
170
     0
176
     1
171
     0
176
     1
290
     0
176
     1
 93
       13
176
     1
 44
0.0
176
     1
173
     0
176
     1
  0
VISUALSTYLE
  5
31
102
{ACAD_REACTORS
330
2A
102
}
102
{ACAD_XDICTIONARY
360
216
102
}
330
2A
100
AcDbVisualStyle
  2
Hidden
 70
     6
177
     2
291
     0
 71
     1
176
     1
 72
     2
176
     1
 73
     2
176
     1
 90
        0
176
     1
 40
0.6
176
     1
 41
30.0
176
     1
 62
     5
 63
     7
421
 16777215
176
     1
 74
     2
176
     1
 91
        2
176
     1
 64
     7
176
     1
 65
   257
176
     1
 75
     2
176
     1
175
     1
176
     1
 42
40.0
176
     1
 92
        0
176
     1
 66
   257
176
     1
 43
1.0
176
     1
 76
     1
176
     1
 77
     6
176
     1
 78
     2
176
     1
 67
     7
176
     1
 79
     3
176
     1
170
     0
176
     1
171
     0
176
     1
290
     0
176
     1
 93
        1
176
     1
 44
0.0
176
     1
173
     0
176
     1
  0
VISUALSTYLE
  5
3B
102
{ACAD_REACTORS
330
2A
102
}
102
{ACAD_XDICTIONARY
360
22A
102
}
330
2A
100
AcDbVisualStyle
  2
JitterOff
 70
    20
177
     2
291
     1
 71
     2
176
     0
 72
     2
176
     0
 73
     0
176
     0
 90
        0
176
     0
 40
0.6
176
     0
 41
30.0
176
     0
 62
     5
 63
     7
421
 16777215
176
     0
 74
     1
176
     0
 91
        4
176
     0
 64
     7
176
     0
 65
   257
176
     0
 75
     1
176
     0
175
     1
176
     0
 42
1.0
176
     0
 92
       10
176
     2
 66
     7
176
     0
 43
1.0
176
     0
 76
     1
176
     0
 77
     6
176
     0
 78
     2
176
     0
 67
     7
176
     0
 79
     5
176
     0
170
     0
176
     0
171
     0
176
     0
290
     0
176
     0
 93
        1
176
     0
 44
0.0
176
     0
173
     0
176
     0
  0
VISUALSTYLE
  5
38
102
{ACAD_REACTORS
330
2A
102
}
102
{ACAD_XDICTIONARY
360
224
102
}
330
2A
100
AcDbVisualStyle
  2
Linepattern
 70
    14
177
     2
291
     1
 71
     2
176
     1
 72
     2
176
     1
 73
     0
176
     1
 90
        0
176
     1
 40
0.6
176
     1
 41
30.0
176
     1
 62
     5
 63
     7
421
 16777215
176
     1
 74
     1
176
     1
 91
        4
176
     1
 64
     7
176
     1
 65
   257
176
     1
 75
     7
176
     1
175
     7
176
     1
 42
1.0
176
     1
 92
        8
176
     1
 66
     7
176
     1
 43
1.0
176
     1
 76
     1
176
     1
 77
     6
176
     1
 78
     2
176
     1
 67
     7
176
     1
 79
     5
176
     1
170
     0
176
     1
171
     0
176
     1
290
     0
176
     1
 93
        1
176
     1
 44
0.0
176
     1
173
     0
176
     1
  0
VISUALSTYLE
  5
3C
102
{ACAD_REACTORS
330
2A
102
}
102
{ACAD_XDICTIONARY
360
22C
102
}
330
2A
100
AcDbVisualStyle
  2
OverhangOff
 70
    21
177
     2
291
     1
 71
     2
176
     0
 72
     2
176
     0
 73
     0
176
     0
 90
        0
176
     0
 40
0.6
176
     0
 41
30.0
176
     0
 62
     5
 63
     7
421
 16777215
176
     0
 74
     1
176
     0
 91
        4
176
     0
 64
     7
176
     0
 65
   257
176
     0
 75
     1
176
     0
175
     1
176
     0
 42
1.0
176
     0
 92
        9
176
     2
 66
     7
176
     0
 43
1.0
176
     0
 76
     1
176
     0
 77
     6
176
     0
 78
     2
176
     0
 67
     7
176
     0
 79
     5
176
     0
170
     0
176
     0
171
     0
176
     0
290
     0
176
     0
 93
        1
176
     0
 44
0.0
176
     0
173
     0
176
     0
  0
VISUALSTYLE
  5
33
102
{ACAD_REACTORS
330
2A
102
}
102
{ACAD_XDICTIONARY
360
21A
102
}
330
2A
100
AcDbVisualStyle
  2
Realistic
 70
     8
177
     2
291
     0
 71
     2
176
     1
 72
     3
176
     1
 73
     0
176
     1
 90
        2
176
     1
 40
0.6
176
     1
 41
30.0
176
     1
 62
     5
 63
     7
421
 16777215
176
     1
 74
     0
176
     1
 91
        0
176
     1
 64
     7
176
     1
 65
   257
176
     1
 75
     1
176
     1
175
     1
176
     1
 42
1.0
176
     1
 92
        8
176
     1
 66
   257
176
     1
 43
1.0
176
     1
 76
     1
176
     1
 77
     6
176
     1
 78
     2
176
     1
 67
     7
176
     1
 79
     3
176
     1
170
     0
176
     1
171
     0
176
     1
290
     0
176
     1
 93
       13
176
     1
 44
0.0
176
     1
173
     0
176
     1
  0
VISUALSTYLE
  5
42
102
{ACAD_REACTORS
330
2A
102
}
102
{ACAD_XDICTIONARY
360
238
102
}
330
2A
100
AcDbVisualStyle
  2
Shaded
 70
    27
177
     2
291
     0
 71
     2
176
     1
 72
     2
176
     1
 73
     1
176
     1
 90
        2
176
     1
 40
0.6
176
     1
 41
30.0
176
     1
 62
     5
 63
     7
421
 16777215
176
     1
 74
     0
176
     1
 91
        4
176
     1
 64
     7
176
     1
 65
   257
176
     1
 75
     1
176
     1
175
     1
176
     1
 42
1.0
176
     1
 92
        8
176
     1
 66
   257
176
     1
 43
1.0
176
     1
 76
     1
176
     1
 77
     6
176
     1
 78
     2
176
     1
 67
     8
425
  7895160
176
     1
 79
     3
176
     1
170
     0
176
     1
171
     0
176
     1
290
     0
176
     1
 93
        5
176
     1
 44
0.0
176
     1
173
     0
176
     1
  0
VISUALSTYLE
  5
41
102
{ACAD_REACTORS
330
2A
102
}
102
{ACAD_XDICTIONARY
360
236
102
}
330
2A
100
AcDbVisualStyle
  2
Shaded with edges
 70
    26
177
     2
291
     0
 71
     2
176
     1
 72
     2
176
     1
 73
     1
176
     1
 90
        2
176
     1
 40
0.6
176
     1
 41
30.0
176
     1
 62
     5
 63
     7
421
 16777215
176
     1
 74
     1
176
     1
 91
       10
176
     1
 64
     7
176
     1
 65
   257
176
     1
 75
     2
176
     1
175
     1
176
     1
 42
1.0
176
     1
 92
        8
176
     1
 66
   257
176
     1
 43
1.0
176
     1
 76
     1
176
     1
 77
     6
176
     1
 78
     2
176
     1
 67
     7
176
     1
 79
     3
176
     1
170
     0
176
     1
171
     0
176
     1
290
     0
176
     1
 93
        5
176
     1
 44
0.0
176
     1
173
     0
176
     1
  0
VISUALSTYLE
  5
3E
102
{ACAD_REACTORS
330
2A
102
}
102
{ACAD_XDICTIONARY
360
230
102
}
330
2A
100
AcDbVisualStyle
  2
Shades of Gray
 70
    23
177
     2
291
     0
 71
     2
176
     1
 72
     2
176
     1
 73
     3
176
     1
 90
        0
176
     1
 40
0.6
176
     1
 41
30.0
176
     1
 62
     5
 63
     7
421
 16777215
176
     1
 74
     2
176
     1
 91
        2
176
     1
 64
     7
176
     1
 65
     7
176
     1
 75
     1
176
     1
175
     1
176
     1
 42
40.0
176
     1
 92
        8
176
     1
 66
     7
176
     1
 43
1.0
176
     1
 76
     1
176
     1
 77
     6
176
     1
 78
     2
176
     1
 67
     7
176
     1
 79
     3
176
     1
170
     0
176
     1
171
     0
176
     1
290
     0
176
     1
 93
        1
176
     1
 44
0.0
176
     1
173
     0
176
     1
  0
VISUALSTYLE
  5
3F
102
{ACAD_REACTORS
330
2A
102
}
102
{ACAD_XDICTIONARY
360
232
102
}
330
2A
100
AcDbVisualStyle
  2
Sketchy
 70
    24
177
     2
291
     0
 71
     1
176
     1
 72
     2
176
     1
 73
     2
176
     1
 90
        0
176
     1
 40
0.6
176
     1
 41
30.0
176
     1
 62
     5
 63
     7
421
 16777215
176
     1
 74
     2
176
     1
 91
        2
176
     1
 64
     7
176
     1
 65
     7
176
     1
 75
     1
176
     1
175
     1
176
     1
 42
40.0
176
     1
 92
       11
176
     1
 66
     7
176
     1
 43
1.0
176
     1
 76
     1
176
     1
 77
     6
176
     1
 78
     2
176
     1
 67
     7
176
     1
 79
     6
176
     1
170
     0
176
     1
171
     0
176
     1
290
     0
176
     1
 93
        1
176
     1
 44
0.0
176
     1
173
     0
176
     1
  0
VISUALSTYLE
  5
37
102
{ACAD_REACTORS
330
2A
102
}
102
{ACAD_XDICTIONARY
360
222
102
}
330
2A
100
AcDbVisualStyle
  2
Thicken
 70
    13
177
     2
291
     1
 71
     2
176
     1
 72
     2
176
     1
 73
     0
176
     1
 90
        0
176
     1
 40
0.6
176
     1
 41
30.0
176
     1
 62
     5
 63
     7
421
 16777215
176
     1
 74
     1
176
     1
 91
        4
176
     1
 64
     7
176
     1
 65
   257
176
     1
 75
     1
176
     1
175
     1
176
     1
 42
1.0
176
     1
 92
       12
176
     1
 66
     7
176
     1
 43
1.0
176
     1
 76
     1
176
     1
 77
     6
176
     1
 78
     2
176
     1
 67
     7
176
     1
 79
     5
176
     1
170
     0
176
     1
171
     0
176
     1
290
     0
176
     1
 93
        1
176
     1
 44
0.0
176
     1
173
     0
176
     1
  0
VISUALSTYLE
  5
30
102
{ACAD_REACTORS
330
2A
102
}
102
{ACAD_XDICTIONARY
360
214
102
}
330
2A
100
AcDbVisualStyle
  2
Wireframe
 70
     5
177
     2
291
     0
 71
     0
176
     1
 72
     2
176
     1
 73
     0
176
     1
 90
        0
176
     1
 40
0.6
176
     1
 41
30.0
176
     1
 62
     5
 63
     7
421
 16777215
176
     1
 74
     1
176
     1
 91
        4
176
     1
 64
     7
176
     1
 65
   257
176
     1
 75
     1
176
     1
175
     1
176
     1
 42
1.0
176
     1
 92
        0
176
     1
 66
   257
176
     1
 43
1.0
176
     1
 76
     1
176
     1
 77
     6
176
     1
 78
     2
176
     1
 67
     7
176
     1
 79
     3
176
     1
170
     0
176
     1
171
     0
176
     1
290
     0
176
     1
 93
        1
176
     1
 44
0.0
176
     1
173
     0
176
     1
  0
VISUALSTYLE
  5
40
102
{ACAD_REACTORS
330
2A
102
}
102
{ACAD_XDICTIONARY
360
234
102
}
330
2A
100
AcDbVisualStyle
  2
X-Ray
 70
    25
177
     2
291
     0
 71
     2
176
     1
 72
     2
176
     1
 73
     1
176
     1
 90
        1
176
     1
 40
0.5
176
     1
 41
30.0
176
     1
 62
     5
 63
     7
421
 16777215
176
     1
 74
     1
176
     1
 91
        0
176
     1
 64
     7
176
     1
 65
   257
176
     1
 75
     1
176
     1
175
     1
176
     1
 42
1.0
176
     1
 92
        8
176
     1
 66
     7
176
     1
 43
1.0
176
     1
 76
     1
176
     1
 77
     6
176
     1
 78
     2
176
     1
 67
     7
176
     1
 79
     3
176
     1
170
     0
176
     1
171
     0
176
     1
290
     0
176
     1
 93
       13
176
     1
 44
0.0
176
     1
173
     0
176
     1
  0
DICTIONARYVAR
  5
209
102
{ACAD_REACTORS
330
208
102
}
330
208
100
DictionaryVariables
280
     0
  1
1:1
  0
DICTIONARYVAR
  5
23E
102
{ACAD_REACTORS
330
208
102
}
330
208
100
DictionaryVariables
280
     0
  1
Standard
  0
DICTIONARYVAR
  5
23D
102
{ACAD_REACTORS
330
208
102
}
330
208
100
DictionaryVariables
280
     0
  1
Standard
  0
DICTIONARY
  5
23A
330
6A
100
AcDbDictionary
280
     1
281
     1
  3
ACAD_ROUNDTRIP_2008_TABLESTYLE_CELLSTYLEMAP
360
23B
  0
DICTIONARY
  5
212
330
2F
100
AcDbDictionary
280
     1
281
     1
  3
ACAD_XREC_ROUNDTRIP
360
213
  0
DICTIONARY
  5
218
330
32
100
AcDbDictionary
280
     1
281
     1
  3
ACAD_XREC_ROUNDTRIP
360
219
  0
DICTIONARY
  5
220
330
36
100
AcDbDictionary
280
     1
281
     1
  3
ACAD_XREC_ROUNDTRIP
360
221
  0
DICTIONARY
  5
228
330
3A
100
AcDbDictionary
280
     1
281
     1
  3
ACAD_XREC_ROUNDTRIP
360
229
  0
DICTIONARY
  5
21C
330
34
100
AcDbDictionary
280
     1
281
     1
  3
ACAD_XREC_ROUNDTRIP
360
21D
  0
DICTIONARY
  5
21E
330
35
100
AcDbDictionary
280
     1
281
     1
  3
ACAD_XREC_ROUNDTRIP
360
21F
  0
DICTIONARY
  5
22E
330
3D
100
AcDbDictionary
280
     1
281
     1
  3
ACAD_XREC_ROUNDTRIP
360
22F
  0
DICTIONARY
  5
226
330
39
100
AcDbDictionary
280
     1
281
     1
  3
ACAD_XREC_ROUNDTRIP
360
227
  0
DICTIONARY
  5
20A
330
2B
100
AcDbDictionary
280
     1
281
     1
  3
ACAD_XREC_ROUNDTRIP
360
20B
  0
DICTIONARY
  5
20C
330
2C
100
AcDbDictionary
280
     1
281
     1
  3
ACAD_XREC_ROUNDTRIP
360
20D
  0
DICTIONARY
  5
20E
330
2D
100
AcDbDictionary
280
     1
281
     1
  3
ACAD_XREC_ROUNDTRIP
360
20F
  0
DICTIONARY
  5
210
330
2E
100
AcDbDictionary
280
     1
281
     1
  3
ACAD_XREC_ROUNDTRIP
360
211
  0
DICTIONARY
  5
216
330
31
100
AcDbDictionary
280
     1
281
     1
  3
ACAD_XREC_ROUNDTRIP
360
217
  0
DICTIONARY
  5
22A
330
3B
100
AcDbDictionary
280
     1
281
     1
  3
ACAD_XREC_ROUNDTRIP
360
22B
  0
DICTIONARY
  5
224
330
38
100
AcDbDictionary
280
     1
281
     1
  3
ACAD_XREC_ROUNDTRIP
360
225
  0
DICTIONARY
  5
22C
330
3C
100
AcDbDictionary
280
     1
281
     1
  3
ACAD_XREC_ROUNDTRIP
360
22D
  0
DICTIONARY
  5
21A
330
33
100
AcDbDictionary
280
     1
281
     1
  3
ACAD_XREC_ROUNDTRIP
360
21B
  0
DICTIONARY
  5
238
330
42
100
AcDbDictionary
280
     1
281
     1
  3
ACAD_XREC_ROUNDTRIP
360
239
  0
DICTIONARY
  5
236
330
41
100
AcDbDictionary
280
     1
281
     1
  3
ACAD_XREC_ROUNDTRIP
360
237
  0
DICTIONARY
  5
230
330
3E
100
AcDbDictionary
280
     1
281
     1
  3
ACAD_XREC_ROUNDTRIP
360
231
  0
DICTIONARY
  5
232
330
3F
100
AcDbDictionary
280
     1
281
     1
  3
ACAD_XREC_ROUNDTRIP
360
233
  0
DICTIONARY
  5
222
330
37
100
AcDbDictionary
280
     1
281
     1
  3
ACAD_XREC_ROUNDTRIP
360
223
  0
DICTIONARY
  5
214
330
30
100
AcDbDictionary
280
     1
281
     1
  3
ACAD_XREC_ROUNDTRIP
360
215
  0
DICTIONARY
  5
234
330
40
100
AcDbDictionary
280
     1
281
     1
  3
ACAD_XREC_ROUNDTRIP
360
235
  0
CELLSTYLEMAP
  5
23B
102
{ACAD_REACTORS
330
23A
102
}
330
23A
100
AcDbCellStyleMap
 90
        3
300
CELLSTYLE
  1
TABLEFORMAT_BEGIN
 90
        5
170
     1
 91
        0
 92
    32768
 62
   257
 93
        1
300
CONTENTFORMAT
  1
CONTENTFORMAT_BEGIN
 90
        0
 91
        0
 92
        4
 93
        0
300

 40
0.0
140
1.0
 94
        5
 62
     0
340
11
144
6.0
309
CONTENTFORMAT_END
171
     1
301
MARGIN
  1
CELLMARGIN_BEGIN
 40
1.5
 40
1.5
 40
1.5
 40
1.5
 40
1.5
 40
1.5
309
CELLMARGIN_END
 94
        6
 95
        1
302
GRIDFORMAT
  1
GRIDFORMAT_BEGIN
 90
        0
 91
        1
 62
     0
 92
       -2
340
14
 93
        0
 40
0.045
309
GRIDFORMAT_END
 95
        2
302
GRIDFORMAT
  1
GRIDFORMAT_BEGIN
 90
        0
 91
        1
 62
     0
 92
       -2
340
14
 93
        0
 40
0.045
309
GRIDFORMAT_END
 95
        4
302
GRIDFORMAT
  1
GRIDFORMAT_BEGIN
 90
        0
 91
        1
 62
     0
 92
       -2
340
14
 93
        0
 40
0.045
309
GRIDFORMAT_END
 95
        8
302
GRIDFORMAT
  1
GRIDFORMAT_BEGIN
 90
        0
 91
        1
 62
     0
 92
       -2
340
14
 93
        0
 40
0.045
309
GRIDFORMAT_END
 95
       16
302
GRIDFORMAT
  1
GRIDFORMAT_BEGIN
 90
        0
 91
        1
 62
     0
 92
       -2
340
14
 93
        0
 40
0.045
309
GRIDFORMAT_END
 95
       32
302
GRIDFORMAT
  1
GRIDFORMAT_BEGIN
 90
        0
 91
        1
 62
     0
 92
       -2
340
14
 93
        0
 40
0.045
309
GRIDFORMAT_END
309
TABLEFORMAT_END
  1
CELLSTYLE_BEGIN
 90
        1
 91
        1
300
_TITLE
309
CELLSTYLE_END
300
CELLSTYLE
  1
TABLEFORMAT_BEGIN
 90
        5
170
     1
 91
        0
 92
        0
 62
   257
 93
        1
300
CONTENTFORMAT
  1
CONTENTFORMAT_BEGIN
 90
        0
 91
        0
 92
        4
 93
        0
300

 40
0.0
140
1.0
 94
        5
 62
     0
340
11
144
4.5
309
CONTENTFORMAT_END
171
     1
301
MARGIN
  1
CELLMARGIN_BEGIN
 40
1.5
 40
1.5
 40
1.5
 40
1.5
 40
1.5
 40
1.5
309
CELLMARGIN_END
 94
        6
 95
        1
302
GRIDFORMAT
  1
GRIDFORMAT_BEGIN
 90
        0
 91
        1
 62
     0
 92
       -2
340
14
 93
        0
 40
0.045
309
GRIDFORMAT_END
 95
        2
302
GRIDFORMAT
  1
GRIDFORMAT_BEGIN
 90
        0
 91
        1
 62
     0
 92
       -2
340
14
 93
        0
 40
0.045
309
GRIDFORMAT_END
 95
        4
302
GRIDFORMAT
  1
GRIDFORMAT_BEGIN
 90
        0
 91
        1
 62
     0
 92
       -2
340
14
 93
        0
 40
0.045
309
GRIDFORMAT_END
 95
        8
302
GRIDFORMAT
  1
GRIDFORMAT_BEGIN
 90
        0
 91
        1
 62
     0
 92
       -2
340
14
 93
        0
 40
0.045
309
GRIDFORMAT_END
 95
       16
302
GRIDFORMAT
  1
GRIDFORMAT_BEGIN
 90
        0
 91
        1
 62
     0
 92
       -2
340
14
 93
        0
 40
0.045
309
GRIDFORMAT_END
 95
       32
302
GRIDFORMAT
  1
GRIDFORMAT_BEGIN
 90
        0
 91
        1
 62
     0
 92
       -2
340
14
 93
        0
 40
0.045
309
GRIDFORMAT_END
309
TABLEFORMAT_END
  1
CELLSTYLE_BEGIN
 90
        2
 91
        1
300
_HEADER
309
CELLSTYLE_END
300
CELLSTYLE
  1
TABLEFORMAT_BEGIN
 90
        5
170
     1
 91
        0
 92
        0
 62
   257
 93
        1
300
CONTENTFORMAT
  1
CONTENTFORMAT_BEGIN
 90
        0
 91
        0
 92
        4
 93
        0
300

 40
0.0
140
1.0
 94
        2
 62
     0
340
11
144
4.5
309
CONTENTFORMAT_END
171
     1
301
MARGIN
  1
CELLMARGIN_BEGIN
 40
1.5
 40
1.5
 40
1.5
 40
1.5
 40
1.5
 40
1.5
309
CELLMARGIN_END
 94
        6
 95
        1
302
GRIDFORMAT
  1
GRIDFORMAT_BEGIN
 90
        0
 91
        1
 62
     0
 92
       -2
340
14
 93
        0
 40
0.045
309
GRIDFORMAT_END
 95
        2
302
GRIDFORMAT
  1
GRIDFORMAT_BEGIN
 90
        0
 91
        1
 62
     0
 92
       -2
340
14
 93
        0
 40
0.045
309
GRIDFORMAT_END
 95
        4
302
GRIDFORMAT
  1
GRIDFORMAT_BEGIN
 90
        0
 91
        1
 62
     0
 92
       -2
340
14
 93
        0
 40
0.045
309
GRIDFORMAT_END
 95
        8
302
GRIDFORMAT
  1
GRIDFORMAT_BEGIN
 90
        0
 91
        1
 62
     0
 92
       -2
340
14
 93
        0
 40
0.045
309
GRIDFORMAT_END
 95
       16
302
GRIDFORMAT
  1
GRIDFORMAT_BEGIN
 90
        0
 91
        1
 62
     0
 92
       -2
340
14
 93
        0
 40
0.045
309
GRIDFORMAT_END
 95
       32
302
GRIDFORMAT
  1
GRIDFORMAT_BEGIN
 90
        0
 91
        1
 62
     0
 92
       -2
340
14
 93
        0
 40
0.045
309
GRIDFORMAT_END
309
TABLEFORMAT_END
  1
CELLSTYLE_BEGIN
 90
        3
 91
        2
300
_DATA
309
CELLSTYLE_END
  0
XRECORD
  5
213
102
{ACAD_REACTORS
330
212
102
}
330
212
100
AcDbXrecord
280
     1
102
RTVSPost2010Prop28
280
     1
102
RTVSPost2010PropOp28
 70
     1
102
RTVSPost2010Prop29
280
     1
102
RTVSPost2010PropOp29
 70
     1
102
RTVSPost2010Prop30
280
     0
102
RTVSPost2010PropOp30
 70
     1
102
RTVSPost2010Prop31
280
     0
102
RTVSPost2010PropOp31
 70
     1
102
RTVSPost2010Prop32
280
     0
102
RTVSPost2010PropOp32
 70
     1
102
RTVSPost2010Prop33
280
     0
102
RTVSPost2010PropOp33
 70
     1
102
RTVSPost2010Prop34
280
     0
102
RTVSPost2010PropOp34
 70
     1
102
RTVSPost2010Prop35
280
     0
102
RTVSPost2010PropOp35
 70
     1
102
RTVSPost2010Prop36
280
     0
102
RTVSPost2010PropOp36
 70
     1
102
RTVSPost2010Prop37
 90
       50
102
RTVSPost2010PropOp37
 70
     1
102
RTVSPost2010Prop38
140
0.0
102
RTVSPost2010PropOp38
 70
     1
102
RTVSPost2010Prop39
140
1.0
102
RTVSPost2010PropOp39
 70
     1
102
RTVSPost2010Prop40
 90
        0
102
RTVSPost2010PropOp40
 70
     1
102
RTVSPost2010Prop41ColorIndex
 90
       18
102
RTVSPost2010Prop41ColorRGB
 90
        0
102
RTVSPost2010PropOp41
 70
     1
102
RTVSPost2010Prop42
 90
       50
102
RTVSPost2010PropOp42
 70
     1
102
RTVSPost2010Prop43
 90
        3
102
RTVSPost2010PropOp43
 70
     1
102
RTVSPost2010Prop44ColorIndex
 90
        5
102
RTVSPost2010Prop44ColorRGB
 90
      255
102
RTVSPost2010PropOp44
 70
     1
102
RTVSPost2010Prop45
280
     0
102
RTVSPost2010PropOp45
 70
     1
102
RTVSPost2010Prop46
 90
       50
102
RTVSPost2010PropOp46
 70
     1
102
RTVSPost2010Prop47
 90
       50
102
RTVSPost2010PropOp47
 70
     1
102
RTVSPost2010Prop48
 90
       50
102
RTVSPost2010PropOp48
 70
     1
102
RTVSPost2010Prop49
280
     0
102
RTVSPost2010PropOp49
 70
     1
102
RTVSPost2010Prop50
 90
       50
102
RTVSPost2010PropOp50
 70
     1
102
RTVSPost2010Prop51ColorIndex
 90
      256
102
RTVSPost2010Prop51ColorRGB
 90
-16777216
102
RTVSPost2010PropOp51
 70
     0
102
RTVSPost2010Prop52
140
1.0
102
RTVSPost2010PropOp52
 70
     0
102
RTVSPost2010Prop53
 90
        2
102
RTVSPost2010PropOp53
 70
     1
102
RTVSPost2010Prop54
  1
strokes_ogs.tif
102
RTVSPost2010PropOp54
 70
     1
102
RTVSPost2010Prop55
280
     0
102
RTVSPost2010PropOp55
 70
     1
102
RTVSPost2010Prop56
140
1.0
102
RTVSPost2010PropOp56
 70
     1
102
RTVSPost2010Prop57
140
1.0
102
RTVSPost2010PropOp57
 70
     1
  0
XRECORD
  5
219
102
{ACAD_REACTORS
330
218
102
}
330
218
100
AcDbXrecord
280
     1
102
RTVSPost2010Prop28
280
     0
102
RTVSPost2010PropOp28
 70
     1
102
RTVSPost2010Prop29
280
     1
102
RTVSPost2010PropOp29
 70
     1
102
RTVSPost2010Prop30
280
     1
102
RTVSPost2010PropOp30
 70
     1
102
RTVSPost2010Prop31
280
     0
102
RTVSPost2010PropOp31
 70
     1
102
RTVSPost2010Prop32
280
     0
102
RTVSPost2010PropOp32
 70
     1
102
RTVSPost2010Prop33
280
     0
102
RTVSPost2010PropOp33
 70
     1
102
RTVSPost2010Prop34
280
     0
102
RTVSPost2010PropOp34
 70
     1
102
RTVSPost2010Prop35
280
     0
102
RTVSPost2010PropOp35
 70
     1
102
RTVSPost2010Prop36
280
     0
102
RTVSPost2010PropOp36
 70
     1
102
RTVSPost2010Prop37
 90
       50
102
RTVSPost2010PropOp37
 70
     1
102
RTVSPost2010Prop38
140
0.0
102
RTVSPost2010PropOp38
 70
     1
102
RTVSPost2010Prop39
140
1.0
102
RTVSPost2010PropOp39
 70
     1
102
RTVSPost2010Prop40
 90
        0
102
RTVSPost2010PropOp40
 70
     1
102
RTVSPost2010Prop41ColorIndex
 90
       18
102
RTVSPost2010Prop41ColorRGB
 90
        0
102
RTVSPost2010PropOp41
 70
     1
102
RTVSPost2010Prop42
 90
       50
102
RTVSPost2010PropOp42
 70
     1
102
RTVSPost2010Prop43
 90
        3
102
RTVSPost2010PropOp43
 70
     1
102
RTVSPost2010Prop44ColorIndex
 90
        5
102
RTVSPost2010Prop44ColorRGB
 90
      255
102
RTVSPost2010PropOp44
 70
     1
102
RTVSPost2010Prop45
280
     0
102
RTVSPost2010PropOp45
 70
     1
102
RTVSPost2010Prop46
 90
       50
102
RTVSPost2010PropOp46
 70
     1
102
RTVSPost2010Prop47
 90
       50
102
RTVSPost2010PropOp47
 70
     1
102
RTVSPost2010Prop48
 90
       50
102
RTVSPost2010PropOp48
 70
     1
102
RTVSPost2010Prop49
280
     0
102
RTVSPost2010PropOp49
 70
     1
102
RTVSPost2010Prop50
 90
       50
102
RTVSPost2010PropOp50
 70
     1
102
RTVSPost2010Prop51ColorIndex
 90
      256
102
RTVSPost2010Prop51ColorRGB
 90
-16777216
102
RTVSPost2010PropOp51
 70
     0
102
RTVSPost2010Prop52
140
1.0
102
RTVSPost2010PropOp52
 70
     0
102
RTVSPost2010Prop53
 90
        2
102
RTVSPost2010PropOp53
 70
     1
102
RTVSPost2010Prop54
  1
strokes_ogs.tif
102
RTVSPost2010PropOp54
 70
     1
102
RTVSPost2010Prop55
280
     0
102
RTVSPost2010PropOp55
 70
     1
102
RTVSPost2010Prop56
140
1.0
102
RTVSPost2010PropOp56
 70
     1
102
RTVSPost2010Prop57
140
1.0
102
RTVSPost2010PropOp57
 70
     1
  0
XRECORD
  5
221
102
{ACAD_REACTORS
330
220
102
}
330
220
100
AcDbXrecord
280
     1
102
RTVSPost2010Prop28
280
     0
102
RTVSPost2010PropOp28
 70
     1
102
RTVSPost2010Prop29
280
     1
102
RTVSPost2010PropOp29
 70
     1
102
RTVSPost2010Prop30
280
     1
102
RTVSPost2010PropOp30
 70
     1
102
RTVSPost2010Prop31
280
     0
102
RTVSPost2010PropOp31
 70
     1
102
RTVSPost2010Prop32
280
     0
102
RTVSPost2010PropOp32
 70
     1
102
RTVSPost2010Prop33
280
     0
102
RTVSPost2010PropOp33
 70
     1
102
RTVSPost2010Prop34
280
     0
102
RTVSPost2010PropOp34
 70
     1
102
RTVSPost2010Prop35
280
     0
102
RTVSPost2010PropOp35
 70
     1
102
RTVSPost2010Prop36
280
     0
102
RTVSPost2010PropOp36
 70
     1
102
RTVSPost2010Prop37
 90
       50
102
RTVSPost2010PropOp37
 70
     1
102
RTVSPost2010Prop38
140
0.0
102
RTVSPost2010PropOp38
 70
     1
102
RTVSPost2010Prop39
140
1.0
102
RTVSPost2010PropOp39
 70
     1
102
RTVSPost2010Prop40
 90
        0
102
RTVSPost2010PropOp40
 70
     1
102
RTVSPost2010Prop41ColorIndex
 90
       18
102
RTVSPost2010Prop41ColorRGB
 90
        0
102
RTVSPost2010PropOp41
 70
     1
102
RTVSPost2010Prop42
 90
       50
102
RTVSPost2010PropOp42
 70
     1
102
RTVSPost2010Prop43
 90
        3
102
RTVSPost2010PropOp43
 70
     1
102
RTVSPost2010Prop44ColorIndex
 90
        5
102
RTVSPost2010Prop44ColorRGB
 90
      255
102
RTVSPost2010PropOp44
 70
     1
102
RTVSPost2010Prop45
280
     0
102
RTVSPost2010PropOp45
 70
     1
102
RTVSPost2010Prop46
 90
       50
102
RTVSPost2010PropOp46
 70
     1
102
RTVSPost2010Prop47
 90
       50
102
RTVSPost2010PropOp47
 70
     1
102
RTVSPost2010Prop48
 90
       50
102
RTVSPost2010PropOp48
 70
     1
102
RTVSPost2010Prop49
280
     0
102
RTVSPost2010PropOp49
 70
     1
102
RTVSPost2010Prop50
 90
       50
102
RTVSPost2010PropOp50
 70
     1
102
RTVSPost2010Prop51ColorIndex
 90
      256
102
RTVSPost2010Prop51ColorRGB
 90
-16777216
102
RTVSPost2010PropOp51
 70
     0
102
RTVSPost2010Prop52
140
1.0
102
RTVSPost2010PropOp52
 70
     0
102
RTVSPost2010Prop53
 90
        2
102
RTVSPost2010PropOp53
 70
     1
102
RTVSPost2010Prop54
  1
strokes_ogs.tif
102
RTVSPost2010PropOp54
 70
     1
102
RTVSPost2010Prop55
280
     0
102
RTVSPost2010PropOp55
 70
     1
102
RTVSPost2010Prop56
140
1.0
102
RTVSPost2010PropOp56
 70
     1
102
RTVSPost2010Prop57
140
1.0
102
RTVSPost2010PropOp57
 70
     1
  0
XRECORD
  5
229
102
{ACAD_REACTORS
330
228
102
}
330
228
100
AcDbXrecord
280
     1
102
RTVSPost2010Prop28
280
     0
102
RTVSPost2010PropOp28
 70
     1
102
RTVSPost2010Prop29
280
     1
102
RTVSPost2010PropOp29
 70
     1
102
RTVSPost2010Prop30
280
     1
102
RTVSPost2010PropOp30
 70
     1
102
RTVSPost2010Prop31
280
     0
102
RTVSPost2010PropOp31
 70
     1
102
RTVSPost2010Prop32
280
     0
102
RTVSPost2010PropOp32
 70
     1
102
RTVSPost2010Prop33
280
     0
102
RTVSPost2010PropOp33
 70
     1
102
RTVSPost2010Prop34
280
     0
102
RTVSPost2010PropOp34
 70
     1
102
RTVSPost2010Prop35
280
     0
102
RTVSPost2010PropOp35
 70
     1
102
RTVSPost2010Prop36
280
     0
102
RTVSPost2010PropOp36
 70
     1
102
RTVSPost2010Prop37
 90
       50
102
RTVSPost2010PropOp37
 70
     1
102
RTVSPost2010Prop38
140
0.0
102
RTVSPost2010PropOp38
 70
     1
102
RTVSPost2010Prop39
140
1.0
102
RTVSPost2010PropOp39
 70
     1
102
RTVSPost2010Prop40
 90
        0
102
RTVSPost2010PropOp40
 70
     1
102
RTVSPost2010Prop41ColorIndex
 90
       18
102
RTVSPost2010Prop41ColorRGB
 90
        0
102
RTVSPost2010PropOp41
 70
     1
102
RTVSPost2010Prop42
 90
       50
102
RTVSPost2010PropOp42
 70
     1
102
RTVSPost2010Prop43
 90
        3
102
RTVSPost2010PropOp43
 70
     1
102
RTVSPost2010Prop44ColorIndex
 90
        5
102
RTVSPost2010Prop44ColorRGB
 90
      255
102
RTVSPost2010PropOp44
 70
     1
102
RTVSPost2010Prop45
280
     0
102
RTVSPost2010PropOp45
 70
     1
102
RTVSPost2010Prop46
 90
       50
102
RTVSPost2010PropOp46
 70
     1
102
RTVSPost2010Prop47
 90
       50
102
RTVSPost2010PropOp47
 70
     1
102
RTVSPost2010Prop48
 90
       50
102
RTVSPost2010PropOp48
 70
     1
102
RTVSPost2010Prop49
280
     0
102
RTVSPost2010PropOp49
 70
     1
102
RTVSPost2010Prop50
 90
       50
102
RTVSPost2010PropOp50
 70
     1
102
RTVSPost2010Prop51ColorIndex
 90
      256
102
RTVSPost2010Prop51ColorRGB
 90
-16777216
102
RTVSPost2010PropOp51
 70
     0
102
RTVSPost2010Prop52
140
1.0
102
RTVSPost2010PropOp52
 70
     0
102
RTVSPost2010Prop53
 90
        2
102
RTVSPost2010PropOp53
 70
     1
102
RTVSPost2010Prop54
  1
strokes_ogs.tif
102
RTVSPost2010PropOp54
 70
     1
102
RTVSPost2010Prop55
280
     0
102
RTVSPost2010PropOp55
 70
     1
102
RTVSPost2010Prop56
140
1.0
102
RTVSPost2010PropOp56
 70
     1
102
RTVSPost2010Prop57
140
1.0
102
RTVSPost2010PropOp57
 70
     1
  0
XRECORD
  5
21D
102
{ACAD_REACTORS
330
21C
102
}
330
21C
100
AcDbXrecord
280
     1
102
RTVSPost2010Prop28
280
     0
102
RTVSPost2010PropOp28
 70
     1
102
RTVSPost2010Prop29
280
     1
102
RTVSPost2010PropOp29
 70
     1
102
RTVSPost2010Prop30
280
     1
102
RTVSPost2010PropOp30
 70
     1
102
RTVSPost2010Prop31
280
     0
102
RTVSPost2010PropOp31
 70
     1
102
RTVSPost2010Prop32
280
     0
102
RTVSPost2010PropOp32
 70
     1
102
RTVSPost2010Prop33
280
     0
102
RTVSPost2010PropOp33
 70
     1
102
RTVSPost2010Prop34
280
     0
102
RTVSPost2010PropOp34
 70
     1
102
RTVSPost2010Prop35
280
     0
102
RTVSPost2010PropOp35
 70
     1
102
RTVSPost2010Prop36
280
     0
102
RTVSPost2010PropOp36
 70
     1
102
RTVSPost2010Prop37
 90
       50
102
RTVSPost2010PropOp37
 70
     1
102
RTVSPost2010Prop38
140
0.0
102
RTVSPost2010PropOp38
 70
     1
102
RTVSPost2010Prop39
140
1.0
102
RTVSPost2010PropOp39
 70
     1
102
RTVSPost2010Prop40
 90
        0
102
RTVSPost2010PropOp40
 70
     1
102
RTVSPost2010Prop41ColorIndex
 90
       18
102
RTVSPost2010Prop41ColorRGB
 90
        0
102
RTVSPost2010PropOp41
 70
     1
102
RTVSPost2010Prop42
 90
       50
102
RTVSPost2010PropOp42
 70
     1
102
RTVSPost2010Prop43
 90
        3
102
RTVSPost2010PropOp43
 70
     1
102
RTVSPost2010Prop44ColorIndex
 90
        5
102
RTVSPost2010Prop44ColorRGB
 90
      255
102
RTVSPost2010PropOp44
 70
     1
102
RTVSPost2010Prop45
280
     0
102
RTVSPost2010PropOp45
 70
     1
102
RTVSPost2010Prop46
 90
       50
102
RTVSPost2010PropOp46
 70
     1
102
RTVSPost2010Prop47
 90
       50
102
RTVSPost2010PropOp47
 70
     1
102
RTVSPost2010Prop48
 90
       50
102
RTVSPost2010PropOp48
 70
     1
102
RTVSPost2010Prop49
280
     0
102
RTVSPost2010PropOp49
 70
     1
102
RTVSPost2010Prop50
 90
       50
102
RTVSPost2010PropOp50
 70
     1
102
RTVSPost2010Prop51ColorIndex
 90
      256
102
RTVSPost2010Prop51ColorRGB
 90
-16777216
102
RTVSPost2010PropOp51
 70
     0
102
RTVSPost2010Prop52
140
1.0
102
RTVSPost2010PropOp52
 70
     0
102
RTVSPost2010Prop53
 90
        2
102
RTVSPost2010PropOp53
 70
     1
102
RTVSPost2010Prop54
  1
strokes_ogs.tif
102
RTVSPost2010PropOp54
 70
     1
102
RTVSPost2010Prop55
280
     0
102
RTVSPost2010PropOp55
 70
     1
102
RTVSPost2010Prop56
140
1.0
102
RTVSPost2010PropOp56
 70
     1
102
RTVSPost2010Prop57
140
1.0
102
RTVSPost2010PropOp57
 70
     1
  0
XRECORD
  5
21F
102
{ACAD_REACTORS
330
21E
102
}
330
21E
100
AcDbXrecord
280
     1
102
RTVSPost2010Prop28
280
     0
102
RTVSPost2010PropOp28
 70
     1
102
RTVSPost2010Prop29
280
     1
102
RTVSPost2010PropOp29
 70
     1
102
RTVSPost2010Prop30
280
     1
102
RTVSPost2010PropOp30
 70
     1
102
RTVSPost2010Prop31
280
     0
102
RTVSPost2010PropOp31
 70
     1
102
RTVSPost2010Prop32
280
     0
102
RTVSPost2010PropOp32
 70
     1
102
RTVSPost2010Prop33
280
     0
102
RTVSPost2010PropOp33
 70
     1
102
RTVSPost2010Prop34
280
     0
102
RTVSPost2010PropOp34
 70
     1
102
RTVSPost2010Prop35
280
     0
102
RTVSPost2010PropOp35
 70
     1
102
RTVSPost2010Prop36
280
     0
102
RTVSPost2010PropOp36
 70
     1
102
RTVSPost2010Prop37
 90
       50
102
RTVSPost2010PropOp37
 70
     1
102
RTVSPost2010Prop38
140
0.0
102
RTVSPost2010PropOp38
 70
     1
102
RTVSPost2010Prop39
140
1.0
102
RTVSPost2010PropOp39
 70
     1
102
RTVSPost2010Prop40
 90
        0
102
RTVSPost2010PropOp40
 70
     1
102
RTVSPost2010Prop41ColorIndex
 90
       18
102
RTVSPost2010Prop41ColorRGB
 90
        0
102
RTVSPost2010PropOp41
 70
     1
102
RTVSPost2010Prop42
 90
       50
102
RTVSPost2010PropOp42
 70
     1
102
RTVSPost2010Prop43
 90
        3
102
RTVSPost2010PropOp43
 70
     1
102
RTVSPost2010Prop44ColorIndex
 90
        5
102
RTVSPost2010Prop44ColorRGB
 90
      255
102
RTVSPost2010PropOp44
 70
     1
102
RTVSPost2010Prop45
280
     0
102
RTVSPost2010PropOp45
 70
     1
102
RTVSPost2010Prop46
 90
       50
102
RTVSPost2010PropOp46
 70
     1
102
RTVSPost2010Prop47
 90
       50
102
RTVSPost2010PropOp47
 70
     1
102
RTVSPost2010Prop48
 90
       50
102
RTVSPost2010PropOp48
 70
     1
102
RTVSPost2010Prop49
280
     0
102
RTVSPost2010PropOp49
 70
     1
102
RTVSPost2010Prop50
 90
       50
102
RTVSPost2010PropOp50
 70
     1
102
RTVSPost2010Prop51ColorIndex
 90
      256
102
RTVSPost2010Prop51ColorRGB
 90
-16777216
102
RTVSPost2010PropOp51
 70
     0
102
RTVSPost2010Prop52
140
1.0
102
RTVSPost2010PropOp52
 70
     0
102
RTVSPost2010Prop53
 90
        2
102
RTVSPost2010PropOp53
 70
     1
102
RTVSPost2010Prop54
  1
strokes_ogs.tif
102
RTVSPost2010PropOp54
 70
     1
102
RTVSPost2010Prop55
280
     0
102
RTVSPost2010PropOp55
 70
     1
102
RTVSPost2010Prop56
140
1.0
102
RTVSPost2010PropOp56
 70
     1
102
RTVSPost2010Prop57
140
1.0
102
RTVSPost2010PropOp57
 70
     1
  0
XRECORD
  5
22F
102
{ACAD_REACTORS
330
22E
102
}
330
22E
100
AcDbXrecord
280
     1
102
RTVSPost2010Prop28
280
     0
102
RTVSPost2010PropOp28
 70
     0
102
RTVSPost2010Prop29
280
     1
102
RTVSPost2010PropOp29
 70
     0
102
RTVSPost2010Prop30
280
     1
102
RTVSPost2010PropOp30
 70
     0
102
RTVSPost2010Prop31
280
     0
102
RTVSPost2010PropOp31
 70
     0
102
RTVSPost2010Prop32
280
     0
102
RTVSPost2010PropOp32
 70
     0
102
RTVSPost2010Prop33
280
     0
102
RTVSPost2010PropOp33
 70
     0
102
RTVSPost2010Prop34
280
     0
102
RTVSPost2010PropOp34
 70
     0
102
RTVSPost2010Prop35
280
     0
102
RTVSPost2010PropOp35
 70
     0
102
RTVSPost2010Prop36
280
     0
102
RTVSPost2010PropOp36
 70
     0
102
RTVSPost2010Prop37
 90
       50
102
RTVSPost2010PropOp37
 70
     0
102
RTVSPost2010Prop38
140
0.0
102
RTVSPost2010PropOp38
 70
     0
102
RTVSPost2010Prop39
140
1.0
102
RTVSPost2010PropOp39
 70
     0
102
RTVSPost2010Prop40
 90
        0
102
RTVSPost2010PropOp40
 70
     0
102
RTVSPost2010Prop41ColorIndex
 90
       18
102
RTVSPost2010Prop41ColorRGB
 90
        0
102
RTVSPost2010PropOp41
 70
     0
102
RTVSPost2010Prop42
 90
       50
102
RTVSPost2010PropOp42
 70
     0
102
RTVSPost2010Prop43
 90
        3
102
RTVSPost2010PropOp43
 70
     0
102
RTVSPost2010Prop44ColorIndex
 90
        5
102
RTVSPost2010Prop44ColorRGB
 90
      255
102
RTVSPost2010PropOp44
 70
     0
102
RTVSPost2010Prop45
280
     0
102
RTVSPost2010PropOp45
 70
     0
102
RTVSPost2010Prop46
 90
       50
102
RTVSPost2010PropOp46
 70
     0
102
RTVSPost2010Prop47
 90
       50
102
RTVSPost2010PropOp47
 70
     0
102
RTVSPost2010Prop48
 90
       50
102
RTVSPost2010PropOp48
 70
     0
102
RTVSPost2010Prop49
280
     0
102
RTVSPost2010PropOp49
 70
     0
102
RTVSPost2010Prop50
 90
       50
102
RTVSPost2010PropOp50
 70
     0
102
RTVSPost2010Prop51ColorIndex
 90
      256
102
RTVSPost2010Prop51ColorRGB
 90
-16777216
102
RTVSPost2010PropOp51
 70
     0
102
RTVSPost2010Prop52
140
1.0
102
RTVSPost2010PropOp52
 70
     0
102
RTVSPost2010Prop53
 90
        2
102
RTVSPost2010PropOp53
 70
     0
102
RTVSPost2010Prop54
  1
strokes_ogs.tif
102
RTVSPost2010PropOp54
 70
     0
102
RTVSPost2010Prop55
280
     0
102
RTVSPost2010PropOp55
 70
     0
102
RTVSPost2010Prop56
140
1.0
102
RTVSPost2010PropOp56
 70
     0
102
RTVSPost2010Prop57
140
1.0
102
RTVSPost2010PropOp57
 70
     0
  0
XRECORD
  5
227
102
{ACAD_REACTORS
330
226
102
}
330
226
100
AcDbXrecord
280
     1
102
RTVSPost2010Prop28
280
     0
102
RTVSPost2010PropOp28
 70
     1
102
RTVSPost2010Prop29
280
     1
102
RTVSPost2010PropOp29
 70
     1
102
RTVSPost2010Prop30
280
     1
102
RTVSPost2010PropOp30
 70
     1
102
RTVSPost2010Prop31
280
     0
102
RTVSPost2010PropOp31
 70
     1
102
RTVSPost2010Prop32
280
     0
102
RTVSPost2010PropOp32
 70
     1
102
RTVSPost2010Prop33
280
     0
102
RTVSPost2010PropOp33
 70
     1
102
RTVSPost2010Prop34
280
     0
102
RTVSPost2010PropOp34
 70
     1
102
RTVSPost2010Prop35
280
     0
102
RTVSPost2010PropOp35
 70
     1
102
RTVSPost2010Prop36
280
     0
102
RTVSPost2010PropOp36
 70
     1
102
RTVSPost2010Prop37
 90
       50
102
RTVSPost2010PropOp37
 70
     1
102
RTVSPost2010Prop38
140
0.0
102
RTVSPost2010PropOp38
 70
     1
102
RTVSPost2010Prop39
140
1.0
102
RTVSPost2010PropOp39
 70
     1
102
RTVSPost2010Prop40
 90
        0
102
RTVSPost2010PropOp40
 70
     1
102
RTVSPost2010Prop41ColorIndex
 90
       18
102
RTVSPost2010Prop41ColorRGB
 90
        0
102
RTVSPost2010PropOp41
 70
     1
102
RTVSPost2010Prop42
 90
       50
102
RTVSPost2010PropOp42
 70
     1
102
RTVSPost2010Prop43
 90
        3
102
RTVSPost2010PropOp43
 70
     1
102
RTVSPost2010Prop44ColorIndex
 90
        5
102
RTVSPost2010Prop44ColorRGB
 90
      255
102
RTVSPost2010PropOp44
 70
     1
102
RTVSPost2010Prop45
280
     0
102
RTVSPost2010PropOp45
 70
     1
102
RTVSPost2010Prop46
 90
       50
102
RTVSPost2010PropOp46
 70
     1
102
RTVSPost2010Prop47
 90
       50
102
RTVSPost2010PropOp47
 70
     1
102
RTVSPost2010Prop48
 90
       50
102
RTVSPost2010PropOp48
 70
     1
102
RTVSPost2010Prop49
280
     0
102
RTVSPost2010PropOp49
 70
     1
102
RTVSPost2010Prop50
 90
       50
102
RTVSPost2010PropOp50
 70
     1
102
RTVSPost2010Prop51ColorIndex
 90
      256
102
RTVSPost2010Prop51ColorRGB
 90
-16777216
102
RTVSPost2010PropOp51
 70
     0
102
RTVSPost2010Prop52
140
1.0
102
RTVSPost2010PropOp52
 70
     0
102
RTVSPost2010Prop53
 90
        2
102
RTVSPost2010PropOp53
 70
     1
102
RTVSPost2010Prop54
  1
strokes_ogs.tif
102
RTVSPost2010PropOp54
 70
     1
102
RTVSPost2010Prop55
280
     0
102
RTVSPost2010PropOp55
 70
     1
102
RTVSPost2010Prop56
140
1.0
102
RTVSPost2010PropOp56
 70
     1
102
RTVSPost2010Prop57
140
1.0
102
RTVSPost2010PropOp57
 70
     1
  0
XRECORD
  5
20B
102
{ACAD_REACTORS
330
20A
102
}
330
20A
100
AcDbXrecord
280
     1
102
RTVSPost2010Prop28
280
     0
102
RTVSPost2010PropOp28
 70
     1
102
RTVSPost2010Prop29
280
     1
102
RTVSPost2010PropOp29
 70
     1
102
RTVSPost2010Prop30
280
     1
102
RTVSPost2010PropOp30
 70
     1
102
RTVSPost2010Prop31
280
     0
102
RTVSPost2010PropOp31
 70
     1
102
RTVSPost2010Prop32
280
     0
102
RTVSPost2010PropOp32
 70
     1
102
RTVSPost2010Prop33
280
     0
102
RTVSPost2010PropOp33
 70
     1
102
RTVSPost2010Prop34
280
     0
102
RTVSPost2010PropOp34
 70
     1
102
RTVSPost2010Prop35
280
     0
102
RTVSPost2010PropOp35
 70
     1
102
RTVSPost2010Prop36
280
     0
102
RTVSPost2010PropOp36
 70
     1
102
RTVSPost2010Prop37
 90
       50
102
RTVSPost2010PropOp37
 70
     1
102
RTVSPost2010Prop38
140
0.0
102
RTVSPost2010PropOp38
 70
     1
102
RTVSPost2010Prop39
140
1.0
102
RTVSPost2010PropOp39
 70
     1
102
RTVSPost2010Prop40
 90
        0
102
RTVSPost2010PropOp40
 70
     1
102
RTVSPost2010Prop41ColorIndex
 90
       18
102
RTVSPost2010Prop41ColorRGB
 90
        0
102
RTVSPost2010PropOp41
 70
     1
102
RTVSPost2010Prop42
 90
       50
102
RTVSPost2010PropOp42
 70
     1
102
RTVSPost2010Prop43
 90
        3
102
RTVSPost2010PropOp43
 70
     1
102
RTVSPost2010Prop44ColorIndex
 90
        5
102
RTVSPost2010Prop44ColorRGB
 90
      255
102
RTVSPost2010PropOp44
 70
     1
102
RTVSPost2010Prop45
280
     0
102
RTVSPost2010PropOp45
 70
     1
102
RTVSPost2010Prop46
 90
       50
102
RTVSPost2010PropOp46
 70
     1
102
RTVSPost2010Prop47
 90
       50
102
RTVSPost2010PropOp47
 70
     1
102
RTVSPost2010Prop48
 90
       50
102
RTVSPost2010PropOp48
 70
     1
102
RTVSPost2010Prop49
280
     0
102
RTVSPost2010PropOp49
 70
     1
102
RTVSPost2010Prop50
 90
       50
102
RTVSPost2010PropOp50
 70
     1
102
RTVSPost2010Prop51ColorIndex
 90
      256
102
RTVSPost2010Prop51ColorRGB
 90
-16777216
102
RTVSPost2010PropOp51
 70
     0
102
RTVSPost2010Prop52
140
1.0
102
RTVSPost2010PropOp52
 70
     0
102
RTVSPost2010Prop53
 90
        2
102
RTVSPost2010PropOp53
 70
     1
102
RTVSPost2010Prop54
  1
strokes_ogs.tif
102
RTVSPost2010PropOp54
 70
     1
102
RTVSPost2010Prop55
280
     0
102
RTVSPost2010PropOp55
 70
     1
102
RTVSPost2010Prop56
140
1.0
102
RTVSPost2010PropOp56
 70
     1
102
RTVSPost2010Prop57
140
1.0
102
RTVSPost2010PropOp57
 70
     1
  0
XRECORD
  5
20D
102
{ACAD_REACTORS
330
20C
102
}
330
20C
100
AcDbXrecord
280
     1
102
RTVSPost2010Prop28
280
     0
102
RTVSPost2010PropOp28
 70
     1
102
RTVSPost2010Prop29
280
     1
102
RTVSPost2010PropOp29
 70
     1
102
RTVSPost2010Prop30
280
     1
102
RTVSPost2010PropOp30
 70
     1
102
RTVSPost2010Prop31
280
     0
102
RTVSPost2010PropOp31
 70
     1
102
RTVSPost2010Prop32
280
     0
102
RTVSPost2010PropOp32
 70
     1
102
RTVSPost2010Prop33
280
     0
102
RTVSPost2010PropOp33
 70
     1
102
RTVSPost2010Prop34
280
     0
102
RTVSPost2010PropOp34
 70
     1
102
RTVSPost2010Prop35
280
     0
102
RTVSPost2010PropOp35
 70
     1
102
RTVSPost2010Prop36
280
     0
102
RTVSPost2010PropOp36
 70
     1
102
RTVSPost2010Prop37
 90
       50
102
RTVSPost2010PropOp37
 70
     1
102
RTVSPost2010Prop38
140
0.0
102
RTVSPost2010PropOp38
 70
     1
102
RTVSPost2010Prop39
140
1.0
102
RTVSPost2010PropOp39
 70
     1
102
RTVSPost2010Prop40
 90
        0
102
RTVSPost2010PropOp40
 70
     1
102
RTVSPost2010Prop41ColorIndex
 90
       18
102
RTVSPost2010Prop41ColorRGB
 90
        0
102
RTVSPost2010PropOp41
 70
     1
102
RTVSPost2010Prop42
 90
       50
102
RTVSPost2010PropOp42
 70
     1
102
RTVSPost2010Prop43
 90
        3
102
RTVSPost2010PropOp43
 70
     1
102
RTVSPost2010Prop44ColorIndex
 90
        5
102
RTVSPost2010Prop44ColorRGB
 90
      255
102
RTVSPost2010PropOp44
 70
     1
102
RTVSPost2010Prop45
280
     0
102
RTVSPost2010PropOp45
 70
     1
102
RTVSPost2010Prop46
 90
       50
102
RTVSPost2010PropOp46
 70
     1
102
RTVSPost2010Prop47
 90
       50
102
RTVSPost2010PropOp47
 70
     1
102
RTVSPost2010Prop48
 90
       50
102
RTVSPost2010PropOp48
 70
     1
102
RTVSPost2010Prop49
280
     0
102
RTVSPost2010PropOp49
 70
     1
102
RTVSPost2010Prop50
 90
       50
102
RTVSPost2010PropOp50
 70
     1
102
RTVSPost2010Prop51ColorIndex
 90
      256
102
RTVSPost2010Prop51ColorRGB
 90
-16777216
102
RTVSPost2010PropOp51
 70
     0
102
RTVSPost2010Prop52
140
1.0
102
RTVSPost2010PropOp52
 70
     0
102
RTVSPost2010Prop53
 90
        2
102
RTVSPost2010PropOp53
 70
     1
102
RTVSPost2010Prop54
  1
strokes_ogs.tif
102
RTVSPost2010PropOp54
 70
     1
102
RTVSPost2010Prop55
280
     0
102
RTVSPost2010PropOp55
 70
     1
102
RTVSPost2010Prop56
140
1.0
102
RTVSPost2010PropOp56
 70
     1
102
RTVSPost2010Prop57
140
1.0
102
RTVSPost2010PropOp57
 70
     1
  0
XRECORD
  5
20F
102
{ACAD_REACTORS
330
20E
102
}
330
20E
100
AcDbXrecord
280
     1
102
RTVSPost2010Prop28
280
     0
102
RTVSPost2010PropOp28
 70
     1
102
RTVSPost2010Prop29
280
     1
102
RTVSPost2010PropOp29
 70
     1
102
RTVSPost2010Prop30
280
     1
102
RTVSPost2010PropOp30
 70
     1
102
RTVSPost2010Prop31
280
     0
102
RTVSPost2010PropOp31
 70
     1
102
RTVSPost2010Prop32
280
     0
102
RTVSPost2010PropOp32
 70
     1
102
RTVSPost2010Prop33
280
     0
102
RTVSPost2010PropOp33
 70
     1
102
RTVSPost2010Prop34
280
     0
102
RTVSPost2010PropOp34
 70
     1
102
RTVSPost2010Prop35
280
     0
102
RTVSPost2010PropOp35
 70
     1
102
RTVSPost2010Prop36
280
     0
102
RTVSPost2010PropOp36
 70
     1
102
RTVSPost2010Prop37
 90
       50
102
RTVSPost2010PropOp37
 70
     1
102
RTVSPost2010Prop38
140
0.0
102
RTVSPost2010PropOp38
 70
     1
102
RTVSPost2010Prop39
140
1.0
102
RTVSPost2010PropOp39
 70
     1
102
RTVSPost2010Prop40
 90
        0
102
RTVSPost2010PropOp40
 70
     1
102
RTVSPost2010Prop41ColorIndex
 90
       18
102
RTVSPost2010Prop41ColorRGB
 90
        0
102
RTVSPost2010PropOp41
 70
     1
102
RTVSPost2010Prop42
 90
       50
102
RTVSPost2010PropOp42
 70
     1
102
RTVSPost2010Prop43
 90
        3
102
RTVSPost2010PropOp43
 70
     1
102
RTVSPost2010Prop44ColorIndex
 90
        5
102
RTVSPost2010Prop44ColorRGB
 90
      255
102
RTVSPost2010PropOp44
 70
     1
102
RTVSPost2010Prop45
280
     0
102
RTVSPost2010PropOp45
 70
     1
102
RTVSPost2010Prop46
 90
       50
102
RTVSPost2010PropOp46
 70
     1
102
RTVSPost2010Prop47
 90
       50
102
RTVSPost2010PropOp47
 70
     1
102
RTVSPost2010Prop48
 90
       50
102
RTVSPost2010PropOp48
 70
     1
102
RTVSPost2010Prop49
280
     0
102
RTVSPost2010PropOp49
 70
     1
102
RTVSPost2010Prop50
 90
       50
102
RTVSPost2010PropOp50
 70
     1
102
RTVSPost2010Prop51ColorIndex
 90
      256
102
RTVSPost2010Prop51ColorRGB
 90
-16777216
102
RTVSPost2010PropOp51
 70
     0
102
RTVSPost2010Prop52
140
1.0
102
RTVSPost2010PropOp52
 70
     0
102
RTVSPost2010Prop53
 90
        2
102
RTVSPost2010PropOp53
 70
     1
102
RTVSPost2010Prop54
  1
strokes_ogs.tif
102
RTVSPost2010PropOp54
 70
     1
102
RTVSPost2010Prop55
280
     0
102
RTVSPost2010PropOp55
 70
     1
102
RTVSPost2010Prop56
140
1.0
102
RTVSPost2010PropOp56
 70
     1
102
RTVSPost2010Prop57
140
1.0
102
RTVSPost2010PropOp57
 70
     1
  0
XRECORD
  5
211
102
{ACAD_REACTORS
330
210
102
}
330
210
100
AcDbXrecord
280
     1
102
RTVSPost2010Prop28
280
     0
102
RTVSPost2010PropOp28
 70
     1
102
RTVSPost2010Prop29
280
     1
102
RTVSPost2010PropOp29
 70
     1
102
RTVSPost2010Prop30
280
     1
102
RTVSPost2010PropOp30
 70
     1
102
RTVSPost2010Prop31
280
     0
102
RTVSPost2010PropOp31
 70
     1
102
RTVSPost2010Prop32
280
     0
102
RTVSPost2010PropOp32
 70
     1
102
RTVSPost2010Prop33
280
     0
102
RTVSPost2010PropOp33
 70
     1
102
RTVSPost2010Prop34
280
     0
102
RTVSPost2010PropOp34
 70
     1
102
RTVSPost2010Prop35
280
     0
102
RTVSPost2010PropOp35
 70
     1
102
RTVSPost2010Prop36
280
     0
102
RTVSPost2010PropOp36
 70
     1
102
RTVSPost2010Prop37
 90
       50
102
RTVSPost2010PropOp37
 70
     1
102
RTVSPost2010Prop38
140
0.0
102
RTVSPost2010PropOp38
 70
     1
102
RTVSPost2010Prop39
140
1.0
102
RTVSPost2010PropOp39
 70
     1
102
RTVSPost2010Prop40
 90
        0
102
RTVSPost2010PropOp40
 70
     1
102
RTVSPost2010Prop41ColorIndex
 90
       18
102
RTVSPost2010Prop41ColorRGB
 90
        0
102
RTVSPost2010PropOp41
 70
     1
102
RTVSPost2010Prop42
 90
       50
102
RTVSPost2010PropOp42
 70
     1
102
RTVSPost2010Prop43
 90
        3
102
RTVSPost2010PropOp43
 70
     1
102
RTVSPost2010Prop44ColorIndex
 90
        5
102
RTVSPost2010Prop44ColorRGB
 90
      255
102
RTVSPost2010PropOp44
 70
     1
102
RTVSPost2010Prop45
280
     0
102
RTVSPost2010PropOp45
 70
     1
102
RTVSPost2010Prop46
 90
       50
102
RTVSPost2010PropOp46
 70
     1
102
RTVSPost2010Prop47
 90
       50
102
RTVSPost2010PropOp47
 70
     1
102
RTVSPost2010Prop48
 90
       50
102
RTVSPost2010PropOp48
 70
     1
102
RTVSPost2010Prop49
280
     0
102
RTVSPost2010PropOp49
 70
     1
102
RTVSPost2010Prop50
 90
       50
102
RTVSPost2010PropOp50
 70
     1
102
RTVSPost2010Prop51ColorIndex
 90
      256
102
RTVSPost2010Prop51ColorRGB
 90
-16777216
102
RTVSPost2010PropOp51
 70
     0
102
RTVSPost2010Prop52
140
1.0
102
RTVSPost2010PropOp52
 70
     0
102
RTVSPost2010Prop53
 90
        2
102
RTVSPost2010PropOp53
 70
     1
102
RTVSPost2010Prop54
  1
strokes_ogs.tif
102
RTVSPost2010PropOp54
 70
     1
102
RTVSPost2010Prop55
280
     0
102
RTVSPost2010PropOp55
 70
     1
102
RTVSPost2010Prop56
140
1.0
102
RTVSPost2010PropOp56
 70
     1
102
RTVSPost2010Prop57
140
1.0
102
RTVSPost2010PropOp57
 70
     1
  0
XRECORD
  5
217
102
{ACAD_REACTORS
330
216
102
}
330
216
100
AcDbXrecord
280
     1
102
RTVSPost2010Prop28
280
     0
102
RTVSPost2010PropOp28
 70
     1
102
RTVSPost2010Prop29
280
     1
102
RTVSPost2010PropOp29
 70
     1
102
RTVSPost2010Prop30
280
     1
102
RTVSPost2010PropOp30
 70
     1
102
RTVSPost2010Prop31
280
     0
102
RTVSPost2010PropOp31
 70
     1
102
RTVSPost2010Prop32
280
     0
102
RTVSPost2010PropOp32
 70
     1
102
RTVSPost2010Prop33
280
     0
102
RTVSPost2010PropOp33
 70
     1
102
RTVSPost2010Prop34
280
     0
102
RTVSPost2010PropOp34
 70
     1
102
RTVSPost2010Prop35
280
     0
102
RTVSPost2010PropOp35
 70
     1
102
RTVSPost2010Prop36
280
     0
102
RTVSPost2010PropOp36
 70
     1
102
RTVSPost2010Prop37
 90
       50
102
RTVSPost2010PropOp37
 70
     1
102
RTVSPost2010Prop38
140
0.0
102
RTVSPost2010PropOp38
 70
     1
102
RTVSPost2010Prop39
140
1.0
102
RTVSPost2010PropOp39
 70
     1
102
RTVSPost2010Prop40
 90
        0
102
RTVSPost2010PropOp40
 70
     1
102
RTVSPost2010Prop41ColorIndex
 90
       18
102
RTVSPost2010Prop41ColorRGB
 90
        0
102
RTVSPost2010PropOp41
 70
     1
102
RTVSPost2010Prop42
 90
       50
102
RTVSPost2010PropOp42
 70
     1
102
RTVSPost2010Prop43
 90
        3
102
RTVSPost2010PropOp43
 70
     1
102
RTVSPost2010Prop44ColorIndex
 90
        5
102
RTVSPost2010Prop44ColorRGB
 90
      255
102
RTVSPost2010PropOp44
 70
     1
102
RTVSPost2010Prop45
280
     0
102
RTVSPost2010PropOp45
 70
     1
102
RTVSPost2010Prop46
 90
       50
102
RTVSPost2010PropOp46
 70
     1
102
RTVSPost2010Prop47
 90
       50
102
RTVSPost2010PropOp47
 70
     1
102
RTVSPost2010Prop48
 90
       50
102
RTVSPost2010PropOp48
 70
     1
102
RTVSPost2010Prop49
280
     0
102
RTVSPost2010PropOp49
 70
     1
102
RTVSPost2010Prop50
 90
       50
102
RTVSPost2010PropOp50
 70
     1
102
RTVSPost2010Prop51ColorIndex
 90
      256
102
RTVSPost2010Prop51ColorRGB
 90
-16777216
102
RTVSPost2010PropOp51
 70
     0
102
RTVSPost2010Prop52
140
1.0
102
RTVSPost2010PropOp52
 70
     0
102
RTVSPost2010Prop53
 90
        2
102
RTVSPost2010PropOp53
 70
     1
102
RTVSPost2010Prop54
  1
strokes_ogs.tif
102
RTVSPost2010PropOp54
 70
     1
102
RTVSPost2010Prop55
280
     0
102
RTVSPost2010PropOp55
 70
     1
102
RTVSPost2010Prop56
140
1.0
102
RTVSPost2010PropOp56
 70
     1
102
RTVSPost2010Prop57
140
1.0
102
RTVSPost2010PropOp57
 70
     1
  0
XRECORD
  5
22B
102
{ACAD_REACTORS
330
22A
102
}
330
22A
100
AcDbXrecord
280
     1
102
RTVSPost2010Prop28
280
     0
102
RTVSPost2010PropOp28
 70
     0
102
RTVSPost2010Prop29
280
     1
102
RTVSPost2010PropOp29
 70
     0
102
RTVSPost2010Prop30
280
     1
102
RTVSPost2010PropOp30
 70
     0
102
RTVSPost2010Prop31
280
     0
102
RTVSPost2010PropOp31
 70
     0
102
RTVSPost2010Prop32
280
     0
102
RTVSPost2010PropOp32
 70
     0
102
RTVSPost2010Prop33
280
     0
102
RTVSPost2010PropOp33
 70
     0
102
RTVSPost2010Prop34
280
     0
102
RTVSPost2010PropOp34
 70
     0
102
RTVSPost2010Prop35
280
     0
102
RTVSPost2010PropOp35
 70
     0
102
RTVSPost2010Prop36
280
     0
102
RTVSPost2010PropOp36
 70
     0
102
RTVSPost2010Prop37
 90
       50
102
RTVSPost2010PropOp37
 70
     0
102
RTVSPost2010Prop38
140
0.0
102
RTVSPost2010PropOp38
 70
     0
102
RTVSPost2010Prop39
140
1.0
102
RTVSPost2010PropOp39
 70
     0
102
RTVSPost2010Prop40
 90
        0
102
RTVSPost2010PropOp40
 70
     0
102
RTVSPost2010Prop41ColorIndex
 90
       18
102
RTVSPost2010Prop41ColorRGB
 90
        0
102
RTVSPost2010PropOp41
 70
     0
102
RTVSPost2010Prop42
 90
       50
102
RTVSPost2010PropOp42
 70
     0
102
RTVSPost2010Prop43
 90
        3
102
RTVSPost2010PropOp43
 70
     0
102
RTVSPost2010Prop44ColorIndex
 90
        5
102
RTVSPost2010Prop44ColorRGB
 90
      255
102
RTVSPost2010PropOp44
 70
     0
102
RTVSPost2010Prop45
280
     0
102
RTVSPost2010PropOp45
 70
     0
102
RTVSPost2010Prop46
 90
       50
102
RTVSPost2010PropOp46
 70
     0
102
RTVSPost2010Prop47
 90
       50
102
RTVSPost2010PropOp47
 70
     0
102
RTVSPost2010Prop48
 90
       50
102
RTVSPost2010PropOp48
 70
     0
102
RTVSPost2010Prop49
280
     0
102
RTVSPost2010PropOp49
 70
     0
102
RTVSPost2010Prop50
 90
       50
102
RTVSPost2010PropOp50
 70
     0
102
RTVSPost2010Prop51ColorIndex
 90
      256
102
RTVSPost2010Prop51ColorRGB
 90
-16777216
102
RTVSPost2010PropOp51
 70
     0
102
RTVSPost2010Prop52
140
1.0
102
RTVSPost2010PropOp52
 70
     0
102
RTVSPost2010Prop53
 90
        2
102
RTVSPost2010PropOp53
 70
     0
102
RTVSPost2010Prop54
  1
strokes_ogs.tif
102
RTVSPost2010PropOp54
 70
     0
102
RTVSPost2010Prop55
280
     0
102
RTVSPost2010PropOp55
 70
     0
102
RTVSPost2010Prop56
140
1.0
102
RTVSPost2010PropOp56
 70
     0
102
RTVSPost2010Prop57
140
1.0
102
RTVSPost2010PropOp57
 70
     0
  0
XRECORD
  5
225
102
{ACAD_REACTORS
330
224
102
}
330
224
100
AcDbXrecord
280
     1
102
RTVSPost2010Prop28
280
     0
102
RTVSPost2010PropOp28
 70
     1
102
RTVSPost2010Prop29
280
     1
102
RTVSPost2010PropOp29
 70
     1
102
RTVSPost2010Prop30
280
     1
102
RTVSPost2010PropOp30
 70
     1
102
RTVSPost2010Prop31
280
     0
102
RTVSPost2010PropOp31
 70
     1
102
RTVSPost2010Prop32
280
     0
102
RTVSPost2010PropOp32
 70
     1
102
RTVSPost2010Prop33
280
     0
102
RTVSPost2010PropOp33
 70
     1
102
RTVSPost2010Prop34
280
     0
102
RTVSPost2010PropOp34
 70
     1
102
RTVSPost2010Prop35
280
     0
102
RTVSPost2010PropOp35
 70
     1
102
RTVSPost2010Prop36
280
     0
102
RTVSPost2010PropOp36
 70
     1
102
RTVSPost2010Prop37
 90
       50
102
RTVSPost2010PropOp37
 70
     1
102
RTVSPost2010Prop38
140
0.0
102
RTVSPost2010PropOp38
 70
     1
102
RTVSPost2010Prop39
140
1.0
102
RTVSPost2010PropOp39
 70
     1
102
RTVSPost2010Prop40
 90
        0
102
RTVSPost2010PropOp40
 70
     1
102
RTVSPost2010Prop41ColorIndex
 90
       18
102
RTVSPost2010Prop41ColorRGB
 90
        0
102
RTVSPost2010PropOp41
 70
     1
102
RTVSPost2010Prop42
 90
       50
102
RTVSPost2010PropOp42
 70
     1
102
RTVSPost2010Prop43
 90
        3
102
RTVSPost2010PropOp43
 70
     1
102
RTVSPost2010Prop44ColorIndex
 90
        5
102
RTVSPost2010Prop44ColorRGB
 90
      255
102
RTVSPost2010PropOp44
 70
     1
102
RTVSPost2010Prop45
280
     0
102
RTVSPost2010PropOp45
 70
     1
102
RTVSPost2010Prop46
 90
       50
102
RTVSPost2010PropOp46
 70
     1
102
RTVSPost2010Prop47
 90
       50
102
RTVSPost2010PropOp47
 70
     1
102
RTVSPost2010Prop48
 90
       50
102
RTVSPost2010PropOp48
 70
     1
102
RTVSPost2010Prop49
280
     0
102
RTVSPost2010PropOp49
 70
     1
102
RTVSPost2010Prop50
 90
       50
102
RTVSPost2010PropOp50
 70
     1
102
RTVSPost2010Prop51ColorIndex
 90
      256
102
RTVSPost2010Prop51ColorRGB
 90
-16777216
102
RTVSPost2010PropOp51
 70
     0
102
RTVSPost2010Prop52
140
1.0
102
RTVSPost2010PropOp52
 70
     0
102
RTVSPost2010Prop53
 90
        2
102
RTVSPost2010PropOp53
 70
     1
102
RTVSPost2010Prop54
  1
strokes_ogs.tif
102
RTVSPost2010PropOp54
 70
     1
102
RTVSPost2010Prop55
280
     0
102
RTVSPost2010PropOp55
 70
     1
102
RTVSPost2010Prop56
140
1.0
102
RTVSPost2010PropOp56
 70
     1
102
RTVSPost2010Prop57
140
1.0
102
RTVSPost2010PropOp57
 70
     1
  0
XRECORD
  5
22D
102
{ACAD_REACTORS
330
22C
102
}
330
22C
100
AcDbXrecord
280
     1
102
RTVSPost2010Prop28
280
     0
102
RTVSPost2010PropOp28
 70
     0
102
RTVSPost2010Prop29
280
     1
102
RTVSPost2010PropOp29
 70
     0
102
RTVSPost2010Prop30
280
     1
102
RTVSPost2010PropOp30
 70
     0
102
RTVSPost2010Prop31
280
     0
102
RTVSPost2010PropOp31
 70
     0
102
RTVSPost2010Prop32
280
     0
102
RTVSPost2010PropOp32
 70
     0
102
RTVSPost2010Prop33
280
     0
102
RTVSPost2010PropOp33
 70
     0
102
RTVSPost2010Prop34
280
     0
102
RTVSPost2010PropOp34
 70
     0
102
RTVSPost2010Prop35
280
     0
102
RTVSPost2010PropOp35
 70
     0
102
RTVSPost2010Prop36
280
     0
102
RTVSPost2010PropOp36
 70
     0
102
RTVSPost2010Prop37
 90
       50
102
RTVSPost2010PropOp37
 70
     0
102
RTVSPost2010Prop38
140
0.0
102
RTVSPost2010PropOp38
 70
     0
102
RTVSPost2010Prop39
140
1.0
102
RTVSPost2010PropOp39
 70
     0
102
RTVSPost2010Prop40
 90
        0
102
RTVSPost2010PropOp40
 70
     0
102
RTVSPost2010Prop41ColorIndex
 90
       18
102
RTVSPost2010Prop41ColorRGB
 90
        0
102
RTVSPost2010PropOp41
 70
     0
102
RTVSPost2010Prop42
 90
       50
102
RTVSPost2010PropOp42
 70
     0
102
RTVSPost2010Prop43
 90
        3
102
RTVSPost2010PropOp43
 70
     0
102
RTVSPost2010Prop44ColorIndex
 90
        5
102
RTVSPost2010Prop44ColorRGB
 90
      255
102
RTVSPost2010PropOp44
 70
     0
102
RTVSPost2010Prop45
280
     0
102
RTVSPost2010PropOp45
 70
     0
102
RTVSPost2010Prop46
 90
       50
102
RTVSPost2010PropOp46
 70
     0
102
RTVSPost2010Prop47
 90
       50
102
RTVSPost2010PropOp47
 70
     0
102
RTVSPost2010Prop48
 90
       50
102
RTVSPost2010PropOp48
 70
     0
102
RTVSPost2010Prop49
280
     0
102
RTVSPost2010PropOp49
 70
     0
102
RTVSPost2010Prop50
 90
       50
102
RTVSPost2010PropOp50
 70
     0
102
RTVSPost2010Prop51ColorIndex
 90
      256
102
RTVSPost2010Prop51ColorRGB
 90
-16777216
102
RTVSPost2010PropOp51
 70
     0
102
RTVSPost2010Prop52
140
1.0
102
RTVSPost2010PropOp52
 70
     0
102
RTVSPost2010Prop53
 90
        2
102
RTVSPost2010PropOp53
 70
     0
102
RTVSPost2010Prop54
  1
strokes_ogs.tif
102
RTVSPost2010PropOp54
 70
     0
102
RTVSPost2010Prop55
280
     0
102
RTVSPost2010PropOp55
 70
     0
102
RTVSPost2010Prop56
140
1.0
102
RTVSPost2010PropOp56
 70
     0
102
RTVSPost2010Prop57
140
1.0
102
RTVSPost2010PropOp57
 70
     0
  0
XRECORD
  5
21B
102
{ACAD_REACTORS
330
21A
102
}
330
21A
100
AcDbXrecord
280
     1
102
RTVSPost2010Prop28
280
     0
102
RTVSPost2010PropOp28
 70
     1
102
RTVSPost2010Prop29
280
     1
102
RTVSPost2010PropOp29
 70
     1
102
RTVSPost2010Prop30
280
     1
102
RTVSPost2010PropOp30
 70
     1
102
RTVSPost2010Prop31
280
     0
102
RTVSPost2010PropOp31
 70
     1
102
RTVSPost2010Prop32
280
     0
102
RTVSPost2010PropOp32
 70
     1
102
RTVSPost2010Prop33
280
     0
102
RTVSPost2010PropOp33
 70
     1
102
RTVSPost2010Prop34
280
     0
102
RTVSPost2010PropOp34
 70
     1
102
RTVSPost2010Prop35
280
     0
102
RTVSPost2010PropOp35
 70
     1
102
RTVSPost2010Prop36
280
     0
102
RTVSPost2010PropOp36
 70
     1
102
RTVSPost2010Prop37
 90
       50
102
RTVSPost2010PropOp37
 70
     1
102
RTVSPost2010Prop38
140
0.0
102
RTVSPost2010PropOp38
 70
     1
102
RTVSPost2010Prop39
140
1.0
102
RTVSPost2010PropOp39
 70
     1
102
RTVSPost2010Prop40
 90
        0
102
RTVSPost2010PropOp40
 70
     1
102
RTVSPost2010Prop41ColorIndex
 90
       18
102
RTVSPost2010Prop41ColorRGB
 90
        0
102
RTVSPost2010PropOp41
 70
     1
102
RTVSPost2010Prop42
 90
       50
102
RTVSPost2010PropOp42
 70
     1
102
RTVSPost2010Prop43
 90
        3
102
RTVSPost2010PropOp43
 70
     1
102
RTVSPost2010Prop44ColorIndex
 90
        5
102
RTVSPost2010Prop44ColorRGB
 90
      255
102
RTVSPost2010PropOp44
 70
     1
102
RTVSPost2010Prop45
280
     0
102
RTVSPost2010PropOp45
 70
     1
102
RTVSPost2010Prop46
 90
       50
102
RTVSPost2010PropOp46
 70
     1
102
RTVSPost2010Prop47
 90
       50
102
RTVSPost2010PropOp47
 70
     1
102
RTVSPost2010Prop48
 90
       50
102
RTVSPost2010PropOp48
 70
     1
102
RTVSPost2010Prop49
280
     0
102
RTVSPost2010PropOp49
 70
     1
102
RTVSPost2010Prop50
 90
       50
102
RTVSPost2010PropOp50
 70
     1
102
RTVSPost2010Prop51ColorIndex
 90
      256
102
RTVSPost2010Prop51ColorRGB
 90
-16777216
102
RTVSPost2010PropOp51
 70
     0
102
RTVSPost2010Prop52
140
1.0
102
RTVSPost2010PropOp52
 70
     0
102
RTVSPost2010Prop53
 90
        2
102
RTVSPost2010PropOp53
 70
     1
102
RTVSPost2010Prop54
  1
strokes_ogs.tif
102
RTVSPost2010PropOp54
 70
     1
102
RTVSPost2010Prop55
280
     0
102
RTVSPost2010PropOp55
 70
     1
102
RTVSPost2010Prop56
140
1.0
102
RTVSPost2010PropOp56
 70
     1
102
RTVSPost2010Prop57
140
1.0
102
RTVSPost2010PropOp57
 70
     1
  0
XRECORD
  5
239
102
{ACAD_REACTORS
330
238
102
}
330
238
100
AcDbXrecord
280
     1
102
RTVSPost2010Prop28
280
     0
102
RTVSPost2010PropOp28
 70
     1
102
RTVSPost2010Prop29
280
     1
102
RTVSPost2010PropOp29
 70
     1
102
RTVSPost2010Prop30
280
     1
102
RTVSPost2010PropOp30
 70
     1
102
RTVSPost2010Prop31
280
     0
102
RTVSPost2010PropOp31
 70
     1
102
RTVSPost2010Prop32
280
     0
102
RTVSPost2010PropOp32
 70
     1
102
RTVSPost2010Prop33
280
     0
102
RTVSPost2010PropOp33
 70
     1
102
RTVSPost2010Prop34
280
     0
102
RTVSPost2010PropOp34
 70
     1
102
RTVSPost2010Prop35
280
     0
102
RTVSPost2010PropOp35
 70
     1
102
RTVSPost2010Prop36
280
     0
102
RTVSPost2010PropOp36
 70
     1
102
RTVSPost2010Prop37
 90
       50
102
RTVSPost2010PropOp37
 70
     1
102
RTVSPost2010Prop38
140
0.0
102
RTVSPost2010PropOp38
 70
     1
102
RTVSPost2010Prop39
140
1.0
102
RTVSPost2010PropOp39
 70
     1
102
RTVSPost2010Prop40
 90
        0
102
RTVSPost2010PropOp40
 70
     1
102
RTVSPost2010Prop41ColorIndex
 90
       18
102
RTVSPost2010Prop41ColorRGB
 90
        0
102
RTVSPost2010PropOp41
 70
     1
102
RTVSPost2010Prop42
 90
       50
102
RTVSPost2010PropOp42
 70
     1
102
RTVSPost2010Prop43
 90
        3
102
RTVSPost2010PropOp43
 70
     1
102
RTVSPost2010Prop44ColorIndex
 90
        5
102
RTVSPost2010Prop44ColorRGB
 90
      255
102
RTVSPost2010PropOp44
 70
     1
102
RTVSPost2010Prop45
280
     0
102
RTVSPost2010PropOp45
 70
     1
102
RTVSPost2010Prop46
 90
       50
102
RTVSPost2010PropOp46
 70
     1
102
RTVSPost2010Prop47
 90
       50
102
RTVSPost2010PropOp47
 70
     1
102
RTVSPost2010Prop48
 90
       50
102
RTVSPost2010PropOp48
 70
     1
102
RTVSPost2010Prop49
280
     0
102
RTVSPost2010PropOp49
 70
     1
102
RTVSPost2010Prop50
 90
       50
102
RTVSPost2010PropOp50
 70
     1
102
RTVSPost2010Prop51ColorIndex
 90
      256
102
RTVSPost2010Prop51ColorRGB
 90
-16777216
102
RTVSPost2010PropOp51
 70
     0
102
RTVSPost2010Prop52
140
1.0
102
RTVSPost2010PropOp52
 70
     0
102
RTVSPost2010Prop53
 90
        2
102
RTVSPost2010PropOp53
 70
     1
102
RTVSPost2010Prop54
  1
strokes_ogs.tif
102
RTVSPost2010PropOp54
 70
     1
102
RTVSPost2010Prop55
280
     0
102
RTVSPost2010PropOp55
 70
     1
102
RTVSPost2010Prop56
140
1.0
102
RTVSPost2010PropOp56
 70
     1
102
RTVSPost2010Prop57
140
1.0
102
RTVSPost2010PropOp57
 70
     1
  0
XRECORD
  5
237
102
{ACAD_REACTORS
330
236
102
}
330
236
100
AcDbXrecord
280
     1
102
RTVSPost2010Prop28
280
     0
102
RTVSPost2010PropOp28
 70
     1
102
RTVSPost2010Prop29
280
     1
102
RTVSPost2010PropOp29
 70
     1
102
RTVSPost2010Prop30
280
     1
102
RTVSPost2010PropOp30
 70
     1
102
RTVSPost2010Prop31
280
     0
102
RTVSPost2010PropOp31
 70
     1
102
RTVSPost2010Prop32
280
     0
102
RTVSPost2010PropOp32
 70
     1
102
RTVSPost2010Prop33
280
     0
102
RTVSPost2010PropOp33
 70
     1
102
RTVSPost2010Prop34
280
     0
102
RTVSPost2010PropOp34
 70
     1
102
RTVSPost2010Prop35
280
     0
102
RTVSPost2010PropOp35
 70
     1
102
RTVSPost2010Prop36
280
     0
102
RTVSPost2010PropOp36
 70
     1
102
RTVSPost2010Prop37
 90
       50
102
RTVSPost2010PropOp37
 70
     1
102
RTVSPost2010Prop38
140
0.0
102
RTVSPost2010PropOp38
 70
     1
102
RTVSPost2010Prop39
140
1.0
102
RTVSPost2010PropOp39
 70
     1
102
RTVSPost2010Prop40
 90
        0
102
RTVSPost2010PropOp40
 70
     1
102
RTVSPost2010Prop41ColorIndex
 90
       18
102
RTVSPost2010Prop41ColorRGB
 90
        0
102
RTVSPost2010PropOp41
 70
     1
102
RTVSPost2010Prop42
 90
       50
102
RTVSPost2010PropOp42
 70
     1
102
RTVSPost2010Prop43
 90
        3
102
RTVSPost2010PropOp43
 70
     1
102
RTVSPost2010Prop44ColorIndex
 90
        5
102
RTVSPost2010Prop44ColorRGB
 90
      255
102
RTVSPost2010PropOp44
 70
     1
102
RTVSPost2010Prop45
280
     0
102
RTVSPost2010PropOp45
 70
     1
102
RTVSPost2010Prop46
 90
       50
102
RTVSPost2010PropOp46
 70
     1
102
RTVSPost2010Prop47
 90
       50
102
RTVSPost2010PropOp47
 70
     1
102
RTVSPost2010Prop48
 90
       50
102
RTVSPost2010PropOp48
 70
     1
102
RTVSPost2010Prop49
280
     0
102
RTVSPost2010PropOp49
 70
     1
102
RTVSPost2010Prop50
 90
       50
102
RTVSPost2010PropOp50
 70
     1
102
RTVSPost2010Prop51ColorIndex
 90
      256
102
RTVSPost2010Prop51ColorRGB
 90
-16777216
102
RTVSPost2010PropOp51
 70
     0
102
RTVSPost2010Prop52
140
1.0
102
RTVSPost2010PropOp52
 70
     0
102
RTVSPost2010Prop53
 90
        2
102
RTVSPost2010PropOp53
 70
     1
102
RTVSPost2010Prop54
  1
strokes_ogs.tif
102
RTVSPost2010PropOp54
 70
     1
102
RTVSPost2010Prop55
280
     0
102
RTVSPost2010PropOp55
 70
     1
102
RTVSPost2010Prop56
140
1.0
102
RTVSPost2010PropOp56
 70
     1
102
RTVSPost2010Prop57
140
1.0
102
RTVSPost2010PropOp57
 70
     1
  0
XRECORD
  5
231
102
{ACAD_REACTORS
330
230
102
}
330
230
100
AcDbXrecord
280
     1
102
RTVSPost2010Prop28
280
     0
102
RTVSPost2010PropOp28
 70
     1
102
RTVSPost2010Prop29
280
     1
102
RTVSPost2010PropOp29
 70
     1
102
RTVSPost2010Prop30
280
     1
102
RTVSPost2010PropOp30
 70
     1
102
RTVSPost2010Prop31
280
     0
102
RTVSPost2010PropOp31
 70
     1
102
RTVSPost2010Prop32
280
     0
102
RTVSPost2010PropOp32
 70
     1
102
RTVSPost2010Prop33
280
     0
102
RTVSPost2010PropOp33
 70
     1
102
RTVSPost2010Prop34
280
     0
102
RTVSPost2010PropOp34
 70
     1
102
RTVSPost2010Prop35
280
     0
102
RTVSPost2010PropOp35
 70
     1
102
RTVSPost2010Prop36
280
     0
102
RTVSPost2010PropOp36
 70
     1
102
RTVSPost2010Prop37
 90
       50
102
RTVSPost2010PropOp37
 70
     1
102
RTVSPost2010Prop38
140
0.0
102
RTVSPost2010PropOp38
 70
     1
102
RTVSPost2010Prop39
140
1.0
102
RTVSPost2010PropOp39
 70
     1
102
RTVSPost2010Prop40
 90
        0
102
RTVSPost2010PropOp40
 70
     1
102
RTVSPost2010Prop41ColorIndex
 90
       18
102
RTVSPost2010Prop41ColorRGB
 90
        0
102
RTVSPost2010PropOp41
 70
     1
102
RTVSPost2010Prop42
 90
       50
102
RTVSPost2010PropOp42
 70
     1
102
RTVSPost2010Prop43
 90
        3
102
RTVSPost2010PropOp43
 70
     1
102
RTVSPost2010Prop44ColorIndex
 90
        5
102
RTVSPost2010Prop44ColorRGB
 90
      255
102
RTVSPost2010PropOp44
 70
     1
102
RTVSPost2010Prop45
280
     0
102
RTVSPost2010PropOp45
 70
     1
102
RTVSPost2010Prop46
 90
       50
102
RTVSPost2010PropOp46
 70
     1
102
RTVSPost2010Prop47
 90
       50
102
RTVSPost2010PropOp47
 70
     1
102
RTVSPost2010Prop48
 90
       50
102
RTVSPost2010PropOp48
 70
     1
102
RTVSPost2010Prop49
280
     0
102
RTVSPost2010PropOp49
 70
     1
102
RTVSPost2010Prop50
 90
       50
102
RTVSPost2010PropOp50
 70
     1
102
RTVSPost2010Prop51ColorIndex
 90
      256
102
RTVSPost2010Prop51ColorRGB
 90
-16777216
102
RTVSPost2010PropOp51
 70
     0
102
RTVSPost2010Prop52
140
1.0
102
RTVSPost2010PropOp52
 70
     0
102
RTVSPost2010Prop53
 90
        2
102
RTVSPost2010PropOp53
 70
     1
102
RTVSPost2010Prop54
  1
strokes_ogs.tif
102
RTVSPost2010PropOp54
 70
     1
102
RTVSPost2010Prop55
280
     0
102
RTVSPost2010PropOp55
 70
     1
102
RTVSPost2010Prop56
140
1.0
102
RTVSPost2010PropOp56
 70
     1
102
RTVSPost2010Prop57
140
1.0
102
RTVSPost2010PropOp57
 70
     1
  0
XRECORD
  5
233
102
{ACAD_REACTORS
330
232
102
}
330
232
100
AcDbXrecord
280
     1
102
RTVSPost2010Prop28
280
     0
102
RTVSPost2010PropOp28
 70
     1
102
RTVSPost2010Prop29
280
     1
102
RTVSPost2010PropOp29
 70
     1
102
RTVSPost2010Prop30
280
     1
102
RTVSPost2010PropOp30
 70
     1
102
RTVSPost2010Prop31
280
     0
102
RTVSPost2010PropOp31
 70
     1
102
RTVSPost2010Prop32
280
     0
102
RTVSPost2010PropOp32
 70
     1
102
RTVSPost2010Prop33
280
     0
102
RTVSPost2010PropOp33
 70
     1
102
RTVSPost2010Prop34
280
     0
102
RTVSPost2010PropOp34
 70
     1
102
RTVSPost2010Prop35
280
     0
102
RTVSPost2010PropOp35
 70
     1
102
RTVSPost2010Prop36
280
     0
102
RTVSPost2010PropOp36
 70
     1
102
RTVSPost2010Prop37
 90
       50
102
RTVSPost2010PropOp37
 70
     1
102
RTVSPost2010Prop38
140
0.0
102
RTVSPost2010PropOp38
 70
     1
102
RTVSPost2010Prop39
140
1.0
102
RTVSPost2010PropOp39
 70
     1
102
RTVSPost2010Prop40
 90
        0
102
RTVSPost2010PropOp40
 70
     1
102
RTVSPost2010Prop41ColorIndex
 90
       18
102
RTVSPost2010Prop41ColorRGB
 90
        0
102
RTVSPost2010PropOp41
 70
     1
102
RTVSPost2010Prop42
 90
       50
102
RTVSPost2010PropOp42
 70
     1
102
RTVSPost2010Prop43
 90
        3
102
RTVSPost2010PropOp43
 70
     1
102
RTVSPost2010Prop44ColorIndex
 90
        5
102
RTVSPost2010Prop44ColorRGB
 90
      255
102
RTVSPost2010PropOp44
 70
     1
102
RTVSPost2010Prop45
280
     0
102
RTVSPost2010PropOp45
 70
     1
102
RTVSPost2010Prop46
 90
       50
102
RTVSPost2010PropOp46
 70
     1
102
RTVSPost2010Prop47
 90
       50
102
RTVSPost2010PropOp47
 70
     1
102
RTVSPost2010Prop48
 90
       50
102
RTVSPost2010PropOp48
 70
     1
102
RTVSPost2010Prop49
280
     0
102
RTVSPost2010PropOp49
 70
     1
102
RTVSPost2010Prop50
 90
       50
102
RTVSPost2010PropOp50
 70
     1
102
RTVSPost2010Prop51ColorIndex
 90
      256
102
RTVSPost2010Prop51ColorRGB
 90
-16777216
102
RTVSPost2010PropOp51
 70
     0
102
RTVSPost2010Prop52
140
1.0
102
RTVSPost2010PropOp52
 70
     0
102
RTVSPost2010Prop53
 90
        2
102
RTVSPost2010PropOp53
 70
     1
102
RTVSPost2010Prop54
  1
strokes_ogs.tif
102
RTVSPost2010PropOp54
 70
     1
102
RTVSPost2010Prop55
280
     0
102
RTVSPost2010PropOp55
 70
     1
102
RTVSPost2010Prop56
140
1.0
102
RTVSPost2010PropOp56
 70
     1
102
RTVSPost2010Prop57
140
1.0
102
RTVSPost2010PropOp57
 70
     1
  0
XRECORD
  5
223
102
{ACAD_REACTORS
330
222
102
}
330
222
100
AcDbXrecord
280
     1
102
RTVSPost2010Prop28
280
     0
102
RTVSPost2010PropOp28
 70
     1
102
RTVSPost2010Prop29
280
     1
102
RTVSPost2010PropOp29
 70
     1
102
RTVSPost2010Prop30
280
     1
102
RTVSPost2010PropOp30
 70
     1
102
RTVSPost2010Prop31
280
     0
102
RTVSPost2010PropOp31
 70
     1
102
RTVSPost2010Prop32
280
     0
102
RTVSPost2010PropOp32
 70
     1
102
RTVSPost2010Prop33
280
     0
102
RTVSPost2010PropOp33
 70
     1
102
RTVSPost2010Prop34
280
     0
102
RTVSPost2010PropOp34
 70
     1
102
RTVSPost2010Prop35
280
     0
102
RTVSPost2010PropOp35
 70
     1
102
RTVSPost2010Prop36
280
     0
102
RTVSPost2010PropOp36
 70
     1
102
RTVSPost2010Prop37
 90
       50
102
RTVSPost2010PropOp37
 70
     1
102
RTVSPost2010Prop38
140
0.0
102
RTVSPost2010PropOp38
 70
     1
102
RTVSPost2010Prop39
140
1.0
102
RTVSPost2010PropOp39
 70
     1
102
RTVSPost2010Prop40
 90
        0
102
RTVSPost2010PropOp40
 70
     1
102
RTVSPost2010Prop41ColorIndex
 90
       18
102
RTVSPost2010Prop41ColorRGB
 90
        0
102
RTVSPost2010PropOp41
 70
     1
102
RTVSPost2010Prop42
 90
       50
102
RTVSPost2010PropOp42
 70
     1
102
RTVSPost2010Prop43
 90
        3
102
RTVSPost2010PropOp43
 70
     1
102
RTVSPost2010Prop44ColorIndex
 90
        5
102
RTVSPost2010Prop44ColorRGB
 90
      255
102
RTVSPost2010PropOp44
 70
     1
102
RTVSPost2010Prop45
280
     0
102
RTVSPost2010PropOp45
 70
     1
102
RTVSPost2010Prop46
 90
       50
102
RTVSPost2010PropOp46
 70
     1
102
RTVSPost2010Prop47
 90
       50
102
RTVSPost2010PropOp47
 70
     1
102
RTVSPost2010Prop48
 90
       50
102
RTVSPost2010PropOp48
 70
     1
102
RTVSPost2010Prop49
280
     0
102
RTVSPost2010PropOp49
 70
     1
102
RTVSPost2010Prop50
 90
       50
102
RTVSPost2010PropOp50
 70
     1
102
RTVSPost2010Prop51ColorIndex
 90
      256
102
RTVSPost2010Prop51ColorRGB
 90
-16777216
102
RTVSPost2010PropOp51
 70
     0
102
RTVSPost2010Prop52
140
1.0
102
RTVSPost2010PropOp52
 70
     0
102
RTVSPost2010Prop53
 90
        2
102
RTVSPost2010PropOp53
 70
     1
102
RTVSPost2010Prop54
  1
strokes_ogs.tif
102
RTVSPost2010PropOp54
 70
     1
102
RTVSPost2010Prop55
280
     0
102
RTVSPost2010PropOp55
 70
     1
102
RTVSPost2010Prop56
140
1.0
102
RTVSPost2010PropOp56
 70
     1
102
RTVSPost2010Prop57
140
1.0
102
RTVSPost2010PropOp57
 70
     1
  0
XRECORD
  5
215
102
{ACAD_REACTORS
330
214
102
}
330
214
100
AcDbXrecord
280
     1
102
RTVSPost2010Prop28
280
     0
102
RTVSPost2010PropOp28
 70
     1
102
RTVSPost2010Prop29
280
     1
102
RTVSPost2010PropOp29
 70
     1
102
RTVSPost2010Prop30
280
     1
102
RTVSPost2010PropOp30
 70
     1
102
RTVSPost2010Prop31
280
     0
102
RTVSPost2010PropOp31
 70
     1
102
RTVSPost2010Prop32
280
     0
102
RTVSPost2010PropOp32
 70
     1
102
RTVSPost2010Prop33
280
     0
102
RTVSPost2010PropOp33
 70
     1
102
RTVSPost2010Prop34
280
     0
102
RTVSPost2010PropOp34
 70
     1
102
RTVSPost2010Prop35
280
     0
102
RTVSPost2010PropOp35
 70
     1
102
RTVSPost2010Prop36
280
     0
102
RTVSPost2010PropOp36
 70
     1
102
RTVSPost2010Prop37
 90
       50
102
RTVSPost2010PropOp37
 70
     1
102
RTVSPost2010Prop38
140
0.0
102
RTVSPost2010PropOp38
 70
     1
102
RTVSPost2010Prop39
140
1.0
102
RTVSPost2010PropOp39
 70
     1
102
RTVSPost2010Prop40
 90
        0
102
RTVSPost2010PropOp40
 70
     1
102
RTVSPost2010Prop41ColorIndex
 90
       18
102
RTVSPost2010Prop41ColorRGB
 90
        0
102
RTVSPost2010PropOp41
 70
     1
102
RTVSPost2010Prop42
 90
       50
102
RTVSPost2010PropOp42
 70
     1
102
RTVSPost2010Prop43
 90
        3
102
RTVSPost2010PropOp43
 70
     1
102
RTVSPost2010Prop44ColorIndex
 90
        5
102
RTVSPost2010Prop44ColorRGB
 90
      255
102
RTVSPost2010PropOp44
 70
     1
102
RTVSPost2010Prop45
280
     0
102
RTVSPost2010PropOp45
 70
     1
102
RTVSPost2010Prop46
 90
       50
102
RTVSPost2010PropOp46
 70
     1
102
RTVSPost2010Prop47
 90
       50
102
RTVSPost2010PropOp47
 70
     1
102
RTVSPost2010Prop48
 90
       50
102
RTVSPost2010PropOp48
 70
     1
102
RTVSPost2010Prop49
280
     0
102
RTVSPost2010PropOp49
 70
     1
102
RTVSPost2010Prop50
 90
       50
102
RTVSPost2010PropOp50
 70
     1
102
RTVSPost2010Prop51ColorIndex
 90
      256
102
RTVSPost2010Prop51ColorRGB
 90
-16777216
102
RTVSPost2010PropOp51
 70
     0
102
RTVSPost2010Prop52
140
1.0
102
RTVSPost2010PropOp52
 70
     0
102
RTVSPost2010Prop53
 90
        2
102
RTVSPost2010PropOp53
 70
     1
102
RTVSPost2010Prop54
  1
strokes_ogs.tif
102
RTVSPost2010PropOp54
 70
     1
102
RTVSPost2010Prop55
280
     0
102
RTVSPost2010PropOp55
 70
     1
102
RTVSPost2010Prop56
140
1.0
102
RTVSPost2010PropOp56
 70
     1
102
RTVSPost2010Prop57
140
1.0
102
RTVSPost2010PropOp57
 70
     1
  0
XRECORD
  5
235
102
{ACAD_REACTORS
330
234
102
}
330
234
100
AcDbXrecord
280
     1
102
RTVSPost2010Prop28
280
     0
102
RTVSPost2010PropOp28
 70
     1
102
RTVSPost2010Prop29
280
     1
102
RTVSPost2010PropOp29
 70
     1
102
RTVSPost2010Prop30
280
     1
102
RTVSPost2010PropOp30
 70
     1
102
RTVSPost2010Prop31
280
     0
102
RTVSPost2010PropOp31
 70
     1
102
RTVSPost2010Prop32
280
     0
102
RTVSPost2010PropOp32
 70
     1
102
RTVSPost2010Prop33
280
     0
102
RTVSPost2010PropOp33
 70
     1
102
RTVSPost2010Prop34
280
     0
102
RTVSPost2010PropOp34
 70
     1
102
RTVSPost2010Prop35
280
     0
102
RTVSPost2010PropOp35
 70
     1
102
RTVSPost2010Prop36
280
     0
102
RTVSPost2010PropOp36
 70
     1
102
RTVSPost2010Prop37
 90
       50
102
RTVSPost2010PropOp37
 70
     1
102
RTVSPost2010Prop38
140
0.0
102
RTVSPost2010PropOp38
 70
     1
102
RTVSPost2010Prop39
140
1.0
102
RTVSPost2010PropOp39
 70
     1
102
RTVSPost2010Prop40
 90
        0
102
RTVSPost2010PropOp40
 70
     1
102
RTVSPost2010Prop41ColorIndex
 90
       18
102
RTVSPost2010Prop41ColorRGB
 90
        0
102
RTVSPost2010PropOp41
 70
     1
102
RTVSPost2010Prop42
 90
       50
102
RTVSPost2010PropOp42
 70
     1
102
RTVSPost2010Prop43
 90
        3
102
RTVSPost2010PropOp43
 70
     1
102
RTVSPost2010Prop44ColorIndex
 90
        5
102
RTVSPost2010Prop44ColorRGB
 90
      255
102
RTVSPost2010PropOp44
 70
     1
102
RTVSPost2010Prop45
280
     0
102
RTVSPost2010PropOp45
 70
     1
102
RTVSPost2010Prop46
 90
       50
102
RTVSPost2010PropOp46
 70
     1
102
RTVSPost2010Prop47
 90
       50
102
RTVSPost2010PropOp47
 70
     1
102
RTVSPost2010Prop48
 90
       50
102
RTVSPost2010PropOp48
 70
     1
102
RTVSPost2010Prop49
280
     0
102
RTVSPost2010PropOp49
 70
     1
102
RTVSPost2010Prop50
 90
       50
102
RTVSPost2010PropOp50
 70
     1
102
RTVSPost2010Prop51ColorIndex
 90
      256
102
RTVSPost2010Prop51ColorRGB
 90
-16777216
102
RTVSPost2010PropOp51
 70
     0
102
RTVSPost2010Prop52
140
1.0
102
RTVSPost2010PropOp52
 70
     0
102
RTVSPost2010Prop53
 90
        2
102
RTVSPost2010PropOp53
 70
     1
102
RTVSPost2010Prop54
  1
strokes_ogs.tif
102
RTVSPost2010PropOp54
 70
     1
102
RTVSPost2010Prop55
280
     0
102
RTVSPost2010PropOp55
 70
     1
102
RTVSPost2010Prop56
140
1.0
102
RTVSPost2010PropOp56
 70
     1
102
RTVSPost2010Prop57
140
1.0
102
RTVSPost2010PropOp57
 70
     1
  0
ENDSEC
  0
EOF
