  0
SECTION
  2
HEADER
  9
$ACADVER
  1
AC1024
  9
$ACADMAINTVER
 70
     6
  9
$DWGCODEPAGE
  3
ANSI_1252
  9
$INSBASE
 10
0.0
 20
0.0
 30
0.0
  9
$EXTMIN
 10
1.000000E+20
 20
1.000000E+20
 30
1.000000E+20
  9
$EXTMAX
 10
-1.000000E+20
 20
-1.000000E+20
 30
-1.000000E+20
  9
$LIMMIN
 10
0.0
 20
0.0
  9
$LIMMAX
 10
420.0
 20
297.0
  9
$ORTHOMODE
 70
     0
  9
$REGENMODE
 70
     1
  9
$FILLMODE
 70
     1
  9
$QTEXTMODE
 70
     0
  9
$MIRRTEXT
 70
     1
  9
$LTSCALE
 40
1.0
  9
$ATTMODE
 70
     1
  9
$TEXTSIZE
 40
2.5
  9
$TRACEWID
 40
1.0
  9
$TEXTSTYLE
  7
Standard
  9
$CLAYER
  8
0
  9
$CELTYPE
  6
ByLayer
  9
$CECOLOR
 62
   256
  9
$CELTSCALE
 40
1.0
  9
$DISPSILH
 70
     0
  9
$DIMSCALE
 40
1.0
  9
$DIMASZ
 40
2.5
  9
$DIMEXO
 40
0.625
  9
$DIMDLI
 40
3.75
  9
$DIMRND
 40
0.0
  9
$DIMDLE
 40
0.0
  9
$DIMEXE
 40
1.25
  9
$DIMTP
 40
0.0
  9
$DIMTM
 40
0.0
  9
$DIMTXT
 40
2.5
  9
$DIMCEN
 40
2.5
  9
$DIMTSZ
 40
0.0
  9
$DIMTOL
 70
     0
  9
$DIMLIM
 70
     0
  9
$DIMTIH
 70
     0
  9
$DIMTOH
 70
     0
  9
$DIMSE1
 70
     0
  9
$DIMSE2
 70
     0
  9
$DIMTAD
 70
     1
  9
$DIMZIN
 70
     8
  9
$DIMBLK
  1

  9
$DIMASO
 70
     1
  9
$DIMSHO
 70
     1
  9
$DIMPOST
  1

  9
$DIMAPOST
  1

  9
$DIMALT
 70
     0
  9
$DIMALTD
 70
     3
  9
$DIMALTF
 40
0.03937
  9
$DIMLFAC
 40
1.0
  9
$DIMTOFL
 70
     1
  9
$DIMTVP
 40
0.0
  9
$DIMTIX
 70
     0
  9
$DIMSOXD
 70
     0
  9
$DIMSAH
 70
     0
  9
$DIMBLK1
  1

  9
$DIMBLK2
  1

  9
$DIMSTYLE
  2
ISO-25
  9
$DIMCLRD
 70
     0
  9
$DIMCLRE
 70
     0
  9
$DIMCLRT
 70
     0
  9
$DIMTFAC
 40
1.0
  9
$DIMGAP
 40
0.625
  9
$DIMJUST
 70
     0
  9
$DIMSD1
 70
     0
  9
$DIMSD2
 70
     0
  9
$DIMTOLJ
 70
     0
  9
$DIMTZIN
 70
     8
  9
$DIMALTZ
 70
     0
  9
$DIMALTTZ
 70
     0
  9
$DIMUPT
 70
     0
  9
$DIMDEC
 70
     2
  9
$DIMTDEC
 70
     2
  9
$DIMALTU
 70
     2
  9
$DIMALTTD
 70
     3
  9
$DIMTXSTY
  7
Standard
  9
$DIMAUNIT
 70
     0
  9
$DIMADEC
 70
     0
  9
$DIMALTRND
 40
0.0
  9
$DIMAZIN
 70
     0
  9
$DIMDSEP
 70
    44
  9
$DIMATFIT
 70
     3
  9
$DIMFRAC
 70
     0
  9
$DIMLDRBLK
  1

  9
$DIMLUNIT
 70
     2
  9
$DIMLWD
 70
    -2
  9
$DIMLWE
 70
    -2
  9
$DIMTMOVE
 70
     0
  9
$DIMFXL
 40
1.0
  9
$DIMFXLON
 70
     0
  9
$DIMJOGANG
 40
0.785398
  9
$DIMTFILL
 70
     0
  9
$DIMTFILLCLR
 70
     0
  9
$DIMARCSYM
 70
     0
  9
$DIMLTYPE
  6

  9
$DIMLTEX1
  6

  9
$DIMLTEX2
  6

  9
$DIMTXTDIRECTION
 70
     0
  9
$LUNITS
 70
     2
  9
$LUPREC
 70
     4
  9
$SKETCHINC
 40
1.0
  9
$FILLETRAD
 40
10.0
  9
$AUNITS
 70
     0
  9
$AUPREC
 70
     0
  9
$MENU
  1
.
  9
$ELEVATION
 40
0.0
  9
$PELEVATION
 40
0.0
  9
$THICKNESS
 40
0.0
  9
$LIMCHECK
 70
     0
  9
$CHAMFERA
 40
0.0
  9
$CHAMFERB
 40
0.0
  9
$CHAMFERC
 40
0.0
  9
$CHAMFERD
 40
0.0
  9
$SKPOLY
 70
     0
  9
$TDCREATE
 40
2458673.454967511
  9
$TDUCREATE
 40
2458673.371634178
  9
$TDUPDATE
 40
2458673.454968414
  9
$TDUUPDATE
 40
2458673.371635081
  9
$TDINDWG
 40
0.0000000116
  9
$TDUSRTIMER
 40
0.0000000116
  9
$USRTIMER
 70
     1
  9
$ANGBASE
 50
0.0
  9
$ANGDIR
 70
     0
  9
$PDMODE
 70
     0
  9
$PDSIZE
 40
0.0
  9
$PLINEWID
 40
0.0
  9
$SPLFRAME
 70
     0
  9
$SPLINETYPE
 70
     6
  9
$SPLINESEGS
 70
     8
  9
$HANDSEED
  5
21D
  9
$SURFTAB1
 70
     6
  9
$SURFTAB2
 70
     6
  9
$SURFTYPE
 70
     6
  9
$SURFU
 70
     6
  9
$SURFV
 70
     6
  9
$UCSBASE
  2

  9
$UCSNAME
  2

  9
$UCSORG
 10
0.0
 20
0.0
 30
0.0
  9
$UCSXDIR
 10
1.0
 20
0.0
 30
0.0
  9
$UCSYDIR
 10
0.0
 20
1.0
 30
0.0
  9
$UCSORTHOREF
  2

  9
$UCSORTHOVIEW
 70
     0
  9
$UCSORGTOP
 10
0.0
 20
0.0
 30
0.0
  9
$UCSORGBOTTOM
 10
0.0
 20
0.0
 30
0.0
  9
$UCSORGLEFT
 10
0.0
 20
0.0
 30
0.0
  9
$UCSORGRIGHT
 10
0.0
 20
0.0
 30
0.0
  9
$UCSORGFRONT
 10
0.0
 20
0.0
 30
0.0
  9
$UCSORGBACK
 10
0.0
 20
0.0
 30
0.0
  9
$PUCSBASE
  2

  9
$PUCSNAME
  2

  9
$PUCSORG
 10
0.0
 20
0.0
 30
0.0
  9
$PUCSXDIR
 10
1.0
 20
0.0
 30
0.0
  9
$PUCSYDIR
 10
0.0
 20
1.0
 30
0.0
  9
$PUCSORTHOREF
  2

  9
$PUCSORTHOVIEW
 70
     0
  9
$PUCSORGTOP
 10
0.0
 20
0.0
 30
0.0
  9
$PUCSORGBOTTOM
 10
0.0
 20
0.0
 30
0.0
  9
$PUCSORGLEFT
 10
0.0
 20
0.0
 30
0.0
  9
$PUCSORGRIGHT
 10
0.0
 20
0.0
 30
0.0
  9
$PUCSORGFRONT
 10
0.0
 20
0.0
 30
0.0
  9
$PUCSORGBACK
 10
0.0
 20
0.0
 30
0.0
  9
$USERI1
 70
     0
  9
$USERI2
 70
     0
  9
$USERI3
 70
     0
  9
$USERI4
 70
     0
  9
$USERI5
 70
     0
  9
$USERR1
 40
0.0
  9
$USERR2
 40
0.0
  9
$USERR3
 40
0.0
  9
$USERR4
 40
0.0
  9
$USERR5
 40
0.0
  9
$WORLDVIEW
 70
     1
  9
$SHADEDGE
 70
     3
  9
$SHADEDIF
 70
    70
  9
$TILEMODE
 70
     1
  9
$MAXACTVP
 70
    64
  9
$PINSBASE
 10
0.0
 20
0.0
 30
0.0
  9
$PLIMCHECK
 70
     0
  9
$PEXTMIN
 10
1.000000E+20
 20
1.000000E+20
 30
1.000000E+20
  9
$PEXTMAX
 10
-1.000000E+20
 20
-1.000000E+20
 30
-1.000000E+20
  9
$PLIMMIN
 10
0.0
 20
0.0
  9
$PLIMMAX
 10
420.0
 20
297.0
  9
$UNITMODE
 70
     0
  9
$VISRETAIN
 70
     1
  9
$PLINEGEN
 70
     0
  9
$PSLTSCALE
 70
     1
  9
$TREEDEPTH
 70
  3020
  9
$CMLSTYLE
  2
Standard
  9
$CMLJUST
 70
     0
  9
$CMLSCALE
 40
20.0
  9
$PROXYGRAPHICS
 70
     1
  9
$MEASUREMENT
 70
     1
  9
$CELWEIGHT
370
    -1
  9
$ENDCAPS
280
     0
  9
$JOINSTYLE
280
     0
  9
$LWDISPLAY
290
     0
  9
$INSUNITS
 70
     4
  9
$HYPERLINKBASE
  1

  9
$STYLESHEET
  1

  9
$XEDIT
290
     1
  9
$CEPSNTYPE
380
     0
  9
$PSTYLEMODE
290
     1
  9
$FINGERPRINTGUID
  2
{D36733E9-4EE9-410D-8A6D-36ADB39B9A8E}
  9
$VERSIONGUID
  2
{FAEB1C32-E019-11D5-929B-00C0DF256EC4}
  9
$EXTNAMES
290
     1
  9
$PSVPSCALE
 40
0.0
  9
$OLESTARTUP
290
     0
  9
$SORTENTS
280
   127
  9
$INDEXCTL
280
     0
  9
$HIDETEXT
280
     1
  9
$XCLIPFRAME
280
     2
  9
$HALOGAP
280
     0
  9
$OBSCOLOR
 70
   257
  9
$OBSLTYPE
280
     0
  9
$INTERSECTIONDISPLAY
280
     0
  9
$INTERSECTIONCOLOR
 70
   257
  9
$DIMASSOC
280
     2
  9
$PROJECTNAME
  1

  9
$CAMERADISPLAY
290
     0
  9
$LENSLENGTH
 40
50.0
  9
$CAMERAHEIGHT
 40
0.0
  9
$STEPSPERSEC
 40
2.0
  9
$STEPSIZE
 40
6.0
  9
$3DDWFPREC
 40
2.0
  9
$PSOLWIDTH
 40
5.0
  9
$PSOLHEIGHT
 40
80.0
  9
$LOFTANG1
 40
1.570796
  9
$LOFTANG2
 40
1.570796
  9
$LOFTMAG1
 40
0.0
  9
$LOFTMAG2
 40
0.0
  9
$LOFTPARAM
 70
     7
  9
$LOFTNORMALS
280
     1
  9
$LATITUDE
 40
37.795
  9
$LONGITUDE
 40
-122.394
  9
$NORTHDIRECTION
 40
0.0
  9
$TIMEZONE
 70
 -8000
  9
$LIGHTGLYPHDISPLAY
280
     1
  9
$TILEMODELIGHTSYNCH
280
     1
  9
$CMATERIAL
347
44
  9
$SOLIDHIST
280
     0
  9
$SHOWHIST
280
     1
  9
$DWFFRAME
280
     2
  9
$DGNFRAME
280
     2
  9
$REALWORLDSCALE
290
     1
  9
$INTERFERECOLOR
 62
   256
  9
$CSHADOW
280
     0
  9
$SHADOWPLANELOCATION
 40
0.0
  0
ENDSEC
  0
SECTION
  2
CLASSES
  0
CLASS
  1
ACDBDICTIONARYWDFLT
  2
AcDbDictionaryWithDefault
  3
ObjectDBX Classes
 90
        0
 91
        4
280
     0
281
     0
  0
CLASS
  1
VISUALSTYLE
  2
AcDbVisualStyle
  3
ObjectDBX Classes
 90
     4095
 91
        4
280
     0
281
     0
  0
CLASS
  1
MATERIAL
  2
AcDbMaterial
  3
ObjectDBX Classes
 90
     1153
 91
        4
280
     0
281
     0
  0
CLASS
  1
SCALE
  2
AcDbScale
  3
ObjectDBX Classes
 90
     1153
 91
        4
280
     0
281
     0
  0
CLASS
  1
TABLESTYLE
  2
AcDbTableStyle
  3
ObjectDBX Classes
 90
     4095
 91
        4
280
     0
281
     0
  0
CLASS
  1
MLEADERSTYLE
  2
AcDbMLeaderStyle
  3
ACDB_MLEADERSTYLE_CLASS
 90
     4095
 91
        4
280
     0
281
     0
  0
CLASS
  1
SUN
  2
AcDbSun
  3
SCENEOE
 90
     1153
 91
        4
280
     0
281
     0
  0
CLASS
  1
DICTIONARYVAR
  2
AcDbDictionaryVar
  3
ObjectDBX Classes
 90
        0
 91
        4
280
     0
281
     0
  0
CLASS
  1
CELLSTYLEMAP
  2
AcDbCellStyleMap
  3
ObjectDBX Classes
 90
     1152
 91
        4
280
     0
281
     0
  0
ENDSEC
  0
SECTION
  2
TABLES
  0
TABLE
  2
VPORT
  5
8
330
0
100
AcDbSymbolTable
 70
     1
  0
VPORT
  5
29
330
8
100
AcDbSymbolTableRecord
100
AcDbViewportTableRecord
  2
*Active
 70
     0
 10
0.0
 20
0.0
 11
1.0
 21
1.0
 12
344.186916
 22
148.5
 13
0.0
 23
0.0
 14
10.0
 24
10.0
 15
10.0
 25
10.0
 16
0.0
 26
0.0
 36
1.0
 17
0.0
 27
0.0
 37
0.0
 40
297.0
 41
1.972973
 42
50.0
 43
0.0
 44
0.0
 50
0.0
 51
0.0
 71
     0
 72
   100
 73
     1
 74
     3
 75
     0
 76
     0
 77
     0
 78
     0
281
     0
 65
     1
110
0.0
120
0.0
130
0.0
111
1.0
121
0.0
131
0.0
112
0.0
122
1.0
132
0.0
 79
     0
146
0.0
348
2F
 60
     3
 61
     5
292
     1
282
     1
141
0.0
142
0.0
 63
   250
361
6D
  0
ENDTAB
  0
TABLE
  2
LTYPE
  5
5
330
0
100
AcDbSymbolTable
 70
     1
  0
LTYPE
  5
14
330
5
100
AcDbSymbolTableRecord
100
AcDbLinetypeTableRecord
  2
ByBlock
 70
     0
  3

 72
    65
 73
     0
 40
0.0
  0
LTYPE
  5
15
330
5
100
AcDbSymbolTableRecord
100
AcDbLinetypeTableRecord
  2
ByLayer
 70
     0
  3

 72
    65
 73
     0
 40
0.0
  0
LTYPE
  5
16
330
5
100
AcDbSymbolTableRecord
100
AcDbLinetypeTableRecord
  2
Continuous
 70
     0
  3
Solid line
 72
    65
 73
     0
 40
0.0
  0
ENDTAB
  0
TABLE
  2
LAYER
  5
2
330
0
100
AcDbSymbolTable
 70
     1
  0
LAYER
  5
10
330
2
100
AcDbSymbolTableRecord
100
AcDbLayerTableRecord
  2
0
 70
     0
 62
   106
  6
Continuous
370
     0
390
F
347
46
  0
ENDTAB
  0
TABLE
  2
STYLE
  5
3
330
0
100
AcDbSymbolTable
 70
     4
  0
STYLE
  5
11
330
3
100
AcDbSymbolTableRecord
100
AcDbTextStyleTableRecord
  2
Standard
 70
     0
 40
0.0
 41
1.0
 50
0.0
 71
     0
 42
2.5
  3
txt
  4

  0
STYLE
  5
6E
330
3
100
AcDbSymbolTableRecord
100
AcDbTextStyleTableRecord
  2
Default
 70
     0
 40
0.0
 41
1.0
 50
0.0
 71
     0
 42
2.5
  3

  4

1001
ACAD
1000
txt
1071
        0
  0
STYLE
  5
6F
330
3
100
AcDbSymbolTableRecord
100
AcDbTextStyleTableRecord
  2
ISO
 70
     0
 40
0.0
 41
1.0
 50
0.0
 71
     0
 42
2.5
  3

  4

1001
ACAD
1000
txt
1071
        0
  0
STYLE
  5
70
330
3
100
AcDbSymbolTableRecord
100
AcDbTextStyleTableRecord
  2
zucchetti
 70
     0
 40
0.0
 41
1.0
 50
0.0
 71
     0
 42
2.5
  3

  4

1001
ACAD
1000
Arial
1071
        0
  0
ENDTAB
  0
TABLE
  2
VIEW
  5
6
330
0
100
AcDbSymbolTable
 70
     0
  0
ENDTAB
  0
TABLE
  2
UCS
  5
7
330
0
100
AcDbSymbolTable
 70
     0
  0
ENDTAB
  0
TABLE
  2
APPID
  5
9
330
0
100
AcDbSymbolTable
 70
     1
  0
APPID
  5
12
330
9
100
AcDbSymbolTableRecord
100
AcDbRegAppTableRecord
  2
ACAD
 70
     0
  0
ENDTAB
  0
TABLE
  2
DIMSTYLE
  5
A
330
0
100
AcDbSymbolTable
 70
     4
100
AcDbDimStyleTable
  0
DIMSTYLE
105
27
330
A
100
AcDbSymbolTableRecord
100
AcDbDimStyleTableRecord
  2
ISO-25
 70
     0
 41
2.5
 42
0.625
 43
3.75
 44
1.25
 73
     0
 74
     0
 77
     1
 78
     8
140
2.5
141
2.5
143
0.03937
147
0.625
171
     3
172
     1
178
     0
271
     2
272
     2
274
     3
278
    44
283
     0
284
     8
340
11
  0
DIMSTYLE
105
71
330
A
100
AcDbSymbolTableRecord
100
AcDbDimStyleTableRecord
  2
Default
 70
     0
  3
<>
 41
4.375
 42
1.05
 44
2.1
 49
10.01
 73
     0
 74
     0
 77
     1
 78
     8
140
3.5
146
0.4
147
1.75
172
     1
271
     2
178
     3
271
     2
272
     3
284
     8
340
6E
341
72
342
72
  0
DIMSTYLE
105
79
330
A
100
AcDbSymbolTableRecord
100
AcDbDimStyleTableRecord
  2
ISO
 70
     0
  3
<>
 41
4.375
 42
1.05
 44
2.1
 49
10.01
 73
     0
 74
     0
 77
     1
 78
     8
140
3.5
146
0.4
147
1.75
172
     1
271
     2
178
     3
271
     2
272
     3
284
     8
340
6F
341
72
342
72
  0
DIMSTYLE
105
7A
330
A
100
AcDbSymbolTableRecord
100
AcDbDimStyleTableRecord
  2
zucchetti
 70
     0
  3
<>
 41
3.0
 42
0.9
 44
1.8
 49
8.58
 73
     0
 74
     0
 77
     1
 78
     8
140
3.0
146
0.6
147
1.5
172
     1
176
     3
177
     3
271
     2
178
     3
271
     2
272
     2
284
     8
340
70
  0
ENDTAB
  0
TABLE
  2
BLOCK_RECORD
  5
1
330
0
100
AcDbSymbolTable
 70
     6
  0
BLOCK_RECORD
  5
1F
330
1
100
AcDbSymbolTableRecord
100
AcDbBlockTableRecord
  2
*Model_Space
340
22
 70
     0
280
     1
281
     0
  0
BLOCK_RECORD
  5
1B
330
1
100
AcDbSymbolTableRecord
100
AcDbBlockTableRecord
  2
*Paper_Space
340
1E
 70
     0
280
     1
281
     0
  0
BLOCK_RECORD
  5
23
330
1
100
AcDbSymbolTableRecord
100
AcDbBlockTableRecord
  2
*Paper_Space0
340
26
 70
     0
280
     1
281
     0
  0
BLOCK_RECORD
  5
72
330
1
100
AcDbSymbolTableRecord
100
AcDbBlockTableRecord
  2
_CLOSED
340
0
 70
     0
280
     1
281
     0
  0
BLOCK_RECORD
  5
7B
330
1
100
AcDbSymbolTableRecord
100
AcDbBlockTableRecord
  2
a
340
0
102
{BLKREFS
331
9E
102
}
 70
     0
280
     1
281
     0
  0
BLOCK_RECORD
  5
9F
330
1
100
AcDbSymbolTableRecord
100
AcDbBlockTableRecord
  2
b
340
0
102
{BLKREFS
331
102
102
}
 70
     0
280
     1
281
     0
  0
BLOCK_RECORD
  5
103
330
1
100
AcDbSymbolTableRecord
100
AcDbBlockTableRecord
  2
c
340
0
102
{BLKREFS
331
16E
102
}
 70
     0
280
     1
281
     0
  0
BLOCK_RECORD
  5
16F
330
1
100
AcDbSymbolTableRecord
100
AcDbBlockTableRecord
  2
d
340
0
102
{BLKREFS
331
1E3
102
}
 70
     0
280
     1
281
     0
  0
ENDTAB
  0
ENDSEC
  0
SECTION
  2
BLOCKS
  0
BLOCK
  5
20
330
1F
100
AcDbEntity
  8
0
100
AcDbBlockBegin
  2
*Model_Space
 70
     0
 10
0.0
 20
0.0
 30
0.0
  3
*Model_Space
  1

  0
ENDBLK
  5
21
330
1F
100
AcDbEntity
  8
0
100
AcDbBlockEnd
  0
BLOCK
  5
1C
330
1B
100
AcDbEntity
 67
     1
  8
0
100
AcDbBlockBegin
  2
*Paper_Space
 70
     0
 10
0.0
 20
0.0
 30
0.0
  3
*Paper_Space
  1

  0
ENDBLK
  5
1D
330
1B
100
AcDbEntity
 67
     1
  8
0
100
AcDbBlockEnd
  0
BLOCK
  5
24
330
23
100
AcDbEntity
  8
0
100
AcDbBlockBegin
  2
*Paper_Space0
 70
     0
 10
0.0
 20
0.0
 30
0.0
  3
*Paper_Space0
  1

  0
ENDBLK
  5
25
330
23
100
AcDbEntity
  8
0
100
AcDbBlockEnd
  0
BLOCK
  5
73
330
72
100
AcDbEntity
  8
0
100
AcDbBlockBegin
  2
_CLOSED
 70
     0
 10
0.0
 20
0.0
 30
0.0
  3
_CLOSED
  1

  0
LINE
  5
75
330
72
100
AcDbEntity
  8
0
  6
ByBlock
 62
     0
370
    -2
100
AcDbLine
 10
-1.0
 20
0.166667
 30
0.0
 11
0.0
 21
0.0
 31
0.0
  0
LINE
  5
76
330
72
100
AcDbEntity
  8
0
  6
ByBlock
 62
     0
370
    -2
100
AcDbLine
 10
0.0
 20
0.0
 30
0.0
 11
-1.0
 21
-0.166667
 31
0.0
  0
LINE
  5
77
330
72
100
AcDbEntity
  8
0
  6
ByBlock
 62
     0
370
    -2
100
AcDbLine
 10
-1.0
 20
0.166667
 30
0.0
 11
-1.0
 21
-0.166667
 31
0.0
  0
LINE
  5
78
330
72
100
AcDbEntity
  8
0
  6
ByBlock
 62
     0
370
    -2
100
AcDbLine
 10
0.0
 20
0.0
 30
0.0
 11
-1.0
 21
0.0
 31
0.0
  0
ENDBLK
  5
74
330
72
100
AcDbEntity
  8
0
100
AcDbBlockEnd
  0
BLOCK
  5
9C
330
7B
100
AcDbEntity
  8
0
100
AcDbBlockBegin
  2
a
 70
     0
 10
446.735962
 20
146.428436
 30
0.0
  3
a
  1

  0
LINE
  5
7C
330
7B
100
AcDbEntity
  8
0
  6
Continuous
 62
     0
370
    30
100
AcDbLine
 10
554.317207
 20
473.823219
 30
0.0
 11
474.317207
 21
473.823219
 31
0.0
  0
LINE
  5
7D
330
7B
100
AcDbEntity
  8
0
  6
Continuous
 62
     0
370
    30
100
AcDbLine
 10
554.317207
 20
751.823219
 30
0.0
 11
554.317207
 21
473.823219
 31
0.0
  0
LINE
  5
7E
330
7B
100
AcDbEntity
  8
0
  6
Continuous
 62
     0
370
    30
100
AcDbLine
 10
474.317207
 20
751.823219
 30
0.0
 11
554.317207
 21
751.823219
 31
0.0
  0
LINE
  5
7F
330
7B
100
AcDbEntity
  8
0
  6
Continuous
 62
     0
370
    30
100
AcDbLine
 10
474.317207
 20
473.823219
 30
0.0
 11
474.317207
 21
751.823219
 31
0.0
  0
ARC
  5
80
330
7B
100
AcDbEntity
  8
0
  6
Continuous
 62
     0
370
    30
100
AcDbCircle
 10
514.317207
 20
547.823219
 30
0.0
 40
21.5
100
AcDbArc
 50
90.0
 51
270.0
  0
ARC
  5
81
330
7B
100
AcDbEntity
  8
0
  6
Continuous
 62
     0
370
    30
100
AcDbCircle
 10
514.317207
 20
547.823219
 30
0.0
 40
21.5
100
AcDbArc
 50
270.0
 51
90.0
  0
ARC
  5
82
330
7B
100
AcDbEntity
  8
0
  6
Continuous
 62
     0
370
    30
100
AcDbCircle
 10
514.317207
 20
547.823219
 30
0.0
 40
22.0
100
AcDbArc
 50
90.0
 51
270.0
  0
ARC
  5
83
330
7B
100
AcDbEntity
  8
0
  6
Continuous
 62
     0
370
    30
100
AcDbCircle
 10
514.317207
 20
547.823219
 30
0.0
 40
22.0
100
AcDbArc
 50
270.0
 51
90.0
  0
LINE
  5
84
330
7B
100
AcDbEntity
  8
0
  6
Continuous
 62
     0
370
    30
100
AcDbLine
 10
514.317207
 20
577.653219
 30
0.0
 11
510.867207
 21
577.653219
 31
0.0
  0
LINE
  5
85
330
7B
100
AcDbEntity
  8
0
  6
Continuous
 62
     0
370
    30
100
AcDbLine
 10
517.767207
 20
577.653219
 30
0.0
 11
514.317207
 21
577.653219
 31
0.0
  0
LINE
  5
86
330
7B
100
AcDbEntity
  8
0
  6
Continuous
 62
     0
370
    30
100
AcDbLine
 10
514.317207
 20
577.153219
 30
0.0
 11
510.36773
 21
577.153223
 31
0.0
  0
LWPOLYLINE
  5
87
330
7B
100
AcDbEntity
  8
0
  6
Continuous
 62
     0
370
    30
100
AcDbPolyline
 90
       13
 70
     0
 43
0.0
 10
518.266663
 20
577.153198
 10
518.233704
 20
577.153198
 10
518.134644
 20
577.153198
 10
517.970703
 20
577.153198
 10
517.745605
 20
577.153198
 10
517.463379
 20
577.153198
 10
517.128174
 20
577.153198
 10
516.745544
 20
577.153259
 10
516.32196
 20
577.153259
 10
515.86377
 20
577.153259
 10
515.378723
 20
577.153259
 10
514.87677
 20
577.153198
 10
514.3172
 20
577.153198
  0
LINE
  5
88
330
7B
100
AcDbEntity
  8
0
  6
Continuous
 62
     0
370
    30
100
AcDbLine
 10
510.367207
 20
577.153219
 30
0.0
 11
510.367207
 21
569.465982
 31
0.0
  0
LINE
  5
89
330
7B
100
AcDbEntity
  8
0
  6
Continuous
 62
     0
370
    30
100
AcDbLine
 10
518.267207
 20
577.153219
 30
0.0
 11
518.267207
 21
569.465897
 31
0.0
  0
LINE
  5
8A
330
7B
100
AcDbEntity
  8
0
  6
Continuous
 62
     0
370
    30
100
AcDbLine
 10
510.86715
 20
577.653162
 30
0.0
 11
510.367208
 21
577.15322
 31
0.0
  0
LINE
  5
8B
330
7B
100
AcDbEntity
  8
0
  6
Continuous
 62
     0
370
    30
100
AcDbLine
 10
518.267207
 20
577.15322
 30
0.0
 11
517.767265
 21
577.653162
 31
0.0
  0
LWPOLYLINE
  5
8C
330
7B
100
AcDbEntity
  8
0
  6
Continuous
 62
     0
370
     0
100
AcDbPolyline
 90
       17
 70
     0
 43
0.0
 10
514.3172
 20
701.323242
 10
515.02594
 20
701.295044
 10
515.71991
 20
701.213501
 10
516.38739
 20
701.083862
 10
517.018311
 20
700.914673
 10
517.605347
 20
700.715149
 10
518.145691
 20
700.494812
 10
518.638
 20
700.262634
 10
519.08252
 20
700.026611
 10
519.478943
 20
699.794495
 10
519.826172
 20
699.573486
 10
520.122986
 20
699.37085
 10
520.368347
 20
699.193787
 10
520.561157
 20
699.048584
 10
520.700745
 20
698.940002
 10
520.786316
 20
698.872009
 10
520.817139
 20
698.847107
  0
LWPOLYLINE
  5
8D
330
7B
100
AcDbEntity
  8
0
  6
Continuous
 62
     0
370
     0
100
AcDbPolyline
 90
       17
 70
     0
 43
0.0
 10
507.8172
 20
698.846985
 10
507.844543
 20
698.86908
 10
507.926758
 20
698.934509
 10
508.063019
 20
699.040649
 10
508.252563
 20
699.183777
 10
508.49469
 20
699.35907
 10
508.788361
 20
699.560364
 10
509.132477
 20
699.780457
 10
509.525848
 20
700.012085
 10
509.967377
 20
700.247986
 10
510.456726
 20
700.480652
 10
510.994171
 20
700.701904
 10
511.578461
 20
700.903015
 10
512.206726
 20
701.074463
 10
512.87207
 20
701.206909
 10
513.564697
 20
701.291748
 10
514.3172
 20
701.323242
  0
LINE
  5
8E
330
7B
100
AcDbEntity
  8
0
  6
Continuous
 62
     0
370
     0
100
AcDbLine
 10
514.317207
 20
712.823216
 30
0.0
 11
507.817207
 21
712.823216
 31
0.0
  0
LINE
  5
8F
330
7B
100
AcDbEntity
  8
0
  6
Continuous
 62
     0
370
     0
100
AcDbLine
 10
520.817207
 20
712.823216
 30
0.0
 11
514.317207
 21
712.823216
 31
0.0
  0
LINE
  5
90
330
7B
100
AcDbEntity
  8
0
  6
Continuous
 62
     0
370
    30
100
AcDbLine
 10
514.317207
 20
713.323216
 30
0.0
 11
508.317207
 21
713.323216
 31
0.0
  0
LINE
  5
91
330
7B
100
AcDbEntity
  8
0
  6
Continuous
 62
     0
370
    30
100
AcDbLine
 10
520.317207
 20
713.323216
 30
0.0
 11
514.317207
 21
713.323216
 31
0.0
  0
ARC
  5
92
330
7B
100
AcDbEntity
  8
0
  6
Continuous
 62
     0
370
    30
100
AcDbCircle
 10
514.317207
 20
677.823216
 30
0.0
 40
19.50000000000001
100
AcDbArc
 50
90.0
 51
270.0
  0
ARC
  5
93
330
7B
100
AcDbEntity
  8
0
  6
Continuous
 62
     0
370
    30
100
AcDbCircle
 10
514.317207
 20
677.823216
 30
0.0
 40
19.50000000000001
100
AcDbArc
 50
270.0
 51
90.0
  0
ARC
  5
94
330
7B
100
AcDbEntity
  8
0
  6
Continuous
 62
     0
370
     0
100
AcDbCircle
 10
514.317207
 20
677.823216
 30
0.0
 40
19.00000000000001
100
AcDbArc
 50
90.0
 51
270.0
  0
ARC
  5
95
330
7B
100
AcDbEntity
  8
0
  6
Continuous
 62
     0
370
     0
100
AcDbCircle
 10
514.317207
 20
677.823216
 30
0.0
 40
19.00000000000001
100
AcDbArc
 50
270.0
 51
90.0
  0
ARC
  5
96
330
7B
100
AcDbEntity
  8
0
  6
Continuous
 62
     0
370
    30
100
AcDbCircle
 10
508.31721
 20
712.823213
 30
0.0
 40
0.5000027445625939
100
AcDbArc
 50
90.001675
 51
179.999686
  0
ARC
  5
97
330
7B
100
AcDbEntity
  8
0
  6
Continuous
 62
     0
370
    30
100
AcDbCircle
 10
520.317205
 20
712.823213
 30
0.0
 40
0.500002744743127
100
AcDbArc
 50
0.000315
 51
89.998255
  0
LINE
  5
98
330
7B
100
AcDbEntity
  8
0
  6
Continuous
 62
     0
370
    30
100
AcDbLine
 10
520.817207
 20
698.846892
 30
0.0
 11
520.817207
 21
712.823216
 31
0.0
  0
LINE
  5
99
330
7B
100
AcDbEntity
  8
0
  6
Continuous
 62
     0
370
    30
100
AcDbLine
 10
507.817207
 20
698.846892
 30
0.0
 11
507.817207
 21
712.823216
 31
0.0
  0
LWPOLYLINE
  5
9A
330
7B
100
AcDbEntity
  8
0
  6
Continuous
 62
     0
370
    30
100
AcDbPolyline
 90
       10
 70
     0
 43
0.0
 10
520.817139
 20
698.847107
 10
520.846924
 20
698.361206
 10
520.935303
 20
697.882385
 10
521.081177
 20
697.417908
 10
521.282532
 20
696.974609
 10
521.536194
 20
696.559082
 10
521.83844
 20
696.177429
 10
522.184875
 20
695.835327
 10
522.570312
 20
695.537903
 10
523.029846
 20
695.268616
  0
LWPOLYLINE
  5
9B
330
7B
100
AcDbEntity
  8
0
  6
Continuous
 62
     0
370
    30
100
AcDbPolyline
 90
       15
 70
     0
 43
0.0
 10
507.8172
 20
698.846985
 10
507.804535
 20
698.529785
 10
507.766724
 20
698.214355
 10
507.704163
 20
697.902954
 10
507.617065
 20
697.597595
 10
507.505951
 20
697.30011
 10
507.371613
 20
697.012329
 10
507.214874
 20
696.736084
 10
507.036682
 20
696.473206
 10
506.838196
 20
696.225281
 10
506.620697
 20
695.993896
 10
506.385498
 20
695.780518
 10
506.134064
 20
695.586487
 10
505.868103
 20
695.412903
 10
505.604462
 20
695.268494
  0
ENDBLK
  5
9D
330
7B
100
AcDbEntity
  8
0
100
AcDbBlockEnd
  0
BLOCK
  5
100
330
9F
100
AcDbEntity
  8
0
100
AcDbBlockBegin
  2
b
 70
     0
 10
446.735962
 20
340.864868
 30
0.0
  3
b
  1

  0
LINE
  5
A0
330
9F
100
AcDbEntity
  8
0
  6
Continuous
 62
     0
370
    30
100
AcDbLine
 10
554.317207
 20
390.61312
 30
0.0
 11
554.317207
 21
388.61312
 31
0.0
  0
LINE
  5
A1
330
9F
100
AcDbEntity
  8
0
  6
Continuous
 62
     0
370
    30
100
AcDbLine
 10
554.317207
 20
390.61312
 30
0.0
 11
474.317207
 21
390.61312
 31
0.0
  0
LINE
  5
A2
330
9F
100
AcDbEntity
  8
0
  6
Continuous
 62
     0
370
    30
100
AcDbLine
 10
474.317207
 20
390.61312
 30
0.0
 11
474.317207
 21
388.61312
 31
0.0
  0
LINE
  5
A3
330
9F
100
AcDbEntity
  8
0
  6
Continuous
 62
     0
370
    30
100
AcDbLine
 10
474.317207
 20
388.61312
 30
0.0
 11
554.317207
 21
388.61312
 31
0.0
  0
LINE
  5
A4
330
9F
100
AcDbEntity
  8
0
  6
Continuous
 62
     0
370
    30
100
AcDbLine
 10
492.817207
 20
335.613129
 30
0.0
 11
514.317207
 21
335.613128
 31
0.0
  0
LINE
  5
A5
330
9F
100
AcDbEntity
  8
0
  6
Continuous
 62
     0
370
    30
100
AcDbLine
 10
514.317207
 20
335.613128
 30
0.0
 11
535.817207
 21
335.613129
 31
0.0
  0
LINE
  5
A6
330
9F
100
AcDbEntity
  8
0
  6
Continuous
 62
     0
370
    30
100
AcDbLine
 10
492.317207
 20
336.113129
 30
0.0
 11
514.317207
 21
336.113128
 31
0.0
  0
LINE
  5
A7
330
9F
100
AcDbEntity
  8
0
  6
Continuous
 62
     0
370
    30
100
AcDbLine
 10
514.317207
 20
336.113128
 30
0.0
 11
536.317207
 21
336.113129
 31
0.0
  0
LINE
  5
A8
330
9F
100
AcDbEntity
  8
0
  6
Continuous
 62
     0
370
    30
100
AcDbLine
 10
536.317207
 20
385.613129
 30
0.0
 11
533.817207
 21
385.613129
 31
0.0
  0
LINE
  5
A9
330
9F
100
AcDbEntity
  8
0
  6
Continuous
 62
     0
370
    30
100
AcDbLine
 10
494.817207
 20
385.613129
 30
0.0
 11
492.317207
 21
385.613129
 31
0.0
  0
ARC
  5
AA
330
9F
100
AcDbEntity
  8
0
  6
Continuous
 62
     0
370
    30
100
AcDbCircle
 10
514.317207
 20
344.613127
 30
0.0
 40
3.449999999999608
100
AcDbArc
 50
196.849252
 51
270.0
  0
ARC
  5
AB
330
9F
100
AcDbEntity
  8
0
  6
Continuous
 62
     0
370
    30
100
AcDbCircle
 10
514.317207
 20
344.613127
 30
0.0
 40
3.449999999999884
100
AcDbArc
 50
270.0
 51
343.150748
  0
ARC
  5
AC
330
9F
100
AcDbEntity
  8
0
  6
Continuous
 62
     0
370
    30
100
AcDbCircle
 10
514.317528
 20
344.613311
 30
0.0
 40
3.950183595664585
100
AcDbArc
 50
194.666885
 51
269.995354
  0
ARC
  5
AD
330
9F
100
AcDbEntity
  8
0
  6
Continuous
 62
     0
370
    30
100
AcDbCircle
 10
514.316887
 20
344.61331
 30
0.0
 40
3.950183114667145
100
AcDbArc
 50
270.004643
 51
345.33312
  0
ARC
  5
AE
330
9F
100
AcDbEntity
  8
0
  6
Continuous
 62
     0
370
     0
100
AcDbCircle
 10
514.317721
 20
344.612558
 30
0.0
 40
4.099033241629622
100
AcDbArc
 50
269.9933
 51
345.887854
  0
ARC
  5
AF
330
9F
100
AcDbEntity
  8
0
  6
Continuous
 62
     0
370
     0
100
AcDbCircle
 10
514.316792
 20
344.612869
 30
0.0
 40
4.09934362939812
100
AcDbArc
 50
194.115529
 51
270.006294
  0
LINE
  5
B0
330
9F
100
AcDbEntity
  8
0
  6
Continuous
 62
     0
370
    30
100
AcDbLine
 10
492.317207
 20
336.113129
 30
0.0
 11
492.317207
 21
385.613129
 31
0.0
  0
LINE
  5
B1
330
9F
100
AcDbEntity
  8
0
  6
Continuous
 62
     0
370
    30
100
AcDbLine
 10
536.317207
 20
336.113129
 30
0.0
 11
536.317207
 21
385.613129
 31
0.0
  0
LINE
  5
B2
330
9F
100
AcDbEntity
  8
0
  6
Continuous
 62
     0
370
    30
100
AcDbLine
 10
535.817228
 20
335.613149
 30
0.0
 11
536.317207
 21
336.113129
 31
0.0
  0
LINE
  5
B3
330
9F
100
AcDbEntity
  8
0
  6
Continuous
 62
     0
370
    30
100
AcDbLine
 10
492.817187
 20
335.613149
 30
0.0
 11
492.317207
 21
336.113129
 31
0.0
  0
LWPOLYLINE
  5
B4
330
9F
100
AcDbEntity
  8
0
  6
Continuous
 62
     0
370
     0
100
AcDbPolyline
 90
       42
 70
     0
 43
0.0
 10
514.3172
 20
348.113129
 10
513.572327
 20
348.151611
 10
512.836975
 20
348.265747
 10
512.119934
 20
348.452698
 10
511.427795
 20
348.707703
 10
510.766693
 20
349.02478
 10
510.141205
 20
349.398071
 10
509.553406
 20
349.821869
 10
509.004822
 20
350.290619
 10
508.495758
 20
350.800629
 10
508.026093
 20
351.348816
 10
507.595825
 20
351.932037
 10
507.205719
 20
352.547058
 10
506.856415
 20
353.190582
 10
506.548676
 20
353.859344
 10
506.283203
 20
354.550018
 10
506.060669
 20
355.259521
 10
505.881622
 20
355.985229
 10
505.746552
 20
356.724701
 10
505.655914
 20
357.474884
 10
505.610229
 20
358.231537
 10
505.610077
 20
358.990265
 10
505.655426
 20
359.746826
 10
505.74585
 20
360.497131
 10
505.88089
 20
361.237061
 10
506.059814
 20
361.963135
 10
506.281769
 20
362.672089
 10
506.545929
 20
363.360779
 10
506.851685
 20
364.026611
 10
507.198425
 20
364.667084
 10
507.585724
 20
365.279572
 10
508.013397
 20
365.861359
 10
508.481262
 20
366.409668
 10
508.989105
 20
366.921021
 10
509.536743
 20
367.39151
 10
510.123505
 20
367.816803
 10
510.747803
 20
368.191589
 10
511.407654
 20
368.510254
 10
512.098938
 20
368.767059
 10
512.816101
 20
368.956055
 10
513.552368
 20
369.072357
 10
514.3172
 20
369.113129
  0
LWPOLYLINE
  5
B5
330
9F
100
AcDbEntity
  8
0
  6
Continuous
 62
     0
370
     0
100
AcDbPolyline
 90
       41
 70
     0
 43
0.0
 10
514.3172
 20
369.113129
 10
515.082397
 20
369.072388
 10
515.83728
 20
368.952087
 10
516.571777
 20
368.75528
 10
517.278687
 20
368.487457
 10
517.952271
 20
368.155182
 10
518.588379
 20
367.764709
 10
519.184753
 20
367.321838
 10
519.739685
 20
366.832092
 10
520.252563
 20
366.299957
 10
520.723389
 20
365.729828
 10
521.151855
 20
365.125275
 10
521.537903
 20
364.489136
 10
521.881226
 20
363.82428
 10
522.181213
 20
363.133545
 10
522.437256
 20
362.419647
 10
522.64856
 20
361.685638
 10
522.814209
 20
360.934937
 10
522.933472
 20
360.171112
 10
523.005493
 20
359.398163
 10
523.029907
 20
358.620636
 10
523.006348
 20
357.842987
 10
522.935181
 20
357.069916
 10
522.817017
 20
356.306091
 10
522.652466
 20
355.555542
 10
522.441956
 20
354.820953
 10
522.185974
 20
354.105042
 10
521.885254
 20
353.41098
 10
521.540588
 20
352.74231
 10
521.152771
 20
352.10257
 10
520.722534
 20
351.49527
 10
520.250671
 20
350.923981
 10
519.737488
 20
350.39209
 10
519.182739
 20
349.902924
 10
518.586426
 20
349.460266
 10
517.950195
 20
349.069794
 10
517.276184
 20
348.737671
 10
516.56897
 20
348.470215
 10
515.835022
 20
348.273865
 10
515.081482
 20
348.153839
 10
514.3172
 20
348.113129
  0
ARC
  5
B6
330
9F
100
AcDbEntity
  8
0
  6
Continuous
 62
     0
370
    30
100
AcDbCircle
 10
514.317207
 20
358.613123
 30
0.0
 40
6.5
100
AcDbArc
 50
90.0
 51
270.0
  0
ARC
  5
B7
330
9F
100
AcDbEntity
  8
0
  6
Continuous
 62
     0
370
    30
100
AcDbCircle
 10
514.317207
 20
358.613123
 30
0.0
 40
6.5
100
AcDbArc
 50
270.0
 51
90.0
  0
ARC
  5
B8
330
9F
100
AcDbEntity
  8
0
  6
Continuous
 62
     0
370
     0
100
AcDbCircle
 10
514.317207
 20
358.613123
 30
0.0
 40
5.999999999999986
100
AcDbArc
 50
90.0
 51
270.0
  0
ARC
  5
B9
330
9F
100
AcDbEntity
  8
0
  6
Continuous
 62
     0
370
     0
100
AcDbCircle
 10
514.317207
 20
358.613123
 30
0.0
 40
5.999999999999986
100
AcDbArc
 50
270.0
 51
90.0
  0
LINE
  5
BA
330
9F
100
AcDbEntity
  8
0
  6
Continuous
 62
     0
370
     0
100
AcDbLine
 10
494.817207
 20
344.113125
 30
0.0
 11
514.317207
 21
344.113125
 31
0.0
  0
LINE
  5
BB
330
9F
100
AcDbEntity
  8
0
  6
Continuous
 62
     0
370
     0
100
AcDbLine
 10
514.317207
 20
344.113125
 30
0.0
 11
533.817207
 21
344.113125
 31
0.0
  0
LINE
  5
BC
330
9F
100
AcDbEntity
  8
0
  6
Continuous
 62
     0
370
    30
100
AcDbLine
 10
533.817207
 20
385.613125
 30
0.0
 11
514.317207
 21
385.613125
 31
0.0
  0
LINE
  5
BD
330
9F
100
AcDbEntity
  8
0
  6
Continuous
 62
     0
370
    30
100
AcDbLine
 10
514.317207
 20
385.613125
 30
0.0
 11
494.817207
 21
385.613125
 31
0.0
  0
LINE
  5
BE
330
9F
100
AcDbEntity
  8
0
  6
Continuous
 62
     0
370
    30
100
AcDbLine
 10
495.317207
 20
343.613125
 30
0.0
 11
514.317207
 21
343.613124
 31
0.0
  0
LINE
  5
BF
330
9F
100
AcDbEntity
  8
0
  6
Continuous
 62
     0
370
    30
100
AcDbLine
 10
514.317207
 20
343.613124
 30
0.0
 11
533.317207
 21
343.613125
 31
0.0
  0
ARC
  5
C0
330
9F
100
AcDbEntity
  8
0
  6
Continuous
 62
     0
370
    30
100
AcDbCircle
 10
495.31721
 20
344.113127
 30
0.0
 40
0.500002755990349
100
AcDbArc
 50
180.000316
 51
269.995487
  0
ARC
  5
C1
330
9F
100
AcDbEntity
  8
0
  6
Continuous
 62
     0
370
    30
100
AcDbCircle
 10
533.317205
 20
344.113127
 30
0.0
 40
0.5000027559876756
100
AcDbArc
 50
270.004513
 51
359.999684
  0
LINE
  5
C2
330
9F
100
AcDbEntity
  8
0
  6
Continuous
 62
     0
370
    30
100
AcDbLine
 10
533.817207
 20
385.613125
 30
0.0
 11
533.817207
 21
344.113125
 31
0.0
  0
LINE
  5
C3
330
9F
100
AcDbEntity
  8
0
  6
Continuous
 62
     0
370
    30
100
AcDbLine
 10
494.817207
 20
385.613125
 30
0.0
 11
494.817207
 21
344.113125
 31
0.0
  0
LINE
  5
C4
330
9F
100
AcDbEntity
  8
0
  6
Continuous
 62
     0
370
    30
100
AcDbLine
 10
530.410594
 20
386.113123
 30
0.0
 11
530.732724
 21
386.113123
 31
0.0
  0
LINE
  5
C5
330
9F
100
AcDbEntity
  8
0
  6
Continuous
 62
     0
370
    30
100
AcDbLine
 10
497.901691
 20
386.113123
 30
0.0
 11
498.760643
 21
386.113123
 31
0.0
  0
LINE
  5
C6
330
9F
100
AcDbEntity
  8
0
  6
Continuous
 62
     0
370
     0
100
AcDbLine
 10
497.615374
 20
386.413168
 30
0.0
 11
497.615374
 21
388.313077
 31
0.0
  0
LWPOLYLINE
  5
C7
330
9F
100
AcDbEntity
  8
0
  6
Continuous
 62
     0
370
     0
100
AcDbPolyline
 90
        6
 70
     0
 43
0.0
 10
497.615387
 20
388.31308
 10
497.33609
 20
388.295349
 10
497.115845
 20
388.277649
 10
496.955475
 20
388.260071
 10
496.855927
 20
388.242706
 10
496.8172
 20
388.223206
  0
LWPOLYLINE
  5
C8
330
9F
100
AcDbEntity
  8
0
  6
Continuous
 62
     0
370
     0
100
AcDbPolyline
 90
        6
 70
     0
 43
0.0
 10
496.8172
 20
386.503052
 10
496.846802
 20
386.485992
 10
496.937714
 20
386.468628
 10
497.089569
 20
386.45108
 10
497.301422
 20
386.433411
 10
497.615387
 20
386.413177
  0
LWPOLYLINE
  5
C9
330
9F
100
AcDbEntity
  8
0
  6
Continuous
 62
     0
370
    30
100
AcDbPolyline
 90
       39
 70
     0
 43
0.0
 10
500.95575
 20
388.613129
 10
501.304565
 20
388.59491
 10
501.7258
 20
388.576782
 10
502.217133
 20
388.558868
 10
502.775879
 20
388.54126
 10
503.398773
 20
388.524048
 10
504.082489
 20
388.507324
 10
504.823212
 20
388.491211
 10
505.616699
 20
388.475739
 10
506.45874
 20
388.46106
 10
507.344452
 20
388.447235
 10
508.269043
 20
388.434296
 10
509.227295
 20
388.422394
 10
510.213898
 20
388.41153
 10
511.223358
 20
388.401794
 10
512.250061
 20
388.393219
 10
513.288269
 20
388.385895
 10
514.332214
 20
388.379822
 10
515.376099
 20
388.375061
 10
516.414062
 20
388.371613
 10
517.440369
 20
388.369507
 10
518.44928
 20
388.368744
 10
519.435181
 20
388.369354
 10
520.392639
 20
388.371338
 10
521.316223
 20
388.374664
 10
522.200806
 20
388.379303
 10
523.041565
 20
388.385254
 10
523.833618
 20
388.392456
 10
524.572815
 20
388.400909
 10
525.254883
 20
388.410553
 10
525.875977
 20
388.421295
 10
526.4328
 20
388.433105
 10
526.922058
 20
388.445953
 10
527.341248
 20
388.459686
 10
527.687927
 20
388.474304
 10
527.960083
 20
388.489685
 10
528.156372
 20
388.505768
 10
528.275574
 20
388.52243
 10
528.317078
 20
388.539856
  0
LWPOLYLINE
  5
CA
330
9F
100
AcDbEntity
  8
0
  6
Continuous
 62
     0
370
     0
100
AcDbPolyline
 90
       48
 70
     0
 43
0.0
 10
530.732727
 20
388.613129
 10
531.039124
 20
388.593079
 10
531.271179
 20
388.57312
 10
531.427551
 20
388.553345
 10
531.507507
 20
388.533813
 10
531.51062
 20
388.514679
 10
531.437134
 20
388.495941
 10
531.287231
 20
388.477753
 10
531.061523
 20
388.460144
 10
530.761169
 20
388.443237
 10
530.387329
 20
388.427094
 10
529.941772
 20
388.411774
 10
529.426514
 20
388.397339
 10
528.843811
 20
388.383881
 10
528.196167
 20
388.371429
 10
527.486694
 20
388.360077
 10
526.718384
 20
388.349823
 10
525.894653
 20
388.34079
 10
525.019287
 20
388.332947
 10
524.096191
 20
388.326355
 10
523.129333
 20
388.321014
 10
522.123169
 20
388.317017
 10
521.082214
 20
388.314331
 10
520.010986
 20
388.312988
 10
518.914368
 20
388.312958
 10
517.797241
 20
388.314301
 10
516.664612
 20
388.316956
 10
515.521484
 20
388.320923
 10
514.372986
 20
388.326202
 10
513.224243
 20
388.332794
 10
512.080444
 20
388.340607
 10
510.946625
 20
388.34964
 10
509.827881
 20
388.359833
 10
508.729156
 20
388.371185
 10
507.655396
 20
388.383606
 10
506.61145
 20
388.397034
 10
505.601837
 20
388.411438
 10
504.631195
 20
388.426758
 10
503.703857
 20
388.442902
 10
502.823792
 20
388.459778
 10
501.995117
 20
388.477356
 10
501.221466
 20
388.495544
 10
500.506226
 20
388.514282
 10
499.852692
 20
388.533417
 10
499.263916
 20
388.552917
 10
498.742218
 20
388.572693
 10
498.289795
 20
388.592651
 10
497.901703
 20
388.613129
  0
LWPOLYLINE
  5
CB
330
9F
100
AcDbEntity
  8
0
  6
Continuous
 62
     0
370
     0
100
AcDbPolyline
 90
       43
 70
     0
 43
0.0
 10
497.615387
 20
386.413177
 10
498.006561
 20
386.433441
 10
498.472778
 20
386.453644
 10
499.011169
 20
386.473663
 10
499.618866
 20
386.493408
 10
500.293213
 20
386.512726
 10
501.031555
 20
386.531616
 10
501.831085
 20
386.549988
 10
502.688324
 20
386.567719
 10
503.599091
 20
386.584778
 10
504.559113
 20
386.601044
 10
505.563934
 20
386.616455
 10
506.608459
 20
386.63092
 10
507.687531
 20
386.644379
 10
508.796051
 20
386.656799
 10
509.92926
 20
386.66806
 10
511.082611
 20
386.678192
 10
512.251587
 20
386.687103
 10
513.43103
 20
386.694794
 10
514.61499
 20
386.701172
 10
515.797729
 20
386.706268
 10
516.97345
 20
386.709991
 10
518.13678
 20
386.712372
 10
519.282654
 20
386.713379
 10
520.405701
 20
386.712982
 10
521.500977
 20
386.711243
 10
522.563538
 20
386.70813
 10
523.58844
 20
386.703674
 10
524.570923
 20
386.697876
 10
525.506348
 20
386.690796
 10
526.390076
 20
386.682434
 10
527.217834
 20
386.672852
 10
527.986328
 20
386.662109
 10
528.692688
 20
386.650208
 10
529.333801
 20
386.637207
 10
529.906799
 20
386.623199
 10
530.408813
 20
386.608215
 10
530.837158
 20
386.592316
 10
531.189697
 20
386.575623
 10
531.465027
 20
386.558197
 10
531.661926
 20
386.5401
 10
531.779358
 20
386.521454
 10
531.8172
 20
386.502258
  0
LWPOLYLINE
  5
CC
330
9F
100
AcDbEntity
  8
0
  6
Continuous
 62
     0
370
     0
100
AcDbPolyline
 90
       43
 70
     0
 43
0.0
 10
531.817139
 20
388.224335
 10
531.780823
 20
388.20517
 10
531.664856
 20
388.186493
 10
531.469299
 20
388.168396
 10
531.195312
 20
388.15094
 10
530.843994
 20
388.134216
 10
530.416748
 20
388.118286
 10
529.91571
 20
388.103302
 10
529.343628
 20
388.089233
 10
528.703308
 20
388.076233
 10
527.997681
 20
388.064331
 10
527.229736
 20
388.053528
 10
526.402527
 20
388.043945
 10
525.519226
 20
388.035583
 10
524.584045
 20
388.028473
 10
523.601746
 20
388.022644
 10
522.576965
 20
388.018158
 10
521.514404
 20
388.015045
 10
520.419067
 20
388.013275
 10
519.295837
 20
388.012878
 10
518.149719
 20
388.013855
 10
516.986023
 20
388.016235
 10
515.809937
 20
388.019958
 10
514.62677
 20
388.024994
 10
513.442261
 20
388.031403
 10
512.262329
 20
388.039062
 10
511.092712
 20
388.047974
 10
509.938721
 20
388.058075
 10
508.804871
 20
388.069366
 10
507.695679
 20
388.081757
 10
506.615936
 20
388.095215
 10
505.57074
 20
388.109711
 10
504.565216
 20
388.125122
 10
503.604492
 20
388.141388
 10
502.693085
 20
388.158417
 10
501.835205
 20
388.176178
 10
501.035065
 20
388.19455
 10
500.296143
 20
388.21344
 10
499.621246
 20
388.232788
 10
499.013062
 20
388.252502
 10
498.474213
 20
388.272522
 10
498.007599
 20
388.292755
 10
497.615387
 20
388.31308
  0
LWPOLYLINE
  5
CD
330
9F
100
AcDbEntity
  8
0
  6
Continuous
 62
     0
370
     0
100
AcDbPolyline
 90
       48
 70
     0
 43
0.0
 10
497.901703
 20
386.113129
 10
498.280914
 20
386.133179
 10
498.73172
 20
386.153137
 10
499.252136
 20
386.172913
 10
499.839783
 20
386.192413
 10
500.492096
 20
386.211578
 10
501.206085
 20
386.230316
 10
501.978638
 20
386.248505
 10
502.806274
 20
386.266113
 10
503.685333
 20
386.28302
 10
504.611816
 20
386.299164
 10
505.581665
 20
386.314484
 10
506.590485
 20
386.328918
 10
507.63382
 20
386.342377
 10
508.707001
 20
386.354828
 10
509.805237
 20
386.36618
 10
510.923615
 20
386.376404
 10
512.057129
 20
386.385468
 10
513.200745
 20
386.393311
 10
514.349365
 20
386.399902
 10
515.497864
 20
386.405212
 10
516.641113
 20
386.409241
 10
517.773926
 20
386.411926
 10
518.891357
 20
386.413269
 10
519.988403
 20
386.413269
 10
521.06012
 20
386.411957
 10
522.101685
 20
386.409302
 10
523.108582
 20
386.405304
 10
524.076233
 20
386.400024
 10
525.000305
 20
386.393463
 10
525.876648
 20
386.385651
 10
526.701477
 20
386.376617
 10
527.471008
 20
386.366394
 10
528.181763
 20
386.355072
 10
528.830688
 20
386.342651
 10
529.414856
 20
386.329193
 10
529.93158
 20
386.314789
 10
530.378662
 20
386.2995
 10
530.754028
 20
386.283356
 10
531.055969
 20
386.266449
 10
531.283264
 20
386.248871
 10
531.434814
 20
386.230682
 10
531.509949
 20
386.211975
 10
531.508362
 20
386.19281
 10
531.429993
 20
386.173309
 10
531.275269
 20
386.153534
 10
531.044861
 20
386.133575
 10
530.732727
 20
386.113129
  0
LWPOLYLINE
  5
CE
330
9F
100
AcDbEntity
  8
0
  6
Continuous
 62
     0
370
     0
100
AcDbPolyline
 90
       44
 70
     0
 43
0.0
 10
530.486877
 20
386.163239
 10
530.589294
 20
386.182404
 10
530.614441
 20
386.201233
 10
530.562317
 20
386.219666
 10
530.433044
 20
386.237549
 10
530.227295
 20
386.254883
 10
529.946045
 20
386.271515
 10
529.590637
 20
386.287415
 10
529.16272
 20
386.30246
 10
528.664368
 20
386.31665
 10
528.0979
 20
386.329834
 10
527.466064
 20
386.34201
 10
526.77179
 20
386.353088
 10
526.018433
 20
386.363037
 10
525.209534
 20
386.371796
 10
524.348999
 20
386.379333
 10
523.440796
 20
386.38559
 10
522.489258
 20
386.390564
 10
521.499023
 20
386.394226
 10
520.474609
 20
386.396545
 10
519.421021
 20
386.397522
 10
518.343201
 20
386.397156
 10
517.246277
 20
386.395416
 10
516.135437
 20
386.392365
 10
515.01593
 20
386.38797
 10
513.893127
 20
386.382294
 10
512.772339
 20
386.375305
 10
511.658875
 20
386.367096
 10
510.558014
 20
386.357666
 10
509.474976
 20
386.347107
 10
508.414917
 20
386.335419
 10
507.382874
 20
386.322662
 10
506.383698
 20
386.308929
 10
505.42218
 20
386.29425
 10
504.502838
 20
386.278717
 10
503.630096
 20
386.26239
 10
502.808044
 20
386.245361
 10
502.040588
 20
386.227722
 10
501.33139
 20
386.209534
 10
500.683807
 20
386.190857
 10
500.100891
 20
386.171844
 10
499.585449
 20
386.152527
 10
499.139923
 20
386.133057
 10
498.760651
 20
386.113129
  0
ARC
  5
CF
330
9F
100
AcDbEntity
  8
0
  6
Continuous
 62
     0
370
    30
100
AcDbCircle
 10
498.753319
 20
385.817999
 30
0.0
 40
0.2952150453736875
100
AcDbArc
 50
359.062518
 51
88.578406
  0
LWPOLYLINE
  5
D0
330
9F
100
AcDbEntity
  8
0
  6
Continuous
 62
     0
370
     0
100
AcDbPolyline
 90
       42
 70
     0
 43
0.0
 10
530.3172
 20
385.89801
 10
530.278992
 20
385.916595
 10
530.164307
 20
385.934662
 10
529.973877
 20
385.952148
 10
529.708618
 20
385.968964
 10
529.369568
 20
385.985046
 10
528.958618
 20
386.000305
 10
528.4776
 20
386.014679
 10
527.928772
 20
386.028076
 10
527.31488
 20
386.040436
 10
526.638794
 20
386.051727
 10
525.903687
 20
386.061859
 10
525.113159
 20
386.070801
 10
524.270996
 20
386.078522
 10
523.381165
 20
386.084961
 10
522.447998
 20
386.090118
 10
521.475952
 20
386.093933
 10
520.469604
 20
386.096405
 10
519.433838
 20
386.097534
 10
518.373535
 20
386.09729
 10
517.293823
 20
386.095673
 10
516.199951
 20
386.092712
 10
515.096985
 20
386.08844
 10
513.990356
 20
386.082825
 10
512.885254
 20
386.075928
 10
511.787048
 20
386.06778
 10
510.700958
 20
386.05838
 10
509.632141
 20
386.047852
 10
508.585785
 20
386.036163
 10
507.566833
 20
386.023438
 10
506.58017
 20
386.009674
 10
505.630585
 20
385.994995
 10
504.722534
 20
385.979431
 10
503.860382
 20
385.963074
 10
503.048279
 20
385.946014
 10
502.29007
 20
385.928314
 10
501.589478
 20
385.910065
 10
500.949768
 20
385.891327
 10
500.373871
 20
385.872223
 10
499.864655
 20
385.852844
 10
499.424591
 20
385.833282
 10
499.048492
 20
385.813171
  0
LWPOLYLINE
  5
D1
330
9F
100
AcDbEntity
  8
0
  6
Continuous
 62
     0
370
     0
100
AcDbPolyline
 90
        5
 70
     0
 43
0.0
 10
497.901703
 20
386.113129
 10
497.803009
 20
386.131653
 10
497.716095
 20
386.184662
 10
497.652252
 20
386.2659
 10
497.615387
 20
386.413177
  0
LINE
  5
D2
330
9F
100
AcDbEntity
  8
0
  6
Continuous
 62
     0
370
     0
100
AcDbLine
 10
530.7484
 20
386.113592
 30
0.0
 11
530.732724
 21
386.113123
 31
0.0
  0
LWPOLYLINE
  5
D3
330
9F
100
AcDbEntity
  8
0
  6
Continuous
 62
     0
370
     0
100
AcDbPolyline
 90
        5
 70
     0
 43
0.0
 10
497.615387
 20
388.31308
 10
497.633057
 20
388.416473
 10
497.683624
 20
388.507568
 10
497.761139
 20
388.574463
 10
497.901703
 20
388.613129
  0
LINE
  5
D4
330
9F
100
AcDbEntity
  8
0
  6
Continuous
 62
     0
370
     0
100
AcDbLine
 10
530.732724
 20
388.613123
 30
0.0
 11
530.748402
 21
388.612655
 31
0.0
  0
LINE
  5
D5
330
9F
100
AcDbEntity
  8
0
  6
Continuous
 62
     0
370
     0
100
AcDbLine
 10
499.04696
 20
385.842396
 30
0.0
 11
499.04696
 21
385.613124
 31
0.0
  0
LINE
  5
D6
330
9F
100
AcDbEntity
  8
0
  6
Continuous
 62
     0
370
    30
100
AcDbLine
 10
498.317207
 20
385.613125
 30
0.0
 11
498.317207
 21
386.113123
 31
0.0
  0
LINE
  5
D7
330
9F
100
AcDbEntity
  8
0
  6
Continuous
 62
     0
370
    30
100
AcDbLine
 10
530.317207
 20
385.613125
 30
0.0
 11
530.317207
 21
385.898023
 31
0.0
  0
LINE
  5
D8
330
9F
100
AcDbEntity
  8
0
  6
Continuous
 62
     0
370
    30
100
AcDbLine
 10
528.317207
 20
388.540163
 30
0.0
 11
528.317207
 21
388.613123
 31
0.0
  0
LWPOLYLINE
  5
D9
330
9F
100
AcDbEntity
  8
0
  6
Continuous
 62
     0
370
    30
100
AcDbPolyline
 90
       25
 70
     0
 43
0.0
 10
496.8172
 20
388.22345
 10
496.855682
 20
388.371735
 10
496.929535
 20
388.460449
 10
496.988586
 20
388.49939
 10
497.029785
 20
388.517548
 10
497.06189
 20
388.528107
 10
497.090424
 20
388.535645
 10
497.117798
 20
388.541687
 10
497.145416
 20
388.546906
 10
497.174225
 20
388.551697
 10
497.204681
 20
388.556213
 10
497.237091
 20
388.560547
 10
497.271729
 20
388.564758
 10
497.308685
 20
388.568909
 10
497.348083
 20
388.572998
 10
497.389984
 20
388.577026
 10
497.434479
 20
388.581024
 10
497.481598
 20
388.585022
 10
497.531342
 20
388.588989
 10
497.58374
 20
388.592957
 10
497.638794
 20
388.596924
 10
497.696533
 20
388.600861
 10
497.756927
 20
388.604797
 10
497.820038
 20
388.608734
 10
497.886017
 20
388.612671
  0
LWPOLYLINE
  5
DA
330
9F
100
AcDbEntity
  8
0
  6
Continuous
 62
     0
370
    30
100
AcDbPolyline
 90
       26
 70
     0
 43
0.0
 10
497.886017
 20
386.113586
 10
497.822876
 20
386.11734
 10
497.762238
 20
386.121094
 10
497.704102
 20
386.124878
 10
497.648407
 20
386.128632
 10
497.595154
 20
386.132416
 10
497.544342
 20
386.1362
 10
497.495941
 20
386.140015
 10
497.449982
 20
386.14386
 10
497.406372
 20
386.147705
 10
497.365173
 20
386.151581
 10
497.326324
 20
386.155487
 10
497.289764
 20
386.159424
 10
497.255432
 20
386.163422
 10
497.223267
 20
386.16748
 10
497.193085
 20
386.171631
 10
497.16452
 20
386.176025
 10
497.137238
 20
386.180786
 10
497.110809
 20
386.186005
 10
497.084442
 20
386.192078
 10
497.056763
 20
386.199585
 10
497.024933
 20
386.210571
 10
496.984222
 20
386.229218
 10
496.926178
 20
386.268646
 10
496.855194
 20
386.355377
 10
496.81723
 20
386.502808
  0
LWPOLYLINE
  5
DB
330
9F
100
AcDbEntity
  8
0
  6
Continuous
 62
     0
370
    30
100
AcDbPolyline
 90
       26
 70
     0
 43
0.0
 10
530.748413
 20
388.612671
 10
530.811523
 20
388.608917
 10
530.872192
 20
388.605133
 10
530.930298
 20
388.601379
 10
530.986023
 20
388.597595
 10
531.039246
 20
388.593842
 10
531.090088
 20
388.590027
 10
531.138428
 20
388.586212
 10
531.184448
 20
388.582397
 10
531.228027
 20
388.578552
 10
531.269226
 20
388.574646
 10
531.308044
 20
388.57074
 10
531.344604
 20
388.566803
 10
531.378967
 20
388.562805
 10
531.411133
 20
388.558746
 10
531.441345
 20
388.554596
 10
531.469849
 20
388.550201
 10
531.497131
 20
388.545471
 10
531.523621
 20
388.540222
 10
531.549927
 20
388.534149
 10
531.577637
 20
388.526642
 10
531.609436
 20
388.515656
 10
531.650208
 20
388.49704
 10
531.708191
 20
388.457611
 10
531.779175
 20
388.37085
 10
531.817139
 20
388.22345
  0
LWPOLYLINE
  5
DC
330
9F
100
AcDbEntity
  8
0
  6
Continuous
 62
     0
370
    30
100
AcDbPolyline
 90
       25
 70
     0
 43
0.0
 10
531.8172
 20
386.502808
 10
531.778748
 20
386.354492
 10
531.704895
 20
386.265808
 10
531.645813
 20
386.226837
 10
531.604614
 20
386.208679
 10
531.57251
 20
386.19812
 10
531.544006
 20
386.190582
 10
531.516602
 20
386.18454
 10
531.489014
 20
386.179321
 10
531.460205
 20
386.17453
 10
531.429749
 20
386.170013
 10
531.397339
 20
386.16571
 10
531.362671
 20
386.161469
 10
531.325745
 20
386.157349
 10
531.286316
 20
386.153259
 10
531.244446
 20
386.149231
 10
531.199951
 20
386.145203
 10
531.152832
 20
386.141235
 10
531.103088
 20
386.137238
 10
531.050659
 20
386.13327
 10
530.995605
 20
386.129333
 10
530.937866
 20
386.125366
 10
530.877502
 20
386.12146
 10
530.814392
 20
386.117523
 10
530.748413
 20
386.113586
  0
LWPOLYLINE
  5
DD
330
9F
100
AcDbEntity
  8
0
  6
Continuous
 62
     0
370
    30
100
AcDbPolyline
 90
        7
 70
     0
 43
0.0
 10
530.506836
 20
386.17038
 10
530.503296
 20
386.169403
 10
530.49054
 20
386.164734
 10
530.463928
 20
386.151947
 10
530.415894
 20
386.11792
 10
530.352966
 20
386.038788
 10
530.3172
 20
385.89801
  0
LINE
  5
DE
330
9F
100
AcDbEntity
  8
0
  6
Continuous
 62
     0
370
    30
100
AcDbLine
 10
531.817207
 20
386.502805
 30
0.0
 11
531.817207
 21
388.223441
 31
0.0
  0
LINE
  5
DF
330
9F
100
AcDbEntity
  8
0
  6
Continuous
 62
     0
370
    30
100
AcDbLine
 10
496.817207
 20
386.502805
 30
0.0
 11
496.817207
 21
388.223441
 31
0.0
  0
LWPOLYLINE
  5
E0
330
9F
100
AcDbEntity
  8
0
  6
Continuous
 62
     0
370
     0
100
AcDbPolyline
 90
       11
 70
     0
 43
0.0
 10
493.3172
 20
386.590546
 10
493.352905
 20
386.588257
 10
493.459991
 20
386.585358
 10
493.637756
 20
386.581909
 10
493.885437
 20
386.57785
 10
494.20224
 20
386.573273
 10
494.587067
 20
386.568146
 10
495.038605
 20
386.562469
 10
495.55545
 20
386.556305
 10
496.136322
 20
386.549652
 10
496.8172
 20
386.542114
  0
LWPOLYLINE
  5
E1
330
9F
100
AcDbEntity
  8
0
  6
Continuous
 62
     0
370
     0
100
AcDbPolyline
 90
       11
 70
     0
 43
0.0
 10
496.8172
 20
388.184113
 10
496.170837
 20
388.176971
 10
495.586426
 20
388.170288
 10
495.065918
 20
388.164124
 10
494.610718
 20
388.158417
 10
494.222076
 20
388.153259
 10
493.901398
 20
388.148651
 10
493.649841
 20
388.144562
 10
493.46814
 20
388.141083
 10
493.357056
 20
388.138153
 10
493.3172
 20
388.135712
  0
ARC
  5
E2
330
9F
100
AcDbEntity
  8
0
  6
Continuous
 62
     0
370
     0
100
AcDbCircle
 10
535.057218
 20
396.394029
 30
0.0
 40
8.262392962991608
100
AcDbArc
 50
269.185737
 51
271.802224
  0
LINE
  5
E3
330
9F
100
AcDbEntity
  8
0
  6
Continuous
 62
     0
370
     0
100
AcDbLine
 10
534.939801
 20
388.132471
 30
0.0
 11
534.939801
 21
386.593786
 31
0.0
  0
ARC
  5
E4
330
9F
100
AcDbEntity
  8
0
  6
Continuous
 62
     0
370
     0
100
AcDbCircle
 10
535.057222
 20
378.331783
 30
0.0
 40
8.26283733841953
100
AcDbArc
 50
88.197899
 51
90.814245
  0
ARC
  5
E5
330
9F
100
AcDbEntity
  8
0
  6
Continuous
 62
     0
370
     0
100
AcDbCircle
 10
536.294114
 20
-265.241713
 30
0.0
 40
651.8369058773397
100
AcDbArc
 50
90.119043
 51
90.393518
  0
ARC
  5
E6
330
9F
100
AcDbEntity
  8
0
  6
Continuous
 62
     0
370
     0
100
AcDbCircle
 10
536.293818
 20
1039.932868
 30
0.0
 40
651.8018036067368
100
AcDbArc
 50
269.606486
 51
269.880977
  0
LWPOLYLINE
  5
E7
330
9F
100
AcDbEntity
  8
0
  6
Continuous
 62
     0
370
     0
100
AcDbPolyline
 90
        8
 70
     0
 43
0.0
 10
531.72168
 20
386.280762
 10
532.293823
 20
386.284088
 10
532.815002
 20
386.286957
 10
533.283691
 20
386.289337
 10
533.698608
 20
386.291199
 10
534.058533
 20
386.292572
 10
534.362488
 20
386.293427
 10
534.647766
 20
386.293793
  0
LWPOLYLINE
  5
E8
330
9F
100
AcDbEntity
  8
0
  6
Continuous
 62
     0
370
     0
100
AcDbPolyline
 90
        9
 70
     0
 43
0.0
 10
534.647766
 20
386.293793
 10
534.835205
 20
386.293518
 10
534.957764
 20
386.292664
 10
535.015137
 20
386.291229
 10
535.00708
 20
386.289246
 10
534.933655
 20
386.286713
 10
534.795105
 20
386.28363
 10
534.591858
 20
386.279999
 10
534.292542
 20
386.27536
  0
LWPOLYLINE
  5
E9
330
9F
100
AcDbEntity
  8
0
  6
Continuous
 62
     0
370
     0
100
AcDbPolyline
 90
        5
 70
     0
 43
0.0
 10
534.334717
 20
386.282867
 10
534.364319
 20
386.285126
 10
534.320618
 20
386.286743
 10
534.203918
 20
386.28772
 10
534.004333
 20
386.288086
  0
LWPOLYLINE
  5
EA
330
9F
100
AcDbEntity
  8
0
  6
Continuous
 62
     0
370
     0
100
AcDbPolyline
 90
        7
 70
     0
 43
0.0
 10
534.004333
 20
386.288086
 10
533.775391
 20
386.287842
 10
533.491516
 20
386.287079
 10
533.153442
 20
386.285858
 10
532.762146
 20
386.284149
 10
532.318726
 20
386.281921
 10
531.719482
 20
386.278656
  0
LINE
  5
EB
330
9F
100
AcDbEntity
  8
0
  6
Continuous
 62
     0
370
     0
100
AcDbLine
 10
495.085836
 20
386.265319
 30
0.0
 11
496.960258
 21
386.243294
 31
0.0
  0
ARC
  5
EC
330
9F
100
AcDbEntity
  8
0
  6
Continuous
 62
     0
370
     0
100
AcDbCircle
 10
534.009652
 20
385.990729
 30
0.0
 40
0.297398079575367
100
AcDbArc
 50
91.030538
 51
180.508353
  0
LWPOLYLINE
  5
ED
330
9F
100
AcDbEntity
  8
0
  6
Continuous
 62
     0
370
     0
100
AcDbPolyline
 90
        8
 70
     0
 43
0.0
 10
533.71228
 20
385.988098
 10
533.444458
 20
385.987762
 10
533.103088
 20
385.986755
 10
532.689697
 20
385.985077
 10
532.20575
 20
385.982758
 10
531.653259
 20
385.979767
 10
531.034424
 20
385.976135
 10
530.326599
 20
385.971741
  0
LWPOLYLINE
  5
EE
330
9F
100
AcDbEntity
  8
0
  6
Continuous
 62
     0
370
     0
100
AcDbPolyline
 90
        4
 70
     0
 43
0.0
 10
534.0672
 20
385.984955
 10
534.02771
 20
385.986694
 10
533.909546
 20
385.987732
 10
533.71228
 20
385.988098
  0
LWPOLYLINE
  5
EF
330
9F
100
AcDbEntity
  8
0
  6
Continuous
 62
     0
370
     0
100
AcDbPolyline
 90
       11
 70
     0
 43
0.0
 10
498.3172
 20
385.932953
 10
497.624908
 20
385.940704
 10
496.997864
 20
385.947937
 10
496.438477
 20
385.95462
 10
495.948975
 20
385.960785
 10
495.531403
 20
385.96637
 10
495.187134
 20
385.971344
 10
494.917694
 20
385.975708
 10
494.724182
 20
385.979431
 10
494.607178
 20
385.982513
 10
494.5672
 20
385.984955
  0
ARC
  5
F0
330
9F
100
AcDbEntity
  8
0
  6
Continuous
 62
     0
370
     0
100
AcDbCircle
 10
534.642414
 20
386.591147
 30
0.0
 40
0.2973980795747853
100
AcDbArc
 50
271.030538
 51
0.508353
  0
ARC
  5
F1
330
9F
100
AcDbEntity
  8
0
  6
Continuous
 62
     0
370
     0
100
AcDbCircle
 10
535.877815
 20
992.402592
 30
0.0
 40
603.9713850795822
100
AcDbArc
 50
269.605723
 51
269.883311
  0
ARC
  5
F2
330
9F
100
AcDbEntity
  8
0
  6
Continuous
 62
     0
370
     0
100
AcDbCircle
 10
534.642414
 20
388.135109
 30
0.0
 40
0.2973980856217555
100
AcDbArc
 50
359.491647
 51
88.969461
  0
LWPOLYLINE
  5
F3
330
9F
100
AcDbEntity
  8
0
  6
Continuous
 62
     0
370
     0
100
AcDbPolyline
 90
       14
 70
     0
 43
0.0
 10
534.647766
 20
388.432465
 10
534.841736
 20
388.43277
 10
534.965149
 20
388.433716
 10
535.0177
 20
388.435242
 10
534.998962
 20
388.437408
 10
534.908813
 20
388.440186
 10
534.747742
 20
388.443542
 10
534.516418
 20
388.447479
 10
534.215454
 20
388.451996
 10
533.845886
 20
388.457092
 10
533.40918
 20
388.462708
 10
532.90686
 20
388.468811
 10
532.340454
 20
388.475433
 10
531.674133
 20
388.482971
  0
LINE
  5
F4
330
9F
100
AcDbEntity
  8
0
  6
Continuous
 62
     0
370
     0
100
AcDbLine
 10
495.082651
 20
388.460897
 30
0.0
 11
496.960313
 21
388.482962
 31
0.0
  0
LINE
  5
F5
330
9F
100
AcDbEntity
  8
0
  6
Continuous
 62
     0
370
     0
100
AcDbLine
 10
533.712265
 20
385.613128
 30
0.0
 11
533.712265
 21
385.988091
 31
0.0
  0
LINE
  5
F6
330
9F
100
AcDbEntity
  8
0
  6
Continuous
 62
     0
370
    30
100
AcDbLine
 10
534.067207
 20
385.613129
 30
0.0
 11
534.067207
 21
385.984946
 31
0.0
  0
LINE
  5
F7
330
9F
100
AcDbEntity
  8
0
  6
Continuous
 62
     0
370
    30
100
AcDbLine
 10
494.567207
 20
385.613129
 30
0.0
 11
494.567207
 21
385.984944
 31
0.0
  0
LWPOLYLINE
  5
F8
330
9F
100
AcDbEntity
  8
0
  6
Continuous
 62
     0
370
    30
100
AcDbPolyline
 90
       61
 70
     0
 43
0.0
 10
493.3172
 20
388.135712
 10
493.358459
 20
388.287506
 10
493.467255
 20
388.395569
 10
493.559845
 20
388.430359
 10
493.587708
 20
388.43454
 10
493.600433
 20
388.43573
 10
493.609863
 20
388.43634
 10
493.618622
 20
388.436829
 10
493.627594
 20
388.437256
 10
493.637207
 20
388.437653
 10
493.647705
 20
388.438019
 10
493.659241
 20
388.438416
 10
493.671875
 20
388.438812
 10
493.685608
 20
388.439178
 10
493.700439
 20
388.439575
 10
493.716461
 20
388.440002
 10
493.733643
 20
388.440399
 10
493.752045
 20
388.440826
 10
493.771606
 20
388.441254
 10
493.792389
 20
388.441711
 10
493.814392
 20
388.442169
 10
493.837616
 20
388.442627
 10
493.86203
 20
388.443085
 10
493.887665
 20
388.443573
 10
493.91449
 20
388.444061
 10
493.942535
 20
388.44458
 10
493.971802
 20
388.445099
 10
494.002289
 20
388.445618
 10
494.033966
 20
388.446136
 10
494.066895
 20
388.446686
 10
494.100983
 20
388.447235
 10
494.136322
 20
388.447784
 10
494.172852
 20
388.448364
 10
494.210571
 20
388.448944
 10
494.249512
 20
388.449524
 10
494.289673
 20
388.450134
 10
494.330994
 20
388.450745
 10
494.373535
 20
388.451355
 10
494.417297
 20
388.451996
 10
494.462219
 20
388.452637
 10
494.508362
 20
388.453278
 10
494.555664
 20
388.453949
 10
494.604126
 20
388.45459
 10
494.653748
 20
388.455292
 10
494.704529
 20
388.455963
 10
494.7565
 20
388.456665
 10
494.809662
 20
388.457367
 10
494.864044
 20
388.458069
 10
494.919647
 20
388.458801
 10
494.976501
 20
388.459534
 10
495.034515
 20
388.460297
 10
495.093567
 20
388.461029
 10
495.153564
 20
388.461792
 10
495.214417
 20
388.462555
 10
495.276398
 20
388.463348
 10
495.340454
 20
388.464142
 10
495.407013
 20
388.464935
 10
495.473267
 20
388.465759
 10
495.535339
 20
388.466522
 10
495.597839
 20
388.467316
 10
495.67569
 20
388.468201
  0
LWPOLYLINE
  5
F9
330
9F
100
AcDbEntity
  8
0
  6
Continuous
 62
     0
370
    30
100
AcDbPolyline
 90
       27
 70
     0
 43
0.0
 10
535.3172
 20
388.135712
 10
535.289001
 20
388.262604
 10
535.210999
 20
388.364746
 10
535.112732
 20
388.420197
 10
535.063171
 20
388.432312
 10
535.0448
 20
388.434753
 10
535.034302
 20
388.43573
 10
535.026794
 20
388.436218
 10
535.01947
 20
388.436646
 10
535.012207
 20
388.437012
 10
535.0047
 20
388.437347
 10
534.996765
 20
388.437653
 10
534.988098
 20
388.437988
 10
534.978821
 20
388.438293
 10
534.96875
 20
388.438599
 10
534.958008
 20
388.438934
 10
534.946533
 20
388.43924
 10
534.934204
 20
388.439575
 10
534.921143
 20
388.439911
 10
534.907227
 20
388.440247
 10
534.892578
 20
388.440613
 10
534.877075
 20
388.440948
 10
534.860779
 20
388.441315
 10
534.843689
 20
388.441681
 10
534.825745
 20
388.442047
 10
534.807007
 20
388.442413
 10
534.786743
 20
388.44281
  0
LWPOLYLINE
  5
FA
330
9F
100
AcDbEntity
  8
0
  6
Continuous
 62
     0
370
    30
100
AcDbPolyline
 90
       43
 70
     0
 43
0.0
 10
535.3172
 20
386.590546
 10
535.286194
 20
386.457825
 10
535.201294
 20
386.353607
 10
535.101562
 20
386.30249
 10
535.058411
 20
386.293213
 10
535.041748
 20
386.291168
 10
535.031982
 20
386.290375
 10
535.024231
 20
386.289886
 10
535.016602
 20
386.289459
 10
535.008911
 20
386.289093
 10
535.000854
 20
386.288757
 10
534.992126
 20
386.288422
 10
534.982666
 20
386.288086
 10
534.972412
 20
386.28775
 10
534.961426
 20
386.287415
 10
534.949585
 20
386.287079
 10
534.936829
 20
386.286743
 10
534.923279
 20
386.286407
 10
534.908813
 20
386.286041
 10
534.893494
 20
386.285675
 10
534.877258
 20
386.285309
 10
534.860168
 20
386.284943
 10
534.842163
 20
386.284546
 10
534.823242
 20
386.284149
 10
534.803467
 20
386.283752
 10
534.782715
 20
386.283356
 10
534.761108
 20
386.282959
 10
534.738586
 20
386.282532
 10
534.715149
 20
386.282104
 10
534.690857
 20
386.281677
 10
534.665649
 20
386.281219
 10
534.639526
 20
386.280762
 10
534.612488
 20
386.280334
 10
534.584534
 20
386.279846
 10
534.555664
 20
386.279388
 10
534.52594
 20
386.2789
 10
534.4953
 20
386.278412
 10
534.463745
 20
386.277924
 10
534.431335
 20
386.277435
 10
534.397949
 20
386.276917
 10
534.36377
 20
386.276398
 10
534.328613
 20
386.275879
 10
534.292542
 20
386.27536
  0
LWPOLYLINE
  5
FB
330
9F
100
AcDbEntity
  8
0
  6
Continuous
 62
     0
370
    30
100
AcDbPolyline
 90
       61
 70
     0
 43
0.0
 10
493.3172
 20
386.590546
 10
493.358459
 20
386.438751
 10
493.467255
 20
386.330688
 10
493.559845
 20
386.295898
 10
493.587708
 20
386.291718
 10
493.600433
 20
386.290527
 10
493.609863
 20
386.289917
 10
493.618622
 20
386.289429
 10
493.627594
 20
386.289001
 10
493.637207
 20
386.288605
 10
493.647705
 20
386.288239
 10
493.659241
 20
386.287842
 10
493.671875
 20
386.287445
 10
493.685608
 20
386.287079
 10
493.700439
 20
386.286682
 10
493.716461
 20
386.286255
 10
493.733643
 20
386.285858
 10
493.752045
 20
386.285431
 10
493.771606
 20
386.285004
 10
493.792389
 20
386.284546
 10
493.814392
 20
386.284088
 10
493.837616
 20
386.28363
 10
493.86203
 20
386.283173
 10
493.887665
 20
386.282684
 10
493.91449
 20
386.282196
 10
493.942535
 20
386.281677
 10
493.971802
 20
386.281158
 10
494.002289
 20
386.28064
 10
494.033966
 20
386.280121
 10
494.066895
 20
386.279572
 10
494.100983
 20
386.279022
 10
494.136322
 20
386.278473
 10
494.172852
 20
386.277893
 10
494.210571
 20
386.277313
 10
494.249512
 20
386.276733
 10
494.289673
 20
386.276123
 10
494.330994
 20
386.275513
 10
494.373535
 20
386.274902
 10
494.417297
 20
386.274261
 10
494.462219
 20
386.273621
 10
494.508362
 20
386.27298
 10
494.555664
 20
386.272308
 10
494.604126
 20
386.271637
 10
494.653748
 20
386.270966
 10
494.704529
 20
386.270294
 10
494.7565
 20
386.269592
 10
494.809662
 20
386.26889
 10
494.864044
 20
386.268188
 10
494.919647
 20
386.267456
 10
494.976501
 20
386.266724
 10
495.034515
 20
386.265961
 10
495.093567
 20
386.265228
 10
495.153564
 20
386.264465
 10
495.214417
 20
386.263702
 10
495.276398
 20
386.262909
 10
495.340454
 20
386.262115
 10
495.407013
 20
386.261322
 10
495.473267
 20
386.260498
 10
495.535339
 20
386.259735
 10
495.597839
 20
386.258942
 10
495.67569
 20
386.258057
  0
LWPOLYLINE
  5
FC
330
9F
100
AcDbEntity
  8
0
  6
Continuous
 62
     0
370
    30
100
AcDbPolyline
 90
        5
 70
     0
 43
0.0
 10
494.5672
 20
385.984955
 10
494.54953
 20
386.085785
 10
494.499207
 20
386.17514
 10
494.424133
 20
386.24054
 10
494.341858
 20
386.27536
  0
LWPOLYLINE
  5
FD
330
9F
100
AcDbEntity
  8
0
  6
Continuous
 62
     0
370
    30
100
AcDbPolyline
 90
        9
 70
     0
 43
0.0
 10
534.0672
 20
385.984955
 10
534.086609
 20
386.090515
 10
534.141602
 20
386.182678
 10
534.222229
 20
386.247498
 10
534.293274
 20
386.275543
 10
534.322693
 20
386.281372
 10
534.333679
 20
386.282776
 10
534.338196
 20
386.283203
 10
534.339478
 20
386.283295
  0
LINE
  5
FE
330
9F
100
AcDbEntity
  8
0
  6
Continuous
 62
     0
370
    30
100
AcDbLine
 10
535.317207
 20
386.59054
 30
0.0
 11
535.317207
 21
388.135718
 31
0.0
  0
LINE
  5
FF
330
9F
100
AcDbEntity
  8
0
  6
Continuous
 62
     0
370
    30
100
AcDbLine
 10
493.317207
 20
386.590537
 30
0.0
 11
493.317207
 21
388.13572
 31
0.0
  0
ENDBLK
  5
101
330
9F
100
AcDbEntity
  8
0
100
AcDbBlockEnd
  0
BLOCK
  5
16C
330
103
100
AcDbEntity
  8
0
100
AcDbBlockBegin
  2
c
 70
     0
 10
446.735962
 20
146.428436
 30
0.0
  3
c
  1

  0
LINE
  5
104
330
103
100
AcDbEntity
  8
0
  6
Continuous
 62
     0
370
    30
100
AcDbLine
 10
657.864866
 20
473.82325
 30
0.0
 11
655.864866
 21
473.82325
 31
0.0
  0
LINE
  5
105
330
103
100
AcDbEntity
  8
0
  6
Continuous
 62
     0
370
    30
100
AcDbLine
 10
655.864866
 20
751.82325
 30
0.0
 11
657.864866
 21
751.82325
 31
0.0
  0
LINE
  5
106
330
103
100
AcDbEntity
  8
0
  6
Continuous
 62
     0
370
    30
100
AcDbLine
 10
655.864866
 20
751.82325
 30
0.0
 11
655.864866
 21
473.82325
 31
0.0
  0
LINE
  5
107
330
103
100
AcDbEntity
  8
0
  6
Continuous
 62
     0
370
    30
100
AcDbLine
 10
657.864866
 20
473.82325
 30
0.0
 11
657.864866
 21
751.82325
 31
0.0
  0
LINE
  5
108
330
103
100
AcDbEntity
  8
0
  6
Continuous
 62
     0
370
    30
100
AcDbLine
 10
710.864864
 20
526.32325
 30
0.0
 11
710.864864
 21
569.32325
 31
0.0
  0
LINE
  5
109
330
103
100
AcDbEntity
  8
0
  6
Continuous
 62
     0
370
    30
100
AcDbLine
 10
710.864864
 20
526.32325
 30
0.0
 11
710.364864
 21
525.82325
 31
0.0
  0
LINE
  5
10A
330
103
100
AcDbEntity
  8
0
  6
Continuous
 62
     0
370
    30
100
AcDbLine
 10
710.364864
 20
525.82325
 30
0.0
 11
710.364864
 21
569.82325
 31
0.0
  0
LINE
  5
10B
330
103
100
AcDbEntity
  8
0
  6
Continuous
 62
     0
370
    30
100
AcDbLine
 10
697.114864
 20
525.82325
 30
0.0
 11
660.864864
 21
525.82325
 31
0.0
  0
LINE
  5
10C
330
103
100
AcDbEntity
  8
0
  6
Continuous
 62
     0
370
    30
100
AcDbLine
 10
660.864864
 20
569.82325
 30
0.0
 11
660.864864
 21
525.82325
 31
0.0
  0
LINE
  5
10D
330
103
100
AcDbEntity
  8
0
  6
Continuous
 62
     0
370
    30
100
AcDbLine
 10
706.614864
 20
525.82325
 30
0.0
 11
710.364864
 21
525.82325
 31
0.0
  0
LWPOLYLINE
  5
10E
330
103
100
AcDbEntity
  8
0
  6
Continuous
 62
     0
370
    30
100
AcDbPolyline
 90
       22
 70
     0
 43
0.0
 10
705.31488
 20
577.653259
 10
705.281921
 20
577.653259
 10
705.177307
 20
577.653259
 10
704.995117
 20
577.653259
 10
704.734131
 20
577.653259
 10
704.398987
 20
577.653259
 10
704.000122
 20
577.653259
 10
703.552612
 20
577.653259
 10
703.074707
 20
577.653259
 10
702.585083
 20
577.653259
 10
702.101013
 20
577.653259
 10
701.630432
 20
577.653259
 10
701.146423
 20
577.653259
 10
700.656799
 20
577.653259
 10
700.178772
 20
577.653259
 10
699.73114
 20
577.653259
 10
699.332031
 20
577.653259
 10
698.996643
 20
577.653259
 10
698.735413
 20
577.653259
 10
698.552917
 20
577.653259
 10
698.448059
 20
577.653259
 10
698.414856
 20
577.653259
  0
LINE
  5
10F
330
103
100
AcDbEntity
  8
0
  6
Continuous
 62
     0
370
    30
100
AcDbLine
 10
705.314864
 20
577.65325
 30
0.0
 11
705.814864
 21
577.15325
 31
0.0
  0
LWPOLYLINE
  5
110
330
103
100
AcDbEntity
  8
0
  6
Continuous
 62
     0
370
    30
100
AcDbPolyline
 90
       24
 70
     0
 43
0.0
 10
705.81488
 20
577.153259
 10
705.777954
 20
577.153259
 10
705.66864
 20
577.153259
 10
705.489197
 20
577.153259
 10
705.242065
 20
577.153259
 10
704.932068
 20
577.153259
 10
704.565552
 20
577.153259
 10
704.148865
 20
577.153259
 10
703.689636
 20
577.153259
 10
703.196777
 20
577.153259
 10
702.67926
 20
577.153259
 10
702.146545
 20
577.153259
 10
701.608459
 20
577.153259
 10
701.075195
 20
577.153259
 10
700.556763
 20
577.153259
 10
700.062439
 20
577.153259
 10
699.601379
 20
577.153259
 10
699.182556
 20
577.153259
 10
698.81366
 20
577.153259
 10
698.500916
 20
577.153259
 10
698.250732
 20
577.153259
 10
698.067993
 20
577.153259
 10
697.955322
 20
577.153259
 10
697.914856
 20
577.153259
  0
LINE
  5
111
330
103
100
AcDbEntity
  8
0
  6
Continuous
 62
     0
370
    30
100
AcDbLine
 10
705.814864
 20
569.82325
 30
0.0
 11
705.814864
 21
577.15325
 31
0.0
  0
LWPOLYLINE
  5
112
330
103
100
AcDbEntity
  8
0
  6
Continuous
 62
     0
370
    30
100
AcDbPolyline
 90
       24
 70
     0
 43
0.0
 10
697.914856
 20
569.823181
 10
697.952148
 20
569.816345
 10
698.062195
 20
569.796997
 10
698.242493
 20
569.766724
 10
698.490234
 20
569.727295
 10
698.800537
 20
569.681519
 10
699.167236
 20
569.633118
 10
699.584106
 20
569.585632
 10
700.043823
 20
569.542419
 10
700.537537
 20
569.50647
 10
701.056396
 20
569.480835
 10
701.591125
 20
569.467834
 10
702.131226
 20
569.467773
 10
702.666016
 20
569.480591
 10
703.18512
 20
569.506042
 10
703.67926
 20
569.54187
 10
704.139526
 20
569.585022
 10
704.557129
 20
569.632507
 10
704.924683
 20
569.680908
 10
705.235779
 20
569.726746
 10
705.484192
 20
569.766235
 10
705.664917
 20
569.79657
 10
705.775757
 20
569.816101
 10
705.81488
 20
569.823242
  0
LWPOLYLINE
  5
113
330
103
100
AcDbEntity
  8
0
  6
Continuous
 62
     0
370
     0
100
AcDbPolyline
 90
       26
 70
     0
 43
0.0
 10
697.114868
 20
525.823242
 10
697.153076
 20
525.83136
 10
697.264404
 20
525.855042
 10
697.448669
 20
525.892883
 10
697.702087
 20
525.942505
 10
698.020935
 20
526.000916
 10
698.399841
 20
526.064453
 10
698.832642
 20
526.12915
 10
699.312744
 20
526.191101
 10
699.833679
 20
526.246338
 10
700.388489
 20
526.291321
 10
700.967834
 20
526.323364
 10
701.561829
 20
526.339966
 10
702.160645
 20
526.340088
 10
702.754761
 20
526.323669
 10
703.334412
 20
526.291809
 10
703.889526
 20
526.246948
 10
704.410889
 20
526.191833
 10
704.891541
 20
526.129944
 10
705.324951
 20
526.065247
 10
705.70459
 20
526.001709
 10
706.024109
 20
525.943176
 10
706.27832
 20
525.893433
 10
706.463562
 20
525.855408
 10
706.575745
 20
525.831543
 10
706.614868
 20
525.823242
  0
LWPOLYLINE
  5
114
330
103
100
AcDbEntity
  8
0
  6
Continuous
 62
     0
370
     0
100
AcDbPolyline
 90
       24
 70
     0
 43
0.0
 10
705.964478
 20
569.823242
 10
705.924988
 20
569.816101
 10
705.812439
 20
569.795349
 10
705.624939
 20
569.762512
 10
705.368225
 20
569.71991
 10
705.046448
 20
569.670776
 10
704.665955
 20
569.618591
 10
704.233948
 20
569.567261
 10
703.757874
 20
569.520569
 10
703.245239
 20
569.481934
 10
702.705566
 20
569.454224
 10
702.149597
 20
569.439758
 10
701.588379
 20
569.439697
 10
701.033447
 20
569.453796
 10
700.495239
 20
569.481201
 10
699.98291
 20
569.519653
 10
699.505859
 20
569.566223
 10
699.072632
 20
569.617432
 10
698.690918
 20
569.669617
 10
698.367737
 20
569.718933
 10
698.109558
 20
569.761658
 10
697.920715
 20
569.794739
 10
697.806274
 20
569.815796
 10
697.764893
 20
569.823242
  0
LINE
  5
115
330
103
100
AcDbEntity
  8
0
  6
Continuous
 62
     0
370
    30
100
AcDbLine
 10
697.764864
 20
569.82325
 30
0.0
 11
697.914864
 21
569.82325
 31
0.0
  0
LINE
  5
116
330
103
100
AcDbEntity
  8
0
  6
Continuous
 62
     0
370
    30
100
AcDbLine
 10
705.964467
 20
569.82325
 30
0.0
 11
705.814864
 21
569.82325
 31
0.0
  0
LINE
  5
117
330
103
100
AcDbEntity
  8
0
  6
Continuous
 62
     0
370
    30
100
AcDbLine
 10
697.914864
 20
577.15325
 30
0.0
 11
697.914864
 21
569.823174
 31
0.0
  0
LINE
  5
118
330
103
100
AcDbEntity
  8
0
  6
Continuous
 62
     0
370
    30
100
AcDbLine
 10
706.614864
 20
525.82325
 30
0.0
 11
697.114864
 21
525.82325
 31
0.0
  0
LINE
  5
119
330
103
100
AcDbEntity
  8
0
  6
Continuous
 62
     0
370
    30
100
AcDbLine
 10
697.914864
 20
577.15325
 30
0.0
 11
698.414864
 21
577.65325
 31
0.0
  0
LINE
  5
11A
330
103
100
AcDbEntity
  8
0
  6
Continuous
 62
     0
370
    30
100
AcDbLine
 10
710.364864
 20
569.82325
 30
0.0
 11
705.964467
 21
569.82325
 31
0.0
  0
LINE
  5
11B
330
103
100
AcDbEntity
  8
0
  6
Continuous
 62
     0
370
    30
100
AcDbLine
 10
697.764864
 20
569.82325
 30
0.0
 11
660.864864
 21
569.82325
 31
0.0
  0
LINE
  5
11C
330
103
100
AcDbEntity
  8
0
  6
Continuous
 62
     0
370
    30
100
AcDbLine
 10
710.864864
 20
569.32325
 30
0.0
 11
710.364864
 21
569.82325
 31
0.0
  0
LWPOLYLINE
  5
11D
330
103
100
AcDbEntity
  8
0
  6
Continuous
 62
     0
370
     0
100
AcDbPolyline
 90
       42
 70
     0
 43
0.0
 10
698.364868
 20
697.323242
 10
698.326355
 20
697.30896
 10
698.212036
 20
697.266907
 10
698.024902
 20
697.198792
 10
697.769592
 20
697.107422
 10
697.452148
 20
696.996643
 10
697.07843
 20
696.870117
 10
696.654236
 20
696.731628
 10
696.184998
 20
696.584839
 10
695.6745
 20
696.433167
 10
695.125732
 20
696.279724
 10
694.541992
 20
696.127563
 10
693.926392
 20
695.979675
 10
693.282227
 20
695.838928
 10
692.612915
 20
695.708191
 10
691.921631
 20
695.590332
 10
691.211548
 20
695.488098
 10
690.485229
 20
695.403442
 10
689.745178
 20
695.338196
 10
688.994446
 20
695.293823
 10
688.237305
 20
695.271301
 10
687.478088
 20
695.271484
 10
686.72113
 20
695.294373
 10
685.97052
 20
695.339233
 10
685.230286
 20
695.404968
 10
684.504028
 20
695.490051
 10
683.794922
 20
695.592407
 10
683.10614
 20
695.709839
 10
682.440308
 20
695.839905
 10
681.799927
 20
695.979919
 10
681.187622
 20
696.127258
 10
680.606018
 20
696.279053
 10
680.058044
 20
696.432434
 10
679.54718
 20
696.584229
 10
679.077271
 20
696.73114
 10
678.65271
 20
696.869751
 10
678.27887
 20
696.996399
 10
677.961304
 20
697.107178
 10
677.705811
 20
697.198486
 10
677.518372
 20
697.266663
 10
677.403748
 20
697.308777
 10
677.364868
 20
697.323242
  0
ARC
  5
11E
330
103
100
AcDbEntity
  8
0
  6
Continuous
 62
     0
370
    30
100
AcDbCircle
 10
698.364863
 20
701.323246
 30
0.0
 40
4.000000000000654
100
AcDbArc
 50
180.0
 51
270.0
  0
LWPOLYLINE
  5
11F
330
103
100
AcDbEntity
  8
0
  6
Continuous
 62
     0
370
     0
100
AcDbPolyline
 90
       36
 70
     0
 43
0.0
 10
681.364868
 20
701.323242
 10
681.397766
 20
701.2995
 10
681.494568
 20
701.230347
 10
681.651978
 20
701.11969
 10
681.864563
 20
700.973816
 10
682.126465
 20
700.799927
 10
682.432129
 20
700.605164
 10
682.776184
 20
700.396912
 10
683.154419
 20
700.181702
 10
683.562927
 20
699.96582
 10
683.998657
 20
699.755066
 10
684.458862
 20
699.555054
 10
684.940979
 20
699.371094
 10
685.442383
 20
699.20813
 10
685.96051
 20
699.070984
 10
686.492126
 20
698.963684
 10
687.033936
 20
698.889954
 10
687.582031
 20
698.852051
 10
688.132385
 20
698.851562
 10
688.680664
 20
698.888489
 10
689.222595
 20
698.961121
 10
689.754211
 20
699.067322
 10
690.272888
 20
699.203857
 10
690.776245
 20
699.366943
 10
691.261108
 20
699.551697
 10
691.724304
 20
699.752502
 10
692.162476
 20
699.963745
 10
692.572449
 20
700.179932
 10
692.950928
 20
700.395264
 10
693.294922
 20
700.603577
 10
693.60083
 20
700.79834
 10
693.863159
 20
700.972473
 10
694.076233
 20
701.118591
 10
694.234131
 20
701.229675
 10
694.331421
 20
701.299133
 10
694.364868
 20
701.323242
  0
LINE
  5
120
330
103
100
AcDbEntity
  8
0
  6
Continuous
 62
     0
370
    30
100
AcDbLine
 10
694.364863
 20
701.323246
 30
0.0
 11
694.364863
 21
712.823246
 31
0.0
  0
LINE
  5
121
330
103
100
AcDbEntity
  8
0
  6
Continuous
 62
     0
370
     0
100
AcDbLine
 10
694.364863
 20
712.823246
 30
0.0
 11
681.364863
 21
712.823246
 31
0.0
  0
LWPOLYLINE
  5
122
330
103
100
AcDbEntity
  8
0
  6
Continuous
 62
     0
370
    30
100
AcDbPolyline
 90
       29
 70
     0
 43
0.0
 10
693.864868
 20
713.323242
 10
693.833069
 20
713.323242
 10
693.733093
 20
713.323242
 10
693.55957
 20
713.323242
 10
693.309204
 20
713.323242
 10
692.981628
 20
713.323242
 10
692.579651
 20
713.323242
 10
692.109375
 20
713.323242
 10
691.579956
 20
713.323242
 10
691.002869
 20
713.323242
 10
690.391357
 20
713.323242
 10
689.759277
 20
713.323242
 10
689.120178
 20
713.323242
 10
688.486633
 20
713.323242
 10
687.869446
 20
713.323242
 10
687.252502
 20
713.323242
 10
686.619141
 20
713.323242
 10
685.980042
 20
713.323242
 10
685.347778
 20
713.323242
 10
684.73584
 20
713.323242
 10
684.158142
 20
713.323242
 10
683.627869
 20
713.323242
 10
683.156677
 20
713.323242
 10
682.753601
 20
713.323242
 10
682.424927
 20
713.323242
 10
682.17334
 20
713.323242
 10
681.998657
 20
713.323242
 10
681.897644
 20
713.323242
 10
681.864868
 20
713.323242
  0
LINE
  5
123
330
103
100
AcDbEntity
  8
0
  6
Continuous
 62
     0
370
    30
100
AcDbLine
 10
660.864863
 20
658.323246
 30
0.0
 11
685.964863
 21
658.323246
 31
0.0
  0
LINE
  5
124
330
103
100
AcDbEntity
  8
0
  6
Continuous
 62
     0
370
    30
100
AcDbLine
 10
696.164863
 20
658.323246
 30
0.0
 11
702.364863
 21
658.323246
 31
0.0
  0
LINE
  5
125
330
103
100
AcDbEntity
  8
0
  6
Continuous
 62
     0
370
     0
100
AcDbLine
 10
702.364863
 20
658.323246
 30
0.0
 11
702.364863
 21
697.323246
 31
0.0
  0
LINE
  5
126
330
103
100
AcDbEntity
  8
0
  6
Continuous
 62
     0
370
    30
100
AcDbLine
 10
660.864863
 20
697.323246
 30
0.0
 11
660.864863
 21
658.323246
 31
0.0
  0
LINE
  5
127
330
103
100
AcDbEntity
  8
0
  6
Continuous
 62
     0
370
    30
100
AcDbLine
 10
702.864863
 20
658.823246
 30
0.0
 11
702.864863
 21
696.823246
 31
0.0
  0
ARC
  5
128
330
103
100
AcDbEntity
  8
0
  6
Continuous
 62
     0
370
    30
100
AcDbCircle
 10
702.364863
 20
658.823246
 30
0.0
 40
0.4999999999991473
100
AcDbArc
 50
270.0
 51
0.0
  0
ARC
  5
129
330
103
100
AcDbEntity
  8
0
  6
Continuous
 62
     0
370
    30
100
AcDbCircle
 10
693.864863
 20
712.823246
 30
0.0
 40
0.4999999999961384
100
AcDbArc
 50
0.0
 51
89.999919
  0
LWPOLYLINE
  5
12A
330
103
100
AcDbEntity
  8
0
  6
Continuous
 62
     0
370
     0
100
AcDbPolyline
 90
       27
 70
     0
 43
0.0
 10
685.964844
 20
658.323242
 10
686.003723
 20
658.333069
 10
686.114136
 20
658.361755
 10
686.297424
 20
658.407532
 10
686.549683
 20
658.467957
 10
686.867004
 20
658.539551
 10
687.24469
 20
658.618225
 10
687.677124
 20
658.699524
 10
688.158203
 20
658.77887
 10
688.681641
 20
658.851746
 10
689.241699
 20
658.913757
 10
689.830322
 20
658.961426
 10
690.43811
 20
658.991516
 10
691.05542
 20
659.001892
 10
691.672913
 20
658.992126
 10
692.281067
 20
658.962585
 10
692.870483
 20
658.915466
 10
693.431519
 20
658.853821
 10
693.956177
 20
658.781189
 10
694.438538
 20
658.701965
 10
694.872559
 20
658.620667
 10
695.252075
 20
658.54187
 10
695.571289
 20
658.469971
 10
695.825562
 20
658.40918
 10
696.011108
 20
658.362854
 10
696.123779
 20
658.333679
 10
696.164856
 20
658.323242
  0
LWPOLYLINE
  5
12B
330
103
100
AcDbEntity
  8
0
  6
Continuous
 62
     0
370
    30
100
AcDbPolyline
 90
        9
 70
     0
 43
0.0
 10
685.964844
 20
658.323242
 10
687.227173
 20
658.334106
 10
688.489502
 20
658.344543
 10
689.751831
 20
658.3479
 10
691.014221
 20
658.348022
 10
692.27655
 20
658.3479
 10
693.53894
 20
658.345032
 10
694.801208
 20
658.335022
 10
696.164856
 20
658.323242
  0
ARC
  5
12C
330
103
100
AcDbEntity
  8
0
  6
Continuous
 62
     0
370
    30
100
AcDbCircle
 10
681.864866
 20
712.823243
 30
0.0
 40
0.5000034422815469
100
AcDbArc
 50
90.000394
 51
179.999606
  0
ARC
  5
12D
330
103
100
AcDbEntity
  8
0
  6
Continuous
 62
     0
370
    30
100
AcDbCircle
 10
702.36486
 20
696.823243
 30
0.0
 40
0.5000027030543939
100
AcDbArc
 50
0.00031
 51
89.99969
  0
LINE
  5
12E
330
103
100
AcDbEntity
  8
0
  6
Continuous
 62
     0
370
    30
100
AcDbLine
 10
660.864863
 20
697.323246
 30
0.0
 11
677.364869
 21
697.323246
 31
0.0
  0
LINE
  5
12F
330
103
100
AcDbEntity
  8
0
  6
Continuous
 62
     0
370
    30
100
AcDbLine
 10
698.364863
 20
697.323246
 30
0.0
 11
702.364863
 21
697.323246
 31
0.0
  0
LINE
  5
130
330
103
100
AcDbEntity
  8
0
  6
Continuous
 62
     0
370
    30
100
AcDbLine
 10
681.364863
 20
701.323246
 30
0.0
 11
681.364863
 21
712.823246
 31
0.0
  0
ARC
  5
131
330
103
100
AcDbEntity
  8
0
  6
Continuous
 62
     0
370
    30
100
AcDbCircle
 10
677.364844
 20
701.323258
 30
0.0
 40
4.000019079334921
100
AcDbArc
 50
270.000357
 51
359.999829
  0
LWPOLYLINE
  5
132
330
103
100
AcDbEntity
  8
0
  6
Continuous
 62
     0
370
     0
100
AcDbPolyline
 90
       35
 70
     0
 43
0.0
 10
660.131287
 20
661.823242
 10
660.119324
 20
661.440247
 10
660.108398
 20
661.128906
 10
660.098633
 20
660.890381
 10
660.090027
 20
660.726013
 10
660.082642
 20
660.636353
 10
660.076477
 20
660.621826
 10
660.071594
 20
660.682556
 10
660.067932
 20
660.818176
 10
660.065613
 20
661.028137
 10
660.064575
 20
661.311646
 10
660.06488
 20
661.667297
 10
660.066467
 20
662.093445
 10
660.069397
 20
662.588501
 10
660.073608
 20
663.150146
 10
660.079102
 20
663.77594
 10
660.085815
 20
664.463135
 10
660.09375
 20
665.208801
 10
660.102905
 20
666.00946
 10
660.113159
 20
666.861877
 10
660.124512
 20
667.762146
 10
660.136963
 20
668.70636
 10
660.150391
 20
669.69043
 10
660.164734
 20
670.710083
 10
660.179993
 20
671.760742
 10
660.195984
 20
672.837952
 10
660.212769
 20
673.93689
 10
660.230225
 20
675.052795
 10
660.248291
 20
676.180725
 10
660.266785
 20
677.315918
 10
660.285767
 20
678.453247
 10
660.305115
 20
679.587708
 10
660.324646
 20
680.714478
 10
660.344421
 20
681.828918
 10
660.364868
 20
682.958496
  0
LINE
  5
133
330
103
100
AcDbEntity
  8
0
  6
Continuous
 62
     0
370
     0
100
AcDbLine
 10
660.364865
 20
682.9585
 30
0.0
 11
660.364865
 21
682.689795
 31
0.0
  0
LINE
  5
134
330
103
100
AcDbEntity
  8
0
  6
Continuous
 62
     0
370
    30
100
AcDbLine
 10
660.364865
 20
682.689795
 30
0.0
 11
660.364865
 21
682.600227
 31
0.0
  0
LWPOLYLINE
  5
135
330
103
100
AcDbEntity
  8
0
  6
Continuous
 62
     0
370
    30
100
AcDbPolyline
 90
       28
 70
     0
 43
0.0
 10
660.364868
 20
682.60022
 10
660.34552
 20
681.530762
 10
660.326233
 20
680.443542
 10
660.30719
 20
679.343689
 10
660.288391
 20
678.236511
 10
660.269958
 20
677.12738
 10
660.252014
 20
676.021545
 10
660.234558
 20
674.924377
 10
660.217773
 20
673.841125
 10
660.20166
 20
672.777039
 10
660.18634
 20
671.737183
 10
660.171936
 20
670.726501
 10
660.158386
 20
669.75
 10
660.145874
 20
668.812256
 10
660.134338
 20
667.917786
 10
660.124023
 20
667.070984
 10
660.114807
 20
666.275879
 10
660.10675
 20
665.536194
 10
660.099976
 20
664.855652
 10
660.094482
 20
664.237366
 10
660.090271
 20
663.684387
 10
660.087402
 20
663.199463
 10
660.085876
 20
662.784729
 10
660.085693
 20
662.442322
 10
660.086792
 20
662.17395
 10
660.089294
 20
661.980652
 10
660.093079
 20
661.863647
 10
660.098328
 20
661.823303
  0
LINE
  5
136
330
103
100
AcDbEntity
  8
0
  6
Continuous
 62
     0
370
     0
100
AcDbLine
 10
660.064819
 20
683.048068
 30
0.0
 11
658.164911
 21
683.048068
 31
0.0
  0
LWPOLYLINE
  5
137
330
103
100
AcDbEntity
  8
0
  6
Continuous
 62
     0
370
     0
100
AcDbPolyline
 90
       29
 70
     0
 43
0.0
 10
658.164917
 20
683.048096
 10
658.184998
 20
681.920532
 10
658.204956
 20
680.773132
 10
658.224792
 20
679.612671
 10
658.244324
 20
678.445679
 10
658.263428
 20
677.276978
 10
658.282166
 20
676.110596
 10
658.300354
 20
674.95105
 10
658.317993
 20
673.803467
 10
658.3349
 20
672.673218
 10
658.351074
 20
671.565796
 10
658.366394
 20
670.486511
 10
658.380859
 20
669.440247
 10
658.394287
 20
668.432068
 10
658.406738
 20
667.466614
 10
658.418091
 20
666.547974
 10
658.428284
 20
665.679626
 10
658.437317
 20
664.86499
 10
658.445129
 20
664.107727
 10
658.451721
 20
663.411316
 10
658.457031
 20
662.779236
 10
658.460999
 20
662.214905
 10
658.463684
 20
661.720581
 10
658.464966
 20
661.298279
 10
658.464966
 20
660.950073
 10
658.463562
 20
660.67749
 10
658.460876
 20
660.481506
 10
658.456848
 20
660.363281
 10
658.451416
 20
660.323425
  0
LWPOLYLINE
  5
138
330
103
100
AcDbEntity
  8
0
  6
Continuous
 62
     0
370
     0
100
AcDbPolyline
 90
       29
 70
     0
 43
0.0
 10
659.778259
 20
660.323425
 10
659.772949
 20
660.362549
 10
659.76886
 20
660.480103
 10
659.766174
 20
660.675354
 10
659.764771
 20
660.947266
 10
659.764709
 20
661.2948
 10
659.766052
 20
661.716431
 10
659.768677
 20
662.210144
 10
659.772644
 20
662.773865
 10
659.777954
 20
663.405273
 10
659.784546
 20
664.101135
 10
659.792358
 20
664.85791
 10
659.801331
 20
665.671997
 10
659.811584
 20
666.539917
 10
659.822876
 20
667.45813
 10
659.835327
 20
668.423096
 10
659.848755
 20
669.430969
 10
659.863159
 20
670.476868
 10
659.87854
 20
671.555908
 10
659.894653
 20
672.663147
 10
659.911621
 20
673.793152
 10
659.929199
 20
674.940613
 10
659.947388
 20
676.100037
 10
659.966125
 20
677.266479
 10
659.985229
 20
678.43512
 10
660.004761
 20
679.602173
 10
660.024597
 20
680.762695
 10
660.044556
 20
681.910278
 10
660.064819
 20
683.048096
  0
LWPOLYLINE
  5
139
330
103
100
AcDbEntity
  8
0
  6
Continuous
 62
     0
370
    30
100
AcDbPolyline
 90
       26
 70
     0
 43
0.0
 10
658.098083
 20
663.823242
 10
658.102844
 20
663.862
 10
658.106262
 20
663.974792
 10
658.108337
 20
664.155884
 10
658.109192
 20
664.399048
 10
658.108887
 20
664.703064
 10
658.107361
 20
665.078979
 10
658.104553
 20
665.529602
 10
658.100403
 20
666.056396
 10
658.094849
 20
666.659424
 10
658.087891
 20
667.337402
 10
658.079468
 20
668.087769
 10
658.069641
 20
668.906067
 10
658.058472
 20
669.786682
 10
658.046021
 20
670.722412
 10
658.03241
 20
671.704956
 10
658.017761
 20
672.725098
 10
658.002197
 20
673.772888
 10
657.985901
 20
674.838013
 10
657.968994
 20
675.910156
 10
657.951721
 20
676.97937
 10
657.934265
 20
678.036133
 10
657.916748
 20
679.071899
 10
657.899292
 20
680.079041
 10
657.88208
 20
681.050964
 10
657.864868
 20
682.003113
  0
LWPOLYLINE
  5
13A
330
103
100
AcDbEntity
  8
0
  6
Continuous
 62
     0
370
     0
100
AcDbPolyline
 90
       38
 70
     0
 43
0.0
 10
657.864868
 20
682.958496
 10
657.885071
 20
681.841309
 10
657.905212
 20
680.705933
 10
657.925171
 20
679.557373
 10
657.944824
 20
678.40094
 10
657.964172
 20
677.241821
 10
657.983032
 20
676.085388
 10
658.001343
 20
674.936768
 10
658.019043
 20
673.80127
 10
658.036011
 20
672.68396
 10
658.052246
 20
671.590027
 10
658.067627
 20
670.524353
 10
658.082092
 20
669.491821
 10
658.095581
 20
668.49707
 10
658.107971
 20
667.544678
 10
658.119324
 20
666.638916
 10
658.129456
 20
665.783936
 10
658.138428
 20
664.983582
 10
658.146179
 20
664.241516
 10
658.152588
 20
663.561157
 10
658.157715
 20
662.945496
 10
658.16156
 20
662.3974
 10
658.164001
 20
661.919312
 10
658.1651
 20
661.513428
 10
658.164856
 20
661.18158
 10
658.163208
 20
660.925354
 10
658.160278
 20
660.745789
 10
658.155945
 20
660.643738
 10
658.15033
 20
660.61969
 10
658.143372
 20
660.673767
 10
658.135193
 20
660.805664
 10
658.125732
 20
661.014832
 10
658.115112
 20
661.300354
 10
658.103394
 20
661.660828
 10
658.090576
 20
662.094727
 10
658.076721
 20
662.599976
 10
658.06189
 20
663.174377
 10
658.045959
 20
663.823242
  0
LWPOLYLINE
  5
13B
330
103
100
AcDbEntity
  8
0
  6
Continuous
 62
     0
370
     0
100
AcDbPolyline
 90
        8
 70
     0
 43
0.0
 10
658.016724
 20
690.557068
 10
657.996887
 20
689.653442
 10
657.976257
 20
688.683228
 10
657.955017
 20
687.651978
 10
657.933289
 20
686.565186
 10
657.911194
 20
685.42926
 10
657.888794
 20
684.250488
 10
657.864868
 20
682.958496
  0
LWPOLYLINE
  5
13C
330
103
100
AcDbEntity
  8
0
  6
Continuous
 62
     0
370
     0
100
AcDbPolyline
 90
       20
 70
     0
 43
0.0
 10
660.064819
 20
683.048096
 10
660.0448
 20
684.14856
 10
660.024902
 20
685.222412
 10
660.005127
 20
686.263428
 10
659.985657
 20
687.265564
 10
659.966614
 20
688.224854
 10
659.947937
 20
689.138184
 10
659.92981
 20
690.001892
 10
659.912231
 20
690.812073
 10
659.895325
 20
691.565063
 10
659.87915
 20
692.25708
 10
659.863831
 20
692.884705
 10
659.849426
 20
693.44519
 10
659.835999
 20
693.936096
 10
659.823547
 20
694.355042
 10
659.812195
 20
694.700317
 10
659.801941
 20
694.970886
 10
659.792908
 20
695.165405
 10
659.785034
 20
695.282898
 10
659.778259
 20
695.323059
  0
LWPOLYLINE
  5
13D
330
103
100
AcDbEntity
  8
0
  6
Continuous
 62
     0
370
     0
100
AcDbPolyline
 90
       20
 70
     0
 43
0.0
 10
658.451416
 20
695.323059
 10
658.444824
 20
695.284119
 10
658.436951
 20
695.167847
 10
658.427917
 20
694.974487
 10
658.417725
 20
694.705139
 10
658.406372
 20
694.360962
 10
658.393982
 20
693.943176
 10
658.380493
 20
693.453369
 10
658.366089
 20
692.893982
 10
658.35083
 20
692.267395
 10
658.334656
 20
691.576355
 10
658.31781
 20
690.82428
 10
658.300232
 20
690.014954
 10
658.282104
 20
689.1521
 10
658.263428
 20
688.239502
 10
658.244324
 20
687.280945
 10
658.224915
 20
686.279419
 10
658.205139
 20
685.238953
 10
658.185242
 20
684.165527
 10
658.164917
 20
683.048096
  0
LWPOLYLINE
  5
13E
330
103
100
AcDbEntity
  8
0
  6
Continuous
 62
     0
370
     0
100
AcDbPolyline
 90
       10
 70
     0
 43
0.0
 10
660.364868
 20
682.958496
 10
660.344604
 20
684.056213
 10
660.324402
 20
685.125488
 10
660.304382
 20
686.161377
 10
660.284607
 20
687.159119
 10
660.265259
 20
688.114258
 10
660.246338
 20
689.022339
 10
660.227966
 20
689.879272
 10
660.210205
 20
690.681091
 10
660.190857
 20
691.522278
  0
LWPOLYLINE
  5
13F
330
103
100
AcDbEntity
  8
0
  6
Continuous
 62
     0
370
    30
100
AcDbPolyline
 90
        5
 70
     0
 43
0.0
 10
660.664795
 20
682.605103
 10
660.561523
 20
682.608887
 10
660.470764
 20
682.623169
 10
660.40387
 20
682.64624
 10
660.364868
 20
682.689819
  0
LWPOLYLINE
  5
140
330
103
100
AcDbEntity
  8
0
  6
Continuous
 62
     0
370
     0
100
AcDbPolyline
 90
       19
 70
     0
 43
0.0
 10
660.393372
 20
693.823181
 10
660.400024
 20
693.78363
 10
660.407959
 20
693.664917
 10
660.417236
 20
693.467773
 10
660.427673
 20
693.193176
 10
660.43927
 20
692.842407
 10
660.452026
 20
692.417297
 10
660.465881
 20
691.919983
 10
660.480652
 20
691.352783
 10
660.496338
 20
690.718628
 10
660.512878
 20
690.02063
 10
660.530151
 20
689.262146
 10
660.548157
 20
688.447144
 10
660.56665
 20
687.57959
 10
660.585693
 20
686.663757
 10
660.605103
 20
685.703918
 10
660.624817
 20
684.70459
 10
660.644714
 20
683.671387
 10
660.664795
 20
682.605103
  0
LWPOLYLINE
  5
141
330
103
100
AcDbEntity
  8
0
  6
Continuous
 62
     0
370
     0
100
AcDbPolyline
 90
        5
 70
     0
 43
0.0
 10
660.364868
 20
682.958496
 10
660.346313
 20
682.98938
 10
660.293335
 20
683.016541
 10
660.212097
 20
683.03656
 10
660.064819
 20
683.048096
  0
LWPOLYLINE
  5
142
330
103
100
AcDbEntity
  8
0
  6
Continuous
 62
     0
370
     0
100
AcDbPolyline
 90
        5
 70
     0
 43
0.0
 10
658.164917
 20
683.048096
 10
658.061523
 20
683.042542
 10
657.970398
 20
683.026733
 10
657.903503
 20
683.002441
 10
657.864868
 20
682.958496
  0
LINE
  5
143
330
103
100
AcDbEntity
  8
0
  6
Continuous
 62
     0
370
    30
100
AcDbLine
 10
660.364865
 20
682.600227
 30
0.0
 11
660.664805
 21
682.605131
 31
0.0
  0
LINE
  5
144
330
103
100
AcDbEntity
  8
0
  6
Continuous
 62
     0
370
     0
100
AcDbLine
 10
660.364865
 20
682.600227
 30
0.0
 11
660.864863
 21
682.600227
 31
0.0
  0
LINE
  5
145
330
103
100
AcDbEntity
  8
0
  6
Continuous
 62
     0
370
    30
100
AcDbLine
 10
660.864863
 20
661.823247
 30
0.0
 11
660.098318
 21
661.823247
 31
0.0
  0
LINE
  5
146
330
103
100
AcDbEntity
  8
0
  6
Continuous
 62
     0
370
    30
100
AcDbLine
 10
660.864863
 20
693.823247
 30
0.0
 11
660.393365
 21
693.823247
 31
0.0
  0
LINE
  5
147
330
103
100
AcDbEntity
  8
0
  6
Continuous
 62
     0
370
    30
100
AcDbLine
 10
658.098093
 20
663.823247
 30
0.0
 11
657.864864
 21
663.823247
 31
0.0
  0
LINE
  5
148
330
103
100
AcDbEntity
  8
0
  6
Continuous
 62
     0
370
    30
100
AcDbLine
 10
658.04598
 20
691.823247
 30
0.0
 11
657.864864
 21
691.823247
 31
0.0
  0
LWPOLYLINE
  5
149
330
103
100
AcDbEntity
  8
0
  6
Continuous
 62
     0
370
    30
100
AcDbPolyline
 90
       70
 70
     0
 43
0.0
 10
658.045959
 20
663.823242
 10
658.048157
 20
663.731934
 10
658.050354
 20
663.641846
 10
658.05249
 20
663.552917
 10
658.054626
 20
663.46521
 10
658.056763
 20
663.378723
 10
658.058899
 20
663.293457
 10
658.060974
 20
663.209351
 10
658.063049
 20
663.126526
 10
658.065125
 20
663.044983
 10
658.0672
 20
662.9646
 10
658.069214
 20
662.885559
 10
658.071228
 20
662.807739
 10
658.073242
 20
662.73114
 10
658.075195
 20
662.655884
 10
658.077148
 20
662.581848
 10
658.079102
 20
662.509094
 10
658.081055
 20
662.437622
 10
658.082947
 20
662.367493
 10
658.084839
 20
662.298645
 10
658.086731
 20
662.231079
 10
658.088562
 20
662.164856
 10
658.090393
 20
662.099915
 10
658.092224
 20
662.036316
 10
658.093994
 20
661.97406
 10
658.095764
 20
661.913086
 10
658.097534
 20
661.853455
 10
658.099243
 20
661.795227
 10
658.101013
 20
661.738281
 10
658.102661
 20
661.682678
 10
658.10437
 20
661.628479
 10
658.106018
 20
661.575562
 10
658.107666
 20
661.524048
 10
658.109253
 20
661.473938
 10
658.110901
 20
661.425171
 10
658.112427
 20
661.377747
 10
658.114014
 20
661.331726
 10
658.11554
 20
661.287048
 10
658.117065
 20
661.243835
 10
658.11853
 20
661.201965
 10
658.120056
 20
661.161438
 10
658.12146
 20
661.122375
 10
658.122925
 20
661.084656
 10
658.124329
 20
661.04834
 10
658.125732
 20
661.013428
 10
658.127075
 20
660.979858
 10
658.128418
 20
660.947754
 10
658.129761
 20
660.916992
 10
658.131104
 20
660.887573
 10
658.132385
 20
660.859558
 10
658.133667
 20
660.832947
 10
658.134888
 20
660.807678
 10
658.136108
 20
660.783813
 10
658.137329
 20
660.76123
 10
658.13855
 20
660.73999
 10
658.139709
 20
660.720032
 10
658.14093
 20
660.701416
 10
658.14209
 20
660.684021
 10
658.14325
 20
660.667725
 10
658.14447
 20
660.652527
 10
658.145752
 20
660.638184
 10
658.147034
 20
660.624573
 10
658.148438
 20
660.611389
 10
658.150208
 20
660.597534
 10
658.152771
 20
660.581482
 10
658.156982
 20
660.560242
 10
658.167969
 20
660.523254
 10
658.206543
 20
660.449646
 10
658.307068
 20
660.360413
 10
658.451416
 20
660.323303
  0
LWPOLYLINE
  5
14A
330
103
100
AcDbEntity
  8
0
  6
Continuous
 62
     0
370
    30
100
AcDbPolyline
 90
       42
 70
     0
 43
0.0
 10
660.131287
 20
661.823242
 10
660.129517
 20
661.763611
 10
660.127747
 20
661.705444
 10
660.125977
 20
661.648743
 10
660.124268
 20
661.593445
 10
660.122559
 20
661.539673
 10
660.120911
 20
661.487305
 10
660.119202
 20
661.436401
 10
660.117615
 20
661.387024
 10
660.115967
 20
661.339111
 10
660.11438
 20
661.292664
 10
660.112793
 20
661.247681
 10
660.111267
 20
661.204224
 10
660.109741
 20
661.162231
 10
660.108215
 20
661.121704
 10
660.10675
 20
661.082703
 10
660.105286
 20
661.045227
 10
660.103821
 20
661.009155
 10
660.102417
 20
660.97467
 10
660.101013
 20
660.941589
 10
660.09967
 20
660.910034
 10
660.098328
 20
660.879944
 10
660.096985
 20
660.851379
 10
660.095642
 20
660.824219
 10
660.09436
 20
660.798584
 10
660.093079
 20
660.774353
 10
660.091858
 20
660.751587
 10
660.090576
 20
660.730225
 10
660.089355
 20
660.710266
 10
660.088135
 20
660.69165
 10
660.086914
 20
660.674255
 10
660.085693
 20
660.658081
 10
660.084412
 20
660.642944
 10
660.083069
 20
660.628662
 10
660.081665
 20
660.614929
 10
660.080017
 20
660.600891
 10
660.077515
 20
660.5849
 10
660.073547
 20
660.564209
 10
660.063904
 20
660.529358
 10
660.028748
 20
660.457764
 10
659.929077
 20
660.364014
 10
659.778259
 20
660.323364
  0
LWPOLYLINE
  5
14B
330
103
100
AcDbEntity
  8
0
  6
Continuous
 62
     0
370
    30
100
AcDbPolyline
 90
       48
 70
     0
 43
0.0
 10
657.864868
 20
682.958984
 10
657.873047
 20
683.404114
 10
657.881226
 20
683.845215
 10
657.889404
 20
684.282043
 10
657.897522
 20
684.714111
 10
657.90564
 20
685.141052
 10
657.913757
 20
685.562561
 10
657.921814
 20
685.978333
 10
657.92981
 20
686.388
 10
657.937744
 20
686.79126
 10
657.945679
 20
687.187927
 10
657.953491
 20
687.577637
 10
657.961304
 20
687.960144
 10
657.968994
 20
688.335083
 10
657.976624
 20
688.702271
 10
657.984192
 20
689.06134
 10
657.991638
 20
689.412109
 10
657.999023
 20
689.754272
 10
658.006287
 20
690.087585
 10
658.013489
 20
690.411804
 10
658.020508
 20
690.726624
 10
658.027466
 20
691.031921
 10
658.034302
 20
691.327454
 10
658.040955
 20
691.612976
 10
658.047546
 20
691.888306
 10
658.053955
 20
692.153259
 10
658.060242
 20
692.407593
 10
658.066406
 20
692.651062
 10
658.072388
 20
692.883545
 10
658.078247
 20
693.104797
 10
658.083923
 20
693.314819
 10
658.089478
 20
693.513306
 10
658.094788
 20
693.700195
 10
658.099976
 20
693.875366
 10
658.10498
 20
694.038696
 10
658.109863
 20
694.190063
 10
658.114502
 20
694.329346
 10
658.118958
 20
694.456421
 10
658.123291
 20
694.57135
 10
658.12738
 20
694.674011
 10
658.131348
 20
694.764404
 10
658.135071
 20
694.842712
 10
658.138733
 20
694.909119
 10
658.142212
 20
694.964111
 10
658.145813
 20
695.009216
 10
658.150269
 20
695.049377
 10
658.167969
 20
695.12323
 10
658.451416
 20
695.32312
  0
LWPOLYLINE
  5
14C
330
103
100
AcDbEntity
  8
0
  6
Continuous
 62
     0
370
    30
100
AcDbPolyline
 90
       48
 70
     0
 43
0.0
 10
660.364868
 20
682.958984
 10
660.356689
 20
683.404114
 10
660.348511
 20
683.845215
 10
660.340332
 20
684.282043
 10
660.332214
 20
684.714111
 10
660.324097
 20
685.141052
 10
660.315979
 20
685.562561
 10
660.307922
 20
685.978271
 10
660.299927
 20
686.387939
 10
660.291992
 20
686.791199
 10
660.284058
 20
687.187866
 10
660.276184
 20
687.577515
 10
660.268433
 20
687.960022
 10
660.260742
 20
688.334961
 10
660.253113
 20
688.702087
 10
660.245544
 20
689.061157
 10
660.238098
 20
689.411926
 10
660.230713
 20
689.754089
 10
660.22345
 20
690.087402
 10
660.216248
 20
690.41156
 10
660.209229
 20
690.726379
 10
660.202271
 20
691.031677
 10
660.195435
 20
691.327209
 10
660.188782
 20
691.612732
 10
660.18219
 20
691.888123
 10
660.175781
 20
692.153015
 10
660.169495
 20
692.407349
 10
660.16333
 20
692.650818
 10
660.157349
 20
692.883301
 10
660.151489
 20
693.104614
 10
660.145813
 20
693.314575
 10
660.140259
 20
693.513123
 10
660.134949
 20
693.700012
 10
660.129761
 20
693.875244
 10
660.124756
 20
694.038574
 10
660.119873
 20
694.189941
 10
660.115234
 20
694.329224
 10
660.110779
 20
694.45636
 10
660.106445
 20
694.571228
 10
660.102356
 20
694.673889
 10
660.098389
 20
694.764343
 10
660.094666
 20
694.842651
 10
660.091003
 20
694.909058
 10
660.087524
 20
694.96405
 10
660.083923
 20
695.009155
 10
660.079468
 20
695.049377
 10
660.061829
 20
695.123047
 10
659.778259
 20
695.323181
  0
LWPOLYLINE
  5
14D
330
103
100
AcDbEntity
  8
0
  6
Continuous
 62
     0
370
    30
100
AcDbPolyline
 90
        4
 70
     0
 43
0.0
 10
660.126343
 20
693.987183
 10
660.172852
 20
693.920105
 10
660.254883
 20
693.857117
 10
660.393372
 20
693.823181
  0
LINE
  5
14E
330
103
100
AcDbEntity
  8
0
  6
Continuous
 62
     0
370
    30
100
AcDbLine
 10
659.77828
 20
695.323247
 30
0.0
 11
658.451448
 21
695.323247
 31
0.0
  0
LINE
  5
14F
330
103
100
AcDbEntity
  8
0
  6
Continuous
 62
     0
370
    30
100
AcDbLine
 10
659.778281
 20
660.323247
 30
0.0
 11
658.451449
 21
660.323247
 31
0.0
  0
LWPOLYLINE
  5
150
330
103
100
AcDbEntity
  8
0
  6
Continuous
 62
     0
370
     0
100
AcDbPolyline
 90
       49
 70
     0
 43
0.0
 10
660.030762
 20
526.823425
 10
660.019897
 20
526.862854
 10
660.009277
 20
526.981567
 10
659.99884
 20
527.178833
 10
659.988647
 20
527.453918
 10
659.978699
 20
527.806335
 10
659.969116
 20
528.234558
 10
659.9599
 20
528.736877
 10
659.95105
 20
529.311584
 10
659.942627
 20
529.956604
 10
659.934692
 20
530.669006
 10
659.927246
 20
531.445679
 10
659.920288
 20
532.283752
 10
659.91394
 20
533.179993
 10
659.908142
 20
534.131226
 10
659.902893
 20
535.134521
 10
659.898315
 20
536.186584
 10
659.894287
 20
537.283386
 10
659.890991
 20
538.420227
 10
659.888306
 20
539.592712
 10
659.886292
 20
540.796204
 10
659.884949
 20
542.026123
 10
659.884277
 20
543.277832
 10
659.884277
 20
544.546753
 10
659.88501
 20
545.828064
 10
659.886414
 20
547.117065
 10
659.888489
 20
548.408875
 10
659.891235
 20
549.69873
 10
659.894592
 20
550.981445
 10
659.898621
 20
552.25177
 10
659.90332
 20
553.504517
 10
659.908569
 20
554.734802
 10
659.914429
 20
555.938599
 10
659.920837
 20
557.112061
 10
659.927795
 20
558.25116
 10
659.935303
 20
559.351624
 10
659.943298
 20
560.40918
 10
659.951721
 20
561.419312
 10
659.960632
 20
562.377808
 10
659.969849
 20
563.281067
 10
659.979492
 20
564.12561
 10
659.989441
 20
564.90802
 10
659.999634
 20
565.625366
 10
660.010132
 20
566.27533
 10
660.020813
 20
566.855896
 10
660.031616
 20
567.36499
 10
660.042603
 20
567.80072
 10
660.053711
 20
568.161072
 10
660.06488
 20
568.445862
  0
LINE
  5
151
330
103
100
AcDbEntity
  8
0
  6
Continuous
 62
     0
370
     0
100
AcDbLine
 10
660.064853
 20
568.445843
 30
0.0
 11
658.164876
 21
568.445843
 31
0.0
  0
LWPOLYLINE
  5
152
330
103
100
AcDbEntity
  8
0
  6
Continuous
 62
     0
370
     0
100
AcDbPolyline
 90
       49
 70
     0
 43
0.0
 10
658.164856
 20
568.445862
 10
658.175964
 20
568.163269
 10
658.187012
 20
567.803406
 10
658.197998
 20
567.368225
 10
658.208862
 20
566.859619
 10
658.219543
 20
566.279541
 10
658.22998
 20
565.630005
 10
658.240234
 20
564.913147
 10
658.250183
 20
564.131165
 10
658.259766
 20
563.287048
 10
658.269043
 20
562.384216
 10
658.277954
 20
561.426025
 10
658.286377
 20
560.41626
 10
658.294373
 20
559.35907
 10
658.30188
 20
558.25885
 10
658.308838
 20
557.119995
 10
658.315247
 20
555.946777
 10
658.321106
 20
554.743103
 10
658.326416
 20
553.513
 10
658.331055
 20
552.260376
 10
658.335083
 20
550.990173
 10
658.338501
 20
549.70752
 10
658.341248
 20
548.417725
 10
658.343323
 20
547.125916
 10
658.344727
 20
545.836853
 10
658.345398
 20
544.555481
 10
658.345459
 20
543.286499
 10
658.344788
 20
542.034607
 10
658.343445
 20
540.804565
 10
658.341492
 20
539.60083
 10
658.338806
 20
538.428162
 10
658.335449
 20
537.291016
 10
658.331482
 20
536.19397
 10
658.326843
 20
535.141541
 10
658.321655
 20
534.137939
 10
658.315857
 20
533.186279
 10
658.309448
 20
532.289673
 10
658.302551
 20
531.451233
 10
658.295105
 20
530.674072
 10
658.28717
 20
529.961243
 10
658.278748
 20
529.315796
 10
658.269897
 20
528.74054
 10
658.260681
 20
528.237732
 10
658.251099
 20
527.809021
 10
658.24115
 20
527.456116
 10
658.230957
 20
527.18042
 10
658.22052
 20
526.982666
 10
658.2099
 20
526.863403
 10
658.198975
 20
526.823425
  0
LWPOLYLINE
  5
153
330
103
100
AcDbEntity
  8
0
  6
Continuous
 62
     0
370
     0
100
AcDbPolyline
 90
        5
 70
     0
 43
0.0
 10
660.06488
 20
568.445862
 10
660.057129
 20
568.596008
 10
660.049438
 20
568.708374
 10
660.041748
 20
568.782898
 10
660.030762
 20
568.82312
  0
LWPOLYLINE
  5
154
330
103
100
AcDbEntity
  8
0
  6
Continuous
 62
     0
370
     0
100
AcDbPolyline
 90
        5
 70
     0
 43
0.0
 10
658.198975
 20
568.82312
 10
658.191345
 20
568.803772
 10
658.183716
 20
568.746155
 10
658.176025
 20
568.650574
 10
658.164856
 20
568.445862
  0
LINE
  5
155
330
103
100
AcDbEntity
  8
0
  6
Continuous
 62
     0
370
     0
100
AcDbLine
 10
660.364865
 20
567.512916
 30
0.0
 11
660.364865
 21
568.151235
 31
0.0
  0
LINE
  5
156
330
103
100
AcDbEntity
  8
0
  6
Continuous
 62
     0
370
     0
100
AcDbLine
 10
660.364864
 20
527.495265
 30
0.0
 11
660.364864
 21
527.907155
 31
0.0
  0
LWPOLYLINE
  5
157
330
103
100
AcDbEntity
  8
0
  6
Continuous
 62
     0
370
     0
100
AcDbPolyline
 90
       50
 70
     0
 43
0.0
 10
660.364868
 20
567.512939
 10
660.354004
 20
567.239685
 10
660.343201
 20
566.891541
 10
660.332458
 20
566.469727
 10
660.321838
 20
565.975891
 10
660.31134
 20
565.411987
 10
660.301147
 20
564.780151
 10
660.291138
 20
564.082825
 10
660.281433
 20
563.322754
 10
660.272034
 20
562.502808
 10
660.263
 20
561.626221
 10
660.254333
 20
560.696289
 10
660.246155
 20
559.716614
 10
660.238403
 20
558.691101
 10
660.23114
 20
557.623596
 10
660.224365
 20
556.518188
 10
660.218201
 20
555.379272
 10
660.212524
 20
554.211182
 10
660.207458
 20
553.018372
 10
660.203064
 20
551.805542
 10
660.199219
 20
550.577332
 10
660.196045
 20
549.338501
 10
660.193542
 20
548.093811
 10
660.19165
 20
546.848083
 10
660.190491
 20
545.60614
 10
660.189941
 20
544.372681
 10
660.190063
 20
543.152649
 10
660.190918
 20
541.950623
 10
660.192444
 20
540.77124
 10
660.19458
 20
539.61908
 10
660.197388
 20
538.498657
 10
660.200867
 20
537.414246
 10
660.205017
 20
536.369995
 10
660.209717
 20
535.369995
 10
660.215027
 20
534.41803
 10
660.220947
 20
533.517883
 10
660.227417
 20
532.672974
 10
660.234375
 20
531.886597
 10
660.241882
 20
531.161682
 10
660.249817
 20
530.50116
 10
660.25824
 20
529.907532
 10
660.26709
 20
529.383118
 10
660.276245
 20
528.929871
 10
660.285828
 20
528.549561
 10
660.295654
 20
528.243713
 10
660.305786
 20
528.013489
 10
660.316101
 20
527.859741
 10
660.32666
 20
527.783081
 10
660.337341
 20
527.783813
 10
660.348267
 20
527.863831
  0
LWPOLYLINE
  5
158
330
103
100
AcDbEntity
  8
0
  6
Continuous
 62
     0
370
     0
100
AcDbPolyline
 90
       52
 70
     0
 43
0.0
 10
660.364868
 20
527.495239
 10
660.35376
 20
527.293152
 10
660.342651
 20
527.168945
 10
660.331665
 20
527.123047
 10
660.320801
 20
527.15564
 10
660.31012
 20
527.266602
 10
660.299622
 20
527.455566
 10
660.289368
 20
527.721741
 10
660.279419
 20
528.064209
 10
660.269775
 20
528.481567
 10
660.260498
 20
528.972229
 10
660.251648
 20
529.534424
 10
660.243164
 20
530.166016
 10
660.235168
 20
530.864563
 10
660.227661
 20
531.62738
 10
660.220703
 20
532.45166
 10
660.214294
 20
533.334229
 10
660.208435
 20
534.271729
 10
660.203125
 20
535.26062
 10
660.198486
 20
536.29718
 10
660.194458
 20
537.377441
 10
660.191101
 20
538.497253
 10
660.188416
 20
539.652527
 10
660.18634
 20
540.838745
 10
660.184998
 20
542.051453
 10
660.184265
 20
543.286072
 10
660.184265
 20
544.537842
 10
660.184937
 20
545.802124
 10
660.18634
 20
547.074036
 10
660.188354
 20
548.348816
 10
660.191101
 20
549.621582
 10
660.194458
 20
550.887512
 10
660.198486
 20
552.141846
 10
660.203125
 20
553.379822
 10
660.208374
 20
554.59668
 10
660.214233
 20
555.787842
 10
660.220642
 20
556.948792
 10
660.2276
 20
558.075195
 10
660.235107
 20
559.162659
 10
660.243103
 20
560.207092
 10
660.251526
 20
561.204651
 10
660.260437
 20
562.151367
 10
660.269653
 20
563.043762
 10
660.279297
 20
563.878479
 10
660.289246
 20
564.652222
 10
660.2995
 20
565.362183
 10
660.309998
 20
566.005676
 10
660.320679
 20
566.580139
 10
660.331543
 20
567.083496
 10
660.34259
 20
567.513794
 10
660.353638
 20
567.869385
 10
660.364868
 20
568.151245
  0
ARC
  5
159
330
103
100
AcDbEntity
  8
0
  6
Continuous
 62
     0
370
     0
100
AcDbCircle
 10
660.661947
 20
567.515387
 30
0.0
 40
0.2970932193219821
100
AcDbArc
 50
180.47645
 51
270.564781
  0
LWPOLYLINE
  5
15A
330
103
100
AcDbEntity
  8
0
  6
Continuous
 62
     0
370
     0
100
AcDbPolyline
 90
        4
 70
     0
 43
0.0
 10
660.631836
 20
567.573242
 10
660.642761
 20
567.533752
 10
660.653748
 20
567.415588
 10
660.664856
 20
567.218323
  0
LWPOLYLINE
  5
15B
330
103
100
AcDbEntity
  8
0
  6
Continuous
 62
     0
370
     0
100
AcDbPolyline
 90
       48
 70
     0
 43
0.0
 10
660.664856
 20
567.218323
 10
660.653931
 20
566.94635
 10
660.642944
 20
566.598877
 10
660.632141
 20
566.177429
 10
660.621399
 20
565.683594
 10
660.61084
 20
565.119507
 10
660.600525
 20
564.487366
 10
660.590454
 20
563.789429
 10
660.580627
 20
563.028625
 10
660.571167
 20
562.207947
 10
660.562073
 20
561.330505
 10
660.553406
 20
560.399841
 10
660.545166
 20
559.419678
 10
660.537415
 20
558.39386
 10
660.530151
 20
557.326294
 10
660.523376
 20
556.221313
 10
660.517212
 20
555.083313
 10
660.511597
 20
553.916565
 10
660.506653
 20
552.725891
 10
660.502258
 20
551.51593
 10
660.498535
 20
550.291382
 10
660.495422
 20
549.057068
 10
660.493042
 20
547.817932
 10
660.491333
 20
546.578857
 10
660.490234
 20
545.344604
 10
660.489929
 20
544.120178
 10
660.490234
 20
542.910339
 10
660.491272
 20
541.719788
 10
660.492981
 20
540.553345
 10
660.495361
 20
539.415527
 10
660.498413
 20
538.310913
 10
660.502075
 20
537.243652
 10
660.506409
 20
536.218201
 10
660.511414
 20
535.238403
 10
660.516968
 20
534.308167
 10
660.523132
 20
533.431274
 10
660.529846
 20
532.611084
 10
660.537109
 20
531.850769
 10
660.544861
 20
531.153381
 10
660.553101
 20
530.52179
 10
660.561768
 20
529.958252
 10
660.570801
 20
529.465149
 10
660.580261
 20
529.044434
 10
660.590027
 20
528.697632
 10
660.600098
 20
528.426208
 10
660.610413
 20
528.231323
 10
660.620972
 20
528.113525
 10
660.631836
 20
528.073242
  0
LINE
  5
15C
330
103
100
AcDbEntity
  8
0
  6
Continuous
 62
     0
370
     0
100
AcDbLine
 10
660.364553
 20
527.482131
 30
0.0
 11
660.364864
 21
527.495265
 31
0.0
  0
ARC
  5
15D
330
103
100
AcDbEntity
  8
0
  6
Continuous
 62
     0
370
     0
100
AcDbCircle
 10
660.067434
 20
568.148411
 30
0.0
 40
0.2974435572903693
100
AcDbArc
 50
0.543931
 51
90.497231
  0
ARC
  5
15E
330
103
100
AcDbEntity
  8
0
  6
Continuous
 62
     0
370
     0
100
AcDbCircle
 10
658.161956
 20
568.148756
 30
0.0
 40
0.297101510339765
100
AcDbArc
 50
89.43682
 51
179.522016
  0
LINE
  5
15F
330
103
100
AcDbEntity
  8
0
  6
Continuous
 62
     0
370
     0
100
AcDbLine
 10
657.864864
 20
527.495265
 30
0.0
 11
657.865176
 21
527.482135
 31
0.0
  0
LWPOLYLINE
  5
160
330
103
100
AcDbEntity
  8
0
  6
Continuous
 62
     0
370
     0
100
AcDbPolyline
 90
       52
 70
     0
 43
0.0
 10
657.864868
 20
527.495239
 10
657.875977
 20
527.293396
 10
657.887085
 20
527.16925
 10
657.898071
 20
527.123108
 10
657.908936
 20
527.155579
 10
657.919617
 20
527.266602
 10
657.930115
 20
527.455322
 10
657.940369
 20
527.72113
 10
657.950317
 20
528.063354
 10
657.959961
 20
528.480713
 10
657.969238
 20
528.971497
 10
657.978088
 20
529.533997
 10
657.986572
 20
530.16626
 10
657.994568
 20
530.865417
 10
658.002075
 20
531.628357
 10
658.009033
 20
532.452148
 10
658.015442
 20
533.333679
 10
658.021301
 20
534.269897
 10
658.02655
 20
535.257629
 10
658.031189
 20
536.293823
 10
658.035217
 20
537.374512
 10
658.038635
 20
538.495056
 10
658.041321
 20
539.651062
 10
658.043396
 20
540.838013
 10
658.044739
 20
542.051331
 10
658.045471
 20
543.286377
 10
658.045471
 20
544.538635
 10
658.044739
 20
545.803406
 10
658.043396
 20
547.075928
 10
658.041382
 20
548.351501
 10
658.038635
 20
549.625244
 10
658.035278
 20
550.89209
 10
658.03125
 20
552.146912
 10
658.026611
 20
553.384521
 10
658.021362
 20
554.600037
 10
658.015503
 20
555.789551
 10
658.009094
 20
556.949158
 10
658.002136
 20
558.074829
 10
657.994629
 20
559.162476
 10
657.986633
 20
560.207703
 10
657.978149
 20
561.206177
 10
657.969299
 20
562.153564
 10
657.960022
 20
563.046387
 10
657.950378
 20
563.881165
 10
657.94043
 20
564.654541
 10
657.930176
 20
565.363586
 10
657.919739
 20
566.006104
 10
657.909058
 20
566.579956
 10
657.898193
 20
567.08313
 10
657.887146
 20
567.513672
 10
657.876099
 20
567.86969
 10
657.864868
 20
568.151245
  0
LINE
  5
161
330
103
100
AcDbEntity
  8
0
  6
Continuous
 62
     0
370
     0
100
AcDbLine
 10
660.664876
 20
567.218308
 30
0.0
 11
660.864865
 21
567.218308
 31
0.0
  0
LINE
  5
162
330
103
100
AcDbEntity
  8
0
  6
Continuous
 62
     0
370
    30
100
AcDbLine
 10
660.864864
 20
528.07325
 30
0.0
 11
660.631852
 21
528.07325
 31
0.0
  0
LINE
  5
163
330
103
100
AcDbEntity
  8
0
  6
Continuous
 62
     0
370
    30
100
AcDbLine
 10
660.864864
 20
567.57325
 30
0.0
 11
660.631852
 21
567.57325
 31
0.0
  0
LWPOLYLINE
  5
164
330
103
100
AcDbEntity
  8
0
  6
Continuous
 62
     0
370
    30
100
AcDbPolyline
 90
       24
 70
     0
 43
0.0
 10
658.198975
 20
526.823242
 10
658.055176
 20
526.859802
 10
657.961975
 20
526.938171
 10
657.923218
 20
527.00116
 10
657.908447
 20
527.039429
 10
657.901184
 20
527.06543
 10
657.89679
 20
527.085693
 10
657.893616
 20
527.103394
 10
657.891052
 20
527.120178
 10
657.888855
 20
527.136841
 10
657.886841
 20
527.153992
 10
657.884949
 20
527.171814
 10
657.883118
 20
527.190613
 10
657.881409
 20
527.21051
 10
657.8797
 20
527.231567
 10
657.878052
 20
527.253906
 10
657.876404
 20
527.277588
 10
657.874756
 20
527.302551
 10
657.873169
 20
527.328918
 10
657.871521
 20
527.356689
 10
657.869934
 20
527.385803
 10
657.868347
 20
527.416382
 10
657.86676
 20
527.448364
 10
657.865173
 20
527.482117
  0
LWPOLYLINE
  5
165
330
103
100
AcDbEntity
  8
0
  6
Continuous
 62
     0
370
    30
100
AcDbPolyline
 90
       24
 70
     0
 43
0.0
 10
657.865173
 20
568.164368
 10
657.86676
 20
568.197815
 10
657.868347
 20
568.229797
 10
657.869934
 20
568.260315
 10
657.871521
 20
568.289429
 10
657.873108
 20
568.3172
 10
657.874756
 20
568.343506
 10
657.876343
 20
568.36853
 10
657.877991
 20
568.392151
 10
657.8797
 20
568.41449
 10
657.881348
 20
568.435547
 10
657.883118
 20
568.455444
 10
657.884888
 20
568.474243
 10
657.88678
 20
568.492004
 10
657.888794
 20
568.509155
 10
657.890991
 20
568.525879
 10
657.893494
 20
568.542603
 10
657.896729
 20
568.560303
 10
657.900879
 20
568.580261
 10
657.907959
 20
568.605957
 10
657.922485
 20
568.643616
 10
657.959717
 20
568.705505
 10
658.050476
 20
568.784119
 10
658.198975
 20
568.823242
  0
LWPOLYLINE
  5
166
330
103
100
AcDbEntity
  8
0
  6
Continuous
 62
     0
370
    30
100
AcDbPolyline
 90
       24
 70
     0
 43
0.0
 10
660.030762
 20
568.823242
 10
660.174255
 20
568.786926
 10
660.267578
 20
568.708618
 10
660.306335
 20
568.64563
 10
660.321289
 20
568.607178
 10
660.32843
 20
568.581299
 10
660.332947
 20
568.560913
 10
660.336121
 20
568.543274
 10
660.338623
 20
568.526611
 10
660.340881
 20
568.509888
 10
660.342896
 20
568.492676
 10
660.344849
 20
568.474792
 10
660.346619
 20
568.455994
 10
660.348328
 20
568.436279
 10
660.349976
 20
568.415344
 10
660.351624
 20
568.393188
 10
660.353271
 20
568.36969
 10
660.354858
 20
568.344788
 10
660.356506
 20
568.318481
 10
660.358093
 20
568.290833
 10
660.359741
 20
568.261719
 10
660.361328
 20
568.231262
 10
660.362915
 20
568.199341
 10
660.364563
 20
568.164368
  0
LWPOLYLINE
  5
167
330
103
100
AcDbEntity
  8
0
  6
Continuous
 62
     0
370
    30
100
AcDbPolyline
 90
       24
 70
     0
 43
0.0
 10
660.364563
 20
527.482117
 10
660.362976
 20
527.448669
 10
660.36145
 20
527.416748
 10
660.359863
 20
527.386292
 10
660.358337
 20
527.357239
 10
660.35675
 20
527.32959
 10
660.355164
 20
527.303223
 10
660.353577
 20
527.278259
 10
660.351868
 20
527.254517
 10
660.350159
 20
527.232056
 10
660.348389
 20
527.210815
 10
660.346558
 20
527.190735
 10
660.344666
 20
527.171753
 10
660.342712
 20
527.153809
 10
660.34082
 20
527.136902
 10
660.338989
 20
527.120789
 10
660.336731
 20
527.104614
 10
660.333557
 20
527.086731
 10
660.328674
 20
527.065796
 10
660.321289
 20
527.039673
 10
660.306946
 20
527.001831
 10
660.268494
 20
526.939087
 10
660.176086
 20
526.860657
 10
660.030762
 20
526.823242
  0
LWPOLYLINE
  5
168
330
103
100
AcDbEntity
  8
0
  6
Continuous
 62
     0
370
    30
100
AcDbPolyline
 90
        8
 70
     0
 43
0.0
 10
660.631836
 20
528.073242
 10
660.49884
 20
528.041931
 10
660.407288
 20
527.971191
 10
660.36676
 20
527.91095
 10
660.352661
 20
527.877502
 10
660.34729
 20
527.860046
 10
660.345398
 20
527.851807
 10
660.344849
 20
527.849182
  0
LWPOLYLINE
  5
169
330
103
100
AcDbEntity
  8
0
  6
Continuous
 62
     0
370
    30
100
AcDbPolyline
 90
        4
 70
     0
 43
0.0
 10
660.364868
 20
567.739319
 10
660.401794
 20
567.681763
 10
660.487793
 20
567.610291
 10
660.631836
 20
567.573242
  0
LINE
  5
16A
330
103
100
AcDbEntity
  8
0
  6
Continuous
 62
     0
370
    30
100
AcDbLine
 10
660.030759
 20
568.82325
 30
0.0
 11
658.19897
 21
568.82325
 31
0.0
  0
LINE
  5
16B
330
103
100
AcDbEntity
  8
0
  6
Continuous
 62
     0
370
    30
100
AcDbLine
 10
660.030759
 20
526.82325
 30
0.0
 11
658.19897
 21
526.82325
 31
0.0
  0
ENDBLK
  5
16D
330
103
100
AcDbEntity
  8
0
100
AcDbBlockEnd
  0
BLOCK
  5
1E1
330
16F
100
AcDbEntity
  8
0
100
AcDbBlockBegin
  2
d
 70
     0
 10
422.099945
 20
0.0
 30
0.0
  3
d
  1

  0
LINE
  5
170
330
16F
100
AcDbEntity
  8
0
  6
Continuous
 62
     0
370
    30
100
AcDbLine
 10
377.348707
 20
473.823189
 30
0.0
 11
375.348707
 21
473.823189
 31
0.0
  0
LINE
  5
171
330
16F
100
AcDbEntity
  8
0
  6
Continuous
 62
     0
370
    30
100
AcDbLine
 10
377.348707
 20
473.823189
 30
0.0
 11
377.348707
 21
751.823189
 31
0.0
  0
LINE
  5
172
330
16F
100
AcDbEntity
  8
0
  6
Continuous
 62
     0
370
    30
100
AcDbLine
 10
377.348707
 20
751.823189
 30
0.0
 11
375.348707
 21
751.823189
 31
0.0
  0
LINE
  5
173
330
16F
100
AcDbEntity
  8
0
  6
Continuous
 62
     0
370
    30
100
AcDbLine
 10
375.348707
 20
751.823189
 30
0.0
 11
375.348707
 21
473.823189
 31
0.0
  0
LINE
  5
174
330
16F
100
AcDbEntity
  8
0
  6
Continuous
 62
     0
370
    30
100
AcDbLine
 10
322.348709
 20
569.323189
 30
0.0
 11
322.348709
 21
526.323189
 31
0.0
  0
LINE
  5
175
330
16F
100
AcDbEntity
  8
0
  6
Continuous
 62
     0
370
    30
100
AcDbLine
 10
322.348709
 20
526.323189
 30
0.0
 11
322.848709
 21
525.823189
 31
0.0
  0
LINE
  5
176
330
16F
100
AcDbEntity
  8
0
  6
Continuous
 62
     0
370
    30
100
AcDbLine
 10
322.848709
 20
569.823189
 30
0.0
 11
322.848709
 21
525.823189
 31
0.0
  0
LINE
  5
177
330
16F
100
AcDbEntity
  8
0
  6
Continuous
 62
     0
370
    30
100
AcDbLine
 10
336.098709
 20
525.823189
 30
0.0
 11
372.348709
 21
525.823189
 31
0.0
  0
LINE
  5
178
330
16F
100
AcDbEntity
  8
0
  6
Continuous
 62
     0
370
    30
100
AcDbLine
 10
372.348709
 20
525.823189
 30
0.0
 11
372.348709
 21
569.823189
 31
0.0
  0
LINE
  5
179
330
16F
100
AcDbEntity
  8
0
  6
Continuous
 62
     0
370
    30
100
AcDbLine
 10
326.598709
 20
525.823189
 30
0.0
 11
322.848709
 21
525.823189
 31
0.0
  0
LINE
  5
17A
330
16F
100
AcDbEntity
  8
0
  6
Continuous
 62
     0
370
    30
100
AcDbLine
 10
334.798709
 20
577.653189
 30
0.0
 11
327.898709
 21
577.653189
 31
0.0
  0
LINE
  5
17B
330
16F
100
AcDbEntity
  8
0
  6
Continuous
 62
     0
370
    30
100
AcDbLine
 10
327.898709
 20
577.653189
 30
0.0
 11
327.398709
 21
577.153189
 31
0.0
  0
LINE
  5
17C
330
16F
100
AcDbEntity
  8
0
  6
Continuous
 62
     0
370
    30
100
AcDbLine
 10
335.298709
 20
577.153189
 30
0.0
 11
327.398709
 21
577.153189
 31
0.0
  0
LINE
  5
17D
330
16F
100
AcDbEntity
  8
0
  6
Continuous
 62
     0
370
    30
100
AcDbLine
 10
327.398709
 20
569.823189
 30
0.0
 11
327.398709
 21
577.153189
 31
0.0
  0
LWPOLYLINE
  5
17E
330
16F
100
AcDbEntity
  8
0
  6
Continuous
 62
     0
370
    30
100
AcDbPolyline
 90
       24
 70
     0
 43
0.0
 10
327.398712
 20
569.823181
 10
327.435211
 20
569.81665
 10
327.543579
 20
569.797607
 10
327.721893
 20
569.767456
 10
327.967926
 20
569.728088
 10
328.276947
 20
569.682373
 10
328.642609
 20
569.633972
 10
329.058594
 20
569.586487
 10
329.517517
 20
569.543213
 10
330.01059
 20
569.507202
 10
330.528992
 20
569.481384
 10
331.063416
 20
569.468079
 10
331.603516
 20
569.467651
 10
332.13858
 20
569.480225
 10
332.658173
 20
569.505432
 10
333.152924
 20
569.541077
 10
333.613983
 20
569.584106
 10
334.032532
 20
569.63147
 10
334.401093
 20
569.679871
 10
334.71347
 20
569.725708
 10
334.963531
 20
569.765442
 10
335.14624
 20
569.796021
 10
335.25882
 20
569.815796
 10
335.298706
 20
569.82312
  0
LWPOLYLINE
  5
17F
330
16F
100
AcDbEntity
  8
0
  6
Continuous
 62
     0
370
     0
100
AcDbPolyline
 90
       26
 70
     0
 43
0.0
 10
326.598724
 20
525.823181
 10
326.636932
 20
525.831299
 10
326.74823
 20
525.85498
 10
326.932587
 20
525.892822
 10
327.185974
 20
525.942444
 10
327.504761
 20
526.000854
 10
327.883667
 20
526.064392
 10
328.316498
 20
526.129089
 10
328.796631
 20
526.19104
 10
329.317505
 20
526.246277
 10
329.872314
 20
526.29126
 10
330.451691
 20
526.323303
 10
331.045654
 20
526.339905
 10
331.644531
 20
526.340027
 10
332.238617
 20
526.323608
 10
332.818237
 20
526.291748
 10
333.373383
 20
526.246887
 10
333.894745
 20
526.191772
 10
334.375366
 20
526.129883
 10
334.808807
 20
526.065186
 10
335.188416
 20
526.001648
 10
335.508026
 20
525.943115
 10
335.762207
 20
525.893372
 10
335.947357
 20
525.855347
 10
336.059631
 20
525.831482
 10
336.098724
 20
525.823181
  0
LWPOLYLINE
  5
180
330
16F
100
AcDbEntity
  8
0
  6
Continuous
 62
     0
370
     0
100
AcDbPolyline
 90
       24
 70
     0
 43
0.0
 10
335.4487
 20
569.823181
 10
335.408966
 20
569.815979
 10
335.29599
 20
569.795227
 10
335.108337
 20
569.762329
 10
334.851318
 20
569.719727
 10
334.528961
 20
569.670471
 10
334.147858
 20
569.618286
 10
333.715271
 20
569.566956
 10
333.238617
 20
569.520203
 10
332.72525
 20
569.481628
 10
332.184906
 20
569.454041
 10
331.628601
 20
569.439636
 10
331.067078
 20
569.439636
 10
330.510895
 20
569.454041
 10
329.970703
 20
569.48175
 10
329.457428
 20
569.520386
 10
328.980774
 20
569.567078
 10
328.54834
 20
569.618469
 10
328.16745
 20
569.670654
 10
327.845306
 20
569.719849
 10
327.588501
 20
569.762451
 10
327.401123
 20
569.795349
 10
327.287445
 20
569.816101
 10
327.249115
 20
569.823181
  0
LINE
  5
181
330
16F
100
AcDbEntity
  8
0
  6
Continuous
 62
     0
370
    30
100
AcDbLine
 10
335.448709
 20
569.823189
 30
0.0
 11
335.298709
 21
569.823189
 31
0.0
  0
LINE
  5
182
330
16F
100
AcDbEntity
  8
0
  6
Continuous
 62
     0
370
    30
100
AcDbLine
 10
327.249107
 20
569.823189
 30
0.0
 11
327.398709
 21
569.823189
 31
0.0
  0
LINE
  5
183
330
16F
100
AcDbEntity
  8
0
  6
Continuous
 62
     0
370
    30
100
AcDbLine
 10
335.298709
 20
577.153189
 30
0.0
 11
335.298709
 21
569.823113
 31
0.0
  0
LINE
  5
184
330
16F
100
AcDbEntity
  8
0
  6
Continuous
 62
     0
370
    30
100
AcDbLine
 10
326.598709
 20
525.823189
 30
0.0
 11
336.098709
 21
525.823189
 31
0.0
  0
LINE
  5
185
330
16F
100
AcDbEntity
  8
0
  6
Continuous
 62
     0
370
    30
100
AcDbLine
 10
335.298709
 20
577.153189
 30
0.0
 11
334.798709
 21
577.653189
 31
0.0
  0
LINE
  5
186
330
16F
100
AcDbEntity
  8
0
  6
Continuous
 62
     0
370
    30
100
AcDbLine
 10
322.848709
 20
569.823189
 30
0.0
 11
327.249107
 21
569.823189
 31
0.0
  0
LINE
  5
187
330
16F
100
AcDbEntity
  8
0
  6
Continuous
 62
     0
370
    30
100
AcDbLine
 10
335.448709
 20
569.823189
 30
0.0
 11
372.348709
 21
569.823189
 31
0.0
  0
LINE
  5
188
330
16F
100
AcDbEntity
  8
0
  6
Continuous
 62
     0
370
    30
100
AcDbLine
 10
322.348709
 20
569.323189
 30
0.0
 11
322.848709
 21
569.823189
 31
0.0
  0
LWPOLYLINE
  5
189
330
16F
100
AcDbEntity
  8
0
  6
Continuous
 62
     0
370
     0
100
AcDbPolyline
 90
       42
 70
     0
 43
0.0
 10
355.848694
 20
697.323181
 10
355.809937
 20
697.308838
 10
355.695343
 20
697.266663
 10
355.507782
 20
697.198364
 10
355.252106
 20
697.106873
 10
354.934509
 20
696.996033
 10
354.560852
 20
696.869568
 10
354.136505
 20
696.73114
 10
353.666687
 20
696.58429
 10
353.155792
 20
696.432495
 10
352.607788
 20
696.279053
 10
352.026276
 20
696.127258
 10
351.414001
 20
695.979919
 10
350.773621
 20
695.839905
 10
350.107758
 20
695.7099
 10
349.418945
 20
695.592407
 10
348.709869
 20
695.490112
 10
347.983612
 20
695.405029
 10
347.243439
 20
695.339233
 10
346.492828
 20
695.294434
 10
345.73584
 20
695.271545
 10
344.976654
 20
695.271362
 10
344.219513
 20
695.293823
 10
343.468781
 20
695.338196
 10
342.728729
 20
695.403442
 10
342.002441
 20
695.488037
 10
341.292358
 20
695.59021
 10
340.601044
 20
695.708008
 10
339.931671
 20
695.838745
 10
339.287567
 20
695.979492
 10
338.671936
 20
696.12738
 10
338.088104
 20
696.279541
 10
337.539337
 20
696.433044
 10
337.028809
 20
696.584778
 10
336.55954
 20
696.731567
 10
336.135345
 20
696.869995
 10
335.761658
 20
696.99646
 10
335.444244
 20
697.107239
 10
335.188965
 20
697.198547
 10
335.001801
 20
697.266663
 10
334.887482
 20
697.308716
 10
334.848724
 20
697.323181
  0
ARC
  5
18A
330
16F
100
AcDbEntity
  8
0
  6
Continuous
 62
     0
370
    30
100
AcDbCircle
 10
334.848711
 20
701.323185
 30
0.0
 40
4.000000000000654
100
AcDbArc
 50
270.0
 51
360.0
  0
LWPOLYLINE
  5
18B
330
16F
100
AcDbEntity
  8
0
  6
Continuous
 62
     0
370
     0
100
AcDbPolyline
 90
       36
 70
     0
 43
0.0
 10
338.848724
 20
701.323181
 10
338.881531
 20
701.299377
 10
338.978088
 20
701.230408
 10
339.135284
 20
701.119934
 10
339.347687
 20
700.974304
 10
339.609467
 20
700.800476
 10
339.914886
 20
700.605835
 10
340.258484
 20
700.397644
 10
340.636597
 20
700.182373
 10
341.046173
 20
699.966187
 10
341.484009
 20
699.754822
 10
341.946899
 20
699.553894
 10
342.431488
 20
699.368958
 10
342.934601
 20
699.205566
 10
343.453125
 20
699.068787
 10
343.984619
 20
698.962219
 10
344.526398
 20
698.88916
 10
345.074646
 20
698.851807
 10
345.624939
 20
698.851868
 10
346.173035
 20
698.889343
 10
346.714935
 20
698.962646
 10
347.246704
 20
699.069519
 10
347.765015
 20
699.206299
 10
348.266632
 20
699.368896
 10
348.748871
 20
699.552673
 10
349.209351
 20
699.752502
 10
349.645416
 20
699.963135
 10
350.054352
 20
700.178955
 10
350.432922
 20
700.394165
 10
350.777405
 20
700.602539
 10
351.083496
 20
700.797485
 10
351.345978
 20
700.971741
 10
351.559235
 20
701.117981
 10
351.717407
 20
701.229187
 10
351.815002
 20
701.298828
 10
351.848724
 20
701.323181
  0
LINE
  5
18C
330
16F
100
AcDbEntity
  8
0
  6
Continuous
 62
     0
370
    30
100
AcDbLine
 10
338.848711
 20
701.323185
 30
0.0
 11
338.848711
 21
712.823185
 31
0.0
  0
LINE
  5
18D
330
16F
100
AcDbEntity
  8
0
  6
Continuous
 62
     0
370
     0
100
AcDbLine
 10
351.848711
 20
712.823185
 30
0.0
 11
338.848711
 21
712.823185
 31
0.0
  0
LINE
  5
18E
330
16F
100
AcDbEntity
  8
0
  6
Continuous
 62
     0
370
    30
100
AcDbLine
 10
351.348711
 20
713.323185
 30
0.0
 11
339.348711
 21
713.323185
 31
0.0
  0
LINE
  5
18F
330
16F
100
AcDbEntity
  8
0
  6
Continuous
 62
     0
370
    30
100
AcDbLine
 10
372.348711
 20
658.323185
 30
0.0
 11
347.248711
 21
658.323185
 31
0.0
  0
LINE
  5
190
330
16F
100
AcDbEntity
  8
0
  6
Continuous
 62
     0
370
    30
100
AcDbLine
 10
337.048711
 20
658.323185
 30
0.0
 11
330.848711
 21
658.323185
 31
0.0
  0
LINE
  5
191
330
16F
100
AcDbEntity
  8
0
  6
Continuous
 62
     0
370
     0
100
AcDbLine
 10
330.848711
 20
697.323185
 30
0.0
 11
330.848711
 21
658.323185
 31
0.0
  0
LINE
  5
192
330
16F
100
AcDbEntity
  8
0
  6
Continuous
 62
     0
370
    30
100
AcDbLine
 10
372.348711
 20
658.323185
 30
0.0
 11
372.348711
 21
697.323185
 31
0.0
  0
LINE
  5
193
330
16F
100
AcDbEntity
  8
0
  6
Continuous
 62
     0
370
    30
100
AcDbLine
 10
330.348711
 20
696.823185
 30
0.0
 11
330.348711
 21
658.823185
 31
0.0
  0
ARC
  5
194
330
16F
100
AcDbEntity
  8
0
  6
Continuous
 62
     0
370
    30
100
AcDbCircle
 10
330.848711
 20
658.823185
 30
0.0
 40
0.4999999999991473
100
AcDbArc
 50
180.0
 51
270.0
  0
ARC
  5
195
330
16F
100
AcDbEntity
  8
0
  6
Continuous
 62
     0
370
    30
100
AcDbCircle
 10
339.348711
 20
712.823185
 30
0.0
 40
0.4999999999961384
100
AcDbArc
 50
90.000081
 51
180.0
  0
LWPOLYLINE
  5
196
330
16F
100
AcDbEntity
  8
0
  6
Continuous
 62
     0
370
     0
100
AcDbPolyline
 90
       27
 70
     0
 43
0.0
 10
337.048706
 20
658.323181
 10
337.087524
 20
658.333008
 10
337.197937
 20
658.361694
 10
337.381348
 20
658.407471
 10
337.633545
 20
658.467896
 10
337.950836
 20
658.53949
 10
338.328613
 20
658.618164
 10
338.761047
 20
658.699463
 10
339.242035
 20
658.778809
 10
339.765472
 20
658.851685
 10
340.325531
 20
658.913696
 10
340.914185
 20
658.961365
 10
341.521942
 20
658.991455
 10
342.139282
 20
659.001831
 10
342.756775
 20
658.992065
 10
343.36496
 20
658.962524
 10
343.954346
 20
658.915405
 10
344.515381
 20
658.853699
 10
345.040039
 20
658.781128
 10
345.522461
 20
658.701904
 10
345.956482
 20
658.620605
 10
346.335938
 20
658.541809
 10
346.655182
 20
658.46991
 10
346.909485
 20
658.409119
 10
347.09494
 20
658.362793
 10
347.207581
 20
658.333618
 10
347.248718
 20
658.323181
  0
LWPOLYLINE
  5
197
330
16F
100
AcDbEntity
  8
0
  6
Continuous
 62
     0
370
    30
100
AcDbPolyline
 90
        9
 70
     0
 43
0.0
 10
347.248718
 20
658.323181
 10
345.986389
 20
658.334045
 10
344.724091
 20
658.344482
 10
343.461731
 20
658.347839
 10
342.199371
 20
658.347961
 10
340.937012
 20
658.347839
 10
339.674652
 20
658.344971
 10
338.412323
 20
658.334961
 10
337.048706
 20
658.323181
  0
ARC
  5
198
330
16F
100
AcDbEntity
  8
0
  6
Continuous
 62
     0
370
    30
100
AcDbCircle
 10
351.348707
 20
712.823182
 30
0.0
 40
0.5000034422815469
100
AcDbArc
 50
0.000394
 51
89.999606
  0
ARC
  5
199
330
16F
100
AcDbEntity
  8
0
  6
Continuous
 62
     0
370
    30
100
AcDbCircle
 10
330.848713
 20
696.823182
 30
0.0
 40
0.5000027030543939
100
AcDbArc
 50
90.00031
 51
179.99969
  0
LINE
  5
19A
330
16F
100
AcDbEntity
  8
0
  6
Continuous
 62
     0
370
    30
100
AcDbLine
 10
372.348711
 20
697.323185
 30
0.0
 11
355.848705
 21
697.323185
 31
0.0
  0
LINE
  5
19B
330
16F
100
AcDbEntity
  8
0
  6
Continuous
 62
     0
370
    30
100
AcDbLine
 10
334.848711
 20
697.323185
 30
0.0
 11
330.848711
 21
697.323185
 31
0.0
  0
LINE
  5
19C
330
16F
100
AcDbEntity
  8
0
  6
Continuous
 62
     0
370
    30
100
AcDbLine
 10
351.848711
 20
701.323185
 30
0.0
 11
351.848711
 21
712.823185
 31
0.0
  0
ARC
  5
19D
330
16F
100
AcDbEntity
  8
0
  6
Continuous
 62
     0
370
    30
100
AcDbCircle
 10
355.848729
 20
701.323197
 30
0.0
 40
4.000019079308226
100
AcDbArc
 50
180.000171
 51
269.999643
  0
LINE
  5
19E
330
16F
100
AcDbEntity
  8
0
  6
Continuous
 62
     0
370
     0
100
AcDbLine
 10
372.848708
 20
672.956637
 30
0.0
 11
372.848708
 21
672.687932
 31
0.0
  0
LWPOLYLINE
  5
19F
330
16F
100
AcDbEntity
  8
0
  6
Continuous
 62
     0
370
     0
100
AcDbPolyline
 90
        8
 70
     0
 43
0.0
 10
372.848694
 20
672.687927
 10
372.871216
 20
671.47113
 10
372.893616
 20
670.289917
 10
372.915771
 20
669.151123
 10
372.937531
 20
668.061035
 10
372.958801
 20
667.026123
 10
372.979431
 20
666.051941
 10
373.000549
 20
665.089417
  0
LWPOLYLINE
  5
1A0
330
16F
100
AcDbEntity
  8
0
  6
Continuous
 62
     0
370
     0
100
AcDbPolyline
 90
       20
 70
     0
 43
0.0
 10
374.762115
 20
660.323364
 10
374.768738
 20
660.362305
 10
374.776581
 20
660.478577
 10
374.785645
 20
660.671936
 10
374.795868
 20
660.941284
 10
374.80719
 20
661.285461
 10
374.819611
 20
661.703186
 10
374.833069
 20
662.193054
 10
374.847473
 20
662.752441
 10
374.862762
 20
663.379028
 10
374.878906
 20
664.070068
 10
374.895782
 20
664.822144
 10
374.913361
 20
665.63147
 10
374.931488
 20
666.494324
 10
374.950134
 20
667.406921
 10
374.969238
 20
668.365479
 10
374.988678
 20
669.367004
 10
375.008423
 20
670.407471
 10
375.028351
 20
671.480896
 10
375.048676
 20
672.598389
  0
LINE
  5
1A1
330
16F
100
AcDbEntity
  8
0
  6
Continuous
 62
     0
370
     0
100
AcDbLine
 10
375.048663
 20
672.598364
 30
0.0
 11
373.148754
 21
672.598364
 31
0.0
  0
LWPOLYLINE
  5
1A2
330
16F
100
AcDbEntity
  8
0
  6
Continuous
 62
     0
370
     0
100
AcDbPolyline
 90
       20
 70
     0
 43
0.0
 10
373.148743
 20
672.598389
 10
373.168732
 20
671.497864
 10
373.18866
 20
670.424011
 10
373.208435
 20
669.382996
 10
373.227875
 20
668.380859
 10
373.246979
 20
667.42157
 10
373.265625
 20
666.50824
 10
373.283783
 20
665.644592
 10
373.301361
 20
664.834351
 10
373.318237
 20
664.081421
 10
373.334412
 20
663.389343
 10
373.349731
 20
662.76178
 10
373.364136
 20
662.201233
 10
373.377594
 20
661.710327
 10
373.390045
 20
661.291443
 10
373.401398
 20
660.946106
 10
373.411621
 20
660.675537
 10
373.420685
 20
660.481018
 10
373.428558
 20
660.363525
 10
373.435303
 20
660.323364
  0
LWPOLYLINE
  5
1A3
330
16F
100
AcDbEntity
  8
0
  6
Continuous
 62
     0
370
     0
100
AcDbPolyline
 90
       10
 70
     0
 43
0.0
 10
375.171997
 20
664.008545
 10
375.189178
 20
664.749146
 10
375.207123
 20
665.552002
 10
375.225739
 20
666.413452
 10
375.244934
 20
667.329224
 10
375.264618
 20
668.295044
 10
375.284698
 20
669.306274
 10
375.305115
 20
670.358093
 10
375.325714
 20
671.445435
 10
375.348694
 20
672.687927
  0
LWPOLYLINE
  5
1A4
330
16F
100
AcDbEntity
  8
0
  6
Continuous
 62
     0
370
    30
100
AcDbPolyline
 90
       26
 70
     0
 43
0.0
 10
375.115479
 20
691.82312
 10
375.110687
 20
691.783813
 10
375.107208
 20
691.666077
 10
375.105103
 20
691.470642
 10
375.10434
 20
691.198669
 10
375.10495
 20
690.851562
 10
375.106964
 20
690.431396
 10
375.110291
 20
689.940491
 10
375.11499
 20
689.381531
 10
375.121002
 20
688.757751
 10
375.128265
 20
688.07251
 10
375.13678
 20
687.329834
 10
375.146484
 20
686.533875
 10
375.157318
 20
685.688904
 10
375.16922
 20
684.799927
 10
375.182159
 20
683.871704
 10
375.196014
 20
682.909607
 10
375.210724
 20
681.919006
 10
375.226196
 20
680.905396
 10
375.242371
 20
679.874512
 10
375.259125
 20
678.832153
 10
375.276398
 20
677.784119
 10
375.294067
 20
676.736267
 10
375.312042
 20
675.69458
 10
375.330231
 20
674.664856
 10
375.348694
 20
673.643372
  0
LWPOLYLINE
  5
1A5
330
16F
100
AcDbEntity
  8
0
  6
Continuous
 62
     0
370
     0
100
AcDbPolyline
 90
       38
 70
     0
 43
0.0
 10
375.348694
 20
672.687927
 10
375.328491
 20
673.80481
 10
375.30835
 20
674.94043
 10
375.288422
 20
676.088867
 10
375.268738
 20
677.245117
 10
375.249451
 20
678.404175
 10
375.230591
 20
679.560547
 10
375.21225
 20
680.709106
 10
375.19455
 20
681.844543
 10
375.177551
 20
682.961792
 10
375.161316
 20
684.055725
 10
375.145935
 20
685.121399
 10
375.13147
 20
686.153992
 10
375.118011
 20
687.148743
 10
375.105591
 20
688.101135
 10
375.094269
 20
689.007019
 10
375.084106
 20
689.862
 10
375.075134
 20
690.662354
 10
375.067413
 20
691.404541
 10
375.060974
 20
692.085022
 10
375.055817
 20
692.700684
 10
375.052032
 20
693.24884
 10
375.049561
 20
693.72699
 10
375.048462
 20
694.132812
 10
375.048706
 20
694.464783
 10
375.050323
 20
694.721069
 10
375.053314
 20
694.900635
 10
375.057617
 20
695.002686
 10
375.063263
 20
695.026672
 10
375.070221
 20
694.972595
 10
375.0784
 20
694.840698
 10
375.08783
 20
694.63147
 10
375.09845
 20
694.345886
 10
375.110199
 20
693.985474
 10
375.123016
 20
693.551514
 10
375.136871
 20
693.046204
 10
375.151703
 20
692.471863
 10
375.167572
 20
691.823181
  0
LWPOLYLINE
  5
1A6
330
16F
100
AcDbEntity
  8
0
  6
Continuous
 62
     0
370
     0
100
AcDbPolyline
 90
       29
 70
     0
 43
0.0
 10
373.435303
 20
695.322998
 10
373.440643
 20
695.283875
 10
373.444702
 20
695.166321
 10
373.447418
 20
694.971069
 10
373.448792
 20
694.699158
 10
373.448853
 20
694.351624
 10
373.44754
 20
693.929993
 10
373.444885
 20
693.436279
 10
373.440918
 20
692.872559
 10
373.435608
 20
692.24115
 10
373.429047
 20
691.545288
 10
373.421234
 20
690.788513
 10
373.412201
 20
689.974426
 10
373.402008
 20
689.106506
 10
373.390686
 20
688.188293
 10
373.378265
 20
687.223328
 10
373.364807
 20
686.215454
 10
373.350403
 20
685.169556
 10
373.335052
 20
684.090515
 10
373.318878
 20
682.983276
 10
373.301971
 20
681.853271
 10
373.284363
 20
680.705811
 10
373.266174
 20
679.546387
 10
373.247467
 20
678.379944
 10
373.228302
 20
677.211304
 10
373.208801
 20
676.04425
 10
373.188995
 20
674.883728
 10
373.169006
 20
673.736206
 10
373.148743
 20
672.598389
  0
LWPOLYLINE
  5
1A7
330
16F
100
AcDbEntity
  8
0
  6
Continuous
 62
     0
370
     0
100
AcDbPolyline
 90
       29
 70
     0
 43
0.0
 10
375.048676
 20
672.598389
 10
375.028595
 20
673.725891
 10
375.008606
 20
674.873291
 10
374.9888
 20
676.033752
 10
374.969269
 20
677.200745
 10
374.950134
 20
678.369446
 10
374.931427
 20
679.535889
 10
374.913208
 20
680.695435
 10
374.895599
 20
681.842957
 10
374.878662
 20
682.973206
 10
374.862488
 20
684.080627
 10
374.847168
 20
685.159973
 10
374.832733
 20
686.206177
 10
374.819244
 20
687.214417
 10
374.806824
 20
688.17981
 10
374.795502
 20
689.09845
 10
374.785278
 20
689.966858
 10
374.776245
 20
690.781433
 10
374.768433
 20
691.538696
 10
374.761841
 20
692.235107
 10
374.756561
 20
692.867188
 10
374.752563
 20
693.431519
 10
374.749908
 20
693.925842
 10
374.748596
 20
694.348145
 10
374.748627
 20
694.69635
 10
374.749969
 20
694.968933
 10
374.752686
 20
695.164917
 10
374.756744
 20
695.283142
 10
374.762115
 20
695.322998
  0
LWPOLYLINE
  5
1A8
330
16F
100
AcDbEntity
  8
0
  6
Continuous
 62
     0
370
     0
100
AcDbPolyline
 90
       34
 70
     0
 43
0.0
 10
373.08728
 20
693.987244
 10
373.09903
 20
694.347229
 10
373.109619
 20
694.632324
 10
373.119049
 20
694.841187
 10
373.127228
 20
694.9729
 10
373.134155
 20
695.026733
 10
373.139801
 20
695.002625
 10
373.144104
 20
694.900574
 10
373.147095
 20
694.721069
 10
373.148712
 20
694.464905
 10
373.148956
 20
694.133301
 10
373.147858
 20
693.727722
 10
373.145416
 20
693.25
 10
373.141602
 20
692.702332
 10
373.136475
 20
692.087158
 10
373.130035
 20
691.407288
 10
373.122314
 20
690.665833
 10
373.113373
 20
689.86615
 10
373.10321
 20
689.011841
 10
373.091888
 20
688.10675
 10
373.079498
 20
687.15509
 10
373.06604
 20
686.161072
 10
373.051575
 20
685.129272
 10
373.036224
 20
684.064331
 10
373.02002
 20
682.97113
 10
373.003021
 20
681.854614
 10
372.985321
 20
680.719788
 10
372.96701
 20
679.571838
 10
372.948181
 20
678.416016
 10
372.928894
 20
677.257507
 10
372.90921
 20
676.101562
 10
372.889282
 20
674.953491
 10
372.869171
 20
673.81842
 10
372.848694
 20
672.687927
  0
LWPOLYLINE
  5
1A9
330
16F
100
AcDbEntity
  8
0
  6
Continuous
 62
     0
370
     0
100
AcDbPolyline
 90
       29
 70
     0
 43
0.0
 10
372.848694
 20
672.956665
 10
372.86853
 20
674.052246
 10
372.888245
 20
675.166199
 10
372.907776
 20
676.29303
 10
372.927032
 20
677.427246
 10
372.945892
 20
678.563416
 10
372.964264
 20
679.695923
 10
372.982117
 20
680.819275
 10
372.999298
 20
681.928101
 10
373.015747
 20
683.016968
 10
373.031372
 20
684.080505
 10
373.046112
 20
685.113647
 10
373.059906
 20
686.111389
 10
373.072662
 20
687.068787
 10
373.084351
 20
687.981201
 10
373.094849
 20
688.844299
 10
373.104187
 20
689.653809
 10
373.112274
 20
690.405823
 10
373.11908
 20
691.096619
 10
373.124573
 20
691.722961
 10
373.128723
 20
692.281738
 10
373.131531
 20
692.770203
 10
373.132935
 20
693.186035
 10
373.132965
 20
693.527161
 10
373.131622
 20
693.791992
 10
373.128906
 20
693.979248
 10
373.124817
 20
694.087891
 10
373.119415
 20
694.117554
 10
373.11264
 20
694.067566
  0
LWPOLYLINE
  5
1AA
330
16F
100
AcDbEntity
  8
0
  6
Continuous
 62
     0
370
    30
100
AcDbPolyline
 90
        5
 70
     0
 43
0.0
 10
372.848694
 20
672.956665
 10
372.830353
 20
672.987732
 10
372.777496
 20
673.015686
 10
372.696686
 20
673.036987
 10
372.548767
 20
673.051086
  0
LWPOLYLINE
  5
1AB
330
16F
100
AcDbEntity
  8
0
  6
Continuous
 62
     0
370
     0
100
AcDbPolyline
 90
       28
 70
     0
 43
0.0
 10
372.548767
 20
673.051086
 10
372.568451
 20
674.119873
 10
372.588074
 20
675.20752
 10
372.607513
 20
676.307922
 10
372.626648
 20
677.415283
 10
372.645416
 20
678.524292
 10
372.663727
 20
679.629944
 10
372.681488
 20
680.727051
 10
372.698608
 20
681.810242
 10
372.714996
 20
682.874268
 10
372.730591
 20
683.91394
 10
372.7453
 20
684.924438
 10
372.759064
 20
685.900757
 10
372.771851
 20
686.838257
 10
372.783539
 20
687.732483
 10
372.794098
 20
688.579041
 10
372.803467
 20
689.373962
 10
372.811646
 20
690.113342
 10
372.818512
 20
690.793579
 10
372.824127
 20
691.41156
 10
372.8284
 20
691.964233
 10
372.831329
 20
692.448853
 10
372.832886
 20
692.863281
 10
372.833099
 20
693.205322
 10
372.83194
 20
693.47345
 10
372.829407
 20
693.666382
 10
372.825531
 20
693.783142
 10
372.82019
 20
693.82312
  0
LWPOLYLINE
  5
1AC
330
16F
100
AcDbEntity
  8
0
  6
Continuous
 62
     0
370
     0
100
AcDbPolyline
 90
        5
 70
     0
 43
0.0
 10
373.148743
 20
672.598389
 10
373.045349
 20
672.603882
 10
372.954254
 20
672.61969
 10
372.88736
 20
672.643982
 10
372.848694
 20
672.687927
  0
LWPOLYLINE
  5
1AD
330
16F
100
AcDbEntity
  8
0
  6
Continuous
 62
     0
370
     0
100
AcDbPolyline
 90
        5
 70
     0
 43
0.0
 10
375.348694
 20
672.687927
 10
375.33017
 20
672.657043
 10
375.277161
 20
672.629883
 10
375.195953
 20
672.609924
 10
375.048676
 20
672.598389
  0
LINE
  5
1AE
330
16F
100
AcDbEntity
  8
0
  6
Continuous
 62
     0
370
     0
100
AcDbLine
 10
372.34871
 20
673.046206
 30
0.0
 11
372.63194
 21
673.046206
 31
0.0
  0
LINE
  5
1AF
330
16F
100
AcDbEntity
  8
0
  6
Continuous
 62
     0
370
    30
100
AcDbLine
 10
372.348711
 20
661.823185
 30
0.0
 11
373.082273
 21
661.823185
 31
0.0
  0
LINE
  5
1B0
330
16F
100
AcDbEntity
  8
0
  6
Continuous
 62
     0
370
    30
100
AcDbLine
 10
372.348711
 20
693.823185
 30
0.0
 11
372.820209
 21
693.823185
 31
0.0
  0
LINE
  5
1B1
330
16F
100
AcDbEntity
  8
0
  6
Continuous
 62
     0
370
    30
100
AcDbLine
 10
375.167594
 20
663.823185
 30
0.0
 11
375.348709
 21
663.823185
 31
0.0
  0
LINE
  5
1B2
330
16F
100
AcDbEntity
  8
0
  6
Continuous
 62
     0
370
    30
100
AcDbLine
 10
375.115481
 20
691.823185
 30
0.0
 11
375.348709
 21
691.823185
 31
0.0
  0
LWPOLYLINE
  5
1B3
330
16F
100
AcDbEntity
  8
0
  6
Continuous
 62
     0
370
    30
100
AcDbPolyline
 90
       48
 70
     0
 43
0.0
 10
375.348694
 20
672.687439
 10
375.340515
 20
672.242371
 10
375.332367
 20
671.801208
 10
375.324188
 20
671.36438
 10
375.31604
 20
670.932312
 10
375.307922
 20
670.505371
 10
375.299835
 20
670.083862
 10
375.291779
 20
669.668152
 10
375.283783
 20
669.258484
 10
375.275818
 20
668.855225
 10
375.267914
 20
668.458618
 10
375.260071
 20
668.068909
 10
375.252258
 20
667.686462
 10
375.244568
 20
667.311462
 10
375.236938
 20
666.944336
 10
375.22937
 20
666.585266
 10
375.221924
 20
666.234497
 10
375.214539
 20
665.892334
 10
375.207275
 20
665.559021
 10
375.200104
 20
665.234863
 10
375.193054
 20
664.920044
 10
375.186127
 20
664.614746
 10
375.179291
 20
664.319214
 10
375.172607
 20
664.033691
 10
375.166046
 20
663.758301
 10
375.159607
 20
663.493408
 10
375.15332
 20
663.239075
 10
375.147186
 20
662.995605
 10
375.141174
 20
662.763123
 10
375.135345
 20
662.541809
 10
375.129669
 20
662.331848
 10
375.124146
 20
662.133301
 10
375.118774
 20
661.946411
 10
375.113586
 20
661.77124
 10
375.108582
 20
661.60791
 10
375.103729
 20
661.456543
 10
375.09906
 20
661.3172
 10
375.094604
 20
661.190125
 10
375.090302
 20
661.075195
 10
375.086182
 20
660.972534
 10
375.082245
 20
660.88208
 10
375.078491
 20
660.803772
 10
375.07489
 20
660.737366
 10
375.071381
 20
660.682373
 10
375.067749
 20
660.637268
 10
375.063293
 20
660.597107
 10
375.045715
 20
660.523438
 10
374.762146
 20
660.323242
  0
LWPOLYLINE
  5
1B4
330
16F
100
AcDbEntity
  8
0
  6
Continuous
 62
     0
370
    30
100
AcDbPolyline
 90
       48
 70
     0
 43
0.0
 10
372.848724
 20
672.687439
 10
372.856903
 20
672.242371
 10
372.865051
 20
671.801208
 10
372.87323
 20
671.36438
 10
372.881378
 20
670.932312
 10
372.889496
 20
670.505371
 10
372.897583
 20
670.083862
 10
372.90564
 20
669.668091
 10
372.913635
 20
669.258484
 10
372.9216
 20
668.855164
 10
372.929504
 20
668.458496
 10
372.937378
 20
668.068787
 10
372.94516
 20
667.68634
 10
372.95285
 20
667.31134
 10
372.96048
 20
666.944153
 10
372.968048
 20
666.585083
 10
372.975494
 20
666.234314
 10
372.98288
 20
665.892151
 10
372.990143
 20
665.558838
 10
372.997314
 20
665.23468
 10
373.004364
 20
664.9198
 10
373.011322
 20
664.614502
 10
373.018127
 20
664.31897
 10
373.024811
 20
664.033447
 10
373.031372
 20
663.758118
 10
373.037811
 20
663.493164
 10
373.044098
 20
663.238831
 10
373.050262
 20
662.995361
 10
373.056244
 20
662.762939
 10
373.062073
 20
662.541626
 10
373.06778
 20
662.331604
 10
373.073303
 20
662.133118
 10
373.078644
 20
661.946228
 10
373.083832
 20
661.771057
 10
373.088837
 20
661.607727
 10
373.093689
 20
661.45636
 10
373.098358
 20
661.317078
 10
373.102844
 20
661.190002
 10
373.107117
 20
661.075134
 10
373.111237
 20
660.972473
 10
373.115173
 20
660.882019
 10
373.118927
 20
660.803711
 10
373.122559
 20
660.737305
 10
373.126068
 20
660.682312
 10
373.129669
 20
660.637207
 10
373.134125
 20
660.597046
 10
373.151794
 20
660.523193
 10
373.435272
 20
660.323303
  0
LWPOLYLINE
  5
1B5
330
16F
100
AcDbEntity
  8
0
  6
Continuous
 62
     0
370
    30
100
AcDbPolyline
 90
       70
 70
     0
 43
0.0
 10
375.167603
 20
691.823181
 10
375.165405
 20
691.91449
 10
375.163239
 20
692.004578
 10
375.161072
 20
692.093506
 10
375.158905
 20
692.181213
 10
375.156799
 20
692.2677
 10
375.154663
 20
692.352966
 10
375.152588
 20
692.437073
 10
375.150482
 20
692.519897
 10
375.148438
 20
692.60144
 10
375.146393
 20
692.681824
 10
375.144348
 20
692.760864
 10
375.142334
 20
692.838745
 10
375.14035
 20
692.915283
 10
375.138367
 20
692.990601
 10
375.136414
 20
693.064575
 10
375.13446
 20
693.137329
 10
375.132538
 20
693.208801
 10
375.130615
 20
693.278931
 10
375.128754
 20
693.347778
 10
375.126862
 20
693.415344
 10
375.125031
 20
693.481567
 10
375.123199
 20
693.546509
 10
375.121368
 20
693.610107
 10
375.119568
 20
693.672363
 10
375.117798
 20
693.733337
 10
375.116058
 20
693.792908
 10
375.114319
 20
693.851196
 10
375.112579
 20
693.908142
 10
375.110901
 20
693.963684
 10
375.109222
 20
694.017944
 10
375.107544
 20
694.070801
 10
375.105927
 20
694.122314
 10
375.104309
 20
694.172485
 10
375.102692
 20
694.221252
 10
375.101135
 20
694.268616
 10
375.099579
 20
694.314636
 10
375.098022
 20
694.359314
 10
375.096527
 20
694.402588
 10
375.095032
 20
694.444458
 10
375.093536
 20
694.484924
 10
375.092102
 20
694.523987
 10
375.090668
 20
694.561707
 10
375.089233
 20
694.598022
 10
375.08786
 20
694.632996
 10
375.086487
 20
694.666504
 10
375.085144
 20
694.698669
 10
375.083801
 20
694.729431
 10
375.082489
 20
694.758789
 10
375.081207
 20
694.786804
 10
375.079926
 20
694.813416
 10
375.078674
 20
694.838684
 10
375.077454
 20
694.86261
 10
375.076233
 20
694.885193
 10
375.075012
 20
694.906372
 10
375.073822
 20
694.926331
 10
375.072662
 20
694.945007
 10
375.071472
 20
694.962402
 10
375.070312
 20
694.978638
 10
375.069092
 20
694.993896
 10
375.067841
 20
695.00824
 10
375.066528
 20
695.021851
 10
375.065155
 20
695.034973
 10
375.063354
 20
695.048828
 10
375.060791
 20
695.06488
 10
375.056549
 20
695.086182
 10
375.045624
 20
695.123169
 10
375.007019
 20
695.196777
 10
374.906494
 20
695.286011
 10
374.762146
 20
695.323059
  0
LWPOLYLINE
  5
1B6
330
16F
100
AcDbEntity
  8
0
  6
Continuous
 62
     0
370
    30
100
AcDbPolyline
 90
       39
 70
     0
 43
0.0
 10
373.08725
 20
693.987122
 10
373.088989
 20
694.042969
 10
373.090698
 20
694.09729
 10
373.092407
 20
694.150208
 10
373.094055
 20
694.201538
 10
373.095734
 20
694.251465
 10
373.097351
 20
694.299866
 10
373.098938
 20
694.346802
 10
373.100525
 20
694.392212
 10
373.102112
 20
694.436096
 10
373.103638
 20
694.478516
 10
373.105164
 20
694.519409
 10
373.106659
 20
694.558838
 10
373.108124
 20
694.59668
 10
373.109558
 20
694.633118
 10
373.110992
 20
694.667969
 10
373.112396
 20
694.701355
 10
373.11377
 20
694.733215
 10
373.115143
 20
694.763611
 10
373.116486
 20
694.79248
 10
373.117798
 20
694.819885
 10
373.11908
 20
694.845764
 10
373.120361
 20
694.870239
 10
373.121643
 20
694.89325
 10
373.122894
 20
694.914795
 10
373.124115
 20
694.934998
 10
373.125336
 20
694.953796
 10
373.126556
 20
694.971252
 10
373.127808
 20
694.98761
 10
373.129089
 20
695.002869
 10
373.130432
 20
695.017273
 10
373.131836
 20
695.031067
 10
373.133514
 20
695.045105
 10
373.135956
 20
695.061096
 10
373.139893
 20
695.081787
 10
373.149414
 20
695.116394
 10
373.184174
 20
695.187744
 10
373.283813
 20
695.282043
 10
373.435272
 20
695.32312
  0
LWPOLYLINE
  5
1B7
330
16F
100
AcDbEntity
  8
0
  6
Continuous
 62
     0
370
    30
100
AcDbPolyline
 90
        8
 70
     0
 43
0.0
 10
373.113495
 20
694.067505
 10
373.113251
 20
694.065674
 10
373.112
 20
694.058533
 10
373.108124
 20
694.041931
 10
373.095398
 20
694.004822
 10
373.051758
 20
693.932861
 10
372.959473
 20
693.857483
 10
372.82019
 20
693.82312
  0
LINE
  5
1B8
330
16F
100
AcDbEntity
  8
0
  6
Continuous
 62
     0
370
    30
100
AcDbLine
 10
373.435293
 20
695.323185
 30
0.0
 11
374.762125
 21
695.323185
 31
0.0
  0
LINE
  5
1B9
330
16F
100
AcDbEntity
  8
0
  6
Continuous
 62
     0
370
    30
100
AcDbLine
 10
373.435293
 20
660.323185
 30
0.0
 11
374.762125
 21
660.323185
 31
0.0
  0
LWPOLYLINE
  5
1BA
330
16F
100
AcDbEntity
  8
0
  6
Continuous
 62
     0
370
     0
100
AcDbPolyline
 90
        5
 70
     0
 43
0.0
 10
373.148712
 20
527.200623
 10
373.156433
 20
527.050476
 10
373.164124
 20
526.93811
 10
373.171783
 20
526.863647
 10
373.1828
 20
526.823364
  0
LWPOLYLINE
  5
1BB
330
16F
100
AcDbEntity
  8
0
  6
Continuous
 62
     0
370
     0
100
AcDbPolyline
 90
        5
 70
     0
 43
0.0
 10
375.014618
 20
526.823364
 10
375.022217
 20
526.842712
 10
375.029877
 20
526.900269
 10
375.037567
 20
526.995728
 10
375.048706
 20
527.200623
  0
LINE
  5
1BC
330
16F
100
AcDbEntity
  8
0
  6
Continuous
 62
     0
370
     0
100
AcDbLine
 10
375.048697
 20
527.200595
 30
0.0
 11
373.14872
 21
527.200595
 31
0.0
  0
LWPOLYLINE
  5
1BD
330
16F
100
AcDbEntity
  8
0
  6
Continuous
 62
     0
370
     0
100
AcDbPolyline
 90
       27
 70
     0
 43
0.0
 10
375.048706
 20
527.200623
 10
375.037811
 20
527.476868
 10
375.026978
 20
527.827454
 10
375.016174
 20
528.250793
 10
375.005524
 20
528.745361
 10
374.995026
 20
529.309448
 10
374.984711
 20
529.940674
 10
374.97467
 20
530.636902
 10
374.964844
 20
531.395752
 10
374.955353
 20
532.214478
 10
374.946198
 20
533.089905
 10
374.937408
 20
534.018921
 10
374.929047
 20
534.998291
 10
374.921112
 20
536.024292
 10
374.913635
 20
537.09314
 10
374.906647
 20
538.201111
 10
374.900177
 20
539.344238
 10
374.894226
 20
540.518188
 10
374.888855
 20
541.718567
 10
374.884094
 20
542.94104
 10
374.879913
 20
544.181274
 10
374.876312
 20
545.434875
 10
374.873383
 20
546.69751
 10
374.871063
 20
547.964783
 10
374.869415
 20
549.231628
 10
374.868408
 20
550.492615
 10
374.868042
 20
551.786621
  0
LINE
  5
1BE
330
16F
100
AcDbEntity
  8
0
  6
Continuous
 62
     0
370
     0
100
AcDbLine
 10
374.868051
 20
551.786601
 30
0.0
 11
373.329366
 21
551.786601
 31
0.0
  0
LWPOLYLINE
  5
1BF
330
16F
100
AcDbEntity
  8
0
  6
Continuous
 62
     0
370
     0
100
AcDbPolyline
 90
       27
 70
     0
 43
0.0
 10
373.329376
 20
551.786621
 10
373.329041
 20
550.537415
 10
373.328064
 20
549.276733
 10
373.326416
 20
548.01001
 10
373.324127
 20
546.742676
 10
373.321198
 20
545.479736
 10
373.317657
 20
544.225769
 10
373.313507
 20
542.984985
 10
373.308716
 20
541.76178
 10
373.303375
 20
540.560547
 10
373.297455
 20
539.38562
 10
373.291016
 20
538.241333
 10
373.284058
 20
537.132019
 10
373.276581
 20
536.061707
 10
373.268677
 20
535.034058
 10
373.260315
 20
534.052979
 10
373.251526
 20
533.122131
 10
373.242401
 20
532.244751
 10
373.23291
 20
531.42395
 10
373.223114
 20
530.662903
 10
373.213043
 20
529.964417
 10
373.202759
 20
529.330811
 10
373.192261
 20
528.764343
 10
373.18161
 20
528.267212
 10
373.170837
 20
527.841309
 10
373.159973
 20
527.488098
 10
373.148712
 20
527.200623
  0
LWPOLYLINE
  5
1C0
330
16F
100
AcDbEntity
  8
0
  6
Continuous
 62
     0
370
     0
100
AcDbPolyline
 90
       24
 70
     0
 43
0.0
 10
373.1828
 20
568.823059
 10
373.19339
 20
568.785522
 10
373.203796
 20
568.672363
 10
373.213989
 20
568.484314
 10
373.223969
 20
568.222107
 10
373.233673
 20
567.886353
 10
373.243073
 20
567.478516
 10
373.252136
 20
567.000122
 10
373.260834
 20
566.452881
 10
373.269135
 20
565.83844
 10
373.276978
 20
565.159302
 10
373.284363
 20
564.417908
 10
373.29129
 20
563.61676
 10
373.297668
 20
562.758667
 10
373.303528
 20
561.846985
 10
373.308838
 20
560.885071
 10
373.313568
 20
559.876221
 10
373.317688
 20
558.824097
 10
373.321228
 20
557.732239
 10
373.324127
 20
556.604431
 10
373.326385
 20
555.444519
 10
373.328033
 20
554.25708
 10
373.32901
 20
553.047363
 10
373.329376
 20
551.786621
  0
LWPOLYLINE
  5
1C1
330
16F
100
AcDbEntity
  8
0
  6
Continuous
 62
     0
370
     0
100
AcDbPolyline
 90
       24
 70
     0
 43
0.0
 10
374.868042
 20
551.786621
 10
374.868378
 20
553.013916
 10
374.869354
 20
554.224243
 10
374.870972
 20
555.412354
 10
374.87323
 20
556.573059
 10
374.876099
 20
557.701782
 10
374.879608
 20
558.794678
 10
374.883728
 20
559.847961
 10
374.888458
 20
560.858032
 10
374.893738
 20
561.821289
 10
374.899567
 20
562.734436
 10
374.905945
 20
563.593994
 10
374.912842
 20
564.396729
 10
374.920227
 20
565.139771
 10
374.92807
 20
565.820679
 10
374.93634
 20
566.43689
 10
374.945038
 20
566.986084
 10
374.954071
 20
567.46637
 10
374.96347
 20
567.87616
 10
374.973175
 20
568.213867
 10
374.983124
 20
568.478149
 10
374.993347
 20
568.668213
 10
375.003754
 20
568.783386
 10
375.014618
 20
568.823059
  0
LINE
  5
1C2
330
16F
100
AcDbEntity
  8
0
  6
Continuous
 62
     0
370
     0
100
AcDbLine
 10
372.848709
 20
567.739237
 30
0.0
 11
372.848709
 21
568.151174
 31
0.0
  0
LWPOLYLINE
  5
1C3
330
16F
100
AcDbEntity
  8
0
  6
Continuous
 62
     0
370
     0
100
AcDbPolyline
 90
       27
 70
     0
 43
0.0
 10
372.848724
 20
568.151184
 10
372.859619
 20
568.349976
 10
372.870453
 20
568.473999
 10
372.881226
 20
568.522827
 10
372.891907
 20
568.496338
 10
372.902405
 20
568.394592
 10
372.912689
 20
568.217896
 10
372.92276
 20
567.966919
 10
372.932587
 20
567.6427
 10
372.942078
 20
567.246216
 10
372.951233
 20
566.779053
 10
372.960022
 20
566.24292
 10
372.968414
 20
565.639648
 10
372.976349
 20
564.971558
 10
372.983826
 20
564.241028
 10
372.990814
 20
563.450684
 10
372.997284
 20
562.603455
 10
373.003204
 20
561.702454
 10
373.008575
 20
560.750854
 10
373.013367
 20
559.752258
 10
373.017548
 20
558.710205
 10
373.021118
 20
557.628479
 10
373.024048
 20
556.511047
 10
373.026367
 20
555.362061
 10
373.028015
 20
554.185547
 10
373.029022
 20
552.985901
 10
373.029388
 20
551.730469
  0
LWPOLYLINE
  5
1C4
330
16F
100
AcDbEntity
  8
0
  6
Continuous
 62
     0
370
     0
100
AcDbPolyline
 90
       26
 70
     0
 43
0.0
 10
373.029388
 20
551.730469
 10
373.029022
 20
550.446472
 10
373.027954
 20
549.1521
 10
373.026184
 20
547.852478
 10
373.023712
 20
546.552734
 10
373.020538
 20
545.257996
 10
373.016693
 20
543.97345
 10
373.012177
 20
542.704041
 10
373.00705
 20
541.454834
 10
373.001251
 20
540.230774
 10
372.994873
 20
539.036682
 10
372.987915
 20
537.877258
 10
372.980438
 20
536.75708
 10
372.972412
 20
535.680542
 10
372.963898
 20
534.651978
 10
372.954926
 20
533.675354
 10
372.945526
 20
532.754578
 10
372.93576
 20
531.89325
 10
372.925659
 20
531.094788
 10
372.915253
 20
530.362305
 10
372.904572
 20
529.698792
 10
372.893677
 20
529.10675
 10
372.882599
 20
528.588562
 10
372.871399
 20
528.146301
 10
372.860107
 20
527.781677
 10
372.848694
 20
527.495178
  0
LINE
  5
1C5
330
16F
100
AcDbEntity
  8
0
  6
Continuous
 62
     0
370
     0
100
AcDbLine
 10
372.848709
 20
527.495204
 30
0.0
 11
372.848709
 21
528.133522
 31
0.0
  0
LWPOLYLINE
  5
1C6
330
16F
100
AcDbEntity
  8
0
  6
Continuous
 62
     0
370
     0
100
AcDbPolyline
 90
       26
 70
     0
 43
0.0
 10
372.848694
 20
528.133545
 10
372.85968
 20
528.409851
 10
372.870605
 20
528.762634
 10
372.88147
 20
529.190552
 10
372.892181
 20
529.691833
 10
372.90274
 20
530.264526
 10
372.913055
 20
530.906433
 10
372.923157
 20
531.614929
 10
372.932922
 20
532.387329
 10
372.942383
 20
533.220459
 10
372.951477
 20
534.111145
 10
372.960144
 20
535.055847
 10
372.968384
 20
536.050842
 10
372.976166
 20
537.092224
 10
372.983429
 20
538.175903
 10
372.990173
 20
539.297546
 10
372.996338
 20
540.452759
 10
373.001953
 20
541.637024
 10
373.006927
 20
542.845642
 10
373.011322
 20
544.073853
 10
373.015045
 20
545.316895
 10
373.018127
 20
546.569763
 10
373.020508
 20
547.827576
 10
373.022247
 20
549.085327
 10
373.023285
 20
550.338135
 10
373.023651
 20
551.606812
  0
LWPOLYLINE
  5
1C7
330
16F
100
AcDbEntity
  8
0
  6
Continuous
 62
     0
370
     0
100
AcDbPolyline
 90
       25
 70
     0
 43
0.0
 10
373.023651
 20
551.606812
 10
373.023315
 20
552.808044
 10
373.022339
 20
553.99054
 10
373.020691
 20
555.149719
 10
373.018402
 20
556.281311
 10
373.015472
 20
557.380981
 10
373.011902
 20
558.444641
 10
373.007751
 20
559.468262
 10
373.00296
 20
560.447937
 10
372.99762
 20
561.380066
 10
372.991699
 20
562.261047
 10
372.985229
 20
563.087646
 10
372.978271
 20
563.856628
 10
372.970795
 20
564.565186
 10
372.962891
 20
565.210693
 10
372.954529
 20
565.790588
 10
372.94577
 20
566.302734
 10
372.936676
 20
566.745178
 10
372.927216
 20
567.116333
 10
372.91748
 20
567.414795
 10
372.907471
 20
567.639343
 10
372.897247
 20
567.789185
 10
372.886841
 20
567.863708
 10
372.876282
 20
567.862732
 10
372.865326
 20
567.782898
  0
LWPOLYLINE
  5
1C8
330
16F
100
AcDbEntity
  8
0
  6
Continuous
 62
     0
370
     0
100
AcDbPolyline
 90
        5
 70
     0
 43
0.0
 10
373.023651
 20
551.606812
 10
373.0047
 20
551.587524
 10
372.951874
 20
551.570557
 10
372.871643
 20
551.558044
 10
372.723663
 20
551.550659
  0
LWPOLYLINE
  5
1C9
330
16F
100
AcDbEntity
  8
0
  6
Continuous
 62
     0
370
     0
100
AcDbPolyline
 90
       23
 70
     0
 43
0.0
 10
372.723663
 20
551.550659
 10
372.723328
 20
552.758179
 10
372.72229
 20
553.94751
 10
372.720581
 20
555.113159
 10
372.718201
 20
556.249817
 10
372.715149
 20
557.352905
 10
372.711426
 20
558.418457
 10
372.707062
 20
559.442322
 10
372.702087
 20
560.420593
 10
372.696533
 20
561.349426
 10
372.690369
 20
562.224976
 10
372.683655
 20
563.043823
 10
372.676392
 20
563.802856
 10
372.66864
 20
564.498962
 10
372.660431
 20
565.129517
 10
372.651764
 20
565.692017
 10
372.6427
 20
566.184204
 10
372.63327
 20
566.604126
 10
372.623505
 20
566.950256
 10
372.613434
 20
567.221191
 10
372.603119
 20
567.41571
 10
372.59259
 20
567.533203
 10
372.581726
 20
567.573181
  0
ARC
  5
1CA
330
16F
100
AcDbEntity
  8
0
  6
Continuous
 62
     0
370
     0
100
AcDbCircle
 10
372.55127
 20
528.130689
 30
0.0
 40
0.2974524202113118
100
AcDbArc
 50
0.545705
 51
90.495526
  0
LWPOLYLINE
  5
1CB
330
16F
100
AcDbEntity
  8
0
  6
Continuous
 62
     0
370
     0
100
AcDbPolyline
 90
       26
 70
     0
 43
0.0
 10
372.548706
 20
528.428101
 10
372.559662
 20
528.699951
 10
372.570587
 20
529.047302
 10
372.581451
 20
529.468628
 10
372.592163
 20
529.962219
 10
372.602722
 20
530.526123
 10
372.613037
 20
531.157959
 10
372.623108
 20
531.855591
 10
372.632904
 20
532.616089
 10
372.642365
 20
533.436401
 10
372.651459
 20
534.313416
 10
372.660126
 20
535.243652
 10
372.668365
 20
536.223389
 10
372.676147
 20
537.248779
 10
372.683411
 20
538.315857
 10
372.690155
 20
539.42041
 10
372.69632
 20
540.557983
 10
372.701935
 20
541.724304
 10
372.70694
 20
542.914551
 10
372.711304
 20
544.124023
 10
372.715027
 20
545.347961
 10
372.718109
 20
546.581848
 10
372.72052
 20
547.820923
 10
372.72226
 20
549.060364
 10
372.723297
 20
550.294617
 10
372.723663
 20
551.550659
  0
LWPOLYLINE
  5
1CC
330
16F
100
AcDbEntity
  8
0
  6
Continuous
 62
     0
370
     0
100
AcDbPolyline
 90
        4
 70
     0
 43
0.0
 10
372.581726
 20
528.073181
 10
372.570801
 20
528.112549
 10
372.559814
 20
528.230591
 10
372.548706
 20
528.428101
  0
ARC
  5
1CD
330
16F
100
AcDbEntity
  8
0
  6
Continuous
 62
     0
370
     0
100
AcDbCircle
 10
373.1458
 20
527.497682
 30
0.0
 40
0.2971014472584634
100
AcDbArc
 50
180.477971
 51
270.563188
  0
LINE
  5
1CE
330
16F
100
AcDbEntity
  8
0
  6
Continuous
 62
     0
370
     0
100
AcDbLine
 10
372.848709
 20
568.151174
 30
0.0
 11
372.849021
 21
568.164303
 31
0.0
  0
LWPOLYLINE
  5
1CF
330
16F
100
AcDbEntity
  8
0
  6
Continuous
 62
     0
370
     0
100
AcDbPolyline
 90
        5
 70
     0
 43
0.0
 10
373.029388
 20
551.730469
 10
373.04834
 20
551.749817
 10
373.101166
 20
551.766724
 10
373.181396
 20
551.779236
 10
373.329376
 20
551.786621
  0
LINE
  5
1D0
330
16F
100
AcDbEntity
  8
0
  6
Continuous
 62
     0
370
     0
100
AcDbLine
 10
375.348398
 20
568.164307
 30
0.0
 11
375.348709
 21
568.151174
 31
0.0
  0
LWPOLYLINE
  5
1D1
330
16F
100
AcDbEntity
  8
0
  6
Continuous
 62
     0
370
     0
100
AcDbPolyline
 90
       27
 70
     0
 43
0.0
 10
375.348724
 20
568.151184
 10
375.33783
 20
568.349731
 10
375.326965
 20
568.473755
 10
375.316193
 20
568.522766
 10
375.305511
 20
568.496399
 10
375.295013
 20
568.394531
 10
375.284698
 20
568.217773
 10
375.274628
 20
567.966919
 10
375.264832
 20
567.642517
 10
375.255341
 20
567.245972
 10
375.246185
 20
566.778809
 10
375.237396
 20
566.242676
 10
375.229004
 20
565.639343
 10
375.221069
 20
564.971191
 10
375.213593
 20
564.240601
 10
375.206604
 20
563.450256
 10
375.200134
 20
562.602844
 10
375.194214
 20
561.70166
 10
375.188843
 20
560.750122
 10
375.184052
 20
559.751648
 10
375.179871
 20
558.709656
 10
375.1763
 20
557.627991
 10
375.17334
 20
556.510315
 10
375.171051
 20
555.360413
 10
375.169403
 20
554.182983
 10
375.168396
 20
552.983154
 10
375.16803
 20
551.730469
  0
LWPOLYLINE
  5
1D2
330
16F
100
AcDbEntity
  8
0
  6
Continuous
 62
     0
370
     0
100
AcDbPolyline
 90
        5
 70
     0
 43
0.0
 10
375.16803
 20
551.730469
 10
375.149078
 20
551.749817
 10
375.096252
 20
551.766724
 10
375.016022
 20
551.779236
 10
374.868042
 20
551.786621
  0
LWPOLYLINE
  5
1D3
330
16F
100
AcDbEntity
  8
0
  6
Continuous
 62
     0
370
     0
100
AcDbPolyline
 90
       26
 70
     0
 43
0.0
 10
375.16803
 20
551.730469
 10
375.168396
 20
550.447815
 10
375.169464
 20
549.153076
 10
375.171234
 20
547.852356
 10
375.173706
 20
546.551758
 10
375.17688
 20
545.256653
 10
375.180725
 20
543.972046
 10
375.185242
 20
542.702698
 10
375.190399
 20
541.453552
 10
375.196167
 20
540.22937
 10
375.202545
 20
539.035034
 10
375.209503
 20
537.875488
 10
375.21701
 20
536.755249
 10
375.225037
 20
535.678711
 10
375.233551
 20
534.650024
 10
375.242523
 20
533.673401
 10
375.251892
 20
532.752686
 10
375.261658
 20
531.891296
 10
375.27179
 20
531.092896
 10
375.282196
 20
530.360657
 10
375.292877
 20
529.697266
 10
375.303772
 20
529.105225
 10
375.31485
 20
528.587036
 10
375.32608
 20
528.144775
 10
375.337372
 20
527.780273
 10
375.348694
 20
527.495178
  0
ARC
  5
1D4
330
16F
100
AcDbEntity
  8
0
  6
Continuous
 62
     0
370
     0
100
AcDbCircle
 10
375.051279
 20
527.498028
 30
0.0
 40
0.2974435961337619
100
AcDbArc
 50
269.502775
 51
359.456061
  0
LINE
  5
1D5
330
16F
100
AcDbEntity
  8
0
  6
Continuous
 62
     0
370
     0
100
AcDbLine
 10
372.348708
 20
551.550684
 30
0.0
 11
372.723671
 21
551.550684
 31
0.0
  0
LINE
  5
1D6
330
16F
100
AcDbEntity
  8
0
  6
Continuous
 62
     0
370
     0
100
AcDbLine
 10
372.548698
 20
528.428131
 30
0.0
 11
372.348709
 21
528.428131
 31
0.0
  0
LINE
  5
1D7
330
16F
100
AcDbEntity
  8
0
  6
Continuous
 62
     0
370
    30
100
AcDbLine
 10
372.348709
 20
528.073189
 30
0.0
 11
372.581721
 21
528.073189
 31
0.0
  0
LINE
  5
1D8
330
16F
100
AcDbEntity
  8
0
  6
Continuous
 62
     0
370
    30
100
AcDbLine
 10
372.348709
 20
567.573189
 30
0.0
 11
372.581721
 21
567.573189
 31
0.0
  0
LWPOLYLINE
  5
1D9
330
16F
100
AcDbEntity
  8
0
  6
Continuous
 62
     0
370
    30
100
AcDbPolyline
 90
       24
 70
     0
 43
0.0
 10
375.014587
 20
526.823181
 10
375.158386
 20
526.859741
 10
375.251617
 20
526.93811
 10
375.290375
 20
527.001099
 10
375.305145
 20
527.039368
 10
375.312378
 20
527.065369
 10
375.316772
 20
527.085632
 10
375.319977
 20
527.103333
 10
375.32254
 20
527.120117
 10
375.324738
 20
527.13678
 10
375.326752
 20
527.153931
 10
375.328644
 20
527.171753
 10
375.330414
 20
527.190552
 10
375.332153
 20
527.210449
 10
375.333862
 20
527.231506
 10
375.335541
 20
527.253845
 10
375.337189
 20
527.277527
 10
375.338806
 20
527.30249
 10
375.340424
 20
527.328857
 10
375.342041
 20
527.356628
 10
375.343628
 20
527.385742
 10
375.345215
 20
527.416321
 10
375.346802
 20
527.448303
 10
375.348419
 20
527.482056
  0
LWPOLYLINE
  5
1DA
330
16F
100
AcDbEntity
  8
0
  6
Continuous
 62
     0
370
    30
100
AcDbPolyline
 90
       24
 70
     0
 43
0.0
 10
375.348419
 20
568.164307
 10
375.346832
 20
568.197754
 10
375.345245
 20
568.229736
 10
375.343658
 20
568.260254
 10
375.342072
 20
568.289368
 10
375.340454
 20
568.317139
 10
375.338837
 20
568.343445
 10
375.337219
 20
568.368469
 10
375.335571
 20
568.39209
 10
375.333893
 20
568.414429
 10
375.332214
 20
568.435486
 10
375.330475
 20
568.455383
 10
375.328674
 20
568.474182
 10
375.326813
 20
568.491943
 10
375.324799
 20
568.509094
 10
375.322601
 20
568.525818
 10
375.320068
 20
568.542542
 10
375.316864
 20
568.560242
 10
375.312683
 20
568.5802
 10
375.305634
 20
568.605896
 10
375.291077
 20
568.643555
 10
375.253876
 20
568.705444
 10
375.163086
 20
568.784058
 10
375.014587
 20
568.823181
  0
LWPOLYLINE
  5
1DB
330
16F
100
AcDbEntity
  8
0
  6
Continuous
 62
     0
370
    30
100
AcDbPolyline
 90
       24
 70
     0
 43
0.0
 10
373.182831
 20
568.823181
 10
373.039307
 20
568.786865
 10
372.945953
 20
568.708557
 10
372.907257
 20
568.645569
 10
372.892273
 20
568.607117
 10
372.885132
 20
568.581238
 10
372.880615
 20
568.560852
 10
372.877472
 20
568.543213
 10
372.874939
 20
568.52655
 10
372.872711
 20
568.509827
 10
372.870667
 20
568.492615
 10
372.868744
 20
568.474731
 10
372.866943
 20
568.455933
 10
372.865234
 20
568.436218
 10
372.863586
 20
568.415283
 10
372.861938
 20
568.393127
 10
372.860321
 20
568.369629
 10
372.858673
 20
568.344727
 10
372.857056
 20
568.31842
 10
372.855469
 20
568.290771
 10
372.853851
 20
568.261658
 10
372.852264
 20
568.231201
 10
372.850677
 20
568.19928
 10
372.848999
 20
568.164307
  0
LWPOLYLINE
  5
1DC
330
16F
100
AcDbEntity
  8
0
  6
Continuous
 62
     0
370
    30
100
AcDbPolyline
 90
       24
 70
     0
 43
0.0
 10
372.848999
 20
527.482056
 10
372.850586
 20
527.448608
 10
372.852142
 20
527.416687
 10
372.853699
 20
527.38623
 10
372.855255
 20
527.357178
 10
372.856812
 20
527.329529
 10
372.858398
 20
527.303162
 10
372.860016
 20
527.278198
 10
372.861694
 20
527.254456
 10
372.863403
 20
527.231995
 10
372.865173
 20
527.210754
 10
372.867035
 20
527.190674
 10
372.868927
 20
527.171692
 10
372.87085
 20
527.153748
 10
372.872742
 20
527.136841
 10
372.874603
 20
527.120728
 10
372.876831
 20
527.104553
 10
372.880035
 20
527.08667
 10
372.884888
 20
527.065735
 10
372.892273
 20
527.039612
 10
372.906647
 20
527.00177
 10
372.945068
 20
526.939026
 10
373.037506
 20
526.860596
 10
373.182831
 20
526.823181
  0
LWPOLYLINE
  5
1DD
330
16F
100
AcDbEntity
  8
0
  6
Continuous
 62
     0
370
    30
100
AcDbPolyline
 90
        4
 70
     0
 43
0.0
 10
372.581696
 20
528.073181
 10
372.714233
 20
528.042114
 10
372.805786
 20
527.97168
 10
372.848694
 20
527.907104
  0
LWPOLYLINE
  5
1DE
330
16F
100
AcDbEntity
  8
0
  6
Continuous
 62
     0
370
    30
100
AcDbPolyline
 90
        8
 70
     0
 43
0.0
 10
372.868713
 20
567.79718
 10
372.868317
 20
567.795044
 10
372.866577
 20
567.787537
 10
372.861755
 20
567.771301
 10
372.849182
 20
567.740234
 10
372.812805
 20
567.682922
 10
372.727112
 20
567.610962
 10
372.581726
 20
567.573181
  0
LINE
  5
1DF
330
16F
100
AcDbEntity
  8
0
  6
Continuous
 62
     0
370
    30
100
AcDbLine
 10
373.182815
 20
568.823189
 30
0.0
 11
375.014604
 21
568.823189
 31
0.0
  0
LINE
  5
1E0
330
16F
100
AcDbEntity
  8
0
  6
Continuous
 62
     0
370
    30
100
AcDbLine
 10
373.182815
 20
526.823189
 30
0.0
 11
375.014604
 21
526.823189
 31
0.0
  0
ENDBLK
  5
1E2
330
16F
100
AcDbEntity
  8
0
100
AcDbBlockEnd
  0
ENDSEC
  0
SECTION
  2
ENTITIES
  0
INSERT
  5
9E
330
1F
100
AcDbEntity
  8
0
  6
Continuous
 62
     7
420
 16250871
370
     0
100
AcDbBlockReference
  2
a
 10
446.735962
 20
146.428436
 30
0.0
  0
INSERT
  5
102
330
1F
100
AcDbEntity
  8
0
  6
Continuous
 62
     7
420
 16250871
370
     0
100
AcDbBlockReference
  2
b
 10
446.735962
 20
340.864868
 30
0.0
  0
INSERT
  5
16E
330
1F
100
AcDbEntity
  8
0
  6
Continuous
 62
     7
420
 16250871
370
     0
100
AcDbBlockReference
  2
c
 10
446.735962
 20
146.428436
 30
0.0
  0
INSERT
  5
1E3
330
1F
100
AcDbEntity
  8
0
  6
Continuous
 62
     7
420
 16250871
370
     0
100
AcDbBlockReference
  2
d
 10
422.099945
 20
0.0
 30
0.0
  0
ENDSEC
  0
SECTION
  2
OBJECTS
  0
DICTIONARY
  5
C
330
0
100
AcDbDictionary
281
     1
  3
ACAD_DETAILVIEWSTYLE
350
21B
  3
ACAD_GROUP
350
D
  3
ACAD_LAYOUT
350
1A
  3
ACAD_MATERIAL
350
43
  3
ACAD_MLEADERSTYLE
350
6B
  3
ACAD_MLINESTYLE
350
17
  3
ACAD_PLOTSETTINGS
350
19
  3
ACAD_PLOTSTYLENAME
350
E
  3
ACAD_SCALELIST
350
47
  3
ACAD_SECTIONVIEWSTYLE
350
21C
  3
ACAD_TABLESTYLE
350
69
  3
ACAD_VISUALSTYLE
350
2A
  3
ACDB_RECOMPOSE_DATA
350
218
  3
AcDbVariableDictionary
350
1E4
  0
SUN
  5
6D
330
29
100
AcDbSun
 90
        1
290
     0
 63
     7
421
 16777215
 40
1.0
291
     1
 91
  2455826
 92
 54000000
292
     0
 70
     2
 71
   256
280
     1
  0
DICTIONARY
  5
21B
102
{ACAD_REACTORS
330
C
102
}
330
C
100
AcDbDictionary
281
     1
  0
DICTIONARY
  5
D
102
{ACAD_REACTORS
330
C
102
}
330
C
100
AcDbDictionary
281
     1
  0
DICTIONARY
  5
1A
102
{ACAD_REACTORS
330
C
102
}
330
C
100
AcDbDictionary
281
     1
  3
Layout1
350
1E
  3
Layout2
350
26
  3
Model
350
22
  0
DICTIONARY
  5
43
102
{ACAD_REACTORS
330
C
102
}
330
C
100
AcDbDictionary
281
     1
  3
ByBlock
350
45
  3
ByLayer
350
44
  3
Global
350
46
  0
DICTIONARY
  5
6B
102
{ACAD_REACTORS
330
C
102
}
330
C
100
AcDbDictionary
281
     1
  3
Standard
350
6C
  0
DICTIONARY
  5
17
102
{ACAD_REACTORS
330
C
102
}
330
C
100
AcDbDictionary
281
     1
  3
Standard
350
18
  0
DICTIONARY
  5
19
102
{ACAD_REACTORS
330
C
102
}
330
C
100
AcDbDictionary
281
     1
  0
ACDBDICTIONARYWDFLT
  5
E
102
{ACAD_REACTORS
330
C
102
}
330
C
100
AcDbDictionary
281
     1
  3
Normal
350
F
100
AcDbDictionaryWithDefault
340
F
  0
DICTIONARY
  5
47
102
{ACAD_REACTORS
330
C
102
}
330
C
100
AcDbDictionary
281
     1
  3
A0
350
48
  3
A1
350
49
  3
A2
350
4A
  3
A3
350
4B
  3
A4
350
4C
  3
A5
350
4D
  3
A6
350
4E
  3
A7
350
4F
  3
A8
350
50
  3
A9
350
51
  3
B0
350
52
  3
B1
350
53
  3
B2
350
54
  3
B3
350
55
  3
B4
350
56
  3
B5
350
57
  3
B6
350
58
  3
B7
350
59
  3
B8
350
5A
  3
B9
350
5B
  3
C0
350
5C
  3
C1
350
5D
  3
C2
350
5E
  3
C3
350
5F
  3
C4
350
60
  3
C5
350
61
  3
C6
350
62
  3
C7
350
63
  3
C8
350
64
  3
C9
350
65
  3
D0
350
66
  3
D1
350
67
  3
D2
350
68
  0
DICTIONARY
  5
21C
102
{ACAD_REACTORS
330
C
102
}
330
C
100
AcDbDictionary
281
     1
  0
DICTIONARY
  5
69
102
{ACAD_REACTORS
330
C
102
}
330
C
100
AcDbDictionary
281
     1
  3
Standard
350
6A
  0
DICTIONARY
  5
2A
102
{ACAD_REACTORS
330
C
102
}
330
C
100
AcDbDictionary
281
     1
  3
2dWireframe
350
2F
  3
Basic
350
32
  3
Brighten
350
36
  3
ColorChange
350
3A
  3
Conceptual
350
34
  3
Dim
350
35
  3
EdgeColorOff
350
3D
  3
Facepattern
350
39
  3
Flat
350
2B
  3
FlatWithEdges
350
2C
  3
Gouraud
350
2D
  3
GouraudWithEdges
350
2E
  3
Hidden
350
31
  3
JitterOff
350
3B
  3
Linepattern
350
38
  3
OverhangOff
350
3C
  3
Realistic
350
33
  3
Shaded
350
42
  3
Shaded with edges
350
41
  3
Shades of Gray
350
3E
  3
Sketchy
350
3F
  3
Thicken
350
37
  3
Wireframe
350
30
  3
X-Ray
350
40
  0
XRECORD
  5
218
102
{ACAD_REACTORS
330
C
102
}
330
C
100
AcDbXrecord
280
     1
 90
        1
330
6A
  0
DICTIONARY
  5
1E4
102
{ACAD_REACTORS
330
C
102
}
330
C
100
AcDbDictionary
281
     1
  3
CANNOSCALE
350
1E5
  3
CMLEADERSTYLE
350
21A
  3
CTABLESTYLE
350
219
  0
LAYOUT
  5
1E
102
{ACAD_REACTORS
330
1A
102
}
330
1A
100
AcDbPlotSettings
  1

  2
none_device
  4

  6

 40
0.0
 41
0.0
 42
0.0
 43
0.0
 44
0.0
 45
0.0
 46
0.0
 47
0.0
 48
0.0
 49
0.0
140
0.0
141
0.0
142
1.0
143
1.0
 70
   688
 72
     1
 73
     0
 74
     5
  7

 75
    16
 76
     0
 77
     2
 78
   300
147
1.0
148
0.0
149
0.0
100
AcDbLayout
  1
Layout1
 70
     1
 71
     1
 10
0.0
 20
0.0
 11
420.0
 21
297.0
 12
0.0
 22
0.0
 32
0.0
 14
1.000000E+20
 24
1.000000E+20
 34
1.000000E+20
 15
-1.000000E+20
 25
-1.000000E+20
 35
-1.000000E+20
146
0.0
 13
0.0
 23
0.0
 33
0.0
 16
1.0
 26
0.0
 36
0.0
 17
0.0
 27
1.0
 37
0.0
 76
     0
330
1B
  0
LAYOUT
  5
26
102
{ACAD_REACTORS
330
1A
102
}
330
1A
100
AcDbPlotSettings
  1

  2
none_device
  4

  6

 40
0.0
 41
0.0
 42
0.0
 43
0.0
 44
0.0
 45
0.0
 46
0.0
 47
0.0
 48
0.0
 49
0.0
140
0.0
141
0.0
142
1.0
143
1.0
 70
   688
 72
     1
 73
     0
 74
     5
  7

 75
    16
 76
     0
 77
     2
 78
   300
147
1.0
148
0.0
149
0.0
100
AcDbLayout
  1
Layout2
 70
     1
 71
     2
 10
0.0
 20
0.0
 11
0.0
 21
0.0
 12
0.0
 22
0.0
 32
0.0
 14
0.0
 24
0.0
 34
0.0
 15
0.0
 25
0.0
 35
0.0
146
0.0
 13
0.0
 23
0.0
 33
0.0
 16
1.0
 26
0.0
 36
0.0
 17
0.0
 27
1.0
 37
0.0
 76
     0
330
23
  0
LAYOUT
  5
22
102
{ACAD_REACTORS
330
1A
102
}
330
1A
100
AcDbPlotSettings
  1

  2
none_device
  4
Letter_(8.50_x_11.00_Inches)
  6

 40
6.35
 41
6.35
 42
6.350005
 43
6.350005
 44
215.9
 45
279.4
 46
0.0
 47
0.0
 48
0.0
 49
0.0
140
0.0
141
0.0
142
1.0
143
1.0
 70
  1712
 72
     1
 73
     0
 74
     0
  7

 75
     0
 76
     0
 77
     2
 78
   300
147
1.0
148
0.0
149
0.0
100
AcDbLayout
  1
Model
 70
     1
 71
     0
 10
0.0
 20
0.0
 11
420.0
 21
297.0
 12
0.0
 22
0.0
 32
0.0
 14
1.000000E+20
 24
1.000000E+20
 34
1.000000E+20
 15
-1.000000E+20
 25
-1.000000E+20
 35
-1.000000E+20
146
0.0
 13
0.0
 23
0.0
 33
0.0
 16
1.0
 26
0.0
 36
0.0
 17
0.0
 27
1.0
 37
0.0
 76
     0
330
1F
331
29
  0
MATERIAL
  5
45
102
{ACAD_REACTORS
330
43
102
}
330
43
100
AcDbMaterial
  1
ByBlock
 72
     1
 94
      127
  0
MATERIAL
  5
44
102
{ACAD_REACTORS
330
43
102
}
330
43
100
AcDbMaterial
  1
ByLayer
 72
     1
 94
      127
  0
MATERIAL
  5
46
102
{ACAD_REACTORS
330
43
102
}
330
43
100
AcDbMaterial
  1
Global
 72
     1
 94
      127
  0
MLEADERSTYLE
  5
6C
102
{ACAD_REACTORS
330
6B
102
}
330
6B
100
AcDbMLeaderStyle
179
     2
170
     2
171
     1
172
     0
 90
        2
 40
0.0
 41
0.0
173
     1
 91
-1056964608
340
14
 92
       -2
290
     1
 42
2.0
291
     1
 43
8.0
  3
Standard
341
0
 44
4.0
300

342
11
174
     1
178
     6
175
     1
176
     0
 93
-1056964608
 45
4.0
292
     0
297
     0
 46
4.0
343
0
 94
-1056964608
 47
1.0
 49
1.0
140
1.0
293
     1
141
0.0
294
     1
177
     0
142
1.0
295
     0
296
     0
143
3.75
271
     0
272
     9
273
     9
  0
MLINESTYLE
  5
18
102
{ACAD_REACTORS
330
17
102
}
330
17
100
AcDbMlineStyle
  2
Standard
 70
     0
  3

 62
   256
 51
90.0
 52
90.0
 71
     2
 49
0.5
 62
   256
  6
BYLAYER
 49
-0.5
 62
   256
  6
BYLAYER
  0
ACDBPLACEHOLDER
  5
F
102
{ACAD_REACTORS
330
E
102
}
330
E
  0
SCALE
  5
48
102
{ACAD_REACTORS
330
47
102
}
330
47
100
AcDbScale
 70
     0
300
1:1
140
1.0
141
1.0
290
     1
  0
SCALE
  5
49
102
{ACAD_REACTORS
330
47
102
}
330
47
100
AcDbScale
 70
     0
300
1:2
140
1.0
141
2.0
290
     0
  0
SCALE
  5
4A
102
{ACAD_REACTORS
330
47
102
}
330
47
100
AcDbScale
 70
     0
300
1:4
140
1.0
141
4.0
290
     0
  0
SCALE
  5
4B
102
{ACAD_REACTORS
330
47
102
}
330
47
100
AcDbScale
 70
     0
300
1:5
140
1.0
141
5.0
290
     0
  0
SCALE
  5
4C
102
{ACAD_REACTORS
330
47
102
}
330
47
100
AcDbScale
 70
     0
300
1:8
140
1.0
141
8.0
290
     0
  0
SCALE
  5
4D
102
{ACAD_REACTORS
330
47
102
}
330
47
100
AcDbScale
 70
     0
300
1:10
140
1.0
141
10.0
290
     0
  0
SCALE
  5
4E
102
{ACAD_REACTORS
330
47
102
}
330
47
100
AcDbScale
 70
     0
300
1:16
140
1.0
141
16.0
290
     0
  0
SCALE
  5
4F
102
{ACAD_REACTORS
330
47
102
}
330
47
100
AcDbScale
 70
     0
300
1:20
140
1.0
141
20.0
290
     0
  0
SCALE
  5
50
102
{ACAD_REACTORS
330
47
102
}
330
47
100
AcDbScale
 70
     0
300
1:30
140
1.0
141
30.0
290
     0
  0
SCALE
  5
51
102
{ACAD_REACTORS
330
47
102
}
330
47
100
AcDbScale
 70
     0
300
1:40
140
1.0
141
40.0
290
     0
  0
SCALE
  5
52
102
{ACAD_REACTORS
330
47
102
}
330
47
100
AcDbScale
 70
     0
300
1:50
140
1.0
141
50.0
290
     0
  0
SCALE
  5
53
102
{ACAD_REACTORS
330
47
102
}
330
47
100
AcDbScale
 70
     0
300
1:100
140
1.0
141
100.0
290
     0
  0
SCALE
  5
54
102
{ACAD_REACTORS
330
47
102
}
330
47
100
AcDbScale
 70
     0
300
2:1
140
2.0
141
1.0
290
     0
  0
SCALE
  5
55
102
{ACAD_REACTORS
330
47
102
}
330
47
100
AcDbScale
 70
     0
300
4:1
140
4.0
141
1.0
290
     0
  0
SCALE
  5
56
102
{ACAD_REACTORS
330
47
102
}
330
47
100
AcDbScale
 70
     0
300
8:1
140
8.0
141
1.0
290
     0
  0
SCALE
  5
57
102
{ACAD_REACTORS
330
47
102
}
330
47
100
AcDbScale
 70
     0
300
10:1
140
10.0
141
1.0
290
     0
  0
SCALE
  5
58
102
{ACAD_REACTORS
330
47
102
}
330
47
100
AcDbScale
 70
     0
300
100:1
140
100.0
141
1.0
290
     0
  0
SCALE
  5
59
102
{ACAD_REACTORS
330
47
102
}
330
47
100
AcDbScale
 70
     0
300
1/128" = 1'-0"
140
0.007812
141
12.0
290
     0
  0
SCALE
  5
5A
102
{ACAD_REACTORS
330
47
102
}
330
47
100
AcDbScale
 70
     0
300
1/64" = 1'-0"
140
0.015625
141
12.0
290
     0
  0
SCALE
  5
5B
102
{ACAD_REACTORS
330
47
102
}
330
47
100
AcDbScale
 70
     0
300
1/32" = 1'-0"
140
0.03125
141
12.0
290
     0
  0
SCALE
  5
5C
102
{ACAD_REACTORS
330
47
102
}
330
47
100
AcDbScale
 70
     0
300
1/16" = 1'-0"
140
0.0625
141
12.0
290
     0
  0
SCALE
  5
5D
102
{ACAD_REACTORS
330
47
102
}
330
47
100
AcDbScale
 70
     0
300
3/32" = 1'-0"
140
0.09375
141
12.0
290
     0
  0
SCALE
  5
5E
102
{ACAD_REACTORS
330
47
102
}
330
47
100
AcDbScale
 70
     0
300
1/8" = 1'-0"
140
0.125
141
12.0
290
     0
  0
SCALE
  5
5F
102
{ACAD_REACTORS
330
47
102
}
330
47
100
AcDbScale
 70
     0
300
3/16" = 1'-0"
140
0.1875
141
12.0
290
     0
  0
SCALE
  5
60
102
{ACAD_REACTORS
330
47
102
}
330
47
100
AcDbScale
 70
     0
300
1/4" = 1'-0"
140
0.25
141
12.0
290
     0
  0
SCALE
  5
61
102
{ACAD_REACTORS
330
47
102
}
330
47
100
AcDbScale
 70
     0
300
3/8" = 1'-0"
140
0.375
141
12.0
290
     0
  0
SCALE
  5
62
102
{ACAD_REACTORS
330
47
102
}
330
47
100
AcDbScale
 70
     0
300
1/2" = 1'-0"
140
0.5
141
12.0
290
     0
  0
SCALE
  5
63
102
{ACAD_REACTORS
330
47
102
}
330
47
100
AcDbScale
 70
     0
300
3/4" = 1'-0"
140
0.75
141
12.0
290
     0
  0
SCALE
  5
64
102
{ACAD_REACTORS
330
47
102
}
330
47
100
AcDbScale
 70
     0
300
1" = 1'-0"
140
1.0
141
12.0
290
     0
  0
SCALE
  5
65
102
{ACAD_REACTORS
330
47
102
}
330
47
100
AcDbScale
 70
     0
300
1-1/2" = 1'-0"
140
1.5
141
12.0
290
     0
  0
SCALE
  5
66
102
{ACAD_REACTORS
330
47
102
}
330
47
100
AcDbScale
 70
     0
300
3" = 1'-0"
140
3.0
141
12.0
290
     0
  0
SCALE
  5
67
102
{ACAD_REACTORS
330
47
102
}
330
47
100
AcDbScale
 70
     0
300
6" = 1'-0"
140
6.0
141
12.0
290
     0
  0
SCALE
  5
68
102
{ACAD_REACTORS
330
47
102
}
330
47
100
AcDbScale
 70
     0
300
1'-0" = 1'-0"
140
12.0
141
12.0
290
     0
  0
TABLESTYLE
  5
6A
102
{ACAD_REACTORS
330
69
102
}
102
{ACAD_XDICTIONARY
360
216
102
}
330
69
100
AcDbTableStyle
  3
Standard
 70
     0
 71
     0
 40
0.06
 41
0.06
280
     0
281
     0
  7
Standard
140
4.5
170
     2
 62
     0
 63
   257
283
     0
 90
        4
 91
        0
  1

274
    -2
284
     1
 64
     0
275
    -2
285
     1
 65
     0
276
    -2
286
     1
 66
     0
277
    -2
287
     1
 67
     0
278
    -2
288
     1
 68
     0
279
    -2
289
     1
 69
     0
  7
Standard
140
6.0
170
     5
 62
     0
 63
   257
283
     0
 90
        4
 91
        0
  1

274
    -2
284
     1
 64
     0
275
    -2
285
     1
 65
     0
276
    -2
286
     1
 66
     0
277
    -2
287
     1
 67
     0
278
    -2
288
     1
 68
     0
279
    -2
289
     1
 69
     0
  7
Standard
140
4.5
170
     5
 62
     0
 63
   257
283
     0
 90
        4
 91
        0
  1

274
    -2
284
     1
 64
     0
275
    -2
285
     1
 65
     0
276
    -2
286
     1
 66
     0
277
    -2
287
     1
 67
     0
278
    -2
288
     1
 68
     0
279
    -2
289
     1
 69
     0
  0
VISUALSTYLE
  5
2F
102
{ACAD_REACTORS
330
2A
102
}
102
{ACAD_XDICTIONARY
360
1EE
102
}
330
2A
100
AcDbVisualStyle
  2
2dWireframe
 70
     4
177
     2
291
     0
 71
     0
176
     1
 72
     2
176
     1
 73
     0
176
     1
 90
        0
176
     1
 40
0.6
176
     1
 41
30.0
176
     1
 62
     5
 63
     7
421
 16777215
176
     1
 74
     1
176
     1
 91
        4
176
     1
 64
     7
176
     1
 65
   257
176
     1
 75
     1
176
     1
175
     1
176
     1
 42
1.0
176
     1
 92
        0
176
     1
 66
   257
176
     1
 43
1.0
176
     1
 76
     1
176
     1
 77
     6
176
     1
 78
     2
176
     1
 67
     7
176
     1
 79
     5
176
     1
170
     0
176
     1
171
     0
176
     1
290
     0
176
     1
 93
        1
176
     1
 44
0.0
176
     1
173
     0
176
     1
  0
VISUALSTYLE
  5
32
102
{ACAD_REACTORS
330
2A
102
}
102
{ACAD_XDICTIONARY
360
1F4
102
}
330
2A
100
AcDbVisualStyle
  2
Basic
 70
     7
177
     2
291
     1
 71
     1
176
     1
 72
     0
176
     1
 73
     1
176
     1
 90
        0
176
     1
 40
0.6
176
     1
 41
30.0
176
     1
 62
     5
 63
     7
421
 16777215
176
     1
 74
     0
176
     1
 91
        4
176
     1
 64
     7
176
     1
 65
   257
176
     1
 75
     1
176
     1
175
     1
176
     1
 42
1.0
176
     1
 92
        8
176
     1
 66
     7
176
     1
 43
1.0
176
     1
 76
     1
176
     1
 77
     6
176
     1
 78
     2
176
     1
 67
     7
176
     1
 79
     5
176
     1
170
     0
176
     1
171
     0
176
     1
290
     0
176
     1
 93
        1
176
     1
 44
0.0
176
     1
173
     0
176
     1
  0
VISUALSTYLE
  5
36
102
{ACAD_REACTORS
330
2A
102
}
102
{ACAD_XDICTIONARY
360
1FC
102
}
330
2A
100
AcDbVisualStyle
  2
Brighten
 70
    12
177
     2
291
     1
 71
     2
176
     1
 72
     2
176
     1
 73
     0
176
     1
 90
        0
176
     1
 40
0.6
176
     1
 41
30.0
176
     1
 62
     5
 63
     7
421
 16777215
176
     1
 74
     1
176
     1
 91
        4
176
     1
 64
     7
176
     1
 65
   257
176
     1
 75
     1
176
     1
175
     1
176
     1
 42
1.0
176
     1
 92
        8
176
     1
 66
     7
176
     1
 43
1.0
176
     1
 76
     1
176
     1
 77
     6
176
     1
 78
     2
176
     1
 67
     7
176
     1
 79
     5
176
     1
170
     0
176
     1
171
     0
176
     1
290
     0
176
     1
 93
        1
176
     1
 44
50.0
176
     1
173
     0
176
     1
  0
VISUALSTYLE
  5
3A
102
{ACAD_REACTORS
330
2A
102
}
102
{ACAD_XDICTIONARY
360
204
102
}
330
2A
100
AcDbVisualStyle
  2
ColorChange
 70
    16
177
     2
291
     1
 71
     2
176
     1
 72
     2
176
     1
 73
     3
176
     1
 90
        0
176
     1
 40
0.6
176
     1
 41
30.0
176
     1
 62
     5
 63
     8
421
  8421504
176
     1
 74
     1
176
     1
 91
        4
176
     1
 64
     7
176
     1
 65
   257
176
     1
 75
     1
176
     1
175
     1
176
     1
 42
1.0
176
     1
 92
        8
176
     1
 66
     8
424
  8421504
176
     1
 43
1.0
176
     1
 76
     1
176
     1
 77
     6
176
     1
 78
     2
176
     1
 67
     7
176
     1
 79
     5
176
     1
170
     0
176
     1
171
     0
176
     1
290
     0
176
     1
 93
        1
176
     1
 44
0.0
176
     1
173
     0
176
     1
  0
VISUALSTYLE
  5
34
102
{ACAD_REACTORS
330
2A
102
}
102
{ACAD_XDICTIONARY
360
1F8
102
}
330
2A
100
AcDbVisualStyle
  2
Conceptual
 70
     9
177
     2
291
     0
 71
     3
176
     1
 72
     2
176
     1
 73
     0
176
     1
 90
        0
176
     1
 40
0.6
176
     1
 41
30.0
176
     1
 62
     5
 63
     7
421
 16777215
176
     1
 74
     2
176
     1
 91
        2
176
     1
 64
     7
176
     1
 65
   257
176
     1
 75
     1
176
     1
175
     1
176
     1
 42
179.0
176
     1
 92
        8
176
     1
 66
     7
176
     1
 43
1.0
176
     1
 76
     1
176
     1
 77
     6
176
     1
 78
     2
176
     1
 67
     7
176
     1
 79
     3
176
     1
170
     0
176
     1
171
     0
176
     1
290
     0
176
     1
 93
        1
176
     1
 44
0.0
176
     1
173
     0
176
     1
  0
VISUALSTYLE
  5
35
102
{ACAD_REACTORS
330
2A
102
}
102
{ACAD_XDICTIONARY
360
1FA
102
}
330
2A
100
AcDbVisualStyle
  2
Dim
 70
    11
177
     2
291
     1
 71
     2
176
     1
 72
     2
176
     1
 73
     0
176
     1
 90
        0
176
     1
 40
0.6
176
     1
 41
30.0
176
     1
 62
     5
 63
     7
421
 16777215
176
     1
 74
     1
176
     1
 91
        4
176
     1
 64
     7
176
     1
 65
   257
176
     1
 75
     1
176
     1
175
     1
176
     1
 42
1.0
176
     1
 92
        8
176
     1
 66
     7
176
     1
 43
1.0
176
     1
 76
     1
176
     1
 77
     6
176
     1
 78
     2
176
     1
 67
     7
176
     1
 79
     5
176
     1
170
     0
176
     1
171
     0
176
     1
290
     0
176
     1
 93
        1
176
     1
 44
-50.0
176
     1
173
     0
176
     1
  0
VISUALSTYLE
  5
3D
102
{ACAD_REACTORS
330
2A
102
}
102
{ACAD_XDICTIONARY
360
20A
102
}
330
2A
100
AcDbVisualStyle
  2
EdgeColorOff
 70
    22
177
     2
291
     1
 71
     2
176
     0
 72
     2
176
     0
 73
     0
176
     0
 90
        0
176
     0
 40
0.6
176
     0
 41
30.0
176
     0
 62
     5
 63
     7
421
 16777215
176
     0
 74
     1
176
     0
 91
        4
176
     0
 64
     7
176
     0
 65
   257
176
     0
 75
     1
176
     0
175
     1
176
     0
 42
1.0
176
     0
 92
        8
176
     2
 66
     7
176
     0
 43
1.0
176
     0
 76
     1
176
     0
 77
     6
176
     0
 78
     2
176
     0
 67
     7
176
     0
 79
     5
176
     0
170
     0
176
     0
171
     0
176
     0
290
     0
176
     0
 93
        1
176
     0
 44
0.0
176
     0
173
     0
176
     0
  0
VISUALSTYLE
  5
39
102
{ACAD_REACTORS
330
2A
102
}
102
{ACAD_XDICTIONARY
360
202
102
}
330
2A
100
AcDbVisualStyle
  2
Facepattern
 70
    15
177
     2
291
     1
 71
     2
176
     1
 72
     2
176
     1
 73
     0
176
     1
 90
        0
176
     1
 40
0.6
176
     1
 41
30.0
176
     1
 62
     5
 63
     7
421
 16777215
176
     1
 74
     1
176
     1
 91
        4
176
     1
 64
     7
176
     1
 65
   257
176
     1
 75
     1
176
     1
175
     1
176
     1
 42
1.0
176
     1
 92
        8
176
     1
 66
     7
176
     1
 43
1.0
176
     1
 76
     1
176
     1
 77
     6
176
     1
 78
     2
176
     1
 67
     7
176
     1
 79
     5
176
     1
170
     0
176
     1
171
     0
176
     1
290
     0
176
     1
 93
        1
176
     1
 44
0.0
176
     1
173
     0
176
     1
  0
VISUALSTYLE
  5
2B
102
{ACAD_REACTORS
330
2A
102
}
102
{ACAD_XDICTIONARY
360
1E6
102
}
330
2A
100
AcDbVisualStyle
  2
Flat
 70
     0
177
     2
291
     1
 71
     2
176
     1
 72
     1
176
     1
 73
     1
176
     1
 90
        2
176
     1
 40
0.6
176
     1
 41
30.0
176
     1
 62
     5
 63
     7
421
 16777215
176
     1
 74
     0
176
     1
 91
        0
176
     1
 64
     7
176
     1
 65
   257
176
     1
 75
     1
176
     1
175
     1
176
     1
 42
1.0
176
     1
 92
        8
176
     1
 66
     7
176
     1
 43
1.0
176
     1
 76
     1
176
     1
 77
     6
176
     1
 78
     2
176
     1
 67
     7
176
     1
 79
     5
176
     1
170
     0
176
     1
171
     0
176
     1
290
     0
176
     1
 93
       13
176
     1
 44
0.0
176
     1
173
     0
176
     1
  0
VISUALSTYLE
  5
2C
102
{ACAD_REACTORS
330
2A
102
}
102
{ACAD_XDICTIONARY
360
1E8
102
}
330
2A
100
AcDbVisualStyle
  2
FlatWithEdges
 70
     1
177
     2
291
     1
 71
     2
176
     1
 72
     1
176
     1
 73
     1
176
     1
 90
        2
176
     1
 40
0.6
176
     1
 41
30.0
176
     1
 62
     5
 63
     7
421
 16777215
176
     1
 74
     1
176
     1
 91
        0
176
     1
 64
     7
176
     1
 65
   257
176
     1
 75
     1
176
     1
175
     1
176
     1
 42
1.0
176
     1
 92
        0
176
     1
 66
   257
176
     1
 43
1.0
176
     1
 76
     1
176
     1
 77
     6
176
     1
 78
     2
176
     1
 67
     7
176
     1
 79
     5
176
     1
170
     0
176
     1
171
     0
176
     1
290
     0
176
     1
 93
       13
176
     1
 44
0.0
176
     1
173
     0
176
     1
  0
VISUALSTYLE
  5
2D
102
{ACAD_REACTORS
330
2A
102
}
102
{ACAD_XDICTIONARY
360
1EA
102
}
330
2A
100
AcDbVisualStyle
  2
Gouraud
 70
     2
177
     2
291
     1
 71
     2
176
     1
 72
     2
176
     1
 73
     1
176
     1
 90
        2
176
     1
 40
0.6
176
     1
 41
30.0
176
     1
 62
     5
 63
     7
421
 16777215
176
     1
 74
     0
176
     1
 91
        0
176
     1
 64
     7
176
     1
 65
   257
176
     1
 75
     1
176
     1
175
     1
176
     1
 42
1.0
176
     1
 92
        0
176
     1
 66
     7
176
     1
 43
1.0
176
     1
 76
     1
176
     1
 77
     6
176
     1
 78
     2
176
     1
 67
     7
176
     1
 79
     5
176
     1
170
     0
176
     1
171
     0
176
     1
290
     0
176
     1
 93
       13
176
     1
 44
0.0
176
     1
173
     0
176
     1
  0
VISUALSTYLE
  5
2E
102
{ACAD_REACTORS
330
2A
102
}
102
{ACAD_XDICTIONARY
360
1EC
102
}
330
2A
100
AcDbVisualStyle
  2
GouraudWithEdges
 70
     3
177
     2
291
     1
 71
     2
176
     1
 72
     2
176
     1
 73
     1
176
     1
 90
        2
176
     1
 40
0.6
176
     1
 41
30.0
176
     1
 62
     5
 63
     7
421
 16777215
176
     1
 74
     1
176
     1
 91
        0
176
     1
 64
     7
176
     1
 65
   257
176
     1
 75
     1
176
     1
175
     1
176
     1
 42
1.0
176
     1
 92
        0
176
     1
 66
   257
176
     1
 43
1.0
176
     1
 76
     1
176
     1
 77
     6
176
     1
 78
     2
176
     1
 67
     7
176
     1
 79
     5
176
     1
170
     0
176
     1
171
     0
176
     1
290
     0
176
     1
 93
       13
176
     1
 44
0.0
176
     1
173
     0
176
     1
  0
VISUALSTYLE
  5
31
102
{ACAD_REACTORS
330
2A
102
}
102
{ACAD_XDICTIONARY
360
1F2
102
}
330
2A
100
AcDbVisualStyle
  2
Hidden
 70
     6
177
     2
291
     0
 71
     1
176
     1
 72
     2
176
     1
 73
     2
176
     1
 90
        0
176
     1
 40
0.6
176
     1
 41
30.0
176
     1
 62
     5
 63
     7
421
 16777215
176
     1
 74
     2
176
     1
 91
        2
176
     1
 64
     7
176
     1
 65
   257
176
     1
 75
     2
176
     1
175
     1
176
     1
 42
40.0
176
     1
 92
        0
176
     1
 66
   257
176
     1
 43
1.0
176
     1
 76
     1
176
     1
 77
     6
176
     1
 78
     2
176
     1
 67
     7
176
     1
 79
     3
176
     1
170
     0
176
     1
171
     0
176
     1
290
     0
176
     1
 93
        1
176
     1
 44
0.0
176
     1
173
     0
176
     1
  0
VISUALSTYLE
  5
3B
102
{ACAD_REACTORS
330
2A
102
}
102
{ACAD_XDICTIONARY
360
206
102
}
330
2A
100
AcDbVisualStyle
  2
JitterOff
 70
    20
177
     2
291
     1
 71
     2
176
     0
 72
     2
176
     0
 73
     0
176
     0
 90
        0
176
     0
 40
0.6
176
     0
 41
30.0
176
     0
 62
     5
 63
     7
421
 16777215
176
     0
 74
     1
176
     0
 91
        4
176
     0
 64
     7
176
     0
 65
   257
176
     0
 75
     1
176
     0
175
     1
176
     0
 42
1.0
176
     0
 92
       10
176
     2
 66
     7
176
     0
 43
1.0
176
     0
 76
     1
176
     0
 77
     6
176
     0
 78
     2
176
     0
 67
     7
176
     0
 79
     5
176
     0
170
     0
176
     0
171
     0
176
     0
290
     0
176
     0
 93
        1
176
     0
 44
0.0
176
     0
173
     0
176
     0
  0
VISUALSTYLE
  5
38
102
{ACAD_REACTORS
330
2A
102
}
102
{ACAD_XDICTIONARY
360
200
102
}
330
2A
100
AcDbVisualStyle
  2
Linepattern
 70
    14
177
     2
291
     1
 71
     2
176
     1
 72
     2
176
     1
 73
     0
176
     1
 90
        0
176
     1
 40
0.6
176
     1
 41
30.0
176
     1
 62
     5
 63
     7
421
 16777215
176
     1
 74
     1
176
     1
 91
        4
176
     1
 64
     7
176
     1
 65
   257
176
     1
 75
     7
176
     1
175
     7
176
     1
 42
1.0
176
     1
 92
        8
176
     1
 66
     7
176
     1
 43
1.0
176
     1
 76
     1
176
     1
 77
     6
176
     1
 78
     2
176
     1
 67
     7
176
     1
 79
     5
176
     1
170
     0
176
     1
171
     0
176
     1
290
     0
176
     1
 93
        1
176
     1
 44
0.0
176
     1
173
     0
176
     1
  0
VISUALSTYLE
  5
3C
102
{ACAD_REACTORS
330
2A
102
}
102
{ACAD_XDICTIONARY
360
208
102
}
330
2A
100
AcDbVisualStyle
  2
OverhangOff
 70
    21
177
     2
291
     1
 71
     2
176
     0
 72
     2
176
     0
 73
     0
176
     0
 90
        0
176
     0
 40
0.6
176
     0
 41
30.0
176
     0
 62
     5
 63
     7
421
 16777215
176
     0
 74
     1
176
     0
 91
        4
176
     0
 64
     7
176
     0
 65
   257
176
     0
 75
     1
176
     0
175
     1
176
     0
 42
1.0
176
     0
 92
        9
176
     2
 66
     7
176
     0
 43
1.0
176
     0
 76
     1
176
     0
 77
     6
176
     0
 78
     2
176
     0
 67
     7
176
     0
 79
     5
176
     0
170
     0
176
     0
171
     0
176
     0
290
     0
176
     0
 93
        1
176
     0
 44
0.0
176
     0
173
     0
176
     0
  0
VISUALSTYLE
  5
33
102
{ACAD_REACTORS
330
2A
102
}
102
{ACAD_XDICTIONARY
360
1F6
102
}
330
2A
100
AcDbVisualStyle
  2
Realistic
 70
     8
177
     2
291
     0
 71
     2
176
     1
 72
     3
176
     1
 73
     0
176
     1
 90
        2
176
     1
 40
0.6
176
     1
 41
30.0
176
     1
 62
     5
 63
     7
421
 16777215
176
     1
 74
     0
176
     1
 91
        0
176
     1
 64
     7
176
     1
 65
   257
176
     1
 75
     1
176
     1
175
     1
176
     1
 42
1.0
176
     1
 92
        8
176
     1
 66
   257
176
     1
 43
1.0
176
     1
 76
     1
176
     1
 77
     6
176
     1
 78
     2
176
     1
 67
     7
176
     1
 79
     3
176
     1
170
     0
176
     1
171
     0
176
     1
290
     0
176
     1
 93
       13
176
     1
 44
0.0
176
     1
173
     0
176
     1
  0
VISUALSTYLE
  5
42
102
{ACAD_REACTORS
330
2A
102
}
102
{ACAD_XDICTIONARY
360
214
102
}
330
2A
100
AcDbVisualStyle
  2
Shaded
 70
    27
177
     2
291
     0
 71
     2
176
     1
 72
     2
176
     1
 73
     1
176
     1
 90
        2
176
     1
 40
0.6
176
     1
 41
30.0
176
     1
 62
     5
 63
     7
421
 16777215
176
     1
 74
     0
176
     1
 91
        4
176
     1
 64
     7
176
     1
 65
   257
176
     1
 75
     1
176
     1
175
     1
176
     1
 42
1.0
176
     1
 92
        8
176
     1
 66
   257
176
     1
 43
1.0
176
     1
 76
     1
176
     1
 77
     6
176
     1
 78
     2
176
     1
 67
     8
425
  7895160
176
     1
 79
     3
176
     1
170
     0
176
     1
171
     0
176
     1
290
     0
176
     1
 93
        5
176
     1
 44
0.0
176
     1
173
     0
176
     1
  0
VISUALSTYLE
  5
41
102
{ACAD_REACTORS
330
2A
102
}
102
{ACAD_XDICTIONARY
360
212
102
}
330
2A
100
AcDbVisualStyle
  2
Shaded with edges
 70
    26
177
     2
291
     0
 71
     2
176
     1
 72
     2
176
     1
 73
     1
176
     1
 90
        2
176
     1
 40
0.6
176
     1
 41
30.0
176
     1
 62
     5
 63
     7
421
 16777215
176
     1
 74
     1
176
     1
 91
       10
176
     1
 64
     7
176
     1
 65
   257
176
     1
 75
     2
176
     1
175
     1
176
     1
 42
1.0
176
     1
 92
        8
176
     1
 66
   257
176
     1
 43
1.0
176
     1
 76
     1
176
     1
 77
     6
176
     1
 78
     2
176
     1
 67
     7
176
     1
 79
     3
176
     1
170
     0
176
     1
171
     0
176
     1
290
     0
176
     1
 93
        5
176
     1
 44
0.0
176
     1
173
     0
176
     1
  0
VISUALSTYLE
  5
3E
102
{ACAD_REACTORS
330
2A
102
}
102
{ACAD_XDICTIONARY
360
20C
102
}
330
2A
100
AcDbVisualStyle
  2
Shades of Gray
 70
    23
177
     2
291
     0
 71
     2
176
     1
 72
     2
176
     1
 73
     3
176
     1
 90
        0
176
     1
 40
0.6
176
     1
 41
30.0
176
     1
 62
     5
 63
     7
421
 16777215
176
     1
 74
     2
176
     1
 91
        2
176
     1
 64
     7
176
     1
 65
     7
176
     1
 75
     1
176
     1
175
     1
176
     1
 42
40.0
176
     1
 92
        8
176
     1
 66
     7
176
     1
 43
1.0
176
     1
 76
     1
176
     1
 77
     6
176
     1
 78
     2
176
     1
 67
     7
176
     1
 79
     3
176
     1
170
     0
176
     1
171
     0
176
     1
290
     0
176
     1
 93
        1
176
     1
 44
0.0
176
     1
173
     0
176
     1
  0
VISUALSTYLE
  5
3F
102
{ACAD_REACTORS
330
2A
102
}
102
{ACAD_XDICTIONARY
360
20E
102
}
330
2A
100
AcDbVisualStyle
  2
Sketchy
 70
    24
177
     2
291
     0
 71
     1
176
     1
 72
     2
176
     1
 73
     2
176
     1
 90
        0
176
     1
 40
0.6
176
     1
 41
30.0
176
     1
 62
     5
 63
     7
421
 16777215
176
     1
 74
     2
176
     1
 91
        2
176
     1
 64
     7
176
     1
 65
     7
176
     1
 75
     1
176
     1
175
     1
176
     1
 42
40.0
176
     1
 92
       11
176
     1
 66
     7
176
     1
 43
1.0
176
     1
 76
     1
176
     1
 77
     6
176
     1
 78
     2
176
     1
 67
     7
176
     1
 79
     6
176
     1
170
     0
176
     1
171
     0
176
     1
290
     0
176
     1
 93
        1
176
     1
 44
0.0
176
     1
173
     0
176
     1
  0
VISUALSTYLE
  5
37
102
{ACAD_REACTORS
330
2A
102
}
102
{ACAD_XDICTIONARY
360
1FE
102
}
330
2A
100
AcDbVisualStyle
  2
Thicken
 70
    13
177
     2
291
     1
 71
     2
176
     1
 72
     2
176
     1
 73
     0
176
     1
 90
        0
176
     1
 40
0.6
176
     1
 41
30.0
176
     1
 62
     5
 63
     7
421
 16777215
176
     1
 74
     1
176
     1
 91
        4
176
     1
 64
     7
176
     1
 65
   257
176
     1
 75
     1
176
     1
175
     1
176
     1
 42
1.0
176
     1
 92
       12
176
     1
 66
     7
176
     1
 43
1.0
176
     1
 76
     1
176
     1
 77
     6
176
     1
 78
     2
176
     1
 67
     7
176
     1
 79
     5
176
     1
170
     0
176
     1
171
     0
176
     1
290
     0
176
     1
 93
        1
176
     1
 44
0.0
176
     1
173
     0
176
     1
  0
VISUALSTYLE
  5
30
102
{ACAD_REACTORS
330
2A
102
}
102
{ACAD_XDICTIONARY
360
1F0
102
}
330
2A
100
AcDbVisualStyle
  2
Wireframe
 70
     5
177
     2
291
     0
 71
     0
176
     1
 72
     2
176
     1
 73
     0
176
     1
 90
        0
176
     1
 40
0.6
176
     1
 41
30.0
176
     1
 62
     5
 63
     7
421
 16777215
176
     1
 74
     1
176
     1
 91
        4
176
     1
 64
     7
176
     1
 65
   257
176
     1
 75
     1
176
     1
175
     1
176
     1
 42
1.0
176
     1
 92
        0
176
     1
 66
   257
176
     1
 43
1.0
176
     1
 76
     1
176
     1
 77
     6
176
     1
 78
     2
176
     1
 67
     7
176
     1
 79
     3
176
     1
170
     0
176
     1
171
     0
176
     1
290
     0
176
     1
 93
        1
176
     1
 44
0.0
176
     1
173
     0
176
     1
  0
VISUALSTYLE
  5
40
102
{ACAD_REACTORS
330
2A
102
}
102
{ACAD_XDICTIONARY
360
210
102
}
330
2A
100
AcDbVisualStyle
  2
X-Ray
 70
    25
177
     2
291
     0
 71
     2
176
     1
 72
     2
176
     1
 73
     1
176
     1
 90
        1
176
     1
 40
0.5
176
     1
 41
30.0
176
     1
 62
     5
 63
     7
421
 16777215
176
     1
 74
     1
176
     1
 91
        0
176
     1
 64
     7
176
     1
 65
   257
176
     1
 75
     1
176
     1
175
     1
176
     1
 42
1.0
176
     1
 92
        8
176
     1
 66
     7
176
     1
 43
1.0
176
     1
 76
     1
176
     1
 77
     6
176
     1
 78
     2
176
     1
 67
     7
176
     1
 79
     3
176
     1
170
     0
176
     1
171
     0
176
     1
290
     0
176
     1
 93
       13
176
     1
 44
0.0
176
     1
173
     0
176
     1
  0
DICTIONARYVAR
  5
1E5
102
{ACAD_REACTORS
330
1E4
102
}
330
1E4
100
DictionaryVariables
280
     0
  1
1:1
  0
DICTIONARYVAR
  5
21A
102
{ACAD_REACTORS
330
1E4
102
}
330
1E4
100
DictionaryVariables
280
     0
  1
Standard
  0
DICTIONARYVAR
  5
219
102
{ACAD_REACTORS
330
1E4
102
}
330
1E4
100
DictionaryVariables
280
     0
  1
Standard
  0
DICTIONARY
  5
216
330
6A
100
AcDbDictionary
280
     1
281
     1
  3
ACAD_ROUNDTRIP_2008_TABLESTYLE_CELLSTYLEMAP
360
217
  0
DICTIONARY
  5
1EE
330
2F
100
AcDbDictionary
280
     1
281
     1
  3
ACAD_XREC_ROUNDTRIP
360
1EF
  0
DICTIONARY
  5
1F4
330
32
100
AcDbDictionary
280
     1
281
     1
  3
ACAD_XREC_ROUNDTRIP
360
1F5
  0
DICTIONARY
  5
1FC
330
36
100
AcDbDictionary
280
     1
281
     1
  3
ACAD_XREC_ROUNDTRIP
360
1FD
  0
DICTIONARY
  5
204
330
3A
100
AcDbDictionary
280
     1
281
     1
  3
ACAD_XREC_ROUNDTRIP
360
205
  0
DICTIONARY
  5
1F8
330
34
100
AcDbDictionary
280
     1
281
     1
  3
ACAD_XREC_ROUNDTRIP
360
1F9
  0
DICTIONARY
  5
1FA
330
35
100
AcDbDictionary
280
     1
281
     1
  3
ACAD_XREC_ROUNDTRIP
360
1FB
  0
DICTIONARY
  5
20A
330
3D
100
AcDbDictionary
280
     1
281
     1
  3
ACAD_XREC_ROUNDTRIP
360
20B
  0
DICTIONARY
  5
202
330
39
100
AcDbDictionary
280
     1
281
     1
  3
ACAD_XREC_ROUNDTRIP
360
203
  0
DICTIONARY
  5
1E6
330
2B
100
AcDbDictionary
280
     1
281
     1
  3
ACAD_XREC_ROUNDTRIP
360
1E7
  0
DICTIONARY
  5
1E8
330
2C
100
AcDbDictionary
280
     1
281
     1
  3
ACAD_XREC_ROUNDTRIP
360
1E9
  0
DICTIONARY
  5
1EA
330
2D
100
AcDbDictionary
280
     1
281
     1
  3
ACAD_XREC_ROUNDTRIP
360
1EB
  0
DICTIONARY
  5
1EC
330
2E
100
AcDbDictionary
280
     1
281
     1
  3
ACAD_XREC_ROUNDTRIP
360
1ED
  0
DICTIONARY
  5
1F2
330
31
100
AcDbDictionary
280
     1
281
     1
  3
ACAD_XREC_ROUNDTRIP
360
1F3
  0
DICTIONARY
  5
206
330
3B
100
AcDbDictionary
280
     1
281
     1
  3
ACAD_XREC_ROUNDTRIP
360
207
  0
DICTIONARY
  5
200
330
38
100
AcDbDictionary
280
     1
281
     1
  3
ACAD_XREC_ROUNDTRIP
360
201
  0
DICTIONARY
  5
208
330
3C
100
AcDbDictionary
280
     1
281
     1
  3
ACAD_XREC_ROUNDTRIP
360
209
  0
DICTIONARY
  5
1F6
330
33
100
AcDbDictionary
280
     1
281
     1
  3
ACAD_XREC_ROUNDTRIP
360
1F7
  0
DICTIONARY
  5
214
330
42
100
AcDbDictionary
280
     1
281
     1
  3
ACAD_XREC_ROUNDTRIP
360
215
  0
DICTIONARY
  5
212
330
41
100
AcDbDictionary
280
     1
281
     1
  3
ACAD_XREC_ROUNDTRIP
360
213
  0
DICTIONARY
  5
20C
330
3E
100
AcDbDictionary
280
     1
281
     1
  3
ACAD_XREC_ROUNDTRIP
360
20D
  0
DICTIONARY
  5
20E
330
3F
100
AcDbDictionary
280
     1
281
     1
  3
ACAD_XREC_ROUNDTRIP
360
20F
  0
DICTIONARY
  5
1FE
330
37
100
AcDbDictionary
280
     1
281
     1
  3
ACAD_XREC_ROUNDTRIP
360
1FF
  0
DICTIONARY
  5
1F0
330
30
100
AcDbDictionary
280
     1
281
     1
  3
ACAD_XREC_ROUNDTRIP
360
1F1
  0
DICTIONARY
  5
210
330
40
100
AcDbDictionary
280
     1
281
     1
  3
ACAD_XREC_ROUNDTRIP
360
211
  0
CELLSTYLEMAP
  5
217
102
{ACAD_REACTORS
330
216
102
}
330
216
100
AcDbCellStyleMap
 90
        3
300
CELLSTYLE
  1
TABLEFORMAT_BEGIN
 90
        5
170
     1
 91
        0
 92
    32768
 62
   257
 93
        1
300
CONTENTFORMAT
  1
CONTENTFORMAT_BEGIN
 90
        0
 91
        0
 92
        4
 93
        0
300

 40
0.0
140
1.0
 94
        5
 62
     0
340
11
144
6.0
309
CONTENTFORMAT_END
171
     1
301
MARGIN
  1
CELLMARGIN_BEGIN
 40
1.5
 40
1.5
 40
1.5
 40
1.5
 40
1.5
 40
1.5
309
CELLMARGIN_END
 94
        6
 95
        1
302
GRIDFORMAT
  1
GRIDFORMAT_BEGIN
 90
        0
 91
        1
 62
     0
 92
       -2
340
14
 93
        0
 40
0.045
309
GRIDFORMAT_END
 95
        2
302
GRIDFORMAT
  1
GRIDFORMAT_BEGIN
 90
        0
 91
        1
 62
     0
 92
       -2
340
14
 93
        0
 40
0.045
309
GRIDFORMAT_END
 95
        4
302
GRIDFORMAT
  1
GRIDFORMAT_BEGIN
 90
        0
 91
        1
 62
     0
 92
       -2
340
14
 93
        0
 40
0.045
309
GRIDFORMAT_END
 95
        8
302
GRIDFORMAT
  1
GRIDFORMAT_BEGIN
 90
        0
 91
        1
 62
     0
 92
       -2
340
14
 93
        0
 40
0.045
309
GRIDFORMAT_END
 95
       16
302
GRIDFORMAT
  1
GRIDFORMAT_BEGIN
 90
        0
 91
        1
 62
     0
 92
       -2
340
14
 93
        0
 40
0.045
309
GRIDFORMAT_END
 95
       32
302
GRIDFORMAT
  1
GRIDFORMAT_BEGIN
 90
        0
 91
        1
 62
     0
 92
       -2
340
14
 93
        0
 40
0.045
309
GRIDFORMAT_END
309
TABLEFORMAT_END
  1
CELLSTYLE_BEGIN
 90
        1
 91
        1
300
_TITLE
309
CELLSTYLE_END
300
CELLSTYLE
  1
TABLEFORMAT_BEGIN
 90
        5
170
     1
 91
        0
 92
        0
 62
   257
 93
        1
300
CONTENTFORMAT
  1
CONTENTFORMAT_BEGIN
 90
        0
 91
        0
 92
        4
 93
        0
300

 40
0.0
140
1.0
 94
        5
 62
     0
340
11
144
4.5
309
CONTENTFORMAT_END
171
     1
301
MARGIN
  1
CELLMARGIN_BEGIN
 40
1.5
 40
1.5
 40
1.5
 40
1.5
 40
1.5
 40
1.5
309
CELLMARGIN_END
 94
        6
 95
        1
302
GRIDFORMAT
  1
GRIDFORMAT_BEGIN
 90
        0
 91
        1
 62
     0
 92
       -2
340
14
 93
        0
 40
0.045
309
GRIDFORMAT_END
 95
        2
302
GRIDFORMAT
  1
GRIDFORMAT_BEGIN
 90
        0
 91
        1
 62
     0
 92
       -2
340
14
 93
        0
 40
0.045
309
GRIDFORMAT_END
 95
        4
302
GRIDFORMAT
  1
GRIDFORMAT_BEGIN
 90
        0
 91
        1
 62
     0
 92
       -2
340
14
 93
        0
 40
0.045
309
GRIDFORMAT_END
 95
        8
302
GRIDFORMAT
  1
GRIDFORMAT_BEGIN
 90
        0
 91
        1
 62
     0
 92
       -2
340
14
 93
        0
 40
0.045
309
GRIDFORMAT_END
 95
       16
302
GRIDFORMAT
  1
GRIDFORMAT_BEGIN
 90
        0
 91
        1
 62
     0
 92
       -2
340
14
 93
        0
 40
0.045
309
GRIDFORMAT_END
 95
       32
302
GRIDFORMAT
  1
GRIDFORMAT_BEGIN
 90
        0
 91
        1
 62
     0
 92
       -2
340
14
 93
        0
 40
0.045
309
GRIDFORMAT_END
309
TABLEFORMAT_END
  1
CELLSTYLE_BEGIN
 90
        2
 91
        1
300
_HEADER
309
CELLSTYLE_END
300
CELLSTYLE
  1
TABLEFORMAT_BEGIN
 90
        5
170
     1
 91
        0
 92
        0
 62
   257
 93
        1
300
CONTENTFORMAT
  1
CONTENTFORMAT_BEGIN
 90
        0
 91
        0
 92
        4
 93
        0
300

 40
0.0
140
1.0
 94
        2
 62
     0
340
11
144
4.5
309
CONTENTFORMAT_END
171
     1
301
MARGIN
  1
CELLMARGIN_BEGIN
 40
1.5
 40
1.5
 40
1.5
 40
1.5
 40
1.5
 40
1.5
309
CELLMARGIN_END
 94
        6
 95
        1
302
GRIDFORMAT
  1
GRIDFORMAT_BEGIN
 90
        0
 91
        1
 62
     0
 92
       -2
340
14
 93
        0
 40
0.045
309
GRIDFORMAT_END
 95
        2
302
GRIDFORMAT
  1
GRIDFORMAT_BEGIN
 90
        0
 91
        1
 62
     0
 92
       -2
340
14
 93
        0
 40
0.045
309
GRIDFORMAT_END
 95
        4
302
GRIDFORMAT
  1
GRIDFORMAT_BEGIN
 90
        0
 91
        1
 62
     0
 92
       -2
340
14
 93
        0
 40
0.045
309
GRIDFORMAT_END
 95
        8
302
GRIDFORMAT
  1
GRIDFORMAT_BEGIN
 90
        0
 91
        1
 62
     0
 92
       -2
340
14
 93
        0
 40
0.045
309
GRIDFORMAT_END
 95
       16
302
GRIDFORMAT
  1
GRIDFORMAT_BEGIN
 90
        0
 91
        1
 62
     0
 92
       -2
340
14
 93
        0
 40
0.045
309
GRIDFORMAT_END
 95
       32
302
GRIDFORMAT
  1
GRIDFORMAT_BEGIN
 90
        0
 91
        1
 62
     0
 92
       -2
340
14
 93
        0
 40
0.045
309
GRIDFORMAT_END
309
TABLEFORMAT_END
  1
CELLSTYLE_BEGIN
 90
        3
 91
        2
300
_DATA
309
CELLSTYLE_END
  0
XRECORD
  5
1EF
102
{ACAD_REACTORS
330
1EE
102
}
330
1EE
100
AcDbXrecord
280
     1
102
RTVSPost2010Prop28
280
     1
102
RTVSPost2010PropOp28
 70
     1
102
RTVSPost2010Prop29
280
     1
102
RTVSPost2010PropOp29
 70
     1
102
RTVSPost2010Prop30
280
     0
102
RTVSPost2010PropOp30
 70
     1
102
RTVSPost2010Prop31
280
     0
102
RTVSPost2010PropOp31
 70
     1
102
RTVSPost2010Prop32
280
     0
102
RTVSPost2010PropOp32
 70
     1
102
RTVSPost2010Prop33
280
     0
102
RTVSPost2010PropOp33
 70
     1
102
RTVSPost2010Prop34
280
     0
102
RTVSPost2010PropOp34
 70
     1
102
RTVSPost2010Prop35
280
     0
102
RTVSPost2010PropOp35
 70
     1
102
RTVSPost2010Prop36
280
     0
102
RTVSPost2010PropOp36
 70
     1
102
RTVSPost2010Prop37
 90
       50
102
RTVSPost2010PropOp37
 70
     1
102
RTVSPost2010Prop38
140
0.0
102
RTVSPost2010PropOp38
 70
     1
102
RTVSPost2010Prop39
140
1.0
102
RTVSPost2010PropOp39
 70
     1
102
RTVSPost2010Prop40
 90
        0
102
RTVSPost2010PropOp40
 70
     1
102
RTVSPost2010Prop41ColorIndex
 90
       18
102
RTVSPost2010Prop41ColorRGB
 90
        0
102
RTVSPost2010PropOp41
 70
     1
102
RTVSPost2010Prop42
 90
       50
102
RTVSPost2010PropOp42
 70
     1
102
RTVSPost2010Prop43
 90
        3
102
RTVSPost2010PropOp43
 70
     1
102
RTVSPost2010Prop44ColorIndex
 90
        5
102
RTVSPost2010Prop44ColorRGB
 90
      255
102
RTVSPost2010PropOp44
 70
     1
102
RTVSPost2010Prop45
280
     0
102
RTVSPost2010PropOp45
 70
     1
102
RTVSPost2010Prop46
 90
       50
102
RTVSPost2010PropOp46
 70
     1
102
RTVSPost2010Prop47
 90
       50
102
RTVSPost2010PropOp47
 70
     1
102
RTVSPost2010Prop48
 90
       50
102
RTVSPost2010PropOp48
 70
     1
102
RTVSPost2010Prop49
280
     0
102
RTVSPost2010PropOp49
 70
     1
102
RTVSPost2010Prop50
 90
       50
102
RTVSPost2010PropOp50
 70
     1
102
RTVSPost2010Prop51ColorIndex
 90
      256
102
RTVSPost2010Prop51ColorRGB
 90
-16777216
102
RTVSPost2010PropOp51
 70
     0
102
RTVSPost2010Prop52
140
1.0
102
RTVSPost2010PropOp52
 70
     0
102
RTVSPost2010Prop53
 90
        2
102
RTVSPost2010PropOp53
 70
     1
102
RTVSPost2010Prop54
  1
strokes_ogs.tif
102
RTVSPost2010PropOp54
 70
     1
102
RTVSPost2010Prop55
280
     0
102
RTVSPost2010PropOp55
 70
     1
102
RTVSPost2010Prop56
140
1.0
102
RTVSPost2010PropOp56
 70
     1
102
RTVSPost2010Prop57
140
1.0
102
RTVSPost2010PropOp57
 70
     1
  0
XRECORD
  5
1F5
102
{ACAD_REACTORS
330
1F4
102
}
330
1F4
100
AcDbXrecord
280
     1
102
RTVSPost2010Prop28
280
     0
102
RTVSPost2010PropOp28
 70
     1
102
RTVSPost2010Prop29
280
     1
102
RTVSPost2010PropOp29
 70
     1
102
RTVSPost2010Prop30
280
     1
102
RTVSPost2010PropOp30
 70
     1
102
RTVSPost2010Prop31
280
     0
102
RTVSPost2010PropOp31
 70
     1
102
RTVSPost2010Prop32
280
     0
102
RTVSPost2010PropOp32
 70
     1
102
RTVSPost2010Prop33
280
     0
102
RTVSPost2010PropOp33
 70
     1
102
RTVSPost2010Prop34
280
     0
102
RTVSPost2010PropOp34
 70
     1
102
RTVSPost2010Prop35
280
     0
102
RTVSPost2010PropOp35
 70
     1
102
RTVSPost2010Prop36
280
     0
102
RTVSPost2010PropOp36
 70
     1
102
RTVSPost2010Prop37
 90
       50
102
RTVSPost2010PropOp37
 70
     1
102
RTVSPost2010Prop38
140
0.0
102
RTVSPost2010PropOp38
 70
     1
102
RTVSPost2010Prop39
140
1.0
102
RTVSPost2010PropOp39
 70
     1
102
RTVSPost2010Prop40
 90
        0
102
RTVSPost2010PropOp40
 70
     1
102
RTVSPost2010Prop41ColorIndex
 90
       18
102
RTVSPost2010Prop41ColorRGB
 90
        0
102
RTVSPost2010PropOp41
 70
     1
102
RTVSPost2010Prop42
 90
       50
102
RTVSPost2010PropOp42
 70
     1
102
RTVSPost2010Prop43
 90
        3
102
RTVSPost2010PropOp43
 70
     1
102
RTVSPost2010Prop44ColorIndex
 90
        5
102
RTVSPost2010Prop44ColorRGB
 90
      255
102
RTVSPost2010PropOp44
 70
     1
102
RTVSPost2010Prop45
280
     0
102
RTVSPost2010PropOp45
 70
     1
102
RTVSPost2010Prop46
 90
       50
102
RTVSPost2010PropOp46
 70
     1
102
RTVSPost2010Prop47
 90
       50
102
RTVSPost2010PropOp47
 70
     1
102
RTVSPost2010Prop48
 90
       50
102
RTVSPost2010PropOp48
 70
     1
102
RTVSPost2010Prop49
280
     0
102
RTVSPost2010PropOp49
 70
     1
102
RTVSPost2010Prop50
 90
       50
102
RTVSPost2010PropOp50
 70
     1
102
RTVSPost2010Prop51ColorIndex
 90
      256
102
RTVSPost2010Prop51ColorRGB
 90
-16777216
102
RTVSPost2010PropOp51
 70
     0
102
RTVSPost2010Prop52
140
1.0
102
RTVSPost2010PropOp52
 70
     0
102
RTVSPost2010Prop53
 90
        2
102
RTVSPost2010PropOp53
 70
     1
102
RTVSPost2010Prop54
  1
strokes_ogs.tif
102
RTVSPost2010PropOp54
 70
     1
102
RTVSPost2010Prop55
280
     0
102
RTVSPost2010PropOp55
 70
     1
102
RTVSPost2010Prop56
140
1.0
102
RTVSPost2010PropOp56
 70
     1
102
RTVSPost2010Prop57
140
1.0
102
RTVSPost2010PropOp57
 70
     1
  0
XRECORD
  5
1FD
102
{ACAD_REACTORS
330
1FC
102
}
330
1FC
100
AcDbXrecord
280
     1
102
RTVSPost2010Prop28
280
     0
102
RTVSPost2010PropOp28
 70
     1
102
RTVSPost2010Prop29
280
     1
102
RTVSPost2010PropOp29
 70
     1
102
RTVSPost2010Prop30
280
     1
102
RTVSPost2010PropOp30
 70
     1
102
RTVSPost2010Prop31
280
     0
102
RTVSPost2010PropOp31
 70
     1
102
RTVSPost2010Prop32
280
     0
102
RTVSPost2010PropOp32
 70
     1
102
RTVSPost2010Prop33
280
     0
102
RTVSPost2010PropOp33
 70
     1
102
RTVSPost2010Prop34
280
     0
102
RTVSPost2010PropOp34
 70
     1
102
RTVSPost2010Prop35
280
     0
102
RTVSPost2010PropOp35
 70
     1
102
RTVSPost2010Prop36
280
     0
102
RTVSPost2010PropOp36
 70
     1
102
RTVSPost2010Prop37
 90
       50
102
RTVSPost2010PropOp37
 70
     1
102
RTVSPost2010Prop38
140
0.0
102
RTVSPost2010PropOp38
 70
     1
102
RTVSPost2010Prop39
140
1.0
102
RTVSPost2010PropOp39
 70
     1
102
RTVSPost2010Prop40
 90
        0
102
RTVSPost2010PropOp40
 70
     1
102
RTVSPost2010Prop41ColorIndex
 90
       18
102
RTVSPost2010Prop41ColorRGB
 90
        0
102
RTVSPost2010PropOp41
 70
     1
102
RTVSPost2010Prop42
 90
       50
102
RTVSPost2010PropOp42
 70
     1
102
RTVSPost2010Prop43
 90
        3
102
RTVSPost2010PropOp43
 70
     1
102
RTVSPost2010Prop44ColorIndex
 90
        5
102
RTVSPost2010Prop44ColorRGB
 90
      255
102
RTVSPost2010PropOp44
 70
     1
102
RTVSPost2010Prop45
280
     0
102
RTVSPost2010PropOp45
 70
     1
102
RTVSPost2010Prop46
 90
       50
102
RTVSPost2010PropOp46
 70
     1
102
RTVSPost2010Prop47
 90
       50
102
RTVSPost2010PropOp47
 70
     1
102
RTVSPost2010Prop48
 90
       50
102
RTVSPost2010PropOp48
 70
     1
102
RTVSPost2010Prop49
280
     0
102
RTVSPost2010PropOp49
 70
     1
102
RTVSPost2010Prop50
 90
       50
102
RTVSPost2010PropOp50
 70
     1
102
RTVSPost2010Prop51ColorIndex
 90
      256
102
RTVSPost2010Prop51ColorRGB
 90
-16777216
102
RTVSPost2010PropOp51
 70
     0
102
RTVSPost2010Prop52
140
1.0
102
RTVSPost2010PropOp52
 70
     0
102
RTVSPost2010Prop53
 90
        2
102
RTVSPost2010PropOp53
 70
     1
102
RTVSPost2010Prop54
  1
strokes_ogs.tif
102
RTVSPost2010PropOp54
 70
     1
102
RTVSPost2010Prop55
280
     0
102
RTVSPost2010PropOp55
 70
     1
102
RTVSPost2010Prop56
140
1.0
102
RTVSPost2010PropOp56
 70
     1
102
RTVSPost2010Prop57
140
1.0
102
RTVSPost2010PropOp57
 70
     1
  0
XRECORD
  5
205
102
{ACAD_REACTORS
330
204
102
}
330
204
100
AcDbXrecord
280
     1
102
RTVSPost2010Prop28
280
     0
102
RTVSPost2010PropOp28
 70
     1
102
RTVSPost2010Prop29
280
     1
102
RTVSPost2010PropOp29
 70
     1
102
RTVSPost2010Prop30
280
     1
102
RTVSPost2010PropOp30
 70
     1
102
RTVSPost2010Prop31
280
     0
102
RTVSPost2010PropOp31
 70
     1
102
RTVSPost2010Prop32
280
     0
102
RTVSPost2010PropOp32
 70
     1
102
RTVSPost2010Prop33
280
     0
102
RTVSPost2010PropOp33
 70
     1
102
RTVSPost2010Prop34
280
     0
102
RTVSPost2010PropOp34
 70
     1
102
RTVSPost2010Prop35
280
     0
102
RTVSPost2010PropOp35
 70
     1
102
RTVSPost2010Prop36
280
     0
102
RTVSPost2010PropOp36
 70
     1
102
RTVSPost2010Prop37
 90
       50
102
RTVSPost2010PropOp37
 70
     1
102
RTVSPost2010Prop38
140
0.0
102
RTVSPost2010PropOp38
 70
     1
102
RTVSPost2010Prop39
140
1.0
102
RTVSPost2010PropOp39
 70
     1
102
RTVSPost2010Prop40
 90
        0
102
RTVSPost2010PropOp40
 70
     1
102
RTVSPost2010Prop41ColorIndex
 90
       18
102
RTVSPost2010Prop41ColorRGB
 90
        0
102
RTVSPost2010PropOp41
 70
     1
102
RTVSPost2010Prop42
 90
       50
102
RTVSPost2010PropOp42
 70
     1
102
RTVSPost2010Prop43
 90
        3
102
RTVSPost2010PropOp43
 70
     1
102
RTVSPost2010Prop44ColorIndex
 90
        5
102
RTVSPost2010Prop44ColorRGB
 90
      255
102
RTVSPost2010PropOp44
 70
     1
102
RTVSPost2010Prop45
280
     0
102
RTVSPost2010PropOp45
 70
     1
102
RTVSPost2010Prop46
 90
       50
102
RTVSPost2010PropOp46
 70
     1
102
RTVSPost2010Prop47
 90
       50
102
RTVSPost2010PropOp47
 70
     1
102
RTVSPost2010Prop48
 90
       50
102
RTVSPost2010PropOp48
 70
     1
102
RTVSPost2010Prop49
280
     0
102
RTVSPost2010PropOp49
 70
     1
102
RTVSPost2010Prop50
 90
       50
102
RTVSPost2010PropOp50
 70
     1
102
RTVSPost2010Prop51ColorIndex
 90
      256
102
RTVSPost2010Prop51ColorRGB
 90
-16777216
102
RTVSPost2010PropOp51
 70
     0
102
RTVSPost2010Prop52
140
1.0
102
RTVSPost2010PropOp52
 70
     0
102
RTVSPost2010Prop53
 90
        2
102
RTVSPost2010PropOp53
 70
     1
102
RTVSPost2010Prop54
  1
strokes_ogs.tif
102
RTVSPost2010PropOp54
 70
     1
102
RTVSPost2010Prop55
280
     0
102
RTVSPost2010PropOp55
 70
     1
102
RTVSPost2010Prop56
140
1.0
102
RTVSPost2010PropOp56
 70
     1
102
RTVSPost2010Prop57
140
1.0
102
RTVSPost2010PropOp57
 70
     1
  0
XRECORD
  5
1F9
102
{ACAD_REACTORS
330
1F8
102
}
330
1F8
100
AcDbXrecord
280
     1
102
RTVSPost2010Prop28
280
     0
102
RTVSPost2010PropOp28
 70
     1
102
RTVSPost2010Prop29
280
     1
102
RTVSPost2010PropOp29
 70
     1
102
RTVSPost2010Prop30
280
     1
102
RTVSPost2010PropOp30
 70
     1
102
RTVSPost2010Prop31
280
     0
102
RTVSPost2010PropOp31
 70
     1
102
RTVSPost2010Prop32
280
     0
102
RTVSPost2010PropOp32
 70
     1
102
RTVSPost2010Prop33
280
     0
102
RTVSPost2010PropOp33
 70
     1
102
RTVSPost2010Prop34
280
     0
102
RTVSPost2010PropOp34
 70
     1
102
RTVSPost2010Prop35
280
     0
102
RTVSPost2010PropOp35
 70
     1
102
RTVSPost2010Prop36
280
     0
102
RTVSPost2010PropOp36
 70
     1
102
RTVSPost2010Prop37
 90
       50
102
RTVSPost2010PropOp37
 70
     1
102
RTVSPost2010Prop38
140
0.0
102
RTVSPost2010PropOp38
 70
     1
102
RTVSPost2010Prop39
140
1.0
102
RTVSPost2010PropOp39
 70
     1
102
RTVSPost2010Prop40
 90
        0
102
RTVSPost2010PropOp40
 70
     1
102
RTVSPost2010Prop41ColorIndex
 90
       18
102
RTVSPost2010Prop41ColorRGB
 90
        0
102
RTVSPost2010PropOp41
 70
     1
102
RTVSPost2010Prop42
 90
       50
102
RTVSPost2010PropOp42
 70
     1
102
RTVSPost2010Prop43
 90
        3
102
RTVSPost2010PropOp43
 70
     1
102
RTVSPost2010Prop44ColorIndex
 90
        5
102
RTVSPost2010Prop44ColorRGB
 90
      255
102
RTVSPost2010PropOp44
 70
     1
102
RTVSPost2010Prop45
280
     0
102
RTVSPost2010PropOp45
 70
     1
102
RTVSPost2010Prop46
 90
       50
102
RTVSPost2010PropOp46
 70
     1
102
RTVSPost2010Prop47
 90
       50
102
RTVSPost2010PropOp47
 70
     1
102
RTVSPost2010Prop48
 90
       50
102
RTVSPost2010PropOp48
 70
     1
102
RTVSPost2010Prop49
280
     0
102
RTVSPost2010PropOp49
 70
     1
102
RTVSPost2010Prop50
 90
       50
102
RTVSPost2010PropOp50
 70
     1
102
RTVSPost2010Prop51ColorIndex
 90
      256
102
RTVSPost2010Prop51ColorRGB
 90
-16777216
102
RTVSPost2010PropOp51
 70
     0
102
RTVSPost2010Prop52
140
1.0
102
RTVSPost2010PropOp52
 70
     0
102
RTVSPost2010Prop53
 90
        2
102
RTVSPost2010PropOp53
 70
     1
102
RTVSPost2010Prop54
  1
strokes_ogs.tif
102
RTVSPost2010PropOp54
 70
     1
102
RTVSPost2010Prop55
280
     0
102
RTVSPost2010PropOp55
 70
     1
102
RTVSPost2010Prop56
140
1.0
102
RTVSPost2010PropOp56
 70
     1
102
RTVSPost2010Prop57
140
1.0
102
RTVSPost2010PropOp57
 70
     1
  0
XRECORD
  5
1FB
102
{ACAD_REACTORS
330
1FA
102
}
330
1FA
100
AcDbXrecord
280
     1
102
RTVSPost2010Prop28
280
     0
102
RTVSPost2010PropOp28
 70
     1
102
RTVSPost2010Prop29
280
     1
102
RTVSPost2010PropOp29
 70
     1
102
RTVSPost2010Prop30
280
     1
102
RTVSPost2010PropOp30
 70
     1
102
RTVSPost2010Prop31
280
     0
102
RTVSPost2010PropOp31
 70
     1
102
RTVSPost2010Prop32
280
     0
102
RTVSPost2010PropOp32
 70
     1
102
RTVSPost2010Prop33
280
     0
102
RTVSPost2010PropOp33
 70
     1
102
RTVSPost2010Prop34
280
     0
102
RTVSPost2010PropOp34
 70
     1
102
RTVSPost2010Prop35
280
     0
102
RTVSPost2010PropOp35
 70
     1
102
RTVSPost2010Prop36
280
     0
102
RTVSPost2010PropOp36
 70
     1
102
RTVSPost2010Prop37
 90
       50
102
RTVSPost2010PropOp37
 70
     1
102
RTVSPost2010Prop38
140
0.0
102
RTVSPost2010PropOp38
 70
     1
102
RTVSPost2010Prop39
140
1.0
102
RTVSPost2010PropOp39
 70
     1
102
RTVSPost2010Prop40
 90
        0
102
RTVSPost2010PropOp40
 70
     1
102
RTVSPost2010Prop41ColorIndex
 90
       18
102
RTVSPost2010Prop41ColorRGB
 90
        0
102
RTVSPost2010PropOp41
 70
     1
102
RTVSPost2010Prop42
 90
       50
102
RTVSPost2010PropOp42
 70
     1
102
RTVSPost2010Prop43
 90
        3
102
RTVSPost2010PropOp43
 70
     1
102
RTVSPost2010Prop44ColorIndex
 90
        5
102
RTVSPost2010Prop44ColorRGB
 90
      255
102
RTVSPost2010PropOp44
 70
     1
102
RTVSPost2010Prop45
280
     0
102
RTVSPost2010PropOp45
 70
     1
102
RTVSPost2010Prop46
 90
       50
102
RTVSPost2010PropOp46
 70
     1
102
RTVSPost2010Prop47
 90
       50
102
RTVSPost2010PropOp47
 70
     1
102
RTVSPost2010Prop48
 90
       50
102
RTVSPost2010PropOp48
 70
     1
102
RTVSPost2010Prop49
280
     0
102
RTVSPost2010PropOp49
 70
     1
102
RTVSPost2010Prop50
 90
       50
102
RTVSPost2010PropOp50
 70
     1
102
RTVSPost2010Prop51ColorIndex
 90
      256
102
RTVSPost2010Prop51ColorRGB
 90
-16777216
102
RTVSPost2010PropOp51
 70
     0
102
RTVSPost2010Prop52
140
1.0
102
RTVSPost2010PropOp52
 70
     0
102
RTVSPost2010Prop53
 90
        2
102
RTVSPost2010PropOp53
 70
     1
102
RTVSPost2010Prop54
  1
strokes_ogs.tif
102
RTVSPost2010PropOp54
 70
     1
102
RTVSPost2010Prop55
280
     0
102
RTVSPost2010PropOp55
 70
     1
102
RTVSPost2010Prop56
140
1.0
102
RTVSPost2010PropOp56
 70
     1
102
RTVSPost2010Prop57
140
1.0
102
RTVSPost2010PropOp57
 70
     1
  0
XRECORD
  5
20B
102
{ACAD_REACTORS
330
20A
102
}
330
20A
100
AcDbXrecord
280
     1
102
RTVSPost2010Prop28
280
     0
102
RTVSPost2010PropOp28
 70
     0
102
RTVSPost2010Prop29
280
     1
102
RTVSPost2010PropOp29
 70
     0
102
RTVSPost2010Prop30
280
     1
102
RTVSPost2010PropOp30
 70
     0
102
RTVSPost2010Prop31
280
     0
102
RTVSPost2010PropOp31
 70
     0
102
RTVSPost2010Prop32
280
     0
102
RTVSPost2010PropOp32
 70
     0
102
RTVSPost2010Prop33
280
     0
102
RTVSPost2010PropOp33
 70
     0
102
RTVSPost2010Prop34
280
     0
102
RTVSPost2010PropOp34
 70
     0
102
RTVSPost2010Prop35
280
     0
102
RTVSPost2010PropOp35
 70
     0
102
RTVSPost2010Prop36
280
     0
102
RTVSPost2010PropOp36
 70
     0
102
RTVSPost2010Prop37
 90
       50
102
RTVSPost2010PropOp37
 70
     0
102
RTVSPost2010Prop38
140
0.0
102
RTVSPost2010PropOp38
 70
     0
102
RTVSPost2010Prop39
140
1.0
102
RTVSPost2010PropOp39
 70
     0
102
RTVSPost2010Prop40
 90
        0
102
RTVSPost2010PropOp40
 70
     0
102
RTVSPost2010Prop41ColorIndex
 90
       18
102
RTVSPost2010Prop41ColorRGB
 90
        0
102
RTVSPost2010PropOp41
 70
     0
102
RTVSPost2010Prop42
 90
       50
102
RTVSPost2010PropOp42
 70
     0
102
RTVSPost2010Prop43
 90
        3
102
RTVSPost2010PropOp43
 70
     0
102
RTVSPost2010Prop44ColorIndex
 90
        5
102
RTVSPost2010Prop44ColorRGB
 90
      255
102
RTVSPost2010PropOp44
 70
     0
102
RTVSPost2010Prop45
280
     0
102
RTVSPost2010PropOp45
 70
     0
102
RTVSPost2010Prop46
 90
       50
102
RTVSPost2010PropOp46
 70
     0
102
RTVSPost2010Prop47
 90
       50
102
RTVSPost2010PropOp47
 70
     0
102
RTVSPost2010Prop48
 90
       50
102
RTVSPost2010PropOp48
 70
     0
102
RTVSPost2010Prop49
280
     0
102
RTVSPost2010PropOp49
 70
     0
102
RTVSPost2010Prop50
 90
       50
102
RTVSPost2010PropOp50
 70
     0
102
RTVSPost2010Prop51ColorIndex
 90
      256
102
RTVSPost2010Prop51ColorRGB
 90
-16777216
102
RTVSPost2010PropOp51
 70
     0
102
RTVSPost2010Prop52
140
1.0
102
RTVSPost2010PropOp52
 70
     0
102
RTVSPost2010Prop53
 90
        2
102
RTVSPost2010PropOp53
 70
     0
102
RTVSPost2010Prop54
  1
strokes_ogs.tif
102
RTVSPost2010PropOp54
 70
     0
102
RTVSPost2010Prop55
280
     0
102
RTVSPost2010PropOp55
 70
     0
102
RTVSPost2010Prop56
140
1.0
102
RTVSPost2010PropOp56
 70
     0
102
RTVSPost2010Prop57
140
1.0
102
RTVSPost2010PropOp57
 70
     0
  0
XRECORD
  5
203
102
{ACAD_REACTORS
330
202
102
}
330
202
100
AcDbXrecord
280
     1
102
RTVSPost2010Prop28
280
     0
102
RTVSPost2010PropOp28
 70
     1
102
RTVSPost2010Prop29
280
     1
102
RTVSPost2010PropOp29
 70
     1
102
RTVSPost2010Prop30
280
     1
102
RTVSPost2010PropOp30
 70
     1
102
RTVSPost2010Prop31
280
     0
102
RTVSPost2010PropOp31
 70
     1
102
RTVSPost2010Prop32
280
     0
102
RTVSPost2010PropOp32
 70
     1
102
RTVSPost2010Prop33
280
     0
102
RTVSPost2010PropOp33
 70
     1
102
RTVSPost2010Prop34
280
     0
102
RTVSPost2010PropOp34
 70
     1
102
RTVSPost2010Prop35
280
     0
102
RTVSPost2010PropOp35
 70
     1
102
RTVSPost2010Prop36
280
     0
102
RTVSPost2010PropOp36
 70
     1
102
RTVSPost2010Prop37
 90
       50
102
RTVSPost2010PropOp37
 70
     1
102
RTVSPost2010Prop38
140
0.0
102
RTVSPost2010PropOp38
 70
     1
102
RTVSPost2010Prop39
140
1.0
102
RTVSPost2010PropOp39
 70
     1
102
RTVSPost2010Prop40
 90
        0
102
RTVSPost2010PropOp40
 70
     1
102
RTVSPost2010Prop41ColorIndex
 90
       18
102
RTVSPost2010Prop41ColorRGB
 90
        0
102
RTVSPost2010PropOp41
 70
     1
102
RTVSPost2010Prop42
 90
       50
102
RTVSPost2010PropOp42
 70
     1
102
RTVSPost2010Prop43
 90
        3
102
RTVSPost2010PropOp43
 70
     1
102
RTVSPost2010Prop44ColorIndex
 90
        5
102
RTVSPost2010Prop44ColorRGB
 90
      255
102
RTVSPost2010PropOp44
 70
     1
102
RTVSPost2010Prop45
280
     0
102
RTVSPost2010PropOp45
 70
     1
102
RTVSPost2010Prop46
 90
       50
102
RTVSPost2010PropOp46
 70
     1
102
RTVSPost2010Prop47
 90
       50
102
RTVSPost2010PropOp47
 70
     1
102
RTVSPost2010Prop48
 90
       50
102
RTVSPost2010PropOp48
 70
     1
102
RTVSPost2010Prop49
280
     0
102
RTVSPost2010PropOp49
 70
     1
102
RTVSPost2010Prop50
 90
       50
102
RTVSPost2010PropOp50
 70
     1
102
RTVSPost2010Prop51ColorIndex
 90
      256
102
RTVSPost2010Prop51ColorRGB
 90
-16777216
102
RTVSPost2010PropOp51
 70
     0
102
RTVSPost2010Prop52
140
1.0
102
RTVSPost2010PropOp52
 70
     0
102
RTVSPost2010Prop53
 90
        2
102
RTVSPost2010PropOp53
 70
     1
102
RTVSPost2010Prop54
  1
strokes_ogs.tif
102
RTVSPost2010PropOp54
 70
     1
102
RTVSPost2010Prop55
280
     0
102
RTVSPost2010PropOp55
 70
     1
102
RTVSPost2010Prop56
140
1.0
102
RTVSPost2010PropOp56
 70
     1
102
RTVSPost2010Prop57
140
1.0
102
RTVSPost2010PropOp57
 70
     1
  0
XRECORD
  5
1E7
102
{ACAD_REACTORS
330
1E6
102
}
330
1E6
100
AcDbXrecord
280
     1
102
RTVSPost2010Prop28
280
     0
102
RTVSPost2010PropOp28
 70
     1
102
RTVSPost2010Prop29
280
     1
102
RTVSPost2010PropOp29
 70
     1
102
RTVSPost2010Prop30
280
     1
102
RTVSPost2010PropOp30
 70
     1
102
RTVSPost2010Prop31
280
     0
102
RTVSPost2010PropOp31
 70
     1
102
RTVSPost2010Prop32
280
     0
102
RTVSPost2010PropOp32
 70
     1
102
RTVSPost2010Prop33
280
     0
102
RTVSPost2010PropOp33
 70
     1
102
RTVSPost2010Prop34
280
     0
102
RTVSPost2010PropOp34
 70
     1
102
RTVSPost2010Prop35
280
     0
102
RTVSPost2010PropOp35
 70
     1
102
RTVSPost2010Prop36
280
     0
102
RTVSPost2010PropOp36
 70
     1
102
RTVSPost2010Prop37
 90
       50
102
RTVSPost2010PropOp37
 70
     1
102
RTVSPost2010Prop38
140
0.0
102
RTVSPost2010PropOp38
 70
     1
102
RTVSPost2010Prop39
140
1.0
102
RTVSPost2010PropOp39
 70
     1
102
RTVSPost2010Prop40
 90
        0
102
RTVSPost2010PropOp40
 70
     1
102
RTVSPost2010Prop41ColorIndex
 90
       18
102
RTVSPost2010Prop41ColorRGB
 90
        0
102
RTVSPost2010PropOp41
 70
     1
102
RTVSPost2010Prop42
 90
       50
102
RTVSPost2010PropOp42
 70
     1
102
RTVSPost2010Prop43
 90
        3
102
RTVSPost2010PropOp43
 70
     1
102
RTVSPost2010Prop44ColorIndex
 90
        5
102
RTVSPost2010Prop44ColorRGB
 90
      255
102
RTVSPost2010PropOp44
 70
     1
102
RTVSPost2010Prop45
280
     0
102
RTVSPost2010PropOp45
 70
     1
102
RTVSPost2010Prop46
 90
       50
102
RTVSPost2010PropOp46
 70
     1
102
RTVSPost2010Prop47
 90
       50
102
RTVSPost2010PropOp47
 70
     1
102
RTVSPost2010Prop48
 90
       50
102
RTVSPost2010PropOp48
 70
     1
102
RTVSPost2010Prop49
280
     0
102
RTVSPost2010PropOp49
 70
     1
102
RTVSPost2010Prop50
 90
       50
102
RTVSPost2010PropOp50
 70
     1
102
RTVSPost2010Prop51ColorIndex
 90
      256
102
RTVSPost2010Prop51ColorRGB
 90
-16777216
102
RTVSPost2010PropOp51
 70
     0
102
RTVSPost2010Prop52
140
1.0
102
RTVSPost2010PropOp52
 70
     0
102
RTVSPost2010Prop53
 90
        2
102
RTVSPost2010PropOp53
 70
     1
102
RTVSPost2010Prop54
  1
strokes_ogs.tif
102
RTVSPost2010PropOp54
 70
     1
102
RTVSPost2010Prop55
280
     0
102
RTVSPost2010PropOp55
 70
     1
102
RTVSPost2010Prop56
140
1.0
102
RTVSPost2010PropOp56
 70
     1
102
RTVSPost2010Prop57
140
1.0
102
RTVSPost2010PropOp57
 70
     1
  0
XRECORD
  5
1E9
102
{ACAD_REACTORS
330
1E8
102
}
330
1E8
100
AcDbXrecord
280
     1
102
RTVSPost2010Prop28
280
     0
102
RTVSPost2010PropOp28
 70
     1
102
RTVSPost2010Prop29
280
     1
102
RTVSPost2010PropOp29
 70
     1
102
RTVSPost2010Prop30
280
     1
102
RTVSPost2010PropOp30
 70
     1
102
RTVSPost2010Prop31
280
     0
102
RTVSPost2010PropOp31
 70
     1
102
RTVSPost2010Prop32
280
     0
102
RTVSPost2010PropOp32
 70
     1
102
RTVSPost2010Prop33
280
     0
102
RTVSPost2010PropOp33
 70
     1
102
RTVSPost2010Prop34
280
     0
102
RTVSPost2010PropOp34
 70
     1
102
RTVSPost2010Prop35
280
     0
102
RTVSPost2010PropOp35
 70
     1
102
RTVSPost2010Prop36
280
     0
102
RTVSPost2010PropOp36
 70
     1
102
RTVSPost2010Prop37
 90
       50
102
RTVSPost2010PropOp37
 70
     1
102
RTVSPost2010Prop38
140
0.0
102
RTVSPost2010PropOp38
 70
     1
102
RTVSPost2010Prop39
140
1.0
102
RTVSPost2010PropOp39
 70
     1
102
RTVSPost2010Prop40
 90
        0
102
RTVSPost2010PropOp40
 70
     1
102
RTVSPost2010Prop41ColorIndex
 90
       18
102
RTVSPost2010Prop41ColorRGB
 90
        0
102
RTVSPost2010PropOp41
 70
     1
102
RTVSPost2010Prop42
 90
       50
102
RTVSPost2010PropOp42
 70
     1
102
RTVSPost2010Prop43
 90
        3
102
RTVSPost2010PropOp43
 70
     1
102
RTVSPost2010Prop44ColorIndex
 90
        5
102
RTVSPost2010Prop44ColorRGB
 90
      255
102
RTVSPost2010PropOp44
 70
     1
102
RTVSPost2010Prop45
280
     0
102
RTVSPost2010PropOp45
 70
     1
102
RTVSPost2010Prop46
 90
       50
102
RTVSPost2010PropOp46
 70
     1
102
RTVSPost2010Prop47
 90
       50
102
RTVSPost2010PropOp47
 70
     1
102
RTVSPost2010Prop48
 90
       50
102
RTVSPost2010PropOp48
 70
     1
102
RTVSPost2010Prop49
280
     0
102
RTVSPost2010PropOp49
 70
     1
102
RTVSPost2010Prop50
 90
       50
102
RTVSPost2010PropOp50
 70
     1
102
RTVSPost2010Prop51ColorIndex
 90
      256
102
RTVSPost2010Prop51ColorRGB
 90
-16777216
102
RTVSPost2010PropOp51
 70
     0
102
RTVSPost2010Prop52
140
1.0
102
RTVSPost2010PropOp52
 70
     0
102
RTVSPost2010Prop53
 90
        2
102
RTVSPost2010PropOp53
 70
     1
102
RTVSPost2010Prop54
  1
strokes_ogs.tif
102
RTVSPost2010PropOp54
 70
     1
102
RTVSPost2010Prop55
280
     0
102
RTVSPost2010PropOp55
 70
     1
102
RTVSPost2010Prop56
140
1.0
102
RTVSPost2010PropOp56
 70
     1
102
RTVSPost2010Prop57
140
1.0
102
RTVSPost2010PropOp57
 70
     1
  0
XRECORD
  5
1EB
102
{ACAD_REACTORS
330
1EA
102
}
330
1EA
100
AcDbXrecord
280
     1
102
RTVSPost2010Prop28
280
     0
102
RTVSPost2010PropOp28
 70
     1
102
RTVSPost2010Prop29
280
     1
102
RTVSPost2010PropOp29
 70
     1
102
RTVSPost2010Prop30
280
     1
102
RTVSPost2010PropOp30
 70
     1
102
RTVSPost2010Prop31
280
     0
102
RTVSPost2010PropOp31
 70
     1
102
RTVSPost2010Prop32
280
     0
102
RTVSPost2010PropOp32
 70
     1
102
RTVSPost2010Prop33
280
     0
102
RTVSPost2010PropOp33
 70
     1
102
RTVSPost2010Prop34
280
     0
102
RTVSPost2010PropOp34
 70
     1
102
RTVSPost2010Prop35
280
     0
102
RTVSPost2010PropOp35
 70
     1
102
RTVSPost2010Prop36
280
     0
102
RTVSPost2010PropOp36
 70
     1
102
RTVSPost2010Prop37
 90
       50
102
RTVSPost2010PropOp37
 70
     1
102
RTVSPost2010Prop38
140
0.0
102
RTVSPost2010PropOp38
 70
     1
102
RTVSPost2010Prop39
140
1.0
102
RTVSPost2010PropOp39
 70
     1
102
RTVSPost2010Prop40
 90
        0
102
RTVSPost2010PropOp40
 70
     1
102
RTVSPost2010Prop41ColorIndex
 90
       18
102
RTVSPost2010Prop41ColorRGB
 90
        0
102
RTVSPost2010PropOp41
 70
     1
102
RTVSPost2010Prop42
 90
       50
102
RTVSPost2010PropOp42
 70
     1
102
RTVSPost2010Prop43
 90
        3
102
RTVSPost2010PropOp43
 70
     1
102
RTVSPost2010Prop44ColorIndex
 90
        5
102
RTVSPost2010Prop44ColorRGB
 90
      255
102
RTVSPost2010PropOp44
 70
     1
102
RTVSPost2010Prop45
280
     0
102
RTVSPost2010PropOp45
 70
     1
102
RTVSPost2010Prop46
 90
       50
102
RTVSPost2010PropOp46
 70
     1
102
RTVSPost2010Prop47
 90
       50
102
RTVSPost2010PropOp47
 70
     1
102
RTVSPost2010Prop48
 90
       50
102
RTVSPost2010PropOp48
 70
     1
102
RTVSPost2010Prop49
280
     0
102
RTVSPost2010PropOp49
 70
     1
102
RTVSPost2010Prop50
 90
       50
102
RTVSPost2010PropOp50
 70
     1
102
RTVSPost2010Prop51ColorIndex
 90
      256
102
RTVSPost2010Prop51ColorRGB
 90
-16777216
102
RTVSPost2010PropOp51
 70
     0
102
RTVSPost2010Prop52
140
1.0
102
RTVSPost2010PropOp52
 70
     0
102
RTVSPost2010Prop53
 90
        2
102
RTVSPost2010PropOp53
 70
     1
102
RTVSPost2010Prop54
  1
strokes_ogs.tif
102
RTVSPost2010PropOp54
 70
     1
102
RTVSPost2010Prop55
280
     0
102
RTVSPost2010PropOp55
 70
     1
102
RTVSPost2010Prop56
140
1.0
102
RTVSPost2010PropOp56
 70
     1
102
RTVSPost2010Prop57
140
1.0
102
RTVSPost2010PropOp57
 70
     1
  0
XRECORD
  5
1ED
102
{ACAD_REACTORS
330
1EC
102
}
330
1EC
100
AcDbXrecord
280
     1
102
RTVSPost2010Prop28
280
     0
102
RTVSPost2010PropOp28
 70
     1
102
RTVSPost2010Prop29
280
     1
102
RTVSPost2010PropOp29
 70
     1
102
RTVSPost2010Prop30
280
     1
102
RTVSPost2010PropOp30
 70
     1
102
RTVSPost2010Prop31
280
     0
102
RTVSPost2010PropOp31
 70
     1
102
RTVSPost2010Prop32
280
     0
102
RTVSPost2010PropOp32
 70
     1
102
RTVSPost2010Prop33
280
     0
102
RTVSPost2010PropOp33
 70
     1
102
RTVSPost2010Prop34
280
     0
102
RTVSPost2010PropOp34
 70
     1
102
RTVSPost2010Prop35
280
     0
102
RTVSPost2010PropOp35
 70
     1
102
RTVSPost2010Prop36
280
     0
102
RTVSPost2010PropOp36
 70
     1
102
RTVSPost2010Prop37
 90
       50
102
RTVSPost2010PropOp37
 70
     1
102
RTVSPost2010Prop38
140
0.0
102
RTVSPost2010PropOp38
 70
     1
102
RTVSPost2010Prop39
140
1.0
102
RTVSPost2010PropOp39
 70
     1
102
RTVSPost2010Prop40
 90
        0
102
RTVSPost2010PropOp40
 70
     1
102
RTVSPost2010Prop41ColorIndex
 90
       18
102
RTVSPost2010Prop41ColorRGB
 90
        0
102
RTVSPost2010PropOp41
 70
     1
102
RTVSPost2010Prop42
 90
       50
102
RTVSPost2010PropOp42
 70
     1
102
RTVSPost2010Prop43
 90
        3
102
RTVSPost2010PropOp43
 70
     1
102
RTVSPost2010Prop44ColorIndex
 90
        5
102
RTVSPost2010Prop44ColorRGB
 90
      255
102
RTVSPost2010PropOp44
 70
     1
102
RTVSPost2010Prop45
280
     0
102
RTVSPost2010PropOp45
 70
     1
102
RTVSPost2010Prop46
 90
       50
102
RTVSPost2010PropOp46
 70
     1
102
RTVSPost2010Prop47
 90
       50
102
RTVSPost2010PropOp47
 70
     1
102
RTVSPost2010Prop48
 90
       50
102
RTVSPost2010PropOp48
 70
     1
102
RTVSPost2010Prop49
280
     0
102
RTVSPost2010PropOp49
 70
     1
102
RTVSPost2010Prop50
 90
       50
102
RTVSPost2010PropOp50
 70
     1
102
RTVSPost2010Prop51ColorIndex
 90
      256
102
RTVSPost2010Prop51ColorRGB
 90
-16777216
102
RTVSPost2010PropOp51
 70
     0
102
RTVSPost2010Prop52
140
1.0
102
RTVSPost2010PropOp52
 70
     0
102
RTVSPost2010Prop53
 90
        2
102
RTVSPost2010PropOp53
 70
     1
102
RTVSPost2010Prop54
  1
strokes_ogs.tif
102
RTVSPost2010PropOp54
 70
     1
102
RTVSPost2010Prop55
280
     0
102
RTVSPost2010PropOp55
 70
     1
102
RTVSPost2010Prop56
140
1.0
102
RTVSPost2010PropOp56
 70
     1
102
RTVSPost2010Prop57
140
1.0
102
RTVSPost2010PropOp57
 70
     1
  0
XRECORD
  5
1F3
102
{ACAD_REACTORS
330
1F2
102
}
330
1F2
100
AcDbXrecord
280
     1
102
RTVSPost2010Prop28
280
     0
102
RTVSPost2010PropOp28
 70
     1
102
RTVSPost2010Prop29
280
     1
102
RTVSPost2010PropOp29
 70
     1
102
RTVSPost2010Prop30
280
     1
102
RTVSPost2010PropOp30
 70
     1
102
RTVSPost2010Prop31
280
     0
102
RTVSPost2010PropOp31
 70
     1
102
RTVSPost2010Prop32
280
     0
102
RTVSPost2010PropOp32
 70
     1
102
RTVSPost2010Prop33
280
     0
102
RTVSPost2010PropOp33
 70
     1
102
RTVSPost2010Prop34
280
     0
102
RTVSPost2010PropOp34
 70
     1
102
RTVSPost2010Prop35
280
     0
102
RTVSPost2010PropOp35
 70
     1
102
RTVSPost2010Prop36
280
     0
102
RTVSPost2010PropOp36
 70
     1
102
RTVSPost2010Prop37
 90
       50
102
RTVSPost2010PropOp37
 70
     1
102
RTVSPost2010Prop38
140
0.0
102
RTVSPost2010PropOp38
 70
     1
102
RTVSPost2010Prop39
140
1.0
102
RTVSPost2010PropOp39
 70
     1
102
RTVSPost2010Prop40
 90
        0
102
RTVSPost2010PropOp40
 70
     1
102
RTVSPost2010Prop41ColorIndex
 90
       18
102
RTVSPost2010Prop41ColorRGB
 90
        0
102
RTVSPost2010PropOp41
 70
     1
102
RTVSPost2010Prop42
 90
       50
102
RTVSPost2010PropOp42
 70
     1
102
RTVSPost2010Prop43
 90
        3
102
RTVSPost2010PropOp43
 70
     1
102
RTVSPost2010Prop44ColorIndex
 90
        5
102
RTVSPost2010Prop44ColorRGB
 90
      255
102
RTVSPost2010PropOp44
 70
     1
102
RTVSPost2010Prop45
280
     0
102
RTVSPost2010PropOp45
 70
     1
102
RTVSPost2010Prop46
 90
       50
102
RTVSPost2010PropOp46
 70
     1
102
RTVSPost2010Prop47
 90
       50
102
RTVSPost2010PropOp47
 70
     1
102
RTVSPost2010Prop48
 90
       50
102
RTVSPost2010PropOp48
 70
     1
102
RTVSPost2010Prop49
280
     0
102
RTVSPost2010PropOp49
 70
     1
102
RTVSPost2010Prop50
 90
       50
102
RTVSPost2010PropOp50
 70
     1
102
RTVSPost2010Prop51ColorIndex
 90
      256
102
RTVSPost2010Prop51ColorRGB
 90
-16777216
102
RTVSPost2010PropOp51
 70
     0
102
RTVSPost2010Prop52
140
1.0
102
RTVSPost2010PropOp52
 70
     0
102
RTVSPost2010Prop53
 90
        2
102
RTVSPost2010PropOp53
 70
     1
102
RTVSPost2010Prop54
  1
strokes_ogs.tif
102
RTVSPost2010PropOp54
 70
     1
102
RTVSPost2010Prop55
280
     0
102
RTVSPost2010PropOp55
 70
     1
102
RTVSPost2010Prop56
140
1.0
102
RTVSPost2010PropOp56
 70
     1
102
RTVSPost2010Prop57
140
1.0
102
RTVSPost2010PropOp57
 70
     1
  0
XRECORD
  5
207
102
{ACAD_REACTORS
330
206
102
}
330
206
100
AcDbXrecord
280
     1
102
RTVSPost2010Prop28
280
     0
102
RTVSPost2010PropOp28
 70
     0
102
RTVSPost2010Prop29
280
     1
102
RTVSPost2010PropOp29
 70
     0
102
RTVSPost2010Prop30
280
     1
102
RTVSPost2010PropOp30
 70
     0
102
RTVSPost2010Prop31
280
     0
102
RTVSPost2010PropOp31
 70
     0
102
RTVSPost2010Prop32
280
     0
102
RTVSPost2010PropOp32
 70
     0
102
RTVSPost2010Prop33
280
     0
102
RTVSPost2010PropOp33
 70
     0
102
RTVSPost2010Prop34
280
     0
102
RTVSPost2010PropOp34
 70
     0
102
RTVSPost2010Prop35
280
     0
102
RTVSPost2010PropOp35
 70
     0
102
RTVSPost2010Prop36
280
     0
102
RTVSPost2010PropOp36
 70
     0
102
RTVSPost2010Prop37
 90
       50
102
RTVSPost2010PropOp37
 70
     0
102
RTVSPost2010Prop38
140
0.0
102
RTVSPost2010PropOp38
 70
     0
102
RTVSPost2010Prop39
140
1.0
102
RTVSPost2010PropOp39
 70
     0
102
RTVSPost2010Prop40
 90
        0
102
RTVSPost2010PropOp40
 70
     0
102
RTVSPost2010Prop41ColorIndex
 90
       18
102
RTVSPost2010Prop41ColorRGB
 90
        0
102
RTVSPost2010PropOp41
 70
     0
102
RTVSPost2010Prop42
 90
       50
102
RTVSPost2010PropOp42
 70
     0
102
RTVSPost2010Prop43
 90
        3
102
RTVSPost2010PropOp43
 70
     0
102
RTVSPost2010Prop44ColorIndex
 90
        5
102
RTVSPost2010Prop44ColorRGB
 90
      255
102
RTVSPost2010PropOp44
 70
     0
102
RTVSPost2010Prop45
280
     0
102
RTVSPost2010PropOp45
 70
     0
102
RTVSPost2010Prop46
 90
       50
102
RTVSPost2010PropOp46
 70
     0
102
RTVSPost2010Prop47
 90
       50
102
RTVSPost2010PropOp47
 70
     0
102
RTVSPost2010Prop48
 90
       50
102
RTVSPost2010PropOp48
 70
     0
102
RTVSPost2010Prop49
280
     0
102
RTVSPost2010PropOp49
 70
     0
102
RTVSPost2010Prop50
 90
       50
102
RTVSPost2010PropOp50
 70
     0
102
RTVSPost2010Prop51ColorIndex
 90
      256
102
RTVSPost2010Prop51ColorRGB
 90
-16777216
102
RTVSPost2010PropOp51
 70
     0
102
RTVSPost2010Prop52
140
1.0
102
RTVSPost2010PropOp52
 70
     0
102
RTVSPost2010Prop53
 90
        2
102
RTVSPost2010PropOp53
 70
     0
102
RTVSPost2010Prop54
  1
strokes_ogs.tif
102
RTVSPost2010PropOp54
 70
     0
102
RTVSPost2010Prop55
280
     0
102
RTVSPost2010PropOp55
 70
     0
102
RTVSPost2010Prop56
140
1.0
102
RTVSPost2010PropOp56
 70
     0
102
RTVSPost2010Prop57
140
1.0
102
RTVSPost2010PropOp57
 70
     0
  0
XRECORD
  5
201
102
{ACAD_REACTORS
330
200
102
}
330
200
100
AcDbXrecord
280
     1
102
RTVSPost2010Prop28
280
     0
102
RTVSPost2010PropOp28
 70
     1
102
RTVSPost2010Prop29
280
     1
102
RTVSPost2010PropOp29
 70
     1
102
RTVSPost2010Prop30
280
     1
102
RTVSPost2010PropOp30
 70
     1
102
RTVSPost2010Prop31
280
     0
102
RTVSPost2010PropOp31
 70
     1
102
RTVSPost2010Prop32
280
     0
102
RTVSPost2010PropOp32
 70
     1
102
RTVSPost2010Prop33
280
     0
102
RTVSPost2010PropOp33
 70
     1
102
RTVSPost2010Prop34
280
     0
102
RTVSPost2010PropOp34
 70
     1
102
RTVSPost2010Prop35
280
     0
102
RTVSPost2010PropOp35
 70
     1
102
RTVSPost2010Prop36
280
     0
102
RTVSPost2010PropOp36
 70
     1
102
RTVSPost2010Prop37
 90
       50
102
RTVSPost2010PropOp37
 70
     1
102
RTVSPost2010Prop38
140
0.0
102
RTVSPost2010PropOp38
 70
     1
102
RTVSPost2010Prop39
140
1.0
102
RTVSPost2010PropOp39
 70
     1
102
RTVSPost2010Prop40
 90
        0
102
RTVSPost2010PropOp40
 70
     1
102
RTVSPost2010Prop41ColorIndex
 90
       18
102
RTVSPost2010Prop41ColorRGB
 90
        0
102
RTVSPost2010PropOp41
 70
     1
102
RTVSPost2010Prop42
 90
       50
102
RTVSPost2010PropOp42
 70
     1
102
RTVSPost2010Prop43
 90
        3
102
RTVSPost2010PropOp43
 70
     1
102
RTVSPost2010Prop44ColorIndex
 90
        5
102
RTVSPost2010Prop44ColorRGB
 90
      255
102
RTVSPost2010PropOp44
 70
     1
102
RTVSPost2010Prop45
280
     0
102
RTVSPost2010PropOp45
 70
     1
102
RTVSPost2010Prop46
 90
       50
102
RTVSPost2010PropOp46
 70
     1
102
RTVSPost2010Prop47
 90
       50
102
RTVSPost2010PropOp47
 70
     1
102
RTVSPost2010Prop48
 90
       50
102
RTVSPost2010PropOp48
 70
     1
102
RTVSPost2010Prop49
280
     0
102
RTVSPost2010PropOp49
 70
     1
102
RTVSPost2010Prop50
 90
       50
102
RTVSPost2010PropOp50
 70
     1
102
RTVSPost2010Prop51ColorIndex
 90
      256
102
RTVSPost2010Prop51ColorRGB
 90
-16777216
102
RTVSPost2010PropOp51
 70
     0
102
RTVSPost2010Prop52
140
1.0
102
RTVSPost2010PropOp52
 70
     0
102
RTVSPost2010Prop53
 90
        2
102
RTVSPost2010PropOp53
 70
     1
102
RTVSPost2010Prop54
  1
strokes_ogs.tif
102
RTVSPost2010PropOp54
 70
     1
102
RTVSPost2010Prop55
280
     0
102
RTVSPost2010PropOp55
 70
     1
102
RTVSPost2010Prop56
140
1.0
102
RTVSPost2010PropOp56
 70
     1
102
RTVSPost2010Prop57
140
1.0
102
RTVSPost2010PropOp57
 70
     1
  0
XRECORD
  5
209
102
{ACAD_REACTORS
330
208
102
}
330
208
100
AcDbXrecord
280
     1
102
RTVSPost2010Prop28
280
     0
102
RTVSPost2010PropOp28
 70
     0
102
RTVSPost2010Prop29
280
     1
102
RTVSPost2010PropOp29
 70
     0
102
RTVSPost2010Prop30
280
     1
102
RTVSPost2010PropOp30
 70
     0
102
RTVSPost2010Prop31
280
     0
102
RTVSPost2010PropOp31
 70
     0
102
RTVSPost2010Prop32
280
     0
102
RTVSPost2010PropOp32
 70
     0
102
RTVSPost2010Prop33
280
     0
102
RTVSPost2010PropOp33
 70
     0
102
RTVSPost2010Prop34
280
     0
102
RTVSPost2010PropOp34
 70
     0
102
RTVSPost2010Prop35
280
     0
102
RTVSPost2010PropOp35
 70
     0
102
RTVSPost2010Prop36
280
     0
102
RTVSPost2010PropOp36
 70
     0
102
RTVSPost2010Prop37
 90
       50
102
RTVSPost2010PropOp37
 70
     0
102
RTVSPost2010Prop38
140
0.0
102
RTVSPost2010PropOp38
 70
     0
102
RTVSPost2010Prop39
140
1.0
102
RTVSPost2010PropOp39
 70
     0
102
RTVSPost2010Prop40
 90
        0
102
RTVSPost2010PropOp40
 70
     0
102
RTVSPost2010Prop41ColorIndex
 90
       18
102
RTVSPost2010Prop41ColorRGB
 90
        0
102
RTVSPost2010PropOp41
 70
     0
102
RTVSPost2010Prop42
 90
       50
102
RTVSPost2010PropOp42
 70
     0
102
RTVSPost2010Prop43
 90
        3
102
RTVSPost2010PropOp43
 70
     0
102
RTVSPost2010Prop44ColorIndex
 90
        5
102
RTVSPost2010Prop44ColorRGB
 90
      255
102
RTVSPost2010PropOp44
 70
     0
102
RTVSPost2010Prop45
280
     0
102
RTVSPost2010PropOp45
 70
     0
102
RTVSPost2010Prop46
 90
       50
102
RTVSPost2010PropOp46
 70
     0
102
RTVSPost2010Prop47
 90
       50
102
RTVSPost2010PropOp47
 70
     0
102
RTVSPost2010Prop48
 90
       50
102
RTVSPost2010PropOp48
 70
     0
102
RTVSPost2010Prop49
280
     0
102
RTVSPost2010PropOp49
 70
     0
102
RTVSPost2010Prop50
 90
       50
102
RTVSPost2010PropOp50
 70
     0
102
RTVSPost2010Prop51ColorIndex
 90
      256
102
RTVSPost2010Prop51ColorRGB
 90
-16777216
102
RTVSPost2010PropOp51
 70
     0
102
RTVSPost2010Prop52
140
1.0
102
RTVSPost2010PropOp52
 70
     0
102
RTVSPost2010Prop53
 90
        2
102
RTVSPost2010PropOp53
 70
     0
102
RTVSPost2010Prop54
  1
strokes_ogs.tif
102
RTVSPost2010PropOp54
 70
     0
102
RTVSPost2010Prop55
280
     0
102
RTVSPost2010PropOp55
 70
     0
102
RTVSPost2010Prop56
140
1.0
102
RTVSPost2010PropOp56
 70
     0
102
RTVSPost2010Prop57
140
1.0
102
RTVSPost2010PropOp57
 70
     0
  0
XRECORD
  5
1F7
102
{ACAD_REACTORS
330
1F6
102
}
330
1F6
100
AcDbXrecord
280
     1
102
RTVSPost2010Prop28
280
     0
102
RTVSPost2010PropOp28
 70
     1
102
RTVSPost2010Prop29
280
     1
102
RTVSPost2010PropOp29
 70
     1
102
RTVSPost2010Prop30
280
     1
102
RTVSPost2010PropOp30
 70
     1
102
RTVSPost2010Prop31
280
     0
102
RTVSPost2010PropOp31
 70
     1
102
RTVSPost2010Prop32
280
     0
102
RTVSPost2010PropOp32
 70
     1
102
RTVSPost2010Prop33
280
     0
102
RTVSPost2010PropOp33
 70
     1
102
RTVSPost2010Prop34
280
     0
102
RTVSPost2010PropOp34
 70
     1
102
RTVSPost2010Prop35
280
     0
102
RTVSPost2010PropOp35
 70
     1
102
RTVSPost2010Prop36
280
     0
102
RTVSPost2010PropOp36
 70
     1
102
RTVSPost2010Prop37
 90
       50
102
RTVSPost2010PropOp37
 70
     1
102
RTVSPost2010Prop38
140
0.0
102
RTVSPost2010PropOp38
 70
     1
102
RTVSPost2010Prop39
140
1.0
102
RTVSPost2010PropOp39
 70
     1
102
RTVSPost2010Prop40
 90
        0
102
RTVSPost2010PropOp40
 70
     1
102
RTVSPost2010Prop41ColorIndex
 90
       18
102
RTVSPost2010Prop41ColorRGB
 90
        0
102
RTVSPost2010PropOp41
 70
     1
102
RTVSPost2010Prop42
 90
       50
102
RTVSPost2010PropOp42
 70
     1
102
RTVSPost2010Prop43
 90
        3
102
RTVSPost2010PropOp43
 70
     1
102
RTVSPost2010Prop44ColorIndex
 90
        5
102
RTVSPost2010Prop44ColorRGB
 90
      255
102
RTVSPost2010PropOp44
 70
     1
102
RTVSPost2010Prop45
280
     0
102
RTVSPost2010PropOp45
 70
     1
102
RTVSPost2010Prop46
 90
       50
102
RTVSPost2010PropOp46
 70
     1
102
RTVSPost2010Prop47
 90
       50
102
RTVSPost2010PropOp47
 70
     1
102
RTVSPost2010Prop48
 90
       50
102
RTVSPost2010PropOp48
 70
     1
102
RTVSPost2010Prop49
280
     0
102
RTVSPost2010PropOp49
 70
     1
102
RTVSPost2010Prop50
 90
       50
102
RTVSPost2010PropOp50
 70
     1
102
RTVSPost2010Prop51ColorIndex
 90
      256
102
RTVSPost2010Prop51ColorRGB
 90
-16777216
102
RTVSPost2010PropOp51
 70
     0
102
RTVSPost2010Prop52
140
1.0
102
RTVSPost2010PropOp52
 70
     0
102
RTVSPost2010Prop53
 90
        2
102
RTVSPost2010PropOp53
 70
     1
102
RTVSPost2010Prop54
  1
strokes_ogs.tif
102
RTVSPost2010PropOp54
 70
     1
102
RTVSPost2010Prop55
280
     0
102
RTVSPost2010PropOp55
 70
     1
102
RTVSPost2010Prop56
140
1.0
102
RTVSPost2010PropOp56
 70
     1
102
RTVSPost2010Prop57
140
1.0
102
RTVSPost2010PropOp57
 70
     1
  0
XRECORD
  5
215
102
{ACAD_REACTORS
330
214
102
}
330
214
100
AcDbXrecord
280
     1
102
RTVSPost2010Prop28
280
     0
102
RTVSPost2010PropOp28
 70
     1
102
RTVSPost2010Prop29
280
     1
102
RTVSPost2010PropOp29
 70
     1
102
RTVSPost2010Prop30
280
     1
102
RTVSPost2010PropOp30
 70
     1
102
RTVSPost2010Prop31
280
     0
102
RTVSPost2010PropOp31
 70
     1
102
RTVSPost2010Prop32
280
     0
102
RTVSPost2010PropOp32
 70
     1
102
RTVSPost2010Prop33
280
     0
102
RTVSPost2010PropOp33
 70
     1
102
RTVSPost2010Prop34
280
     0
102
RTVSPost2010PropOp34
 70
     1
102
RTVSPost2010Prop35
280
     0
102
RTVSPost2010PropOp35
 70
     1
102
RTVSPost2010Prop36
280
     0
102
RTVSPost2010PropOp36
 70
     1
102
RTVSPost2010Prop37
 90
       50
102
RTVSPost2010PropOp37
 70
     1
102
RTVSPost2010Prop38
140
0.0
102
RTVSPost2010PropOp38
 70
     1
102
RTVSPost2010Prop39
140
1.0
102
RTVSPost2010PropOp39
 70
     1
102
RTVSPost2010Prop40
 90
        0
102
RTVSPost2010PropOp40
 70
     1
102
RTVSPost2010Prop41ColorIndex
 90
       18
102
RTVSPost2010Prop41ColorRGB
 90
        0
102
RTVSPost2010PropOp41
 70
     1
102
RTVSPost2010Prop42
 90
       50
102
RTVSPost2010PropOp42
 70
     1
102
RTVSPost2010Prop43
 90
        3
102
RTVSPost2010PropOp43
 70
     1
102
RTVSPost2010Prop44ColorIndex
 90
        5
102
RTVSPost2010Prop44ColorRGB
 90
      255
102
RTVSPost2010PropOp44
 70
     1
102
RTVSPost2010Prop45
280
     0
102
RTVSPost2010PropOp45
 70
     1
102
RTVSPost2010Prop46
 90
       50
102
RTVSPost2010PropOp46
 70
     1
102
RTVSPost2010Prop47
 90
       50
102
RTVSPost2010PropOp47
 70
     1
102
RTVSPost2010Prop48
 90
       50
102
RTVSPost2010PropOp48
 70
     1
102
RTVSPost2010Prop49
280
     0
102
RTVSPost2010PropOp49
 70
     1
102
RTVSPost2010Prop50
 90
       50
102
RTVSPost2010PropOp50
 70
     1
102
RTVSPost2010Prop51ColorIndex
 90
      256
102
RTVSPost2010Prop51ColorRGB
 90
-16777216
102
RTVSPost2010PropOp51
 70
     0
102
RTVSPost2010Prop52
140
1.0
102
RTVSPost2010PropOp52
 70
     0
102
RTVSPost2010Prop53
 90
        2
102
RTVSPost2010PropOp53
 70
     1
102
RTVSPost2010Prop54
  1
strokes_ogs.tif
102
RTVSPost2010PropOp54
 70
     1
102
RTVSPost2010Prop55
280
     0
102
RTVSPost2010PropOp55
 70
     1
102
RTVSPost2010Prop56
140
1.0
102
RTVSPost2010PropOp56
 70
     1
102
RTVSPost2010Prop57
140
1.0
102
RTVSPost2010PropOp57
 70
     1
  0
XRECORD
  5
213
102
{ACAD_REACTORS
330
212
102
}
330
212
100
AcDbXrecord
280
     1
102
RTVSPost2010Prop28
280
     0
102
RTVSPost2010PropOp28
 70
     1
102
RTVSPost2010Prop29
280
     1
102
RTVSPost2010PropOp29
 70
     1
102
RTVSPost2010Prop30
280
     1
102
RTVSPost2010PropOp30
 70
     1
102
RTVSPost2010Prop31
280
     0
102
RTVSPost2010PropOp31
 70
     1
102
RTVSPost2010Prop32
280
     0
102
RTVSPost2010PropOp32
 70
     1
102
RTVSPost2010Prop33
280
     0
102
RTVSPost2010PropOp33
 70
     1
102
RTVSPost2010Prop34
280
     0
102
RTVSPost2010PropOp34
 70
     1
102
RTVSPost2010Prop35
280
     0
102
RTVSPost2010PropOp35
 70
     1
102
RTVSPost2010Prop36
280
     0
102
RTVSPost2010PropOp36
 70
     1
102
RTVSPost2010Prop37
 90
       50
102
RTVSPost2010PropOp37
 70
     1
102
RTVSPost2010Prop38
140
0.0
102
RTVSPost2010PropOp38
 70
     1
102
RTVSPost2010Prop39
140
1.0
102
RTVSPost2010PropOp39
 70
     1
102
RTVSPost2010Prop40
 90
        0
102
RTVSPost2010PropOp40
 70
     1
102
RTVSPost2010Prop41ColorIndex
 90
       18
102
RTVSPost2010Prop41ColorRGB
 90
        0
102
RTVSPost2010PropOp41
 70
     1
102
RTVSPost2010Prop42
 90
       50
102
RTVSPost2010PropOp42
 70
     1
102
RTVSPost2010Prop43
 90
        3
102
RTVSPost2010PropOp43
 70
     1
102
RTVSPost2010Prop44ColorIndex
 90
        5
102
RTVSPost2010Prop44ColorRGB
 90
      255
102
RTVSPost2010PropOp44
 70
     1
102
RTVSPost2010Prop45
280
     0
102
RTVSPost2010PropOp45
 70
     1
102
RTVSPost2010Prop46
 90
       50
102
RTVSPost2010PropOp46
 70
     1
102
RTVSPost2010Prop47
 90
       50
102
RTVSPost2010PropOp47
 70
     1
102
RTVSPost2010Prop48
 90
       50
102
RTVSPost2010PropOp48
 70
     1
102
RTVSPost2010Prop49
280
     0
102
RTVSPost2010PropOp49
 70
     1
102
RTVSPost2010Prop50
 90
       50
102
RTVSPost2010PropOp50
 70
     1
102
RTVSPost2010Prop51ColorIndex
 90
      256
102
RTVSPost2010Prop51ColorRGB
 90
-16777216
102
RTVSPost2010PropOp51
 70
     0
102
RTVSPost2010Prop52
140
1.0
102
RTVSPost2010PropOp52
 70
     0
102
RTVSPost2010Prop53
 90
        2
102
RTVSPost2010PropOp53
 70
     1
102
RTVSPost2010Prop54
  1
strokes_ogs.tif
102
RTVSPost2010PropOp54
 70
     1
102
RTVSPost2010Prop55
280
     0
102
RTVSPost2010PropOp55
 70
     1
102
RTVSPost2010Prop56
140
1.0
102
RTVSPost2010PropOp56
 70
     1
102
RTVSPost2010Prop57
140
1.0
102
RTVSPost2010PropOp57
 70
     1
  0
XRECORD
  5
20D
102
{ACAD_REACTORS
330
20C
102
}
330
20C
100
AcDbXrecord
280
     1
102
RTVSPost2010Prop28
280
     0
102
RTVSPost2010PropOp28
 70
     1
102
RTVSPost2010Prop29
280
     1
102
RTVSPost2010PropOp29
 70
     1
102
RTVSPost2010Prop30
280
     1
102
RTVSPost2010PropOp30
 70
     1
102
RTVSPost2010Prop31
280
     0
102
RTVSPost2010PropOp31
 70
     1
102
RTVSPost2010Prop32
280
     0
102
RTVSPost2010PropOp32
 70
     1
102
RTVSPost2010Prop33
280
     0
102
RTVSPost2010PropOp33
 70
     1
102
RTVSPost2010Prop34
280
     0
102
RTVSPost2010PropOp34
 70
     1
102
RTVSPost2010Prop35
280
     0
102
RTVSPost2010PropOp35
 70
     1
102
RTVSPost2010Prop36
280
     0
102
RTVSPost2010PropOp36
 70
     1
102
RTVSPost2010Prop37
 90
       50
102
RTVSPost2010PropOp37
 70
     1
102
RTVSPost2010Prop38
140
0.0
102
RTVSPost2010PropOp38
 70
     1
102
RTVSPost2010Prop39
140
1.0
102
RTVSPost2010PropOp39
 70
     1
102
RTVSPost2010Prop40
 90
        0
102
RTVSPost2010PropOp40
 70
     1
102
RTVSPost2010Prop41ColorIndex
 90
       18
102
RTVSPost2010Prop41ColorRGB
 90
        0
102
RTVSPost2010PropOp41
 70
     1
102
RTVSPost2010Prop42
 90
       50
102
RTVSPost2010PropOp42
 70
     1
102
RTVSPost2010Prop43
 90
        3
102
RTVSPost2010PropOp43
 70
     1
102
RTVSPost2010Prop44ColorIndex
 90
        5
102
RTVSPost2010Prop44ColorRGB
 90
      255
102
RTVSPost2010PropOp44
 70
     1
102
RTVSPost2010Prop45
280
     0
102
RTVSPost2010PropOp45
 70
     1
102
RTVSPost2010Prop46
 90
       50
102
RTVSPost2010PropOp46
 70
     1
102
RTVSPost2010Prop47
 90
       50
102
RTVSPost2010PropOp47
 70
     1
102
RTVSPost2010Prop48
 90
       50
102
RTVSPost2010PropOp48
 70
     1
102
RTVSPost2010Prop49
280
     0
102
RTVSPost2010PropOp49
 70
     1
102
RTVSPost2010Prop50
 90
       50
102
RTVSPost2010PropOp50
 70
     1
102
RTVSPost2010Prop51ColorIndex
 90
      256
102
RTVSPost2010Prop51ColorRGB
 90
-16777216
102
RTVSPost2010PropOp51
 70
     0
102
RTVSPost2010Prop52
140
1.0
102
RTVSPost2010PropOp52
 70
     0
102
RTVSPost2010Prop53
 90
        2
102
RTVSPost2010PropOp53
 70
     1
102
RTVSPost2010Prop54
  1
strokes_ogs.tif
102
RTVSPost2010PropOp54
 70
     1
102
RTVSPost2010Prop55
280
     0
102
RTVSPost2010PropOp55
 70
     1
102
RTVSPost2010Prop56
140
1.0
102
RTVSPost2010PropOp56
 70
     1
102
RTVSPost2010Prop57
140
1.0
102
RTVSPost2010PropOp57
 70
     1
  0
XRECORD
  5
20F
102
{ACAD_REACTORS
330
20E
102
}
330
20E
100
AcDbXrecord
280
     1
102
RTVSPost2010Prop28
280
     0
102
RTVSPost2010PropOp28
 70
     1
102
RTVSPost2010Prop29
280
     1
102
RTVSPost2010PropOp29
 70
     1
102
RTVSPost2010Prop30
280
     1
102
RTVSPost2010PropOp30
 70
     1
102
RTVSPost2010Prop31
280
     0
102
RTVSPost2010PropOp31
 70
     1
102
RTVSPost2010Prop32
280
     0
102
RTVSPost2010PropOp32
 70
     1
102
RTVSPost2010Prop33
280
     0
102
RTVSPost2010PropOp33
 70
     1
102
RTVSPost2010Prop34
280
     0
102
RTVSPost2010PropOp34
 70
     1
102
RTVSPost2010Prop35
280
     0
102
RTVSPost2010PropOp35
 70
     1
102
RTVSPost2010Prop36
280
     0
102
RTVSPost2010PropOp36
 70
     1
102
RTVSPost2010Prop37
 90
       50
102
RTVSPost2010PropOp37
 70
     1
102
RTVSPost2010Prop38
140
0.0
102
RTVSPost2010PropOp38
 70
     1
102
RTVSPost2010Prop39
140
1.0
102
RTVSPost2010PropOp39
 70
     1
102
RTVSPost2010Prop40
 90
        0
102
RTVSPost2010PropOp40
 70
     1
102
RTVSPost2010Prop41ColorIndex
 90
       18
102
RTVSPost2010Prop41ColorRGB
 90
        0
102
RTVSPost2010PropOp41
 70
     1
102
RTVSPost2010Prop42
 90
       50
102
RTVSPost2010PropOp42
 70
     1
102
RTVSPost2010Prop43
 90
        3
102
RTVSPost2010PropOp43
 70
     1
102
RTVSPost2010Prop44ColorIndex
 90
        5
102
RTVSPost2010Prop44ColorRGB
 90
      255
102
RTVSPost2010PropOp44
 70
     1
102
RTVSPost2010Prop45
280
     0
102
RTVSPost2010PropOp45
 70
     1
102
RTVSPost2010Prop46
 90
       50
102
RTVSPost2010PropOp46
 70
     1
102
RTVSPost2010Prop47
 90
       50
102
RTVSPost2010PropOp47
 70
     1
102
RTVSPost2010Prop48
 90
       50
102
RTVSPost2010PropOp48
 70
     1
102
RTVSPost2010Prop49
280
     0
102
RTVSPost2010PropOp49
 70
     1
102
RTVSPost2010Prop50
 90
       50
102
RTVSPost2010PropOp50
 70
     1
102
RTVSPost2010Prop51ColorIndex
 90
      256
102
RTVSPost2010Prop51ColorRGB
 90
-16777216
102
RTVSPost2010PropOp51
 70
     0
102
RTVSPost2010Prop52
140
1.0
102
RTVSPost2010PropOp52
 70
     0
102
RTVSPost2010Prop53
 90
        2
102
RTVSPost2010PropOp53
 70
     1
102
RTVSPost2010Prop54
  1
strokes_ogs.tif
102
RTVSPost2010PropOp54
 70
     1
102
RTVSPost2010Prop55
280
     0
102
RTVSPost2010PropOp55
 70
     1
102
RTVSPost2010Prop56
140
1.0
102
RTVSPost2010PropOp56
 70
     1
102
RTVSPost2010Prop57
140
1.0
102
RTVSPost2010PropOp57
 70
     1
  0
XRECORD
  5
1FF
102
{ACAD_REACTORS
330
1FE
102
}
330
1FE
100
AcDbXrecord
280
     1
102
RTVSPost2010Prop28
280
     0
102
RTVSPost2010PropOp28
 70
     1
102
RTVSPost2010Prop29
280
     1
102
RTVSPost2010PropOp29
 70
     1
102
RTVSPost2010Prop30
280
     1
102
RTVSPost2010PropOp30
 70
     1
102
RTVSPost2010Prop31
280
     0
102
RTVSPost2010PropOp31
 70
     1
102
RTVSPost2010Prop32
280
     0
102
RTVSPost2010PropOp32
 70
     1
102
RTVSPost2010Prop33
280
     0
102
RTVSPost2010PropOp33
 70
     1
102
RTVSPost2010Prop34
280
     0
102
RTVSPost2010PropOp34
 70
     1
102
RTVSPost2010Prop35
280
     0
102
RTVSPost2010PropOp35
 70
     1
102
RTVSPost2010Prop36
280
     0
102
RTVSPost2010PropOp36
 70
     1
102
RTVSPost2010Prop37
 90
       50
102
RTVSPost2010PropOp37
 70
     1
102
RTVSPost2010Prop38
140
0.0
102
RTVSPost2010PropOp38
 70
     1
102
RTVSPost2010Prop39
140
1.0
102
RTVSPost2010PropOp39
 70
     1
102
RTVSPost2010Prop40
 90
        0
102
RTVSPost2010PropOp40
 70
     1
102
RTVSPost2010Prop41ColorIndex
 90
       18
102
RTVSPost2010Prop41ColorRGB
 90
        0
102
RTVSPost2010PropOp41
 70
     1
102
RTVSPost2010Prop42
 90
       50
102
RTVSPost2010PropOp42
 70
     1
102
RTVSPost2010Prop43
 90
        3
102
RTVSPost2010PropOp43
 70
     1
102
RTVSPost2010Prop44ColorIndex
 90
        5
102
RTVSPost2010Prop44ColorRGB
 90
      255
102
RTVSPost2010PropOp44
 70
     1
102
RTVSPost2010Prop45
280
     0
102
RTVSPost2010PropOp45
 70
     1
102
RTVSPost2010Prop46
 90
       50
102
RTVSPost2010PropOp46
 70
     1
102
RTVSPost2010Prop47
 90
       50
102
RTVSPost2010PropOp47
 70
     1
102
RTVSPost2010Prop48
 90
       50
102
RTVSPost2010PropOp48
 70
     1
102
RTVSPost2010Prop49
280
     0
102
RTVSPost2010PropOp49
 70
     1
102
RTVSPost2010Prop50
 90
       50
102
RTVSPost2010PropOp50
 70
     1
102
RTVSPost2010Prop51ColorIndex
 90
      256
102
RTVSPost2010Prop51ColorRGB
 90
-16777216
102
RTVSPost2010PropOp51
 70
     0
102
RTVSPost2010Prop52
140
1.0
102
RTVSPost2010PropOp52
 70
     0
102
RTVSPost2010Prop53
 90
        2
102
RTVSPost2010PropOp53
 70
     1
102
RTVSPost2010Prop54
  1
strokes_ogs.tif
102
RTVSPost2010PropOp54
 70
     1
102
RTVSPost2010Prop55
280
     0
102
RTVSPost2010PropOp55
 70
     1
102
RTVSPost2010Prop56
140
1.0
102
RTVSPost2010PropOp56
 70
     1
102
RTVSPost2010Prop57
140
1.0
102
RTVSPost2010PropOp57
 70
     1
  0
XRECORD
  5
1F1
102
{ACAD_REACTORS
330
1F0
102
}
330
1F0
100
AcDbXrecord
280
     1
102
RTVSPost2010Prop28
280
     0
102
RTVSPost2010PropOp28
 70
     1
102
RTVSPost2010Prop29
280
     1
102
RTVSPost2010PropOp29
 70
     1
102
RTVSPost2010Prop30
280
     1
102
RTVSPost2010PropOp30
 70
     1
102
RTVSPost2010Prop31
280
     0
102
RTVSPost2010PropOp31
 70
     1
102
RTVSPost2010Prop32
280
     0
102
RTVSPost2010PropOp32
 70
     1
102
RTVSPost2010Prop33
280
     0
102
RTVSPost2010PropOp33
 70
     1
102
RTVSPost2010Prop34
280
     0
102
RTVSPost2010PropOp34
 70
     1
102
RTVSPost2010Prop35
280
     0
102
RTVSPost2010PropOp35
 70
     1
102
RTVSPost2010Prop36
280
     0
102
RTVSPost2010PropOp36
 70
     1
102
RTVSPost2010Prop37
 90
       50
102
RTVSPost2010PropOp37
 70
     1
102
RTVSPost2010Prop38
140
0.0
102
RTVSPost2010PropOp38
 70
     1
102
RTVSPost2010Prop39
140
1.0
102
RTVSPost2010PropOp39
 70
     1
102
RTVSPost2010Prop40
 90
        0
102
RTVSPost2010PropOp40
 70
     1
102
RTVSPost2010Prop41ColorIndex
 90
       18
102
RTVSPost2010Prop41ColorRGB
 90
        0
102
RTVSPost2010PropOp41
 70
     1
102
RTVSPost2010Prop42
 90
       50
102
RTVSPost2010PropOp42
 70
     1
102
RTVSPost2010Prop43
 90
        3
102
RTVSPost2010PropOp43
 70
     1
102
RTVSPost2010Prop44ColorIndex
 90
        5
102
RTVSPost2010Prop44ColorRGB
 90
      255
102
RTVSPost2010PropOp44
 70
     1
102
RTVSPost2010Prop45
280
     0
102
RTVSPost2010PropOp45
 70
     1
102
RTVSPost2010Prop46
 90
       50
102
RTVSPost2010PropOp46
 70
     1
102
RTVSPost2010Prop47
 90
       50
102
RTVSPost2010PropOp47
 70
     1
102
RTVSPost2010Prop48
 90
       50
102
RTVSPost2010PropOp48
 70
     1
102
RTVSPost2010Prop49
280
     0
102
RTVSPost2010PropOp49
 70
     1
102
RTVSPost2010Prop50
 90
       50
102
RTVSPost2010PropOp50
 70
     1
102
RTVSPost2010Prop51ColorIndex
 90
      256
102
RTVSPost2010Prop51ColorRGB
 90
-16777216
102
RTVSPost2010PropOp51
 70
     0
102
RTVSPost2010Prop52
140
1.0
102
RTVSPost2010PropOp52
 70
     0
102
RTVSPost2010Prop53
 90
        2
102
RTVSPost2010PropOp53
 70
     1
102
RTVSPost2010Prop54
  1
strokes_ogs.tif
102
RTVSPost2010PropOp54
 70
     1
102
RTVSPost2010Prop55
280
     0
102
RTVSPost2010PropOp55
 70
     1
102
RTVSPost2010Prop56
140
1.0
102
RTVSPost2010PropOp56
 70
     1
102
RTVSPost2010Prop57
140
1.0
102
RTVSPost2010PropOp57
 70
     1
  0
XRECORD
  5
211
102
{ACAD_REACTORS
330
210
102
}
330
210
100
AcDbXrecord
280
     1
102
RTVSPost2010Prop28
280
     0
102
RTVSPost2010PropOp28
 70
     1
102
RTVSPost2010Prop29
280
     1
102
RTVSPost2010PropOp29
 70
     1
102
RTVSPost2010Prop30
280
     1
102
RTVSPost2010PropOp30
 70
     1
102
RTVSPost2010Prop31
280
     0
102
RTVSPost2010PropOp31
 70
     1
102
RTVSPost2010Prop32
280
     0
102
RTVSPost2010PropOp32
 70
     1
102
RTVSPost2010Prop33
280
     0
102
RTVSPost2010PropOp33
 70
     1
102
RTVSPost2010Prop34
280
     0
102
RTVSPost2010PropOp34
 70
     1
102
RTVSPost2010Prop35
280
     0
102
RTVSPost2010PropOp35
 70
     1
102
RTVSPost2010Prop36
280
     0
102
RTVSPost2010PropOp36
 70
     1
102
RTVSPost2010Prop37
 90
       50
102
RTVSPost2010PropOp37
 70
     1
102
RTVSPost2010Prop38
140
0.0
102
RTVSPost2010PropOp38
 70
     1
102
RTVSPost2010Prop39
140
1.0
102
RTVSPost2010PropOp39
 70
     1
102
RTVSPost2010Prop40
 90
        0
102
RTVSPost2010PropOp40
 70
     1
102
RTVSPost2010Prop41ColorIndex
 90
       18
102
RTVSPost2010Prop41ColorRGB
 90
        0
102
RTVSPost2010PropOp41
 70
     1
102
RTVSPost2010Prop42
 90
       50
102
RTVSPost2010PropOp42
 70
     1
102
RTVSPost2010Prop43
 90
        3
102
RTVSPost2010PropOp43
 70
     1
102
RTVSPost2010Prop44ColorIndex
 90
        5
102
RTVSPost2010Prop44ColorRGB
 90
      255
102
RTVSPost2010PropOp44
 70
     1
102
RTVSPost2010Prop45
280
     0
102
RTVSPost2010PropOp45
 70
     1
102
RTVSPost2010Prop46
 90
       50
102
RTVSPost2010PropOp46
 70
     1
102
RTVSPost2010Prop47
 90
       50
102
RTVSPost2010PropOp47
 70
     1
102
RTVSPost2010Prop48
 90
       50
102
RTVSPost2010PropOp48
 70
     1
102
RTVSPost2010Prop49
280
     0
102
RTVSPost2010PropOp49
 70
     1
102
RTVSPost2010Prop50
 90
       50
102
RTVSPost2010PropOp50
 70
     1
102
RTVSPost2010Prop51ColorIndex
 90
      256
102
RTVSPost2010Prop51ColorRGB
 90
-16777216
102
RTVSPost2010PropOp51
 70
     0
102
RTVSPost2010Prop52
140
1.0
102
RTVSPost2010PropOp52
 70
     0
102
RTVSPost2010Prop53
 90
        2
102
RTVSPost2010PropOp53
 70
     1
102
RTVSPost2010Prop54
  1
strokes_ogs.tif
102
RTVSPost2010PropOp54
 70
     1
102
RTVSPost2010Prop55
280
     0
102
RTVSPost2010PropOp55
 70
     1
102
RTVSPost2010Prop56
140
1.0
102
RTVSPost2010PropOp56
 70
     1
102
RTVSPost2010Prop57
140
1.0
102
RTVSPost2010PropOp57
 70
     1
  0
ENDSEC
  0
EOF
