  0
SECTION
  2
HEADER
  9
$ACADVER
  1
AC1024
  9
$ACADMAINTVER
 70
     6
  9
$DWGCODEPAGE
  3
ANSI_1252
  9
$INSBASE
 10
0.0
 20
0.0
 30
0.0
  9
$EXTMIN
 10
1.000000E+20
 20
1.000000E+20
 30
1.000000E+20
  9
$EXTMAX
 10
-1.000000E+20
 20
-1.000000E+20
 30
-1.000000E+20
  9
$LIMMIN
 10
0.0
 20
0.0
  9
$LIMMAX
 10
420.0
 20
297.0
  9
$ORTHOMODE
 70
     0
  9
$REGENMODE
 70
     1
  9
$FILLMODE
 70
     1
  9
$QTEXTMODE
 70
     0
  9
$MIRRTEXT
 70
     1
  9
$LTSCALE
 40
1.0
  9
$ATTMODE
 70
     1
  9
$TEXTSIZE
 40
2.5
  9
$TRACEWID
 40
1.0
  9
$TEXTSTYLE
  7
Standard
  9
$CLAYER
  8
0
  9
$CELTYPE
  6
ByLayer
  9
$CECOLOR
 62
   256
  9
$CELTSCALE
 40
1.0
  9
$DISPSILH
 70
     0
  9
$DIMSCALE
 40
1.0
  9
$DIMASZ
 40
2.5
  9
$DIMEXO
 40
0.625
  9
$DIMDLI
 40
3.75
  9
$DIMRND
 40
0.0
  9
$DIMDLE
 40
0.0
  9
$DIMEXE
 40
1.25
  9
$DIMTP
 40
0.0
  9
$DIMTM
 40
0.0
  9
$DIMTXT
 40
2.5
  9
$DIMCEN
 40
2.5
  9
$DIMTSZ
 40
0.0
  9
$DIMTOL
 70
     0
  9
$DIMLIM
 70
     0
  9
$DIMTIH
 70
     0
  9
$DIMTOH
 70
     0
  9
$DIMSE1
 70
     0
  9
$DIMSE2
 70
     0
  9
$DIMTAD
 70
     1
  9
$DIMZIN
 70
     8
  9
$DIMBLK
  1

  9
$DIMASO
 70
     1
  9
$DIMSHO
 70
     1
  9
$DIMPOST
  1

  9
$DIMAPOST
  1

  9
$DIMALT
 70
     0
  9
$DIMALTD
 70
     3
  9
$DIMALTF
 40
0.03937
  9
$DIMLFAC
 40
1.0
  9
$DIMTOFL
 70
     1
  9
$DIMTVP
 40
0.0
  9
$DIMTIX
 70
     0
  9
$DIMSOXD
 70
     0
  9
$DIMSAH
 70
     0
  9
$DIMBLK1
  1

  9
$DIMBLK2
  1

  9
$DIMSTYLE
  2
ISO-25
  9
$DIMCLRD
 70
     0
  9
$DIMCLRE
 70
     0
  9
$DIMCLRT
 70
     0
  9
$DIMTFAC
 40
1.0
  9
$DIMGAP
 40
0.625
  9
$DIMJUST
 70
     0
  9
$DIMSD1
 70
     0
  9
$DIMSD2
 70
     0
  9
$DIMTOLJ
 70
     0
  9
$DIMTZIN
 70
     8
  9
$DIMALTZ
 70
     0
  9
$DIMALTTZ
 70
     0
  9
$DIMUPT
 70
     0
  9
$DIMDEC
 70
     2
  9
$DIMTDEC
 70
     2
  9
$DIMALTU
 70
     2
  9
$DIMALTTD
 70
     3
  9
$DIMTXSTY
  7
Standard
  9
$DIMAUNIT
 70
     0
  9
$DIMADEC
 70
     0
  9
$DIMALTRND
 40
0.0
  9
$DIMAZIN
 70
     0
  9
$DIMDSEP
 70
    44
  9
$DIMATFIT
 70
     3
  9
$DIMFRAC
 70
     0
  9
$DIMLDRBLK
  1

  9
$DIMLUNIT
 70
     2
  9
$DIMLWD
 70
    -2
  9
$DIMLWE
 70
    -2
  9
$DIMTMOVE
 70
     0
  9
$DIMFXL
 40
1.0
  9
$DIMFXLON
 70
     0
  9
$DIMJOGANG
 40
0.785398
  9
$DIMTFILL
 70
     0
  9
$DIMTFILLCLR
 70
     0
  9
$DIMARCSYM
 70
     0
  9
$DIMLTYPE
  6

  9
$DIMLTEX1
  6

  9
$DIMLTEX2
  6

  9
$DIMTXTDIRECTION
 70
     0
  9
$LUNITS
 70
     2
  9
$LUPREC
 70
     4
  9
$SKETCHINC
 40
1.0
  9
$FILLETRAD
 40
10.0
  9
$AUNITS
 70
     0
  9
$AUPREC
 70
     0
  9
$MENU
  1
.
  9
$ELEVATION
 40
0.0
  9
$PELEVATION
 40
0.0
  9
$THICKNESS
 40
0.0
  9
$LIMCHECK
 70
     0
  9
$CHAMFERA
 40
0.0
  9
$CHAMFERB
 40
0.0
  9
$CHAMFERC
 40
0.0
  9
$CHAMFERD
 40
0.0
  9
$SKPOLY
 70
     0
  9
$TDCREATE
 40
2457806.728406875
  9
$TDUCREATE
 40
2457806.686740208
  9
$TDUPDATE
 40
2457806.728407778
  9
$TDUUPDATE
 40
2457806.686741111
  9
$TDINDWG
 40
0.0000000116
  9
$TDUSRTIMER
 40
0.0000000116
  9
$USRTIMER
 70
     1
  9
$ANGBASE
 50
0.0
  9
$ANGDIR
 70
     0
  9
$PDMODE
 70
     0
  9
$PDSIZE
 40
0.0
  9
$PLINEWID
 40
0.0
  9
$SPLFRAME
 70
     0
  9
$SPLINETYPE
 70
     6
  9
$SPLINESEGS
 70
     8
  9
$HANDSEED
  5
48E
  9
$SURFTAB1
 70
     6
  9
$SURFTAB2
 70
     6
  9
$SURFTYPE
 70
     6
  9
$SURFU
 70
     6
  9
$SURFV
 70
     6
  9
$UCSBASE
  2

  9
$UCSNAME
  2

  9
$UCSORG
 10
0.0
 20
0.0
 30
0.0
  9
$UCSXDIR
 10
1.0
 20
0.0
 30
0.0
  9
$UCSYDIR
 10
0.0
 20
1.0
 30
0.0
  9
$UCSORTHOREF
  2

  9
$UCSORTHOVIEW
 70
     0
  9
$UCSORGTOP
 10
0.0
 20
0.0
 30
0.0
  9
$UCSORGBOTTOM
 10
0.0
 20
0.0
 30
0.0
  9
$UCSORGLEFT
 10
0.0
 20
0.0
 30
0.0
  9
$UCSORGRIGHT
 10
0.0
 20
0.0
 30
0.0
  9
$UCSORGFRONT
 10
0.0
 20
0.0
 30
0.0
  9
$UCSORGBACK
 10
0.0
 20
0.0
 30
0.0
  9
$PUCSBASE
  2

  9
$PUCSNAME
  2

  9
$PUCSORG
 10
0.0
 20
0.0
 30
0.0
  9
$PUCSXDIR
 10
1.0
 20
0.0
 30
0.0
  9
$PUCSYDIR
 10
0.0
 20
1.0
 30
0.0
  9
$PUCSORTHOREF
  2

  9
$PUCSORTHOVIEW
 70
     0
  9
$PUCSORGTOP
 10
0.0
 20
0.0
 30
0.0
  9
$PUCSORGBOTTOM
 10
0.0
 20
0.0
 30
0.0
  9
$PUCSORGLEFT
 10
0.0
 20
0.0
 30
0.0
  9
$PUCSORGRIGHT
 10
0.0
 20
0.0
 30
0.0
  9
$PUCSORGFRONT
 10
0.0
 20
0.0
 30
0.0
  9
$PUCSORGBACK
 10
0.0
 20
0.0
 30
0.0
  9
$USERI1
 70
     0
  9
$USERI2
 70
     0
  9
$USERI3
 70
     0
  9
$USERI4
 70
     0
  9
$USERI5
 70
     0
  9
$USERR1
 40
0.0
  9
$USERR2
 40
0.0
  9
$USERR3
 40
0.0
  9
$USERR4
 40
0.0
  9
$USERR5
 40
0.0
  9
$WORLDVIEW
 70
     1
  9
$SHADEDGE
 70
     3
  9
$SHADEDIF
 70
    70
  9
$TILEMODE
 70
     1
  9
$MAXACTVP
 70
    64
  9
$PINSBASE
 10
0.0
 20
0.0
 30
0.0
  9
$PLIMCHECK
 70
     0
  9
$PEXTMIN
 10
1.000000E+20
 20
1.000000E+20
 30
1.000000E+20
  9
$PEXTMAX
 10
-1.000000E+20
 20
-1.000000E+20
 30
-1.000000E+20
  9
$PLIMMIN
 10
0.0
 20
0.0
  9
$PLIMMAX
 10
420.0
 20
297.0
  9
$UNITMODE
 70
     0
  9
$VISRETAIN
 70
     1
  9
$PLINEGEN
 70
     0
  9
$PSLTSCALE
 70
     1
  9
$TREEDEPTH
 70
  3020
  9
$CMLSTYLE
  2
Standard
  9
$CMLJUST
 70
     0
  9
$CMLSCALE
 40
20.0
  9
$PROXYGRAPHICS
 70
     1
  9
$MEASUREMENT
 70
     1
  9
$CELWEIGHT
370
    -1
  9
$ENDCAPS
280
     0
  9
$JOINSTYLE
280
     0
  9
$LWDISPLAY
290
     0
  9
$INSUNITS
 70
     4
  9
$HYPERLINKBASE
  1

  9
$STYLESHEET
  1

  9
$XEDIT
290
     1
  9
$CEPSNTYPE
380
     0
  9
$PSTYLEMODE
290
     1
  9
$FINGERPRINTGUID
  2
{1D8C7FEA-D17C-47F1-A6EC-718CC9488385}
  9
$VERSIONGUID
  2
{FAEB1C32-E019-11D5-929B-00C0DF256EC4}
  9
$EXTNAMES
290
     1
  9
$PSVPSCALE
 40
0.0
  9
$OLESTARTUP
290
     0
  9
$SORTENTS
280
   127
  9
$INDEXCTL
280
     0
  9
$HIDETEXT
280
     1
  9
$XCLIPFRAME
280
     2
  9
$HALOGAP
280
     0
  9
$OBSCOLOR
 70
   257
  9
$OBSLTYPE
280
     0
  9
$INTERSECTIONDISPLAY
280
     0
  9
$INTERSECTIONCOLOR
 70
   257
  9
$DIMASSOC
280
     2
  9
$PROJECTNAME
  1

  9
$CAMERADISPLAY
290
     0
  9
$LENSLENGTH
 40
50.0
  9
$CAMERAHEIGHT
 40
0.0
  9
$STEPSPERSEC
 40
2.0
  9
$STEPSIZE
 40
6.0
  9
$3DDWFPREC
 40
2.0
  9
$PSOLWIDTH
 40
5.0
  9
$PSOLHEIGHT
 40
80.0
  9
$LOFTANG1
 40
1.570796
  9
$LOFTANG2
 40
1.570796
  9
$LOFTMAG1
 40
0.0
  9
$LOFTMAG2
 40
0.0
  9
$LOFTPARAM
 70
     7
  9
$LOFTNORMALS
280
     1
  9
$LATITUDE
 40
37.795
  9
$LONGITUDE
 40
-122.394
  9
$NORTHDIRECTION
 40
0.0
  9
$TIMEZONE
 70
 -8000
  9
$LIGHTGLYPHDISPLAY
280
     1
  9
$TILEMODELIGHTSYNCH
280
     1
  9
$CMATERIAL
347
44
  9
$SOLIDHIST
280
     0
  9
$SHOWHIST
280
     1
  9
$DWFFRAME
280
     2
  9
$DGNFRAME
280
     2
  9
$REALWORLDSCALE
290
     1
  9
$INTERFERECOLOR
 62
   256
  9
$CSHADOW
280
     0
  9
$SHADOWPLANELOCATION
 40
0.0
  0
ENDSEC
  0
SECTION
  2
CLASSES
  0
CLASS
  1
ACDBDICTIONARYWDFLT
  2
AcDbDictionaryWithDefault
  3
ObjectDBX Classes
 90
        0
 91
        4
280
     0
281
     0
  0
CLASS
  1
VISUALSTYLE
  2
AcDbVisualStyle
  3
ObjectDBX Classes
 90
     4095
 91
        4
280
     0
281
     0
  0
CLASS
  1
MATERIAL
  2
AcDbMaterial
  3
ObjectDBX Classes
 90
     1153
 91
        4
280
     0
281
     0
  0
CLASS
  1
SCALE
  2
AcDbScale
  3
ObjectDBX Classes
 90
     1153
 91
        4
280
     0
281
     0
  0
CLASS
  1
TABLESTYLE
  2
AcDbTableStyle
  3
ObjectDBX Classes
 90
     4095
 91
        4
280
     0
281
     0
  0
CLASS
  1
MLEADERSTYLE
  2
AcDbMLeaderStyle
  3
ACDB_MLEADERSTYLE_CLASS
 90
     4095
 91
        4
280
     0
281
     0
  0
CLASS
  1
SUN
  2
AcDbSun
  3
SCENEOE
 90
     1153
 91
        4
280
     0
281
     0
  0
CLASS
  1
DICTIONARYVAR
  2
AcDbDictionaryVar
  3
ObjectDBX Classes
 90
        0
 91
        4
280
     0
281
     0
  0
CLASS
  1
CELLSTYLEMAP
  2
AcDbCellStyleMap
  3
ObjectDBX Classes
 90
     1152
 91
        4
280
     0
281
     0
  0
ENDSEC
  0
SECTION
  2
TABLES
  0
TABLE
  2
VPORT
  5
8
330
0
100
AcDbSymbolTable
 70
     1
  0
VPORT
  5
29
330
8
100
AcDbSymbolTableRecord
100
AcDbViewportTableRecord
  2
*Active
 70
     0
 10
0.0
 20
0.0
 11
1.0
 21
1.0
 12
344.186916
 22
148.5
 13
0.0
 23
0.0
 14
10.0
 24
10.0
 15
10.0
 25
10.0
 16
0.0
 26
0.0
 36
1.0
 17
0.0
 27
0.0
 37
0.0
 40
297.0
 41
1.972973
 42
50.0
 43
0.0
 44
0.0
 50
0.0
 51
0.0
 71
     0
 72
   100
 73
     1
 74
     3
 75
     0
 76
     0
 77
     0
 78
     0
281
     0
 65
     1
110
0.0
120
0.0
130
0.0
111
1.0
121
0.0
131
0.0
112
0.0
122
1.0
132
0.0
 79
     0
146
0.0
348
2F
 60
     3
 61
     5
292
     1
282
     1
141
0.0
142
0.0
 63
   250
361
6D
  0
ENDTAB
  0
TABLE
  2
LTYPE
  5
5
330
0
100
AcDbSymbolTable
 70
     1
  0
LTYPE
  5
14
330
5
100
AcDbSymbolTableRecord
100
AcDbLinetypeTableRecord
  2
ByBlock
 70
     0
  3

 72
    65
 73
     0
 40
0.0
  0
LTYPE
  5
15
330
5
100
AcDbSymbolTableRecord
100
AcDbLinetypeTableRecord
  2
ByLayer
 70
     0
  3

 72
    65
 73
     0
 40
0.0
  0
LTYPE
  5
16
330
5
100
AcDbSymbolTableRecord
100
AcDbLinetypeTableRecord
  2
Continuous
 70
     0
  3
Solid line
 72
    65
 73
     0
 40
0.0
  0
ENDTAB
  0
TABLE
  2
LAYER
  5
2
330
0
100
AcDbSymbolTable
 70
     1
  0
LAYER
  5
10
330
2
100
AcDbSymbolTableRecord
100
AcDbLayerTableRecord
  2
0
 70
     0
 62
   106
  6
Continuous
370
     0
390
F
347
46
  0
ENDTAB
  0
TABLE
  2
STYLE
  5
3
330
0
100
AcDbSymbolTable
 70
     4
  0
STYLE
  5
11
330
3
100
AcDbSymbolTableRecord
100
AcDbTextStyleTableRecord
  2
Standard
 70
     0
 40
0.0
 41
1.0
 50
0.0
 71
     0
 42
2.5
  3
txt
  4

  0
STYLE
  5
6E
330
3
100
AcDbSymbolTableRecord
100
AcDbTextStyleTableRecord
  2
Default
 70
     0
 40
0.0
 41
1.0
 50
0.0
 71
     0
 42
2.5
  3

  4

1001
ACAD
1000
txt
1071
        0
  0
STYLE
  5
6F
330
3
100
AcDbSymbolTableRecord
100
AcDbTextStyleTableRecord
  2
ISO
 70
     0
 40
0.0
 41
1.0
 50
0.0
 71
     0
 42
2.5
  3

  4

1001
ACAD
1000
txt
1071
        0
  0
STYLE
  5
70
330
3
100
AcDbSymbolTableRecord
100
AcDbTextStyleTableRecord
  2
zucchetti
 70
     0
 40
0.0
 41
1.0
 50
0.0
 71
     0
 42
2.5
  3

  4

1001
ACAD
1000
Arial
1071
        0
  0
ENDTAB
  0
TABLE
  2
VIEW
  5
6
330
0
100
AcDbSymbolTable
 70
     0
  0
ENDTAB
  0
TABLE
  2
UCS
  5
7
330
0
100
AcDbSymbolTable
 70
     0
  0
ENDTAB
  0
TABLE
  2
APPID
  5
9
330
0
100
AcDbSymbolTable
 70
     1
  0
APPID
  5
12
330
9
100
AcDbSymbolTableRecord
100
AcDbRegAppTableRecord
  2
ACAD
 70
     0
  0
ENDTAB
  0
TABLE
  2
DIMSTYLE
  5
A
330
0
100
AcDbSymbolTable
 70
     4
100
AcDbDimStyleTable
  0
DIMSTYLE
105
27
330
A
100
AcDbSymbolTableRecord
100
AcDbDimStyleTableRecord
  2
ISO-25
 70
     0
 41
2.5
 42
0.625
 43
3.75
 44
1.25
 73
     0
 74
     0
 77
     1
 78
     8
140
2.5
141
2.5
143
0.03937
147
0.625
171
     3
172
     1
178
     0
271
     2
272
     2
274
     3
278
    44
283
     0
284
     8
340
11
  0
DIMSTYLE
105
71
330
A
100
AcDbSymbolTableRecord
100
AcDbDimStyleTableRecord
  2
Default
 70
     0
  3
<>
 41
4.375
 42
1.05
 44
2.1
 49
10.01
 73
     0
 74
     0
 77
     1
 78
     8
140
3.5
146
0.4
147
1.75
172
     1
271
     2
178
     3
271
     2
272
     3
284
     8
340
6E
341
72
342
72
  0
DIMSTYLE
105
79
330
A
100
AcDbSymbolTableRecord
100
AcDbDimStyleTableRecord
  2
ISO
 70
     0
  3
<>
 41
4.375
 42
1.05
 44
2.1
 49
10.01
 73
     0
 74
     0
 77
     1
 78
     8
140
3.5
146
0.4
147
1.75
172
     1
271
     2
178
     3
271
     2
272
     3
284
     8
340
6F
341
72
342
72
  0
DIMSTYLE
105
7A
330
A
100
AcDbSymbolTableRecord
100
AcDbDimStyleTableRecord
  2
zucchetti
 70
     0
  3
<>
 41
3.0
 42
0.9
 44
1.8
 49
8.58
 73
     0
 74
     0
 77
     1
 78
     8
140
3.0
146
0.6
147
1.5
172
     1
176
     3
177
     3
271
     2
178
     3
271
     2
272
     2
284
     8
340
70
  0
ENDTAB
  0
TABLE
  2
BLOCK_RECORD
  5
1
330
0
100
AcDbSymbolTable
 70
     7
  0
BLOCK_RECORD
  5
1F
330
1
100
AcDbSymbolTableRecord
100
AcDbBlockTableRecord
  2
*Model_Space
340
22
 70
     0
280
     1
281
     0
  0
BLOCK_RECORD
  5
1B
330
1
100
AcDbSymbolTableRecord
100
AcDbBlockTableRecord
  2
*Paper_Space
340
1E
 70
     0
280
     1
281
     0
  0
BLOCK_RECORD
  5
23
330
1
100
AcDbSymbolTableRecord
100
AcDbBlockTableRecord
  2
*Paper_Space0
340
26
 70
     0
280
     1
281
     0
  0
BLOCK_RECORD
  5
72
330
1
100
AcDbSymbolTableRecord
100
AcDbBlockTableRecord
  2
_CLOSED
340
0
 70
     0
280
     1
281
     0
  0
BLOCK_RECORD
  5
7B
330
1
100
AcDbSymbolTableRecord
100
AcDbBlockTableRecord
  2
a
340
0
102
{BLKREFS
331
179
102
}
 70
     0
280
     1
281
     0
  0
BLOCK_RECORD
  5
17A
330
1
100
AcDbSymbolTableRecord
100
AcDbBlockTableRecord
  2
b
340
0
102
{BLKREFS
331
221
102
}
 70
     0
280
     1
281
     0
  0
BLOCK_RECORD
  5
222
330
1
100
AcDbSymbolTableRecord
100
AcDbBlockTableRecord
  2
c
340
0
102
{BLKREFS
331
27B
102
}
 70
     0
280
     1
281
     0
  0
BLOCK_RECORD
  5
27C
330
1
100
AcDbSymbolTableRecord
100
AcDbBlockTableRecord
  2
d
340
0
102
{BLKREFS
331
3F4
102
}
 70
     0
280
     1
281
     0
  0
BLOCK_RECORD
  5
3F5
330
1
100
AcDbSymbolTableRecord
100
AcDbBlockTableRecord
  2
e
340
0
102
{BLKREFS
331
454
102
}
 70
     0
280
     1
281
     0
  0
ENDTAB
  0
ENDSEC
  0
SECTION
  2
BLOCKS
  0
BLOCK
  5
20
330
1F
100
AcDbEntity
  8
0
100
AcDbBlockBegin
  2
*Model_Space
 70
     0
 10
0.0
 20
0.0
 30
0.0
  3
*Model_Space
  1

  0
ENDBLK
  5
21
330
1F
100
AcDbEntity
  8
0
100
AcDbBlockEnd
  0
BLOCK
  5
1C
330
1B
100
AcDbEntity
 67
     1
  8
0
100
AcDbBlockBegin
  2
*Paper_Space
 70
     0
 10
0.0
 20
0.0
 30
0.0
  3
*Paper_Space
  1

  0
ENDBLK
  5
1D
330
1B
100
AcDbEntity
 67
     1
  8
0
100
AcDbBlockEnd
  0
BLOCK
  5
24
330
23
100
AcDbEntity
  8
0
100
AcDbBlockBegin
  2
*Paper_Space0
 70
     0
 10
0.0
 20
0.0
 30
0.0
  3
*Paper_Space0
  1

  0
ENDBLK
  5
25
330
23
100
AcDbEntity
  8
0
100
AcDbBlockEnd
  0
BLOCK
  5
73
330
72
100
AcDbEntity
  8
0
100
AcDbBlockBegin
  2
_CLOSED
 70
     0
 10
0.0
 20
0.0
 30
0.0
  3
_CLOSED
  1

  0
LINE
  5
75
330
72
100
AcDbEntity
  8
0
  6
ByBlock
 62
     0
370
    -2
100
AcDbLine
 10
-1.0
 20
0.166667
 30
0.0
 11
0.0
 21
0.0
 31
0.0
  0
LINE
  5
76
330
72
100
AcDbEntity
  8
0
  6
ByBlock
 62
     0
370
    -2
100
AcDbLine
 10
0.0
 20
0.0
 30
0.0
 11
-1.0
 21
-0.166667
 31
0.0
  0
LINE
  5
77
330
72
100
AcDbEntity
  8
0
  6
ByBlock
 62
     0
370
    -2
100
AcDbLine
 10
-1.0
 20
0.166667
 30
0.0
 11
-1.0
 21
-0.166667
 31
0.0
  0
LINE
  5
78
330
72
100
AcDbEntity
  8
0
  6
ByBlock
 62
     0
370
    -2
100
AcDbLine
 10
0.0
 20
0.0
 30
0.0
 11
-1.0
 21
0.0
 31
0.0
  0
ENDBLK
  5
74
330
72
100
AcDbEntity
  8
0
100
AcDbBlockEnd
  0
BLOCK
  5
177
330
7B
100
AcDbEntity
  8
0
100
AcDbBlockBegin
  2
a
 70
     0
 10
92.176735
 20
122.27581
 30
0.0
  3
a
  1

  0
LINE
  5
7C
330
7B
100
AcDbEntity
  8
0
  6
Continuous
 62
     0
370
     0
100
AcDbLine
 10
255.259538
 20
426.767593
 30
0.0
 11
277.254119
 21
426.767593
 31
0.0
  0
LINE
  5
7D
330
7B
100
AcDbEntity
  8
0
  6
Continuous
 62
     0
370
     0
100
AcDbLine
 10
277.254119
 20
443.767593
 30
0.0
 11
255.259538
 21
443.767593
 31
0.0
  0
LINE
  5
7E
330
7B
100
AcDbEntity
  8
0
  6
Continuous
 62
     0
370
     0
100
AcDbLine
 10
278.25412
 20
446.267593
 30
0.0
 11
254.26003
 21
446.267593
 31
0.0
  0
LINE
  5
7F
330
7B
100
AcDbEntity
  8
0
  6
Continuous
 62
     0
370
     0
100
AcDbLine
 10
254.26003
 20
444.267593
 30
0.0
 11
278.25412
 21
444.267593
 31
0.0
  0
LINE
  5
80
330
7B
100
AcDbEntity
  8
0
  6
Continuous
 62
     0
370
    30
100
AcDbLine
 10
257.233565
 20
426.517593
 30
0.0
 11
257.483442
 21
426.767593
 31
0.0
  0
LINE
  5
81
330
7B
100
AcDbEntity
  8
0
  6
Continuous
 62
     0
370
    30
100
AcDbLine
 10
278.25412
 20
444.267593
 30
0.0
 11
278.25412
 21
446.267593
 31
0.0
  0
LINE
  5
82
330
7B
100
AcDbEntity
  8
0
  6
Continuous
 62
     0
370
    30
100
AcDbLine
 10
254.25412
 20
444.267593
 30
0.0
 11
254.25412
 21
446.267593
 31
0.0
  0
LINE
  5
83
330
7B
100
AcDbEntity
  8
0
  6
Continuous
 62
     0
370
    30
100
AcDbLine
 10
277.254119
 20
426.767593
 30
0.0
 11
277.254119
 21
443.767593
 31
0.0
  0
LINE
  5
84
330
7B
100
AcDbEntity
  8
0
  6
Continuous
 62
     0
370
    30
100
AcDbLine
 10
255.25412
 20
426.767593
 30
0.0
 11
255.25412
 21
443.767593
 31
0.0
  0
ARC
  5
85
330
7B
100
AcDbEntity
  8
0
  6
Continuous
 62
     0
370
    30
100
AcDbCircle
 10
266.25412
 20
498.517593
 30
0.0
 40
12.5
100
AcDbArc
 50
133.742715
 51
208.357637
  0
ARC
  5
86
330
7B
100
AcDbEntity
  8
0
  6
Continuous
 62
     0
370
    30
100
AcDbCircle
 10
266.25412
 20
498.517593
 30
0.0
 40
12.5
100
AcDbArc
 50
331.642363
 51
133.742715
  0
ARC
  5
87
330
7B
100
AcDbEntity
  8
0
  6
Continuous
 62
     0
370
     0
100
AcDbCircle
 10
266.254334
 20
498.517609
 30
0.0
 40
12.25013645514776
100
AcDbArc
 50
133.743488
 51
206.107937
  0
ARC
  5
88
330
7B
100
AcDbEntity
  8
0
  6
Continuous
 62
     0
370
     0
100
AcDbCircle
 10
266.254107
 20
498.517544
 30
0.0
 40
12.25002667633804
100
AcDbArc
 50
333.890976
 51
133.742513
  0
ARC
  5
89
330
7B
100
AcDbEntity
  8
0
  6
Continuous
 62
     0
370
     0
100
AcDbCircle
 10
166.25412
 20
498.517593
 30
0.0
 40
27.31829574580204
100
AcDbArc
 50
90.0
 51
270.0
  0
ARC
  5
8A
330
7B
100
AcDbEntity
  8
0
  6
Continuous
 62
     0
370
     0
100
AcDbCircle
 10
166.25412
 20
498.517593
 30
0.0
 40
27.31829574580204
100
AcDbArc
 50
270.0
 51
90.0
  0
ARC
  5
8B
330
7B
100
AcDbEntity
  8
0
  6
Continuous
 62
     0
370
    30
100
AcDbCircle
 10
166.25412
 20
498.517593
 30
0.0
 40
28.25000000000001
100
AcDbArc
 50
270.0
 51
90.0
  0
ARC
  5
8C
330
7B
100
AcDbEntity
  8
0
  6
Continuous
 62
     0
370
    30
100
AcDbCircle
 10
166.25412
 20
498.517593
 30
0.0
 40
28.25000000000001
100
AcDbArc
 50
90.0
 51
270.0
  0
ARC
  5
8D
330
7B
100
AcDbEntity
  8
0
  6
Continuous
 62
     0
370
    30
100
AcDbCircle
 10
166.25412
 20
498.517593
 30
0.0
 40
30.5
100
AcDbArc
 50
326.921868
 51
146.921868
  0
ARC
  5
8E
330
7B
100
AcDbEntity
  8
0
  6
Continuous
 62
     0
370
    30
100
AcDbCircle
 10
166.25412
 20
498.517593
 30
0.0
 40
30.5
100
AcDbArc
 50
146.921868
 51
326.921868
  0
ARC
  5
8F
330
7B
100
AcDbEntity
  8
0
  6
Continuous
 62
     0
370
     0
100
AcDbCircle
 10
366.254124
 20
498.51754
 30
0.0
 40
27.31829574580204
100
AcDbArc
 50
89.99997
 51
269.99997
  0
ARC
  5
90
330
7B
100
AcDbEntity
  8
0
  6
Continuous
 62
     0
370
     0
100
AcDbCircle
 10
366.254124
 20
498.51754
 30
0.0
 40
27.31829574580204
100
AcDbArc
 50
269.99997
 51
89.99997
  0
ARC
  5
91
330
7B
100
AcDbEntity
  8
0
  6
Continuous
 62
     0
370
    30
100
AcDbCircle
 10
366.254124
 20
498.51754
 30
0.0
 40
28.25000000000001
100
AcDbArc
 50
269.99997
 51
89.99997
  0
ARC
  5
92
330
7B
100
AcDbEntity
  8
0
  6
Continuous
 62
     0
370
    30
100
AcDbCircle
 10
366.254124
 20
498.51754
 30
0.0
 40
28.25000000000001
100
AcDbArc
 50
89.99997
 51
269.99997
  0
ARC
  5
93
330
7B
100
AcDbEntity
  8
0
  6
Continuous
 62
     0
370
    30
100
AcDbCircle
 10
366.254121
 20
498.51754
 30
0.0
 40
30.5
100
AcDbArc
 50
213.078102
 51
33.078102
  0
ARC
  5
94
330
7B
100
AcDbEntity
  8
0
  6
Continuous
 62
     0
370
    30
100
AcDbCircle
 10
366.254121
 20
498.51754
 30
0.0
 40
30.5
100
AcDbArc
 50
33.078102
 51
213.078102
  0
ARC
  5
95
330
7B
100
AcDbEntity
  8
0
  6
Continuous
 62
     0
370
    30
100
AcDbCircle
 10
266.25412
 20
498.517593
 30
0.0
 40
30.50000000000001
100
AcDbArc
 50
138.537083
 51
248.859527
  0
ARC
  5
96
330
7B
100
AcDbEntity
  8
0
  6
Continuous
 62
     0
370
    30
100
AcDbCircle
 10
266.25412
 20
498.517593
 30
0.0
 40
30.50000000000001
100
AcDbArc
 50
291.140473
 51
318.537083
  0
ARC
  5
97
330
7B
100
AcDbEntity
  8
0
  6
Continuous
 62
     0
370
    30
100
AcDbCircle
 10
266.25412
 20
498.517593
 30
0.0
 40
30.50000000000001
100
AcDbArc
 50
318.537083
 51
138.537083
  0
LINE
  5
98
330
7B
100
AcDbEntity
  8
0
  6
Continuous
 62
     0
370
    30
100
AcDbLine
 10
255.25412
 20
498.517593
 30
0.0
 11
255.25412
 21
451.517593
 31
0.0
  0
LINE
  5
99
330
7B
100
AcDbEntity
  8
0
  6
Continuous
 62
     0
370
     0
100
AcDbLine
 10
255.25412
 20
451.517593
 30
0.0
 11
277.25412
 21
451.517593
 31
0.0
  0
ARC
  5
9A
330
7B
100
AcDbEntity
  8
0
  6
Continuous
 62
     0
370
    30
100
AcDbCircle
 10
266.25412
 20
498.517593
 30
0.0
 40
11.0
100
AcDbArc
 50
0.0
 51
180.0
  0
LINE
  5
9B
330
7B
100
AcDbEntity
  8
0
  6
Continuous
 62
     0
370
    30
100
AcDbLine
 10
255.25412
 20
451.517593
 30
0.0
 11
255.25412
 21
446.517593
 31
0.0
  0
LINE
  5
9C
330
7B
100
AcDbEntity
  8
0
  6
Continuous
 62
     0
370
    30
100
AcDbLine
 10
255.25412
 20
446.517593
 30
0.0
 11
277.25412
 21
446.517593
 31
0.0
  0
LINE
  5
9D
330
7B
100
AcDbEntity
  8
0
  6
Continuous
 62
     0
370
    30
100
AcDbLine
 10
277.25412
 20
446.517593
 30
0.0
 11
277.25412
 21
451.517593
 31
0.0
  0
LINE
  5
9E
330
7B
100
AcDbEntity
  8
0
  6
Continuous
 62
     0
370
    30
100
AcDbLine
 10
277.25412
 20
451.517593
 30
0.0
 11
277.25412
 21
498.517593
 31
0.0
  0
LINE
  5
9F
330
7B
100
AcDbEntity
  8
0
  6
Continuous
 62
     0
370
    30
100
AcDbLine
 10
369.590969
 20
496.390858
 30
0.0
 11
369.769563
 21
495.886827
 31
0.0
  0
LINE
  5
A0
330
7B
100
AcDbEntity
  8
0
  6
Continuous
 62
     0
370
    30
100
AcDbLine
 10
369.769563
 20
495.886827
 30
0.0
 11
370.356938
 21
495.746598
 31
0.0
  0
LINE
  5
A1
330
7B
100
AcDbEntity
  8
0
  6
Continuous
 62
     0
370
    30
100
AcDbLine
 10
370.356938
 20
495.746598
 30
0.0
 11
370.830542
 21
495.746598
 31
0.0
  0
LINE
  5
A2
330
7B
100
AcDbEntity
  8
0
  6
Continuous
 62
     0
370
    30
100
AcDbLine
 10
370.830542
 20
495.746598
 30
0.0
 11
371.325313
 21
495.82465
 31
0.0
  0
LINE
  5
A3
330
7B
100
AcDbEntity
  8
0
  6
Continuous
 62
     0
370
    30
100
AcDbLine
 10
371.325313
 20
495.82465
 30
0.0
 11
371.619
 21
496.064098
 31
0.0
  0
LINE
  5
A4
330
7B
100
AcDbEntity
  8
0
  6
Continuous
 62
     0
370
    30
100
AcDbLine
 10
371.619
 20
496.064098
 30
0.0
 11
371.838604
 21
496.519181
 31
0.0
  0
LINE
  5
A5
330
7B
100
AcDbEntity
  8
0
  6
Continuous
 62
     0
370
    30
100
AcDbLine
 10
371.902104
 20
496.519181
 30
0.0
 11
371.693083
 21
495.575942
 31
0.0
  0
LINE
  5
A6
330
7B
100
AcDbEntity
  8
0
  6
Continuous
 62
     0
370
    30
100
AcDbLine
 10
371.693083
 20
495.575942
 30
0.0
 11
368.405635
 21
495.575942
 31
0.0
  0
LINE
  5
A7
330
7B
100
AcDbEntity
  8
0
  6
Continuous
 62
     0
370
    30
100
AcDbLine
 10
368.481042
 20
495.636796
 30
0.0
 11
368.840875
 21
495.798192
 31
0.0
  0
LINE
  5
A8
330
7B
100
AcDbEntity
  8
0
  6
Continuous
 62
     0
370
    30
100
AcDbLine
 10
368.840875
 20
495.798192
 30
0.0
 11
368.998302
 21
496.250629
 31
0.0
  0
LINE
  5
A9
330
7B
100
AcDbEntity
  8
0
  6
Continuous
 62
     0
370
    30
100
AcDbLine
 10
368.998302
 20
496.250629
 30
0.0
 11
368.998302
 21
500.46941
 31
0.0
  0
LINE
  5
AA
330
7B
100
AcDbEntity
  8
0
  6
Continuous
 62
     0
370
    30
100
AcDbLine
 10
368.998302
 20
500.46941
 30
0.0
 11
368.822354
 21
500.953598
 31
0.0
  0
LINE
  5
AB
330
7B
100
AcDbEntity
  8
0
  6
Continuous
 62
     0
370
    30
100
AcDbLine
 10
368.822354
 20
500.953598
 30
0.0
 11
368.405635
 21
501.091181
 31
0.0
  0
LINE
  5
AC
330
7B
100
AcDbEntity
  8
0
  6
Continuous
 62
     0
370
    30
100
AcDbLine
 10
368.405635
 20
501.165265
 30
0.0
 11
370.183635
 21
501.165265
 31
0.0
  0
LINE
  5
AD
330
7B
100
AcDbEntity
  8
0
  6
Continuous
 62
     0
370
    30
100
AcDbLine
 10
370.183635
 20
501.091181
 30
0.0
 11
369.770885
 21
500.957567
 31
0.0
  0
LINE
  5
AE
330
7B
100
AcDbEntity
  8
0
  6
Continuous
 62
     0
370
    30
100
AcDbLine
 10
369.770885
 20
500.957567
 30
0.0
 11
369.590969
 21
500.46941
 31
0.0
  0
LINE
  5
AF
330
7B
100
AcDbEntity
  8
0
  6
Continuous
 62
     0
370
    30
100
AcDbLine
 10
369.590969
 20
500.46941
 30
0.0
 11
369.590969
 21
496.390858
 31
0.0
  0
LINE
  5
B0
330
7B
100
AcDbEntity
  8
0
  6
Continuous
 62
     0
370
    30
100
AcDbLine
 10
374.37195
 20
496.263858
 30
0.0
 11
374.37195
 21
500.472056
 31
0.0
  0
LINE
  5
B1
330
7B
100
AcDbEntity
  8
0
  6
Continuous
 62
     0
370
    30
100
AcDbLine
 10
374.37195
 20
500.472056
 30
0.0
 11
374.306708
 21
500.806392
 31
0.0
  0
LINE
  5
B2
330
7B
100
AcDbEntity
  8
0
  6
Continuous
 62
     0
370
    30
100
AcDbLine
 10
374.306708
 20
500.806392
 30
0.0
 11
374.14098
 21
500.991934
 31
0.0
  0
LINE
  5
B3
330
7B
100
AcDbEntity
  8
0
  6
Continuous
 62
     0
370
    30
100
AcDbLine
 10
374.14098
 20
500.991934
 30
0.0
 11
373.90469
 21
501.050442
 31
0.0
  0
LINE
  5
B4
330
7B
100
AcDbEntity
  8
0
  6
Continuous
 62
     0
370
    30
100
AcDbLine
 10
373.90469
 20
501.050442
 30
0.0
 11
373.779284
 21
501.050442
 31
0.0
  0
LINE
  5
B5
330
7B
100
AcDbEntity
  8
0
  6
Continuous
 62
     0
370
    30
100
AcDbLine
 10
373.779284
 20
501.050442
 30
0.0
 11
373.779284
 21
501.215265
 31
0.0
  0
LINE
  5
B6
330
7B
100
AcDbEntity
  8
0
  6
Continuous
 62
     0
370
    30
100
AcDbLine
 10
373.779284
 20
501.215265
 30
0.0
 11
375.955211
 21
501.215265
 31
0.0
  0
LINE
  5
B7
330
7B
100
AcDbEntity
  8
0
  6
Continuous
 62
     0
370
    30
100
AcDbLine
 10
375.955211
 20
501.215265
 30
0.0
 11
376.786878
 21
501.136174
 31
0.0
  0
LINE
  5
B8
330
7B
100
AcDbEntity
  8
0
  6
Continuous
 62
     0
370
    30
100
AcDbLine
 10
376.786878
 20
501.136174
 30
0.0
 11
377.471224
 21
500.926752
 31
0.0
  0
LINE
  5
B9
330
7B
100
AcDbEntity
  8
0
  6
Continuous
 62
     0
370
    30
100
AcDbLine
 10
377.471224
 20
500.926752
 30
0.0
 11
377.9948
 21
500.63996
 31
0.0
  0
LINE
  5
BA
330
7B
100
AcDbEntity
  8
0
  6
Continuous
 62
     0
370
    30
100
AcDbLine
 10
377.9948
 20
500.63996
 30
0.0
 11
378.36983
 21
500.321536
 31
0.0
  0
LINE
  5
BB
330
7B
100
AcDbEntity
  8
0
  6
Continuous
 62
     0
370
    30
100
AcDbLine
 10
378.36983
 20
500.321536
 30
0.0
 11
378.820557
 21
499.722688
 31
0.0
  0
LINE
  5
BC
330
7B
100
AcDbEntity
  8
0
  6
Continuous
 62
     0
370
    30
100
AcDbLine
 10
378.820557
 20
499.722688
 30
0.0
 11
379.09929
 21
499.026539
 31
0.0
  0
LINE
  5
BD
330
7B
100
AcDbEntity
  8
0
  6
Continuous
 62
     0
370
    30
100
AcDbLine
 10
379.09929
 20
499.026539
 30
0.0
 11
379.192117
 21
498.273369
 31
0.0
  0
LINE
  5
BE
330
7B
100
AcDbEntity
  8
0
  6
Continuous
 62
     0
370
    30
100
AcDbLine
 10
379.192117
 20
498.273369
 30
0.0
 11
379.100544
 21
497.533159
 31
0.0
  0
LINE
  5
BF
330
7B
100
AcDbEntity
  8
0
  6
Continuous
 62
     0
370
    30
100
AcDbLine
 10
379.100544
 20
497.533159
 30
0.0
 11
378.838865
 21
496.883206
 31
0.0
  0
LINE
  5
C0
330
7B
100
AcDbEntity
  8
0
  6
Continuous
 62
     0
370
    30
100
AcDbLine
 10
378.838865
 20
496.883206
 30
0.0
 11
378.430516
 21
496.34145
 31
0.0
  0
LINE
  5
C1
330
7B
100
AcDbEntity
  8
0
  6
Continuous
 62
     0
370
    30
100
AcDbLine
 10
378.430516
 20
496.34145
 30
0.0
 11
377.879384
 21
495.902198
 31
0.0
  0
LINE
  5
C2
330
7B
100
AcDbEntity
  8
0
  6
Continuous
 62
     0
370
    30
100
AcDbLine
 10
377.879384
 20
495.902198
 30
0.0
 11
377.256047
 21
495.638963
 31
0.0
  0
LINE
  5
C3
330
7B
100
AcDbEntity
  8
0
  6
Continuous
 62
     0
370
    30
100
AcDbLine
 10
377.256047
 20
495.638963
 30
0.0
 11
376.309753
 21
495.539171
 31
0.0
  0
LINE
  5
C4
330
7B
100
AcDbEntity
  8
0
  6
Continuous
 62
     0
370
    30
100
AcDbLine
 10
376.309753
 20
495.539171
 30
0.0
 11
373.779284
 21
495.539171
 31
0.0
  0
LINE
  5
C5
330
7B
100
AcDbEntity
  8
0
  6
Continuous
 62
     0
370
    30
100
AcDbLine
 10
373.779284
 20
495.539171
 30
0.0
 11
373.779284
 21
495.700025
 31
0.0
  0
LINE
  5
C6
330
7B
100
AcDbEntity
  8
0
  6
Continuous
 62
     0
370
    30
100
AcDbLine
 10
373.779284
 20
495.700025
 30
0.0
 11
373.90469
 21
495.700025
 31
0.0
  0
LINE
  5
C7
330
7B
100
AcDbEntity
  8
0
  6
Continuous
 62
     0
370
    30
100
AcDbLine
 10
373.90469
 20
495.700025
 30
0.0
 11
374.251725
 21
495.873096
 31
0.0
  0
LINE
  5
C8
330
7B
100
AcDbEntity
  8
0
  6
Continuous
 62
     0
370
    30
100
AcDbLine
 10
374.251725
 20
495.873096
 30
0.0
 11
374.37195
 21
496.263858
 31
0.0
  0
LINE
  5
C9
330
7B
100
AcDbEntity
  8
0
  6
Continuous
 62
     0
370
    30
100
AcDbLine
 10
375.920815
 20
500.94064
 30
0.0
 11
375.064617
 21
500.856929
 31
0.0
  0
LINE
  5
CA
330
7B
100
AcDbEntity
  8
0
  6
Continuous
 62
     0
370
    30
100
AcDbLine
 10
375.064617
 20
500.856929
 30
0.0
 11
375.064617
 21
496.48214
 31
0.0
  0
LINE
  5
CB
330
7B
100
AcDbEntity
  8
0
  6
Continuous
 62
     0
370
    30
100
AcDbLine
 10
375.064617
 20
496.48214
 30
0.0
 11
375.157974
 21
496.032467
 31
0.0
  0
LINE
  5
CC
330
7B
100
AcDbEntity
  8
0
  6
Continuous
 62
     0
370
    30
100
AcDbLine
 10
375.157974
 20
496.032467
 30
0.0
 11
375.445514
 21
495.853753
 31
0.0
  0
LINE
  5
CD
330
7B
100
AcDbEntity
  8
0
  6
Continuous
 62
     0
370
    30
100
AcDbLine
 10
375.445514
 20
495.853753
 30
0.0
 11
376.066336
 21
495.809827
 31
0.0
  0
LINE
  5
CE
330
7B
100
AcDbEntity
  8
0
  6
Continuous
 62
     0
370
    30
100
AcDbLine
 10
376.066336
 20
495.809827
 30
0.0
 11
377.056447
 21
495.926895
 31
0.0
  0
LINE
  5
CF
330
7B
100
AcDbEntity
  8
0
  6
Continuous
 62
     0
370
    30
100
AcDbLine
 10
377.056447
 20
495.926895
 30
0.0
 11
377.824781
 21
496.444603
 31
0.0
  0
LINE
  5
D0
330
7B
100
AcDbEntity
  8
0
  6
Continuous
 62
     0
370
    30
100
AcDbLine
 10
377.824781
 20
496.444603
 30
0.0
 11
378.268634
 21
497.177441
 31
0.0
  0
LINE
  5
D1
330
7B
100
AcDbEntity
  8
0
  6
Continuous
 62
     0
370
    30
100
AcDbLine
 10
378.268634
 20
497.177441
 30
0.0
 11
378.43595
 21
498.232358
 31
0.0
  0
LINE
  5
D2
330
7B
100
AcDbEntity
  8
0
  6
Continuous
 62
     0
370
    30
100
AcDbLine
 10
378.43595
 20
498.232358
 30
0.0
 11
378.300252
 21
499.199042
 31
0.0
  0
LINE
  5
D3
330
7B
100
AcDbEntity
  8
0
  6
Continuous
 62
     0
370
    30
100
AcDbLine
 10
378.300252
 20
499.199042
 30
0.0
 11
377.888765
 21
500.048146
 31
0.0
  0
LINE
  5
D4
330
7B
100
AcDbEntity
  8
0
  6
Continuous
 62
     0
370
    30
100
AcDbLine
 10
377.888765
 20
500.048146
 30
0.0
 11
377.094803
 21
500.703611
 31
0.0
  0
LINE
  5
D5
330
7B
100
AcDbEntity
  8
0
  6
Continuous
 62
     0
370
    30
100
AcDbLine
 10
377.094803
 20
500.703611
 30
0.0
 11
375.920815
 21
500.94064
 31
0.0
  0
LINE
  5
D6
330
7B
100
AcDbEntity
  8
0
  6
Continuous
 62
     0
370
    30
100
AcDbLine
 10
366.148697
 20
498.517593
 30
0.0
 11
366.152227
 21
498.358035
 31
0.0
  0
LINE
  5
D7
330
7B
100
AcDbEntity
  8
0
  6
Continuous
 62
     0
370
    30
100
AcDbLine
 10
366.152226
 20
498.358035
 30
0.0
 11
365.762107
 21
496.866315
 31
0.0
  0
LINE
  5
D8
330
7B
100
AcDbEntity
  8
0
  6
Continuous
 62
     0
370
    30
100
AcDbLine
 10
365.762107
 20
496.866315
 30
0.0
 11
364.699452
 21
495.767375
 31
0.0
  0
ARC
  5
D9
330
7B
100
AcDbEntity
  8
0
  6
Continuous
 62
     0
370
    30
100
AcDbCircle
 10
363.216477
 20
498.2482
 30
0.0
 40
2.890278209639406
100
AcDbArc
 50
269.851933
 51
300.869927
  0
ARC
  5
DA
330
7B
100
AcDbEntity
  8
0
  6
Continuous
 62
     0
370
    30
100
AcDbCircle
 10
363.202939
 20
498.316036
 30
0.0
 40
2.958110518039449
100
AcDbArc
 50
239.501823
 51
270.117537
  0
LINE
  5
DB
330
7B
100
AcDbEntity
  8
0
  6
Continuous
 62
     0
370
    30
100
AcDbLine
 10
361.701666
 20
495.767194
 30
0.0
 11
360.624169
 21
496.868942
 31
0.0
  0
ARC
  5
DC
330
7B
100
AcDbEntity
  8
0
  6
Continuous
 62
     0
370
    30
100
AcDbCircle
 10
363.321837
 20
498.376741
 30
0.0
 40
3.090447827149172
100
AcDbArc
 50
179.905311
 51
209.202
  0
LINE
  5
DD
330
7B
100
AcDbEntity
  8
0
  6
Continuous
 62
     0
370
    30
100
AcDbLine
 10
360.231393
 20
498.381848
 30
0.0
 11
360.234169
 21
498.517593
 31
0.0
  0
LINE
  5
DE
330
7B
100
AcDbEntity
  8
0
  6
Continuous
 62
     0
370
    30
100
AcDbLine
 10
360.234169
 20
498.517593
 30
0.0
 11
360.464191
 21
499.560161
 31
0.0
  0
LINE
  5
DF
330
7B
100
AcDbEntity
  8
0
  6
Continuous
 62
     0
370
    30
100
AcDbLine
 10
360.464191
 20
499.560161
 30
0.0
 11
361.118185
 21
500.524951
 31
0.0
  0
LINE
  5
E0
330
7B
100
AcDbEntity
  8
0
  6
Continuous
 62
     0
370
    30
100
AcDbLine
 10
361.118185
 20
500.524951
 30
0.0
 11
362.075848
 21
501.159811
 31
0.0
  0
LINE
  5
E1
330
7B
100
AcDbEntity
  8
0
  6
Continuous
 62
     0
370
    30
100
AcDbLine
 10
362.075848
 20
501.159811
 30
0.0
 11
363.20107
 21
501.384598
 31
0.0
  0
LINE
  5
E2
330
7B
100
AcDbEntity
  8
0
  6
Continuous
 62
     0
370
    30
100
AcDbLine
 10
363.20107
 20
501.384598
 30
0.0
 11
364.303291
 21
501.169282
 31
0.0
  0
LINE
  5
E3
330
7B
100
AcDbEntity
  8
0
  6
Continuous
 62
     0
370
    30
100
AcDbLine
 10
364.303291
 20
501.169282
 30
0.0
 11
365.251972
 21
500.547668
 31
0.0
  0
LINE
  5
E4
330
7B
100
AcDbEntity
  8
0
  6
Continuous
 62
     0
370
    30
100
AcDbLine
 10
365.251972
 20
500.547668
 30
0.0
 11
365.912699
 21
499.581599
 31
0.0
  0
LINE
  5
E5
330
7B
100
AcDbEntity
  8
0
  6
Continuous
 62
     0
370
    30
100
AcDbLine
 10
365.912699
 20
499.581599
 30
0.0
 11
366.148697
 21
498.517593
 31
0.0
  0
LINE
  5
E6
330
7B
100
AcDbEntity
  8
0
  6
Continuous
 62
     0
370
    30
100
AcDbLine
 10
363.199747
 20
501.113942
 30
0.0
 11
362.490958
 21
500.99978
 31
0.0
  0
LINE
  5
E7
330
7B
100
AcDbEntity
  8
0
  6
Continuous
 62
     0
370
    30
100
AcDbLine
 10
362.490958
 20
500.99978
 30
0.0
 11
361.781383
 21
500.583873
 31
0.0
  0
LINE
  5
E8
330
7B
100
AcDbEntity
  8
0
  6
Continuous
 62
     0
370
    30
100
AcDbLine
 10
361.781383
 20
500.583873
 30
0.0
 11
361.212719
 21
499.733501
 31
0.0
  0
LINE
  5
E9
330
7B
100
AcDbEntity
  8
0
  6
Continuous
 62
     0
370
    30
100
AcDbLine
 10
361.212719
 20
499.733501
 30
0.0
 11
360.989553
 21
498.517593
 31
0.0
  0
LINE
  5
EA
330
7B
100
AcDbEntity
  8
0
  6
Continuous
 62
     0
370
    30
100
AcDbLine
 10
360.989553
 20
498.517593
 30
0.0
 11
360.98756
 21
498.367296
 31
0.0
  0
LINE
  5
EB
330
7B
100
AcDbEntity
  8
0
  6
Continuous
 62
     0
370
    30
100
AcDbLine
 10
360.98756
 20
498.367296
 30
0.0
 11
361.17391
 21
497.119162
 31
0.0
  0
LINE
  5
EC
330
7B
100
AcDbEntity
  8
0
  6
Continuous
 62
     0
370
    30
100
AcDbLine
 10
361.17391
 20
497.119162
 30
0.0
 11
361.682481
 21
496.256391
 31
0.0
  0
LINE
  5
ED
330
7B
100
AcDbEntity
  8
0
  6
Continuous
 62
     0
370
    30
100
AcDbLine
 10
361.682481
 20
496.256391
 30
0.0
 11
362.394551
 21
495.776178
 31
0.0
  0
LINE
  5
EE
330
7B
100
AcDbEntity
  8
0
  6
Continuous
 62
     0
370
    30
100
AcDbLine
 10
362.394551
 20
495.776178
 30
0.0
 11
363.207685
 21
495.628588
 31
0.0
  0
LINE
  5
EF
330
7B
100
AcDbEntity
  8
0
  6
Continuous
 62
     0
370
    30
100
AcDbLine
 10
363.207685
 20
495.628588
 30
0.0
 11
363.970126
 21
495.764602
 31
0.0
  0
LINE
  5
F0
330
7B
100
AcDbEntity
  8
0
  6
Continuous
 62
     0
370
    30
100
AcDbLine
 10
363.970126
 20
495.764602
 30
0.0
 11
364.674647
 21
496.207399
 31
0.0
  0
LINE
  5
F1
330
7B
100
AcDbEntity
  8
0
  6
Continuous
 62
     0
370
    30
100
AcDbLine
 10
364.674647
 20
496.207399
 30
0.0
 11
365.195538
 21
497.043477
 31
0.0
  0
LINE
  5
F2
330
7B
100
AcDbEntity
  8
0
  6
Continuous
 62
     0
370
    30
100
AcDbLine
 10
365.195538
 20
497.043477
 30
0.0
 11
365.39606
 21
498.344806
 31
0.0
  0
LINE
  5
F3
330
7B
100
AcDbEntity
  8
0
  6
Continuous
 62
     0
370
    30
100
AcDbLine
 10
365.396062
 20
498.344807
 30
0.0
 11
365.393616
 21
498.517593
 31
0.0
  0
ARC
  5
F4
330
7B
100
AcDbEntity
  8
0
  6
Continuous
 62
     0
370
    30
100
AcDbCircle
 10
362.248898
 20
498.572516
 30
0.0
 40
3.145195924545881
100
AcDbArc
 50
358.999428
 51
28.490979
  0
LINE
  5
F5
330
7B
100
AcDbEntity
  8
0
  6
Continuous
 62
     0
370
    30
100
AcDbLine
 10
365.013186
 20
500.072839
 30
0.0
 11
364.138045
 21
500.902263
 31
0.0
  0
LINE
  5
F6
330
7B
100
AcDbEntity
  8
0
  6
Continuous
 62
     0
370
    30
100
AcDbLine
 10
364.138045
 20
500.902263
 30
0.0
 11
363.199747
 21
501.113942
 31
0.0
  0
ARC
  5
F7
330
7B
100
AcDbEntity
  8
0
  6
Continuous
 62
     0
370
    30
100
AcDbCircle
 10
356.105219
 20
498.523047
 30
0.0
 40
2.861559653807495
100
AcDbArc
 50
90.139248
 51
121.33775
  0
LINE
  5
F8
330
7B
100
AcDbEntity
  8
0
  6
Continuous
 62
     0
370
    30
100
AcDbLine
 10
356.098264
 20
501.384598
 30
0.0
 11
357.146018
 21
501.235262
 31
0.0
  0
LINE
  5
F9
330
7B
100
AcDbEntity
  8
0
  6
Continuous
 62
     0
370
    30
100
AcDbLine
 10
357.146018
 20
501.235262
 30
0.0
 11
357.534747
 21
501.078709
 31
0.0
  0
LINE
  5
FA
330
7B
100
AcDbEntity
  8
0
  6
Continuous
 62
     0
370
    30
100
AcDbLine
 10
357.534747
 20
501.078709
 30
0.0
 11
357.706931
 21
501.045931
 31
0.0
  0
LINE
  5
FB
330
7B
100
AcDbEntity
  8
0
  6
Continuous
 62
     0
370
    30
100
AcDbLine
 10
357.706931
 20
501.045931
 30
0.0
 11
357.861983
 21
501.093711
 31
0.0
  0
LINE
  5
FC
330
7B
100
AcDbEntity
  8
0
  6
Continuous
 62
     0
370
    30
100
AcDbLine
 10
357.861983
 20
501.093711
 30
0.0
 11
357.940908
 21
501.299931
 31
0.0
  0
LINE
  5
FD
330
7B
100
AcDbEntity
  8
0
  6
Continuous
 62
     0
370
    30
100
AcDbLine
 10
357.940908
 20
501.299931
 30
0.0
 11
358.066494
 21
501.299931
 31
0.0
  0
LINE
  5
FE
330
7B
100
AcDbEntity
  8
0
  6
Continuous
 62
     0
370
    30
100
AcDbLine
 10
358.066494
 20
501.299931
 30
0.0
 11
358.066494
 21
499.845265
 31
0.0
  0
LINE
  5
FF
330
7B
100
AcDbEntity
  8
0
  6
Continuous
 62
     0
370
    30
100
AcDbLine
 10
358.066494
 20
499.845265
 30
0.0
 11
357.878717
 21
499.845265
 31
0.0
  0
LINE
  5
100
330
7B
100
AcDbEntity
  8
0
  6
Continuous
 62
     0
370
    30
100
AcDbLine
 10
357.878717
 20
499.845265
 30
0.0
 11
357.506677
 21
500.555303
 31
0.0
  0
LINE
  5
101
330
7B
100
AcDbEntity
  8
0
  6
Continuous
 62
     0
370
    30
100
AcDbLine
 10
357.506677
 20
500.555303
 30
0.0
 11
356.8188
 21
500.9791
 31
0.0
  0
LINE
  5
102
330
7B
100
AcDbEntity
  8
0
  6
Continuous
 62
     0
370
    30
100
AcDbLine
 10
356.8188
 20
500.9791
 30
0.0
 11
356.090327
 21
501.113942
 31
0.0
  0
LINE
  5
103
330
7B
100
AcDbEntity
  8
0
  6
Continuous
 62
     0
370
    30
100
AcDbLine
 10
356.090327
 20
501.113942
 30
0.0
 11
355.223344
 21
500.915321
 31
0.0
  0
LINE
  5
104
330
7B
100
AcDbEntity
  8
0
  6
Continuous
 62
     0
370
    30
100
AcDbLine
 10
355.223344
 20
500.915321
 30
0.0
 11
354.521687
 21
500.354412
 31
0.0
  0
LINE
  5
105
330
7B
100
AcDbEntity
  8
0
  6
Continuous
 62
     0
370
    30
100
AcDbLine
 10
354.521687
 20
500.354412
 30
0.0
 11
354.060925
 21
499.481692
 31
0.0
  0
LINE
  5
106
330
7B
100
AcDbEntity
  8
0
  6
Continuous
 62
     0
370
    30
100
AcDbLine
 10
354.060925
 20
499.481692
 30
0.0
 11
353.89924
 21
498.517593
 31
0.0
  0
LINE
  5
107
330
7B
100
AcDbEntity
  8
0
  6
Continuous
 62
     0
370
    30
100
AcDbLine
 10
353.89924
 20
498.517593
 30
0.0
 11
353.89666
 21
498.368619
 31
0.0
  0
LINE
  5
108
330
7B
100
AcDbEntity
  8
0
  6
Continuous
 62
     0
370
    30
100
AcDbLine
 10
353.89666
 20
498.368619
 30
0.0
 11
354.055638
 21
497.289928
 31
0.0
  0
LINE
  5
109
330
7B
100
AcDbEntity
  8
0
  6
Continuous
 62
     0
370
    30
100
AcDbLine
 10
354.055638
 20
497.289928
 30
0.0
 11
354.519959
 21
496.430939
 31
0.0
  0
LINE
  5
10A
330
7B
100
AcDbEntity
  8
0
  6
Continuous
 62
     0
370
    30
100
AcDbLine
 10
354.519959
 20
496.430939
 30
0.0
 11
355.223593
 21
495.883281
 31
0.0
  0
LINE
  5
10B
330
7B
100
AcDbEntity
  8
0
  6
Continuous
 62
     0
370
    30
100
AcDbLine
 10
355.223593
 20
495.883281
 30
0.0
 11
356.114139
 21
495.698702
 31
0.0
  0
LINE
  5
10C
330
7B
100
AcDbEntity
  8
0
  6
Continuous
 62
     0
370
    30
100
AcDbLine
 10
356.114139
 20
495.698702
 30
0.0
 11
357.013298
 21
495.86795
 31
0.0
  0
LINE
  5
10D
330
7B
100
AcDbEntity
  8
0
  6
Continuous
 62
     0
370
    30
100
AcDbLine
 10
357.013298
 20
495.86795
 30
0.0
 11
357.981827
 21
496.517773
 31
0.0
  0
LINE
  5
10E
330
7B
100
AcDbEntity
  8
0
  6
Continuous
 62
     0
370
    30
100
AcDbLine
 10
357.981827
 20
496.517773
 30
0.0
 11
357.981827
 21
496.154019
 31
0.0
  0
LINE
  5
10F
330
7B
100
AcDbEntity
  8
0
  6
Continuous
 62
     0
370
    30
100
AcDbLine
 10
357.981827
 20
496.154019
 30
0.0
 11
357.048909
 21
495.547596
 31
0.0
  0
LINE
  5
110
330
7B
100
AcDbEntity
  8
0
  6
Continuous
 62
     0
370
    30
100
AcDbLine
 10
357.048909
 20
495.547596
 30
0.0
 11
356.008306
 21
495.357931
 31
0.0
  0
LINE
  5
111
330
7B
100
AcDbEntity
  8
0
  6
Continuous
 62
     0
370
    30
100
AcDbLine
 10
356.008306
 20
495.357931
 30
0.0
 11
354.811475
 21
495.604538
 31
0.0
  0
LINE
  5
112
330
7B
100
AcDbEntity
  8
0
  6
Continuous
 62
     0
370
    30
100
AcDbLine
 10
354.811475
 20
495.604538
 30
0.0
 11
353.896582
 21
496.27035
 31
0.0
  0
LINE
  5
113
330
7B
100
AcDbEntity
  8
0
  6
Continuous
 62
     0
370
    30
100
AcDbLine
 10
353.896582
 20
496.27035
 30
0.0
 11
353.331379
 21
497.213765
 31
0.0
  0
LINE
  5
114
330
7B
100
AcDbEntity
  8
0
  6
Continuous
 62
     0
370
    30
100
AcDbLine
 10
353.331379
 20
497.213765
 30
0.0
 11
353.140494
 21
498.289244
 31
0.0
  0
LINE
  5
115
330
7B
100
AcDbEntity
  8
0
  6
Continuous
 62
     0
370
    30
100
AcDbLine
 10
353.140494
 20
498.289244
 30
0.0
 11
353.148162
 21
498.517593
 31
0.0
  0
LINE
  5
116
330
7B
100
AcDbEntity
  8
0
  6
Continuous
 62
     0
370
    30
100
AcDbLine
 10
353.148162
 20
498.517593
 30
0.0
 11
353.538384
 21
499.836231
 31
0.0
  0
ARC
  5
117
330
7B
100
AcDbEntity
  8
0
  6
Continuous
 62
     0
370
    30
100
AcDbCircle
 10
356.240907
 20
498.338564
 30
0.0
 40
3.089763211427204
100
AcDbArc
 50
121.70765
 51
151.005928
  0
LINE
  5
118
330
7B
100
AcDbEntity
  8
0
  6
Continuous
 62
     0
370
    30
100
AcDbLine
 10
166.25412
 20
495.397844
 30
0.0
 11
165.188968
 21
495.776514
 31
0.0
  0
ARC
  5
119
330
7B
100
AcDbEntity
  8
0
  6
Continuous
 62
     0
370
    30
100
AcDbCircle
 10
166.744192
 20
498.378019
 30
0.0
 40
3.030931385028675
100
AcDbArc
 50
209.664546
 51
239.12831
  0
ARC
  5
11A
330
7B
100
AcDbEntity
  8
0
  6
Continuous
 62
     0
370
    30
100
AcDbCircle
 10
166.786817
 20
498.380801
 30
0.0
 40
3.069404256855794
100
AcDbArc
 50
179.770683
 51
209.315864
  0
LINE
  5
11B
330
7B
100
AcDbEntity
  8
0
  6
Continuous
 62
     0
370
    30
100
AcDbLine
 10
163.717438
 20
498.393085
 30
0.0
 11
163.719918
 21
498.521001
 31
0.0
  0
LINE
  5
11C
330
7B
100
AcDbEntity
  8
0
  6
Continuous
 62
     0
370
    30
100
AcDbLine
 10
163.719918
 20
498.521001
 30
0.0
 11
163.950153
 21
499.569569
 31
0.0
  0
LINE
  5
11D
330
7B
100
AcDbEntity
  8
0
  6
Continuous
 62
     0
370
    30
100
AcDbLine
 10
163.950153
 20
499.569569
 30
0.0
 11
164.604397
 21
500.534624
 31
0.0
  0
LINE
  5
11E
330
7B
100
AcDbEntity
  8
0
  6
Continuous
 62
     0
370
    30
100
AcDbLine
 10
164.604397
 20
500.534624
 30
0.0
 11
165.562578
 21
501.169838
 31
0.0
  0
LINE
  5
11F
330
7B
100
AcDbEntity
  8
0
  6
Continuous
 62
     0
370
    30
100
AcDbLine
 10
165.562578
 20
501.169838
 30
0.0
 11
166.688504
 21
501.395013
 31
0.0
  0
LINE
  5
120
330
7B
100
AcDbEntity
  8
0
  6
Continuous
 62
     0
370
    30
100
AcDbLine
 10
166.688504
 20
501.395013
 30
0.0
 11
167.791578
 21
501.179993
 31
0.0
  0
LINE
  5
121
330
7B
100
AcDbEntity
  8
0
  6
Continuous
 62
     0
370
    30
100
AcDbLine
 10
167.791578
 20
501.179993
 30
0.0
 11
168.740919
 21
500.558529
 31
0.0
  0
LINE
  5
122
330
7B
100
AcDbEntity
  8
0
  6
Continuous
 62
     0
370
    30
100
AcDbLine
 10
168.740919
 20
500.558529
 30
0.0
 11
169.402078
 21
499.592539
 31
0.0
  0
LINE
  5
123
330
7B
100
AcDbEntity
  8
0
  6
Continuous
 62
     0
370
    30
100
AcDbLine
 10
169.402078
 20
499.592539
 30
0.0
 11
169.64184
 21
498.369139
 31
0.0
  0
ARC
  5
124
330
7B
100
AcDbEntity
  8
0
  6
Continuous
 62
     0
370
    30
100
AcDbCircle
 10
166.609699
 20
498.364855
 30
0.0
 40
3.032144167050939
100
AcDbArc
 50
330.615669
 51
0.08095
  0
LINE
  5
125
330
7B
100
AcDbEntity
  8
0
  6
Continuous
 62
     0
370
    30
100
AcDbLine
 10
169.251751
 20
496.877087
 30
0.0
 11
168.188609
 21
495.777686
 31
0.0
  0
ARC
  5
126
330
7B
100
AcDbEntity
  8
0
  6
Continuous
 62
     0
370
    30
100
AcDbCircle
 10
166.696802
 20
498.287602
 30
0.0
 40
2.919788773380885
100
AcDbArc
 50
270.014728
 51
300.725764
  0
LINE
  5
127
330
7B
100
AcDbEntity
  8
0
  6
Continuous
 62
     0
370
    30
100
AcDbLine
 10
166.697553
 20
495.367813
 30
0.0
 11
166.25412
 21
495.397844
 31
0.0
  0
LINE
  5
128
330
7B
100
AcDbEntity
  8
0
  6
Continuous
 62
     0
370
    30
100
AcDbLine
 10
166.25412
 20
495.680506
 30
0.0
 11
166.694878
 21
495.638814
 31
0.0
  0
LINE
  5
129
330
7B
100
AcDbEntity
  8
0
  6
Continuous
 62
     0
370
    30
100
AcDbLine
 10
166.694878
 20
495.638814
 30
0.0
 11
167.457669
 21
495.774934
 31
0.0
  0
LINE
  5
12A
330
7B
100
AcDbEntity
  8
0
  6
Continuous
 62
     0
370
    30
100
AcDbLine
 10
167.457669
 20
495.774934
 30
0.0
 11
168.162008
 21
496.219175
 31
0.0
  0
LINE
  5
12B
330
7B
100
AcDbEntity
  8
0
  6
Continuous
 62
     0
370
    30
100
AcDbLine
 10
168.162008
 20
496.219175
 30
0.0
 11
168.682434
 21
497.054955
 31
0.0
  0
LINE
  5
12C
330
7B
100
AcDbEntity
  8
0
  6
Continuous
 62
     0
370
    30
100
AcDbLine
 10
168.682434
 20
497.054955
 30
0.0
 11
168.88236
 21
498.355866
 31
0.0
  0
ARC
  5
12D
330
7B
100
AcDbEntity
  8
0
  6
Continuous
 62
     0
370
    30
100
AcDbCircle
 10
165.570912
 20
498.529315
 30
0.0
 40
3.315988219570206
100
AcDbArc
 50
357.001669
 51
27.959504
  0
LINE
  5
12E
330
7B
100
AcDbEntity
  8
0
  6
Continuous
 62
     0
370
    30
100
AcDbLine
 10
168.499855
 20
500.084008
 30
0.0
 11
167.62478
 21
500.913478
 31
0.0
  0
LINE
  5
12F
330
7B
100
AcDbEntity
  8
0
  6
Continuous
 62
     0
370
    30
100
AcDbLine
 10
167.62478
 20
500.913478
 30
0.0
 11
166.68614
 21
501.124917
 31
0.0
  0
LINE
  5
130
330
7B
100
AcDbEntity
  8
0
  6
Continuous
 62
     0
370
    30
100
AcDbLine
 10
166.68614
 20
501.124917
 30
0.0
 11
165.976958
 21
501.010623
 31
0.0
  0
LINE
  5
131
330
7B
100
AcDbEntity
  8
0
  6
Continuous
 62
     0
370
    30
100
AcDbLine
 10
165.976958
 20
501.010623
 30
0.0
 11
165.266802
 21
500.59433
 31
0.0
  0
LINE
  5
132
330
7B
100
AcDbEntity
  8
0
  6
Continuous
 62
     0
370
    30
100
AcDbLine
 10
165.266802
 20
500.59433
 30
0.0
 11
164.697403
 21
499.743441
 31
0.0
  0
LINE
  5
133
330
7B
100
AcDbEntity
  8
0
  6
Continuous
 62
     0
370
    30
100
AcDbLine
 10
164.697403
 20
499.743441
 30
0.0
 11
164.473578
 21
498.518177
 31
0.0
  0
LINE
  5
134
330
7B
100
AcDbEntity
  8
0
  6
Continuous
 62
     0
370
    30
100
AcDbLine
 10
164.473578
 20
498.518177
 30
0.0
 11
164.471834
 21
498.375709
 31
0.0
  0
LINE
  5
135
330
7B
100
AcDbEntity
  8
0
  6
Continuous
 62
     0
370
    30
100
AcDbLine
 10
164.471834
 20
498.375709
 30
0.0
 11
164.658887
 21
497.128023
 31
0.0
  0
LINE
  5
136
330
7B
100
AcDbEntity
  8
0
  6
Continuous
 62
     0
370
    30
100
AcDbLine
 10
164.658887
 20
497.128023
 30
0.0
 11
165.168553
 21
496.265783
 31
0.0
  0
LINE
  5
137
330
7B
100
AcDbEntity
  8
0
  6
Continuous
 62
     0
370
    30
100
AcDbLine
 10
165.168553
 20
496.265783
 30
0.0
 11
165.881404
 21
495.786062
 31
0.0
  0
LINE
  5
138
330
7B
100
AcDbEntity
  8
0
  6
Continuous
 62
     0
370
    30
100
AcDbLine
 10
165.881404
 20
495.786062
 30
0.0
 11
166.25412
 21
495.680506
 31
0.0
  0
LINE
  5
139
330
7B
100
AcDbEntity
  8
0
  6
Continuous
 62
     0
370
    30
100
AcDbLine
 10
160.279428
 20
500.498847
 30
0.0
 11
160.14874
 21
500.909855
 31
0.0
  0
LINE
  5
13A
330
7B
100
AcDbEntity
  8
0
  6
Continuous
 62
     0
370
    30
100
AcDbLine
 10
160.14874
 20
500.909855
 30
0.0
 11
159.692249
 21
501.066494
 31
0.0
  0
LINE
  5
13B
330
7B
100
AcDbEntity
  8
0
  6
Continuous
 62
     0
370
    30
100
AcDbLine
 10
159.692249
 20
501.066494
 30
0.0
 11
159.692745
 21
501.242053
 31
0.0
  0
LINE
  5
13C
330
7B
100
AcDbEntity
  8
0
  6
Continuous
 62
     0
370
    30
100
AcDbLine
 10
159.692745
 20
501.242053
 30
0.0
 11
161.559282
 21
501.234077
 31
0.0
  0
LINE
  5
13D
330
7B
100
AcDbEntity
  8
0
  6
Continuous
 62
     0
370
    30
100
AcDbLine
 10
161.559282
 20
501.234077
 30
0.0
 11
161.558787
 21
501.058752
 31
0.0
  0
LINE
  5
13E
330
7B
100
AcDbEntity
  8
0
  6
Continuous
 62
     0
370
    30
100
AcDbLine
 10
161.558787
 20
501.058752
 30
0.0
 11
161.09818
 21
500.907334
 31
0.0
  0
LINE
  5
13F
330
7B
100
AcDbEntity
  8
0
  6
Continuous
 62
     0
370
    30
100
AcDbLine
 10
161.09818
 20
500.907334
 30
0.0
 11
160.967902
 21
500.493263
 31
0.0
  0
LINE
  5
140
330
7B
100
AcDbEntity
  8
0
  6
Continuous
 62
     0
370
    30
100
AcDbLine
 10
160.967902
 20
500.493263
 30
0.0
 11
160.965805
 21
498.528188
 31
0.0
  0
LINE
  5
141
330
7B
100
AcDbEntity
  8
0
  6
Continuous
 62
     0
370
    30
100
AcDbLine
 10
160.965805
 20
498.528188
 30
0.0
 11
160.968475
 21
496.288113
 31
0.0
  0
ARC
  5
142
330
7B
100
AcDbEntity
  8
0
  6
Continuous
 62
     0
370
    30
100
AcDbCircle
 10
161.604014
 20
496.365444
 30
0.0
 40
0.640226292932994
100
AcDbArc
 50
186.937499
 51
266.011089
  0
LINE
  5
143
330
7B
100
AcDbEntity
  8
0
  6
Continuous
 62
     0
370
    30
100
AcDbLine
 10
161.559478
 20
495.726768
 30
0.0
 11
161.560018
 21
495.552054
 31
0.0
  0
LINE
  5
144
330
7B
100
AcDbEntity
  8
0
  6
Continuous
 62
     0
370
    30
100
AcDbLine
 10
161.560018
 20
495.552054
 30
0.0
 11
159.693343
 21
495.559996
 31
0.0
  0
LINE
  5
145
330
7B
100
AcDbEntity
  8
0
  6
Continuous
 62
     0
370
    30
100
AcDbLine
 10
159.693343
 20
495.559996
 30
0.0
 11
159.692805
 21
495.734909
 31
0.0
  0
LINE
  5
146
330
7B
100
AcDbEntity
  8
0
  6
Continuous
 62
     0
370
    30
100
AcDbLine
 10
159.692805
 20
495.734909
 30
0.0
 11
160.139685
 21
495.870539
 31
0.0
  0
LINE
  5
147
330
7B
100
AcDbEntity
  8
0
  6
Continuous
 62
     0
370
    30
100
AcDbLine
 10
160.139685
 20
495.870539
 30
0.0
 11
160.280002
 21
496.285762
 31
0.0
  0
LINE
  5
148
330
7B
100
AcDbEntity
  8
0
  6
Continuous
 62
     0
370
    30
100
AcDbLine
 10
160.280002
 20
496.285762
 30
0.0
 11
160.277333
 21
498.425963
 31
0.0
  0
LINE
  5
149
330
7B
100
AcDbEntity
  8
0
  6
Continuous
 62
     0
370
    30
100
AcDbLine
 10
160.277333
 20
498.425963
 30
0.0
 11
157.268984
 21
498.443016
 31
0.0
  0
LINE
  5
14A
330
7B
100
AcDbEntity
  8
0
  6
Continuous
 62
     0
370
    30
100
AcDbLine
 10
157.268984
 20
498.443016
 30
0.0
 11
157.271587
 21
496.310706
 31
0.0
  0
LINE
  5
14B
330
7B
100
AcDbEntity
  8
0
  6
Continuous
 62
     0
370
    30
100
AcDbLine
 10
157.271587
 20
496.310706
 30
0.0
 11
157.418018
 21
495.893399
 31
0.0
  0
LINE
  5
14C
330
7B
100
AcDbEntity
  8
0
  6
Continuous
 62
     0
370
    30
100
AcDbLine
 10
157.418018
 20
495.893399
 30
0.0
 11
157.860247
 21
495.745472
 31
0.0
  0
LINE
  5
14D
330
7B
100
AcDbEntity
  8
0
  6
Continuous
 62
     0
370
    30
100
AcDbLine
 10
157.860247
 20
495.745472
 30
0.0
 11
157.860784
 21
495.570356
 31
0.0
  0
LINE
  5
14E
330
7B
100
AcDbEntity
  8
0
  6
Continuous
 62
     0
370
    30
100
AcDbLine
 10
157.860784
 20
495.570356
 30
0.0
 11
156.001476
 21
495.583464
 31
0.0
  0
LINE
  5
14F
330
7B
100
AcDbEntity
  8
0
  6
Continuous
 62
     0
370
    30
100
AcDbLine
 10
156.001476
 20
495.583464
 30
0.0
 11
156.000943
 21
495.758382
 31
0.0
  0
LINE
  5
150
330
7B
100
AcDbEntity
  8
0
  6
Continuous
 62
     0
370
    30
100
AcDbLine
 10
156.000943
 20
495.758382
 30
0.0
 11
156.448651
 21
495.898005
 31
0.0
  0
LINE
  5
151
330
7B
100
AcDbEntity
  8
0
  6
Continuous
 62
     0
370
    30
100
AcDbLine
 10
156.448651
 20
495.898005
 30
0.0
 11
156.585819
 21
496.312896
 31
0.0
  0
LINE
  5
152
330
7B
100
AcDbEntity
  8
0
  6
Continuous
 62
     0
370
    30
100
AcDbLine
 10
156.585819
 20
496.312896
 30
0.0
 11
156.58322
 21
498.553021
 31
0.0
  0
LINE
  5
153
330
7B
100
AcDbEntity
  8
0
  6
Continuous
 62
     0
370
    30
100
AcDbLine
 10
156.58322
 20
498.553021
 30
0.0
 11
156.58536
 21
500.518126
 31
0.0
  0
ARC
  5
154
330
7B
100
AcDbEntity
  8
0
  6
Continuous
 62
     0
370
    30
100
AcDbCircle
 10
155.946284
 20
500.449887
 30
0.0
 40
0.6427084719744486
100
AcDbArc
 50
6.094786
 51
85.169589
  0
LINE
  5
155
330
7B
100
AcDbEntity
  8
0
  6
Continuous
 62
     0
370
    30
100
AcDbLine
 10
156.000405
 20
501.090313
 30
0.0
 11
156.000904
 21
501.265769
 31
0.0
  0
LINE
  5
156
330
7B
100
AcDbEntity
  8
0
  6
Continuous
 62
     0
370
    30
100
AcDbLine
 10
156.000904
 20
501.265769
 30
0.0
 11
157.860131
 21
501.252604
 31
0.0
  0
LINE
  5
157
330
7B
100
AcDbEntity
  8
0
  6
Continuous
 62
     0
370
    30
100
AcDbLine
 10
157.860131
 20
501.252604
 30
0.0
 11
157.859633
 21
501.077095
 31
0.0
  0
LINE
  5
158
330
7B
100
AcDbEntity
  8
0
  6
Continuous
 62
     0
370
    30
100
AcDbLine
 10
157.859633
 20
501.077095
 30
0.0
 11
157.402044
 21
500.928129
 31
0.0
  0
LINE
  5
159
330
7B
100
AcDbEntity
  8
0
  6
Continuous
 62
     0
370
    30
100
AcDbLine
 10
157.402044
 20
500.928129
 30
0.0
 11
157.27111
 21
500.515922
 31
0.0
  0
LINE
  5
15A
330
7B
100
AcDbEntity
  8
0
  6
Continuous
 62
     0
370
    30
100
AcDbLine
 10
157.27111
 20
500.515922
 30
0.0
 11
157.268994
 21
498.713677
 31
0.0
  0
LINE
  5
15B
330
7B
100
AcDbEntity
  8
0
  6
Continuous
 62
     0
370
    30
100
AcDbLine
 10
157.268994
 20
498.713677
 30
0.0
 11
160.277338
 21
498.696621
 31
0.0
  0
LINE
  5
15C
330
7B
100
AcDbEntity
  8
0
  6
Continuous
 62
     0
370
    30
100
AcDbLine
 10
160.277338
 20
498.696621
 30
0.0
 11
160.279428
 21
500.498847
 31
0.0
  0
LINE
  5
15D
330
7B
100
AcDbEntity
  8
0
  6
Continuous
 62
     0
370
    30
100
AcDbLine
 10
176.499991
 20
500.147864
 30
0.0
 11
176.312721
 21
500.146421
 31
0.0
  0
LINE
  5
15E
330
7B
100
AcDbEntity
  8
0
  6
Continuous
 62
     0
370
    30
100
AcDbLine
 10
176.312721
 20
500.146421
 30
0.0
 11
176.065958
 21
500.840185
 31
0.0
  0
LINE
  5
15F
330
7B
100
AcDbEntity
  8
0
  6
Continuous
 62
     0
370
    30
100
AcDbLine
 10
176.065958
 20
500.840185
 30
0.0
 11
175.414036
 21
500.986433
 31
0.0
  0
LINE
  5
160
330
7B
100
AcDbEntity
  8
0
  6
Continuous
 62
     0
370
    30
100
AcDbLine
 10
175.414036
 20
500.986433
 30
0.0
 11
174.364137
 21
500.97955
 31
0.0
  0
LINE
  5
161
330
7B
100
AcDbEntity
  8
0
  6
Continuous
 62
     0
370
    30
100
AcDbLine
 10
174.364137
 20
500.97955
 30
0.0
 11
174.363531
 21
496.293083
 31
0.0
  0
ARC
  5
162
330
7B
100
AcDbEntity
  8
0
  6
Continuous
 62
     0
370
    30
100
AcDbCircle
 10
174.992593
 20
496.38157
 30
0.0
 40
0.6352553082782486
100
AcDbArc
 50
188.006975
 51
267.340779
  0
LINE
  5
163
330
7B
100
AcDbEntity
  8
0
  6
Continuous
 62
     0
370
    30
100
AcDbLine
 10
174.96312
 20
495.746999
 30
0.0
 11
174.963665
 21
495.572309
 31
0.0
  0
LINE
  5
164
330
7B
100
AcDbEntity
  8
0
  6
Continuous
 62
     0
370
    30
100
AcDbLine
 10
174.963665
 20
495.572309
 30
0.0
 11
173.069814
 21
495.561193
 31
0.0
  0
LINE
  5
165
330
7B
100
AcDbEntity
  8
0
  6
Continuous
 62
     0
370
    30
100
AcDbLine
 10
173.069814
 20
495.561193
 30
0.0
 11
173.069267
 21
495.736371
 31
0.0
  0
LINE
  5
166
330
7B
100
AcDbEntity
  8
0
  6
Continuous
 62
     0
370
    30
100
AcDbLine
 10
173.069267
 20
495.736371
 30
0.0
 11
173.511523
 21
495.86479
 31
0.0
  0
LINE
  5
167
330
7B
100
AcDbEntity
  8
0
  6
Continuous
 62
     0
370
    30
100
AcDbLine
 10
173.511523
 20
495.86479
 30
0.0
 11
173.664994
 21
496.298227
 31
0.0
  0
LINE
  5
168
330
7B
100
AcDbEntity
  8
0
  6
Continuous
 62
     0
370
    30
100
AcDbLine
 10
173.664994
 20
496.298227
 30
0.0
 11
173.665602
 21
500.975434
 31
0.0
  0
LINE
  5
169
330
7B
100
AcDbEntity
  8
0
  6
Continuous
 62
     0
370
    30
100
AcDbLine
 10
173.665602
 20
500.975434
 30
0.0
 11
172.615041
 21
500.969942
 31
0.0
  0
LINE
  5
16A
330
7B
100
AcDbEntity
  8
0
  6
Continuous
 62
     0
370
    30
100
AcDbLine
 10
172.615041
 20
500.969942
 30
0.0
 11
171.966211
 21
500.816081
 31
0.0
  0
LINE
  5
16B
330
7B
100
AcDbEntity
  8
0
  6
Continuous
 62
     0
370
    30
100
AcDbLine
 10
171.966211
 20
500.816081
 30
0.0
 11
171.670915
 21
500.119171
 31
0.0
  0
LINE
  5
16C
330
7B
100
AcDbEntity
  8
0
  6
Continuous
 62
     0
370
    30
100
AcDbLine
 10
171.670915
 20
500.119171
 30
0.0
 11
171.513963
 21
500.118535
 31
0.0
  0
LINE
  5
16D
330
7B
100
AcDbEntity
  8
0
  6
Continuous
 62
     0
370
    30
100
AcDbLine
 10
171.513963
 20
500.118535
 30
0.0
 11
171.517652
 21
501.575789
 31
0.0
  0
LINE
  5
16E
330
7B
100
AcDbEntity
  8
0
  6
Continuous
 62
     0
370
    30
100
AcDbLine
 10
171.517652
 20
501.575789
 30
0.0
 11
171.659835
 21
501.576365
 31
0.0
  0
LINE
  5
16F
330
7B
100
AcDbEntity
  8
0
  6
Continuous
 62
     0
370
    30
100
AcDbLine
 10
171.659835
 20
501.576365
 30
0.0
 11
171.771883
 21
501.385338
 31
0.0
  0
LINE
  5
170
330
7B
100
AcDbEntity
  8
0
  6
Continuous
 62
     0
370
    30
100
AcDbLine
 10
171.771883
 20
501.385338
 30
0.0
 11
171.872132
 21
501.303215
 31
0.0
  0
LINE
  5
171
330
7B
100
AcDbEntity
  8
0
  6
Continuous
 62
     0
370
    30
100
AcDbLine
 10
171.872132
 20
501.303215
 30
0.0
 11
172.023505
 21
501.253568
 31
0.0
  0
LINE
  5
172
330
7B
100
AcDbEntity
  8
0
  6
Continuous
 62
     0
370
    30
100
AcDbLine
 10
172.023505
 20
501.253568
 30
0.0
 11
172.241687
 21
501.239203
 31
0.0
  0
LINE
  5
173
330
7B
100
AcDbEntity
  8
0
  6
Continuous
 62
     0
370
    30
100
AcDbLine
 10
172.241687
 20
501.239203
 30
0.0
 11
175.83325
 21
501.260431
 31
0.0
  0
LINE
  5
174
330
7B
100
AcDbEntity
  8
0
  6
Continuous
 62
     0
370
    30
100
AcDbLine
 10
175.83325
 20
501.260431
 30
0.0
 11
176.360899
 21
501.603793
 31
0.0
  0
LINE
  5
175
330
7B
100
AcDbEntity
  8
0
  6
Continuous
 62
     0
370
    30
100
AcDbLine
 10
176.360899
 20
501.603793
 30
0.0
 11
176.503747
 21
501.604897
 31
0.0
  0
LINE
  5
176
330
7B
100
AcDbEntity
  8
0
  6
Continuous
 62
     0
370
    30
100
AcDbLine
 10
176.503747
 20
501.604897
 30
0.0
 11
176.499991
 21
500.147864
 31
0.0
  0
ENDBLK
  5
178
330
7B
100
AcDbEntity
  8
0
100
AcDbBlockEnd
  0
BLOCK
  5
21F
330
17A
100
AcDbEntity
  8
0
100
AcDbBlockBegin
  2
b
 70
     0
 10
92.176735
 20
122.27581
 30
0.0
  3
b
  1

  0
ARC
  5
17B
330
17A
100
AcDbEntity
  8
0
  6
Continuous
 62
     0
370
    30
100
AcDbCircle
 10
266.25412
 20
129.981963
 30
0.0
 40
12.0
100
AcDbArc
 50
1.798307
 51
23.556464
  0
ARC
  5
17C
330
17A
100
AcDbEntity
  8
0
  6
Continuous
 62
     0
370
    30
100
AcDbCircle
 10
266.25412
 20
129.981963
 30
0.0
 40
12.0
100
AcDbArc
 50
156.443536
 51
181.798307
  0
ARC
  5
17D
330
17A
100
AcDbEntity
  8
0
  6
Continuous
 62
     0
370
    30
100
AcDbCircle
 10
266.25412
 20
129.981963
 30
0.0
 40
12.0
100
AcDbArc
 50
181.798307
 51
1.798307
  0
ARC
  5
17E
330
17A
100
AcDbEntity
  8
0
  6
Continuous
 62
     0
370
     0
100
AcDbCircle
 10
266.244829
 20
129.980239
 30
0.0
 40
11.75934048021503
100
AcDbArc
 50
1.805283
 51
20.574392
  0
ARC
  5
17F
330
17A
100
AcDbEntity
  8
0
  6
Continuous
 62
     0
370
     0
100
AcDbCircle
 10
266.255579
 20
129.981748
 30
0.0
 40
11.7514513691934
100
AcDbArc
 50
159.419419
 51
181.797034
  0
ARC
  5
180
330
17A
100
AcDbEntity
  8
0
  6
Continuous
 62
     0
370
     0
100
AcDbCircle
 10
266.254121
 20
129.981941
 30
0.0
 40
11.75000000002183
100
AcDbArc
 50
181.798196
 51
1.798417
  0
LINE
  5
181
330
17A
100
AcDbEntity
  8
0
  6
Continuous
 62
     0
370
     0
100
AcDbLine
 10
253.75412
 20
291.931973
 30
0.0
 11
257.611355
 21
291.931973
 31
0.0
  0
LINE
  5
182
330
17A
100
AcDbEntity
  8
0
  6
Continuous
 62
     0
370
     0
100
AcDbLine
 10
257.611355
 20
291.931973
 30
0.0
 11
278.75412
 21
291.931973
 31
0.0
  0
LINE
  5
183
330
17A
100
AcDbEntity
  8
0
  6
Continuous
 62
     0
370
    30
100
AcDbLine
 10
254.0042
 20
291.681973
 30
0.0
 11
255.25412
 21
291.681973
 31
0.0
  0
LINE
  5
184
330
17A
100
AcDbEntity
  8
0
  6
Continuous
 62
     0
370
    30
100
AcDbLine
 10
257.78421
 20
291.681973
 30
0.0
 11
254.0042
 21
291.681973
 31
0.0
  0
LWPOLYLINE
  5
185
330
17A
100
AcDbEntity
  8
0
  6
Continuous
 62
     0
370
    30
100
AcDbPolyline
 90
       30
 70
     0
 43
0.0
 10
278.504059
 20
291.681976
 10
278.464417
 20
291.681976
 10
278.345642
 20
291.681976
 10
278.148682
 20
291.681976
 10
277.874786
 20
291.681976
 10
277.525543
 20
291.681976
 10
277.103394
 20
291.681976
 10
276.611053
 20
291.681976
 10
276.051544
 20
291.681976
 10
275.428741
 20
291.681976
 10
274.74649
 20
291.681976
 10
274.009216
 20
291.681976
 10
273.221832
 20
291.681976
 10
272.389282
 20
291.681976
 10
271.517029
 20
291.681976
 10
270.610748
 20
291.681976
 10
269.676208
 20
291.681976
 10
268.719543
 20
291.681976
 10
267.746948
 20
291.681976
 10
266.764648
 20
291.681976
 10
265.779053
 20
291.681976
 10
264.796509
 20
291.681976
 10
263.823364
 20
291.681976
 10
262.866028
 20
291.681976
 10
261.930817
 20
291.681976
 10
261.023621
 20
291.681976
 10
260.149811
 20
291.681976
 10
259.314911
 20
291.681976
 10
258.52533
 20
291.681976
 10
257.78421
 20
291.681976
  0
LINE
  5
186
330
17A
100
AcDbEntity
  8
0
  6
Continuous
 62
     0
370
    30
100
AcDbLine
 10
277.25412
 20
291.681973
 30
0.0
 11
278.504051
 21
291.681973
 31
0.0
  0
LINE
  5
187
330
17A
100
AcDbEntity
  8
0
  6
Continuous
 62
     0
370
    30
100
AcDbLine
 10
278.75412
 20
294.181973
 30
0.0
 11
278.75412
 21
291.931973
 31
0.0
  0
LINE
  5
188
330
17A
100
AcDbEntity
  8
0
  6
Continuous
 62
     0
370
    30
100
AcDbLine
 10
253.75412
 20
294.181973
 30
0.0
 11
253.75412
 21
291.931973
 31
0.0
  0
LINE
  5
189
330
17A
100
AcDbEntity
  8
0
  6
Continuous
 62
     0
370
     0
100
AcDbLine
 10
138.935824
 20
276.795385
 30
0.0
 11
166.25412
 21
276.795384
 31
0.0
  0
LINE
  5
18A
330
17A
100
AcDbEntity
  8
0
  6
Continuous
 62
     0
370
     0
100
AcDbLine
 10
166.25412
 20
276.795384
 30
0.0
 11
193.572416
 21
276.795385
 31
0.0
  0
LINE
  5
18B
330
17A
100
AcDbEntity
  8
0
  6
Continuous
 62
     0
370
     0
100
AcDbLine
 10
166.25412
 20
277.793049
 30
0.0
 11
194.50412
 21
277.79305
 31
0.0
  0
LWPOLYLINE
  5
18C
330
17A
100
AcDbEntity
  8
0
  6
Continuous
 62
     0
370
     0
100
AcDbPolyline
 90
       31
 70
     0
 43
0.0
 10
138.00412
 20
277.79306
 10
138.042709
 20
277.79306
 10
138.158356
 20
277.79306
 10
138.350693
 20
277.79306
 10
138.619461
 20
277.79306
 10
138.964096
 20
277.79306
 10
139.383453
 20
277.79306
 10
139.876328
 20
277.79306
 10
140.441498
 20
277.79306
 10
141.077408
 20
277.79306
 10
141.782166
 20
277.79306
 10
142.553864
 20
277.79306
 10
143.390564
 20
277.79306
 10
144.289902
 20
277.79306
 10
145.249313
 20
277.79306
 10
146.26622
 20
277.79306
 10
147.337952
 20
277.79306
 10
148.461472
 20
277.79306
 10
149.633652
 20
277.79306
 10
150.851334
 20
277.79306
 10
152.111282
 20
277.79306
 10
153.409912
 20
277.79306
 10
154.743683
 20
277.79306
 10
156.108994
 20
277.79306
 10
157.502121
 20
277.79306
 10
158.919189
 20
277.79306
 10
160.356323
 20
277.79306
 10
161.809631
 20
277.79306
 10
163.275116
 20
277.79306
 10
164.748749
 20
277.79306
 10
166.25412
 20
277.79306
  0
LINE
  5
18D
330
17A
100
AcDbEntity
  8
0
  6
Continuous
 62
     0
370
    30
100
AcDbLine
 10
194.50412
 20
294.360258
 30
0.0
 11
166.25412
 21
294.360258
 31
0.0
  0
LINE
  5
18E
330
17A
100
AcDbEntity
  8
0
  6
Continuous
 62
     0
370
    30
100
AcDbLine
 10
166.25412
 20
294.360258
 30
0.0
 11
138.00412
 21
294.360258
 31
0.0
  0
LINE
  5
18F
330
17A
100
AcDbEntity
  8
0
  6
Continuous
 62
     0
370
    30
100
AcDbLine
 10
140.697344
 20
295.181974
 30
0.0
 11
196.75412
 21
295.181974
 31
0.0
  0
LINE
  5
190
330
17A
100
AcDbEntity
  8
0
  6
Continuous
 62
     0
370
    30
100
AcDbLine
 10
135.75412
 20
295.181974
 30
0.0
 11
140.697344
 21
295.181974
 31
0.0
  0
LINE
  5
191
330
17A
100
AcDbEntity
  8
0
  6
Continuous
 62
     0
370
    30
100
AcDbLine
 10
140.697344
 20
296.781974
 30
0.0
 11
135.75412
 21
296.781974
 31
0.0
  0
LINE
  5
192
330
17A
100
AcDbEntity
  8
0
  6
Continuous
 62
     0
370
    30
100
AcDbLine
 10
196.75412
 20
296.781974
 30
0.0
 11
140.697344
 21
296.781974
 31
0.0
  0
LINE
  5
193
330
17A
100
AcDbEntity
  8
0
  6
Continuous
 62
     0
370
    30
100
AcDbLine
 10
140.697344
 20
302.581974
 30
0.0
 11
135.75412
 21
302.581974
 31
0.0
  0
LINE
  5
194
330
17A
100
AcDbEntity
  8
0
  6
Continuous
 62
     0
370
    30
100
AcDbLine
 10
196.75412
 20
302.581974
 30
0.0
 11
140.697344
 21
302.581974
 31
0.0
  0
LINE
  5
195
330
17A
100
AcDbEntity
  8
0
  6
Continuous
 62
     0
370
    30
100
AcDbLine
 10
140.697344
 20
304.181974
 30
0.0
 11
135.75412
 21
304.181974
 31
0.0
  0
LINE
  5
196
330
17A
100
AcDbEntity
  8
0
  6
Continuous
 62
     0
370
    30
100
AcDbLine
 10
196.75412
 20
304.181974
 30
0.0
 11
140.697344
 21
304.181974
 31
0.0
  0
LINE
  5
197
330
17A
100
AcDbEntity
  8
0
  6
Continuous
 62
     0
370
    30
100
AcDbLine
 10
139.75412
 20
295.181974
 30
0.0
 11
139.75412
 21
294.360258
 31
0.0
  0
LINE
  5
198
330
17A
100
AcDbEntity
  8
0
  6
Continuous
 62
     0
370
    30
100
AcDbLine
 10
192.75412
 20
295.181974
 30
0.0
 11
192.75412
 21
294.360258
 31
0.0
  0
LINE
  5
199
330
17A
100
AcDbEntity
  8
0
  6
Continuous
 62
     0
370
    30
100
AcDbLine
 10
196.75412
 20
302.581974
 30
0.0
 11
196.75412
 21
304.181974
 31
0.0
  0
LINE
  5
19A
330
17A
100
AcDbEntity
  8
0
  6
Continuous
 62
     0
370
    30
100
AcDbLine
 10
135.75412
 20
302.581974
 30
0.0
 11
135.75412
 21
304.181974
 31
0.0
  0
LINE
  5
19B
330
17A
100
AcDbEntity
  8
0
  6
Continuous
 62
     0
370
    30
100
AcDbLine
 10
195.70412
 20
296.781974
 30
0.0
 11
195.70412
 21
302.581974
 31
0.0
  0
LINE
  5
19C
330
17A
100
AcDbEntity
  8
0
  6
Continuous
 62
     0
370
    30
100
AcDbLine
 10
136.80412
 20
296.781974
 30
0.0
 11
136.80412
 21
302.581974
 31
0.0
  0
LINE
  5
19D
330
17A
100
AcDbEntity
  8
0
  6
Continuous
 62
     0
370
    30
100
AcDbLine
 10
196.75412
 20
295.181974
 30
0.0
 11
196.75412
 21
296.781974
 31
0.0
  0
LINE
  5
19E
330
17A
100
AcDbEntity
  8
0
  6
Continuous
 62
     0
370
    30
100
AcDbLine
 10
135.75412
 20
295.181974
 30
0.0
 11
135.75412
 21
296.781974
 31
0.0
  0
LINE
  5
19F
330
17A
100
AcDbEntity
  8
0
  6
Continuous
 62
     0
370
    30
100
AcDbLine
 10
194.50412
 20
294.360258
 30
0.0
 11
194.50412
 21
277.79305
 31
0.0
  0
LINE
  5
1A0
330
17A
100
AcDbEntity
  8
0
  6
Continuous
 62
     0
370
    30
100
AcDbLine
 10
138.00412
 20
294.360258
 30
0.0
 11
138.00412
 21
277.79305
 31
0.0
  0
ARC
  5
1A1
330
17A
100
AcDbEntity
  8
0
  6
Continuous
 62
     0
370
    30
100
AcDbCircle
 10
139.007168
 20
277.795897
 30
0.0
 40
1.003052526512355
100
AcDbArc
 50
180.162613
 51
265.918551
  0
ARC
  5
1A2
330
17A
100
AcDbEntity
  8
0
  6
Continuous
 62
     0
370
    30
100
AcDbCircle
 10
193.501071
 20
277.795897
 30
0.0
 40
1.003052526517268
100
AcDbArc
 50
274.081449
 51
359.837387
  0
ARC
  5
1A3
330
17A
100
AcDbEntity
  8
0
  6
Continuous
 62
     0
370
    30
100
AcDbCircle
 10
166.254478
 20
675.855463
 30
0.0
 40
399.9940199769857
100
AcDbArc
 50
271.468326
 51
273.916113
  0
LINE
  5
1A4
330
17A
100
AcDbEntity
  8
0
  6
Continuous
 62
     0
370
    30
100
AcDbLine
 10
175.386427
 20
275.965699
 30
0.0
 11
176.066123
 21
275.981799
 31
0.0
  0
LINE
  5
1A5
330
17A
100
AcDbEntity
  8
0
  6
Continuous
 62
     0
370
    30
100
AcDbLine
 10
171.659993
 20
275.897967
 30
0.0
 11
172.65597
 21
275.91267
 31
0.0
  0
LINE
  5
1A6
330
17A
100
AcDbEntity
  8
0
  6
Continuous
 62
     0
370
    30
100
AcDbLine
 10
166.284188
 20
275.861434
 30
0.0
 11
171.514005
 21
275.896021
 31
0.0
  0
ARC
  5
1A7
330
17A
100
AcDbEntity
  8
0
  6
Continuous
 62
     0
370
    30
100
AcDbCircle
 10
166.253762
 20
675.855468
 30
0.0
 40
399.9940243199514
100
AcDbArc
 50
266.083887
 51
268.531102
  0
LINE
  5
1A8
330
17A
100
AcDbEntity
  8
0
  6
Continuous
 62
     0
370
    30
100
AcDbLine
 10
158.031928
 20
275.945951
 30
0.0
 11
157.121812
 21
275.965699
 31
0.0
  0
LINE
  5
1A9
330
17A
100
AcDbEntity
  8
0
  6
Continuous
 62
     0
370
    30
100
AcDbLine
 10
164.604376
 20
275.864836
 30
0.0
 11
160.762484
 21
275.899136
 31
0.0
  0
LINE
  5
1AA
330
17A
100
AcDbEntity
  8
0
  6
Continuous
 62
     0
370
    30
100
AcDbLine
 10
166.224052
 20
275.861434
 30
0.0
 11
164.697395
 21
275.864463
 31
0.0
  0
LINE
  5
1AB
330
17A
100
AcDbEntity
  8
0
  6
Continuous
 62
     0
370
     0
100
AcDbLine
 10
366.254139
 20
276.795401
 30
0.0
 11
338.935829
 21
276.795398
 31
0.0
  0
LWPOLYLINE
  5
1AC
330
17A
100
AcDbEntity
  8
0
  6
Continuous
 62
     0
370
     0
100
AcDbPolyline
 90
       31
 70
     0
 43
0.0
 10
393.572418
 20
276.79541
 10
393.541534
 20
276.79541
 10
393.446594
 20
276.79541
 10
393.284424
 20
276.79541
 10
393.052185
 20
276.79541
 10
392.747498
 20
276.79541
 10
392.368317
 20
276.79541
 10
391.913239
 20
276.79541
 10
391.381439
 20
276.79541
 10
390.772675
 20
276.79541
 10
390.087494
 20
276.79541
 10
389.327057
 20
276.79541
 10
388.493256
 20
276.79541
 10
387.588715
 20
276.79541
 10
386.616821
 20
276.79541
 10
385.581451
 20
276.79541
 10
384.487274
 20
276.79541
 10
383.339355
 20
276.79541
 10
382.14325
 20
276.79541
 10
380.904968
 20
276.79541
 10
379.630676
 20
276.79541
 10
378.326752
 20
276.79541
 10
376.999695
 20
276.79541
 10
375.655884
 20
276.79541
 10
374.301727
 20
276.79541
 10
372.943268
 20
276.79541
 10
371.586395
 20
276.79541
 10
370.236633
 20
276.79541
 10
368.899139
 20
276.79541
 10
367.578552
 20
276.79541
 10
366.25415
 20
276.79541
  0
LWPOLYLINE
  5
1AD
330
17A
100
AcDbEntity
  8
0
  6
Continuous
 62
     0
370
     0
100
AcDbPolyline
 90
       31
 70
     0
 43
0.0
 10
394.50412
 20
277.79306
 10
394.465546
 20
277.79306
 10
394.349884
 20
277.79306
 10
394.157562
 20
277.79306
 10
393.888794
 20
277.79306
 10
393.544159
 20
277.79306
 10
393.124786
 20
277.79306
 10
392.631927
 20
277.79306
 10
392.066742
 20
277.79306
 10
391.430847
 20
277.79306
 10
390.726105
 20
277.79306
 10
389.954376
 20
277.79306
 10
389.117676
 20
277.79306
 10
388.218353
 20
277.79306
 10
387.258942
 20
277.79306
 10
386.242035
 20
277.79306
 10
385.170288
 20
277.79306
 10
384.046783
 20
277.79306
 10
382.874603
 20
277.79306
 10
381.656921
 20
277.79306
 10
380.396973
 20
277.79306
 10
379.098328
 20
277.79306
 10
377.764557
 20
277.79306
 10
376.399261
 20
277.79306
 10
375.006134
 20
277.79306
 10
373.58905
 20
277.79306
 10
372.151947
 20
277.79306
 10
370.698639
 20
277.79306
 10
369.233154
 20
277.79306
 10
367.759521
 20
277.79306
 10
366.25415
 20
277.79306
  0
LINE
  5
1AE
330
17A
100
AcDbEntity
  8
0
  6
Continuous
 62
     0
370
     0
100
AcDbLine
 10
366.254139
 20
277.793066
 30
0.0
 11
338.004124
 21
277.793062
 31
0.0
  0
LINE
  5
1AF
330
17A
100
AcDbEntity
  8
0
  6
Continuous
 62
     0
370
    30
100
AcDbLine
 10
366.254136
 20
294.360276
 30
0.0
 11
394.504121
 21
294.36028
 31
0.0
  0
LINE
  5
1B0
330
17A
100
AcDbEntity
  8
0
  6
Continuous
 62
     0
370
    30
100
AcDbLine
 10
338.004121
 20
294.360271
 30
0.0
 11
366.254136
 21
294.360276
 31
0.0
  0
LINE
  5
1B1
330
17A
100
AcDbEntity
  8
0
  6
Continuous
 62
     0
370
    30
100
AcDbLine
 10
335.754121
 20
296.781987
 30
0.0
 11
391.810906
 21
296.781996
 31
0.0
  0
LINE
  5
1B2
330
17A
100
AcDbEntity
  8
0
  6
Continuous
 62
     0
370
    30
100
AcDbLine
 10
391.810906
 20
296.781996
 30
0.0
 11
396.754121
 21
296.781997
 31
0.0
  0
LINE
  5
1B3
330
17A
100
AcDbEntity
  8
0
  6
Continuous
 62
     0
370
    30
100
AcDbLine
 10
396.754121
 20
295.181997
 30
0.0
 11
391.810906
 21
295.181996
 31
0.0
  0
LINE
  5
1B4
330
17A
100
AcDbEntity
  8
0
  6
Continuous
 62
     0
370
    30
100
AcDbLine
 10
391.810906
 20
295.181996
 30
0.0
 11
335.754121
 21
295.181987
 31
0.0
  0
LINE
  5
1B5
330
17A
100
AcDbEntity
  8
0
  6
Continuous
 62
     0
370
    30
100
AcDbLine
 10
335.75412
 20
302.581987
 30
0.0
 11
391.810905
 21
302.581996
 31
0.0
  0
LINE
  5
1B6
330
17A
100
AcDbEntity
  8
0
  6
Continuous
 62
     0
370
    30
100
AcDbLine
 10
391.810905
 20
302.581996
 30
0.0
 11
396.75412
 21
302.581997
 31
0.0
  0
LINE
  5
1B7
330
17A
100
AcDbEntity
  8
0
  6
Continuous
 62
     0
370
    30
100
AcDbLine
 10
335.75412
 20
304.181987
 30
0.0
 11
391.810904
 21
304.181996
 31
0.0
  0
LINE
  5
1B8
330
17A
100
AcDbEntity
  8
0
  6
Continuous
 62
     0
370
    30
100
AcDbLine
 10
391.810904
 20
304.181996
 30
0.0
 11
396.75412
 21
304.181997
 31
0.0
  0
LINE
  5
1B9
330
17A
100
AcDbEntity
  8
0
  6
Continuous
 62
     0
370
    30
100
AcDbLine
 10
392.754121
 20
294.36028
 30
0.0
 11
392.754121
 21
295.181996
 31
0.0
  0
LINE
  5
1BA
330
17A
100
AcDbEntity
  8
0
  6
Continuous
 62
     0
370
    30
100
AcDbLine
 10
339.754121
 20
294.360271
 30
0.0
 11
339.754121
 21
295.181987
 31
0.0
  0
LINE
  5
1BB
330
17A
100
AcDbEntity
  8
0
  6
Continuous
 62
     0
370
    30
100
AcDbLine
 10
335.75412
 20
304.181987
 30
0.0
 11
335.75412
 21
302.581987
 31
0.0
  0
LINE
  5
1BC
330
17A
100
AcDbEntity
  8
0
  6
Continuous
 62
     0
370
    30
100
AcDbLine
 10
396.75412
 20
304.181997
 30
0.0
 11
396.75412
 21
302.581997
 31
0.0
  0
LINE
  5
1BD
330
17A
100
AcDbEntity
  8
0
  6
Continuous
 62
     0
370
    30
100
AcDbLine
 10
336.80412
 20
302.581987
 30
0.0
 11
336.804121
 21
296.781987
 31
0.0
  0
LINE
  5
1BE
330
17A
100
AcDbEntity
  8
0
  6
Continuous
 62
     0
370
    30
100
AcDbLine
 10
395.70412
 20
302.581997
 30
0.0
 11
395.704121
 21
296.781997
 31
0.0
  0
LINE
  5
1BF
330
17A
100
AcDbEntity
  8
0
  6
Continuous
 62
     0
370
    30
100
AcDbLine
 10
335.754121
 20
296.781987
 30
0.0
 11
335.754121
 21
295.181987
 31
0.0
  0
LINE
  5
1C0
330
17A
100
AcDbEntity
  8
0
  6
Continuous
 62
     0
370
    30
100
AcDbLine
 10
396.754121
 20
296.781997
 30
0.0
 11
396.754121
 21
295.181997
 31
0.0
  0
LINE
  5
1C1
330
17A
100
AcDbEntity
  8
0
  6
Continuous
 62
     0
370
    30
100
AcDbLine
 10
338.004124
 20
277.793062
 30
0.0
 11
338.004121
 21
294.360271
 31
0.0
  0
LINE
  5
1C2
330
17A
100
AcDbEntity
  8
0
  6
Continuous
 62
     0
370
    30
100
AcDbLine
 10
394.504124
 20
277.793072
 30
0.0
 11
394.504121
 21
294.36028
 31
0.0
  0
ARC
  5
1C3
330
17A
100
AcDbEntity
  8
0
  6
Continuous
 62
     0
370
    30
100
AcDbCircle
 10
393.501076
 20
277.795919
 30
0.0
 40
1.003052526530392
100
AcDbArc
 50
274.081459
 51
359.837397
  0
ARC
  5
1C4
330
17A
100
AcDbEntity
  8
0
  6
Continuous
 62
     0
370
    30
100
AcDbCircle
 10
339.007173
 20
277.795909
 30
0.0
 40
1.003052526503974
100
AcDbArc
 50
180.162623
 51
265.918561
  0
LINE
  5
1C5
330
17A
100
AcDbEntity
  8
0
  6
Continuous
 62
     0
370
    30
100
AcDbLine
 10
353.538316
 20
276.063615
 30
0.0
 11
338.935829
 21
276.795398
 31
0.0
  0
LINE
  5
1C6
330
17A
100
AcDbEntity
  8
0
  6
Continuous
 62
     0
370
    30
100
AcDbLine
 10
365.013177
 20
275.863375
 30
0.0
 11
356.098004
 21
275.990406
 31
0.0
  0
LINE
  5
1C7
330
17A
100
AcDbEntity
  8
0
  6
Continuous
 62
     0
370
    30
100
AcDbLine
 10
366.224057
 20
275.861451
 30
0.0
 11
365.393614
 21
275.862376
 31
0.0
  0
ARC
  5
1C8
330
17A
100
AcDbEntity
  8
0
  6
Continuous
 62
     0
370
    30
100
AcDbCircle
 10
366.254447
 20
675.854691
 30
0.0
 40
399.9932296872727
100
AcDbArc
 50
271.308196
 51
273.916126
  0
LINE
  5
1C9
330
17A
100
AcDbEntity
  8
0
  6
Continuous
 62
     0
370
    30
100
AcDbLine
 10
369.925269
 20
275.8783
 30
0.0
 11
374.476316
 21
275.94597
 31
0.0
  0
LINE
  5
1CA
330
17A
100
AcDbEntity
  8
0
  6
Continuous
 62
     0
370
    30
100
AcDbLine
 10
366.284192
 20
275.861452
 30
0.0
 11
369.015003
 21
275.87098
 31
0.0
  0
LINE
  5
1CB
330
17A
100
AcDbEntity
  8
0
  6
Continuous
 62
     0
370
    30
100
AcDbLine
 10
243.397895
 20
302.581972
 30
0.0
 11
235.75412
 21
302.581973
 31
0.0
  0
LWPOLYLINE
  5
1CC
330
17A
100
AcDbEntity
  8
0
  6
Continuous
 62
     0
370
    30
100
AcDbPolyline
 90
       51
 70
     0
 43
0.0
 10
296.75412
 20
302.58197
 10
296.7146
 20
302.58197
 10
296.5961
 20
302.58197
 10
296.399139
 20
302.58197
 10
296.124908
 20
302.58197
 10
295.775146
 20
302.58197
 10
295.352112
 20
302.58197
 10
294.858643
 20
302.58197
 10
294.298004
 20
302.58197
 10
293.673889
 20
302.58197
 10
292.990265
 20
302.58197
 10
292.251526
 20
302.58197
 10
291.462158
 20
302.58197
 10
290.626801
 20
302.58197
 10
289.750305
 20
302.58197
 10
288.837372
 20
302.58197
 10
287.892822
 20
302.58197
 10
286.921295
 20
302.58197
 10
285.922394
 20
302.58197
 10
284.871674
 20
302.58197
 10
283.765778
 20
302.58197
 10
282.605896
 20
302.58197
 10
281.393585
 20
302.58197
 10
280.130951
 20
302.58197
 10
278.820465
 20
302.58197
 10
277.46524
 20
302.58197
 10
276.068787
 20
302.58197
 10
274.635071
 20
302.58197
 10
273.168579
 20
302.58197
 10
271.674103
 20
302.58197
 10
270.15686
 20
302.58197
 10
268.622345
 20
302.58197
 10
267.076294
 20
302.58197
 10
265.524658
 20
302.58197
 10
263.973389
 20
302.58197
 10
262.428589
 20
302.58197
 10
260.896149
 20
302.58197
 10
259.381958
 20
302.58197
 10
257.891663
 20
302.58197
 10
256.430573
 20
302.58197
 10
255.003723
 20
302.58197
 10
253.615738
 20
302.58197
 10
252.270813
 20
302.58197
 10
250.972687
 20
302.58197
 10
249.724579
 20
302.58197
 10
248.529221
 20
302.58197
 10
247.388855
 20
302.58197
 10
246.305191
 20
302.58197
 10
245.27948
 20
302.58197
 10
244.312485
 20
302.58197
 10
243.397888
 20
302.58197
  0
LINE
  5
1CD
330
17A
100
AcDbEntity
  8
0
  6
Continuous
 62
     0
370
    30
100
AcDbLine
 10
243.397895
 20
304.181973
 30
0.0
 11
235.75412
 21
304.181973
 31
0.0
  0
LINE
  5
1CE
330
17A
100
AcDbEntity
  8
0
  6
Continuous
 62
     0
370
    30
100
AcDbLine
 10
296.75412
 20
304.181973
 30
0.0
 11
243.397895
 21
304.181973
 31
0.0
  0
LINE
  5
1CF
330
17A
100
AcDbEntity
  8
0
  6
Continuous
 62
     0
370
    30
100
AcDbLine
 10
243.397895
 20
295.781972
 30
0.0
 11
235.75412
 21
295.781973
 31
0.0
  0
LWPOLYLINE
  5
1D0
330
17A
100
AcDbEntity
  8
0
  6
Continuous
 62
     0
370
    30
100
AcDbPolyline
 90
       51
 70
     0
 43
0.0
 10
296.75412
 20
295.781982
 10
296.7146
 20
295.781982
 10
296.5961
 20
295.781982
 10
296.399139
 20
295.781982
 10
296.124908
 20
295.781982
 10
295.775146
 20
295.781982
 10
295.352112
 20
295.781982
 10
294.858643
 20
295.781982
 10
294.298004
 20
295.781982
 10
293.673889
 20
295.781982
 10
292.990265
 20
295.781982
 10
292.251526
 20
295.781982
 10
291.462158
 20
295.781982
 10
290.626801
 20
295.781982
 10
289.750305
 20
295.781982
 10
288.837372
 20
295.781982
 10
287.892822
 20
295.781982
 10
286.921295
 20
295.781982
 10
285.922394
 20
295.781982
 10
284.871674
 20
295.781982
 10
283.765778
 20
295.781982
 10
282.605896
 20
295.781982
 10
281.393585
 20
295.781982
 10
280.130951
 20
295.781982
 10
278.820465
 20
295.781982
 10
277.46524
 20
295.781982
 10
276.068787
 20
295.781982
 10
274.635071
 20
295.781982
 10
273.168579
 20
295.781982
 10
271.674103
 20
295.781982
 10
270.15686
 20
295.781982
 10
268.622345
 20
295.781982
 10
267.076294
 20
295.781982
 10
265.524658
 20
295.781982
 10
263.973389
 20
295.781982
 10
262.428589
 20
295.781982
 10
260.896149
 20
295.781982
 10
259.381958
 20
295.781982
 10
257.891663
 20
295.781982
 10
256.430573
 20
295.781982
 10
255.003723
 20
295.781982
 10
253.615738
 20
295.781982
 10
252.270813
 20
295.781982
 10
250.972687
 20
295.781982
 10
249.724579
 20
295.781982
 10
248.529221
 20
295.781982
 10
247.388855
 20
295.781982
 10
246.305191
 20
295.781982
 10
245.27948
 20
295.781982
 10
244.312485
 20
295.781982
 10
243.397888
 20
295.781982
  0
LINE
  5
1D1
330
17A
100
AcDbEntity
  8
0
  6
Continuous
 62
     0
370
    30
100
AcDbLine
 10
235.75412
 20
294.181973
 30
0.0
 11
243.397895
 21
294.181973
 31
0.0
  0
LINE
  5
1D2
330
17A
100
AcDbEntity
  8
0
  6
Continuous
 62
     0
370
    30
100
AcDbLine
 10
243.397895
 20
294.181973
 30
0.0
 11
296.75412
 21
294.181973
 31
0.0
  0
LINE
  5
1D3
330
17A
100
AcDbEntity
  8
0
  6
Continuous
 62
     0
370
    30
100
AcDbLine
 10
235.75412
 20
294.181973
 30
0.0
 11
235.75412
 21
295.781973
 31
0.0
  0
LINE
  5
1D4
330
17A
100
AcDbEntity
  8
0
  6
Continuous
 62
     0
370
    30
100
AcDbLine
 10
296.75412
 20
294.181973
 30
0.0
 11
296.75412
 21
295.781973
 31
0.0
  0
LINE
  5
1D5
330
17A
100
AcDbEntity
  8
0
  6
Continuous
 62
     0
370
    30
100
AcDbLine
 10
295.70412
 20
295.781973
 30
0.0
 11
295.70412
 21
302.581973
 31
0.0
  0
LINE
  5
1D6
330
17A
100
AcDbEntity
  8
0
  6
Continuous
 62
     0
370
    30
100
AcDbLine
 10
236.80412
 20
295.781973
 30
0.0
 11
236.80412
 21
302.581973
 31
0.0
  0
LINE
  5
1D7
330
17A
100
AcDbEntity
  8
0
  6
Continuous
 62
     0
370
    30
100
AcDbLine
 10
296.75412
 20
302.581973
 30
0.0
 11
296.75412
 21
304.181973
 31
0.0
  0
LINE
  5
1D8
330
17A
100
AcDbEntity
  8
0
  6
Continuous
 62
     0
370
    30
100
AcDbLine
 10
235.75412
 20
302.581973
 30
0.0
 11
235.75412
 21
304.181973
 31
0.0
  0
LINE
  5
1D9
330
17A
100
AcDbEntity
  8
0
  6
Continuous
 62
     0
370
    30
100
AcDbLine
 10
255.25412
 20
176.981961
 30
0.0
 11
255.25412
 21
129.981963
 31
0.0
  0
ARC
  5
1DA
330
17A
100
AcDbEntity
  8
0
  6
Continuous
 62
     0
370
    30
100
AcDbCircle
 10
266.25412
 20
129.981963
 30
0.0
 40
11.0
100
AcDbArc
 50
180.0
 51
360.0
  0
LINE
  5
1DB
330
17A
100
AcDbEntity
  8
0
  6
Continuous
 62
     0
370
     0
100
AcDbLine
 10
277.25412
 20
176.981961
 30
0.0
 11
255.25412
 21
176.981961
 31
0.0
  0
LINE
  5
1DC
330
17A
100
AcDbEntity
  8
0
  6
Continuous
 62
     0
370
    30
100
AcDbLine
 10
277.25412
 20
291.681973
 30
0.0
 11
277.25412
 21
176.981961
 31
0.0
  0
LINE
  5
1DD
330
17A
100
AcDbEntity
  8
0
  6
Continuous
 62
     0
370
    30
100
AcDbLine
 10
255.25412
 20
176.981961
 30
0.0
 11
255.25412
 21
291.681973
 31
0.0
  0
LINE
  5
1DE
330
17A
100
AcDbEntity
  8
0
  6
Continuous
 62
     0
370
    30
100
AcDbLine
 10
277.25412
 20
129.981964
 30
0.0
 11
277.25412
 21
176.981961
 31
0.0
  0
LINE
  5
1DF
330
17A
100
AcDbEntity
  8
0
  6
Continuous
 62
     0
370
    30
100
AcDbLine
 10
368.405635
 20
275.875983
 30
0.0
 11
370.183635
 21
275.889498
 31
0.0
  0
LINE
  5
1E0
330
17A
100
AcDbEntity
  8
0
  6
Continuous
 62
     0
370
    30
100
AcDbLine
 10
373.779284
 20
275.941323
 30
0.0
 11
375.955211
 21
275.988189
 31
0.0
  0
LINE
  5
1E1
330
17A
100
AcDbEntity
  8
0
  6
Continuous
 62
     0
370
    30
100
AcDbLine
 10
375.955211
 20
275.988189
 30
0.0
 11
376.786878
 21
276.008705
 31
0.0
  0
LINE
  5
1E2
330
17A
100
AcDbEntity
  8
0
  6
Continuous
 62
     0
370
    30
100
AcDbLine
 10
376.786878
 20
276.008705
 30
0.0
 11
377.471224
 21
276.026002
 31
0.0
  0
LINE
  5
1E3
330
17A
100
AcDbEntity
  8
0
  6
Continuous
 62
     0
370
    30
100
AcDbLine
 10
377.471224
 20
276.026002
 30
0.0
 11
377.9948
 21
276.039408
 31
0.0
  0
LINE
  5
1E4
330
17A
100
AcDbEntity
  8
0
  6
Continuous
 62
     0
370
    30
100
AcDbLine
 10
377.9948
 20
276.039408
 30
0.0
 11
378.36983
 21
276.049033
 31
0.0
  0
LINE
  5
1E5
330
17A
100
AcDbEntity
  8
0
  6
Continuous
 62
     0
370
    30
100
AcDbLine
 10
378.36983
 20
276.049033
 30
0.0
 11
378.820557
 21
276.060693
 31
0.0
  0
LINE
  5
1E6
330
17A
100
AcDbEntity
  8
0
  6
Continuous
 62
     0
370
    30
100
AcDbLine
 10
378.820557
 20
276.060693
 30
0.0
 11
379.09929
 21
276.068059
 31
0.0
  0
LINE
  5
1E7
330
17A
100
AcDbEntity
  8
0
  6
Continuous
 62
     0
370
    30
100
AcDbLine
 10
360.234169
 20
275.906736
 30
0.0
 11
360.464191
 21
275.904699
 31
0.0
  0
LINE
  5
1E8
330
17A
100
AcDbEntity
  8
0
  6
Continuous
 62
     0
370
    30
100
AcDbLine
 10
360.464191
 20
275.904699
 30
0.0
 11
361.118185
 21
275.899444
 31
0.0
  0
LINE
  5
1E9
330
17A
100
AcDbEntity
  8
0
  6
Continuous
 62
     0
370
    30
100
AcDbLine
 10
361.118185
 20
275.899444
 30
0.0
 11
362.075848
 21
275.891984
 31
0.0
  0
LINE
  5
1EA
330
17A
100
AcDbEntity
  8
0
  6
Continuous
 62
     0
370
    30
100
AcDbLine
 10
362.075848
 20
275.891984
 30
0.0
 11
363.20107
 21
275.88336
 31
0.0
  0
LINE
  5
1EB
330
17A
100
AcDbEntity
  8
0
  6
Continuous
 62
     0
370
    30
100
AcDbLine
 10
363.20107
 20
275.88336
 30
0.0
 11
364.303291
 21
275.87498
 31
0.0
  0
LINE
  5
1EC
330
17A
100
AcDbEntity
  8
0
  6
Continuous
 62
     0
370
    30
100
AcDbLine
 10
364.303291
 20
275.87498
 30
0.0
 11
365.251972
 21
275.86784
 31
0.0
  0
LINE
  5
1ED
330
17A
100
AcDbEntity
  8
0
  6
Continuous
 62
     0
370
    30
100
AcDbLine
 10
365.251972
 20
275.86784
 30
0.0
 11
365.912699
 21
275.862994
 31
0.0
  0
LINE
  5
1EE
330
17A
100
AcDbEntity
  8
0
  6
Continuous
 62
     0
370
    30
100
AcDbLine
 10
365.912699
 20
275.862994
 30
0.0
 11
366.148697
 21
275.861447
 31
0.0
  0
LINE
  5
1EF
330
17A
100
AcDbEntity
  8
0
  6
Continuous
 62
     0
370
    30
100
AcDbLine
 10
363.199747
 20
275.881522
 30
0.0
 11
362.490958
 21
275.886838
 31
0.0
  0
LINE
  5
1F0
330
17A
100
AcDbEntity
  8
0
  6
Continuous
 62
     0
370
    30
100
AcDbLine
 10
362.490958
 20
275.886838
 30
0.0
 11
361.781383
 21
275.891778
 31
0.0
  0
LINE
  5
1F1
330
17A
100
AcDbEntity
  8
0
  6
Continuous
 62
     0
370
    30
100
AcDbLine
 10
361.781383
 20
275.891778
 30
0.0
 11
361.212719
 21
275.895053
 31
0.0
  0
LINE
  5
1F2
330
17A
100
AcDbEntity
  8
0
  6
Continuous
 62
     0
370
    30
100
AcDbLine
 10
361.212719
 20
275.895053
 30
0.0
 11
360.989553
 21
275.89608
 31
0.0
  0
LINE
  5
1F3
330
17A
100
AcDbEntity
  8
0
  6
Continuous
 62
     0
370
    30
100
AcDbLine
 10
365.393614
 20
275.862359
 30
0.0
 11
365.013186
 21
275.866382
 31
0.0
  0
LINE
  5
1F4
330
17A
100
AcDbEntity
  8
0
  6
Continuous
 62
     0
370
    30
100
AcDbLine
 10
365.013186
 20
275.866382
 30
0.0
 11
364.138045
 21
275.874139
 31
0.0
  0
LINE
  5
1F5
330
17A
100
AcDbEntity
  8
0
  6
Continuous
 62
     0
370
    30
100
AcDbLine
 10
364.138045
 20
275.874139
 30
0.0
 11
363.199747
 21
275.881522
 31
0.0
  0
LINE
  5
1F6
330
17A
100
AcDbEntity
  8
0
  6
Continuous
 62
     0
370
    30
100
AcDbLine
 10
354.616973
 20
276.038252
 30
0.0
 11
356.098264
 21
276.000659
 31
0.0
  0
LINE
  5
1F7
330
17A
100
AcDbEntity
  8
0
  6
Continuous
 62
     0
370
    30
100
AcDbLine
 10
356.098264
 20
276.000659
 30
0.0
 11
357.146018
 21
275.974378
 31
0.0
  0
LINE
  5
1F8
330
17A
100
AcDbEntity
  8
0
  6
Continuous
 62
     0
370
    30
100
AcDbLine
 10
357.146018
 20
275.974378
 30
0.0
 11
357.534747
 21
275.96468
 31
0.0
  0
LINE
  5
1F9
330
17A
100
AcDbEntity
  8
0
  6
Continuous
 62
     0
370
    30
100
AcDbLine
 10
357.534747
 20
275.96468
 30
0.0
 11
357.706931
 21
275.960754
 31
0.0
  0
LINE
  5
1FA
330
17A
100
AcDbEntity
  8
0
  6
Continuous
 62
     0
370
    30
100
AcDbLine
 10
357.706931
 20
275.960754
 30
0.0
 11
357.861983
 21
275.957775
 31
0.0
  0
LINE
  5
1FB
330
17A
100
AcDbEntity
  8
0
  6
Continuous
 62
     0
370
    30
100
AcDbLine
 10
357.940908
 20
275.957509
 30
0.0
 11
358.066494
 21
275.954918
 31
0.0
  0
LINE
  5
1FC
330
17A
100
AcDbEntity
  8
0
  6
Continuous
 62
     0
370
    30
100
AcDbLine
 10
355.223344
 20
276.020749
 30
0.0
 11
354.521687
 21
276.037752
 31
0.0
  0
LINE
  5
1FD
330
17A
100
AcDbEntity
  8
0
  6
Continuous
 62
     0
370
    30
100
AcDbLine
 10
354.521687
 20
276.037752
 30
0.0
 11
354.060925
 21
276.048482
 31
0.0
  0
LINE
  5
1FE
330
17A
100
AcDbEntity
  8
0
  6
Continuous
 62
     0
370
    30
100
AcDbLine
 10
354.060925
 20
276.048482
 30
0.0
 11
353.89924
 21
276.052283
 31
0.0
  0
LINE
  5
1FF
330
17A
100
AcDbEntity
  8
0
  6
Continuous
 62
     0
370
    30
100
AcDbLine
 10
353.148162
 20
276.076199
 30
0.0
 11
353.538384
 21
276.065772
 31
0.0
  0
LINE
  5
200
330
17A
100
AcDbEntity
  8
0
  6
Continuous
 62
     0
370
    30
100
AcDbLine
 10
353.538384
 20
276.065772
 30
0.0
 11
354.616973
 21
276.038252
 31
0.0
  0
LINE
  5
201
330
17A
100
AcDbEntity
  8
0
  6
Continuous
 62
     0
370
    30
100
AcDbLine
 10
163.719918
 20
275.869461
 30
0.0
 11
163.950153
 21
275.869452
 31
0.0
  0
LINE
  5
202
330
17A
100
AcDbEntity
  8
0
  6
Continuous
 62
     0
370
    30
100
AcDbLine
 10
163.950153
 20
275.869452
 30
0.0
 11
164.604397
 21
275.869921
 31
0.0
  0
LINE
  5
203
330
17A
100
AcDbEntity
  8
0
  6
Continuous
 62
     0
370
    30
100
AcDbLine
 10
164.604397
 20
275.869921
 30
0.0
 11
165.562578
 21
275.870824
 31
0.0
  0
LINE
  5
204
330
17A
100
AcDbEntity
  8
0
  6
Continuous
 62
     0
370
    30
100
AcDbLine
 10
165.562578
 20
275.870824
 30
0.0
 11
166.688504
 21
275.872019
 31
0.0
  0
LINE
  5
205
330
17A
100
AcDbEntity
  8
0
  6
Continuous
 62
     0
370
    30
100
AcDbLine
 10
166.688504
 20
275.872019
 30
0.0
 11
167.791578
 21
275.873249
 31
0.0
  0
LINE
  5
206
330
17A
100
AcDbEntity
  8
0
  6
Continuous
 62
     0
370
    30
100
AcDbLine
 10
167.791578
 20
275.873249
 30
0.0
 11
168.740919
 21
275.874371
 31
0.0
  0
LINE
  5
207
330
17A
100
AcDbEntity
  8
0
  6
Continuous
 62
     0
370
    30
100
AcDbLine
 10
168.740919
 20
275.874371
 30
0.0
 11
169.402078
 21
275.875265
 31
0.0
  0
LINE
  5
208
330
17A
100
AcDbEntity
  8
0
  6
Continuous
 62
     0
370
    30
100
AcDbLine
 10
169.402078
 20
275.875265
 30
0.0
 11
169.64184
 21
275.875807
 31
0.0
  0
LINE
  5
209
330
17A
100
AcDbEntity
  8
0
  6
Continuous
 62
     0
370
    30
100
AcDbLine
 10
168.752867
 20
275.870427
 30
0.0
 11
168.499855
 21
275.870805
 31
0.0
  0
LINE
  5
20A
330
17A
100
AcDbEntity
  8
0
  6
Continuous
 62
     0
370
    30
100
AcDbLine
 10
159.692745
 20
275.924531
 30
0.0
 11
161.559282
 21
275.898211
 31
0.0
  0
LINE
  5
20B
330
17A
100
AcDbEntity
  8
0
  6
Continuous
 62
     0
370
    30
100
AcDbLine
 10
158.031968
 20
275.948098
 30
0.0
 11
157.859989
 21
275.951315
 31
0.0
  0
LWPOLYLINE
  5
20C
330
17A
100
AcDbEntity
  8
0
  6
Continuous
 62
     0
370
    30
100
AcDbPolyline
 90
        6
 70
     0
 43
0.0
 10
156.585358
 20
275.983307
 10
156.551666
 20
275.984985
 10
156.461029
 20
275.988098
 10
156.329773
 20
275.992096
 10
156.17424
 20
275.996552
 10
156.000412
 20
276.00116
  0
LINE
  5
20D
330
17A
100
AcDbEntity
  8
0
  6
Continuous
 62
     0
370
    30
100
AcDbLine
 10
156.000904
 20
276.002309
 30
0.0
 11
157.860131
 21
275.958869
 31
0.0
  0
LINE
  5
20E
330
17A
100
AcDbEntity
  8
0
  6
Continuous
 62
     0
370
    30
100
AcDbLine
 10
176.499991
 20
275.996001
 30
0.0
 11
176.312721
 21
275.99124
 31
0.0
  0
LINE
  5
20F
330
17A
100
AcDbEntity
  8
0
  6
Continuous
 62
     0
370
    30
100
AcDbLine
 10
176.312721
 20
275.99124
 30
0.0
 11
176.065958
 21
275.988537
 31
0.0
  0
LINE
  5
210
330
17A
100
AcDbEntity
  8
0
  6
Continuous
 62
     0
370
    30
100
AcDbLine
 10
176.065958
 20
275.988537
 30
0.0
 11
175.414036
 21
275.973948
 31
0.0
  0
LINE
  5
211
330
17A
100
AcDbEntity
  8
0
  6
Continuous
 62
     0
370
    30
100
AcDbLine
 10
175.414036
 20
275.973948
 30
0.0
 11
174.364137
 21
275.951236
 31
0.0
  0
LINE
  5
212
330
17A
100
AcDbEntity
  8
0
  6
Continuous
 62
     0
370
    30
100
AcDbLine
 10
173.665602
 20
275.937654
 30
0.0
 11
172.615041
 21
275.919532
 31
0.0
  0
LINE
  5
213
330
17A
100
AcDbEntity
  8
0
  6
Continuous
 62
     0
370
    30
100
AcDbLine
 10
172.615041
 20
275.919532
 30
0.0
 11
171.966211
 21
275.908825
 31
0.0
  0
LINE
  5
214
330
17A
100
AcDbEntity
  8
0
  6
Continuous
 62
     0
370
    30
100
AcDbLine
 10
171.966211
 20
275.908825
 30
0.0
 11
171.670915
 21
275.901319
 31
0.0
  0
LINE
  5
215
330
17A
100
AcDbEntity
  8
0
  6
Continuous
 62
     0
370
    30
100
AcDbLine
 10
171.670915
 20
275.901319
 30
0.0
 11
171.513963
 21
275.899221
 31
0.0
  0
LINE
  5
216
330
17A
100
AcDbEntity
  8
0
  6
Continuous
 62
     0
370
    30
100
AcDbLine
 10
171.517652
 20
275.907758
 30
0.0
 11
171.659835
 21
275.909659
 31
0.0
  0
LINE
  5
217
330
17A
100
AcDbEntity
  8
0
  6
Continuous
 62
     0
370
    30
100
AcDbLine
 10
171.659835
 20
275.909659
 30
0.0
 11
171.771883
 21
275.909773
 31
0.0
  0
LINE
  5
218
330
17A
100
AcDbEntity
  8
0
  6
Continuous
 62
     0
370
    30
100
AcDbLine
 10
171.771883
 20
275.909773
 30
0.0
 11
171.872132
 21
275.910589
 31
0.0
  0
LINE
  5
219
330
17A
100
AcDbEntity
  8
0
  6
Continuous
 62
     0
370
    30
100
AcDbLine
 10
171.872132
 20
275.910589
 30
0.0
 11
172.023505
 21
275.912401
 31
0.0
  0
LINE
  5
21A
330
17A
100
AcDbEntity
  8
0
  6
Continuous
 62
     0
370
    30
100
AcDbLine
 10
172.023505
 20
275.912401
 30
0.0
 11
172.241687
 21
275.91551
 31
0.0
  0
LINE
  5
21B
330
17A
100
AcDbEntity
  8
0
  6
Continuous
 62
     0
370
    30
100
AcDbLine
 10
172.241687
 20
275.91551
 30
0.0
 11
175.83325
 21
275.985556
 31
0.0
  0
LINE
  5
21C
330
17A
100
AcDbEntity
  8
0
  6
Continuous
 62
     0
370
    30
100
AcDbLine
 10
175.83325
 20
275.985556
 30
0.0
 11
176.360899
 21
276.001047
 31
0.0
  0
LINE
  5
21D
330
17A
100
AcDbEntity
  8
0
  6
Continuous
 62
     0
370
    30
100
AcDbLine
 10
176.360899
 20
276.001047
 30
0.0
 11
176.503747
 21
276.004692
 31
0.0
  0
LINE
  5
21E
330
17A
100
AcDbEntity
  8
0
  6
Continuous
 62
     0
370
    30
100
AcDbLine
 10
169.638746
 20
275.875753
 30
0.0
 11
169.402088
 21
275.873975
 31
0.0
  0
ENDBLK
  5
220
330
17A
100
AcDbEntity
  8
0
100
AcDbBlockEnd
  0
BLOCK
  5
279
330
222
100
AcDbEntity
  8
0
100
AcDbBlockBegin
  2
c
 70
     0
 10
92.176735
 20
122.27581
 30
0.0
  3
c
  1

  0
LINE
  5
223
330
222
100
AcDbEntity
  8
0
  6
Continuous
 62
     0
370
     0
100
AcDbLine
 10
641.895759
 20
426.767563
 30
0.0
 11
652.550564
 21
426.767563
 31
0.0
  0
LINE
  5
224
330
222
100
AcDbEntity
  8
0
  6
Continuous
 62
     0
370
     0
100
AcDbLine
 10
630.550566
 20
426.767563
 30
0.0
 11
641.895759
 21
426.767563
 31
0.0
  0
LINE
  5
225
330
222
100
AcDbEntity
  8
0
  6
Continuous
 62
     0
370
     0
100
AcDbLine
 10
641.895759
 20
443.767563
 30
0.0
 11
630.550566
 21
443.767563
 31
0.0
  0
LINE
  5
226
330
222
100
AcDbEntity
  8
0
  6
Continuous
 62
     0
370
     0
100
AcDbLine
 10
652.550564
 20
443.767563
 30
0.0
 11
641.895759
 21
443.767563
 31
0.0
  0
LINE
  5
227
330
222
100
AcDbEntity
  8
0
  6
Continuous
 62
     0
370
     0
100
AcDbLine
 10
641.92714
 20
446.267563
 30
0.0
 11
629.550565
 21
446.267563
 31
0.0
  0
LINE
  5
228
330
222
100
AcDbEntity
  8
0
  6
Continuous
 62
     0
370
     0
100
AcDbLine
 10
653.550565
 20
446.267563
 30
0.0
 11
641.92714
 21
446.267563
 31
0.0
  0
LINE
  5
229
330
222
100
AcDbEntity
  8
0
  6
Continuous
 62
     0
370
     0
100
AcDbLine
 10
641.92714
 20
444.267563
 30
0.0
 11
653.550565
 21
444.267563
 31
0.0
  0
LINE
  5
22A
330
222
100
AcDbEntity
  8
0
  6
Continuous
 62
     0
370
     0
100
AcDbLine
 10
629.550565
 20
444.267563
 30
0.0
 11
641.92714
 21
444.267563
 31
0.0
  0
LINE
  5
22B
330
222
100
AcDbEntity
  8
0
  6
Continuous
 62
     0
370
    30
100
AcDbLine
 10
653.550565
 20
444.267563
 30
0.0
 11
653.550565
 21
446.267563
 31
0.0
  0
LINE
  5
22C
330
222
100
AcDbEntity
  8
0
  6
Continuous
 62
     0
370
    30
100
AcDbLine
 10
629.550565
 20
444.267563
 30
0.0
 11
629.550565
 21
446.267563
 31
0.0
  0
LINE
  5
22D
330
222
100
AcDbEntity
  8
0
  6
Continuous
 62
     0
370
    30
100
AcDbLine
 10
652.550564
 20
426.767563
 30
0.0
 11
652.550564
 21
443.767563
 31
0.0
  0
LINE
  5
22E
330
222
100
AcDbEntity
  8
0
  6
Continuous
 62
     0
370
    30
100
AcDbLine
 10
630.550566
 20
426.767563
 30
0.0
 11
630.550566
 21
443.767563
 31
0.0
  0
LINE
  5
22F
330
222
100
AcDbEntity
  8
0
  6
Continuous
 62
     0
370
     0
100
AcDbLine
 10
494.737146
 20
471.199267
 30
0.0
 11
494.737146
 21
525.835859
 31
0.0
  0
ARC
  5
230
330
222
100
AcDbEntity
  8
0
  6
Continuous
 62
     0
370
    30
100
AcDbCircle
 10
95.671097
 20
498.517563
 30
0.0
 40
400.0000000000312
100
AcDbArc
 50
356.083894
 51
359.553124
  0
LINE
  5
231
330
222
100
AcDbEntity
  8
0
  6
Continuous
 62
     0
370
    30
100
AcDbLine
 10
495.66136
 20
495.726546
 30
0.0
 11
495.660235
 21
495.569677
 31
0.0
  0
ARC
  5
232
330
222
100
AcDbEntity
  8
0
  6
Continuous
 62
     0
370
    30
100
AcDbCircle
 10
493.73948
 20
471.267563
 30
0.0
 40
1.00000000000001
100
AcDbArc
 50
270.0
 51
356.083894
  0
LINE
  5
233
330
222
100
AcDbEntity
  8
0
  6
Continuous
 62
     0
370
     0
100
AcDbLine
 10
493.73948
 20
470.267563
 30
0.0
 11
493.73948
 21
526.767563
 31
0.0
  0
LINE
  5
234
330
222
100
AcDbEntity
  8
0
  6
Continuous
 62
     0
370
    30
100
AcDbLine
 10
493.73948
 20
470.267563
 30
0.0
 11
477.172272
 21
470.267563
 31
0.0
  0
LINE
  5
235
330
222
100
AcDbEntity
  8
0
  6
Continuous
 62
     0
370
    30
100
AcDbLine
 10
477.172272
 20
526.767563
 30
0.0
 11
477.172272
 21
470.267563
 31
0.0
  0
LINE
  5
236
330
222
100
AcDbEntity
  8
0
  6
Continuous
 62
     0
370
    30
100
AcDbLine
 10
476.350556
 20
515.16392
 30
0.0
 11
476.350556
 21
529.017563
 31
0.0
  0
LINE
  5
237
330
222
100
AcDbEntity
  8
0
  6
Continuous
 62
     0
370
    30
100
AcDbLine
 10
476.350556
 20
468.017563
 30
0.0
 11
476.350556
 21
515.16392
 31
0.0
  0
LINE
  5
238
330
222
100
AcDbEntity
  8
0
  6
Continuous
 62
     0
370
    30
100
AcDbLine
 10
474.750556
 20
515.16392
 30
0.0
 11
474.750556
 21
468.017563
 31
0.0
  0
LINE
  5
239
330
222
100
AcDbEntity
  8
0
  6
Continuous
 62
     0
370
    30
100
AcDbLine
 10
474.750556
 20
529.017563
 30
0.0
 11
474.750556
 21
515.16392
 31
0.0
  0
LINE
  5
23A
330
222
100
AcDbEntity
  8
0
  6
Continuous
 62
     0
370
    30
100
AcDbLine
 10
468.950557
 20
515.16392
 30
0.0
 11
468.950556
 21
468.017563
 31
0.0
  0
LWPOLYLINE
  5
23B
330
222
100
AcDbEntity
  8
0
  6
Continuous
 62
     0
370
    30
100
AcDbPolyline
 90
       22
 70
     0
 43
0.0
 10
468.950562
 20
529.017578
 10
468.950562
 20
528.98114
 10
468.950562
 20
528.871399
 10
468.950562
 20
528.687927
 10
468.950562
 20
528.43103
 10
468.950562
 20
528.10144
 10
468.950562
 20
527.700378
 10
468.950562
 20
527.229614
 10
468.950562
 20
526.691467
 10
468.950562
 20
526.088623
 10
468.950562
 20
525.424316
 10
468.950562
 20
524.701904
 10
468.950562
 20
523.925293
 10
468.950562
 20
523.098572
 10
468.950562
 20
522.225952
 10
468.950562
 20
521.31189
 10
468.950562
 20
520.360901
 10
468.950562
 20
519.377502
 10
468.950562
 20
518.366211
 10
468.950562
 20
517.331482
 10
468.950562
 20
516.277649
 10
468.950562
 20
515.16394
  0
LINE
  5
23C
330
222
100
AcDbEntity
  8
0
  6
Continuous
 62
     0
370
    30
100
AcDbLine
 10
467.350556
 20
515.16392
 30
0.0
 11
467.350556
 21
468.017563
 31
0.0
  0
LINE
  5
23D
330
222
100
AcDbEntity
  8
0
  6
Continuous
 62
     0
370
    30
100
AcDbLine
 10
467.350556
 20
529.017563
 30
0.0
 11
467.350556
 21
515.16392
 31
0.0
  0
LINE
  5
23E
330
222
100
AcDbEntity
  8
0
  6
Continuous
 62
     0
370
    30
100
AcDbLine
 10
476.350556
 20
525.017563
 30
0.0
 11
477.172272
 21
525.017563
 31
0.0
  0
LINE
  5
23F
330
222
100
AcDbEntity
  8
0
  6
Continuous
 62
     0
370
    30
100
AcDbLine
 10
476.350556
 20
472.017563
 30
0.0
 11
477.172272
 21
472.017563
 31
0.0
  0
LINE
  5
240
330
222
100
AcDbEntity
  8
0
  6
Continuous
 62
     0
370
    30
100
AcDbLine
 10
468.950556
 20
529.017563
 30
0.0
 11
467.350556
 21
529.017563
 31
0.0
  0
LINE
  5
241
330
222
100
AcDbEntity
  8
0
  6
Continuous
 62
     0
370
    30
100
AcDbLine
 10
468.950556
 20
468.017563
 30
0.0
 11
467.350556
 21
468.017563
 31
0.0
  0
LINE
  5
242
330
222
100
AcDbEntity
  8
0
  6
Continuous
 62
     0
370
    30
100
AcDbLine
 10
474.750556
 20
527.967563
 30
0.0
 11
468.950556
 21
527.967563
 31
0.0
  0
LINE
  5
243
330
222
100
AcDbEntity
  8
0
  6
Continuous
 62
     0
370
    30
100
AcDbLine
 10
474.750556
 20
469.067563
 30
0.0
 11
468.950556
 21
469.067563
 31
0.0
  0
LINE
  5
244
330
222
100
AcDbEntity
  8
0
  6
Continuous
 62
     0
370
    30
100
AcDbLine
 10
476.350556
 20
529.017563
 30
0.0
 11
474.750556
 21
529.017563
 31
0.0
  0
LINE
  5
245
330
222
100
AcDbEntity
  8
0
  6
Continuous
 62
     0
370
    30
100
AcDbLine
 10
476.350556
 20
468.017563
 30
0.0
 11
474.750556
 21
468.017563
 31
0.0
  0
LINE
  5
246
330
222
100
AcDbEntity
  8
0
  6
Continuous
 62
     0
370
    30
100
AcDbLine
 10
477.172272
 20
526.767563
 30
0.0
 11
493.73948
 21
526.767563
 31
0.0
  0
ARC
  5
247
330
222
100
AcDbEntity
  8
0
  6
Continuous
 62
     0
370
    30
100
AcDbCircle
 10
493.736637
 20
525.764519
 30
0.0
 40
1.00304822133863
100
AcDbArc
 50
4.078499
 51
89.837608
  0
ARC
  5
248
330
222
100
AcDbEntity
  8
0
  6
Continuous
 62
     0
370
    30
100
AcDbCircle
 10
95.672422
 20
498.517634
 30
0.0
 40
399.9986737945886
100
AcDbArc
 50
0.391842
 51
3.916109
  0
LINE
  5
249
330
222
100
AcDbEntity
  8
0
  6
Continuous
 62
     0
370
    30
100
AcDbLine
 10
495.666816
 20
500.36817
 30
0.0
 11
495.663739
 21
500.943657
 31
0.0
  0
LINE
  5
24A
330
222
100
AcDbEntity
  8
0
  6
Continuous
 62
     0
370
    30
100
AcDbLine
 10
477.350553
 20
468.017563
 30
0.0
 11
477.350553
 21
470.267563
 31
0.0
  0
LINE
  5
24B
330
222
100
AcDbEntity
  8
0
  6
Continuous
 62
     0
370
    30
100
AcDbLine
 10
477.350553
 20
526.767563
 30
0.0
 11
477.350553
 21
529.017563
 31
0.0
  0
LINE
  5
24C
330
222
100
AcDbEntity
  8
0
  6
Continuous
 62
     0
370
    30
100
AcDbLine
 10
477.350553
 20
468.017563
 30
0.0
 11
476.350552
 21
468.017563
 31
0.0
  0
LINE
  5
24D
330
222
100
AcDbEntity
  8
0
  6
Continuous
 62
     0
370
    30
100
AcDbLine
 10
477.350553
 20
529.017563
 30
0.0
 11
476.350552
 21
529.017563
 31
0.0
  0
LINE
  5
24E
330
222
100
AcDbEntity
  8
0
  6
Continuous
 62
     0
370
     0
100
AcDbLine
 10
641.550566
 20
451.517563
 30
0.0
 11
652.550565
 21
451.517563
 31
0.0
  0
LINE
  5
24F
330
222
100
AcDbEntity
  8
0
  6
Continuous
 62
     0
370
     0
100
AcDbLine
 10
630.550565
 20
451.517563
 30
0.0
 11
641.550566
 21
451.517563
 31
0.0
  0
LINE
  5
250
330
222
100
AcDbEntity
  8
0
  6
Continuous
 62
     0
370
     0
100
AcDbLine
 10
594.550566
 20
498.517563
 30
0.0
 11
594.550565
 21
487.517563
 31
0.0
  0
LINE
  5
251
330
222
100
AcDbEntity
  8
0
  6
Continuous
 62
     0
370
     0
100
AcDbLine
 10
594.550565
 20
509.517563
 30
0.0
 11
594.550566
 21
498.517563
 31
0.0
  0
LINE
  5
252
330
222
100
AcDbEntity
  8
0
  6
Continuous
 62
     0
370
    30
100
AcDbLine
 10
641.550566
 20
446.517563
 30
0.0
 11
652.550565
 21
446.517563
 31
0.0
  0
LINE
  5
253
330
222
100
AcDbEntity
  8
0
  6
Continuous
 62
     0
370
    30
100
AcDbLine
 10
630.550565
 20
446.517563
 30
0.0
 11
641.550566
 21
446.517563
 31
0.0
  0
LINE
  5
254
330
222
100
AcDbEntity
  8
0
  6
Continuous
 62
     0
370
     0
100
AcDbLine
 10
594.550566
 20
498.517563
 30
0.0
 11
495.671094
 21
498.517563
 31
0.0
  0
LINE
  5
255
330
222
100
AcDbEntity
  8
0
  6
Continuous
 62
     0
370
    30
100
AcDbLine
 10
495.519819
 20
487.517717
 30
0.0
 11
594.550565
 21
487.517563
 31
0.0
  0
LINE
  5
256
330
222
100
AcDbEntity
  8
0
  6
Continuous
 62
     0
370
    30
100
AcDbLine
 10
594.550565
 20
509.517563
 30
0.0
 11
495.519816
 21
509.517409
 31
0.0
  0
LINE
  5
257
330
222
100
AcDbEntity
  8
0
  6
Continuous
 62
     0
370
    30
100
AcDbLine
 10
652.550565
 20
446.517563
 30
0.0
 11
652.550565
 21
451.517563
 31
0.0
  0
LINE
  5
258
330
222
100
AcDbEntity
  8
0
  6
Continuous
 62
     0
370
    30
100
AcDbLine
 10
630.550565
 20
446.517563
 30
0.0
 11
630.550565
 21
451.517563
 31
0.0
  0
ARC
  5
259
330
222
100
AcDbEntity
  8
0
  6
Continuous
 62
     0
370
    30
100
AcDbCircle
 10
594.552487
 20
451.519485
 30
0.0
 40
57.9980781560613
100
AcDbArc
 50
359.998101
 51
90.001899
  0
ARC
  5
25A
330
222
100
AcDbEntity
  8
0
  6
Continuous
 62
     0
370
    30
100
AcDbCircle
 10
594.548943
 20
451.515941
 30
0.0
 40
36.00162182119395
100
AcDbArc
 50
0.002581
 51
89.997419
  0
LINE
  5
25B
330
222
100
AcDbEntity
  8
0
  6
Continuous
 62
     0
370
    30
100
AcDbLine
 10
495.621566
 20
500.498816
 30
0.0
 11
495.617345
 21
500.909825
 31
0.0
  0
LINE
  5
25C
330
222
100
AcDbEntity
  8
0
  6
Continuous
 62
     0
370
    30
100
AcDbLine
 10
495.617345
 20
500.909825
 30
0.0
 11
495.609149
 21
501.066463
 31
0.0
  0
LINE
  5
25D
330
222
100
AcDbEntity
  8
0
  6
Continuous
 62
     0
370
    30
100
AcDbLine
 10
495.609149
 20
501.066463
 30
0.0
 11
495.607999
 21
501.242023
 31
0.0
  0
LINE
  5
25E
330
222
100
AcDbEntity
  8
0
  6
Continuous
 62
     0
370
    30
100
AcDbLine
 10
495.634319
 20
501.234046
 30
0.0
 11
495.635466
 21
501.058721
 31
0.0
  0
LINE
  5
25F
330
222
100
AcDbEntity
  8
0
  6
Continuous
 62
     0
370
    30
100
AcDbLine
 10
495.635466
 20
501.058721
 30
0.0
 11
495.630727
 21
500.907304
 31
0.0
  0
LINE
  5
260
330
222
100
AcDbEntity
  8
0
  6
Continuous
 62
     0
370
    30
100
AcDbLine
 10
495.630727
 20
500.907304
 30
0.0
 11
495.631286
 21
500.493233
 31
0.0
  0
LINE
  5
261
330
222
100
AcDbEntity
  8
0
  6
Continuous
 62
     0
370
    30
100
AcDbLine
 10
495.631286
 20
500.493233
 30
0.0
 11
495.636138
 21
498.528157
 31
0.0
  0
LINE
  5
262
330
222
100
AcDbEntity
  8
0
  6
Continuous
 62
     0
370
    30
100
AcDbLine
 10
495.636138
 20
498.528157
 30
0.0
 11
495.629959
 21
496.288083
 31
0.0
  0
LINE
  5
263
330
222
100
AcDbEntity
  8
0
  6
Continuous
 62
     0
370
    30
100
AcDbLine
 10
495.629959
 20
496.288083
 30
0.0
 11
495.63381
 21
495.726738
 31
0.0
  0
LINE
  5
264
330
222
100
AcDbEntity
  8
0
  6
Continuous
 62
     0
370
    30
100
AcDbLine
 10
495.63381
 20
495.726738
 30
0.0
 11
495.632559
 21
495.552024
 31
0.0
  0
LINE
  5
265
330
222
100
AcDbEntity
  8
0
  6
Continuous
 62
     0
370
    30
100
AcDbLine
 10
495.606353
 20
495.559966
 30
0.0
 11
495.607599
 21
495.734878
 31
0.0
  0
LINE
  5
266
330
222
100
AcDbEntity
  8
0
  6
Continuous
 62
     0
370
    30
100
AcDbLine
 10
495.607599
 20
495.734878
 30
0.0
 11
495.615602
 21
495.870508
 31
0.0
  0
LINE
  5
267
330
222
100
AcDbEntity
  8
0
  6
Continuous
 62
     0
370
    30
100
AcDbLine
 10
495.615602
 20
495.870508
 30
0.0
 11
495.620255
 21
496.285732
 31
0.0
  0
LINE
  5
268
330
222
100
AcDbEntity
  8
0
  6
Continuous
 62
     0
370
    30
100
AcDbLine
 10
495.620255
 20
496.285732
 30
0.0
 11
495.626432
 21
498.425933
 31
0.0
  0
LINE
  5
269
330
222
100
AcDbEntity
  8
0
  6
Continuous
 62
     0
370
    30
100
AcDbLine
 10
495.570162
 20
498.442986
 30
0.0
 11
495.564138
 21
496.310676
 31
0.0
  0
LINE
  5
26A
330
222
100
AcDbEntity
  8
0
  6
Continuous
 62
     0
370
    30
100
AcDbLine
 10
495.564138
 20
496.310676
 30
0.0
 11
495.564879
 21
495.893369
 31
0.0
  0
LINE
  5
26B
330
222
100
AcDbEntity
  8
0
  6
Continuous
 62
     0
370
    30
100
AcDbLine
 10
495.564879
 20
495.893369
 30
0.0
 11
495.573408
 21
495.745441
 31
0.0
  0
LINE
  5
26C
330
222
100
AcDbEntity
  8
0
  6
Continuous
 62
     0
370
    30
100
AcDbLine
 10
495.573408
 20
495.745441
 30
0.0
 11
495.572167
 21
495.570326
 31
0.0
  0
LINE
  5
26D
330
222
100
AcDbEntity
  8
0
  6
Continuous
 62
     0
370
    30
100
AcDbLine
 10
495.528915
 20
495.583434
 30
0.0
 11
495.530146
 21
495.758351
 31
0.0
  0
LINE
  5
26E
330
222
100
AcDbEntity
  8
0
  6
Continuous
 62
     0
370
    30
100
AcDbLine
 10
495.530146
 20
495.758351
 30
0.0
 11
495.542315
 21
495.897974
 31
0.0
  0
LINE
  5
26F
330
222
100
AcDbEntity
  8
0
  6
Continuous
 62
     0
370
    30
100
AcDbLine
 10
495.542315
 20
495.897974
 30
0.0
 11
495.548157
 21
496.312865
 31
0.0
  0
LINE
  5
270
330
222
100
AcDbEntity
  8
0
  6
Continuous
 62
     0
370
    30
100
AcDbLine
 10
495.548157
 20
496.312865
 30
0.0
 11
495.554171
 21
498.55299
 31
0.0
  0
LINE
  5
271
330
222
100
AcDbEntity
  8
0
  6
Continuous
 62
     0
370
    30
100
AcDbLine
 10
495.554171
 20
498.55299
 30
0.0
 11
495.54922
 21
500.518095
 31
0.0
  0
LINE
  5
272
330
222
100
AcDbEntity
  8
0
  6
Continuous
 62
     0
370
    30
100
AcDbLine
 10
495.54922
 20
500.518095
 30
0.0
 11
495.531376
 21
501.090282
 31
0.0
  0
LINE
  5
273
330
222
100
AcDbEntity
  8
0
  6
Continuous
 62
     0
370
    30
100
AcDbLine
 10
495.531376
 20
501.090282
 30
0.0
 11
495.530221
 21
501.265738
 31
0.0
  0
LINE
  5
274
330
222
100
AcDbEntity
  8
0
  6
Continuous
 62
     0
370
    30
100
AcDbLine
 10
495.573661
 20
501.252574
 30
0.0
 11
495.574813
 21
501.077064
 31
0.0
  0
LINE
  5
275
330
222
100
AcDbEntity
  8
0
  6
Continuous
 62
     0
370
    30
100
AcDbLine
 10
495.574813
 20
501.077064
 30
0.0
 11
495.565871
 21
500.928098
 31
0.0
  0
LINE
  5
276
330
222
100
AcDbEntity
  8
0
  6
Continuous
 62
     0
370
    30
100
AcDbLine
 10
495.565871
 20
500.928098
 30
0.0
 11
495.565224
 21
500.515891
 31
0.0
  0
LINE
  5
277
330
222
100
AcDbEntity
  8
0
  6
Continuous
 62
     0
370
    30
100
AcDbLine
 10
495.565224
 20
500.515891
 30
0.0
 11
495.570121
 21
498.713647
 31
0.0
  0
LINE
  5
278
330
222
100
AcDbEntity
  8
0
  6
Continuous
 62
     0
370
    30
100
AcDbLine
 10
495.626402
 20
498.69659
 30
0.0
 11
495.621566
 21
500.498816
 31
0.0
  0
ENDBLK
  5
27A
330
222
100
AcDbEntity
  8
0
100
AcDbBlockEnd
  0
BLOCK
  5
3F2
330
27C
100
AcDbEntity
  8
0
100
AcDbBlockBegin
  2
d
 70
     0
 10
92.176735
 20
122.27581
 30
0.0
  3
d
  1

  0
ELLIPSE
  5
27D
330
27C
100
AcDbEntity
  8
0
  6
Continuous
 62
     0
370
     0
100
AcDbEllipse
 10
692.245889
 20
144.40755
 30
0.0
 11
-10.99999940989609
 21
6.106226307864890E-16
 31
0.0
210
0.0
220
0.0
230
1.0
 40
0.57735
 41
0.816784538387715
 42
3.141651270662524
  0
ELLIPSE
  5
27E
330
27C
100
AcDbEntity
  8
0
  6
Continuous
 62
     0
370
     0
100
AcDbEllipse
 10
692.245889
 20
144.40755
 30
0.0
 11
-10.99999940989609
 21
6.106226307864890E-16
 31
0.0
210
0.0
220
0.0
230
1.0
 40
0.57735
 41
-0.0000000086396881
 42
0.816784538387715
  0
ELLIPSE
  5
27F
330
27C
100
AcDbEntity
  8
0
  6
Continuous
 62
     0
370
     0
100
AcDbEllipse
 10
692.245889
 20
160.329233
 30
0.0
 11
12.0
 21
-6.661338147750937E-16
 31
0.0
210
0.0
220
0.0
230
-1.0
 40
0.57735
 41
2.32480811520208
 42
3.552730524551827
  0
ELLIPSE
  5
280
330
27C
100
AcDbEntity
  8
0
  6
Continuous
 62
     0
370
     0
100
AcDbEllipse
 10
692.245889
 20
160.329233
 30
0.0
 11
12.0
 21
-6.661338147750937E-16
 31
0.0
210
0.0
220
0.0
230
-1.0
 40
0.57735
 41
5.872047453496928
 42
8.607993422381663
  0
ELLIPSE
  5
281
330
27C
100
AcDbEntity
  8
0
  6
Continuous
 62
     0
370
     0
100
AcDbEllipse
 10
692.245889
 20
158.69624
 30
0.0
 11
-12.0
 21
6.661338147750937E-16
 31
0.0
210
0.0
220
0.0
230
1.0
 40
0.57735
 41
0.8167845383877141
 42
3.141651289085095
  0
ELLIPSE
  5
282
330
27C
100
AcDbEntity
  8
0
  6
Continuous
 62
     0
370
     0
100
AcDbEllipse
 10
692.245889
 20
158.69624
 30
0.0
 11
-12.0
 21
6.661338147750937E-16
 31
0.0
210
0.0
220
0.0
230
1.0
 40
0.57735
 41
-0.000000008639689
 42
0.8167845383877141
  0
LWPOLYLINE
  5
283
330
27C
100
AcDbEntity
  8
0
  6
Continuous
 62
     0
370
     0
100
AcDbPolyline
 90
       16
 70
     0
 43
0.0
 10
684.202209
 20
155.588272
 10
683.559448
 20
155.965134
 10
682.968262
 20
156.370605
 10
682.433228
 20
156.801727
 10
681.958618
 20
157.255325
 10
681.547119
 20
157.728668
 10
681.200867
 20
158.21907
 10
680.921814
 20
158.723694
 10
680.71167
 20
159.239395
 10
680.571899
 20
159.76297
 10
680.503418
 20
160.291245
 10
680.50647
 20
160.820984
 10
680.581177
 20
161.348953
 10
680.72699
 20
161.871964
 10
680.942993
 20
162.386826
 10
681.245911
 20
162.918137
  0
LWPOLYLINE
  5
284
330
27C
100
AcDbEntity
  8
0
  6
Continuous
 62
     0
370
     0
100
AcDbPolyline
 90
       34
 70
     0
 43
0.0
 10
703.245911
 20
162.918167
 10
703.544861
 20
162.394577
 10
703.769409
 20
161.858643
 10
703.917847
 20
161.31395
 10
703.989014
 20
160.764114
 10
703.982727
 20
160.212769
 10
703.898865
 20
159.663544
 10
703.737976
 20
159.120056
 10
703.501282
 20
158.585892
 10
703.190186
 20
158.064621
 10
702.806763
 20
157.559631
 10
702.353699
 20
157.07428
 10
701.833679
 20
156.611816
 10
701.250427
 20
156.175232
 10
700.607727
 20
155.767426
 10
699.909729
 20
155.391144
 10
699.161133
 20
155.048782
 10
698.366882
 20
154.742676
 10
697.532104
 20
154.474838
 10
696.662476
 20
154.246979
 10
695.763672
 20
154.060699
 10
694.841614
 20
153.91716
 10
693.902405
 20
153.817261
 10
692.952271
 20
153.761795
 10
691.997498
 20
153.751022
 10
691.044312
 20
153.785065
 10
690.098999
 20
153.863785
 10
689.167969
 20
153.986435
 10
688.257446
 20
154.152267
 10
687.373291
 20
154.36026
 10
686.520874
 20
154.609146
 10
685.70575
 20
154.897568
 10
684.934143
 20
155.223038
 10
684.202209
 20
155.588272
  0
LINE
  5
285
330
27C
100
AcDbEntity
  8
0
  6
Continuous
 62
     0
370
    30
100
AcDbLine
 10
704.245875
 20
158.696643
 30
0.0
 11
704.197582
 21
158.062891
 31
0.0
  0
LWPOLYLINE
  5
286
330
27C
100
AcDbEntity
  8
0
  6
Continuous
 62
     0
370
    30
100
AcDbPolyline
 90
       37
 70
     0
 43
0.0
 10
684.083008
 20
153.531387
 10
684.640747
 20
153.247284
 10
685.228088
 20
152.983612
 10
685.842407
 20
152.741562
 10
686.481201
 20
152.522278
 10
687.141907
 20
152.326782
 10
687.82196
 20
152.155609
 10
688.518555
 20
152.009186
 10
689.229187
 20
151.887894
 10
689.95105
 20
151.792175
 10
690.68158
 20
151.722443
 10
691.418091
 20
151.679108
 10
692.157959
 20
151.662552
 10
692.898254
 20
151.67276
 10
693.63623
 20
151.709534
 10
694.368896
 20
151.77269
 10
695.093506
 20
151.862
 10
695.807007
 20
151.97728
 10
696.506714
 20
152.118301
 10
697.190002
 20
152.284454
 10
697.854492
 20
152.474899
 10
698.497925
 20
152.688812
 10
699.117981
 20
152.925323
 10
699.712219
 20
153.18364
 10
700.278381
 20
153.462891
 10
700.814087
 20
153.762238
 10
701.316956
 20
154.080856
 10
701.785095
 20
154.417786
 10
702.217102
 20
154.771774
 10
702.611938
 20
155.141525
 10
702.968323
 20
155.525742
 10
703.283997
 20
155.923172
 10
703.555542
 20
156.332596
 10
703.780212
 20
156.752701
 10
703.966003
 20
157.18132
 10
704.11792
 20
157.616333
 10
704.183838
 20
158.06311
  0
ARC
  5
287
330
27C
100
AcDbEntity
  8
0
  6
Continuous
 62
     0
370
    30
100
AcDbCircle
 10
686.470986
 20
159.313308
 30
0.0
 40
6.255633531959161
100
AcDbArc
 50
185.664905
 51
247.559198
  0
LINE
  5
288
330
27C
100
AcDbEntity
  8
0
  6
Continuous
 62
     0
370
    30
100
AcDbLine
 10
704.245875
 20
160.329636
 30
0.0
 11
704.238125
 21
160.583437
 31
0.0
  0
LINE
  5
289
330
27C
100
AcDbEntity
  8
0
  6
Continuous
 62
     0
370
    30
100
AcDbLine
 10
680.245904
 20
160.328809
 30
0.0
 11
680.294201
 21
160.962608
 31
0.0
  0
LINE
  5
28A
330
27C
100
AcDbEntity
  8
0
  6
Continuous
 62
     0
370
    30
100
AcDbLine
 10
703.245876
 20
144.407919
 30
0.0
 11
703.201449
 21
143.824907
 31
0.0
  0
LWPOLYLINE
  5
28B
330
27C
100
AcDbEntity
  8
0
  6
Continuous
 62
     0
370
    30
100
AcDbPolyline
 90
       36
 70
     0
 43
0.0
 10
684.767578
 20
139.663559
 10
685.293579
 20
139.396118
 10
685.848022
 20
139.148529
 10
686.428467
 20
138.921967
 10
687.032349
 20
138.71756
 10
687.657166
 20
138.536285
 10
688.300232
 20
138.378632
 10
688.958923
 20
138.24501
 10
689.630676
 20
138.135818
 10
690.312744
 20
138.051483
 10
691.002502
 20
137.992416
 10
691.697327
 20
137.95903
 10
692.394531
 20
137.951614
 10
693.091248
 20
137.970062
 10
693.784668
 20
138.014175
 10
694.471924
 20
138.08374
 10
695.150146
 20
138.178558
 10
695.816467
 20
138.298431
 10
696.46814
 20
138.443008
 10
697.102783
 20
138.611526
 10
697.718079
 20
138.803146
 10
698.311768
 20
139.017059
 10
698.88147
 20
139.252426
 10
699.424866
 20
139.508408
 10
699.939575
 20
139.78418
 10
700.423401
 20
140.078934
 10
700.874084
 20
140.391754
 10
701.290161
 20
140.721527
 10
701.670532
 20
141.06694
 10
702.013977
 20
141.426758
 10
702.318665
 20
141.799698
 10
702.581238
 20
142.18457
 10
702.798523
 20
142.580109
 10
702.976501
 20
142.984329
 10
703.12262
 20
143.394928
 10
703.18927
 20
143.825119
  0
ARC
  5
28C
330
27C
100
AcDbEntity
  8
0
  6
Continuous
 62
     0
370
    30
100
AcDbCircle
 10
686.961814
 20
144.971633
 30
0.0
 40
5.743715532645716
100
AcDbArc
 50
185.639955
 51
247.541146
  0
LINE
  5
28D
330
27C
100
AcDbEntity
  8
0
  6
Continuous
 62
     0
370
    30
100
AcDbLine
 10
703.245888
 20
144.40755
 30
0.0
 11
703.245888
 21
155.871492
 31
0.0
  0
LINE
  5
28E
330
27C
100
AcDbEntity
  8
0
  6
Continuous
 62
     0
370
    30
100
AcDbLine
 10
681.245889
 20
144.40755
 30
0.0
 11
681.245889
 21
155.871663
 31
0.0
  0
ELLIPSE
  5
28F
330
27C
100
AcDbEntity
  8
0
  6
Continuous
 62
     0
370
     0
100
AcDbEllipse
 10
577.729937
 20
269.106995
 30
0.0
 11
-6.250000000000005
 21
-10.82531754730548
 31
0.0
210
0.0
220
0.0
230
-1.0
 40
0.57735
 41
6.171725532079106
 42
7.875925401555052
  0
ELLIPSE
  5
290
330
27C
100
AcDbEntity
  8
0
  6
Continuous
 62
     0
370
     0
100
AcDbEllipse
 10
577.729937
 20
269.106995
 30
0.0
 11
-6.250000000000005
 21
-10.82531754730548
 31
0.0
210
0.0
220
0.0
230
-1.0
 40
0.57735
 41
1.592740094375466
 42
3.636543398842672
  0
ELLIPSE
  5
291
330
27C
100
AcDbEntity
  8
0
  6
Continuous
 62
     0
370
    30
100
AcDbEllipse
 10
576.138947
 20
270.025554
 30
0.0
 11
6.250000000000005
 21
10.82531754730548
 31
0.0
210
0.0
220
0.0
230
1.0
 40
0.57735
 41
-0.0000000228501555
 42
1.548852559214327
  0
ELLIPSE
  5
292
330
27C
100
AcDbEntity
  8
0
  6
Continuous
 62
     0
370
    30
100
AcDbEllipse
 10
576.138947
 20
270.025554
 30
0.0
 11
6.250000000000005
 21
10.82531754730548
 31
0.0
210
0.0
220
0.0
230
1.0
 40
0.57735
 41
1.548852559214327
 42
3.141592630739638
  0
LWPOLYLINE
  5
293
330
27C
100
AcDbEntity
  8
0
  6
Continuous
 62
     0
370
     0
100
AcDbPolyline
 90
       27
 70
     0
 43
0.0
 10
571.917603
 20
272.773132
 10
571.444824
 20
271.934967
 10
571.011108
 20
271.076874
 10
570.619751
 20
270.205444
 10
570.273987
 20
269.327271
 10
569.975708
 20
268.447601
 10
569.726501
 20
267.571411
 10
569.527954
 20
266.703918
 10
569.381104
 20
265.850525
 10
569.287048
 20
265.016693
 10
569.246521
 20
264.207642
 10
569.25946
 20
263.428253
 10
569.32605
 20
262.683441
 10
569.44574
 20
261.977722
 10
569.617737
 20
261.315491
 10
569.841125
 20
260.700928
 10
570.114502
 20
260.137756
 10
570.436035
 20
259.629425
 10
570.803894
 20
259.17926
 10
571.215698
 20
258.789856
 10
571.668884
 20
258.463684
 10
572.160767
 20
258.202881
 10
572.688232
 20
258.008881
 10
573.247925
 20
257.882935
 10
573.836548
 20
257.825958
 10
574.450378
 20
257.838104
 10
575.102356
 20
257.922455
  0
LWPOLYLINE
  5
294
330
27C
100
AcDbEntity
  8
0
  6
Continuous
 62
     0
370
     0
100
AcDbPolyline
 90
       26
 70
     0
 43
0.0
 10
586.102234
 20
276.974854
 10
585.851318
 20
277.577332
 10
585.549438
 20
278.124878
 10
585.198486
 20
278.6138
 10
584.800598
 20
279.040955
 10
584.358521
 20
279.403748
 10
583.875
 20
279.699707
 10
583.353088
 20
279.926941
 10
582.796265
 20
280.084106
 10
582.208008
 20
280.170044
 10
581.592163
 20
280.184265
 10
580.952637
 20
280.126801
 10
580.293518
 20
279.997742
 10
579.619019
 20
279.798187
 10
578.933655
 20
279.529358
 10
578.241638
 20
279.19281
 10
577.547424
 20
278.790955
 10
576.85553
 20
278.326141
 10
576.170349
 20
277.801392
 10
575.496399
 20
277.220337
 10
574.838074
 20
276.58667
 10
574.199463
 20
275.904297
 10
573.58429
 20
275.177216
 10
572.99646
 20
274.409698
 10
572.440491
 20
273.607971
 10
571.917603
 20
272.773132
  0
LINE
  5
295
330
27C
100
AcDbEntity
  8
0
  6
Continuous
 62
     0
370
    30
100
AcDbLine
 10
571.479635
 20
258.281861
 30
0.0
 11
571.712093
 21
258.156936
 31
0.0
  0
LINE
  5
296
330
27C
100
AcDbEntity
  8
0
  6
Continuous
 62
     0
370
    30
100
AcDbLine
 10
583.980239
 20
279.932129
 30
0.0
 11
584.525592
 21
279.5592
 31
0.0
  0
LWPOLYLINE
  5
297
330
27C
100
AcDbEntity
  8
0
  6
Continuous
 62
     0
370
    30
100
AcDbPolyline
 90
       12
 70
     0
 43
0.0
 10
586.252075
 20
276.888336
 10
586.127136
 20
277.254791
 10
585.985107
 20
277.605499
 10
585.825928
 20
277.939392
 10
585.64978
 20
278.255463
 10
585.456543
 20
278.552704
 10
585.246887
 20
278.830811
 10
585.0224
 20
279.091125
 10
584.785095
 20
279.335297
 10
584.533142
 20
279.559113
 10
584.25592
 20
279.743988
 10
583.980225
 20
279.932129
  0
LWPOLYLINE
  5
298
330
27C
100
AcDbEntity
  8
0
  6
Continuous
 62
     0
370
    30
100
AcDbPolyline
 90
       16
 70
     0
 43
0.0
 10
575.253113
 20
257.835449
 10
574.974854
 20
257.777985
 10
574.699341
 20
257.732819
 10
574.427002
 20
257.700378
 10
574.158203
 20
257.680939
 10
573.893372
 20
257.674866
 10
573.632629
 20
257.681793
 10
573.375305
 20
257.699738
 10
573.120544
 20
257.726379
 10
572.86792
 20
257.760254
 10
572.620422
 20
257.807068
 10
572.382751
 20
257.875916
 10
572.159363
 20
257.975739
 10
571.94696
 20
258.098572
 10
571.730591
 20
258.211578
 10
571.479614
 20
258.28186
  0
LWPOLYLINE
  5
299
330
27C
100
AcDbEntity
  8
0
  6
Continuous
 62
     0
370
     0
100
AcDbPolyline
 90
       63
 70
     0
 43
0.0
 10
517.722473
 20
199.797379
 10
516.833435
 20
199.307755
 10
515.930298
 20
198.858887
 10
515.015625
 20
198.454666
 10
514.092468
 20
198.098984
 10
513.164062
 20
197.795547
 10
512.233948
 20
197.547897
 10
511.305878
 20
197.359299
 10
510.383667
 20
197.232742
 10
509.471375
 20
197.170807
 10
508.57309
 20
197.175659
 10
507.693024
 20
197.248947
 10
506.835266
 20
197.39183
 10
506.003845
 20
197.604889
 10
505.202667
 20
197.888123
 10
504.435425
 20
198.240891
 10
503.705536
 20
198.662003
 10
503.016144
 20
199.149658
 10
502.369995
 20
199.701477
 10
501.76947
 20
200.314606
 10
501.216553
 20
200.985641
 10
500.712708
 20
201.710831
 10
500.259064
 20
202.486023
 10
499.856232
 20
203.306778
 10
499.504425
 20
204.168488
 10
499.203369
 20
205.06633
 10
498.952454
 20
205.995453
 10
498.750763
 20
206.951019
 10
498.596924
 20
207.928223
 10
498.489349
 20
208.922363
 10
498.426208
 20
209.928909
 10
498.405487
 20
210.943573
 10
498.42569
 20
211.981628
 10
498.488281
 20
213.060562
 10
498.595245
 20
214.178421
 10
498.748505
 20
215.332825
 10
498.949585
 20
216.520889
 10
499.19986
 20
217.73938
 10
499.500275
 20
218.984528
 10
499.85144
 20
220.252228
 10
500.253632
 20
221.537949
 10
500.706635
 20
222.836823
 10
501.209839
 20
224.143707
 10
501.762146
 20
225.453232
 10
502.362061
 20
226.759842
 10
503.00766
 20
228.057922
 10
503.696533
 20
229.341843
 10
504.425903
 20
230.606033
 10
505.192719
 20
231.845093
 10
505.993469
 20
233.053848
 10
506.824524
 20
234.227432
 10
507.681976
 20
235.361313
 10
508.561798
 20
236.451401
 10
509.459839
 20
237.49408
 10
510.371979
 20
238.486237
 10
511.294098
 20
239.425247
 10
512.222168
 20
240.309067
 10
513.152283
 20
241.136124
 10
514.080688
 20
241.905426
 10
515.003906
 20
242.616455
 10
515.918701
 20
243.269135
 10
516.822083
 20
243.863892
 10
517.722473
 20
244.407974
  0
LWPOLYLINE
  5
29A
330
27C
100
AcDbEntity
  8
0
  6
Continuous
 62
     0
370
     0
100
AcDbPolyline
 90
       63
 70
     0
 43
0.0
 10
517.722473
 20
244.407974
 10
518.61145
 20
244.897598
 10
519.514587
 20
245.346481
 10
520.42926
 20
245.750687
 10
521.352417
 20
246.106384
 10
522.280823
 20
246.409821
 10
523.210938
 20
246.657471
 10
524.139038
 20
246.846054
 10
525.061218
 20
246.97261
 10
525.973511
 20
247.034546
 10
526.871765
 20
247.029709
 10
527.751831
 20
246.956406
 10
528.609619
 20
246.813522
 10
529.44104
 20
246.600464
 10
530.242188
 20
246.317245
 10
531.00946
 20
245.964462
 10
531.739319
 20
245.54335
 10
532.428711
 20
245.05571
 10
533.07489
 20
244.503876
 10
533.675415
 20
243.890762
 10
534.228333
 20
243.219711
 10
534.732178
 20
242.494522
 10
535.185791
 20
241.719345
 10
535.588623
 20
240.898575
 10
535.940491
 20
240.03688
 10
536.241516
 20
239.139038
 10
536.492432
 20
238.2099
 10
536.694153
 20
237.254333
 10
536.847961
 20
236.277145
 10
536.955566
 20
235.283005
 10
537.018677
 20
234.276443
 10
537.039368
 20
233.261795
 10
537.019165
 20
232.223724
 10
536.956604
 20
231.144791
 10
536.849609
 20
230.026932
 10
536.696411
 20
228.872543
 10
536.4953
 20
227.684464
 10
536.245056
 20
226.465988
 10
535.944641
 20
225.220825
 10
535.593445
 20
223.95314
 10
535.191223
 20
222.667419
 10
534.73822
 20
221.368546
 10
534.235046
 20
220.061661
 10
533.682739
 20
218.752136
 10
533.082825
 20
217.445526
 10
532.437256
 20
216.147446
 10
531.748352
 20
214.863525
 10
531.018982
 20
213.599335
 10
530.252197
 20
212.36026
 10
529.451416
 20
211.151505
 10
528.620361
 20
209.977936
 10
527.762878
 20
208.844055
 10
526.883118
 20
207.753967
 10
525.985046
 20
206.711273
 10
525.072876
 20
205.719116
 10
524.150757
 20
204.780106
 10
523.222717
 20
203.896301
 10
522.292603
 20
203.069229
 10
521.364197
 20
202.299927
 10
520.440979
 20
201.588913
 10
519.526184
 20
200.936218
 10
518.622803
 20
200.341461
 10
517.722473
 20
199.797379
  0
LWPOLYLINE
  5
29B
330
27C
100
AcDbEntity
  8
0
  6
Continuous
 62
     0
370
     0
100
AcDbPolyline
 90
       17
 70
     0
 43
0.0
 10
517.016968
 20
245.576004
 10
518.036377
 20
246.134445
 10
519.053162
 20
246.631348
 10
520.064575
 20
247.065475
 10
521.068115
 20
247.435593
 10
522.061035
 20
247.740646
 10
523.040833
 20
247.980011
 10
524.004944
 20
248.153076
 10
524.950806
 20
248.259277
 10
525.876038
 20
248.298279
 10
526.778137
 20
248.270126
 10
527.654846
 20
248.174942
 10
528.503845
 20
248.012817
 10
529.322815
 20
247.784149
 10
530.109802
 20
247.489685
 10
530.862671
 20
247.130188
 10
531.608032
 20
246.687714
  0
LWPOLYLINE
  5
29C
330
27C
100
AcDbEntity
  8
0
  6
Continuous
 62
     0
370
     0
100
AcDbPolyline
 90
       46
 70
     0
 43
0.0
 10
502.892914
 20
198.04422
 10
502.173035
 20
198.504639
 10
501.493805
 20
199.030777
 10
500.857178
 20
199.620926
 10
500.265137
 20
200.273392
 10
499.719299
 20
200.98642
 10
499.220886
 20
201.758118
 10
498.770996
 20
202.586594
 10
498.37088
 20
203.470016
 10
498.021606
 20
204.406067
 10
497.724152
 20
205.391983
 10
497.479462
 20
206.424973
 10
497.288452
 20
207.502213
 10
497.151611
 20
208.620499
 10
497.069122
 20
209.776443
 10
497.041229
 20
210.96669
 10
497.068054
 20
212.187881
 10
497.149414
 20
213.436905
 10
497.285034
 20
214.71077
 10
497.474731
 20
216.006485
 10
497.718109
 20
217.320816
 10
498.014374
 20
218.649872
 10
498.36264
 20
219.989716
 10
498.762085
 20
221.33638
 10
499.211548
 20
222.686081
 10
499.709778
 20
224.035187
 10
500.255341
 20
225.380066
 10
500.846924
 20
226.717102
 10
501.482819
 20
228.042679
 10
502.161224
 20
229.353134
 10
502.88031
 20
230.644836
 10
503.638214
 20
231.9142
 10
504.43277
 20
233.157806
 10
505.261749
 20
234.372269
 10
506.122925
 20
235.554214
 10
507.014008
 20
236.700378
 10
507.932495
 20
237.807693
 10
508.875824
 20
238.873138
 10
509.841492
 20
239.893707
 10
510.826843
 20
240.866592
 10
511.829132
 20
241.789246
 10
512.845581
 20
242.659119
 10
513.873535
 20
243.473709
 10
514.910095
 20
244.230835
 10
515.952393
 20
244.928528
 10
517.016968
 20
245.576004
  0
ELLIPSE
  5
29D
330
27C
100
AcDbEntity
  8
0
  6
Continuous
 62
     0
370
    30
100
AcDbEllipse
 10
505.302202
 20
229.273509
 30
0.0
 11
14.12500000000001
 21
24.4652176569104
 31
0.0
210
0.0
220
0.0
230
1.0
 40
0.57735
 41
-0.0000000228501573
 42
0.7853981633974367
  0
ELLIPSE
  5
29E
330
27C
100
AcDbEntity
  8
0
  6
Continuous
 62
     0
370
    30
100
AcDbEllipse
 10
505.302202
 20
229.273509
 30
0.0
 11
14.12500000000001
 21
24.4652176569104
 31
0.0
210
0.0
220
0.0
230
1.0
 40
0.57735
 41
0.7853981633974367
 42
3.141592630739637
  0
ELLIPSE
  5
29F
330
27C
100
AcDbEntity
  8
0
  6
Continuous
 62
     0
370
    30
100
AcDbEllipse
 10
504.721161
 20
229.608974
 30
0.0
 11
-15.25
 21
-26.41377481542538
 31
0.0
210
0.0
220
0.0
230
-1.0
 40
0.57735
 41
1.362720482859841
 42
3.528104729180091
  0
ELLIPSE
  5
2A0
330
27C
100
AcDbEntity
  8
0
  6
Continuous
 62
     0
370
    30
100
AcDbEllipse
 10
504.721161
 20
229.608974
 30
0.0
 11
-15.25
 21
-26.41377481542538
 31
0.0
210
0.0
220
0.0
230
-1.0
 40
0.57735
 41
5.896673277289596
 42
7.645905790039426
  0
ELLIPSE
  5
2A1
330
27C
100
AcDbEntity
  8
0
  6
Continuous
 62
     0
370
    30
100
AcDbEllipse
 10
503.58979
 20
230.262171
 30
0.0
 11
15.25
 21
26.41377481542538
 31
0.0
210
0.0
220
0.0
230
1.0
 40
0.57735
 41
1.778872170729953
 42
3.141592630739638
  0
ELLIPSE
  5
2A2
330
27C
100
AcDbEntity
  8
0
  6
Continuous
 62
     0
370
    30
100
AcDbEllipse
 10
503.58979
 20
230.262171
 30
0.0
 11
15.25
 21
26.41377481542538
 31
0.0
210
0.0
220
0.0
230
1.0
 40
0.57735
 41
-0.0000000228501555
 42
1.778872170729952
  0
ELLIPSE
  5
2A3
330
27C
100
AcDbEntity
  8
0
  6
Continuous
 62
     0
370
    30
100
AcDbEllipse
 10
499.488571
 20
232.630011
 30
0.0
 11
14.725
 21
25.50444814145172
 31
0.0
210
0.0
220
0.0
230
1.0
 40
0.57735
 41
1.778872170729953
 42
3.141592630739636
  0
ELLIPSE
  5
2A4
330
27C
100
AcDbEntity
  8
0
  6
Continuous
 62
     0
370
    30
100
AcDbEllipse
 10
499.488571
 20
232.630011
 30
0.0
 11
14.725
 21
25.50444814145172
 31
0.0
210
0.0
220
0.0
230
1.0
 40
0.57735
 41
-0.0000000228501564
 42
1.778872170729952
  0
LWPOLYLINE
  5
2A5
330
27C
100
AcDbEntity
  8
0
  6
Continuous
 62
     0
370
    30
100
AcDbPolyline
 90
       32
 70
     0
 43
0.0
 10
481.417206
 20
235.788193
 10
480.920959
 20
234.578491
 10
480.452393
 20
233.344116
 10
480.014587
 20
232.088074
 10
479.610596
 20
230.813721
 10
479.243317
 20
229.524734
 10
478.91571
 20
228.225159
 10
478.630554
 20
226.919296
 10
478.390381
 20
225.61174
 10
478.197571
 20
224.307312
 10
478.054291
 20
223.010971
 10
477.962341
 20
221.727875
 10
477.923218
 20
220.46315
 10
477.938049
 20
219.222015
 10
478.007568
 20
218.009567
 10
478.13208
 20
216.83078
 10
478.311554
 20
215.69043
 10
478.545471
 20
214.593048
 10
478.832855
 20
213.542816
 10
479.172394
 20
212.543564
 10
479.562378
 20
211.598663
 10
480.000702
 20
210.71109
 10
480.484955
 20
209.88327
 10
481.012451
 20
209.117157
 10
481.580231
 20
208.4142
 10
482.18515
 20
207.775299
 10
482.823914
 20
207.200882
 10
483.493134
 20
206.690918
 10
484.189301
 20
206.244858
 10
484.908997
 20
205.861801
 10
485.648682
 20
205.540421
 10
486.427673
 20
205.272202
  0
LWPOLYLINE
  5
2A6
330
27C
100
AcDbEntity
  8
0
  6
Continuous
 62
     0
370
    30
100
AcDbPolyline
 90
       39
 70
     0
 43
0.0
 10
516.650696
 20
257.619995
 10
515.967102
 20
258.209717
 10
515.25061
 20
258.7276
 10
514.50531
 20
259.174408
 10
513.735291
 20
259.551392
 10
512.944641
 20
259.86026
 10
512.137268
 20
260.10318
 10
511.317078
 20
260.282623
 10
510.473755
 20
260.402832
 10
509.591156
 20
260.46463
 10
508.670502
 20
260.464661
 10
507.713409
 20
260.399689
 10
506.721985
 20
260.266907
 10
505.698669
 20
260.063812
 10
504.646393
 20
259.788361
 10
503.568359
 20
259.438995
 10
502.468262
 20
259.014648
 10
501.350006
 20
258.514923
 10
500.217957
 20
257.940002
 10
499.076569
 20
257.290741
 10
497.930603
 20
256.568604
 10
496.784882
 20
255.775726
 10
495.644409
 20
254.914932
 10
494.514069
 20
253.989609
 10
493.398712
 20
253.003723
 10
492.30307
 20
251.961746
 10
491.231628
 20
250.868591
 10
490.18866
 20
249.729538
 10
489.17804
 20
248.55014
 10
488.203369
 20
247.336166
 10
487.267792
 20
246.093506
 10
486.373962
 20
244.828033
 10
485.5242
 20
243.545609
 10
484.720306
 20
242.251968
 10
483.963654
 20
240.952621
 10
483.255157
 20
239.652847
 10
482.595337
 20
238.357605
 10
481.984283
 20
237.071533
 10
481.417206
 20
235.788193
  0
ELLIPSE
  5
2A7
330
27C
100
AcDbEntity
  8
0
  6
Continuous
 62
     0
370
    30
100
AcDbEllipse
 10
498.3572
 20
233.283208
 30
0.0
 11
15.25
 21
26.41377481542538
 31
0.0
210
0.0
220
0.0
230
1.0
 40
0.57735
 41
1.778872170729953
 42
3.141592630739636
  0
ELLIPSE
  5
2A8
330
27C
100
AcDbEntity
  8
0
  6
Continuous
 62
     0
370
    30
100
AcDbEllipse
 10
498.3572
 20
233.283208
 30
0.0
 11
15.25
 21
26.41377481542538
 31
0.0
210
0.0
220
0.0
230
1.0
 40
0.57735
 41
-0.0000000228501564
 42
1.778872170729952
  0
LINE
  5
2A9
330
27C
100
AcDbEntity
  8
0
  6
Continuous
 62
     0
370
    30
100
AcDbLine
 10
519.427202
 20
253.738727
 30
0.0
 11
531.141988
 21
246.975192
 31
0.0
  0
LINE
  5
2AA
330
27C
100
AcDbEntity
  8
0
  6
Continuous
 62
     0
370
    30
100
AcDbLine
 10
491.177202
 20
204.808292
 30
0.0
 11
502.891987
 21
198.044757
 31
0.0
  0
LINE
  5
2AB
330
27C
100
AcDbEntity
  8
0
  6
Continuous
 62
     0
370
    30
100
AcDbLine
 10
502.892915
 20
198.044221
 30
0.0
 11
503.408378
 21
197.76632
 31
0.0
  0
LINE
  5
2AC
330
27C
100
AcDbEntity
  8
0
  6
Continuous
 62
     0
370
    30
100
AcDbLine
 10
531.141855
 20
246.975269
 30
0.0
 11
531.64047
 21
246.667685
 31
0.0
  0
LWPOLYLINE
  5
2AD
330
27C
100
AcDbEntity
  8
0
  6
Continuous
 62
     0
370
    30
100
AcDbPolyline
 90
       47
 70
     0
 43
0.0
 10
517.516907
 20
199.394363
 10
518.539612
 20
200.015106
 10
519.558411
 20
200.693863
 10
520.570496
 20
201.428665
 10
521.572998
 20
202.217545
 10
522.563599
 20
203.058304
 10
523.539795
 20
203.948608
 10
524.499329
 20
204.886154
 10
525.439697
 20
205.868622
 10
526.358643
 20
206.893707
 10
527.253723
 20
207.95903
 10
528.122864
 20
209.061691
 10
528.963928
 20
210.198669
 10
529.774902
 20
211.366898
 10
530.553711
 20
212.563354
 10
531.298279
 20
213.784988
 10
532.00647
 20
215.028763
 10
532.67627
 20
216.291611
 10
533.305969
 20
217.570358
 10
533.894226
 20
218.861633
 10
534.439636
 20
220.162094
 10
534.940918
 20
221.468353
 10
535.396667
 20
222.777084
 10
535.805664
 20
224.084885
 10
536.166443
 20
225.388428
 10
536.477905
 20
226.684402
 10
536.739441
 20
227.969696
 10
536.950562
 20
229.241257
 10
537.110718
 20
230.496002
 10
537.219543
 20
231.730896
 10
537.276428
 20
232.942841
 10
537.281006
 20
234.128784
 10
537.232666
 20
235.285706
 10
537.13147
 20
236.410797
 10
536.977539
 20
237.50148
 10
536.771057
 20
238.555176
 10
536.512268
 20
239.56929
 10
536.201416
 20
240.541245
 10
535.838562
 20
241.46843
 10
535.424072
 20
242.348282
 10
534.958557
 20
243.178253
 10
534.44281
 20
243.955795
 10
533.877747
 20
244.678391
 10
533.264221
 20
245.343506
 10
532.604248
 20
245.948441
 10
531.900818
 20
246.490356
 10
531.141846
 20
246.975266
  0
LWPOLYLINE
  5
2AE
330
27C
100
AcDbEntity
  8
0
  6
Continuous
 62
     0
370
    30
100
AcDbPolyline
 90
       17
 70
     0
 43
0.0
 10
517.516907
 20
199.394363
 10
516.531372
 20
198.853409
 10
515.545227
 20
198.368286
 10
514.560913
 20
197.940475
 10
513.580688
 20
197.571381
 10
512.606689
 20
197.262054
 10
511.641052
 20
197.013443
 10
510.685852
 20
196.826431
 10
509.743195
 20
196.70195
 10
508.815247
 20
196.6409
 10
507.904205
 20
196.643967
 10
507.012421
 20
196.711517
 10
506.142365
 20
196.843918
 10
505.296417
 20
197.041534
 10
504.477264
 20
197.304321
 10
503.688477
 20
197.631165
 10
502.892914
 20
198.04422
  0
LWPOLYLINE
  5
2AF
330
27C
100
AcDbEntity
  8
0
  6
Continuous
 62
     0
370
     0
100
AcDbPolyline
 90
       63
 70
     0
 43
0.0
 10
659.143799
 20
326.057617
 10
658.254822
 20
325.520721
 10
657.351624
 20
324.926697
 10
656.436951
 20
324.27475
 10
655.513794
 20
323.564453
 10
654.585449
 20
322.795898
 10
653.655334
 20
321.969574
 10
652.727234
 20
321.086456
 10
651.804993
 20
320.148132
 10
650.8927
 20
319.156647
 10
649.994446
 20
318.114594
 10
649.11438
 20
317.025085
 10
648.256653
 20
315.891724
 10
647.425232
 20
314.718628
 10
646.624023
 20
313.510284
 10
645.856812
 20
312.271576
 10
645.126892
 20
311.00766
 10
644.4375
 20
309.723969
 10
643.791382
 20
308.426025
 10
643.190857
 20
307.119507
 10
642.637878
 20
305.809967
 10
642.134094
 20
304.503021
 10
641.68042
 20
303.20401
 10
641.277588
 20
301.918091
 10
640.925781
 20
300.650146
 10
640.624695
 20
299.404663
 10
640.37384
 20
298.185822
 10
640.172119
 20
296.997345
 10
640.01825
 20
295.842499
 10
639.910706
 20
294.724182
 10
639.847595
 20
293.644714
 10
639.826843
 20
292.60614
 10
639.847046
 20
291.5914
 10
639.909607
 20
290.584717
 10
640.016602
 20
289.590393
 10
640.169861
 20
288.612946
 10
640.370972
 20
287.657074
 10
640.621216
 20
286.72757
 10
640.921631
 20
285.829315
 10
641.272766
 20
284.967133
 10
641.674988
 20
284.145813
 10
642.127991
 20
283.370026
 10
642.631165
 20
282.644165
 10
643.183472
 20
281.972412
 10
643.783447
 20
281.358521
 10
644.429016
 20
280.805908
 10
645.117859
 20
280.317413
 10
645.847229
 20
279.895447
 10
646.614075
 20
279.541779
 10
647.414795
 20
279.25769
 10
648.24585
 20
279.043732
 10
649.103333
 20
278.899963
 10
649.983154
 20
278.825775
 10
650.881165
 20
278.820068
 10
651.793335
 20
278.881165
 10
652.715454
 20
279.006927
 10
653.643494
 20
279.194733
 10
654.573608
 20
279.44165
 10
655.502014
 20
279.744415
 10
656.425232
 20
280.099457
 10
657.340027
 20
280.503082
 10
658.243408
 20
280.951416
 10
659.143799
 20
281.446991
  0
LWPOLYLINE
  5
2B0
330
27C
100
AcDbEntity
  8
0
  6
Continuous
 62
     0
370
     0
100
AcDbPolyline
 90
       63
 70
     0
 43
0.0
 10
659.143799
 20
281.446991
 10
660.032776
 20
281.983887
 10
660.935974
 20
282.577911
 10
661.850586
 20
283.229858
 10
662.773743
 20
283.940155
 10
663.702148
 20
284.70871
 10
664.632263
 20
285.535034
 10
665.560364
 20
286.418152
 10
666.482544
 20
287.356476
 10
667.394836
 20
288.347961
 10
668.293091
 20
289.390015
 10
669.173218
 20
290.479523
 10
670.030945
 20
291.612885
 10
670.862366
 20
292.78598
 10
671.663574
 20
293.994324
 10
672.430786
 20
295.233032
 10
673.160706
 20
296.496948
 10
673.850098
 20
297.78064
 10
674.496216
 20
299.078583
 10
675.096741
 20
300.385101
 10
675.649658
 20
301.694641
 10
676.153503
 20
303.001587
 10
676.607178
 20
304.300598
 10
677.01001
 20
305.586517
 10
677.361816
 20
306.854462
 10
677.662842
 20
308.099945
 10
677.913757
 20
309.318787
 10
678.115479
 20
310.507263
 10
678.269348
 20
311.662109
 10
678.376892
 20
312.780426
 10
678.440002
 20
313.859894
 10
678.460754
 20
314.898468
 10
678.440552
 20
315.913208
 10
678.377991
 20
316.919891
 10
678.270996
 20
317.914215
 10
678.117737
 20
318.891663
 10
677.916626
 20
319.847534
 10
677.666382
 20
320.777039
 10
677.365967
 20
321.675293
 10
677.014771
 20
322.537476
 10
676.61261
 20
323.358795
 10
676.159607
 20
324.134583
 10
675.656433
 20
324.860443
 10
675.104065
 20
325.532196
 10
674.50415
 20
326.146088
 10
673.858582
 20
326.6987
 10
673.169739
 20
327.187195
 10
672.440308
 20
327.609161
 10
671.673523
 20
327.96283
 10
670.872742
 20
328.246918
 10
670.041687
 20
328.460876
 10
669.184265
 20
328.604645
 10
668.304443
 20
328.678833
 10
667.406372
 20
328.68454
 10
666.494263
 20
328.623444
 10
665.572144
 20
328.497681
 10
664.644104
 20
328.309875
 10
663.713989
 20
328.062958
 10
662.785583
 20
327.760193
 10
661.862305
 20
327.405151
 10
660.94751
 20
327.001526
 10
660.044189
 20
326.553192
 10
659.143799
 20
326.057617
  0
LWPOLYLINE
  5
2B1
330
27C
100
AcDbEntity
  8
0
  6
Continuous
 62
     0
370
     0
100
AcDbPolyline
 90
       16
 70
     0
 43
0.0
 10
672.563171
 20
328.624908
 10
671.80542
 20
329.0177
 10
671.011169
 20
329.342529
 10
670.182495
 20
329.598602
 10
669.321777
 20
329.785065
 10
668.431213
 20
329.901337
 10
667.513306
 20
329.947296
 10
666.570679
 20
329.922821
 10
665.605774
 20
329.82782
 10
664.621216
 20
329.662537
 10
663.619751
 20
329.427582
 10
662.604187
 20
329.123627
 10
661.577209
 20
328.751282
 10
660.541626
 20
328.311646
 10
659.500305
 20
327.806061
 10
658.438354
 20
327.225647
  0
LWPOLYLINE
  5
2B2
330
27C
100
AcDbEntity
  8
0
  6
Continuous
 62
     0
370
     0
100
AcDbPolyline
 90
       46
 70
     0
 43
0.0
 10
658.438354
 20
327.225647
 10
657.377869
 20
326.58078
 10
656.320312
 20
325.872681
 10
655.268738
 20
325.103424
 10
654.226135
 20
324.275085
 10
653.195435
 20
323.389923
 10
652.179504
 20
322.450562
 10
651.181213
 20
321.459686
 10
650.20343
 20
320.419952
 10
649.24884
 20
319.33432
 10
648.320129
 20
318.205933
 10
647.419983
 20
317.037964
 10
646.550964
 20
315.833618
 10
645.715454
 20
314.596313
 10
644.915771
 20
313.329651
 10
644.154297
 20
312.037079
 10
643.433105
 20
310.72226
 10
642.754211
 20
309.388947
 10
642.119568
 20
308.040924
 10
641.530945
 20
306.682007
 10
640.990051
 20
305.315979
 10
640.498291
 20
303.946625
 10
640.057129
 20
302.577759
 10
639.667847
 20
301.213135
 10
639.331543
 20
299.856873
 10
639.049072
 20
298.513
 10
638.82135
 20
297.18573
 10
638.649048
 20
295.878937
 10
638.532532
 20
294.595764
 10
638.471924
 20
293.339355
 10
638.46759
 20
292.112885
 10
638.519592
 20
290.919708
 10
638.627686
 20
289.763306
 10
638.791626
 20
288.647278
 10
639.011169
 20
287.575073
 10
639.285522
 20
286.549835
 10
639.613708
 20
285.574463
 10
639.994751
 20
284.651855
 10
640.427612
 20
283.78479
 10
640.911011
 20
282.975311
 10
641.443665
 20
282.225372
 10
642.024536
 20
281.536896
 10
642.652039
 20
280.911865
 10
643.324219
 20
280.35199
 10
644.039001
 20
279.8591
 10
644.796143
 20
279.434052
  0
ELLIPSE
  5
2B3
330
27C
100
AcDbEntity
  8
0
  6
Continuous
 62
     0
370
    30
100
AcDbEllipse
 10
646.723547
 20
310.923132
 30
0.0
 11
-14.1249963017515
 21
-24.46521979209481
 31
0.0
210
0.0
220
0.0
230
-1.0
 40
0.57735
 41
2.356195106829542
 42
3.141592676439951
  0
ELLIPSE
  5
2B4
330
27C
100
AcDbEntity
  8
0
  6
Continuous
 62
     0
370
    30
100
AcDbEllipse
 10
646.723547
 20
310.923132
 30
0.0
 11
-14.1249963017515
 21
-24.46521979209481
 31
0.0
210
0.0
220
0.0
230
-1.0
 40
0.57735
 41
0.0000000228501573
 42
2.356195106829542
  0
ELLIPSE
  5
2B5
330
27C
100
AcDbEntity
  8
0
  6
Continuous
 62
     0
370
    30
100
AcDbEllipse
 10
645.011135
 20
311.911793
 30
0.0
 11
-15.24999600720073
 21
-26.41377712066871
 31
0.0
210
0.0
220
0.0
230
-1.0
 40
0.57735
 41
0.2080764605722659
 42
3.141592676439953
  0
ELLIPSE
  5
2B6
330
27C
100
AcDbEntity
  8
0
  6
Continuous
 62
     0
370
    30
100
AcDbEllipse
 10
645.011135
 20
311.911793
 30
0.0
 11
-15.24999600720073
 21
-26.41377712066871
 31
0.0
210
0.0
220
0.0
230
-1.0
 40
0.57735
 41
0.0000000228501575
 42
0.2080764605722659
  0
ELLIPSE
  5
2B7
330
27C
100
AcDbEntity
  8
0
  6
Continuous
 62
     0
370
    30
100
AcDbEllipse
 10
646.142506
 20
311.258596
 30
0.0
 11
15.24999600720073
 21
26.41377712066871
 31
0.0
210
0.0
220
0.0
230
1.0
 40
0.57735
 41
5.89667323158931
 42
6.07510884660732
  0
ELLIPSE
  5
2B8
330
27C
100
AcDbEntity
  8
0
  6
Continuous
 62
     0
370
    30
100
AcDbEllipse
 10
646.142506
 20
311.258596
 30
0.0
 11
15.24999600720073
 21
26.41377712066871
 31
0.0
210
0.0
220
0.0
230
1.0
 40
0.57735
 41
2.933516193017528
 42
3.528104683479805
  0
ELLIPSE
  5
2B9
330
27C
100
AcDbEntity
  8
0
  6
Continuous
 62
     0
370
    30
100
AcDbEllipse
 10
646.142506
 20
311.258596
 30
0.0
 11
15.24999600720073
 21
26.41377712066871
 31
0.0
210
0.0
220
0.0
230
1.0
 40
0.57735
 41
6.07510884660732
 42
9.216701500197114
  0
ELLIPSE
  5
2BA
330
27C
100
AcDbEntity
  8
0
  6
Continuous
 62
     0
370
    30
100
AcDbEllipse
 10
640.909915
 20
314.279633
 30
0.0
 11
-14.72499614465776
 21
-25.50445036733422
 31
0.0
210
0.0
220
0.0
230
-1.0
 40
0.57735
 41
0.2080764605722651
 42
3.14159267643995
  0
ELLIPSE
  5
2BB
330
27C
100
AcDbEntity
  8
0
  6
Continuous
 62
     0
370
    30
100
AcDbEllipse
 10
640.909915
 20
314.279633
 30
0.0
 11
-14.72499614465776
 21
-25.50445036733422
 31
0.0
210
0.0
220
0.0
230
-1.0
 40
0.57735
 41
0.000000022850158
 42
0.2080764605722651
  0
LWPOLYLINE
  5
2BC
330
27C
100
AcDbEntity
  8
0
  6
Continuous
 62
     0
370
    30
100
AcDbPolyline
 90
       63
 70
     0
 43
0.0
 10
622.838562
 20
290.254425
 10
622.328857
 20
290.909637
 10
621.848511
 20
291.624725
 10
621.400879
 20
292.400208
 10
620.989197
 20
293.236267
 10
620.616638
 20
294.132538
 10
620.286438
 20
295.088257
 10
620.001526
 20
296.102081
 10
619.764587
 20
297.172241
 10
619.578308
 20
298.296356
 10
619.444824
 20
299.471527
 10
619.366028
 20
300.694366
 10
619.343445
 20
301.960999
 10
619.378174
 20
303.26712
 10
619.470886
 20
304.60788
 10
619.621704
 20
305.978271
 10
619.830383
 20
307.372803
 10
620.096191
 20
308.785889
 10
620.417847
 20
310.211731
 10
620.793762
 20
311.644501
 10
621.221863
 20
313.078369
 10
621.699646
 20
314.507538
 10
622.224304
 20
315.926483
 10
622.792725
 20
317.329803
 10
623.401672
 20
318.712463
 10
624.047485
 20
320.069702
 10
624.726562
 20
321.397247
 10
625.435181
 20
322.691101
 10
626.169556
 20
323.947876
 10
626.925842
 20
325.16449
 10
627.700439
 20
326.33844
 10
628.489624
 20
327.467621
 10
629.290588
 20
328.551086
 10
630.119873
 20
329.612335
 10
630.986206
 20
330.660339
 10
631.888245
 20
331.690521
 10
632.824402
 20
332.698212
 10
633.792725
 20
333.678528
 10
634.790894
 20
334.626587
 10
635.816284
 20
335.537415
 10
636.865723
 20
336.406128
 10
637.936035
 20
337.227905
 10
639.023438
 20
337.998169
 10
640.124023
 20
338.712494
 10
641.233582
 20
339.366852
 10
642.3479
 20
339.957581
 10
643.462402
 20
340.481445
 10
644.572632
 20
340.935669
 10
645.67395
 20
341.318115
 10
646.762024
 20
341.627167
 10
647.832336
 20
341.861755
 10
648.880798
 20
342.021484
 10
649.90332
 20
342.106567
 10
650.896362
 20
342.117798
 10
651.856445
 20
342.056488
 10
652.780579
 20
341.924591
 10
653.666077
 20
341.724426
 10
654.510803
 20
341.458801
 10
655.312744
 20
341.130951
 10
656.070618
 20
340.744354
 10
656.783264
 20
340.302795
 10
657.450134
 20
339.810211
 10
658.072021
 20
339.269592
  0
ARC
  5
2BD
330
27C
100
AcDbEntity
  8
0
  6
Continuous
 62
     0
370
    30
100
AcDbCircle
 10
630.833467
 20
296.841701
 30
0.0
 40
10.35909793600894
100
AcDbArc
 50
219.486167
 51
253.255848
  0
ELLIPSE
  5
2BE
330
27C
100
AcDbEntity
  8
0
  6
Continuous
 62
     0
370
    30
100
AcDbEllipse
 10
639.778543
 20
314.93283
 30
0.0
 11
-15.24999600720073
 21
-26.41377712066871
 31
0.0
210
0.0
220
0.0
230
-1.0
 40
0.57735
 41
0.208076460572265
 42
3.141592676439948
  0
ELLIPSE
  5
2BF
330
27C
100
AcDbEntity
  8
0
  6
Continuous
 62
     0
370
    30
100
AcDbEllipse
 10
639.778543
 20
314.93283
 30
0.0
 11
-15.24999600720073
 21
-26.41377712066871
 31
0.0
210
0.0
220
0.0
230
-1.0
 40
0.57735
 41
0.0000000228501569
 42
0.208076460572265
  0
LINE
  5
2C0
330
27C
100
AcDbEntity
  8
0
  6
Continuous
 62
     0
370
    30
100
AcDbLine
 10
644.313338
 20
279.694379
 30
0.0
 11
632.59855
 21
286.457912
 31
0.0
  0
LINE
  5
2C1
330
27C
100
AcDbEntity
  8
0
  6
Continuous
 62
     0
370
    30
100
AcDbLine
 10
672.563331
 20
328.624818
 30
0.0
 11
660.848544
 21
335.388351
 31
0.0
  0
LINE
  5
2C2
330
27C
100
AcDbEntity
  8
0
  6
Continuous
 62
     0
370
    30
100
AcDbLine
 10
672.563198
 20
328.624895
 30
0.0
 11
673.061813
 21
328.317311
 31
0.0
  0
LINE
  5
2C3
330
27C
100
AcDbEntity
  8
0
  6
Continuous
 62
     0
370
    30
100
AcDbLine
 10
644.314266
 20
279.693843
 30
0.0
 11
644.829728
 21
279.415942
 31
0.0
  0
LWPOLYLINE
  5
2C4
330
27C
100
AcDbEntity
  8
0
  6
Continuous
 62
     0
370
    30
100
AcDbPolyline
 90
       17
 70
     0
 43
0.0
 10
658.938232
 20
281.043976
 10
657.952698
 20
280.503021
 10
656.966614
 20
280.017914
 10
655.9823
 20
279.590088
 10
655.002014
 20
279.221008
 10
654.028015
 20
278.911682
 10
653.062378
 20
278.663055
 10
652.107178
 20
278.476044
 10
651.164551
 20
278.351562
 10
650.236572
 20
278.290527
 10
649.325562
 20
278.293579
 10
648.433777
 20
278.361145
 10
647.563721
 20
278.49353
 10
646.717773
 20
278.691162
 10
645.898621
 20
278.953949
 10
645.109863
 20
279.280792
 10
644.31427
 20
279.693848
  0
LWPOLYLINE
  5
2C5
330
27C
100
AcDbEntity
  8
0
  6
Continuous
 62
     0
370
    30
100
AcDbPolyline
 90
       47
 70
     0
 43
0.0
 10
658.938232
 20
281.043976
 10
659.960999
 20
281.664734
 10
660.979797
 20
282.343475
 10
661.991821
 20
283.078278
 10
662.994385
 20
283.867157
 10
663.984924
 20
284.707916
 10
664.961182
 20
285.598236
 10
665.920654
 20
286.535767
 10
666.861023
 20
287.51825
 10
667.779968
 20
288.543335
 10
668.675049
 20
289.608643
 10
669.544189
 20
290.711304
 10
670.385254
 20
291.848267
 10
671.196228
 20
293.01651
 10
671.975037
 20
294.212982
 10
672.719604
 20
295.434601
 10
673.427795
 20
296.678375
 10
674.097595
 20
297.941223
 10
674.727295
 20
299.219971
 10
675.315552
 20
300.511261
 10
675.860962
 20
301.811707
 10
676.362244
 20
303.117981
 10
676.818054
 20
304.426697
 10
677.22699
 20
305.734497
 10
677.587769
 20
307.038055
 10
677.899231
 20
308.334015
 10
678.160767
 20
309.619324
 10
678.371887
 20
310.890869
 10
678.532104
 20
312.14563
 10
678.640869
 20
313.380524
 10
678.697815
 20
314.592468
 10
678.702332
 20
315.778412
 10
678.653992
 20
316.935333
 10
678.552795
 20
318.060425
 10
678.398865
 20
319.151093
 10
678.192383
 20
320.204803
 10
677.933655
 20
321.218903
 10
677.622742
 20
322.190857
 10
677.259949
 20
323.118042
 10
676.845459
 20
323.997925
 10
676.379883
 20
324.827881
 10
675.864197
 20
325.605438
 10
675.299133
 20
326.328033
 10
674.685608
 20
326.993134
 10
674.025574
 20
327.598053
 10
673.322144
 20
328.139984
 10
672.563171
 20
328.624908
  0
LWPOLYLINE
  5
2C6
330
27C
100
AcDbEntity
  8
0
  6
Continuous
 62
     0
370
    30
100
AcDbPolyline
 90
       35
 70
     0
 43
0.0
 10
554.037476
 20
280.613068
 10
553.414612
 20
279.401794
 10
552.815247
 20
278.15686
 10
552.242859
 20
276.881073
 10
551.700867
 20
275.577606
 10
551.192688
 20
274.25
 10
550.721741
 20
272.902313
 10
550.291382
 20
271.53891
 10
549.904724
 20
270.16449
 10
549.564697
 20
268.784088
 10
549.274109
 20
267.402985
 10
549.035339
 20
266.026703
 10
548.850464
 20
264.660828
 10
548.721191
 20
263.311066
 10
548.648865
 20
261.983093
 10
548.634277
 20
260.682495
 10
548.677856
 20
259.414734
 10
548.779541
 20
258.184937
 10
548.938782
 20
256.998047
 10
549.154541
 20
255.858551
 10
549.425415
 20
254.770523
 10
549.749512
 20
253.737579
 10
550.124634
 20
252.762802
 10
550.548157
 20
251.848755
 10
551.017212
 20
250.997421
 10
551.528687
 20
250.210266
 10
552.079224
 20
249.488174
 10
552.665466
 20
248.831543
 10
553.283752
 20
248.240219
 10
553.930542
 20
247.713638
 10
554.602234
 20
247.250748
 10
555.295288
 20
246.850143
 10
556.006409
 20
246.51001
 10
556.748962
 20
246.222595
 10
557.544128
 20
245.983322
  0
LWPOLYLINE
  5
2C7
330
27C
100
AcDbEntity
  8
0
  6
Continuous
 62
     0
370
    30
100
AcDbPolyline
 90
       37
 70
     0
 43
0.0
 10
587.66272
 20
298.150269
 10
587.029724
 20
298.743683
 10
586.367737
 20
299.270233
 10
585.680481
 20
299.730988
 10
584.971802
 20
300.127533
 10
584.243774
 20
300.462341
 10
583.479248
 20
300.744019
 10
582.672607
 20
300.971863
 10
581.824707
 20
301.142151
 10
580.936707
 20
301.251404
 10
580.010254
 20
301.296356
 10
579.047363
 20
301.274109
 10
578.050415
 20
301.182098
 10
577.022339
 20
301.018158
 10
575.966187
 20
300.780701
 10
574.885559
 20
300.468597
 10
573.784424
 20
300.08139
 10
572.666809
 20
299.61911
 10
571.537231
 20
299.08252
 10
570.400269
 20
298.472961
 10
569.26062
 20
297.79245
 10
568.122986
 20
297.04361
 10
566.992249
 20
296.229553
 10
565.872986
 20
295.354034
 10
564.769836
 20
294.421265
 10
563.687134
 20
293.435791
 10
562.628906
 20
292.402618
 10
561.598999
 20
291.326904
 10
560.600891
 20
290.214081
 10
559.637573
 20
289.06958
 10
558.711792
 20
287.898987
 10
557.825745
 20
286.707764
 10
556.981323
 20
285.501282
 10
556.179993
 20
284.284698
 10
555.422729
 20
283.063019
 10
554.710205
 20
281.840973
 10
554.037476
 20
280.613068
  0
LWPOLYLINE
  5
2C8
330
27C
100
AcDbEntity
  8
0
  6
Continuous
 62
     0
370
    30
100
AcDbPolyline
 90
       33
 70
     0
 43
0.0
 10
554.593872
 20
280.366638
 10
555.252075
 20
281.567566
 10
555.955566
 20
282.77243
 10
556.704163
 20
283.976746
 10
557.497009
 20
285.175659
 10
558.33313
 20
286.364044
 10
559.210999
 20
287.53653
 10
560.128601
 20
288.687622
 10
561.083679
 20
289.811615
 10
562.073303
 20
290.902893
 10
563.094299
 20
291.955811
 10
564.143066
 20
292.964813
 10
565.215637
 20
293.924652
 10
566.307678
 20
294.830292
 10
567.414734
 20
295.677094
 10
568.532043
 20
296.460938
 10
569.654785
 20
297.178101
 10
570.778015
 20
297.825531
 10
571.896851
 20
298.400726
 10
573.006531
 20
298.901947
 10
574.102295
 20
299.327972
 10
575.179871
 20
299.678345
 10
576.234924
 20
299.953217
 10
577.263733
 20
300.153412
 10
578.262756
 20
300.280304
 10
579.228943
 20
300.335815
 10
580.159546
 20
300.322357
 10
581.052307
 20
300.242798
 10
581.905396
 20
300.100311
 10
582.717346
 20
299.898407
 10
583.487244
 20
299.640808
 10
584.215698
 20
299.33075
 10
584.924255
 20
298.95929
  0
LWPOLYLINE
  5
2C9
330
27C
100
AcDbEntity
  8
0
  6
Continuous
 62
     0
370
    30
100
AcDbPolyline
 90
       31
 70
     0
 43
0.0
 10
555.474243
 20
247.950394
 10
554.804321
 20
248.3741
 10
554.157471
 20
248.860687
 10
553.537354
 20
249.411392
 10
552.947571
 20
250.027023
 10
552.391846
 20
250.707932
 10
551.873596
 20
251.453934
 10
551.396362
 20
252.264374
 10
550.963379
 20
253.137985
 10
550.577576
 20
254.072968
 10
550.24176
 20
255.066925
 10
549.958374
 20
256.116913
 10
549.729309
 20
257.219452
 10
549.556274
 20
258.370575
 10
549.440308
 20
259.565826
 10
549.382263
 20
260.800323
 10
549.382141
 20
262.068939
 10
549.439819
 20
263.366211
 10
549.554504
 20
264.686462
 10
549.724915
 20
266.023987
 10
549.949524
 20
267.373016
 10
550.226135
 20
268.727814
 10
550.552429
 20
270.082825
 10
550.925659
 20
271.432617
 10
551.342896
 20
272.772064
 10
551.800964
 20
274.096375
 10
552.296509
 20
275.401031
 10
552.82605
 20
276.681946
 10
553.386108
 20
277.935486
 10
553.973206
 20
279.158386
 10
554.593872
 20
280.366638
  0
ELLIPSE
  5
2CA
330
27C
100
AcDbEntity
  8
0
  6
Continuous
 62
     0
370
    30
100
AcDbEllipse
 10
569.067879
 20
274.108037
 30
0.0
 11
15.25000000000001
 21
26.41377481542538
 31
0.0
210
0.0
220
0.0
230
1.0
 40
0.57735
 41
1.632530073728791
 42
3.141592630739638
  0
ELLIPSE
  5
2CB
330
27C
100
AcDbEntity
  8
0
  6
Continuous
 62
     0
370
    30
100
AcDbEllipse
 10
569.067879
 20
274.108037
 30
0.0
 11
15.25000000000001
 21
26.41377481542538
 31
0.0
210
0.0
220
0.0
230
1.0
 40
0.57735
 41
-0.0000000228501555
 42
1.632530073728791
  0
LWPOLYLINE
  5
2CC
330
27C
100
AcDbEntity
  8
0
  6
Continuous
 62
     0
370
    30
100
AcDbPolyline
 90
       32
 70
     0
 43
0.0
 10
558.845764
 20
277.836975
 10
558.233337
 20
276.646606
 10
557.643555
 20
275.423676
 10
557.079712
 20
274.170807
 10
556.545044
 20
272.891022
 10
556.042847
 20
271.587708
 10
555.576355
 20
270.264618
 10
555.148743
 20
268.925873
 10
554.763
 20
267.575928
 10
554.421997
 20
266.219543
 10
554.128296
 20
264.861694
 10
553.884338
 20
263.507568
 10
553.692078
 20
262.162476
 10
553.553284
 20
260.831848
 10
553.469238
 20
259.521057
 10
553.440796
 20
258.235443
 10
553.468567
 20
256.980194
 10
553.552551
 20
255.760361
 10
553.692261
 20
254.580612
 10
553.887024
 20
253.445389
 10
554.135498
 20
252.358658
 10
554.436035
 20
251.324036
 10
554.786743
 20
250.344604
 10
555.18512
 20
249.422989
 10
555.628662
 20
248.561279
 10
556.114441
 20
247.761078
 10
556.639404
 20
247.023453
 10
557.200256
 20
246.348969
 10
557.793762
 20
245.737717
 10
558.416382
 20
245.189331
 10
559.064819
 20
244.703049
 10
559.757568
 20
244.264969
  0
LWPOLYLINE
  5
2CD
330
27C
100
AcDbEntity
  8
0
  6
Continuous
 62
     0
370
    30
100
AcDbPolyline
 90
       34
 70
     0
 43
0.0
 10
590.265808
 20
297.087769
 10
589.558228
 20
297.460876
 10
588.828857
 20
297.775574
 10
588.059631
 20
298.039215
 10
587.249329
 20
298.249023
 10
586.398865
 20
298.401459
 10
585.50946
 20
298.493195
 10
584.582886
 20
298.521118
 10
583.621155
 20
298.482513
 10
582.626648
 20
298.374969
 10
581.602234
 20
298.196533
 10
580.551086
 20
297.945709
 10
579.476746
 20
297.621613
 10
578.383057
 20
297.223816
 10
577.274048
 20
296.752563
 10
576.154114
 20
296.208618
 10
575.027649
 20
295.593475
 10
573.899292
 20
294.909119
 10
572.773682
 20
294.158203
 10
571.655396
 20
293.343842
 10
570.549011
 20
292.469757
 10
569.458862
 20
291.540039
 10
568.389221
 20
290.559204
 10
567.344055
 20
289.532074
 10
566.326904
 20
288.463745
 10
565.341125
 20
287.359436
 10
564.389709
 20
286.224457
 10
563.475159
 20
285.06424
 10
562.599731
 20
283.884064
 10
561.765198
 20
282.689087
 10
560.972839
 20
281.484436
 10
560.223755
 20
280.274841
 10
559.518555
 20
279.064911
 10
558.845764
 20
277.836975
  0
ELLIPSE
  5
2CE
330
27C
100
AcDbEntity
  8
0
  6
Continuous
 62
     0
370
    30
100
AcDbEllipse
 10
576.138947
 20
270.025554
 30
0.0
 11
-15.25000000000001
 21
-26.41377481542539
 31
0.0
210
0.0
220
0.0
230
-1.0
 40
0.57735
 41
5.081355852647644
 42
7.792247887040589
  0
ELLIPSE
  5
2CF
330
27C
100
AcDbEntity
  8
0
  6
Continuous
 62
     0
370
    30
100
AcDbEllipse
 10
576.138947
 20
270.025554
 30
0.0
 11
-15.25000000000001
 21
-26.41377481542539
 31
0.0
210
0.0
220
0.0
230
-1.0
 40
0.57735
 41
1.509062579861003
 42
4.343421604684421
  0
LINE
  5
2D0
330
27C
100
AcDbEntity
  8
0
  6
Continuous
 62
     0
370
    30
100
AcDbLine
 10
585.765603
 20
298.473532
 30
0.0
 11
584.92425
 21
298.959287
 31
0.0
  0
LINE
  5
2D1
330
27C
100
AcDbEntity
  8
0
  6
Continuous
 62
     0
370
    30
100
AcDbLine
 10
556.315603
 20
247.464636
 30
0.0
 11
555.474249
 21
247.950391
 31
0.0
  0
LWPOLYLINE
  5
2D2
330
27C
100
AcDbEntity
  8
0
  6
Continuous
 62
     0
370
     0
100
AcDbPolyline
 90
       31
 70
     0
 43
0.0
 10
684.467712
 20
160.125107
 10
685.044495
 20
159.815155
 10
685.675537
 20
159.522369
 10
686.359253
 20
159.2509
 10
687.092896
 20
159.004944
 10
687.872375
 20
158.788528
 10
688.692505
 20
158.605484
 10
689.546753
 20
158.459152
 10
690.427673
 20
158.352341
 10
691.326904
 20
158.287186
 10
692.235535
 20
158.264984
 10
693.144287
 20
158.286209
 10
694.043823
 20
158.350403
 10
694.925293
 20
158.456268
 10
695.780212
 20
158.60173
 10
696.601196
 20
158.783997
 10
697.381653
 20
158.99968
 10
698.116394
 20
159.24501
 10
698.80127
 20
159.515945
 10
699.433533
 20
159.808289
 10
700.011597
 20
160.117905
 10
700.549011
 20
160.450195
 10
701.056885
 20
160.813828
 10
701.528015
 20
161.207901
 10
701.955139
 20
161.630829
 10
702.331177
 20
162.080307
 10
702.649597
 20
162.553284
 10
702.904602
 20
163.046097
 10
703.091187
 20
163.554398
 10
703.205688
 20
164.073395
 10
703.245911
 20
164.615845
  0
ARC
  5
2D3
330
27C
100
AcDbEntity
  8
0
  6
Continuous
 62
     0
370
     0
100
AcDbCircle
 10
686.758826
 20
165.169939
 30
0.0
 40
5.540713049378744
100
AcDbArc
 50
185.739454
 51
245.574805
  0
ARC
  5
2D4
330
27C
100
AcDbEntity
  8
0
  6
Continuous
 62
     0
370
     0
100
AcDbCircle
 10
656.748202
 20
217.149864
 30
0.0
 40
5.540713274845821
100
AcDbArc
 50
174.425196
 51
234.26054
  0
LWPOLYLINE
  5
2D5
330
27C
100
AcDbEntity
  8
0
  6
Continuous
 62
     0
370
     0
100
AcDbPolyline
 90
       31
 70
     0
 43
0.0
 10
664.511902
 20
231.705124
 10
664.038757
 20
231.934875
 10
663.53302
 20
232.097504
 10
663.000366
 20
232.192368
 10
662.446655
 20
232.22023
 10
661.878235
 20
232.183121
 10
661.301147
 20
232.084213
 10
660.721313
 20
231.927673
 10
660.144287
 20
231.71843
 10
659.575073
 20
231.461914
 10
659.018127
 20
231.16391
 10
658.461487
 20
230.820023
 10
657.892517
 20
230.420547
 10
657.315613
 20
229.964783
 10
656.735779
 20
229.453064
 10
656.158569
 20
228.88681
 10
655.589844
 20
228.268677
 10
655.035767
 20
227.602554
 10
654.502563
 20
226.893509
 10
653.996155
 20
226.14769
 10
653.522217
 20
225.372192
 10
653.085754
 20
224.574799
 10
652.691101
 20
223.763763
 10
652.341553
 20
222.947479
 10
652.03949
 20
222.134262
 10
651.786316
 20
221.332016
 10
651.582275
 20
220.548004
 10
651.426819
 20
219.788742
 10
651.318481
 20
219.059753
 10
651.255066
 20
218.365601
 10
651.233704
 20
217.688126
  0
ELLIPSE
  5
2D6
330
27C
100
AcDbEntity
  8
0
  6
Continuous
 62
     0
370
    30
100
AcDbEllipse
 10
692.245889
 20
160.533357
 30
0.0
 11
-11.0
 21
0.0
 31
0.0
210
0.0
220
0.0
230
1.0
 40
0.57735
 41
0.7853981633974483
 42
3.141592644950108
  0
ELLIPSE
  5
2D7
330
27C
100
AcDbEntity
  8
0
  6
Continuous
 62
     0
370
    30
100
AcDbEllipse
 10
692.245889
 20
160.533357
 30
0.0
 11
-11.0
 21
0.0
 31
0.0
210
0.0
220
0.0
230
1.0
 40
0.57735
 41
-0.0000000086396854
 42
0.7853981633974483
  0
LINE
  5
2D8
330
27C
100
AcDbEntity
  8
0
  6
Continuous
 62
     0
370
     0
100
AcDbLine
 10
651.233695
 20
217.688118
 30
0.0
 11
569.951762
 21
264.616264
 31
0.0
  0
LINE
  5
2D9
330
27C
100
AcDbEntity
  8
0
  6
Continuous
 62
     0
370
    30
100
AcDbLine
 10
572.229959
 20
259.580841
 30
0.0
 11
653.511961
 21
212.652614
 31
0.0
  0
LINE
  5
2DA
330
27C
100
AcDbEntity
  8
0
  6
Continuous
 62
     0
370
    30
100
AcDbLine
 10
664.511742
 20
231.705092
 30
0.0
 11
583.229983
 21
278.633134
 31
0.0
  0
LINE
  5
2DB
330
27C
100
AcDbEntity
  8
0
  6
Continuous
 62
     0
370
    30
100
AcDbLine
 10
703.245889
 20
160.533357
 30
0.0
 11
703.245889
 21
164.61584
 31
0.0
  0
LINE
  5
2DC
330
27C
100
AcDbEntity
  8
0
  6
Continuous
 62
     0
370
    30
100
AcDbLine
 10
681.245889
 20
160.533357
 30
0.0
 11
681.245889
 21
164.61584
 31
0.0
  0
LWPOLYLINE
  5
2DD
330
27C
100
AcDbEntity
  8
0
  6
Continuous
 62
     0
370
    30
100
AcDbPolyline
 90
       37
 70
     0
 43
0.0
 10
703.245911
 20
164.615845
 10
703.208252
 20
166.672729
 10
703.096008
 20
168.753479
 10
702.910217
 20
170.855072
 10
702.651733
 20
172.974503
 10
702.321716
 20
175.108963
 10
701.921021
 20
177.255722
 10
701.450806
 20
179.412003
 10
700.911926
 20
181.575043
 10
700.305664
 20
183.741776
 10
699.633362
 20
185.908905
 10
698.89624
 20
188.07312
 10
698.095703
 20
190.23114
 10
697.232971
 20
192.379654
 10
696.30957
 20
194.51535
 10
695.327148
 20
196.634811
 10
694.287537
 20
198.734619
 10
693.192444
 20
200.811356
 10
692.043701
 20
202.861603
 10
690.843079
 20
204.881912
 10
689.592468
 20
206.868958
 10
688.294128
 20
208.819534
 10
686.950073
 20
210.730423
 10
685.562622
 20
212.59845
 10
684.13385
 20
214.420425
 10
682.665955
 20
216.193146
 10
681.161011
 20
217.913773
 10
679.621033
 20
219.579758
 10
678.048096
 20
221.188522
 10
676.444153
 20
222.737518
 10
674.811279
 20
224.224182
 10
673.151428
 20
225.645966
 10
671.46698
 20
227.000412
 10
669.760193
 20
228.285034
 10
668.033325
 20
229.497391
 10
666.288696
 20
230.63501
 10
664.511841
 20
231.705124
  0
LWPOLYLINE
  5
2DE
330
27C
100
AcDbEntity
  8
0
  6
Continuous
 62
     0
370
    30
100
AcDbPolyline
 90
       35
 70
     0
 43
0.0
 10
681.245911
 20
164.615845
 10
681.217896
 20
165.999588
 10
681.133118
 20
167.438202
 10
680.990051
 20
168.925293
 10
680.787842
 20
170.454773
 10
680.526245
 20
172.021225
 10
680.205322
 20
173.619339
 10
679.825073
 20
175.243851
 10
679.385742
 20
176.889557
 10
678.88855
 20
178.55159
 10
678.334717
 20
180.225143
 10
677.725464
 20
181.90538
 10
677.062012
 20
183.587494
 10
676.345825
 20
185.266693
 10
675.578552
 20
186.938477
 10
674.762085
 20
188.598465
 10
673.898499
 20
190.242249
 10
672.989624
 20
191.865463
 10
672.037476
 20
193.46373
 10
671.044434
 20
195.032898
 10
670.013672
 20
196.56929
 10
668.948364
 20
198.069229
 10
667.851868
 20
199.529083
 10
666.727356
 20
200.94519
 10
665.578064
 20
202.313873
 10
664.407288
 20
203.631516
 10
663.218262
 20
204.89444
 10
662.01416
 20
206.098984
 10
660.798401
 20
207.241547
 10
659.575012
 20
208.319122
 10
658.34906
 20
209.329254
 10
657.125366
 20
210.269485
 10
655.908936
 20
211.13736
 10
654.705383
 20
211.930679
 10
653.511841
 20
212.652573
  0
LINE
  5
2DF
330
27C
100
AcDbEntity
  8
0
  6
Continuous
 62
     0
370
    30
100
AcDbLine
 10
572.056202
 20
251.574475
 30
0.0
 11
572.056202
 21
250.417502
 31
0.0
  0
LINE
  5
2E0
330
27C
100
AcDbEntity
  8
0
  6
Continuous
 62
     0
370
    30
100
AcDbLine
 10
572.056202
 20
250.417502
 30
0.0
 11
572.128013
 21
250.122465
 31
0.0
  0
ARC
  5
2E1
330
27C
100
AcDbEntity
  8
0
  6
Continuous
 62
     0
370
    30
100
AcDbCircle
 10
572.259955
 20
250.798457
 30
0.0
 40
0.6887479472466596
100
AcDbArc
 50
258.955745
 51
11.444282
  0
LINE
  5
2E2
330
27C
100
AcDbEntity
  8
0
  6
Continuous
 62
     0
370
    30
100
AcDbLine
 10
572.935009
 20
250.935115
 30
0.0
 11
572.935009
 21
252.081854
 31
0.0
  0
LINE
  5
2E3
330
27C
100
AcDbEntity
  8
0
  6
Continuous
 62
     0
370
    30
100
AcDbLine
 10
572.935009
 20
252.081854
 30
0.0
 11
573.152463
 21
252.207401
 31
0.0
  0
LINE
  5
2E4
330
27C
100
AcDbEntity
  8
0
  6
Continuous
 62
     0
370
    30
100
AcDbLine
 10
573.152463
 20
252.207401
 30
0.0
 11
573.152463
 21
251.055545
 31
0.0
  0
LINE
  5
2E5
330
27C
100
AcDbEntity
  8
0
  6
Continuous
 62
     0
370
    30
100
AcDbLine
 10
573.152463
 20
251.055545
 30
0.0
 11
573.020114
 21
250.481912
 31
0.0
  0
ARC
  5
2E6
330
27C
100
AcDbEntity
  8
0
  6
Continuous
 62
     0
370
    30
100
AcDbCircle
 10
572.163904
 20
250.756567
 30
0.0
 40
0.899183154959206
100
AcDbArc
 50
254.675574
 51
342.214769
  0
LINE
  5
2E7
330
27C
100
AcDbEntity
  8
0
  6
Continuous
 62
     0
370
    30
100
AcDbLine
 10
571.926264
 20
249.889355
 30
0.0
 11
571.832102
 21
250.306177
 31
0.0
  0
LINE
  5
2E8
330
27C
100
AcDbEntity
  8
0
  6
Continuous
 62
     0
370
    30
100
AcDbLine
 10
571.832102
 20
250.306177
 30
0.0
 11
571.832102
 21
251.44509
 31
0.0
  0
LINE
  5
2E9
330
27C
100
AcDbEntity
  8
0
  6
Continuous
 62
     0
370
    30
100
AcDbLine
 10
571.832102
 20
251.44509
 30
0.0
 11
572.056202
 21
251.574475
 31
0.0
  0
LINE
  5
2EA
330
27C
100
AcDbEntity
  8
0
  6
Continuous
 62
     0
370
    30
100
AcDbLine
 10
570.464432
 20
249.045365
 30
0.0
 11
570.464432
 21
248.786371
 31
0.0
  0
LINE
  5
2EB
330
27C
100
AcDbEntity
  8
0
  6
Continuous
 62
     0
370
    30
100
AcDbLine
 10
570.464432
 20
248.786371
 30
0.0
 11
571.681702
 21
249.489162
 31
0.0
  0
LINE
  5
2EC
330
27C
100
AcDbEntity
  8
0
  6
Continuous
 62
     0
370
    30
100
AcDbLine
 10
571.681702
 20
249.489162
 30
0.0
 11
571.681702
 21
249.717156
 31
0.0
  0
LINE
  5
2ED
330
27C
100
AcDbEntity
  8
0
  6
Continuous
 62
     0
370
    30
100
AcDbLine
 10
571.681702
 20
249.717156
 30
0.0
 11
570.722222
 21
249.1632
 31
0.0
  0
LINE
  5
2EE
330
27C
100
AcDbEntity
  8
0
  6
Continuous
 62
     0
370
    30
100
AcDbLine
 10
570.722222
 20
249.1632
 30
0.0
 11
571.665933
 21
251.092867
 31
0.0
  0
LINE
  5
2EF
330
27C
100
AcDbEntity
  8
0
  6
Continuous
 62
     0
370
    30
100
AcDbLine
 10
571.665933
 20
251.092867
 30
0.0
 11
571.665933
 21
251.349152
 31
0.0
  0
LINE
  5
2F0
330
27C
100
AcDbEntity
  8
0
  6
Continuous
 62
     0
370
    30
100
AcDbLine
 10
571.665933
 20
251.349152
 30
0.0
 11
570.489064
 21
250.669687
 31
0.0
  0
LINE
  5
2F1
330
27C
100
AcDbEntity
  8
0
  6
Continuous
 62
     0
370
    30
100
AcDbLine
 10
570.489064
 20
250.669687
 30
0.0
 11
570.489064
 21
250.441844
 31
0.0
  0
LINE
  5
2F2
330
27C
100
AcDbEntity
  8
0
  6
Continuous
 62
     0
370
    30
100
AcDbLine
 10
570.489064
 20
250.441844
 30
0.0
 11
571.399215
 21
250.96732
 31
0.0
  0
LINE
  5
2F3
330
27C
100
AcDbEntity
  8
0
  6
Continuous
 62
     0
370
    30
100
AcDbLine
 10
571.399215
 20
250.96732
 30
0.0
 11
570.464432
 21
249.045365
 31
0.0
  0
LWPOLYLINE
  5
2F4
330
27C
100
AcDbEntity
  8
0
  6
Continuous
 62
     0
370
    30
100
AcDbPolyline
 90
       23
 70
     0
 43
0.0
 10
574.353516
 20
252.396072
 10
574.3479
 20
252.42984
 10
574.335693
 20
252.475052
 10
574.312683
 20
252.521957
 10
574.274597
 20
252.560776
 10
574.217224
 20
252.581741
 10
574.136353
 20
252.575073
 10
574.003784
 20
252.517715
 10
573.836792
 20
252.386902
 10
573.714783
 20
252.223999
 10
573.631165
 20
252.041275
 10
573.579285
 20
251.851044
 10
573.552551
 20
251.665543
 10
573.54425
 20
251.480988
 10
573.550049
 20
251.334137
 10
573.569763
 20
251.198853
 10
573.606628
 20
251.084045
 10
573.664062
 20
250.998596
 10
573.745361
 20
250.951447
 10
573.853821
 20
250.951477
 10
574.001526
 20
251.012573
 10
574.13385
 20
251.109879
 10
574.263794
 20
251.275192
  0
LINE
  5
2F5
330
27C
100
AcDbEntity
  8
0
  6
Continuous
 62
     0
370
    30
100
AcDbLine
 10
574.263776
 20
251.275186
 30
0.0
 11
574.342299
 21
251.517213
 31
0.0
  0
LINE
  5
2F6
330
27C
100
AcDbEntity
  8
0
  6
Continuous
 62
     0
370
    30
100
AcDbLine
 10
574.342299
 20
251.517213
 30
0.0
 11
574.588816
 21
251.65954
 31
0.0
  0
LWPOLYLINE
  5
2F7
330
27C
100
AcDbEntity
  8
0
  6
Continuous
 62
     0
370
    30
100
AcDbPolyline
 90
       29
 70
     0
 43
0.0
 10
574.588806
 20
251.659546
 10
574.542114
 20
251.442978
 10
574.449036
 20
251.245163
 10
574.321533
 20
251.070282
 10
574.17157
 20
250.922562
 10
573.983643
 20
250.789886
 10
573.811951
 20
250.710754
 10
573.670776
 20
250.685013
 10
573.557434
 20
250.704681
 10
573.469055
 20
250.761765
 10
573.402893
 20
250.848312
 10
573.35614
 20
250.956299
 10
573.32605
 20
251.077759
 10
573.309692
 20
251.204697
 10
573.304382
 20
251.339783
 10
573.313049
 20
251.519806
 10
573.342529
 20
251.721817
 10
573.397949
 20
251.935837
 10
573.484558
 20
252.151855
 10
573.607483
 20
252.359924
 10
573.771851
 20
252.550034
 10
574.012756
 20
252.72998
 10
574.113831
 20
252.781418
 10
574.219543
 20
252.819412
 10
574.323547
 20
252.83667
 10
574.41925
 20
252.825867
 10
574.500183
 20
252.779739
 10
574.559875
 20
252.690948
 10
574.593323
 20
252.534531
  0
LINE
  5
2F8
330
27C
100
AcDbEntity
  8
0
  6
Continuous
 62
     0
370
    30
100
AcDbLine
 10
574.593313
 20
252.53453
 30
0.0
 11
574.353508
 21
252.396079
 31
0.0
  0
LWPOLYLINE
  5
2F9
330
27C
100
AcDbEntity
  8
0
  6
Continuous
 62
     0
370
    30
100
AcDbPolyline
 90
       23
 70
     0
 43
0.0
 10
575.759033
 20
253.207565
 10
575.753418
 20
253.241318
 10
575.74115
 20
253.28653
 10
575.71814
 20
253.33342
 10
575.680115
 20
253.372238
 10
575.622742
 20
253.393204
 10
575.54187
 20
253.386551
 10
575.409302
 20
253.329193
 10
575.24231
 20
253.19838
 10
575.1203
 20
253.035477
 10
575.036682
 20
252.852768
 10
574.984802
 20
252.662521
 10
574.958069
 20
252.477036
 10
574.949768
 20
252.292465
 10
574.955566
 20
252.145615
 10
574.975281
 20
252.010345
 10
575.012146
 20
251.895523
 10
575.06958
 20
251.810089
 10
575.150879
 20
251.762924
 10
575.259338
 20
251.762955
 10
575.407104
 20
251.824066
 10
575.539368
 20
251.921356
 10
575.669312
 20
252.08667
  0
LINE
  5
2FA
330
27C
100
AcDbEntity
  8
0
  6
Continuous
 62
     0
370
    30
100
AcDbLine
 10
575.669307
 20
252.08667
 30
0.0
 11
575.74783
 21
252.328697
 31
0.0
  0
LINE
  5
2FB
330
27C
100
AcDbEntity
  8
0
  6
Continuous
 62
     0
370
    30
100
AcDbLine
 10
575.74783
 20
252.328697
 30
0.0
 11
575.994412
 21
252.471061
 31
0.0
  0
LWPOLYLINE
  5
2FC
330
27C
100
AcDbEntity
  8
0
  6
Continuous
 62
     0
370
    30
100
AcDbPolyline
 90
       29
 70
     0
 43
0.0
 10
575.994385
 20
252.471054
 10
575.947693
 20
252.254486
 10
575.854553
 20
252.056656
 10
575.727051
 20
251.881775
 10
575.577087
 20
251.734055
 10
575.389099
 20
251.601334
 10
575.217407
 20
251.522202
 10
575.076294
 20
251.49646
 10
574.962952
 20
251.516129
 10
574.874573
 20
251.573227
 10
574.808411
 20
251.659775
 10
574.761658
 20
251.767776
 10
574.731567
 20
251.889236
 10
574.71521
 20
252.01619
 10
574.7099
 20
252.15126
 10
574.718567
 20
252.331299
 10
574.748047
 20
252.533295
 10
574.803467
 20
252.747314
 10
574.890076
 20
252.963333
 10
575.013
 20
253.171402
 10
575.177368
 20
253.361511
 10
575.418274
 20
253.541458
 10
575.519348
 20
253.592911
 10
575.625122
 20
253.630905
 10
575.729065
 20
253.648148
 10
575.824768
 20
253.63736
 10
575.905701
 20
253.591217
 10
575.965393
 20
253.502426
 10
575.99884
 20
253.346008
  0
LINE
  5
2FD
330
27C
100
AcDbEntity
  8
0
  6
Continuous
 62
     0
370
    30
100
AcDbLine
 10
575.998843
 20
253.346014
 30
0.0
 11
575.759038
 21
253.207562
 31
0.0
  0
LINE
  5
2FE
330
27C
100
AcDbEntity
  8
0
  6
Continuous
 62
     0
370
    30
100
AcDbLine
 10
576.368651
 20
254.064268
 30
0.0
 11
576.144486
 21
253.934846
 31
0.0
  0
LINE
  5
2FF
330
27C
100
AcDbEntity
  8
0
  6
Continuous
 62
     0
370
    30
100
AcDbLine
 10
576.144486
 20
253.934846
 30
0.0
 11
576.144486
 21
252.065902
 31
0.0
  0
LINE
  5
300
330
27C
100
AcDbEntity
  8
0
  6
Continuous
 62
     0
370
    30
100
AcDbLine
 10
576.144486
 20
252.065902
 30
0.0
 11
576.368651
 21
252.195324
 31
0.0
  0
LINE
  5
301
330
27C
100
AcDbEntity
  8
0
  6
Continuous
 62
     0
370
    30
100
AcDbLine
 10
576.368651
 20
252.195324
 30
0.0
 11
576.368651
 21
253.039276
 31
0.0
  0
LINE
  5
302
330
27C
100
AcDbEntity
  8
0
  6
Continuous
 62
     0
370
    30
100
AcDbLine
 10
576.368651
 20
253.039276
 30
0.0
 11
577.137591
 21
253.483224
 31
0.0
  0
LINE
  5
303
330
27C
100
AcDbEntity
  8
0
  6
Continuous
 62
     0
370
    30
100
AcDbLine
 10
577.137591
 20
253.483224
 30
0.0
 11
577.137591
 21
252.639272
 31
0.0
  0
LINE
  5
304
330
27C
100
AcDbEntity
  8
0
  6
Continuous
 62
     0
370
    30
100
AcDbLine
 10
577.137591
 20
252.639272
 30
0.0
 11
577.361691
 21
252.768656
 31
0.0
  0
LINE
  5
305
330
27C
100
AcDbEntity
  8
0
  6
Continuous
 62
     0
370
    30
100
AcDbLine
 10
577.361691
 20
252.768656
 30
0.0
 11
577.361691
 21
254.6376
 31
0.0
  0
LINE
  5
306
330
27C
100
AcDbEntity
  8
0
  6
Continuous
 62
     0
370
    30
100
AcDbLine
 10
577.361691
 20
254.6376
 30
0.0
 11
577.137591
 21
254.508216
 31
0.0
  0
LINE
  5
307
330
27C
100
AcDbEntity
  8
0
  6
Continuous
 62
     0
370
    30
100
AcDbLine
 10
577.137591
 20
254.508216
 30
0.0
 11
577.137591
 21
253.705799
 31
0.0
  0
LINE
  5
308
330
27C
100
AcDbEntity
  8
0
  6
Continuous
 62
     0
370
    30
100
AcDbLine
 10
577.137591
 20
253.705799
 30
0.0
 11
576.368651
 21
253.261852
 31
0.0
  0
LINE
  5
309
330
27C
100
AcDbEntity
  8
0
  6
Continuous
 62
     0
370
    30
100
AcDbLine
 10
576.368651
 20
253.261852
 30
0.0
 11
576.368651
 21
254.064268
 31
0.0
  0
LINE
  5
30A
330
27C
100
AcDbEntity
  8
0
  6
Continuous
 62
     0
370
    30
100
AcDbLine
 10
577.556728
 20
254.750205
 30
0.0
 11
577.556728
 21
252.881261
 31
0.0
  0
LINE
  5
30B
330
27C
100
AcDbEntity
  8
0
  6
Continuous
 62
     0
370
    30
100
AcDbLine
 10
577.556728
 20
252.881261
 30
0.0
 11
578.590105
 21
253.477881
 31
0.0
  0
LINE
  5
30C
330
27C
100
AcDbEntity
  8
0
  6
Continuous
 62
     0
370
    30
100
AcDbLine
 10
578.590105
 20
253.477881
 30
0.0
 11
578.590105
 21
253.705724
 31
0.0
  0
LINE
  5
30D
330
27C
100
AcDbEntity
  8
0
  6
Continuous
 62
     0
370
    30
100
AcDbLine
 10
578.590105
 20
253.705724
 30
0.0
 11
577.780894
 21
253.238526
 31
0.0
  0
LINE
  5
30E
330
27C
100
AcDbEntity
  8
0
  6
Continuous
 62
     0
370
    30
100
AcDbLine
 10
577.780894
 20
253.238526
 30
0.0
 11
577.780894
 21
253.854635
 31
0.0
  0
LINE
  5
30F
330
27C
100
AcDbEntity
  8
0
  6
Continuous
 62
     0
370
    30
100
AcDbLine
 10
577.780894
 20
253.854635
 30
0.0
 11
578.534129
 21
254.289515
 31
0.0
  0
LINE
  5
310
330
27C
100
AcDbEntity
  8
0
  6
Continuous
 62
     0
370
    30
100
AcDbLine
 10
578.534129
 20
254.289515
 30
0.0
 11
578.534129
 21
254.512091
 31
0.0
  0
LINE
  5
311
330
27C
100
AcDbEntity
  8
0
  6
Continuous
 62
     0
370
    30
100
AcDbLine
 10
578.534129
 20
254.512091
 30
0.0
 11
577.780894
 21
254.07721
 31
0.0
  0
LINE
  5
312
330
27C
100
AcDbEntity
  8
0
  6
Continuous
 62
     0
370
    30
100
AcDbLine
 10
577.780894
 20
254.07721
 30
0.0
 11
577.780894
 21
254.651634
 31
0.0
  0
LINE
  5
313
330
27C
100
AcDbEntity
  8
0
  6
Continuous
 62
     0
370
    30
100
AcDbLine
 10
577.780894
 20
254.651634
 30
0.0
 11
579.25589
 21
255.503223
 31
0.0
  0
LINE
  5
314
330
27C
100
AcDbEntity
  8
0
  6
Continuous
 62
     0
370
    30
100
AcDbLine
 10
579.25589
 20
255.503223
 30
0.0
 11
579.25589
 21
253.862272
 31
0.0
  0
LINE
  5
315
330
27C
100
AcDbEntity
  8
0
  6
Continuous
 62
     0
370
    30
100
AcDbLine
 10
579.25589
 20
253.862272
 30
0.0
 11
579.477709
 21
253.99034
 31
0.0
  0
LINE
  5
316
330
27C
100
AcDbEntity
  8
0
  6
Continuous
 62
     0
370
    30
100
AcDbLine
 10
579.477709
 20
253.99034
 30
0.0
 11
579.477709
 21
255.396346
 31
0.0
  0
LINE
  5
317
330
27C
100
AcDbEntity
  8
0
  6
Continuous
 62
     0
370
    30
100
AcDbLine
 10
580.250103
 20
254.950404
 30
0.0
 11
580.250103
 21
254.436281
 31
0.0
  0
LINE
  5
318
330
27C
100
AcDbEntity
  8
0
  6
Continuous
 62
     0
370
    30
100
AcDbLine
 10
580.250103
 20
254.436281
 30
0.0
 11
580.471988
 21
254.564387
 31
0.0
  0
LINE
  5
319
330
27C
100
AcDbEntity
  8
0
  6
Continuous
 62
     0
370
    30
100
AcDbLine
 10
580.471988
 20
254.564387
 30
0.0
 11
580.471988
 21
254.822299
 31
0.0
  0
LINE
  5
31A
330
27C
100
AcDbEntity
  8
0
  6
Continuous
 62
     0
370
    30
100
AcDbLine
 10
579.076794
 20
255.627815
 30
0.0
 11
577.556728
 21
254.750205
 31
0.0
  0
LINE
  5
31B
330
27C
100
AcDbEntity
  8
0
  6
Continuous
 62
     0
370
    30
100
AcDbLine
 10
662.149871
 20
303.004835
 30
0.0
 11
662.272955
 21
302.668054
 31
0.0
  0
LINE
  5
31C
330
27C
100
AcDbEntity
  8
0
  6
Continuous
 62
     0
370
    30
100
AcDbLine
 10
662.272955
 20
302.668054
 30
0.0
 11
662.683667
 21
302.796023
 31
0.0
  0
LINE
  5
31D
330
27C
100
AcDbEntity
  8
0
  6
Continuous
 62
     0
370
    30
100
AcDbLine
 10
662.683667
 20
302.796023
 30
0.0
 11
663.014922
 21
302.991469
 31
0.0
  0
LINE
  5
31E
330
27C
100
AcDbEntity
  8
0
  6
Continuous
 62
     0
370
    30
100
AcDbLine
 10
663.014922
 20
302.991469
 30
0.0
 11
663.360935
 21
303.259406
 31
0.0
  0
LINE
  5
31F
330
27C
100
AcDbEntity
  8
0
  6
Continuous
 62
     0
370
    30
100
AcDbLine
 10
663.360935
 20
303.259406
 30
0.0
 11
663.566983
 21
303.575747
 31
0.0
  0
LINE
  5
320
330
27C
100
AcDbEntity
  8
0
  6
Continuous
 62
     0
370
    30
100
AcDbLine
 10
663.566983
 20
303.575747
 30
0.0
 11
663.721932
 21
304.037167
 31
0.0
  0
LINE
  5
321
330
27C
100
AcDbEntity
  8
0
  6
Continuous
 62
     0
370
    30
100
AcDbLine
 10
663.766203
 20
304.063455
 30
0.0
 11
663.616333
 21
303.209166
 31
0.0
  0
LINE
  5
322
330
27C
100
AcDbEntity
  8
0
  6
Continuous
 62
     0
370
    30
100
AcDbLine
 10
663.616333
 20
303.209166
 30
0.0
 11
661.313814
 21
301.854336
 31
0.0
  0
LINE
  5
323
330
27C
100
AcDbEntity
  8
0
  6
Continuous
 62
     0
370
    30
100
AcDbLine
 10
661.367155
 20
301.934796
 30
0.0
 11
661.620864
 21
302.213899
 31
0.0
  0
LINE
  5
324
330
27C
100
AcDbEntity
  8
0
  6
Continuous
 62
     0
370
    30
100
AcDbLine
 10
661.620864
 20
302.213899
 30
0.0
 11
661.733434
 21
302.646859
 31
0.0
  0
LINE
  5
325
330
27C
100
AcDbEntity
  8
0
  6
Continuous
 62
     0
370
    30
100
AcDbLine
 10
661.733434
 20
302.646859
 30
0.0
 11
661.734609
 21
306.090801
 31
0.0
  0
LINE
  5
326
330
27C
100
AcDbEntity
  8
0
  6
Continuous
 62
     0
370
    30
100
AcDbLine
 10
661.734609
 20
306.090801
 30
0.0
 11
661.609143
 21
306.414915
 31
0.0
  0
LINE
  5
327
330
27C
100
AcDbEntity
  8
0
  6
Continuous
 62
     0
370
    30
100
AcDbLine
 10
661.609143
 20
306.414915
 30
0.0
 11
661.315608
 21
306.356474
 31
0.0
  0
LINE
  5
328
330
27C
100
AcDbEntity
  8
0
  6
Continuous
 62
     0
370
    30
100
AcDbLine
 10
661.315266
 20
306.417161
 30
0.0
 11
662.562945
 21
307.148544
 31
0.0
  0
LINE
  5
329
330
27C
100
AcDbEntity
  8
0
  6
Continuous
 62
     0
370
    30
100
AcDbLine
 10
662.563287
 20
307.087858
 30
0.0
 11
662.274737
 21
306.808347
 31
0.0
  0
LINE
  5
32A
330
27C
100
AcDbEntity
  8
0
  6
Continuous
 62
     0
370
    30
100
AcDbLine
 10
662.274737
 20
306.808347
 30
0.0
 11
662.150502
 21
306.334595
 31
0.0
  0
LINE
  5
32B
330
27C
100
AcDbEntity
  8
0
  6
Continuous
 62
     0
370
    30
100
AcDbLine
 10
662.150502
 20
306.334595
 30
0.0
 11
662.149871
 21
303.004835
 31
0.0
  0
LINE
  5
32C
330
27C
100
AcDbEntity
  8
0
  6
Continuous
 62
     0
370
    30
100
AcDbLine
 10
665.481632
 20
304.881202
 30
0.0
 11
665.482745
 21
308.316539
 31
0.0
  0
LINE
  5
32D
330
27C
100
AcDbEntity
  8
0
  6
Continuous
 62
     0
370
    30
100
AcDbLine
 10
665.482745
 20
308.316539
 30
0.0
 11
665.43629
 21
308.563073
 31
0.0
  0
LINE
  5
32E
330
27C
100
AcDbEntity
  8
0
  6
Continuous
 62
     0
370
    30
100
AcDbLine
 10
665.43629
 20
308.563073
 30
0.0
 11
665.320657
 21
308.646013
 31
0.0
  0
LINE
  5
32F
330
27C
100
AcDbEntity
  8
0
  6
Continuous
 62
     0
370
    30
100
AcDbLine
 10
665.320657
 20
308.646013
 30
0.0
 11
665.156562
 21
308.595594
 31
0.0
  0
LINE
  5
330
330
27C
100
AcDbEntity
  8
0
  6
Continuous
 62
     0
370
    30
100
AcDbLine
 10
665.156562
 20
308.595594
 30
0.0
 11
665.069568
 21
308.543426
 31
0.0
  0
LINE
  5
331
330
27C
100
AcDbEntity
  8
0
  6
Continuous
 62
     0
370
    30
100
AcDbLine
 10
665.069568
 20
308.543426
 30
0.0
 11
665.068806
 21
308.678443
 31
0.0
  0
LINE
  5
332
330
27C
100
AcDbEntity
  8
0
  6
Continuous
 62
     0
370
    30
100
AcDbLine
 10
665.068806
 20
308.678443
 30
0.0
 11
666.57428
 21
309.585895
 31
0.0
  0
LINE
  5
333
330
27C
100
AcDbEntity
  8
0
  6
Continuous
 62
     0
370
    30
100
AcDbLine
 10
666.57428
 20
309.585895
 30
0.0
 11
667.14785
 21
309.86922
 31
0.0
  0
LINE
  5
334
330
27C
100
AcDbEntity
  8
0
  6
Continuous
 62
     0
370
    30
100
AcDbLine
 10
667.14785
 20
309.86922
 30
0.0
 11
667.619526
 21
309.984672
 31
0.0
  0
LINE
  5
335
330
27C
100
AcDbEntity
  8
0
  6
Continuous
 62
     0
370
    30
100
AcDbLine
 10
667.619526
 20
309.984672
 30
0.0
 11
667.98027
 21
309.969729
 31
0.0
  0
LINE
  5
336
330
27C
100
AcDbEntity
  8
0
  6
Continuous
 62
     0
370
    30
100
AcDbLine
 10
667.98027
 20
309.969729
 30
0.0
 11
668.23865
 21
309.866772
 31
0.0
  0
LINE
  5
337
330
27C
100
AcDbEntity
  8
0
  6
Continuous
 62
     0
370
    30
100
AcDbLine
 10
668.23865
 20
309.866772
 30
0.0
 11
668.549118
 21
309.566583
 31
0.0
  0
LINE
  5
338
330
27C
100
AcDbEntity
  8
0
  6
Continuous
 62
     0
370
    30
100
AcDbLine
 10
668.549118
 20
309.566583
 30
0.0
 11
668.741003
 21
309.114979
 31
0.0
  0
LINE
  5
339
330
27C
100
AcDbEntity
  8
0
  6
Continuous
 62
     0
370
    30
100
AcDbLine
 10
668.741003
 20
309.114979
 30
0.0
 11
668.804702
 21
308.539035
 31
0.0
  0
LINE
  5
33A
330
27C
100
AcDbEntity
  8
0
  6
Continuous
 62
     0
370
    30
100
AcDbLine
 10
668.804702
 20
308.539035
 30
0.0
 11
668.741233
 21
307.89653
 31
0.0
  0
LINE
  5
33B
330
27C
100
AcDbEntity
  8
0
  6
Continuous
 62
     0
370
    30
100
AcDbLine
 10
668.741233
 20
307.89653
 30
0.0
 11
668.560578
 21
307.256488
 31
0.0
  0
LINE
  5
33C
330
27C
100
AcDbEntity
  8
0
  6
Continuous
 62
     0
370
    30
100
AcDbLine
 10
668.560578
 20
307.256488
 30
0.0
 11
668.278948
 21
306.643329
 31
0.0
  0
LINE
  5
33D
330
27C
100
AcDbEntity
  8
0
  6
Continuous
 62
     0
370
    30
100
AcDbLine
 10
668.278948
 20
306.643329
 30
0.0
 11
667.898978
 21
306.054061
 31
0.0
  0
LINE
  5
33E
330
27C
100
AcDbEntity
  8
0
  6
Continuous
 62
     0
370
    30
100
AcDbLine
 10
667.898978
 20
306.054061
 30
0.0
 11
667.469405
 21
305.578191
 31
0.0
  0
LINE
  5
33F
330
27C
100
AcDbEntity
  8
0
  6
Continuous
 62
     0
370
    30
100
AcDbLine
 10
667.469405
 20
305.578191
 30
0.0
 11
666.817376
 21
305.100514
 31
0.0
  0
LINE
  5
340
330
27C
100
AcDbEntity
  8
0
  6
Continuous
 62
     0
370
    30
100
AcDbLine
 10
666.817376
 20
305.100514
 30
0.0
 11
665.067397
 21
304.044746
 31
0.0
  0
LINE
  5
341
330
27C
100
AcDbEntity
  8
0
  6
Continuous
 62
     0
370
    30
100
AcDbLine
 10
665.067397
 20
304.044746
 30
0.0
 11
665.068222
 21
304.175607
 31
0.0
  0
LINE
  5
342
330
27C
100
AcDbEntity
  8
0
  6
Continuous
 62
     0
370
    30
100
AcDbLine
 10
665.068222
 20
304.175607
 30
0.0
 11
665.155215
 21
304.227775
 31
0.0
  0
LINE
  5
343
330
27C
100
AcDbEntity
  8
0
  6
Continuous
 62
     0
370
    30
100
AcDbLine
 10
665.155215
 20
304.227775
 30
0.0
 11
665.39664
 21
304.513052
 31
0.0
  0
LINE
  5
344
330
27C
100
AcDbEntity
  8
0
  6
Continuous
 62
     0
370
    30
100
AcDbLine
 10
665.39664
 20
304.513052
 30
0.0
 11
665.481632
 21
304.881202
 31
0.0
  0
LINE
  5
345
330
27C
100
AcDbEntity
  8
0
  6
Continuous
 62
     0
370
    30
100
AcDbLine
 10
666.551791
 20
309.346565
 30
0.0
 11
665.960707
 21
308.920395
 31
0.0
  0
LINE
  5
346
330
27C
100
AcDbEntity
  8
0
  6
Continuous
 62
     0
370
    30
100
AcDbLine
 10
665.960707
 20
308.920395
 30
0.0
 11
665.961882
 21
305.347716
 31
0.0
  0
LINE
  5
347
330
27C
100
AcDbEntity
  8
0
  6
Continuous
 62
     0
370
    30
100
AcDbLine
 10
665.961882
 20
305.347716
 30
0.0
 11
666.024636
 21
305.020554
 31
0.0
  0
LINE
  5
348
330
27C
100
AcDbEntity
  8
0
  6
Continuous
 62
     0
370
    30
100
AcDbLine
 10
666.024636
 20
305.020554
 30
0.0
 11
666.222544
 21
304.995148
 31
0.0
  0
LINE
  5
349
330
27C
100
AcDbEntity
  8
0
  6
Continuous
 62
     0
370
    30
100
AcDbLine
 10
666.222544
 20
304.995148
 30
0.0
 11
666.650892
 21
305.218875
 31
0.0
  0
LINE
  5
34A
330
27C
100
AcDbEntity
  8
0
  6
Continuous
 62
     0
370
    30
100
AcDbLine
 10
666.650892
 20
305.218875
 30
0.0
 11
667.333508
 21
305.728775
 31
0.0
  0
LINE
  5
34B
330
27C
100
AcDbEntity
  8
0
  6
Continuous
 62
     0
370
    30
100
AcDbLine
 10
667.333508
 20
305.728775
 30
0.0
 11
667.863737
 21
306.472696
 31
0.0
  0
LINE
  5
34C
330
27C
100
AcDbEntity
  8
0
  6
Continuous
 62
     0
370
    30
100
AcDbLine
 10
667.863737
 20
306.472696
 30
0.0
 11
668.170543
 21
307.256325
 31
0.0
  0
LINE
  5
34D
330
27C
100
AcDbEntity
  8
0
  6
Continuous
 62
     0
370
    30
100
AcDbLine
 10
668.170543
 20
307.256325
 30
0.0
 11
668.286789
 21
308.18716
 31
0.0
  0
LINE
  5
34E
330
27C
100
AcDbEntity
  8
0
  6
Continuous
 62
     0
370
    30
100
AcDbLine
 10
668.286789
 20
308.18716
 30
0.0
 11
668.193405
 21
308.919572
 31
0.0
  0
LINE
  5
34F
330
27C
100
AcDbEntity
  8
0
  6
Continuous
 62
     0
370
    30
100
AcDbLine
 10
668.193405
 20
308.919572
 30
0.0
 11
667.909396
 21
309.440858
 31
0.0
  0
LINE
  5
350
330
27C
100
AcDbEntity
  8
0
  6
Continuous
 62
     0
370
    30
100
AcDbLine
 10
667.909396
 20
309.440858
 30
0.0
 11
667.361605
 21
309.644043
 31
0.0
  0
LINE
  5
351
330
27C
100
AcDbEntity
  8
0
  6
Continuous
 62
     0
370
    30
100
AcDbLine
 10
667.361605
 20
309.644043
 30
0.0
 11
666.551791
 21
309.346565
 31
0.0
  0
LINE
  5
352
330
27C
100
AcDbEntity
  8
0
  6
Continuous
 62
     0
370
    30
100
AcDbLine
 10
659.729648
 20
303.328021
 30
0.0
 11
659.732121
 21
303.199196
 31
0.0
  0
LINE
  5
353
330
27C
100
AcDbEntity
  8
0
  6
Continuous
 62
     0
370
    30
100
AcDbLine
 10
659.732121
 20
303.199196
 30
0.0
 11
659.453673
 21
301.823443
 31
0.0
  0
LINE
  5
354
330
27C
100
AcDbEntity
  8
0
  6
Continuous
 62
     0
370
    30
100
AcDbLine
 10
659.453673
 20
301.823443
 30
0.0
 11
658.696065
 21
300.495913
 31
0.0
  0
LINE
  5
355
330
27C
100
AcDbEntity
  8
0
  6
Continuous
 62
     0
370
    30
100
AcDbLine
 10
658.696065
 20
300.495913
 30
0.0
 11
657.633962
 21
299.557866
 31
0.0
  0
ARC
  5
356
330
27C
100
AcDbEntity
  8
0
  6
Continuous
 62
     0
370
    30
100
AcDbCircle
 10
656.664294
 20
301.099629
 30
0.0
 40
1.821343366655495
100
AcDbArc
 50
266.72128
 51
302.167195
  0
LINE
  5
357
330
27C
100
AcDbEntity
  8
0
  6
Continuous
 62
     0
370
    30
100
AcDbLine
 10
656.560126
 20
299.281267
 30
0.0
 11
655.792806
 21
299.744081
 31
0.0
  0
ARC
  5
358
330
27C
100
AcDbEntity
  8
0
  6
Continuous
 62
     0
370
    30
100
AcDbCircle
 10
657.423841
 20
300.741861
 30
0.0
 40
1.912024726926794
100
AcDbArc
 50
177.658683
 51
211.456077
  0
LINE
  5
359
330
27C
100
AcDbEntity
  8
0
  6
Continuous
 62
     0
370
    30
100
AcDbLine
 10
655.513412
 20
300.819971
 30
0.0
 11
655.515421
 21
300.931914
 31
0.0
  0
LINE
  5
35A
330
27C
100
AcDbEntity
  8
0
  6
Continuous
 62
     0
370
    30
100
AcDbLine
 10
655.515421
 20
300.931914
 30
0.0
 11
655.679511
 21
301.876241
 31
0.0
  0
LINE
  5
35B
330
27C
100
AcDbEntity
  8
0
  6
Continuous
 62
     0
370
    30
100
AcDbLine
 10
655.679511
 20
301.876241
 30
0.0
 11
656.14567
 21
302.928836
 31
0.0
  0
LINE
  5
35C
330
27C
100
AcDbEntity
  8
0
  6
Continuous
 62
     0
370
    30
100
AcDbLine
 10
656.14567
 20
302.928836
 30
0.0
 11
656.828116
 21
303.835115
 31
0.0
  0
LINE
  5
35D
330
27C
100
AcDbEntity
  8
0
  6
Continuous
 62
     0
370
    30
100
AcDbLine
 10
656.828116
 20
303.835115
 30
0.0
 11
657.629866
 21
304.474503
 31
0.0
  0
LINE
  5
35E
330
27C
100
AcDbEntity
  8
0
  6
Continuous
 62
     0
370
    30
100
AcDbLine
 10
657.629866
 20
304.474503
 30
0.0
 11
658.41518
 21
304.745256
 31
0.0
  0
LINE
  5
35F
330
27C
100
AcDbEntity
  8
0
  6
Continuous
 62
     0
370
    30
100
AcDbLine
 10
658.41518
 20
304.745256
 30
0.0
 11
659.091047
 21
304.622094
 31
0.0
  0
LINE
  5
360
330
27C
100
AcDbEntity
  8
0
  6
Continuous
 62
     0
370
    30
100
AcDbLine
 10
659.091047
 20
304.622094
 30
0.0
 11
659.561678
 21
304.101063
 31
0.0
  0
LINE
  5
361
330
27C
100
AcDbEntity
  8
0
  6
Continuous
 62
     0
370
    30
100
AcDbLine
 10
659.561678
 20
304.101063
 30
0.0
 11
659.729648
 21
303.328021
 31
0.0
  0
LINE
  5
362
330
27C
100
AcDbEntity
  8
0
  6
Continuous
 62
     0
370
    30
100
AcDbLine
 10
657.63023
 20
304.252222
 30
0.0
 11
657.125282
 21
303.871818
 31
0.0
  0
LINE
  5
363
330
27C
100
AcDbEntity
  8
0
  6
Continuous
 62
     0
370
    30
100
AcDbLine
 10
657.125282
 20
303.871818
 30
0.0
 11
656.620043
 21
303.244565
 31
0.0
  0
LINE
  5
364
330
27C
100
AcDbEntity
  8
0
  6
Continuous
 62
     0
370
    30
100
AcDbLine
 10
656.620043
 20
303.244565
 30
0.0
 11
656.215622
 21
302.31942
 31
0.0
  0
LINE
  5
365
330
27C
100
AcDbEntity
  8
0
  6
Continuous
 62
     0
370
    30
100
AcDbLine
 10
656.215622
 20
302.31942
 30
0.0
 11
656.057093
 21
301.235947
 31
0.0
  0
LINE
  5
366
330
27C
100
AcDbEntity
  8
0
  6
Continuous
 62
     0
370
    30
100
AcDbLine
 10
656.057093
 20
301.235947
 30
0.0
 11
656.055645
 21
301.112439
 31
0.0
  0
LINE
  5
367
330
27C
100
AcDbEntity
  8
0
  6
Continuous
 62
     0
370
    30
100
AcDbLine
 10
656.055645
 20
301.112439
 30
0.0
 11
656.18741
 21
300.169421
 31
0.0
  0
LINE
  5
368
330
27C
100
AcDbEntity
  8
0
  6
Continuous
 62
     0
370
    30
100
AcDbLine
 10
656.18741
 20
300.169421
 30
0.0
 11
656.548573
 21
299.671701
 31
0.0
  0
LINE
  5
369
330
27C
100
AcDbEntity
  8
0
  6
Continuous
 62
     0
370
    30
100
AcDbLine
 10
656.548573
 20
299.671701
 30
0.0
 11
657.055265
 21
299.568473
 31
0.0
  0
LINE
  5
36A
330
27C
100
AcDbEntity
  8
0
  6
Continuous
 62
     0
370
    30
100
AcDbLine
 10
657.055265
 20
299.568473
 30
0.0
 11
657.634467
 21
299.777484
 31
0.0
  0
LINE
  5
36B
330
27C
100
AcDbEntity
  8
0
  6
Continuous
 62
     0
370
    30
100
AcDbLine
 10
657.634467
 20
299.777484
 30
0.0
 11
658.177865
 21
300.197339
 31
0.0
  0
LINE
  5
36C
330
27C
100
AcDbEntity
  8
0
  6
Continuous
 62
     0
370
    30
100
AcDbLine
 10
658.177865
 20
300.197339
 30
0.0
 11
658.680424
 21
300.843968
 31
0.0
  0
LINE
  5
36D
330
27C
100
AcDbEntity
  8
0
  6
Continuous
 62
     0
370
    30
100
AcDbLine
 10
658.680424
 20
300.843968
 30
0.0
 11
659.052761
 21
301.73696
 31
0.0
  0
LINE
  5
36E
330
27C
100
AcDbEntity
  8
0
  6
Continuous
 62
     0
370
    30
100
AcDbLine
 10
659.052761
 20
301.73696
 30
0.0
 11
659.196785
 21
302.880063
 31
0.0
  0
LINE
  5
36F
330
27C
100
AcDbEntity
  8
0
  6
Continuous
 62
     0
370
    30
100
AcDbLine
 10
659.196787
 20
302.880064
 30
0.0
 11
659.19508
 21
303.020133
 31
0.0
  0
ARC
  5
370
330
27C
100
AcDbEntity
  8
0
  6
Continuous
 62
     0
370
    30
100
AcDbCircle
 10
657.208227
 20
303.12743
 30
0.0
 40
1.989746461641498
100
AcDbArc
 50
356.908799
 51
30.467084
  0
LINE
  5
371
330
27C
100
AcDbEntity
  8
0
  6
Continuous
 62
     0
370
    30
100
AcDbLine
 10
658.923231
 20
304.136317
 30
0.0
 11
658.298928
 21
304.459432
 31
0.0
  0
LINE
  5
372
330
27C
100
AcDbEntity
  8
0
  6
Continuous
 62
     0
370
    30
100
AcDbLine
 10
658.298928
 20
304.459432
 30
0.0
 11
657.63023
 21
304.252222
 31
0.0
  0
LINE
  5
373
330
27C
100
AcDbEntity
  8
0
  6
Continuous
 62
     0
370
    30
100
AcDbLine
 10
651.450468
 20
300.69245
 30
0.0
 11
652.524481
 21
301.622681
 31
0.0
  0
LINE
  5
374
330
27C
100
AcDbEntity
  8
0
  6
Continuous
 62
     0
370
    30
100
AcDbLine
 10
652.524481
 20
301.622681
 30
0.0
 11
653.283938
 21
301.917763
 31
0.0
  0
LINE
  5
375
330
27C
100
AcDbEntity
  8
0
  6
Continuous
 62
     0
370
    30
100
AcDbLine
 10
653.283938
 20
301.917763
 30
0.0
 11
653.565668
 21
301.944677
 31
0.0
  0
LINE
  5
376
330
27C
100
AcDbEntity
  8
0
  6
Continuous
 62
     0
370
    30
100
AcDbLine
 10
653.565668
 20
301.944677
 30
0.0
 11
653.690197
 21
301.986606
 31
0.0
  0
LINE
  5
377
330
27C
100
AcDbEntity
  8
0
  6
Continuous
 62
     0
370
    30
100
AcDbLine
 10
653.690197
 20
301.986606
 30
0.0
 11
653.801942
 21
302.087701
 31
0.0
  0
LINE
  5
378
330
27C
100
AcDbEntity
  8
0
  6
Continuous
 62
     0
370
    30
100
AcDbLine
 10
653.801942
 20
302.087701
 30
0.0
 11
653.857939
 21
302.288191
 31
0.0
  0
LINE
  5
379
330
27C
100
AcDbEntity
  8
0
  6
Continuous
 62
     0
370
    30
100
AcDbLine
 10
653.857939
 20
302.288191
 30
0.0
 11
653.948573
 21
302.338404
 31
0.0
  0
LINE
  5
37A
330
27C
100
AcDbEntity
  8
0
  6
Continuous
 62
     0
370
    30
100
AcDbLine
 10
653.948573
 20
302.338404
 30
0.0
 11
653.953859
 21
301.147622
 31
0.0
  0
LINE
  5
37B
330
27C
100
AcDbEntity
  8
0
  6
Continuous
 62
     0
370
    30
100
AcDbLine
 10
653.953859
 20
301.147622
 30
0.0
 11
653.818331
 21
301.07255
 31
0.0
  0
LINE
  5
37C
330
27C
100
AcDbEntity
  8
0
  6
Continuous
 62
     0
370
    30
100
AcDbLine
 10
653.818331
 20
301.07255
 30
0.0
 11
653.547515
 21
301.504881
 31
0.0
  0
LINE
  5
37D
330
27C
100
AcDbEntity
  8
0
  6
Continuous
 62
     0
370
    30
100
AcDbLine
 10
653.547515
 20
301.504881
 30
0.0
 11
653.048368
 21
301.577442
 31
0.0
  0
LINE
  5
37E
330
27C
100
AcDbEntity
  8
0
  6
Continuous
 62
     0
370
    30
100
AcDbLine
 10
653.048368
 20
301.577442
 30
0.0
 11
652.520033
 21
301.397778
 31
0.0
  0
LINE
  5
37F
330
27C
100
AcDbEntity
  8
0
  6
Continuous
 62
     0
370
    30
100
AcDbLine
 10
652.520033
 20
301.397778
 30
0.0
 11
651.891613
 21
300.890535
 31
0.0
  0
LINE
  5
380
330
27C
100
AcDbEntity
  8
0
  6
Continuous
 62
     0
370
    30
100
AcDbLine
 10
651.891613
 20
300.890535
 30
0.0
 11
651.383444
 21
300.153046
 31
0.0
  0
LINE
  5
381
330
27C
100
AcDbEntity
  8
0
  6
Continuous
 62
     0
370
    30
100
AcDbLine
 10
651.383444
 20
300.153046
 30
0.0
 11
651.050049
 21
299.256748
 31
0.0
  0
LINE
  5
382
330
27C
100
AcDbEntity
  8
0
  6
Continuous
 62
     0
370
    30
100
AcDbLine
 10
651.050049
 20
299.256748
 30
0.0
 11
650.933032
 21
298.405109
 31
0.0
  0
LINE
  5
383
330
27C
100
AcDbEntity
  8
0
  6
Continuous
 62
     0
370
    30
100
AcDbLine
 10
650.933032
 20
298.405109
 30
0.0
 11
650.931132
 21
298.282463
 31
0.0
  0
LINE
  5
384
330
27C
100
AcDbEntity
  8
0
  6
Continuous
 62
     0
370
    30
100
AcDbLine
 10
650.931132
 20
298.282463
 30
0.0
 11
651.045685
 21
297.465383
 31
0.0
  0
LINE
  5
385
330
27C
100
AcDbEntity
  8
0
  6
Continuous
 62
     0
370
    30
100
AcDbLine
 10
651.045685
 20
297.465383
 30
0.0
 11
651.381319
 21
296.94936
 31
0.0
  0
LINE
  5
386
330
27C
100
AcDbEntity
  8
0
  6
Continuous
 62
     0
370
    30
100
AcDbLine
 10
651.381319
 20
296.94936
 30
0.0
 11
651.890741
 21
296.782599
 31
0.0
  0
LINE
  5
387
330
27C
100
AcDbEntity
  8
0
  6
Continuous
 62
     0
370
    30
100
AcDbLine
 10
651.890741
 20
296.782599
 30
0.0
 11
652.536233
 21
296.986344
 31
0.0
  0
LINE
  5
388
330
27C
100
AcDbEntity
  8
0
  6
Continuous
 62
     0
370
    30
100
AcDbLine
 10
652.536233
 20
296.986344
 30
0.0
 11
653.18826
 21
297.482246
 31
0.0
  0
LINE
  5
389
330
27C
100
AcDbEntity
  8
0
  6
Continuous
 62
     0
370
    30
100
AcDbLine
 10
653.18826
 20
297.482246
 30
0.0
 11
653.890781
 21
298.398024
 31
0.0
  0
LINE
  5
38A
330
27C
100
AcDbEntity
  8
0
  6
Continuous
 62
     0
370
    30
100
AcDbLine
 10
653.890781
 20
298.398024
 30
0.0
 11
653.889378
 21
298.10183
 31
0.0
  0
LINE
  5
38B
330
27C
100
AcDbEntity
  8
0
  6
Continuous
 62
     0
370
    30
100
AcDbLine
 10
653.889378
 20
298.10183
 30
0.0
 11
653.21243
 21
297.2358
 31
0.0
  0
LINE
  5
38C
330
27C
100
AcDbEntity
  8
0
  6
Continuous
 62
     0
370
    30
100
AcDbLine
 10
653.21243
 20
297.2358
 30
0.0
 11
652.457688
 21
296.66704
 31
0.0
  0
LINE
  5
38D
330
27C
100
AcDbEntity
  8
0
  6
Continuous
 62
     0
370
    30
100
AcDbLine
 10
652.457688
 20
296.66704
 30
0.0
 11
651.589773
 21
296.392277
 31
0.0
  0
LINE
  5
38E
330
27C
100
AcDbEntity
  8
0
  6
Continuous
 62
     0
370
    30
100
AcDbLine
 10
651.589773
 20
296.392277
 30
0.0
 11
650.926629
 21
296.57177
 31
0.0
  0
LINE
  5
38F
330
27C
100
AcDbEntity
  8
0
  6
Continuous
 62
     0
370
    30
100
AcDbLine
 10
650.926629
 20
296.57177
 30
0.0
 11
650.517297
 21
297.116906
 31
0.0
  0
LINE
  5
390
330
27C
100
AcDbEntity
  8
0
  6
Continuous
 62
     0
370
    30
100
AcDbLine
 10
650.517297
 20
297.116906
 30
0.0
 11
650.379382
 21
297.918799
 31
0.0
  0
LINE
  5
391
330
27C
100
AcDbEntity
  8
0
  6
Continuous
 62
     0
370
    30
100
AcDbLine
 10
650.379382
 20
297.918799
 30
0.0
 11
650.385029
 21
298.108247
 31
0.0
  0
LINE
  5
392
330
27C
100
AcDbEntity
  8
0
  6
Continuous
 62
     0
370
    30
100
AcDbLine
 10
650.385029
 20
298.108247
 30
0.0
 11
650.668331
 21
299.33996
 31
0.0
  0
LINE
  5
393
330
27C
100
AcDbEntity
  8
0
  6
Continuous
 62
     0
370
    30
100
AcDbLine
 10
650.668331
 20
299.33996
 30
0.0
 11
651.450468
 21
300.69245
 31
0.0
  0
LINE
  5
394
330
27C
100
AcDbEntity
  8
0
  6
Continuous
 62
     0
370
    30
100
AcDbLine
 10
518.374244
 20
219.179098
 30
0.0
 11
517.622027
 21
219.052881
 31
0.0
  0
ARC
  5
395
330
27C
100
AcDbEntity
  8
0
  6
Continuous
 62
     0
370
    30
100
AcDbCircle
 10
517.726704
 20
220.088344
 30
0.0
 40
1.04074086163249
100
AcDbArc
 50
213.678626
 51
264.227416
  0
ARC
  5
396
330
27C
100
AcDbEntity
  8
0
  6
Continuous
 62
     0
370
    30
100
AcDbCircle
 10
518.486894
 20
220.503899
 30
0.0
 40
1.905286127633271
100
AcDbArc
 50
177.48721
 51
211.400289
  0
LINE
  5
397
330
27C
100
AcDbEntity
  8
0
  6
Continuous
 62
     0
370
    30
100
AcDbLine
 10
516.58344
 20
220.587431
 30
0.0
 11
516.585218
 21
220.692872
 31
0.0
  0
LINE
  5
398
330
27C
100
AcDbEntity
  8
0
  6
Continuous
 62
     0
370
    30
100
AcDbLine
 10
516.585218
 20
220.692872
 30
0.0
 11
516.748025
 21
221.643014
 31
0.0
  0
LINE
  5
399
330
27C
100
AcDbEntity
  8
0
  6
Continuous
 62
     0
370
    30
100
AcDbLine
 10
516.748025
 20
221.643014
 30
0.0
 11
517.210314
 21
222.698263
 31
0.0
  0
LINE
  5
39A
330
27C
100
AcDbEntity
  8
0
  6
Continuous
 62
     0
370
    30
100
AcDbLine
 10
517.210314
 20
222.698263
 30
0.0
 11
517.887212
 21
223.608457
 31
0.0
  0
LINE
  5
39B
330
27C
100
AcDbEntity
  8
0
  6
Continuous
 62
     0
370
    30
100
AcDbLine
 10
517.887212
 20
223.608457
 30
0.0
 11
518.682517
 21
224.252457
 31
0.0
  0
LINE
  5
39C
330
27C
100
AcDbEntity
  8
0
  6
Continuous
 62
     0
370
    30
100
AcDbLine
 10
518.682517
 20
224.252457
 30
0.0
 11
519.461639
 21
224.527724
 31
0.0
  0
LINE
  5
39D
330
27C
100
AcDbEntity
  8
0
  6
Continuous
 62
     0
370
    30
100
AcDbLine
 10
519.461639
 20
224.527724
 30
0.0
 11
520.132131
 21
224.408326
 31
0.0
  0
LINE
  5
39E
330
27C
100
AcDbEntity
  8
0
  6
Continuous
 62
     0
370
    30
100
AcDbLine
 10
520.132131
 20
224.408326
 30
0.0
 11
520.599008
 21
223.88988
 31
0.0
  0
LINE
  5
39F
330
27C
100
AcDbEntity
  8
0
  6
Continuous
 62
     0
370
    30
100
AcDbLine
 10
520.599008
 20
223.88988
 30
0.0
 11
520.768162
 21
222.989082
 31
0.0
  0
LINE
  5
3A0
330
27C
100
AcDbEntity
  8
0
  6
Continuous
 62
     0
370
    30
100
AcDbLine
 10
520.768162
 20
222.989082
 30
0.0
 11
520.492171
 21
221.611665
 31
0.0
  0
LINE
  5
3A1
330
27C
100
AcDbEntity
  8
0
  6
Continuous
 62
     0
370
    30
100
AcDbLine
 10
520.492171
 20
221.611665
 30
0.0
 11
519.740793
 21
220.279763
 31
0.0
  0
LINE
  5
3A2
330
27C
100
AcDbEntity
  8
0
  6
Continuous
 62
     0
370
    30
100
AcDbLine
 10
519.740793
 20
220.279763
 30
0.0
 11
518.687458
 21
219.335805
 31
0.0
  0
LINE
  5
3A3
330
27C
100
AcDbEntity
  8
0
  6
Continuous
 62
     0
370
    30
100
AcDbLine
 10
518.687458
 20
219.335805
 30
0.0
 11
518.374243
 21
219.179098
 31
0.0
  0
LINE
  5
3A4
330
27C
100
AcDbEntity
  8
0
  6
Continuous
 62
     0
370
    30
100
AcDbLine
 10
518.375732
 20
219.409031
 30
0.0
 11
518.687013
 21
219.555149
 31
0.0
  0
LINE
  5
3A5
330
27C
100
AcDbEntity
  8
0
  6
Continuous
 62
     0
370
    30
100
AcDbLine
 10
518.687013
 20
219.555149
 30
0.0
 11
519.225955
 21
219.977948
 31
0.0
  0
LINE
  5
3A6
330
27C
100
AcDbEntity
  8
0
  6
Continuous
 62
     0
370
    30
100
AcDbLine
 10
519.225955
 20
219.977948
 30
0.0
 11
519.72404
 21
220.62819
 31
0.0
  0
LINE
  5
3A7
330
27C
100
AcDbEntity
  8
0
  6
Continuous
 62
     0
370
    30
100
AcDbLine
 10
519.72404
 20
220.62819
 30
0.0
 11
520.092821
 21
221.522612
 31
0.0
  0
LINE
  5
3A8
330
27C
100
AcDbEntity
  8
0
  6
Continuous
 62
     0
370
    30
100
AcDbLine
 10
520.092821
 20
221.522612
 30
0.0
 11
520.235164
 21
222.665859
 31
0.0
  0
ARC
  5
3A9
330
27C
100
AcDbEntity
  8
0
  6
Continuous
 62
     0
370
    30
100
AcDbCircle
 10
518.060505
 20
222.853206
 30
0.0
 40
2.182714102182663
100
AcDbArc
 50
355.076143
 51
29.288668
  0
LINE
  5
3AA
330
27C
100
AcDbEntity
  8
0
  6
Continuous
 62
     0
370
    30
100
AcDbLine
 10
519.964194
 20
223.921011
 30
0.0
 11
519.345315
 21
224.241085
 31
0.0
  0
LINE
  5
3AB
330
27C
100
AcDbEntity
  8
0
  6
Continuous
 62
     0
370
    30
100
AcDbLine
 10
519.345315
 20
224.241085
 30
0.0
 11
518.682157
 21
224.030202
 31
0.0
  0
LINE
  5
3AC
330
27C
100
AcDbEntity
  8
0
  6
Continuous
 62
     0
370
    30
100
AcDbLine
 10
518.682157
 20
224.030202
 30
0.0
 11
518.181302
 21
223.647006
 31
0.0
  0
LINE
  5
3AD
330
27C
100
AcDbEntity
  8
0
  6
Continuous
 62
     0
370
    30
100
AcDbLine
 10
518.181302
 20
223.647006
 30
0.0
 11
517.680033
 21
223.016672
 31
0.0
  0
LINE
  5
3AE
330
27C
100
AcDbEntity
  8
0
  6
Continuous
 62
     0
370
    30
100
AcDbLine
 10
517.680033
 20
223.016672
 30
0.0
 11
517.278611
 21
222.088773
 31
0.0
  0
LINE
  5
3AF
330
27C
100
AcDbEntity
  8
0
  6
Continuous
 62
     0
370
    30
100
AcDbLine
 10
517.278611
 20
222.088773
 30
0.0
 11
517.121011
 21
220.996587
 31
0.0
  0
LINE
  5
3B0
330
27C
100
AcDbEntity
  8
0
  6
Continuous
 62
     0
370
    30
100
AcDbLine
 10
517.121011
 20
220.996587
 30
0.0
 11
517.119754
 21
220.879563
 31
0.0
  0
LINE
  5
3B1
330
27C
100
AcDbEntity
  8
0
  6
Continuous
 62
     0
370
    30
100
AcDbLine
 10
517.119754
 20
220.879563
 30
0.0
 11
517.25089
 21
219.937849
 31
0.0
  0
LINE
  5
3B2
330
27C
100
AcDbEntity
  8
0
  6
Continuous
 62
     0
370
    30
100
AcDbLine
 10
517.25089
 20
219.937849
 30
0.0
 11
517.609711
 21
219.442808
 31
0.0
  0
LINE
  5
3B3
330
27C
100
AcDbEntity
  8
0
  6
Continuous
 62
     0
370
    30
100
AcDbLine
 10
517.609711
 20
219.442808
 30
0.0
 11
518.112579
 21
219.342828
 31
0.0
  0
LINE
  5
3B4
330
27C
100
AcDbEntity
  8
0
  6
Continuous
 62
     0
370
    30
100
AcDbLine
 10
518.112579
 20
219.342828
 30
0.0
 11
518.375732
 21
219.409031
 31
0.0
  0
LINE
  5
3B5
330
27C
100
AcDbEntity
  8
0
  6
Continuous
 62
     0
370
    30
100
AcDbLine
 10
514.123078
 20
220.920146
 30
0.0
 11
514.027683
 21
221.204102
 31
0.0
  0
LINE
  5
3B6
330
27C
100
AcDbEntity
  8
0
  6
Continuous
 62
     0
370
    30
100
AcDbLine
 10
514.027683
 20
221.204102
 30
0.0
 11
513.699098
 21
221.148982
 31
0.0
  0
LINE
  5
3B7
330
27C
100
AcDbEntity
  8
0
  6
Continuous
 62
     0
370
    30
100
AcDbLine
 10
513.699098
 20
221.148982
 30
0.0
 11
513.698637
 21
221.292998
 31
0.0
  0
LINE
  5
3B8
330
27C
100
AcDbEntity
  8
0
  6
Continuous
 62
     0
370
    30
100
AcDbLine
 10
513.698637
 20
221.292998
 30
0.0
 11
515.037089
 21
222.03775
 31
0.0
  0
LINE
  5
3B9
330
27C
100
AcDbEntity
  8
0
  6
Continuous
 62
     0
370
    30
100
AcDbLine
 10
515.037089
 20
222.03775
 30
0.0
 11
515.037549
 21
221.893928
 31
0.0
  0
LINE
  5
3BA
330
27C
100
AcDbEntity
  8
0
  6
Continuous
 62
     0
370
    30
100
AcDbLine
 10
515.037549
 20
221.893928
 30
0.0
 11
514.7085
 21
221.584188
 31
0.0
  0
LINE
  5
3BB
330
27C
100
AcDbEntity
  8
0
  6
Continuous
 62
     0
370
    30
100
AcDbLine
 10
514.7085
 20
221.584188
 30
0.0
 11
514.616775
 21
221.192687
 31
0.0
  0
LINE
  5
3BC
330
27C
100
AcDbEntity
  8
0
  6
Continuous
 62
     0
370
    30
100
AcDbLine
 10
514.616775
 20
221.192687
 30
0.0
 11
514.618723
 21
219.585373
 31
0.0
  0
LINE
  5
3BD
330
27C
100
AcDbEntity
  8
0
  6
Continuous
 62
     0
370
    30
100
AcDbLine
 10
514.618723
 20
219.585373
 30
0.0
 11
514.616242
 21
217.759972
 31
0.0
  0
ARC
  5
3BE
330
27C
100
AcDbEntity
  8
0
  6
Continuous
 62
     0
370
    30
100
AcDbCircle
 10
514.881298
 20
217.755976
 30
0.0
 40
0.265085800081446
100
AcDbArc
 50
179.136283
 51
305.934722
  0
LINE
  5
3BF
330
27C
100
AcDbEntity
  8
0
  6
Continuous
 62
     0
370
    30
100
AcDbLine
 10
515.036867
 20
217.541339
 30
0.0
 11
515.036365
 21
217.399417
 31
0.0
  0
LINE
  5
3C0
330
27C
100
AcDbEntity
  8
0
  6
Continuous
 62
     0
370
    30
100
AcDbLine
 10
515.036365
 20
217.399417
 30
0.0
 11
513.697896
 21
216.654534
 31
0.0
  0
LINE
  5
3C1
330
27C
100
AcDbEntity
  8
0
  6
Continuous
 62
     0
370
    30
100
AcDbLine
 10
513.697896
 20
216.654534
 30
0.0
 11
513.698396
 21
216.79662
 31
0.0
  0
LINE
  5
3C2
330
27C
100
AcDbEntity
  8
0
  6
Continuous
 62
     0
370
    30
100
AcDbLine
 10
513.698396
 20
216.79662
 30
0.0
 11
514.020047
 21
217.086533
 31
0.0
  0
LINE
  5
3C3
330
27C
100
AcDbEntity
  8
0
  6
Continuous
 62
     0
370
    30
100
AcDbLine
 10
514.020047
 20
217.086533
 30
0.0
 11
514.122556
 21
217.480946
 31
0.0
  0
LINE
  5
3C4
330
27C
100
AcDbEntity
  8
0
  6
Continuous
 62
     0
370
    30
100
AcDbLine
 10
514.122556
 20
217.480946
 30
0.0
 11
514.125036
 21
219.224802
 31
0.0
  0
LINE
  5
3C5
330
27C
100
AcDbEntity
  8
0
  6
Continuous
 62
     0
370
    30
100
AcDbLine
 10
514.125036
 20
219.224802
 30
0.0
 11
511.958023
 21
218.033544
 31
0.0
  0
LINE
  5
3C6
330
27C
100
AcDbEntity
  8
0
  6
Continuous
 62
     0
370
    30
100
AcDbLine
 10
511.958023
 20
218.033544
 30
0.0
 11
511.955605
 21
216.296043
 31
0.0
  0
LINE
  5
3C7
330
27C
100
AcDbEntity
  8
0
  6
Continuous
 62
     0
370
    30
100
AcDbLine
 10
511.955605
 20
216.296043
 30
0.0
 11
512.059671
 21
216.01479
 31
0.0
  0
LINE
  5
3C8
330
27C
100
AcDbEntity
  8
0
  6
Continuous
 62
     0
370
    30
100
AcDbLine
 10
512.059671
 20
216.01479
 30
0.0
 11
512.378406
 21
216.071065
 31
0.0
  0
LINE
  5
3C9
330
27C
100
AcDbEntity
  8
0
  6
Continuous
 62
     0
370
    30
100
AcDbLine
 10
512.378406
 20
216.071065
 30
0.0
 11
512.377907
 21
215.92881
 31
0.0
  0
LINE
  5
3CA
330
27C
100
AcDbEntity
  8
0
  6
Continuous
 62
     0
370
    30
100
AcDbLine
 10
512.377907
 20
215.92881
 30
0.0
 11
511.032594
 21
215.198111
 31
0.0
  0
LINE
  5
3CB
330
27C
100
AcDbEntity
  8
0
  6
Continuous
 62
     0
370
    30
100
AcDbLine
 10
511.032594
 20
215.198111
 30
0.0
 11
511.033088
 21
215.34021
 31
0.0
  0
LINE
  5
3CC
330
27C
100
AcDbEntity
  8
0
  6
Continuous
 62
     0
370
    30
100
AcDbLine
 10
511.033088
 20
215.34021
 30
0.0
 11
511.358269
 21
215.63202
 31
0.0
  0
LINE
  5
3CD
330
27C
100
AcDbEntity
  8
0
  6
Continuous
 62
     0
370
    30
100
AcDbLine
 10
511.358269
 20
215.63202
 30
0.0
 11
511.459394
 21
216.02439
 31
0.0
  0
LINE
  5
3CE
330
27C
100
AcDbEntity
  8
0
  6
Continuous
 62
     0
370
    30
100
AcDbLine
 10
511.459394
 20
216.02439
 30
0.0
 11
511.461808
 21
217.849929
 31
0.0
  0
LINE
  5
3CF
330
27C
100
AcDbEntity
  8
0
  6
Continuous
 62
     0
370
    30
100
AcDbLine
 10
511.461808
 20
217.849929
 30
0.0
 11
511.45982
 21
219.457325
 31
0.0
  0
ARC
  5
3D0
330
27C
100
AcDbEntity
  8
0
  6
Continuous
 62
     0
370
    30
100
AcDbCircle
 10
511.184671
 20
219.462971
 30
0.0
 40
0.2752069659364884
100
AcDbArc
 50
358.824414
 51
123.299869
  0
LINE
  5
3D1
330
27C
100
AcDbEntity
  8
0
  6
Continuous
 62
     0
370
    30
100
AcDbLine
 10
511.033577
 20
219.692992
 30
0.0
 11
511.033113
 21
219.836926
 31
0.0
  0
LINE
  5
3D2
330
27C
100
AcDbEntity
  8
0
  6
Continuous
 62
     0
370
    30
100
AcDbLine
 10
511.033113
 20
219.836926
 30
0.0
 11
512.378502
 21
220.567469
 31
0.0
  0
LINE
  5
3D3
330
27C
100
AcDbEntity
  8
0
  6
Continuous
 62
     0
370
    30
100
AcDbLine
 10
512.378502
 20
220.567469
 30
0.0
 11
512.378964
 21
220.423493
 31
0.0
  0
LINE
  5
3D4
330
27C
100
AcDbEntity
  8
0
  6
Continuous
 62
     0
370
    30
100
AcDbLine
 10
512.378964
 20
220.423493
 30
0.0
 11
512.049077
 21
220.118703
 31
0.0
  0
LINE
  5
3D5
330
27C
100
AcDbEntity
  8
0
  6
Continuous
 62
     0
370
    30
100
AcDbLine
 10
512.049077
 20
220.118703
 30
0.0
 11
511.956035
 21
219.728949
 31
0.0
  0
LINE
  5
3D6
330
27C
100
AcDbEntity
  8
0
  6
Continuous
 62
     0
370
    30
100
AcDbLine
 10
511.956035
 20
219.728949
 30
0.0
 11
511.958002
 21
218.254559
 31
0.0
  0
LINE
  5
3D7
330
27C
100
AcDbEntity
  8
0
  6
Continuous
 62
     0
370
    30
100
AcDbLine
 10
511.958002
 20
218.254559
 30
0.0
 11
514.125019
 21
219.445807
 31
0.0
  0
LINE
  5
3D8
330
27C
100
AcDbEntity
  8
0
  6
Continuous
 62
     0
370
    30
100
AcDbLine
 10
514.125019
 20
219.445807
 30
0.0
 11
514.123078
 21
220.920146
 31
0.0
  0
LINE
  5
3D9
330
27C
100
AcDbEntity
  8
0
  6
Continuous
 62
     0
370
    30
100
AcDbLine
 10
525.532618
 20
227.290303
 30
0.0
 11
525.403564
 21
227.210728
 31
0.0
  0
LINE
  5
3DA
330
27C
100
AcDbEntity
  8
0
  6
Continuous
 62
     0
370
    30
100
AcDbLine
 10
525.403564
 20
227.210728
 30
0.0
 11
525.230988
 21
227.67534
 31
0.0
  0
LINE
  5
3DB
330
27C
100
AcDbEntity
  8
0
  6
Continuous
 62
     0
370
    30
100
AcDbLine
 10
525.230988
 20
227.67534
 30
0.0
 11
524.780325
 21
227.522649
 31
0.0
  0
LINE
  5
3DC
330
27C
100
AcDbEntity
  8
0
  6
Continuous
 62
     0
370
    30
100
AcDbLine
 10
524.780325
 20
227.522649
 30
0.0
 11
524.053995
 21
227.079137
 31
0.0
  0
LINE
  5
3DD
330
27C
100
AcDbEntity
  8
0
  6
Continuous
 62
     0
370
    30
100
AcDbLine
 10
524.053995
 20
227.079137
 30
0.0
 11
524.054559
 21
223.251832
 31
0.0
  0
ARC
  5
3DE
330
27C
100
AcDbEntity
  8
0
  6
Continuous
 62
     0
370
    30
100
AcDbCircle
 10
524.305617
 20
223.249437
 30
0.0
 40
0.2510698009448673
100
AcDbArc
 50
179.453319
 51
310.060733
  0
LINE
  5
3DF
330
27C
100
AcDbEntity
  8
0
  6
Continuous
 62
     0
370
    30
100
AcDbLine
 10
524.467205
 20
223.057277
 30
0.0
 11
524.466699
 21
222.915381
 31
0.0
  0
LINE
  5
3E0
330
27C
100
AcDbEntity
  8
0
  6
Continuous
 62
     0
370
    30
100
AcDbLine
 10
524.466699
 20
222.915381
 30
0.0
 11
523.15348
 21
222.118169
 31
0.0
  0
LINE
  5
3E1
330
27C
100
AcDbEntity
  8
0
  6
Continuous
 62
     0
370
    30
100
AcDbLine
 10
523.15348
 20
222.118169
 30
0.0
 11
523.153989
 21
222.260461
 31
0.0
  0
LINE
  5
3E2
330
27C
100
AcDbEntity
  8
0
  6
Continuous
 62
     0
370
    30
100
AcDbLine
 10
523.153989
 20
222.260461
 30
0.0
 11
523.461826
 21
222.548685
 31
0.0
  0
LINE
  5
3E3
330
27C
100
AcDbEntity
  8
0
  6
Continuous
 62
     0
370
    30
100
AcDbLine
 10
523.461826
 20
222.548685
 30
0.0
 11
523.570223
 21
222.965311
 31
0.0
  0
LINE
  5
3E4
330
27C
100
AcDbEntity
  8
0
  6
Continuous
 62
     0
370
    30
100
AcDbLine
 10
523.570223
 20
222.965311
 30
0.0
 11
523.569659
 21
226.785056
 31
0.0
  0
LINE
  5
3E5
330
27C
100
AcDbEntity
  8
0
  6
Continuous
 62
     0
370
    30
100
AcDbLine
 10
523.569659
 20
226.785056
 30
0.0
 11
522.839615
 21
226.344284
 31
0.0
  0
LINE
  5
3E6
330
27C
100
AcDbEntity
  8
0
  6
Continuous
 62
     0
370
    30
100
AcDbLine
 10
522.839615
 20
226.344284
 30
0.0
 11
522.388394
 21
225.949402
 31
0.0
  0
LINE
  5
3E7
330
27C
100
AcDbEntity
  8
0
  6
Continuous
 62
     0
370
    30
100
AcDbLine
 10
522.388394
 20
225.949402
 30
0.0
 11
522.184896
 21
225.256759
 31
0.0
  0
LINE
  5
3E8
330
27C
100
AcDbEntity
  8
0
  6
Continuous
 62
     0
370
    30
100
AcDbLine
 10
522.184896
 20
225.256759
 30
0.0
 11
522.075397
 21
225.191308
 31
0.0
  0
LINE
  5
3E9
330
27C
100
AcDbEntity
  8
0
  6
Continuous
 62
     0
370
    30
100
AcDbLine
 10
522.075397
 20
225.191308
 30
0.0
 11
522.07197
 21
226.386142
 31
0.0
  0
LINE
  5
3EA
330
27C
100
AcDbEntity
  8
0
  6
Continuous
 62
     0
370
    30
100
AcDbLine
 10
522.07197
 20
226.386142
 30
0.0
 11
522.171164
 21
226.445434
 31
0.0
  0
LINE
  5
3EB
330
27C
100
AcDbEntity
  8
0
  6
Continuous
 62
     0
370
    30
100
AcDbLine
 10
522.171164
 20
226.445434
 30
0.0
 11
522.250313
 21
226.335252
 31
0.0
  0
LINE
  5
3EC
330
27C
100
AcDbEntity
  8
0
  6
Continuous
 62
     0
370
    30
100
AcDbLine
 10
522.320623
 20
226.309458
 30
0.0
 11
522.426378
 21
226.331458
 31
0.0
  0
LINE
  5
3ED
330
27C
100
AcDbEntity
  8
0
  6
Continuous
 62
     0
370
    30
100
AcDbLine
 10
522.426378
 20
226.331458
 30
0.0
 11
522.578458
 21
226.410072
 31
0.0
  0
LINE
  5
3EE
330
27C
100
AcDbEntity
  8
0
  6
Continuous
 62
     0
370
    30
100
AcDbLine
 10
522.578458
 20
226.410072
 30
0.0
 11
525.068546
 21
227.92225
 31
0.0
  0
LINE
  5
3EF
330
27C
100
AcDbEntity
  8
0
  6
Continuous
 62
     0
370
    30
100
AcDbLine
 10
525.068546
 20
227.92225
 30
0.0
 11
525.430696
 21
228.424339
 31
0.0
  0
LINE
  5
3F0
330
27C
100
AcDbEntity
  8
0
  6
Continuous
 62
     0
370
    30
100
AcDbLine
 10
525.430696
 20
228.424339
 30
0.0
 11
525.529128
 21
228.485047
 31
0.0
  0
LINE
  5
3F1
330
27C
100
AcDbEntity
  8
0
  6
Continuous
 62
     0
370
    30
100
AcDbLine
 10
525.529128
 20
228.485047
 30
0.0
 11
525.532618
 21
227.290303
 31
0.0
  0
ENDBLK
  5
3F3
330
27C
100
AcDbEntity
  8
0
100
AcDbBlockEnd
  0
BLOCK
  5
452
330
3F5
100
AcDbEntity
  8
0
100
AcDbBlockBegin
  2
e
 70
     0
 10
63.502609
 20
0.0
 30
0.0
  3
e
  1

  0
LINE
  5
3F6
330
3F5
100
AcDbEntity
  8
0
  6
Continuous
 62
     0
370
     0
100
AcDbLine
 10
-156.508408
 20
426.76757
 30
0.0
 11
-145.163216
 21
426.76757
 31
0.0
  0
LINE
  5
3F7
330
3F5
100
AcDbEntity
  8
0
  6
Continuous
 62
     0
370
     0
100
AcDbLine
 10
-145.163216
 20
426.76757
 30
0.0
 11
-134.508409
 21
426.76757
 31
0.0
  0
LINE
  5
3F8
330
3F5
100
AcDbEntity
  8
0
  6
Continuous
 62
     0
370
     0
100
AcDbLine
 10
-134.508409
 20
443.76757
 30
0.0
 11
-145.163216
 21
443.76757
 31
0.0
  0
LINE
  5
3F9
330
3F5
100
AcDbEntity
  8
0
  6
Continuous
 62
     0
370
     0
100
AcDbLine
 10
-145.163216
 20
443.76757
 30
0.0
 11
-156.508408
 21
443.76757
 31
0.0
  0
LINE
  5
3FA
330
3F5
100
AcDbEntity
  8
0
  6
Continuous
 62
     0
370
    30
100
AcDbLine
 10
-133.758409
 20
444.01757
 30
0.0
 11
-145.13968
 21
444.01757
 31
0.0
  0
LINE
  5
3FB
330
3F5
100
AcDbEntity
  8
0
  6
Continuous
 62
     0
370
    30
100
AcDbLine
 10
-145.13968
 20
444.01757
 30
0.0
 11
-157.258409
 21
444.01757
 31
0.0
  0
LINE
  5
3FC
330
3F5
100
AcDbEntity
  8
0
  6
Continuous
 62
     0
370
     0
100
AcDbLine
 10
-133.508409
 20
446.26757
 30
0.0
 11
-145.131835
 21
446.26757
 31
0.0
  0
LINE
  5
3FD
330
3F5
100
AcDbEntity
  8
0
  6
Continuous
 62
     0
370
     0
100
AcDbLine
 10
-145.131835
 20
446.26757
 30
0.0
 11
-157.508409
 21
446.26757
 31
0.0
  0
LINE
  5
3FE
330
3F5
100
AcDbEntity
  8
0
  6
Continuous
 62
     0
370
     0
100
AcDbLine
 10
-157.508409
 20
444.26757
 30
0.0
 11
-145.131835
 21
444.26757
 31
0.0
  0
LINE
  5
3FF
330
3F5
100
AcDbEntity
  8
0
  6
Continuous
 62
     0
370
     0
100
AcDbLine
 10
-145.131835
 20
444.26757
 30
0.0
 11
-133.508409
 21
444.26757
 31
0.0
  0
LINE
  5
400
330
3F5
100
AcDbEntity
  8
0
  6
Continuous
 62
     0
370
    30
100
AcDbLine
 10
-134.758409
 20
426.51757
 30
0.0
 11
-145.171061
 21
426.51757
 31
0.0
  0
LINE
  5
401
330
3F5
100
AcDbEntity
  8
0
  6
Continuous
 62
     0
370
    30
100
AcDbLine
 10
-145.171061
 20
426.51757
 30
0.0
 11
-156.258408
 21
426.51757
 31
0.0
  0
LINE
  5
402
330
3F5
100
AcDbEntity
  8
0
  6
Continuous
 62
     0
370
    30
100
AcDbLine
 10
-133.758405
 20
446.51757
 30
0.0
 11
-145.13968
 21
446.51757
 31
0.0
  0
LINE
  5
403
330
3F5
100
AcDbEntity
  8
0
  6
Continuous
 62
     0
370
    30
100
AcDbLine
 10
-134.508409
 20
446.51757
 30
0.0
 11
-133.758405
 21
446.51757
 31
0.0
  0
LINE
  5
404
330
3F5
100
AcDbEntity
  8
0
  6
Continuous
 62
     0
370
    30
100
AcDbLine
 10
-157.258413
 20
446.51757
 30
0.0
 11
-156.508409
 21
446.51757
 31
0.0
  0
LINE
  5
405
330
3F5
100
AcDbEntity
  8
0
  6
Continuous
 62
     0
370
    30
100
AcDbLine
 10
-145.13968
 20
446.51757
 30
0.0
 11
-157.258413
 21
446.51757
 31
0.0
  0
LINE
  5
406
330
3F5
100
AcDbEntity
  8
0
  6
Continuous
 62
     0
370
    30
100
AcDbLine
 10
-157.508409
 20
444.26757
 30
0.0
 11
-157.508409
 21
446.26757
 31
0.0
  0
LINE
  5
407
330
3F5
100
AcDbEntity
  8
0
  6
Continuous
 62
     0
370
    30
100
AcDbLine
 10
-133.508409
 20
444.26757
 30
0.0
 11
-133.508409
 21
446.26757
 31
0.0
  0
LINE
  5
408
330
3F5
100
AcDbEntity
  8
0
  6
Continuous
 62
     0
370
    30
100
AcDbLine
 10
-156.508408
 20
426.76757
 30
0.0
 11
-156.508408
 21
443.76757
 31
0.0
  0
LINE
  5
409
330
3F5
100
AcDbEntity
  8
0
  6
Continuous
 62
     0
370
    30
100
AcDbLine
 10
-134.508409
 20
426.76757
 30
0.0
 11
-134.508409
 21
443.76757
 31
0.0
  0
ARC
  5
40A
330
3F5
100
AcDbEntity
  8
0
  6
Continuous
 62
     0
370
    30
100
AcDbCircle
 10
400.371076
 20
498.517518
 30
0.0
 40
399.9999999999185
100
AcDbArc
 50
180.426699
 51
183.916106
  0
LINE
  5
40B
330
3F5
100
AcDbEntity
  8
0
  6
Continuous
 62
     0
370
    30
100
AcDbLine
 10
0.375227
 20
496.695172
 30
0.0
 11
0.380142
 21
495.824411
 31
0.0
  0
LWPOLYLINE
  5
40C
330
3F5
100
AcDbEntity
  8
0
  6
Continuous
 62
     0
370
     0
100
AcDbPolyline
 90
       60
 70
     0
 43
0.0
 10
1.305028
 20
471.199219
 10
1.305028
 20
471.231232
 10
1.305028
 20
471.32959
 10
1.305029
 20
471.497681
 10
1.305029
 20
471.738464
 10
1.305029
 20
472.054474
 10
1.305029
 20
472.447723
 10
1.305029
 20
472.919678
 10
1.30503
 20
473.471161
 10
1.30503
 20
474.102295
 10
1.30503
 20
474.812408
 10
1.30503
 20
475.600159
 10
1.30503
 20
476.463409
 10
1.30503
 20
477.3992
 10
1.305031
 20
478.4039
 10
1.305031
 20
479.473145
 10
1.305031
 20
480.60202
 10
1.305031
 20
481.784912
 10
1.305031
 20
483.015869
 10
1.305031
 20
484.288544
 10
1.305031
 20
485.596313
 10
1.305031
 20
486.932373
 10
1.305031
 20
488.289948
 10
1.305032
 20
489.662292
 10
1.305032
 20
491.042816
 10
1.305032
 20
492.42514
 10
1.305032
 20
493.803284
 10
1.305032
 20
495.17157
 10
1.305032
 20
496.524841
 10
1.305032
 20
497.858307
 10
1.305032
 20
499.174225
 10
1.305032
 20
500.50766
 10
1.305032
 20
501.860901
 10
1.305032
 20
503.229187
 10
1.305032
 20
504.6073
 10
1.305032
 20
505.989624
 10
1.305032
 20
507.370148
 10
1.305031
 20
508.742523
 10
1.305031
 20
510.100128
 10
1.305031
 20
511.436249
 10
1.305031
 20
512.74408
 10
1.305031
 20
514.016785
 10
1.305031
 20
515.247864
 10
1.305031
 20
516.430847
 10
1.305031
 20
517.559814
 10
1.305031
 20
518.629211
 10
1.30503
 20
519.634033
 10
1.30503
 20
520.569946
 10
1.30503
 20
521.43335
 10
1.30503
 20
522.221252
 10
1.30503
 20
522.931519
 10
1.30503
 20
523.562744
 10
1.305029
 20
524.11438
 10
1.305029
 20
524.586487
 10
1.305029
 20
524.979919
 10
1.305029
 20
525.296021
 10
1.305029
 20
525.536926
 10
1.305028
 20
525.7052
 10
1.305028
 20
525.803711
 10
1.305028
 20
525.835815
  0
LWPOLYLINE
  5
40D
330
3F5
100
AcDbEntity
  8
0
  6
Continuous
 62
     0
370
     0
100
AcDbPolyline
 90
       60
 70
     0
 43
0.0
 10
2.302693
 20
470.267517
 10
2.302693
 20
470.307648
 10
2.302694
 20
470.427704
 10
2.302694
 20
470.627319
 10
2.302694
 20
470.906006
 10
2.302694
 20
471.263123
 10
2.302694
 20
471.697418
 10
2.302695
 20
472.207703
 10
2.302695
 20
472.792664
 10
2.302695
 20
473.450623
 10
2.302695
 20
474.179535
 10
2.302695
 20
474.977386
 10
2.302696
 20
475.842041
 10
2.302696
 20
476.770966
 10
2.302696
 20
477.761597
 10
2.302696
 20
478.811249
 10
2.302696
 20
479.917023
 10
2.302696
 20
481.075317
 10
2.302696
 20
482.282532
 10
2.302696
 20
483.535034
 10
2.302696
 20
484.829376
 10
2.302696
 20
486.162292
 10
2.302697
 20
487.530487
 10
2.302697
 20
488.930603
 10
2.302697
 20
490.358582
 10
2.302697
 20
491.810059
 10
2.302697
 20
493.280792
 10
2.302697
 20
494.766357
 10
2.302697
 20
496.262268
 10
2.302697
 20
497.763977
 10
2.302697
 20
499.266998
 10
2.302697
 20
500.767212
 10
2.302697
 20
502.260864
 10
2.302697
 20
503.744293
 10
2.302697
 20
505.213745
 10
2.302697
 20
506.664978
 10
2.302697
 20
508.093567
 10
2.302697
 20
509.495026
 10
2.302696
 20
510.865112
 10
2.302696
 20
512.200012
 10
2.302696
 20
513.496094
 10
2.302696
 20
514.749695
 10
2.302696
 20
515.957336
 10
2.302696
 20
517.11554
 10
2.302696
 20
518.22113
 10
2.302696
 20
519.270752
 10
2.302696
 20
520.261475
 10
2.302696
 20
521.190674
 10
2.302695
 20
522.055542
 10
2.302695
 20
522.853577
 10
2.302695
 20
523.582703
 10
2.302695
 20
524.240784
 10
2.302695
 20
524.825928
 10
2.302694
 20
525.336426
 10
2.302694
 20
525.770935
 10
2.302694
 20
526.128235
 10
2.302694
 20
526.407104
 10
2.302694
 20
526.606934
 10
2.302693
 20
526.727173
 10
2.302693
 20
526.767517
  0
ARC
  5
40E
330
3F5
100
AcDbEntity
  8
0
  6
Continuous
 62
     0
370
    30
100
AcDbCircle
 10
2.302693
 20
471.267518
 30
0.0
 40
0.99999999999971
100
AcDbArc
 50
183.916106
 51
270.0
  0
LINE
  5
40F
330
3F5
100
AcDbEntity
  8
0
  6
Continuous
 62
     0
370
    30
100
AcDbLine
 10
2.302693
 20
470.267518
 30
0.0
 11
18.869901
 21
470.267518
 31
0.0
  0
LINE
  5
410
330
3F5
100
AcDbEntity
  8
0
  6
Continuous
 62
     0
370
    30
100
AcDbLine
 10
18.869901
 20
526.767518
 30
0.0
 11
18.869901
 21
470.267518
 31
0.0
  0
LINE
  5
411
330
3F5
100
AcDbEntity
  8
0
  6
Continuous
 62
     0
370
    30
100
AcDbLine
 10
21.291618
 20
529.017518
 30
0.0
 11
21.291618
 21
515.163861
 31
0.0
  0
LINE
  5
412
330
3F5
100
AcDbEntity
  8
0
  6
Continuous
 62
     0
370
    30
100
AcDbLine
 10
21.291618
 20
515.163861
 30
0.0
 11
21.291618
 21
468.017518
 31
0.0
  0
LINE
  5
413
330
3F5
100
AcDbEntity
  8
0
  6
Continuous
 62
     0
370
    30
100
AcDbLine
 10
19.691618
 20
468.017518
 30
0.0
 11
19.691618
 21
515.163861
 31
0.0
  0
LINE
  5
414
330
3F5
100
AcDbEntity
  8
0
  6
Continuous
 62
     0
370
    30
100
AcDbLine
 10
19.691618
 20
515.163861
 30
0.0
 11
19.691618
 21
529.017518
 31
0.0
  0
LWPOLYLINE
  5
415
330
3F5
100
AcDbEntity
  8
0
  6
Continuous
 62
     0
370
    30
100
AcDbPolyline
 90
       22
 70
     0
 43
0.0
 10
27.091618
 20
529.017517
 10
27.091618
 20
528.981079
 10
27.091618
 20
528.871338
 10
27.091618
 20
528.687927
 10
27.091618
 20
528.43103
 10
27.091619
 20
528.101379
 10
27.091619
 20
527.700317
 10
27.091619
 20
527.229553
 10
27.091619
 20
526.691406
 10
27.091619
 20
526.088623
 10
27.091619
 20
525.424255
 10
27.091619
 20
524.701843
 10
27.091619
 20
523.925232
 10
27.091619
 20
523.098511
 10
27.091619
 20
522.225891
 10
27.091619
 20
521.311829
 10
27.091621
 20
520.36084
 10
27.091621
 20
519.377441
 10
27.091621
 20
518.36615
 10
27.091621
 20
517.331421
 10
27.091621
 20
516.277588
 10
27.091621
 20
515.163879
  0
LINE
  5
416
330
3F5
100
AcDbEntity
  8
0
  6
Continuous
 62
     0
370
    30
100
AcDbLine
 10
27.091621
 20
515.163861
 30
0.0
 11
27.091618
 21
468.017518
 31
0.0
  0
LINE
  5
417
330
3F5
100
AcDbEntity
  8
0
  6
Continuous
 62
     0
370
    30
100
AcDbLine
 10
28.691618
 20
529.017518
 30
0.0
 11
28.691618
 21
515.163861
 31
0.0
  0
LINE
  5
418
330
3F5
100
AcDbEntity
  8
0
  6
Continuous
 62
     0
370
    30
100
AcDbLine
 10
28.691618
 20
515.163861
 30
0.0
 11
28.691618
 21
468.017518
 31
0.0
  0
LINE
  5
419
330
3F5
100
AcDbEntity
  8
0
  6
Continuous
 62
     0
370
    30
100
AcDbLine
 10
18.869901
 20
525.017518
 30
0.0
 11
19.691618
 21
525.017518
 31
0.0
  0
LINE
  5
41A
330
3F5
100
AcDbEntity
  8
0
  6
Continuous
 62
     0
370
    30
100
AcDbLine
 10
18.869901
 20
472.017518
 30
0.0
 11
19.691618
 21
472.017518
 31
0.0
  0
LINE
  5
41B
330
3F5
100
AcDbEntity
  8
0
  6
Continuous
 62
     0
370
    30
100
AcDbLine
 10
28.691618
 20
529.017518
 30
0.0
 11
27.091618
 21
529.017518
 31
0.0
  0
LINE
  5
41C
330
3F5
100
AcDbEntity
  8
0
  6
Continuous
 62
     0
370
    30
100
AcDbLine
 10
28.691618
 20
468.017518
 30
0.0
 11
27.091618
 21
468.017518
 31
0.0
  0
LINE
  5
41D
330
3F5
100
AcDbEntity
  8
0
  6
Continuous
 62
     0
370
    30
100
AcDbLine
 10
27.091618
 20
527.967518
 30
0.0
 11
21.291618
 21
527.967518
 31
0.0
  0
LINE
  5
41E
330
3F5
100
AcDbEntity
  8
0
  6
Continuous
 62
     0
370
    30
100
AcDbLine
 10
27.091618
 20
469.067518
 30
0.0
 11
21.291618
 21
469.067518
 31
0.0
  0
LINE
  5
41F
330
3F5
100
AcDbEntity
  8
0
  6
Continuous
 62
     0
370
    30
100
AcDbLine
 10
21.291618
 20
529.017518
 30
0.0
 11
19.691618
 21
529.017518
 31
0.0
  0
LINE
  5
420
330
3F5
100
AcDbEntity
  8
0
  6
Continuous
 62
     0
370
    30
100
AcDbLine
 10
21.291618
 20
468.017518
 30
0.0
 11
19.691618
 21
468.017518
 31
0.0
  0
LINE
  5
421
330
3F5
100
AcDbEntity
  8
0
  6
Continuous
 62
     0
370
    30
100
AcDbLine
 10
2.302693
 20
526.767518
 30
0.0
 11
18.869901
 21
526.767518
 31
0.0
  0
ARC
  5
422
330
3F5
100
AcDbEntity
  8
0
  6
Continuous
 62
     0
370
    30
100
AcDbCircle
 10
2.305536
 20
525.764473
 30
0.0
 40
1.00304819193634
100
AcDbArc
 50
90.162391
 51
175.921502
  0
ARC
  5
423
330
3F5
100
AcDbEntity
  8
0
  6
Continuous
 62
     0
370
    30
100
AcDbCircle
 10
400.36974
 20
498.517587
 30
0.0
 40
399.998661722393
100
AcDbArc
 50
176.083891
 51
179.613517
  0
LINE
  5
424
330
3F5
100
AcDbEntity
  8
0
  6
Continuous
 62
     0
370
    30
100
AcDbLine
 10
0.371077
 20
498.547585
 30
0.0
 11
0.3791
 21
501.050882
 31
0.0
  0
LINE
  5
425
330
3F5
100
AcDbEntity
  8
0
  6
Continuous
 62
     0
370
    30
100
AcDbLine
 10
18.691603
 20
470.267518
 30
0.0
 11
18.691603
 21
468.01757
 31
0.0
  0
LINE
  5
426
330
3F5
100
AcDbEntity
  8
0
  6
Continuous
 62
     0
370
    30
100
AcDbLine
 10
18.691603
 20
529.01757
 30
0.0
 11
18.691603
 21
526.767518
 31
0.0
  0
LINE
  5
427
330
3F5
100
AcDbEntity
  8
0
  6
Continuous
 62
     0
370
    30
100
AcDbLine
 10
18.691603
 20
468.01757
 30
0.0
 11
19.691622
 21
468.01757
 31
0.0
  0
LINE
  5
428
330
3F5
100
AcDbEntity
  8
0
  6
Continuous
 62
     0
370
    30
100
AcDbLine
 10
18.691603
 20
529.01757
 30
0.0
 11
19.691619
 21
529.01757
 31
0.0
  0
LWPOLYLINE
  5
429
330
3F5
100
AcDbEntity
  8
0
  6
Continuous
 62
     0
370
     0
100
AcDbPolyline
 90
       20
 70
     0
 43
0.0
 10
-156.508408
 20
451.517578
 10
-156.477081
 20
451.517578
 10
-156.379654
 20
451.517578
 10
-156.211578
 20
451.517578
 10
-155.969345
 20
451.517578
 10
-155.650696
 20
451.517578
 10
-155.254944
 20
451.517578
 10
-154.783051
 20
451.517578
 10
-154.237762
 20
451.517578
 10
-153.623627
 20
451.517578
 10
-152.946823
 20
451.517578
 10
-152.215042
 20
451.517578
 10
-151.437103
 20
451.517578
 10
-150.622696
 20
451.517578
 10
-149.781952
 20
451.517578
 10
-148.925064
 20
451.517578
 10
-148.06189
 20
451.517578
 10
-147.201721
 20
451.517578
 10
-146.352966
 20
451.517578
 10
-145.508408
 20
451.517578
  0
LINE
  5
42A
330
3F5
100
AcDbEntity
  8
0
  6
Continuous
 62
     0
370
     0
100
AcDbLine
 10
-145.508409
 20
451.51757
 30
0.0
 11
-134.508409
 21
451.51757
 31
0.0
  0
LINE
  5
42B
330
3F5
100
AcDbEntity
  8
0
  6
Continuous
 62
     0
370
     0
100
AcDbLine
 10
-98.508409
 20
487.51757
 30
0.0
 11
-98.508409
 21
498.51757
 31
0.0
  0
LINE
  5
42C
330
3F5
100
AcDbEntity
  8
0
  6
Continuous
 62
     0
370
     0
100
AcDbLine
 10
-98.508409
 20
498.51757
 30
0.0
 11
-98.508409
 21
509.51757
 31
0.0
  0
LINE
  5
42D
330
3F5
100
AcDbEntity
  8
0
  6
Continuous
 62
     0
370
     0
100
AcDbLine
 10
0.371077
 20
498.51757
 30
0.0
 11
-98.508409
 21
498.51757
 31
0.0
  0
LINE
  5
42E
330
3F5
100
AcDbEntity
  8
0
  6
Continuous
 62
     0
370
    30
100
AcDbLine
 10
0.522353
 20
487.517725
 30
0.0
 11
-98.508409
 21
487.517571
 31
0.0
  0
LINE
  5
42F
330
3F5
100
AcDbEntity
  8
0
  6
Continuous
 62
     0
370
    30
100
AcDbLine
 10
-98.508409
 20
509.51757
 30
0.0
 11
0.522359
 21
509.517416
 31
0.0
  0
LINE
  5
430
330
3F5
100
AcDbEntity
  8
0
  6
Continuous
 62
     0
370
    30
100
AcDbLine
 10
-156.508409
 20
446.51757
 30
0.0
 11
-156.508409
 21
451.51757
 31
0.0
  0
LINE
  5
431
330
3F5
100
AcDbEntity
  8
0
  6
Continuous
 62
     0
370
    30
100
AcDbLine
 10
-134.508409
 20
446.51757
 30
0.0
 11
-134.508409
 21
451.51757
 31
0.0
  0
ARC
  5
432
330
3F5
100
AcDbEntity
  8
0
  6
Continuous
 62
     0
370
    30
100
AcDbCircle
 10
-98.510331
 20
451.519492
 30
0.0
 40
57.9980781560613
100
AcDbArc
 50
89.998101
 51
180.001899
  0
ARC
  5
433
330
3F5
100
AcDbEntity
  8
0
  6
Continuous
 62
     0
370
    30
100
AcDbCircle
 10
-98.506787
 20
451.515949
 30
0.0
 40
36.00162182119395
100
AcDbArc
 50
90.002581
 51
179.997419
  0
LINE
  5
434
330
3F5
100
AcDbEntity
  8
0
  6
Continuous
 62
     0
370
    30
100
AcDbLine
 10
0.459792
 20
496.263836
 30
0.0
 11
0.458217
 21
500.472033
 31
0.0
  0
LINE
  5
435
330
3F5
100
AcDbEntity
  8
0
  6
Continuous
 62
     0
370
    30
100
AcDbLine
 10
0.458217
 20
500.472033
 30
0.0
 11
0.458672
 21
500.806369
 31
0.0
  0
LINE
  5
436
330
3F5
100
AcDbEntity
  8
0
  6
Continuous
 62
     0
370
    30
100
AcDbLine
 10
0.458672
 20
500.806369
 30
0.0
 11
0.456474
 21
500.991911
 31
0.0
  0
LINE
  5
437
330
3F5
100
AcDbEntity
  8
0
  6
Continuous
 62
     0
370
    30
100
AcDbLine
 10
0.449871
 20
501.050419
 30
0.0
 11
0.450949
 21
501.215242
 31
0.0
  0
LINE
  5
438
330
3F5
100
AcDbEntity
  8
0
  6
Continuous
 62
     0
370
    30
100
AcDbLine
 10
0.518331
 20
501.136152
 30
0.0
 11
0.535627
 21
500.92673
 31
0.0
  0
LINE
  5
439
330
3F5
100
AcDbEntity
  8
0
  6
Continuous
 62
     0
370
    30
100
AcDbLine
 10
0.535627
 20
500.92673
 30
0.0
 11
0.549033
 21
500.639937
 31
0.0
  0
LINE
  5
43A
330
3F5
100
AcDbEntity
  8
0
  6
Continuous
 62
     0
370
    30
100
AcDbLine
 10
0.549033
 20
500.639937
 30
0.0
 11
0.558659
 21
500.321513
 31
0.0
  0
LINE
  5
43B
330
3F5
100
AcDbEntity
  8
0
  6
Continuous
 62
     0
370
    30
100
AcDbLine
 10
0.558659
 20
500.321513
 30
0.0
 11
0.570318
 21
499.722666
 31
0.0
  0
LINE
  5
43C
330
3F5
100
AcDbEntity
  8
0
  6
Continuous
 62
     0
370
    30
100
AcDbLine
 10
0.570318
 20
499.722666
 30
0.0
 11
0.577684
 21
499.026516
 31
0.0
  0
LINE
  5
43D
330
3F5
100
AcDbEntity
  8
0
  6
Continuous
 62
     0
370
    30
100
AcDbLine
 10
0.577684
 20
499.026516
 30
0.0
 11
0.580428
 21
498.273346
 31
0.0
  0
LINE
  5
43E
330
3F5
100
AcDbEntity
  8
0
  6
Continuous
 62
     0
370
    30
100
AcDbLine
 10
0.580428
 20
498.273346
 30
0.0
 11
0.578612
 21
497.533136
 31
0.0
  0
LINE
  5
43F
330
3F5
100
AcDbEntity
  8
0
  6
Continuous
 62
     0
370
    30
100
AcDbLine
 10
0.578612
 20
497.533136
 30
0.0
 11
0.572418
 21
496.883183
 31
0.0
  0
LINE
  5
440
330
3F5
100
AcDbEntity
  8
0
  6
Continuous
 62
     0
370
    30
100
AcDbLine
 10
0.572418
 20
496.883183
 30
0.0
 11
0.562355
 21
496.341427
 31
0.0
  0
LINE
  5
441
330
3F5
100
AcDbEntity
  8
0
  6
Continuous
 62
     0
370
    30
100
AcDbLine
 10
0.562355
 20
496.341427
 30
0.0
 11
0.548582
 21
495.902176
 31
0.0
  0
LINE
  5
442
330
3F5
100
AcDbEntity
  8
0
  6
Continuous
 62
     0
370
    30
100
AcDbLine
 10
0.548582
 20
495.902176
 30
0.0
 11
0.532753
 21
495.63894
 31
0.0
  0
LINE
  5
443
330
3F5
100
AcDbEntity
  8
0
  6
Continuous
 62
     0
370
    30
100
AcDbLine
 10
0.532753
 20
495.63894
 30
0.0
 11
0.508566
 21
495.539148
 31
0.0
  0
LINE
  5
444
330
3F5
100
AcDbEntity
  8
0
  6
Continuous
 62
     0
370
    30
100
AcDbLine
 10
0.452941
 20
495.539148
 30
0.0
 11
0.451776
 21
495.700002
 31
0.0
  0
LINE
  5
445
330
3F5
100
AcDbEntity
  8
0
  6
Continuous
 62
     0
370
    30
100
AcDbLine
 10
0.454155
 20
495.700002
 30
0.0
 11
0.459763
 21
495.873073
 31
0.0
  0
LINE
  5
446
330
3F5
100
AcDbEntity
  8
0
  6
Continuous
 62
     0
370
    30
100
AcDbLine
 10
0.459763
 20
495.873073
 30
0.0
 11
0.459792
 21
496.263836
 31
0.0
  0
LINE
  5
447
330
3F5
100
AcDbEntity
  8
0
  6
Continuous
 62
     0
370
    30
100
AcDbLine
 10
0.474944
 20
500.856907
 30
0.0
 11
0.473282
 21
496.482117
 31
0.0
  0
LINE
  5
448
330
3F5
100
AcDbEntity
  8
0
  6
Continuous
 62
     0
370
    30
100
AcDbLine
 10
0.473282
 20
496.482117
 30
0.0
 11
0.477891
 21
496.032444
 31
0.0
  0
LINE
  5
449
330
3F5
100
AcDbEntity
  8
0
  6
Continuous
 62
     0
370
    30
100
AcDbLine
 10
0.477891
 20
496.032444
 30
0.0
 11
0.485548
 21
495.85373
 31
0.0
  0
LINE
  5
44A
330
3F5
100
AcDbEntity
  8
0
  6
Continuous
 62
     0
370
    30
100
AcDbLine
 10
0.500594
 20
495.809804
 30
0.0
 11
0.525341
 21
495.926872
 31
0.0
  0
LINE
  5
44B
330
3F5
100
AcDbEntity
  8
0
  6
Continuous
 62
     0
370
    30
100
AcDbLine
 10
0.525341
 20
495.926872
 30
0.0
 11
0.543818
 21
496.44458
 31
0.0
  0
LINE
  5
44C
330
3F5
100
AcDbEntity
  8
0
  6
Continuous
 62
     0
370
    30
100
AcDbLine
 10
0.543818
 20
496.44458
 30
0.0
 11
0.553781
 21
497.177418
 31
0.0
  0
LINE
  5
44D
330
3F5
100
AcDbEntity
  8
0
  6
Continuous
 62
     0
370
    30
100
AcDbLine
 10
0.553781
 20
497.177418
 30
0.0
 11
0.5567
 21
498.232336
 31
0.0
  0
LINE
  5
44E
330
3F5
100
AcDbEntity
  8
0
  6
Continuous
 62
     0
370
    30
100
AcDbLine
 10
0.5567
 20
498.232336
 30
0.0
 11
0.553067
 21
499.199019
 31
0.0
  0
LINE
  5
44F
330
3F5
100
AcDbEntity
  8
0
  6
Continuous
 62
     0
370
    30
100
AcDbLine
 10
0.553067
 20
499.199019
 30
0.0
 11
0.54323
 21
500.048123
 31
0.0
  0
LINE
  5
450
330
3F5
100
AcDbEntity
  8
0
  6
Continuous
 62
     0
370
    30
100
AcDbLine
 10
0.54323
 20
500.048123
 30
0.0
 11
0.523962
 21
500.703588
 31
0.0
  0
LINE
  5
451
330
3F5
100
AcDbEntity
  8
0
  6
Continuous
 62
     0
370
    30
100
AcDbLine
 10
0.523962
 20
500.703588
 30
0.0
 11
0.495223
 21
500.940617
 31
0.0
  0
ENDBLK
  5
453
330
3F5
100
AcDbEntity
  8
0
100
AcDbBlockEnd
  0
ENDSEC
  0
SECTION
  2
ENTITIES
  0
INSERT
  5
179
330
1F
100
AcDbEntity
  8
0
  6
Continuous
 62
     7
420
 16250871
370
     0
100
AcDbBlockReference
  2
a
 10
92.176735
 20
122.27581
 30
0.0
  0
INSERT
  5
221
330
1F
100
AcDbEntity
  8
0
  6
Continuous
 62
     7
420
 16250871
370
     0
100
AcDbBlockReference
  2
b
 10
92.176735
 20
122.27581
 30
0.0
  0
INSERT
  5
27B
330
1F
100
AcDbEntity
  8
0
  6
Continuous
 62
     7
420
 16250871
370
     0
100
AcDbBlockReference
  2
c
 10
92.176735
 20
122.27581
 30
0.0
  0
INSERT
  5
3F4
330
1F
100
AcDbEntity
  8
0
  6
Continuous
 62
     7
420
 16250871
370
     0
100
AcDbBlockReference
  2
d
 10
92.176735
 20
122.27581
 30
0.0
  0
INSERT
  5
454
330
1F
100
AcDbEntity
  8
0
  6
Continuous
 62
     7
420
 16250871
370
     0
100
AcDbBlockReference
  2
e
 10
63.502609
 20
0.0
 30
0.0
  0
ENDSEC
  0
SECTION
  2
OBJECTS
  0
DICTIONARY
  5
C
330
0
100
AcDbDictionary
281
     1
  3
ACAD_DETAILVIEWSTYLE
350
48C
  3
ACAD_GROUP
350
D
  3
ACAD_LAYOUT
350
1A
  3
ACAD_MATERIAL
350
43
  3
ACAD_MLEADERSTYLE
350
6B
  3
ACAD_MLINESTYLE
350
17
  3
ACAD_PLOTSETTINGS
350
19
  3
ACAD_PLOTSTYLENAME
350
E
  3
ACAD_SCALELIST
350
47
  3
ACAD_SECTIONVIEWSTYLE
350
48D
  3
ACAD_TABLESTYLE
350
69
  3
ACAD_VISUALSTYLE
350
2A
  3
ACDB_RECOMPOSE_DATA
350
489
  3
AcDbVariableDictionary
350
455
  0
SUN
  5
6D
330
29
100
AcDbSun
 90
        1
290
     0
 63
     7
421
 16777215
 40
1.0
291
     1
 91
  2455826
 92
 54000000
292
     0
 70
     2
 71
   256
280
     1
  0
DICTIONARY
  5
48C
102
{ACAD_REACTORS
330
C
102
}
330
C
100
AcDbDictionary
281
     1
  0
DICTIONARY
  5
D
102
{ACAD_REACTORS
330
C
102
}
330
C
100
AcDbDictionary
281
     1
  0
DICTIONARY
  5
1A
102
{ACAD_REACTORS
330
C
102
}
330
C
100
AcDbDictionary
281
     1
  3
Layout1
350
1E
  3
Layout2
350
26
  3
Model
350
22
  0
DICTIONARY
  5
43
102
{ACAD_REACTORS
330
C
102
}
330
C
100
AcDbDictionary
281
     1
  3
ByBlock
350
45
  3
ByLayer
350
44
  3
Global
350
46
  0
DICTIONARY
  5
6B
102
{ACAD_REACTORS
330
C
102
}
330
C
100
AcDbDictionary
281
     1
  3
Standard
350
6C
  0
DICTIONARY
  5
17
102
{ACAD_REACTORS
330
C
102
}
330
C
100
AcDbDictionary
281
     1
  3
Standard
350
18
  0
DICTIONARY
  5
19
102
{ACAD_REACTORS
330
C
102
}
330
C
100
AcDbDictionary
281
     1
  0
ACDBDICTIONARYWDFLT
  5
E
102
{ACAD_REACTORS
330
C
102
}
330
C
100
AcDbDictionary
281
     1
  3
Normal
350
F
100
AcDbDictionaryWithDefault
340
F
  0
DICTIONARY
  5
47
102
{ACAD_REACTORS
330
C
102
}
330
C
100
AcDbDictionary
281
     1
  3
A0
350
48
  3
A1
350
49
  3
A2
350
4A
  3
A3
350
4B
  3
A4
350
4C
  3
A5
350
4D
  3
A6
350
4E
  3
A7
350
4F
  3
A8
350
50
  3
A9
350
51
  3
B0
350
52
  3
B1
350
53
  3
B2
350
54
  3
B3
350
55
  3
B4
350
56
  3
B5
350
57
  3
B6
350
58
  3
B7
350
59
  3
B8
350
5A
  3
B9
350
5B
  3
C0
350
5C
  3
C1
350
5D
  3
C2
350
5E
  3
C3
350
5F
  3
C4
350
60
  3
C5
350
61
  3
C6
350
62
  3
C7
350
63
  3
C8
350
64
  3
C9
350
65
  3
D0
350
66
  3
D1
350
67
  3
D2
350
68
  0
DICTIONARY
  5
48D
102
{ACAD_REACTORS
330
C
102
}
330
C
100
AcDbDictionary
281
     1
  0
DICTIONARY
  5
69
102
{ACAD_REACTORS
330
C
102
}
330
C
100
AcDbDictionary
281
     1
  3
Standard
350
6A
  0
DICTIONARY
  5
2A
102
{ACAD_REACTORS
330
C
102
}
330
C
100
AcDbDictionary
281
     1
  3
2dWireframe
350
2F
  3
Basic
350
32
  3
Brighten
350
36
  3
ColorChange
350
3A
  3
Conceptual
350
34
  3
Dim
350
35
  3
EdgeColorOff
350
3D
  3
Facepattern
350
39
  3
Flat
350
2B
  3
FlatWithEdges
350
2C
  3
Gouraud
350
2D
  3
GouraudWithEdges
350
2E
  3
Hidden
350
31
  3
JitterOff
350
3B
  3
Linepattern
350
38
  3
OverhangOff
350
3C
  3
Realistic
350
33
  3
Shaded
350
42
  3
Shaded with edges
350
41
  3
Shades of Gray
350
3E
  3
Sketchy
350
3F
  3
Thicken
350
37
  3
Wireframe
350
30
  3
X-Ray
350
40
  0
XRECORD
  5
489
102
{ACAD_REACTORS
330
C
102
}
330
C
100
AcDbXrecord
280
     1
 90
        1
330
6A
  0
DICTIONARY
  5
455
102
{ACAD_REACTORS
330
C
102
}
330
C
100
AcDbDictionary
281
     1
  3
CANNOSCALE
350
456
  3
CMLEADERSTYLE
350
48B
  3
CTABLESTYLE
350
48A
  0
LAYOUT
  5
1E
102
{ACAD_REACTORS
330
1A
102
}
330
1A
100
AcDbPlotSettings
  1

  2
none_device
  4

  6

 40
0.0
 41
0.0
 42
0.0
 43
0.0
 44
0.0
 45
0.0
 46
0.0
 47
0.0
 48
0.0
 49
0.0
140
0.0
141
0.0
142
1.0
143
1.0
 70
   688
 72
     1
 73
     0
 74
     5
  7

 75
    16
 76
     0
 77
     2
 78
   300
147
1.0
148
0.0
149
0.0
100
AcDbLayout
  1
Layout1
 70
     1
 71
     1
 10
0.0
 20
0.0
 11
420.0
 21
297.0
 12
0.0
 22
0.0
 32
0.0
 14
1.000000E+20
 24
1.000000E+20
 34
1.000000E+20
 15
-1.000000E+20
 25
-1.000000E+20
 35
-1.000000E+20
146
0.0
 13
0.0
 23
0.0
 33
0.0
 16
1.0
 26
0.0
 36
0.0
 17
0.0
 27
1.0
 37
0.0
 76
     0
330
1B
  0
LAYOUT
  5
26
102
{ACAD_REACTORS
330
1A
102
}
330
1A
100
AcDbPlotSettings
  1

  2
none_device
  4

  6

 40
0.0
 41
0.0
 42
0.0
 43
0.0
 44
0.0
 45
0.0
 46
0.0
 47
0.0
 48
0.0
 49
0.0
140
0.0
141
0.0
142
1.0
143
1.0
 70
   688
 72
     1
 73
     0
 74
     5
  7

 75
    16
 76
     0
 77
     2
 78
   300
147
1.0
148
0.0
149
0.0
100
AcDbLayout
  1
Layout2
 70
     1
 71
     2
 10
0.0
 20
0.0
 11
0.0
 21
0.0
 12
0.0
 22
0.0
 32
0.0
 14
0.0
 24
0.0
 34
0.0
 15
0.0
 25
0.0
 35
0.0
146
0.0
 13
0.0
 23
0.0
 33
0.0
 16
1.0
 26
0.0
 36
0.0
 17
0.0
 27
1.0
 37
0.0
 76
     0
330
23
  0
LAYOUT
  5
22
102
{ACAD_REACTORS
330
1A
102
}
330
1A
100
AcDbPlotSettings
  1

  2
none_device
  4
Letter_(8.50_x_11.00_Inches)
  6

 40
6.35
 41
6.35
 42
6.350005
 43
6.350005
 44
215.9
 45
279.4
 46
0.0
 47
0.0
 48
0.0
 49
0.0
140
0.0
141
0.0
142
1.0
143
1.0
 70
  1712
 72
     1
 73
     0
 74
     0
  7

 75
     0
 76
     0
 77
     2
 78
   300
147
1.0
148
0.0
149
0.0
100
AcDbLayout
  1
Model
 70
     1
 71
     0
 10
0.0
 20
0.0
 11
420.0
 21
297.0
 12
0.0
 22
0.0
 32
0.0
 14
1.000000E+20
 24
1.000000E+20
 34
1.000000E+20
 15
-1.000000E+20
 25
-1.000000E+20
 35
-1.000000E+20
146
0.0
 13
0.0
 23
0.0
 33
0.0
 16
1.0
 26
0.0
 36
0.0
 17
0.0
 27
1.0
 37
0.0
 76
     0
330
1F
331
29
  0
MATERIAL
  5
45
102
{ACAD_REACTORS
330
43
102
}
330
43
100
AcDbMaterial
  1
ByBlock
 72
     1
 94
      127
  0
MATERIAL
  5
44
102
{ACAD_REACTORS
330
43
102
}
330
43
100
AcDbMaterial
  1
ByLayer
 72
     1
 94
      127
  0
MATERIAL
  5
46
102
{ACAD_REACTORS
330
43
102
}
330
43
100
AcDbMaterial
  1
Global
 72
     1
 94
      127
  0
MLEADERSTYLE
  5
6C
102
{ACAD_REACTORS
330
6B
102
}
330
6B
100
AcDbMLeaderStyle
179
     2
170
     2
171
     1
172
     0
 90
        2
 40
0.0
 41
0.0
173
     1
 91
-1056964608
340
14
 92
       -2
290
     1
 42
2.0
291
     1
 43
8.0
  3
Standard
341
0
 44
4.0
300

342
11
174
     1
178
     6
175
     1
176
     0
 93
-1056964608
 45
4.0
292
     0
297
     0
 46
4.0
343
0
 94
-1056964608
 47
1.0
 49
1.0
140
1.0
293
     1
141
0.0
294
     1
177
     0
142
1.0
295
     0
296
     0
143
3.75
271
     0
272
     9
273
     9
  0
MLINESTYLE
  5
18
102
{ACAD_REACTORS
330
17
102
}
330
17
100
AcDbMlineStyle
  2
Standard
 70
     0
  3

 62
   256
 51
90.0
 52
90.0
 71
     2
 49
0.5
 62
   256
  6
BYLAYER
 49
-0.5
 62
   256
  6
BYLAYER
  0
ACDBPLACEHOLDER
  5
F
102
{ACAD_REACTORS
330
E
102
}
330
E
  0
SCALE
  5
48
102
{ACAD_REACTORS
330
47
102
}
330
47
100
AcDbScale
 70
     0
300
1:1
140
1.0
141
1.0
290
     1
  0
SCALE
  5
49
102
{ACAD_REACTORS
330
47
102
}
330
47
100
AcDbScale
 70
     0
300
1:2
140
1.0
141
2.0
290
     0
  0
SCALE
  5
4A
102
{ACAD_REACTORS
330
47
102
}
330
47
100
AcDbScale
 70
     0
300
1:4
140
1.0
141
4.0
290
     0
  0
SCALE
  5
4B
102
{ACAD_REACTORS
330
47
102
}
330
47
100
AcDbScale
 70
     0
300
1:5
140
1.0
141
5.0
290
     0
  0
SCALE
  5
4C
102
{ACAD_REACTORS
330
47
102
}
330
47
100
AcDbScale
 70
     0
300
1:8
140
1.0
141
8.0
290
     0
  0
SCALE
  5
4D
102
{ACAD_REACTORS
330
47
102
}
330
47
100
AcDbScale
 70
     0
300
1:10
140
1.0
141
10.0
290
     0
  0
SCALE
  5
4E
102
{ACAD_REACTORS
330
47
102
}
330
47
100
AcDbScale
 70
     0
300
1:16
140
1.0
141
16.0
290
     0
  0
SCALE
  5
4F
102
{ACAD_REACTORS
330
47
102
}
330
47
100
AcDbScale
 70
     0
300
1:20
140
1.0
141
20.0
290
     0
  0
SCALE
  5
50
102
{ACAD_REACTORS
330
47
102
}
330
47
100
AcDbScale
 70
     0
300
1:30
140
1.0
141
30.0
290
     0
  0
SCALE
  5
51
102
{ACAD_REACTORS
330
47
102
}
330
47
100
AcDbScale
 70
     0
300
1:40
140
1.0
141
40.0
290
     0
  0
SCALE
  5
52
102
{ACAD_REACTORS
330
47
102
}
330
47
100
AcDbScale
 70
     0
300
1:50
140
1.0
141
50.0
290
     0
  0
SCALE
  5
53
102
{ACAD_REACTORS
330
47
102
}
330
47
100
AcDbScale
 70
     0
300
1:100
140
1.0
141
100.0
290
     0
  0
SCALE
  5
54
102
{ACAD_REACTORS
330
47
102
}
330
47
100
AcDbScale
 70
     0
300
2:1
140
2.0
141
1.0
290
     0
  0
SCALE
  5
55
102
{ACAD_REACTORS
330
47
102
}
330
47
100
AcDbScale
 70
     0
300
4:1
140
4.0
141
1.0
290
     0
  0
SCALE
  5
56
102
{ACAD_REACTORS
330
47
102
}
330
47
100
AcDbScale
 70
     0
300
8:1
140
8.0
141
1.0
290
     0
  0
SCALE
  5
57
102
{ACAD_REACTORS
330
47
102
}
330
47
100
AcDbScale
 70
     0
300
10:1
140
10.0
141
1.0
290
     0
  0
SCALE
  5
58
102
{ACAD_REACTORS
330
47
102
}
330
47
100
AcDbScale
 70
     0
300
100:1
140
100.0
141
1.0
290
     0
  0
SCALE
  5
59
102
{ACAD_REACTORS
330
47
102
}
330
47
100
AcDbScale
 70
     0
300
1/128" = 1'-0"
140
0.007812
141
12.0
290
     0
  0
SCALE
  5
5A
102
{ACAD_REACTORS
330
47
102
}
330
47
100
AcDbScale
 70
     0
300
1/64" = 1'-0"
140
0.015625
141
12.0
290
     0
  0
SCALE
  5
5B
102
{ACAD_REACTORS
330
47
102
}
330
47
100
AcDbScale
 70
     0
300
1/32" = 1'-0"
140
0.03125
141
12.0
290
     0
  0
SCALE
  5
5C
102
{ACAD_REACTORS
330
47
102
}
330
47
100
AcDbScale
 70
     0
300
1/16" = 1'-0"
140
0.0625
141
12.0
290
     0
  0
SCALE
  5
5D
102
{ACAD_REACTORS
330
47
102
}
330
47
100
AcDbScale
 70
     0
300
3/32" = 1'-0"
140
0.09375
141
12.0
290
     0
  0
SCALE
  5
5E
102
{ACAD_REACTORS
330
47
102
}
330
47
100
AcDbScale
 70
     0
300
1/8" = 1'-0"
140
0.125
141
12.0
290
     0
  0
SCALE
  5
5F
102
{ACAD_REACTORS
330
47
102
}
330
47
100
AcDbScale
 70
     0
300
3/16" = 1'-0"
140
0.1875
141
12.0
290
     0
  0
SCALE
  5
60
102
{ACAD_REACTORS
330
47
102
}
330
47
100
AcDbScale
 70
     0
300
1/4" = 1'-0"
140
0.25
141
12.0
290
     0
  0
SCALE
  5
61
102
{ACAD_REACTORS
330
47
102
}
330
47
100
AcDbScale
 70
     0
300
3/8" = 1'-0"
140
0.375
141
12.0
290
     0
  0
SCALE
  5
62
102
{ACAD_REACTORS
330
47
102
}
330
47
100
AcDbScale
 70
     0
300
1/2" = 1'-0"
140
0.5
141
12.0
290
     0
  0
SCALE
  5
63
102
{ACAD_REACTORS
330
47
102
}
330
47
100
AcDbScale
 70
     0
300
3/4" = 1'-0"
140
0.75
141
12.0
290
     0
  0
SCALE
  5
64
102
{ACAD_REACTORS
330
47
102
}
330
47
100
AcDbScale
 70
     0
300
1" = 1'-0"
140
1.0
141
12.0
290
     0
  0
SCALE
  5
65
102
{ACAD_REACTORS
330
47
102
}
330
47
100
AcDbScale
 70
     0
300
1-1/2" = 1'-0"
140
1.5
141
12.0
290
     0
  0
SCALE
  5
66
102
{ACAD_REACTORS
330
47
102
}
330
47
100
AcDbScale
 70
     0
300
3" = 1'-0"
140
3.0
141
12.0
290
     0
  0
SCALE
  5
67
102
{ACAD_REACTORS
330
47
102
}
330
47
100
AcDbScale
 70
     0
300
6" = 1'-0"
140
6.0
141
12.0
290
     0
  0
SCALE
  5
68
102
{ACAD_REACTORS
330
47
102
}
330
47
100
AcDbScale
 70
     0
300
1'-0" = 1'-0"
140
12.0
141
12.0
290
     0
  0
TABLESTYLE
  5
6A
102
{ACAD_REACTORS
330
69
102
}
102
{ACAD_XDICTIONARY
360
487
102
}
330
69
100
AcDbTableStyle
  3
Standard
 70
     0
 71
     0
 40
0.06
 41
0.06
280
     0
281
     0
  7
Standard
140
4.5
170
     2
 62
     0
 63
   257
283
     0
 90
        4
 91
        0
  1

274
    -2
284
     1
 64
     0
275
    -2
285
     1
 65
     0
276
    -2
286
     1
 66
     0
277
    -2
287
     1
 67
     0
278
    -2
288
     1
 68
     0
279
    -2
289
     1
 69
     0
  7
Standard
140
6.0
170
     5
 62
     0
 63
   257
283
     0
 90
        4
 91
        0
  1

274
    -2
284
     1
 64
     0
275
    -2
285
     1
 65
     0
276
    -2
286
     1
 66
     0
277
    -2
287
     1
 67
     0
278
    -2
288
     1
 68
     0
279
    -2
289
     1
 69
     0
  7
Standard
140
4.5
170
     5
 62
     0
 63
   257
283
     0
 90
        4
 91
        0
  1

274
    -2
284
     1
 64
     0
275
    -2
285
     1
 65
     0
276
    -2
286
     1
 66
     0
277
    -2
287
     1
 67
     0
278
    -2
288
     1
 68
     0
279
    -2
289
     1
 69
     0
  0
VISUALSTYLE
  5
2F
102
{ACAD_REACTORS
330
2A
102
}
102
{ACAD_XDICTIONARY
360
45F
102
}
330
2A
100
AcDbVisualStyle
  2
2dWireframe
 70
     4
177
     2
291
     0
 71
     0
176
     1
 72
     2
176
     1
 73
     0
176
     1
 90
        0
176
     1
 40
0.6
176
     1
 41
30.0
176
     1
 62
     5
 63
     7
421
 16777215
176
     1
 74
     1
176
     1
 91
        4
176
     1
 64
     7
176
     1
 65
   257
176
     1
 75
     1
176
     1
175
     1
176
     1
 42
1.0
176
     1
 92
        0
176
     1
 66
   257
176
     1
 43
1.0
176
     1
 76
     1
176
     1
 77
     6
176
     1
 78
     2
176
     1
 67
     7
176
     1
 79
     5
176
     1
170
     0
176
     1
171
     0
176
     1
290
     0
176
     1
 93
        1
176
     1
 44
0.0
176
     1
173
     0
176
     1
  0
VISUALSTYLE
  5
32
102
{ACAD_REACTORS
330
2A
102
}
102
{ACAD_XDICTIONARY
360
465
102
}
330
2A
100
AcDbVisualStyle
  2
Basic
 70
     7
177
     2
291
     1
 71
     1
176
     1
 72
     0
176
     1
 73
     1
176
     1
 90
        0
176
     1
 40
0.6
176
     1
 41
30.0
176
     1
 62
     5
 63
     7
421
 16777215
176
     1
 74
     0
176
     1
 91
        4
176
     1
 64
     7
176
     1
 65
   257
176
     1
 75
     1
176
     1
175
     1
176
     1
 42
1.0
176
     1
 92
        8
176
     1
 66
     7
176
     1
 43
1.0
176
     1
 76
     1
176
     1
 77
     6
176
     1
 78
     2
176
     1
 67
     7
176
     1
 79
     5
176
     1
170
     0
176
     1
171
     0
176
     1
290
     0
176
     1
 93
        1
176
     1
 44
0.0
176
     1
173
     0
176
     1
  0
VISUALSTYLE
  5
36
102
{ACAD_REACTORS
330
2A
102
}
102
{ACAD_XDICTIONARY
360
46D
102
}
330
2A
100
AcDbVisualStyle
  2
Brighten
 70
    12
177
     2
291
     1
 71
     2
176
     1
 72
     2
176
     1
 73
     0
176
     1
 90
        0
176
     1
 40
0.6
176
     1
 41
30.0
176
     1
 62
     5
 63
     7
421
 16777215
176
     1
 74
     1
176
     1
 91
        4
176
     1
 64
     7
176
     1
 65
   257
176
     1
 75
     1
176
     1
175
     1
176
     1
 42
1.0
176
     1
 92
        8
176
     1
 66
     7
176
     1
 43
1.0
176
     1
 76
     1
176
     1
 77
     6
176
     1
 78
     2
176
     1
 67
     7
176
     1
 79
     5
176
     1
170
     0
176
     1
171
     0
176
     1
290
     0
176
     1
 93
        1
176
     1
 44
50.0
176
     1
173
     0
176
     1
  0
VISUALSTYLE
  5
3A
102
{ACAD_REACTORS
330
2A
102
}
102
{ACAD_XDICTIONARY
360
475
102
}
330
2A
100
AcDbVisualStyle
  2
ColorChange
 70
    16
177
     2
291
     1
 71
     2
176
     1
 72
     2
176
     1
 73
     3
176
     1
 90
        0
176
     1
 40
0.6
176
     1
 41
30.0
176
     1
 62
     5
 63
     8
421
  8421504
176
     1
 74
     1
176
     1
 91
        4
176
     1
 64
     7
176
     1
 65
   257
176
     1
 75
     1
176
     1
175
     1
176
     1
 42
1.0
176
     1
 92
        8
176
     1
 66
     8
424
  8421504
176
     1
 43
1.0
176
     1
 76
     1
176
     1
 77
     6
176
     1
 78
     2
176
     1
 67
     7
176
     1
 79
     5
176
     1
170
     0
176
     1
171
     0
176
     1
290
     0
176
     1
 93
        1
176
     1
 44
0.0
176
     1
173
     0
176
     1
  0
VISUALSTYLE
  5
34
102
{ACAD_REACTORS
330
2A
102
}
102
{ACAD_XDICTIONARY
360
469
102
}
330
2A
100
AcDbVisualStyle
  2
Conceptual
 70
     9
177
     2
291
     0
 71
     3
176
     1
 72
     2
176
     1
 73
     0
176
     1
 90
        0
176
     1
 40
0.6
176
     1
 41
30.0
176
     1
 62
     5
 63
     7
421
 16777215
176
     1
 74
     2
176
     1
 91
        2
176
     1
 64
     7
176
     1
 65
   257
176
     1
 75
     1
176
     1
175
     1
176
     1
 42
179.0
176
     1
 92
        8
176
     1
 66
     7
176
     1
 43
1.0
176
     1
 76
     1
176
     1
 77
     6
176
     1
 78
     2
176
     1
 67
     7
176
     1
 79
     3
176
     1
170
     0
176
     1
171
     0
176
     1
290
     0
176
     1
 93
        1
176
     1
 44
0.0
176
     1
173
     0
176
     1
  0
VISUALSTYLE
  5
35
102
{ACAD_REACTORS
330
2A
102
}
102
{ACAD_XDICTIONARY
360
46B
102
}
330
2A
100
AcDbVisualStyle
  2
Dim
 70
    11
177
     2
291
     1
 71
     2
176
     1
 72
     2
176
     1
 73
     0
176
     1
 90
        0
176
     1
 40
0.6
176
     1
 41
30.0
176
     1
 62
     5
 63
     7
421
 16777215
176
     1
 74
     1
176
     1
 91
        4
176
     1
 64
     7
176
     1
 65
   257
176
     1
 75
     1
176
     1
175
     1
176
     1
 42
1.0
176
     1
 92
        8
176
     1
 66
     7
176
     1
 43
1.0
176
     1
 76
     1
176
     1
 77
     6
176
     1
 78
     2
176
     1
 67
     7
176
     1
 79
     5
176
     1
170
     0
176
     1
171
     0
176
     1
290
     0
176
     1
 93
        1
176
     1
 44
-50.0
176
     1
173
     0
176
     1
  0
VISUALSTYLE
  5
3D
102
{ACAD_REACTORS
330
2A
102
}
102
{ACAD_XDICTIONARY
360
47B
102
}
330
2A
100
AcDbVisualStyle
  2
EdgeColorOff
 70
    22
177
     2
291
     1
 71
     2
176
     0
 72
     2
176
     0
 73
     0
176
     0
 90
        0
176
     0
 40
0.6
176
     0
 41
30.0
176
     0
 62
     5
 63
     7
421
 16777215
176
     0
 74
     1
176
     0
 91
        4
176
     0
 64
     7
176
     0
 65
   257
176
     0
 75
     1
176
     0
175
     1
176
     0
 42
1.0
176
     0
 92
        8
176
     2
 66
     7
176
     0
 43
1.0
176
     0
 76
     1
176
     0
 77
     6
176
     0
 78
     2
176
     0
 67
     7
176
     0
 79
     5
176
     0
170
     0
176
     0
171
     0
176
     0
290
     0
176
     0
 93
        1
176
     0
 44
0.0
176
     0
173
     0
176
     0
  0
VISUALSTYLE
  5
39
102
{ACAD_REACTORS
330
2A
102
}
102
{ACAD_XDICTIONARY
360
473
102
}
330
2A
100
AcDbVisualStyle
  2
Facepattern
 70
    15
177
     2
291
     1
 71
     2
176
     1
 72
     2
176
     1
 73
     0
176
     1
 90
        0
176
     1
 40
0.6
176
     1
 41
30.0
176
     1
 62
     5
 63
     7
421
 16777215
176
     1
 74
     1
176
     1
 91
        4
176
     1
 64
     7
176
     1
 65
   257
176
     1
 75
     1
176
     1
175
     1
176
     1
 42
1.0
176
     1
 92
        8
176
     1
 66
     7
176
     1
 43
1.0
176
     1
 76
     1
176
     1
 77
     6
176
     1
 78
     2
176
     1
 67
     7
176
     1
 79
     5
176
     1
170
     0
176
     1
171
     0
176
     1
290
     0
176
     1
 93
        1
176
     1
 44
0.0
176
     1
173
     0
176
     1
  0
VISUALSTYLE
  5
2B
102
{ACAD_REACTORS
330
2A
102
}
102
{ACAD_XDICTIONARY
360
457
102
}
330
2A
100
AcDbVisualStyle
  2
Flat
 70
     0
177
     2
291
     1
 71
     2
176
     1
 72
     1
176
     1
 73
     1
176
     1
 90
        2
176
     1
 40
0.6
176
     1
 41
30.0
176
     1
 62
     5
 63
     7
421
 16777215
176
     1
 74
     0
176
     1
 91
        0
176
     1
 64
     7
176
     1
 65
   257
176
     1
 75
     1
176
     1
175
     1
176
     1
 42
1.0
176
     1
 92
        8
176
     1
 66
     7
176
     1
 43
1.0
176
     1
 76
     1
176
     1
 77
     6
176
     1
 78
     2
176
     1
 67
     7
176
     1
 79
     5
176
     1
170
     0
176
     1
171
     0
176
     1
290
     0
176
     1
 93
       13
176
     1
 44
0.0
176
     1
173
     0
176
     1
  0
VISUALSTYLE
  5
2C
102
{ACAD_REACTORS
330
2A
102
}
102
{ACAD_XDICTIONARY
360
459
102
}
330
2A
100
AcDbVisualStyle
  2
FlatWithEdges
 70
     1
177
     2
291
     1
 71
     2
176
     1
 72
     1
176
     1
 73
     1
176
     1
 90
        2
176
     1
 40
0.6
176
     1
 41
30.0
176
     1
 62
     5
 63
     7
421
 16777215
176
     1
 74
     1
176
     1
 91
        0
176
     1
 64
     7
176
     1
 65
   257
176
     1
 75
     1
176
     1
175
     1
176
     1
 42
1.0
176
     1
 92
        0
176
     1
 66
   257
176
     1
 43
1.0
176
     1
 76
     1
176
     1
 77
     6
176
     1
 78
     2
176
     1
 67
     7
176
     1
 79
     5
176
     1
170
     0
176
     1
171
     0
176
     1
290
     0
176
     1
 93
       13
176
     1
 44
0.0
176
     1
173
     0
176
     1
  0
VISUALSTYLE
  5
2D
102
{ACAD_REACTORS
330
2A
102
}
102
{ACAD_XDICTIONARY
360
45B
102
}
330
2A
100
AcDbVisualStyle
  2
Gouraud
 70
     2
177
     2
291
     1
 71
     2
176
     1
 72
     2
176
     1
 73
     1
176
     1
 90
        2
176
     1
 40
0.6
176
     1
 41
30.0
176
     1
 62
     5
 63
     7
421
 16777215
176
     1
 74
     0
176
     1
 91
        0
176
     1
 64
     7
176
     1
 65
   257
176
     1
 75
     1
176
     1
175
     1
176
     1
 42
1.0
176
     1
 92
        0
176
     1
 66
     7
176
     1
 43
1.0
176
     1
 76
     1
176
     1
 77
     6
176
     1
 78
     2
176
     1
 67
     7
176
     1
 79
     5
176
     1
170
     0
176
     1
171
     0
176
     1
290
     0
176
     1
 93
       13
176
     1
 44
0.0
176
     1
173
     0
176
     1
  0
VISUALSTYLE
  5
2E
102
{ACAD_REACTORS
330
2A
102
}
102
{ACAD_XDICTIONARY
360
45D
102
}
330
2A
100
AcDbVisualStyle
  2
GouraudWithEdges
 70
     3
177
     2
291
     1
 71
     2
176
     1
 72
     2
176
     1
 73
     1
176
     1
 90
        2
176
     1
 40
0.6
176
     1
 41
30.0
176
     1
 62
     5
 63
     7
421
 16777215
176
     1
 74
     1
176
     1
 91
        0
176
     1
 64
     7
176
     1
 65
   257
176
     1
 75
     1
176
     1
175
     1
176
     1
 42
1.0
176
     1
 92
        0
176
     1
 66
   257
176
     1
 43
1.0
176
     1
 76
     1
176
     1
 77
     6
176
     1
 78
     2
176
     1
 67
     7
176
     1
 79
     5
176
     1
170
     0
176
     1
171
     0
176
     1
290
     0
176
     1
 93
       13
176
     1
 44
0.0
176
     1
173
     0
176
     1
  0
VISUALSTYLE
  5
31
102
{ACAD_REACTORS
330
2A
102
}
102
{ACAD_XDICTIONARY
360
463
102
}
330
2A
100
AcDbVisualStyle
  2
Hidden
 70
     6
177
     2
291
     0
 71
     1
176
     1
 72
     2
176
     1
 73
     2
176
     1
 90
        0
176
     1
 40
0.6
176
     1
 41
30.0
176
     1
 62
     5
 63
     7
421
 16777215
176
     1
 74
     2
176
     1
 91
        2
176
     1
 64
     7
176
     1
 65
   257
176
     1
 75
     2
176
     1
175
     1
176
     1
 42
40.0
176
     1
 92
        0
176
     1
 66
   257
176
     1
 43
1.0
176
     1
 76
     1
176
     1
 77
     6
176
     1
 78
     2
176
     1
 67
     7
176
     1
 79
     3
176
     1
170
     0
176
     1
171
     0
176
     1
290
     0
176
     1
 93
        1
176
     1
 44
0.0
176
     1
173
     0
176
     1
  0
VISUALSTYLE
  5
3B
102
{ACAD_REACTORS
330
2A
102
}
102
{ACAD_XDICTIONARY
360
477
102
}
330
2A
100
AcDbVisualStyle
  2
JitterOff
 70
    20
177
     2
291
     1
 71
     2
176
     0
 72
     2
176
     0
 73
     0
176
     0
 90
        0
176
     0
 40
0.6
176
     0
 41
30.0
176
     0
 62
     5
 63
     7
421
 16777215
176
     0
 74
     1
176
     0
 91
        4
176
     0
 64
     7
176
     0
 65
   257
176
     0
 75
     1
176
     0
175
     1
176
     0
 42
1.0
176
     0
 92
       10
176
     2
 66
     7
176
     0
 43
1.0
176
     0
 76
     1
176
     0
 77
     6
176
     0
 78
     2
176
     0
 67
     7
176
     0
 79
     5
176
     0
170
     0
176
     0
171
     0
176
     0
290
     0
176
     0
 93
        1
176
     0
 44
0.0
176
     0
173
     0
176
     0
  0
VISUALSTYLE
  5
38
102
{ACAD_REACTORS
330
2A
102
}
102
{ACAD_XDICTIONARY
360
471
102
}
330
2A
100
AcDbVisualStyle
  2
Linepattern
 70
    14
177
     2
291
     1
 71
     2
176
     1
 72
     2
176
     1
 73
     0
176
     1
 90
        0
176
     1
 40
0.6
176
     1
 41
30.0
176
     1
 62
     5
 63
     7
421
 16777215
176
     1
 74
     1
176
     1
 91
        4
176
     1
 64
     7
176
     1
 65
   257
176
     1
 75
     7
176
     1
175
     7
176
     1
 42
1.0
176
     1
 92
        8
176
     1
 66
     7
176
     1
 43
1.0
176
     1
 76
     1
176
     1
 77
     6
176
     1
 78
     2
176
     1
 67
     7
176
     1
 79
     5
176
     1
170
     0
176
     1
171
     0
176
     1
290
     0
176
     1
 93
        1
176
     1
 44
0.0
176
     1
173
     0
176
     1
  0
VISUALSTYLE
  5
3C
102
{ACAD_REACTORS
330
2A
102
}
102
{ACAD_XDICTIONARY
360
479
102
}
330
2A
100
AcDbVisualStyle
  2
OverhangOff
 70
    21
177
     2
291
     1
 71
     2
176
     0
 72
     2
176
     0
 73
     0
176
     0
 90
        0
176
     0
 40
0.6
176
     0
 41
30.0
176
     0
 62
     5
 63
     7
421
 16777215
176
     0
 74
     1
176
     0
 91
        4
176
     0
 64
     7
176
     0
 65
   257
176
     0
 75
     1
176
     0
175
     1
176
     0
 42
1.0
176
     0
 92
        9
176
     2
 66
     7
176
     0
 43
1.0
176
     0
 76
     1
176
     0
 77
     6
176
     0
 78
     2
176
     0
 67
     7
176
     0
 79
     5
176
     0
170
     0
176
     0
171
     0
176
     0
290
     0
176
     0
 93
        1
176
     0
 44
0.0
176
     0
173
     0
176
     0
  0
VISUALSTYLE
  5
33
102
{ACAD_REACTORS
330
2A
102
}
102
{ACAD_XDICTIONARY
360
467
102
}
330
2A
100
AcDbVisualStyle
  2
Realistic
 70
     8
177
     2
291
     0
 71
     2
176
     1
 72
     3
176
     1
 73
     0
176
     1
 90
        2
176
     1
 40
0.6
176
     1
 41
30.0
176
     1
 62
     5
 63
     7
421
 16777215
176
     1
 74
     0
176
     1
 91
        0
176
     1
 64
     7
176
     1
 65
   257
176
     1
 75
     1
176
     1
175
     1
176
     1
 42
1.0
176
     1
 92
        8
176
     1
 66
   257
176
     1
 43
1.0
176
     1
 76
     1
176
     1
 77
     6
176
     1
 78
     2
176
     1
 67
     7
176
     1
 79
     3
176
     1
170
     0
176
     1
171
     0
176
     1
290
     0
176
     1
 93
       13
176
     1
 44
0.0
176
     1
173
     0
176
     1
  0
VISUALSTYLE
  5
42
102
{ACAD_REACTORS
330
2A
102
}
102
{ACAD_XDICTIONARY
360
485
102
}
330
2A
100
AcDbVisualStyle
  2
Shaded
 70
    27
177
     2
291
     0
 71
     2
176
     1
 72
     2
176
     1
 73
     1
176
     1
 90
        2
176
     1
 40
0.6
176
     1
 41
30.0
176
     1
 62
     5
 63
     7
421
 16777215
176
     1
 74
     0
176
     1
 91
        4
176
     1
 64
     7
176
     1
 65
   257
176
     1
 75
     1
176
     1
175
     1
176
     1
 42
1.0
176
     1
 92
        8
176
     1
 66
   257
176
     1
 43
1.0
176
     1
 76
     1
176
     1
 77
     6
176
     1
 78
     2
176
     1
 67
     8
425
  7895160
176
     1
 79
     3
176
     1
170
     0
176
     1
171
     0
176
     1
290
     0
176
     1
 93
        5
176
     1
 44
0.0
176
     1
173
     0
176
     1
  0
VISUALSTYLE
  5
41
102
{ACAD_REACTORS
330
2A
102
}
102
{ACAD_XDICTIONARY
360
483
102
}
330
2A
100
AcDbVisualStyle
  2
Shaded with edges
 70
    26
177
     2
291
     0
 71
     2
176
     1
 72
     2
176
     1
 73
     1
176
     1
 90
        2
176
     1
 40
0.6
176
     1
 41
30.0
176
     1
 62
     5
 63
     7
421
 16777215
176
     1
 74
     1
176
     1
 91
       10
176
     1
 64
     7
176
     1
 65
   257
176
     1
 75
     2
176
     1
175
     1
176
     1
 42
1.0
176
     1
 92
        8
176
     1
 66
   257
176
     1
 43
1.0
176
     1
 76
     1
176
     1
 77
     6
176
     1
 78
     2
176
     1
 67
     7
176
     1
 79
     3
176
     1
170
     0
176
     1
171
     0
176
     1
290
     0
176
     1
 93
        5
176
     1
 44
0.0
176
     1
173
     0
176
     1
  0
VISUALSTYLE
  5
3E
102
{ACAD_REACTORS
330
2A
102
}
102
{ACAD_XDICTIONARY
360
47D
102
}
330
2A
100
AcDbVisualStyle
  2
Shades of Gray
 70
    23
177
     2
291
     0
 71
     2
176
     1
 72
     2
176
     1
 73
     3
176
     1
 90
        0
176
     1
 40
0.6
176
     1
 41
30.0
176
     1
 62
     5
 63
     7
421
 16777215
176
     1
 74
     2
176
     1
 91
        2
176
     1
 64
     7
176
     1
 65
     7
176
     1
 75
     1
176
     1
175
     1
176
     1
 42
40.0
176
     1
 92
        8
176
     1
 66
     7
176
     1
 43
1.0
176
     1
 76
     1
176
     1
 77
     6
176
     1
 78
     2
176
     1
 67
     7
176
     1
 79
     3
176
     1
170
     0
176
     1
171
     0
176
     1
290
     0
176
     1
 93
        1
176
     1
 44
0.0
176
     1
173
     0
176
     1
  0
VISUALSTYLE
  5
3F
102
{ACAD_REACTORS
330
2A
102
}
102
{ACAD_XDICTIONARY
360
47F
102
}
330
2A
100
AcDbVisualStyle
  2
Sketchy
 70
    24
177
     2
291
     0
 71
     1
176
     1
 72
     2
176
     1
 73
     2
176
     1
 90
        0
176
     1
 40
0.6
176
     1
 41
30.0
176
     1
 62
     5
 63
     7
421
 16777215
176
     1
 74
     2
176
     1
 91
        2
176
     1
 64
     7
176
     1
 65
     7
176
     1
 75
     1
176
     1
175
     1
176
     1
 42
40.0
176
     1
 92
       11
176
     1
 66
     7
176
     1
 43
1.0
176
     1
 76
     1
176
     1
 77
     6
176
     1
 78
     2
176
     1
 67
     7
176
     1
 79
     6
176
     1
170
     0
176
     1
171
     0
176
     1
290
     0
176
     1
 93
        1
176
     1
 44
0.0
176
     1
173
     0
176
     1
  0
VISUALSTYLE
  5
37
102
{ACAD_REACTORS
330
2A
102
}
102
{ACAD_XDICTIONARY
360
46F
102
}
330
2A
100
AcDbVisualStyle
  2
Thicken
 70
    13
177
     2
291
     1
 71
     2
176
     1
 72
     2
176
     1
 73
     0
176
     1
 90
        0
176
     1
 40
0.6
176
     1
 41
30.0
176
     1
 62
     5
 63
     7
421
 16777215
176
     1
 74
     1
176
     1
 91
        4
176
     1
 64
     7
176
     1
 65
   257
176
     1
 75
     1
176
     1
175
     1
176
     1
 42
1.0
176
     1
 92
       12
176
     1
 66
     7
176
     1
 43
1.0
176
     1
 76
     1
176
     1
 77
     6
176
     1
 78
     2
176
     1
 67
     7
176
     1
 79
     5
176
     1
170
     0
176
     1
171
     0
176
     1
290
     0
176
     1
 93
        1
176
     1
 44
0.0
176
     1
173
     0
176
     1
  0
VISUALSTYLE
  5
30
102
{ACAD_REACTORS
330
2A
102
}
102
{ACAD_XDICTIONARY
360
461
102
}
330
2A
100
AcDbVisualStyle
  2
Wireframe
 70
     5
177
     2
291
     0
 71
     0
176
     1
 72
     2
176
     1
 73
     0
176
     1
 90
        0
176
     1
 40
0.6
176
     1
 41
30.0
176
     1
 62
     5
 63
     7
421
 16777215
176
     1
 74
     1
176
     1
 91
        4
176
     1
 64
     7
176
     1
 65
   257
176
     1
 75
     1
176
     1
175
     1
176
     1
 42
1.0
176
     1
 92
        0
176
     1
 66
   257
176
     1
 43
1.0
176
     1
 76
     1
176
     1
 77
     6
176
     1
 78
     2
176
     1
 67
     7
176
     1
 79
     3
176
     1
170
     0
176
     1
171
     0
176
     1
290
     0
176
     1
 93
        1
176
     1
 44
0.0
176
     1
173
     0
176
     1
  0
VISUALSTYLE
  5
40
102
{ACAD_REACTORS
330
2A
102
}
102
{ACAD_XDICTIONARY
360
481
102
}
330
2A
100
AcDbVisualStyle
  2
X-Ray
 70
    25
177
     2
291
     0
 71
     2
176
     1
 72
     2
176
     1
 73
     1
176
     1
 90
        1
176
     1
 40
0.5
176
     1
 41
30.0
176
     1
 62
     5
 63
     7
421
 16777215
176
     1
 74
     1
176
     1
 91
        0
176
     1
 64
     7
176
     1
 65
   257
176
     1
 75
     1
176
     1
175
     1
176
     1
 42
1.0
176
     1
 92
        8
176
     1
 66
     7
176
     1
 43
1.0
176
     1
 76
     1
176
     1
 77
     6
176
     1
 78
     2
176
     1
 67
     7
176
     1
 79
     3
176
     1
170
     0
176
     1
171
     0
176
     1
290
     0
176
     1
 93
       13
176
     1
 44
0.0
176
     1
173
     0
176
     1
  0
DICTIONARYVAR
  5
456
102
{ACAD_REACTORS
330
455
102
}
330
455
100
DictionaryVariables
280
     0
  1
1:1
  0
DICTIONARYVAR
  5
48B
102
{ACAD_REACTORS
330
455
102
}
330
455
100
DictionaryVariables
280
     0
  1
Standard
  0
DICTIONARYVAR
  5
48A
102
{ACAD_REACTORS
330
455
102
}
330
455
100
DictionaryVariables
280
     0
  1
Standard
  0
DICTIONARY
  5
487
330
6A
100
AcDbDictionary
280
     1
281
     1
  3
ACAD_ROUNDTRIP_2008_TABLESTYLE_CELLSTYLEMAP
360
488
  0
DICTIONARY
  5
45F
330
2F
100
AcDbDictionary
280
     1
281
     1
  3
ACAD_XREC_ROUNDTRIP
360
460
  0
DICTIONARY
  5
465
330
32
100
AcDbDictionary
280
     1
281
     1
  3
ACAD_XREC_ROUNDTRIP
360
466
  0
DICTIONARY
  5
46D
330
36
100
AcDbDictionary
280
     1
281
     1
  3
ACAD_XREC_ROUNDTRIP
360
46E
  0
DICTIONARY
  5
475
330
3A
100
AcDbDictionary
280
     1
281
     1
  3
ACAD_XREC_ROUNDTRIP
360
476
  0
DICTIONARY
  5
469
330
34
100
AcDbDictionary
280
     1
281
     1
  3
ACAD_XREC_ROUNDTRIP
360
46A
  0
DICTIONARY
  5
46B
330
35
100
AcDbDictionary
280
     1
281
     1
  3
ACAD_XREC_ROUNDTRIP
360
46C
  0
DICTIONARY
  5
47B
330
3D
100
AcDbDictionary
280
     1
281
     1
  3
ACAD_XREC_ROUNDTRIP
360
47C
  0
DICTIONARY
  5
473
330
39
100
AcDbDictionary
280
     1
281
     1
  3
ACAD_XREC_ROUNDTRIP
360
474
  0
DICTIONARY
  5
457
330
2B
100
AcDbDictionary
280
     1
281
     1
  3
ACAD_XREC_ROUNDTRIP
360
458
  0
DICTIONARY
  5
459
330
2C
100
AcDbDictionary
280
     1
281
     1
  3
ACAD_XREC_ROUNDTRIP
360
45A
  0
DICTIONARY
  5
45B
330
2D
100
AcDbDictionary
280
     1
281
     1
  3
ACAD_XREC_ROUNDTRIP
360
45C
  0
DICTIONARY
  5
45D
330
2E
100
AcDbDictionary
280
     1
281
     1
  3
ACAD_XREC_ROUNDTRIP
360
45E
  0
DICTIONARY
  5
463
330
31
100
AcDbDictionary
280
     1
281
     1
  3
ACAD_XREC_ROUNDTRIP
360
464
  0
DICTIONARY
  5
477
330
3B
100
AcDbDictionary
280
     1
281
     1
  3
ACAD_XREC_ROUNDTRIP
360
478
  0
DICTIONARY
  5
471
330
38
100
AcDbDictionary
280
     1
281
     1
  3
ACAD_XREC_ROUNDTRIP
360
472
  0
DICTIONARY
  5
479
330
3C
100
AcDbDictionary
280
     1
281
     1
  3
ACAD_XREC_ROUNDTRIP
360
47A
  0
DICTIONARY
  5
467
330
33
100
AcDbDictionary
280
     1
281
     1
  3
ACAD_XREC_ROUNDTRIP
360
468
  0
DICTIONARY
  5
485
330
42
100
AcDbDictionary
280
     1
281
     1
  3
ACAD_XREC_ROUNDTRIP
360
486
  0
DICTIONARY
  5
483
330
41
100
AcDbDictionary
280
     1
281
     1
  3
ACAD_XREC_ROUNDTRIP
360
484
  0
DICTIONARY
  5
47D
330
3E
100
AcDbDictionary
280
     1
281
     1
  3
ACAD_XREC_ROUNDTRIP
360
47E
  0
DICTIONARY
  5
47F
330
3F
100
AcDbDictionary
280
     1
281
     1
  3
ACAD_XREC_ROUNDTRIP
360
480
  0
DICTIONARY
  5
46F
330
37
100
AcDbDictionary
280
     1
281
     1
  3
ACAD_XREC_ROUNDTRIP
360
470
  0
DICTIONARY
  5
461
330
30
100
AcDbDictionary
280
     1
281
     1
  3
ACAD_XREC_ROUNDTRIP
360
462
  0
DICTIONARY
  5
481
330
40
100
AcDbDictionary
280
     1
281
     1
  3
ACAD_XREC_ROUNDTRIP
360
482
  0
CELLSTYLEMAP
  5
488
102
{ACAD_REACTORS
330
487
102
}
330
487
100
AcDbCellStyleMap
 90
        3
300
CELLSTYLE
  1
TABLEFORMAT_BEGIN
 90
        5
170
     1
 91
        0
 92
    32768
 62
   257
 93
        1
300
CONTENTFORMAT
  1
CONTENTFORMAT_BEGIN
 90
        0
 91
        0
 92
        4
 93
        0
300

 40
0.0
140
1.0
 94
        5
 62
     0
340
11
144
6.0
309
CONTENTFORMAT_END
171
     1
301
MARGIN
  1
CELLMARGIN_BEGIN
 40
1.5
 40
1.5
 40
1.5
 40
1.5
 40
1.5
 40
1.5
309
CELLMARGIN_END
 94
        6
 95
        1
302
GRIDFORMAT
  1
GRIDFORMAT_BEGIN
 90
        0
 91
        1
 62
     0
 92
       -2
340
14
 93
        0
 40
0.045
309
GRIDFORMAT_END
 95
        2
302
GRIDFORMAT
  1
GRIDFORMAT_BEGIN
 90
        0
 91
        1
 62
     0
 92
       -2
340
14
 93
        0
 40
0.045
309
GRIDFORMAT_END
 95
        4
302
GRIDFORMAT
  1
GRIDFORMAT_BEGIN
 90
        0
 91
        1
 62
     0
 92
       -2
340
14
 93
        0
 40
0.045
309
GRIDFORMAT_END
 95
        8
302
GRIDFORMAT
  1
GRIDFORMAT_BEGIN
 90
        0
 91
        1
 62
     0
 92
       -2
340
14
 93
        0
 40
0.045
309
GRIDFORMAT_END
 95
       16
302
GRIDFORMAT
  1
GRIDFORMAT_BEGIN
 90
        0
 91
        1
 62
     0
 92
       -2
340
14
 93
        0
 40
0.045
309
GRIDFORMAT_END
 95
       32
302
GRIDFORMAT
  1
GRIDFORMAT_BEGIN
 90
        0
 91
        1
 62
     0
 92
       -2
340
14
 93
        0
 40
0.045
309
GRIDFORMAT_END
309
TABLEFORMAT_END
  1
CELLSTYLE_BEGIN
 90
        1
 91
        1
300
_TITLE
309
CELLSTYLE_END
300
CELLSTYLE
  1
TABLEFORMAT_BEGIN
 90
        5
170
     1
 91
        0
 92
        0
 62
   257
 93
        1
300
CONTENTFORMAT
  1
CONTENTFORMAT_BEGIN
 90
        0
 91
        0
 92
        4
 93
        0
300

 40
0.0
140
1.0
 94
        5
 62
     0
340
11
144
4.5
309
CONTENTFORMAT_END
171
     1
301
MARGIN
  1
CELLMARGIN_BEGIN
 40
1.5
 40
1.5
 40
1.5
 40
1.5
 40
1.5
 40
1.5
309
CELLMARGIN_END
 94
        6
 95
        1
302
GRIDFORMAT
  1
GRIDFORMAT_BEGIN
 90
        0
 91
        1
 62
     0
 92
       -2
340
14
 93
        0
 40
0.045
309
GRIDFORMAT_END
 95
        2
302
GRIDFORMAT
  1
GRIDFORMAT_BEGIN
 90
        0
 91
        1
 62
     0
 92
       -2
340
14
 93
        0
 40
0.045
309
GRIDFORMAT_END
 95
        4
302
GRIDFORMAT
  1
GRIDFORMAT_BEGIN
 90
        0
 91
        1
 62
     0
 92
       -2
340
14
 93
        0
 40
0.045
309
GRIDFORMAT_END
 95
        8
302
GRIDFORMAT
  1
GRIDFORMAT_BEGIN
 90
        0
 91
        1
 62
     0
 92
       -2
340
14
 93
        0
 40
0.045
309
GRIDFORMAT_END
 95
       16
302
GRIDFORMAT
  1
GRIDFORMAT_BEGIN
 90
        0
 91
        1
 62
     0
 92
       -2
340
14
 93
        0
 40
0.045
309
GRIDFORMAT_END
 95
       32
302
GRIDFORMAT
  1
GRIDFORMAT_BEGIN
 90
        0
 91
        1
 62
     0
 92
       -2
340
14
 93
        0
 40
0.045
309
GRIDFORMAT_END
309
TABLEFORMAT_END
  1
CELLSTYLE_BEGIN
 90
        2
 91
        1
300
_HEADER
309
CELLSTYLE_END
300
CELLSTYLE
  1
TABLEFORMAT_BEGIN
 90
        5
170
     1
 91
        0
 92
        0
 62
   257
 93
        1
300
CONTENTFORMAT
  1
CONTENTFORMAT_BEGIN
 90
        0
 91
        0
 92
        4
 93
        0
300

 40
0.0
140
1.0
 94
        2
 62
     0
340
11
144
4.5
309
CONTENTFORMAT_END
171
     1
301
MARGIN
  1
CELLMARGIN_BEGIN
 40
1.5
 40
1.5
 40
1.5
 40
1.5
 40
1.5
 40
1.5
309
CELLMARGIN_END
 94
        6
 95
        1
302
GRIDFORMAT
  1
GRIDFORMAT_BEGIN
 90
        0
 91
        1
 62
     0
 92
       -2
340
14
 93
        0
 40
0.045
309
GRIDFORMAT_END
 95
        2
302
GRIDFORMAT
  1
GRIDFORMAT_BEGIN
 90
        0
 91
        1
 62
     0
 92
       -2
340
14
 93
        0
 40
0.045
309
GRIDFORMAT_END
 95
        4
302
GRIDFORMAT
  1
GRIDFORMAT_BEGIN
 90
        0
 91
        1
 62
     0
 92
       -2
340
14
 93
        0
 40
0.045
309
GRIDFORMAT_END
 95
        8
302
GRIDFORMAT
  1
GRIDFORMAT_BEGIN
 90
        0
 91
        1
 62
     0
 92
       -2
340
14
 93
        0
 40
0.045
309
GRIDFORMAT_END
 95
       16
302
GRIDFORMAT
  1
GRIDFORMAT_BEGIN
 90
        0
 91
        1
 62
     0
 92
       -2
340
14
 93
        0
 40
0.045
309
GRIDFORMAT_END
 95
       32
302
GRIDFORMAT
  1
GRIDFORMAT_BEGIN
 90
        0
 91
        1
 62
     0
 92
       -2
340
14
 93
        0
 40
0.045
309
GRIDFORMAT_END
309
TABLEFORMAT_END
  1
CELLSTYLE_BEGIN
 90
        3
 91
        2
300
_DATA
309
CELLSTYLE_END
  0
XRECORD
  5
460
102
{ACAD_REACTORS
330
45F
102
}
330
45F
100
AcDbXrecord
280
     1
102
RTVSPost2010Prop28
280
     1
102
RTVSPost2010PropOp28
 70
     1
102
RTVSPost2010Prop29
280
     1
102
RTVSPost2010PropOp29
 70
     1
102
RTVSPost2010Prop30
280
     0
102
RTVSPost2010PropOp30
 70
     1
102
RTVSPost2010Prop31
280
     0
102
RTVSPost2010PropOp31
 70
     1
102
RTVSPost2010Prop32
280
     0
102
RTVSPost2010PropOp32
 70
     1
102
RTVSPost2010Prop33
280
     0
102
RTVSPost2010PropOp33
 70
     1
102
RTVSPost2010Prop34
280
     0
102
RTVSPost2010PropOp34
 70
     1
102
RTVSPost2010Prop35
280
     0
102
RTVSPost2010PropOp35
 70
     1
102
RTVSPost2010Prop36
280
     0
102
RTVSPost2010PropOp36
 70
     1
102
RTVSPost2010Prop37
 90
       50
102
RTVSPost2010PropOp37
 70
     1
102
RTVSPost2010Prop38
140
0.0
102
RTVSPost2010PropOp38
 70
     1
102
RTVSPost2010Prop39
140
1.0
102
RTVSPost2010PropOp39
 70
     1
102
RTVSPost2010Prop40
 90
        0
102
RTVSPost2010PropOp40
 70
     1
102
RTVSPost2010Prop41ColorIndex
 90
       18
102
RTVSPost2010Prop41ColorRGB
 90
        0
102
RTVSPost2010PropOp41
 70
     1
102
RTVSPost2010Prop42
 90
       50
102
RTVSPost2010PropOp42
 70
     1
102
RTVSPost2010Prop43
 90
        3
102
RTVSPost2010PropOp43
 70
     1
102
RTVSPost2010Prop44ColorIndex
 90
        5
102
RTVSPost2010Prop44ColorRGB
 90
      255
102
RTVSPost2010PropOp44
 70
     1
102
RTVSPost2010Prop45
280
     0
102
RTVSPost2010PropOp45
 70
     1
102
RTVSPost2010Prop46
 90
       50
102
RTVSPost2010PropOp46
 70
     1
102
RTVSPost2010Prop47
 90
       50
102
RTVSPost2010PropOp47
 70
     1
102
RTVSPost2010Prop48
 90
       50
102
RTVSPost2010PropOp48
 70
     1
102
RTVSPost2010Prop49
280
     0
102
RTVSPost2010PropOp49
 70
     1
102
RTVSPost2010Prop50
 90
       50
102
RTVSPost2010PropOp50
 70
     1
102
RTVSPost2010Prop51ColorIndex
 90
      256
102
RTVSPost2010Prop51ColorRGB
 90
-16777216
102
RTVSPost2010PropOp51
 70
     0
102
RTVSPost2010Prop52
140
1.0
102
RTVSPost2010PropOp52
 70
     0
102
RTVSPost2010Prop53
 90
        2
102
RTVSPost2010PropOp53
 70
     1
102
RTVSPost2010Prop54
  1
strokes_ogs.tif
102
RTVSPost2010PropOp54
 70
     1
102
RTVSPost2010Prop55
280
     0
102
RTVSPost2010PropOp55
 70
     1
102
RTVSPost2010Prop56
140
1.0
102
RTVSPost2010PropOp56
 70
     1
102
RTVSPost2010Prop57
140
1.0
102
RTVSPost2010PropOp57
 70
     1
  0
XRECORD
  5
466
102
{ACAD_REACTORS
330
465
102
}
330
465
100
AcDbXrecord
280
     1
102
RTVSPost2010Prop28
280
     0
102
RTVSPost2010PropOp28
 70
     1
102
RTVSPost2010Prop29
280
     1
102
RTVSPost2010PropOp29
 70
     1
102
RTVSPost2010Prop30
280
     1
102
RTVSPost2010PropOp30
 70
     1
102
RTVSPost2010Prop31
280
     0
102
RTVSPost2010PropOp31
 70
     1
102
RTVSPost2010Prop32
280
     0
102
RTVSPost2010PropOp32
 70
     1
102
RTVSPost2010Prop33
280
     0
102
RTVSPost2010PropOp33
 70
     1
102
RTVSPost2010Prop34
280
     0
102
RTVSPost2010PropOp34
 70
     1
102
RTVSPost2010Prop35
280
     0
102
RTVSPost2010PropOp35
 70
     1
102
RTVSPost2010Prop36
280
     0
102
RTVSPost2010PropOp36
 70
     1
102
RTVSPost2010Prop37
 90
       50
102
RTVSPost2010PropOp37
 70
     1
102
RTVSPost2010Prop38
140
0.0
102
RTVSPost2010PropOp38
 70
     1
102
RTVSPost2010Prop39
140
1.0
102
RTVSPost2010PropOp39
 70
     1
102
RTVSPost2010Prop40
 90
        0
102
RTVSPost2010PropOp40
 70
     1
102
RTVSPost2010Prop41ColorIndex
 90
       18
102
RTVSPost2010Prop41ColorRGB
 90
        0
102
RTVSPost2010PropOp41
 70
     1
102
RTVSPost2010Prop42
 90
       50
102
RTVSPost2010PropOp42
 70
     1
102
RTVSPost2010Prop43
 90
        3
102
RTVSPost2010PropOp43
 70
     1
102
RTVSPost2010Prop44ColorIndex
 90
        5
102
RTVSPost2010Prop44ColorRGB
 90
      255
102
RTVSPost2010PropOp44
 70
     1
102
RTVSPost2010Prop45
280
     0
102
RTVSPost2010PropOp45
 70
     1
102
RTVSPost2010Prop46
 90
       50
102
RTVSPost2010PropOp46
 70
     1
102
RTVSPost2010Prop47
 90
       50
102
RTVSPost2010PropOp47
 70
     1
102
RTVSPost2010Prop48
 90
       50
102
RTVSPost2010PropOp48
 70
     1
102
RTVSPost2010Prop49
280
     0
102
RTVSPost2010PropOp49
 70
     1
102
RTVSPost2010Prop50
 90
       50
102
RTVSPost2010PropOp50
 70
     1
102
RTVSPost2010Prop51ColorIndex
 90
      256
102
RTVSPost2010Prop51ColorRGB
 90
-16777216
102
RTVSPost2010PropOp51
 70
     0
102
RTVSPost2010Prop52
140
1.0
102
RTVSPost2010PropOp52
 70
     0
102
RTVSPost2010Prop53
 90
        2
102
RTVSPost2010PropOp53
 70
     1
102
RTVSPost2010Prop54
  1
strokes_ogs.tif
102
RTVSPost2010PropOp54
 70
     1
102
RTVSPost2010Prop55
280
     0
102
RTVSPost2010PropOp55
 70
     1
102
RTVSPost2010Prop56
140
1.0
102
RTVSPost2010PropOp56
 70
     1
102
RTVSPost2010Prop57
140
1.0
102
RTVSPost2010PropOp57
 70
     1
  0
XRECORD
  5
46E
102
{ACAD_REACTORS
330
46D
102
}
330
46D
100
AcDbXrecord
280
     1
102
RTVSPost2010Prop28
280
     0
102
RTVSPost2010PropOp28
 70
     1
102
RTVSPost2010Prop29
280
     1
102
RTVSPost2010PropOp29
 70
     1
102
RTVSPost2010Prop30
280
     1
102
RTVSPost2010PropOp30
 70
     1
102
RTVSPost2010Prop31
280
     0
102
RTVSPost2010PropOp31
 70
     1
102
RTVSPost2010Prop32
280
     0
102
RTVSPost2010PropOp32
 70
     1
102
RTVSPost2010Prop33
280
     0
102
RTVSPost2010PropOp33
 70
     1
102
RTVSPost2010Prop34
280
     0
102
RTVSPost2010PropOp34
 70
     1
102
RTVSPost2010Prop35
280
     0
102
RTVSPost2010PropOp35
 70
     1
102
RTVSPost2010Prop36
280
     0
102
RTVSPost2010PropOp36
 70
     1
102
RTVSPost2010Prop37
 90
       50
102
RTVSPost2010PropOp37
 70
     1
102
RTVSPost2010Prop38
140
0.0
102
RTVSPost2010PropOp38
 70
     1
102
RTVSPost2010Prop39
140
1.0
102
RTVSPost2010PropOp39
 70
     1
102
RTVSPost2010Prop40
 90
        0
102
RTVSPost2010PropOp40
 70
     1
102
RTVSPost2010Prop41ColorIndex
 90
       18
102
RTVSPost2010Prop41ColorRGB
 90
        0
102
RTVSPost2010PropOp41
 70
     1
102
RTVSPost2010Prop42
 90
       50
102
RTVSPost2010PropOp42
 70
     1
102
RTVSPost2010Prop43
 90
        3
102
RTVSPost2010PropOp43
 70
     1
102
RTVSPost2010Prop44ColorIndex
 90
        5
102
RTVSPost2010Prop44ColorRGB
 90
      255
102
RTVSPost2010PropOp44
 70
     1
102
RTVSPost2010Prop45
280
     0
102
RTVSPost2010PropOp45
 70
     1
102
RTVSPost2010Prop46
 90
       50
102
RTVSPost2010PropOp46
 70
     1
102
RTVSPost2010Prop47
 90
       50
102
RTVSPost2010PropOp47
 70
     1
102
RTVSPost2010Prop48
 90
       50
102
RTVSPost2010PropOp48
 70
     1
102
RTVSPost2010Prop49
280
     0
102
RTVSPost2010PropOp49
 70
     1
102
RTVSPost2010Prop50
 90
       50
102
RTVSPost2010PropOp50
 70
     1
102
RTVSPost2010Prop51ColorIndex
 90
      256
102
RTVSPost2010Prop51ColorRGB
 90
-16777216
102
RTVSPost2010PropOp51
 70
     0
102
RTVSPost2010Prop52
140
1.0
102
RTVSPost2010PropOp52
 70
     0
102
RTVSPost2010Prop53
 90
        2
102
RTVSPost2010PropOp53
 70
     1
102
RTVSPost2010Prop54
  1
strokes_ogs.tif
102
RTVSPost2010PropOp54
 70
     1
102
RTVSPost2010Prop55
280
     0
102
RTVSPost2010PropOp55
 70
     1
102
RTVSPost2010Prop56
140
1.0
102
RTVSPost2010PropOp56
 70
     1
102
RTVSPost2010Prop57
140
1.0
102
RTVSPost2010PropOp57
 70
     1
  0
XRECORD
  5
476
102
{ACAD_REACTORS
330
475
102
}
330
475
100
AcDbXrecord
280
     1
102
RTVSPost2010Prop28
280
     0
102
RTVSPost2010PropOp28
 70
     1
102
RTVSPost2010Prop29
280
     1
102
RTVSPost2010PropOp29
 70
     1
102
RTVSPost2010Prop30
280
     1
102
RTVSPost2010PropOp30
 70
     1
102
RTVSPost2010Prop31
280
     0
102
RTVSPost2010PropOp31
 70
     1
102
RTVSPost2010Prop32
280
     0
102
RTVSPost2010PropOp32
 70
     1
102
RTVSPost2010Prop33
280
     0
102
RTVSPost2010PropOp33
 70
     1
102
RTVSPost2010Prop34
280
     0
102
RTVSPost2010PropOp34
 70
     1
102
RTVSPost2010Prop35
280
     0
102
RTVSPost2010PropOp35
 70
     1
102
RTVSPost2010Prop36
280
     0
102
RTVSPost2010PropOp36
 70
     1
102
RTVSPost2010Prop37
 90
       50
102
RTVSPost2010PropOp37
 70
     1
102
RTVSPost2010Prop38
140
0.0
102
RTVSPost2010PropOp38
 70
     1
102
RTVSPost2010Prop39
140
1.0
102
RTVSPost2010PropOp39
 70
     1
102
RTVSPost2010Prop40
 90
        0
102
RTVSPost2010PropOp40
 70
     1
102
RTVSPost2010Prop41ColorIndex
 90
       18
102
RTVSPost2010Prop41ColorRGB
 90
        0
102
RTVSPost2010PropOp41
 70
     1
102
RTVSPost2010Prop42
 90
       50
102
RTVSPost2010PropOp42
 70
     1
102
RTVSPost2010Prop43
 90
        3
102
RTVSPost2010PropOp43
 70
     1
102
RTVSPost2010Prop44ColorIndex
 90
        5
102
RTVSPost2010Prop44ColorRGB
 90
      255
102
RTVSPost2010PropOp44
 70
     1
102
RTVSPost2010Prop45
280
     0
102
RTVSPost2010PropOp45
 70
     1
102
RTVSPost2010Prop46
 90
       50
102
RTVSPost2010PropOp46
 70
     1
102
RTVSPost2010Prop47
 90
       50
102
RTVSPost2010PropOp47
 70
     1
102
RTVSPost2010Prop48
 90
       50
102
RTVSPost2010PropOp48
 70
     1
102
RTVSPost2010Prop49
280
     0
102
RTVSPost2010PropOp49
 70
     1
102
RTVSPost2010Prop50
 90
       50
102
RTVSPost2010PropOp50
 70
     1
102
RTVSPost2010Prop51ColorIndex
 90
      256
102
RTVSPost2010Prop51ColorRGB
 90
-16777216
102
RTVSPost2010PropOp51
 70
     0
102
RTVSPost2010Prop52
140
1.0
102
RTVSPost2010PropOp52
 70
     0
102
RTVSPost2010Prop53
 90
        2
102
RTVSPost2010PropOp53
 70
     1
102
RTVSPost2010Prop54
  1
strokes_ogs.tif
102
RTVSPost2010PropOp54
 70
     1
102
RTVSPost2010Prop55
280
     0
102
RTVSPost2010PropOp55
 70
     1
102
RTVSPost2010Prop56
140
1.0
102
RTVSPost2010PropOp56
 70
     1
102
RTVSPost2010Prop57
140
1.0
102
RTVSPost2010PropOp57
 70
     1
  0
XRECORD
  5
46A
102
{ACAD_REACTORS
330
469
102
}
330
469
100
AcDbXrecord
280
     1
102
RTVSPost2010Prop28
280
     0
102
RTVSPost2010PropOp28
 70
     1
102
RTVSPost2010Prop29
280
     1
102
RTVSPost2010PropOp29
 70
     1
102
RTVSPost2010Prop30
280
     1
102
RTVSPost2010PropOp30
 70
     1
102
RTVSPost2010Prop31
280
     0
102
RTVSPost2010PropOp31
 70
     1
102
RTVSPost2010Prop32
280
     0
102
RTVSPost2010PropOp32
 70
     1
102
RTVSPost2010Prop33
280
     0
102
RTVSPost2010PropOp33
 70
     1
102
RTVSPost2010Prop34
280
     0
102
RTVSPost2010PropOp34
 70
     1
102
RTVSPost2010Prop35
280
     0
102
RTVSPost2010PropOp35
 70
     1
102
RTVSPost2010Prop36
280
     0
102
RTVSPost2010PropOp36
 70
     1
102
RTVSPost2010Prop37
 90
       50
102
RTVSPost2010PropOp37
 70
     1
102
RTVSPost2010Prop38
140
0.0
102
RTVSPost2010PropOp38
 70
     1
102
RTVSPost2010Prop39
140
1.0
102
RTVSPost2010PropOp39
 70
     1
102
RTVSPost2010Prop40
 90
        0
102
RTVSPost2010PropOp40
 70
     1
102
RTVSPost2010Prop41ColorIndex
 90
       18
102
RTVSPost2010Prop41ColorRGB
 90
        0
102
RTVSPost2010PropOp41
 70
     1
102
RTVSPost2010Prop42
 90
       50
102
RTVSPost2010PropOp42
 70
     1
102
RTVSPost2010Prop43
 90
        3
102
RTVSPost2010PropOp43
 70
     1
102
RTVSPost2010Prop44ColorIndex
 90
        5
102
RTVSPost2010Prop44ColorRGB
 90
      255
102
RTVSPost2010PropOp44
 70
     1
102
RTVSPost2010Prop45
280
     0
102
RTVSPost2010PropOp45
 70
     1
102
RTVSPost2010Prop46
 90
       50
102
RTVSPost2010PropOp46
 70
     1
102
RTVSPost2010Prop47
 90
       50
102
RTVSPost2010PropOp47
 70
     1
102
RTVSPost2010Prop48
 90
       50
102
RTVSPost2010PropOp48
 70
     1
102
RTVSPost2010Prop49
280
     0
102
RTVSPost2010PropOp49
 70
     1
102
RTVSPost2010Prop50
 90
       50
102
RTVSPost2010PropOp50
 70
     1
102
RTVSPost2010Prop51ColorIndex
 90
      256
102
RTVSPost2010Prop51ColorRGB
 90
-16777216
102
RTVSPost2010PropOp51
 70
     0
102
RTVSPost2010Prop52
140
1.0
102
RTVSPost2010PropOp52
 70
     0
102
RTVSPost2010Prop53
 90
        2
102
RTVSPost2010PropOp53
 70
     1
102
RTVSPost2010Prop54
  1
strokes_ogs.tif
102
RTVSPost2010PropOp54
 70
     1
102
RTVSPost2010Prop55
280
     0
102
RTVSPost2010PropOp55
 70
     1
102
RTVSPost2010Prop56
140
1.0
102
RTVSPost2010PropOp56
 70
     1
102
RTVSPost2010Prop57
140
1.0
102
RTVSPost2010PropOp57
 70
     1
  0
XRECORD
  5
46C
102
{ACAD_REACTORS
330
46B
102
}
330
46B
100
AcDbXrecord
280
     1
102
RTVSPost2010Prop28
280
     0
102
RTVSPost2010PropOp28
 70
     1
102
RTVSPost2010Prop29
280
     1
102
RTVSPost2010PropOp29
 70
     1
102
RTVSPost2010Prop30
280
     1
102
RTVSPost2010PropOp30
 70
     1
102
RTVSPost2010Prop31
280
     0
102
RTVSPost2010PropOp31
 70
     1
102
RTVSPost2010Prop32
280
     0
102
RTVSPost2010PropOp32
 70
     1
102
RTVSPost2010Prop33
280
     0
102
RTVSPost2010PropOp33
 70
     1
102
RTVSPost2010Prop34
280
     0
102
RTVSPost2010PropOp34
 70
     1
102
RTVSPost2010Prop35
280
     0
102
RTVSPost2010PropOp35
 70
     1
102
RTVSPost2010Prop36
280
     0
102
RTVSPost2010PropOp36
 70
     1
102
RTVSPost2010Prop37
 90
       50
102
RTVSPost2010PropOp37
 70
     1
102
RTVSPost2010Prop38
140
0.0
102
RTVSPost2010PropOp38
 70
     1
102
RTVSPost2010Prop39
140
1.0
102
RTVSPost2010PropOp39
 70
     1
102
RTVSPost2010Prop40
 90
        0
102
RTVSPost2010PropOp40
 70
     1
102
RTVSPost2010Prop41ColorIndex
 90
       18
102
RTVSPost2010Prop41ColorRGB
 90
        0
102
RTVSPost2010PropOp41
 70
     1
102
RTVSPost2010Prop42
 90
       50
102
RTVSPost2010PropOp42
 70
     1
102
RTVSPost2010Prop43
 90
        3
102
RTVSPost2010PropOp43
 70
     1
102
RTVSPost2010Prop44ColorIndex
 90
        5
102
RTVSPost2010Prop44ColorRGB
 90
      255
102
RTVSPost2010PropOp44
 70
     1
102
RTVSPost2010Prop45
280
     0
102
RTVSPost2010PropOp45
 70
     1
102
RTVSPost2010Prop46
 90
       50
102
RTVSPost2010PropOp46
 70
     1
102
RTVSPost2010Prop47
 90
       50
102
RTVSPost2010PropOp47
 70
     1
102
RTVSPost2010Prop48
 90
       50
102
RTVSPost2010PropOp48
 70
     1
102
RTVSPost2010Prop49
280
     0
102
RTVSPost2010PropOp49
 70
     1
102
RTVSPost2010Prop50
 90
       50
102
RTVSPost2010PropOp50
 70
     1
102
RTVSPost2010Prop51ColorIndex
 90
      256
102
RTVSPost2010Prop51ColorRGB
 90
-16777216
102
RTVSPost2010PropOp51
 70
     0
102
RTVSPost2010Prop52
140
1.0
102
RTVSPost2010PropOp52
 70
     0
102
RTVSPost2010Prop53
 90
        2
102
RTVSPost2010PropOp53
 70
     1
102
RTVSPost2010Prop54
  1
strokes_ogs.tif
102
RTVSPost2010PropOp54
 70
     1
102
RTVSPost2010Prop55
280
     0
102
RTVSPost2010PropOp55
 70
     1
102
RTVSPost2010Prop56
140
1.0
102
RTVSPost2010PropOp56
 70
     1
102
RTVSPost2010Prop57
140
1.0
102
RTVSPost2010PropOp57
 70
     1
  0
XRECORD
  5
47C
102
{ACAD_REACTORS
330
47B
102
}
330
47B
100
AcDbXrecord
280
     1
102
RTVSPost2010Prop28
280
     0
102
RTVSPost2010PropOp28
 70
     0
102
RTVSPost2010Prop29
280
     1
102
RTVSPost2010PropOp29
 70
     0
102
RTVSPost2010Prop30
280
     1
102
RTVSPost2010PropOp30
 70
     0
102
RTVSPost2010Prop31
280
     0
102
RTVSPost2010PropOp31
 70
     0
102
RTVSPost2010Prop32
280
     0
102
RTVSPost2010PropOp32
 70
     0
102
RTVSPost2010Prop33
280
     0
102
RTVSPost2010PropOp33
 70
     0
102
RTVSPost2010Prop34
280
     0
102
RTVSPost2010PropOp34
 70
     0
102
RTVSPost2010Prop35
280
     0
102
RTVSPost2010PropOp35
 70
     0
102
RTVSPost2010Prop36
280
     0
102
RTVSPost2010PropOp36
 70
     0
102
RTVSPost2010Prop37
 90
       50
102
RTVSPost2010PropOp37
 70
     0
102
RTVSPost2010Prop38
140
0.0
102
RTVSPost2010PropOp38
 70
     0
102
RTVSPost2010Prop39
140
1.0
102
RTVSPost2010PropOp39
 70
     0
102
RTVSPost2010Prop40
 90
        0
102
RTVSPost2010PropOp40
 70
     0
102
RTVSPost2010Prop41ColorIndex
 90
       18
102
RTVSPost2010Prop41ColorRGB
 90
        0
102
RTVSPost2010PropOp41
 70
     0
102
RTVSPost2010Prop42
 90
       50
102
RTVSPost2010PropOp42
 70
     0
102
RTVSPost2010Prop43
 90
        3
102
RTVSPost2010PropOp43
 70
     0
102
RTVSPost2010Prop44ColorIndex
 90
        5
102
RTVSPost2010Prop44ColorRGB
 90
      255
102
RTVSPost2010PropOp44
 70
     0
102
RTVSPost2010Prop45
280
     0
102
RTVSPost2010PropOp45
 70
     0
102
RTVSPost2010Prop46
 90
       50
102
RTVSPost2010PropOp46
 70
     0
102
RTVSPost2010Prop47
 90
       50
102
RTVSPost2010PropOp47
 70
     0
102
RTVSPost2010Prop48
 90
       50
102
RTVSPost2010PropOp48
 70
     0
102
RTVSPost2010Prop49
280
     0
102
RTVSPost2010PropOp49
 70
     0
102
RTVSPost2010Prop50
 90
       50
102
RTVSPost2010PropOp50
 70
     0
102
RTVSPost2010Prop51ColorIndex
 90
      256
102
RTVSPost2010Prop51ColorRGB
 90
-16777216
102
RTVSPost2010PropOp51
 70
     0
102
RTVSPost2010Prop52
140
1.0
102
RTVSPost2010PropOp52
 70
     0
102
RTVSPost2010Prop53
 90
        2
102
RTVSPost2010PropOp53
 70
     0
102
RTVSPost2010Prop54
  1
strokes_ogs.tif
102
RTVSPost2010PropOp54
 70
     0
102
RTVSPost2010Prop55
280
     0
102
RTVSPost2010PropOp55
 70
     0
102
RTVSPost2010Prop56
140
1.0
102
RTVSPost2010PropOp56
 70
     0
102
RTVSPost2010Prop57
140
1.0
102
RTVSPost2010PropOp57
 70
     0
  0
XRECORD
  5
474
102
{ACAD_REACTORS
330
473
102
}
330
473
100
AcDbXrecord
280
     1
102
RTVSPost2010Prop28
280
     0
102
RTVSPost2010PropOp28
 70
     1
102
RTVSPost2010Prop29
280
     1
102
RTVSPost2010PropOp29
 70
     1
102
RTVSPost2010Prop30
280
     1
102
RTVSPost2010PropOp30
 70
     1
102
RTVSPost2010Prop31
280
     0
102
RTVSPost2010PropOp31
 70
     1
102
RTVSPost2010Prop32
280
     0
102
RTVSPost2010PropOp32
 70
     1
102
RTVSPost2010Prop33
280
     0
102
RTVSPost2010PropOp33
 70
     1
102
RTVSPost2010Prop34
280
     0
102
RTVSPost2010PropOp34
 70
     1
102
RTVSPost2010Prop35
280
     0
102
RTVSPost2010PropOp35
 70
     1
102
RTVSPost2010Prop36
280
     0
102
RTVSPost2010PropOp36
 70
     1
102
RTVSPost2010Prop37
 90
       50
102
RTVSPost2010PropOp37
 70
     1
102
RTVSPost2010Prop38
140
0.0
102
RTVSPost2010PropOp38
 70
     1
102
RTVSPost2010Prop39
140
1.0
102
RTVSPost2010PropOp39
 70
     1
102
RTVSPost2010Prop40
 90
        0
102
RTVSPost2010PropOp40
 70
     1
102
RTVSPost2010Prop41ColorIndex
 90
       18
102
RTVSPost2010Prop41ColorRGB
 90
        0
102
RTVSPost2010PropOp41
 70
     1
102
RTVSPost2010Prop42
 90
       50
102
RTVSPost2010PropOp42
 70
     1
102
RTVSPost2010Prop43
 90
        3
102
RTVSPost2010PropOp43
 70
     1
102
RTVSPost2010Prop44ColorIndex
 90
        5
102
RTVSPost2010Prop44ColorRGB
 90
      255
102
RTVSPost2010PropOp44
 70
     1
102
RTVSPost2010Prop45
280
     0
102
RTVSPost2010PropOp45
 70
     1
102
RTVSPost2010Prop46
 90
       50
102
RTVSPost2010PropOp46
 70
     1
102
RTVSPost2010Prop47
 90
       50
102
RTVSPost2010PropOp47
 70
     1
102
RTVSPost2010Prop48
 90
       50
102
RTVSPost2010PropOp48
 70
     1
102
RTVSPost2010Prop49
280
     0
102
RTVSPost2010PropOp49
 70
     1
102
RTVSPost2010Prop50
 90
       50
102
RTVSPost2010PropOp50
 70
     1
102
RTVSPost2010Prop51ColorIndex
 90
      256
102
RTVSPost2010Prop51ColorRGB
 90
-16777216
102
RTVSPost2010PropOp51
 70
     0
102
RTVSPost2010Prop52
140
1.0
102
RTVSPost2010PropOp52
 70
     0
102
RTVSPost2010Prop53
 90
        2
102
RTVSPost2010PropOp53
 70
     1
102
RTVSPost2010Prop54
  1
strokes_ogs.tif
102
RTVSPost2010PropOp54
 70
     1
102
RTVSPost2010Prop55
280
     0
102
RTVSPost2010PropOp55
 70
     1
102
RTVSPost2010Prop56
140
1.0
102
RTVSPost2010PropOp56
 70
     1
102
RTVSPost2010Prop57
140
1.0
102
RTVSPost2010PropOp57
 70
     1
  0
XRECORD
  5
458
102
{ACAD_REACTORS
330
457
102
}
330
457
100
AcDbXrecord
280
     1
102
RTVSPost2010Prop28
280
     0
102
RTVSPost2010PropOp28
 70
     1
102
RTVSPost2010Prop29
280
     1
102
RTVSPost2010PropOp29
 70
     1
102
RTVSPost2010Prop30
280
     1
102
RTVSPost2010PropOp30
 70
     1
102
RTVSPost2010Prop31
280
     0
102
RTVSPost2010PropOp31
 70
     1
102
RTVSPost2010Prop32
280
     0
102
RTVSPost2010PropOp32
 70
     1
102
RTVSPost2010Prop33
280
     0
102
RTVSPost2010PropOp33
 70
     1
102
RTVSPost2010Prop34
280
     0
102
RTVSPost2010PropOp34
 70
     1
102
RTVSPost2010Prop35
280
     0
102
RTVSPost2010PropOp35
 70
     1
102
RTVSPost2010Prop36
280
     0
102
RTVSPost2010PropOp36
 70
     1
102
RTVSPost2010Prop37
 90
       50
102
RTVSPost2010PropOp37
 70
     1
102
RTVSPost2010Prop38
140
0.0
102
RTVSPost2010PropOp38
 70
     1
102
RTVSPost2010Prop39
140
1.0
102
RTVSPost2010PropOp39
 70
     1
102
RTVSPost2010Prop40
 90
        0
102
RTVSPost2010PropOp40
 70
     1
102
RTVSPost2010Prop41ColorIndex
 90
       18
102
RTVSPost2010Prop41ColorRGB
 90
        0
102
RTVSPost2010PropOp41
 70
     1
102
RTVSPost2010Prop42
 90
       50
102
RTVSPost2010PropOp42
 70
     1
102
RTVSPost2010Prop43
 90
        3
102
RTVSPost2010PropOp43
 70
     1
102
RTVSPost2010Prop44ColorIndex
 90
        5
102
RTVSPost2010Prop44ColorRGB
 90
      255
102
RTVSPost2010PropOp44
 70
     1
102
RTVSPost2010Prop45
280
     0
102
RTVSPost2010PropOp45
 70
     1
102
RTVSPost2010Prop46
 90
       50
102
RTVSPost2010PropOp46
 70
     1
102
RTVSPost2010Prop47
 90
       50
102
RTVSPost2010PropOp47
 70
     1
102
RTVSPost2010Prop48
 90
       50
102
RTVSPost2010PropOp48
 70
     1
102
RTVSPost2010Prop49
280
     0
102
RTVSPost2010PropOp49
 70
     1
102
RTVSPost2010Prop50
 90
       50
102
RTVSPost2010PropOp50
 70
     1
102
RTVSPost2010Prop51ColorIndex
 90
      256
102
RTVSPost2010Prop51ColorRGB
 90
-16777216
102
RTVSPost2010PropOp51
 70
     0
102
RTVSPost2010Prop52
140
1.0
102
RTVSPost2010PropOp52
 70
     0
102
RTVSPost2010Prop53
 90
        2
102
RTVSPost2010PropOp53
 70
     1
102
RTVSPost2010Prop54
  1
strokes_ogs.tif
102
RTVSPost2010PropOp54
 70
     1
102
RTVSPost2010Prop55
280
     0
102
RTVSPost2010PropOp55
 70
     1
102
RTVSPost2010Prop56
140
1.0
102
RTVSPost2010PropOp56
 70
     1
102
RTVSPost2010Prop57
140
1.0
102
RTVSPost2010PropOp57
 70
     1
  0
XRECORD
  5
45A
102
{ACAD_REACTORS
330
459
102
}
330
459
100
AcDbXrecord
280
     1
102
RTVSPost2010Prop28
280
     0
102
RTVSPost2010PropOp28
 70
     1
102
RTVSPost2010Prop29
280
     1
102
RTVSPost2010PropOp29
 70
     1
102
RTVSPost2010Prop30
280
     1
102
RTVSPost2010PropOp30
 70
     1
102
RTVSPost2010Prop31
280
     0
102
RTVSPost2010PropOp31
 70
     1
102
RTVSPost2010Prop32
280
     0
102
RTVSPost2010PropOp32
 70
     1
102
RTVSPost2010Prop33
280
     0
102
RTVSPost2010PropOp33
 70
     1
102
RTVSPost2010Prop34
280
     0
102
RTVSPost2010PropOp34
 70
     1
102
RTVSPost2010Prop35
280
     0
102
RTVSPost2010PropOp35
 70
     1
102
RTVSPost2010Prop36
280
     0
102
RTVSPost2010PropOp36
 70
     1
102
RTVSPost2010Prop37
 90
       50
102
RTVSPost2010PropOp37
 70
     1
102
RTVSPost2010Prop38
140
0.0
102
RTVSPost2010PropOp38
 70
     1
102
RTVSPost2010Prop39
140
1.0
102
RTVSPost2010PropOp39
 70
     1
102
RTVSPost2010Prop40
 90
        0
102
RTVSPost2010PropOp40
 70
     1
102
RTVSPost2010Prop41ColorIndex
 90
       18
102
RTVSPost2010Prop41ColorRGB
 90
        0
102
RTVSPost2010PropOp41
 70
     1
102
RTVSPost2010Prop42
 90
       50
102
RTVSPost2010PropOp42
 70
     1
102
RTVSPost2010Prop43
 90
        3
102
RTVSPost2010PropOp43
 70
     1
102
RTVSPost2010Prop44ColorIndex
 90
        5
102
RTVSPost2010Prop44ColorRGB
 90
      255
102
RTVSPost2010PropOp44
 70
     1
102
RTVSPost2010Prop45
280
     0
102
RTVSPost2010PropOp45
 70
     1
102
RTVSPost2010Prop46
 90
       50
102
RTVSPost2010PropOp46
 70
     1
102
RTVSPost2010Prop47
 90
       50
102
RTVSPost2010PropOp47
 70
     1
102
RTVSPost2010Prop48
 90
       50
102
RTVSPost2010PropOp48
 70
     1
102
RTVSPost2010Prop49
280
     0
102
RTVSPost2010PropOp49
 70
     1
102
RTVSPost2010Prop50
 90
       50
102
RTVSPost2010PropOp50
 70
     1
102
RTVSPost2010Prop51ColorIndex
 90
      256
102
RTVSPost2010Prop51ColorRGB
 90
-16777216
102
RTVSPost2010PropOp51
 70
     0
102
RTVSPost2010Prop52
140
1.0
102
RTVSPost2010PropOp52
 70
     0
102
RTVSPost2010Prop53
 90
        2
102
RTVSPost2010PropOp53
 70
     1
102
RTVSPost2010Prop54
  1
strokes_ogs.tif
102
RTVSPost2010PropOp54
 70
     1
102
RTVSPost2010Prop55
280
     0
102
RTVSPost2010PropOp55
 70
     1
102
RTVSPost2010Prop56
140
1.0
102
RTVSPost2010PropOp56
 70
     1
102
RTVSPost2010Prop57
140
1.0
102
RTVSPost2010PropOp57
 70
     1
  0
XRECORD
  5
45C
102
{ACAD_REACTORS
330
45B
102
}
330
45B
100
AcDbXrecord
280
     1
102
RTVSPost2010Prop28
280
     0
102
RTVSPost2010PropOp28
 70
     1
102
RTVSPost2010Prop29
280
     1
102
RTVSPost2010PropOp29
 70
     1
102
RTVSPost2010Prop30
280
     1
102
RTVSPost2010PropOp30
 70
     1
102
RTVSPost2010Prop31
280
     0
102
RTVSPost2010PropOp31
 70
     1
102
RTVSPost2010Prop32
280
     0
102
RTVSPost2010PropOp32
 70
     1
102
RTVSPost2010Prop33
280
     0
102
RTVSPost2010PropOp33
 70
     1
102
RTVSPost2010Prop34
280
     0
102
RTVSPost2010PropOp34
 70
     1
102
RTVSPost2010Prop35
280
     0
102
RTVSPost2010PropOp35
 70
     1
102
RTVSPost2010Prop36
280
     0
102
RTVSPost2010PropOp36
 70
     1
102
RTVSPost2010Prop37
 90
       50
102
RTVSPost2010PropOp37
 70
     1
102
RTVSPost2010Prop38
140
0.0
102
RTVSPost2010PropOp38
 70
     1
102
RTVSPost2010Prop39
140
1.0
102
RTVSPost2010PropOp39
 70
     1
102
RTVSPost2010Prop40
 90
        0
102
RTVSPost2010PropOp40
 70
     1
102
RTVSPost2010Prop41ColorIndex
 90
       18
102
RTVSPost2010Prop41ColorRGB
 90
        0
102
RTVSPost2010PropOp41
 70
     1
102
RTVSPost2010Prop42
 90
       50
102
RTVSPost2010PropOp42
 70
     1
102
RTVSPost2010Prop43
 90
        3
102
RTVSPost2010PropOp43
 70
     1
102
RTVSPost2010Prop44ColorIndex
 90
        5
102
RTVSPost2010Prop44ColorRGB
 90
      255
102
RTVSPost2010PropOp44
 70
     1
102
RTVSPost2010Prop45
280
     0
102
RTVSPost2010PropOp45
 70
     1
102
RTVSPost2010Prop46
 90
       50
102
RTVSPost2010PropOp46
 70
     1
102
RTVSPost2010Prop47
 90
       50
102
RTVSPost2010PropOp47
 70
     1
102
RTVSPost2010Prop48
 90
       50
102
RTVSPost2010PropOp48
 70
     1
102
RTVSPost2010Prop49
280
     0
102
RTVSPost2010PropOp49
 70
     1
102
RTVSPost2010Prop50
 90
       50
102
RTVSPost2010PropOp50
 70
     1
102
RTVSPost2010Prop51ColorIndex
 90
      256
102
RTVSPost2010Prop51ColorRGB
 90
-16777216
102
RTVSPost2010PropOp51
 70
     0
102
RTVSPost2010Prop52
140
1.0
102
RTVSPost2010PropOp52
 70
     0
102
RTVSPost2010Prop53
 90
        2
102
RTVSPost2010PropOp53
 70
     1
102
RTVSPost2010Prop54
  1
strokes_ogs.tif
102
RTVSPost2010PropOp54
 70
     1
102
RTVSPost2010Prop55
280
     0
102
RTVSPost2010PropOp55
 70
     1
102
RTVSPost2010Prop56
140
1.0
102
RTVSPost2010PropOp56
 70
     1
102
RTVSPost2010Prop57
140
1.0
102
RTVSPost2010PropOp57
 70
     1
  0
XRECORD
  5
45E
102
{ACAD_REACTORS
330
45D
102
}
330
45D
100
AcDbXrecord
280
     1
102
RTVSPost2010Prop28
280
     0
102
RTVSPost2010PropOp28
 70
     1
102
RTVSPost2010Prop29
280
     1
102
RTVSPost2010PropOp29
 70
     1
102
RTVSPost2010Prop30
280
     1
102
RTVSPost2010PropOp30
 70
     1
102
RTVSPost2010Prop31
280
     0
102
RTVSPost2010PropOp31
 70
     1
102
RTVSPost2010Prop32
280
     0
102
RTVSPost2010PropOp32
 70
     1
102
RTVSPost2010Prop33
280
     0
102
RTVSPost2010PropOp33
 70
     1
102
RTVSPost2010Prop34
280
     0
102
RTVSPost2010PropOp34
 70
     1
102
RTVSPost2010Prop35
280
     0
102
RTVSPost2010PropOp35
 70
     1
102
RTVSPost2010Prop36
280
     0
102
RTVSPost2010PropOp36
 70
     1
102
RTVSPost2010Prop37
 90
       50
102
RTVSPost2010PropOp37
 70
     1
102
RTVSPost2010Prop38
140
0.0
102
RTVSPost2010PropOp38
 70
     1
102
RTVSPost2010Prop39
140
1.0
102
RTVSPost2010PropOp39
 70
     1
102
RTVSPost2010Prop40
 90
        0
102
RTVSPost2010PropOp40
 70
     1
102
RTVSPost2010Prop41ColorIndex
 90
       18
102
RTVSPost2010Prop41ColorRGB
 90
        0
102
RTVSPost2010PropOp41
 70
     1
102
RTVSPost2010Prop42
 90
       50
102
RTVSPost2010PropOp42
 70
     1
102
RTVSPost2010Prop43
 90
        3
102
RTVSPost2010PropOp43
 70
     1
102
RTVSPost2010Prop44ColorIndex
 90
        5
102
RTVSPost2010Prop44ColorRGB
 90
      255
102
RTVSPost2010PropOp44
 70
     1
102
RTVSPost2010Prop45
280
     0
102
RTVSPost2010PropOp45
 70
     1
102
RTVSPost2010Prop46
 90
       50
102
RTVSPost2010PropOp46
 70
     1
102
RTVSPost2010Prop47
 90
       50
102
RTVSPost2010PropOp47
 70
     1
102
RTVSPost2010Prop48
 90
       50
102
RTVSPost2010PropOp48
 70
     1
102
RTVSPost2010Prop49
280
     0
102
RTVSPost2010PropOp49
 70
     1
102
RTVSPost2010Prop50
 90
       50
102
RTVSPost2010PropOp50
 70
     1
102
RTVSPost2010Prop51ColorIndex
 90
      256
102
RTVSPost2010Prop51ColorRGB
 90
-16777216
102
RTVSPost2010PropOp51
 70
     0
102
RTVSPost2010Prop52
140
1.0
102
RTVSPost2010PropOp52
 70
     0
102
RTVSPost2010Prop53
 90
        2
102
RTVSPost2010PropOp53
 70
     1
102
RTVSPost2010Prop54
  1
strokes_ogs.tif
102
RTVSPost2010PropOp54
 70
     1
102
RTVSPost2010Prop55
280
     0
102
RTVSPost2010PropOp55
 70
     1
102
RTVSPost2010Prop56
140
1.0
102
RTVSPost2010PropOp56
 70
     1
102
RTVSPost2010Prop57
140
1.0
102
RTVSPost2010PropOp57
 70
     1
  0
XRECORD
  5
464
102
{ACAD_REACTORS
330
463
102
}
330
463
100
AcDbXrecord
280
     1
102
RTVSPost2010Prop28
280
     0
102
RTVSPost2010PropOp28
 70
     1
102
RTVSPost2010Prop29
280
     1
102
RTVSPost2010PropOp29
 70
     1
102
RTVSPost2010Prop30
280
     1
102
RTVSPost2010PropOp30
 70
     1
102
RTVSPost2010Prop31
280
     0
102
RTVSPost2010PropOp31
 70
     1
102
RTVSPost2010Prop32
280
     0
102
RTVSPost2010PropOp32
 70
     1
102
RTVSPost2010Prop33
280
     0
102
RTVSPost2010PropOp33
 70
     1
102
RTVSPost2010Prop34
280
     0
102
RTVSPost2010PropOp34
 70
     1
102
RTVSPost2010Prop35
280
     0
102
RTVSPost2010PropOp35
 70
     1
102
RTVSPost2010Prop36
280
     0
102
RTVSPost2010PropOp36
 70
     1
102
RTVSPost2010Prop37
 90
       50
102
RTVSPost2010PropOp37
 70
     1
102
RTVSPost2010Prop38
140
0.0
102
RTVSPost2010PropOp38
 70
     1
102
RTVSPost2010Prop39
140
1.0
102
RTVSPost2010PropOp39
 70
     1
102
RTVSPost2010Prop40
 90
        0
102
RTVSPost2010PropOp40
 70
     1
102
RTVSPost2010Prop41ColorIndex
 90
       18
102
RTVSPost2010Prop41ColorRGB
 90
        0
102
RTVSPost2010PropOp41
 70
     1
102
RTVSPost2010Prop42
 90
       50
102
RTVSPost2010PropOp42
 70
     1
102
RTVSPost2010Prop43
 90
        3
102
RTVSPost2010PropOp43
 70
     1
102
RTVSPost2010Prop44ColorIndex
 90
        5
102
RTVSPost2010Prop44ColorRGB
 90
      255
102
RTVSPost2010PropOp44
 70
     1
102
RTVSPost2010Prop45
280
     0
102
RTVSPost2010PropOp45
 70
     1
102
RTVSPost2010Prop46
 90
       50
102
RTVSPost2010PropOp46
 70
     1
102
RTVSPost2010Prop47
 90
       50
102
RTVSPost2010PropOp47
 70
     1
102
RTVSPost2010Prop48
 90
       50
102
RTVSPost2010PropOp48
 70
     1
102
RTVSPost2010Prop49
280
     0
102
RTVSPost2010PropOp49
 70
     1
102
RTVSPost2010Prop50
 90
       50
102
RTVSPost2010PropOp50
 70
     1
102
RTVSPost2010Prop51ColorIndex
 90
      256
102
RTVSPost2010Prop51ColorRGB
 90
-16777216
102
RTVSPost2010PropOp51
 70
     0
102
RTVSPost2010Prop52
140
1.0
102
RTVSPost2010PropOp52
 70
     0
102
RTVSPost2010Prop53
 90
        2
102
RTVSPost2010PropOp53
 70
     1
102
RTVSPost2010Prop54
  1
strokes_ogs.tif
102
RTVSPost2010PropOp54
 70
     1
102
RTVSPost2010Prop55
280
     0
102
RTVSPost2010PropOp55
 70
     1
102
RTVSPost2010Prop56
140
1.0
102
RTVSPost2010PropOp56
 70
     1
102
RTVSPost2010Prop57
140
1.0
102
RTVSPost2010PropOp57
 70
     1
  0
XRECORD
  5
478
102
{ACAD_REACTORS
330
477
102
}
330
477
100
AcDbXrecord
280
     1
102
RTVSPost2010Prop28
280
     0
102
RTVSPost2010PropOp28
 70
     0
102
RTVSPost2010Prop29
280
     1
102
RTVSPost2010PropOp29
 70
     0
102
RTVSPost2010Prop30
280
     1
102
RTVSPost2010PropOp30
 70
     0
102
RTVSPost2010Prop31
280
     0
102
RTVSPost2010PropOp31
 70
     0
102
RTVSPost2010Prop32
280
     0
102
RTVSPost2010PropOp32
 70
     0
102
RTVSPost2010Prop33
280
     0
102
RTVSPost2010PropOp33
 70
     0
102
RTVSPost2010Prop34
280
     0
102
RTVSPost2010PropOp34
 70
     0
102
RTVSPost2010Prop35
280
     0
102
RTVSPost2010PropOp35
 70
     0
102
RTVSPost2010Prop36
280
     0
102
RTVSPost2010PropOp36
 70
     0
102
RTVSPost2010Prop37
 90
       50
102
RTVSPost2010PropOp37
 70
     0
102
RTVSPost2010Prop38
140
0.0
102
RTVSPost2010PropOp38
 70
     0
102
RTVSPost2010Prop39
140
1.0
102
RTVSPost2010PropOp39
 70
     0
102
RTVSPost2010Prop40
 90
        0
102
RTVSPost2010PropOp40
 70
     0
102
RTVSPost2010Prop41ColorIndex
 90
       18
102
RTVSPost2010Prop41ColorRGB
 90
        0
102
RTVSPost2010PropOp41
 70
     0
102
RTVSPost2010Prop42
 90
       50
102
RTVSPost2010PropOp42
 70
     0
102
RTVSPost2010Prop43
 90
        3
102
RTVSPost2010PropOp43
 70
     0
102
RTVSPost2010Prop44ColorIndex
 90
        5
102
RTVSPost2010Prop44ColorRGB
 90
      255
102
RTVSPost2010PropOp44
 70
     0
102
RTVSPost2010Prop45
280
     0
102
RTVSPost2010PropOp45
 70
     0
102
RTVSPost2010Prop46
 90
       50
102
RTVSPost2010PropOp46
 70
     0
102
RTVSPost2010Prop47
 90
       50
102
RTVSPost2010PropOp47
 70
     0
102
RTVSPost2010Prop48
 90
       50
102
RTVSPost2010PropOp48
 70
     0
102
RTVSPost2010Prop49
280
     0
102
RTVSPost2010PropOp49
 70
     0
102
RTVSPost2010Prop50
 90
       50
102
RTVSPost2010PropOp50
 70
     0
102
RTVSPost2010Prop51ColorIndex
 90
      256
102
RTVSPost2010Prop51ColorRGB
 90
-16777216
102
RTVSPost2010PropOp51
 70
     0
102
RTVSPost2010Prop52
140
1.0
102
RTVSPost2010PropOp52
 70
     0
102
RTVSPost2010Prop53
 90
        2
102
RTVSPost2010PropOp53
 70
     0
102
RTVSPost2010Prop54
  1
strokes_ogs.tif
102
RTVSPost2010PropOp54
 70
     0
102
RTVSPost2010Prop55
280
     0
102
RTVSPost2010PropOp55
 70
     0
102
RTVSPost2010Prop56
140
1.0
102
RTVSPost2010PropOp56
 70
     0
102
RTVSPost2010Prop57
140
1.0
102
RTVSPost2010PropOp57
 70
     0
  0
XRECORD
  5
472
102
{ACAD_REACTORS
330
471
102
}
330
471
100
AcDbXrecord
280
     1
102
RTVSPost2010Prop28
280
     0
102
RTVSPost2010PropOp28
 70
     1
102
RTVSPost2010Prop29
280
     1
102
RTVSPost2010PropOp29
 70
     1
102
RTVSPost2010Prop30
280
     1
102
RTVSPost2010PropOp30
 70
     1
102
RTVSPost2010Prop31
280
     0
102
RTVSPost2010PropOp31
 70
     1
102
RTVSPost2010Prop32
280
     0
102
RTVSPost2010PropOp32
 70
     1
102
RTVSPost2010Prop33
280
     0
102
RTVSPost2010PropOp33
 70
     1
102
RTVSPost2010Prop34
280
     0
102
RTVSPost2010PropOp34
 70
     1
102
RTVSPost2010Prop35
280
     0
102
RTVSPost2010PropOp35
 70
     1
102
RTVSPost2010Prop36
280
     0
102
RTVSPost2010PropOp36
 70
     1
102
RTVSPost2010Prop37
 90
       50
102
RTVSPost2010PropOp37
 70
     1
102
RTVSPost2010Prop38
140
0.0
102
RTVSPost2010PropOp38
 70
     1
102
RTVSPost2010Prop39
140
1.0
102
RTVSPost2010PropOp39
 70
     1
102
RTVSPost2010Prop40
 90
        0
102
RTVSPost2010PropOp40
 70
     1
102
RTVSPost2010Prop41ColorIndex
 90
       18
102
RTVSPost2010Prop41ColorRGB
 90
        0
102
RTVSPost2010PropOp41
 70
     1
102
RTVSPost2010Prop42
 90
       50
102
RTVSPost2010PropOp42
 70
     1
102
RTVSPost2010Prop43
 90
        3
102
RTVSPost2010PropOp43
 70
     1
102
RTVSPost2010Prop44ColorIndex
 90
        5
102
RTVSPost2010Prop44ColorRGB
 90
      255
102
RTVSPost2010PropOp44
 70
     1
102
RTVSPost2010Prop45
280
     0
102
RTVSPost2010PropOp45
 70
     1
102
RTVSPost2010Prop46
 90
       50
102
RTVSPost2010PropOp46
 70
     1
102
RTVSPost2010Prop47
 90
       50
102
RTVSPost2010PropOp47
 70
     1
102
RTVSPost2010Prop48
 90
       50
102
RTVSPost2010PropOp48
 70
     1
102
RTVSPost2010Prop49
280
     0
102
RTVSPost2010PropOp49
 70
     1
102
RTVSPost2010Prop50
 90
       50
102
RTVSPost2010PropOp50
 70
     1
102
RTVSPost2010Prop51ColorIndex
 90
      256
102
RTVSPost2010Prop51ColorRGB
 90
-16777216
102
RTVSPost2010PropOp51
 70
     0
102
RTVSPost2010Prop52
140
1.0
102
RTVSPost2010PropOp52
 70
     0
102
RTVSPost2010Prop53
 90
        2
102
RTVSPost2010PropOp53
 70
     1
102
RTVSPost2010Prop54
  1
strokes_ogs.tif
102
RTVSPost2010PropOp54
 70
     1
102
RTVSPost2010Prop55
280
     0
102
RTVSPost2010PropOp55
 70
     1
102
RTVSPost2010Prop56
140
1.0
102
RTVSPost2010PropOp56
 70
     1
102
RTVSPost2010Prop57
140
1.0
102
RTVSPost2010PropOp57
 70
     1
  0
XRECORD
  5
47A
102
{ACAD_REACTORS
330
479
102
}
330
479
100
AcDbXrecord
280
     1
102
RTVSPost2010Prop28
280
     0
102
RTVSPost2010PropOp28
 70
     0
102
RTVSPost2010Prop29
280
     1
102
RTVSPost2010PropOp29
 70
     0
102
RTVSPost2010Prop30
280
     1
102
RTVSPost2010PropOp30
 70
     0
102
RTVSPost2010Prop31
280
     0
102
RTVSPost2010PropOp31
 70
     0
102
RTVSPost2010Prop32
280
     0
102
RTVSPost2010PropOp32
 70
     0
102
RTVSPost2010Prop33
280
     0
102
RTVSPost2010PropOp33
 70
     0
102
RTVSPost2010Prop34
280
     0
102
RTVSPost2010PropOp34
 70
     0
102
RTVSPost2010Prop35
280
     0
102
RTVSPost2010PropOp35
 70
     0
102
RTVSPost2010Prop36
280
     0
102
RTVSPost2010PropOp36
 70
     0
102
RTVSPost2010Prop37
 90
       50
102
RTVSPost2010PropOp37
 70
     0
102
RTVSPost2010Prop38
140
0.0
102
RTVSPost2010PropOp38
 70
     0
102
RTVSPost2010Prop39
140
1.0
102
RTVSPost2010PropOp39
 70
     0
102
RTVSPost2010Prop40
 90
        0
102
RTVSPost2010PropOp40
 70
     0
102
RTVSPost2010Prop41ColorIndex
 90
       18
102
RTVSPost2010Prop41ColorRGB
 90
        0
102
RTVSPost2010PropOp41
 70
     0
102
RTVSPost2010Prop42
 90
       50
102
RTVSPost2010PropOp42
 70
     0
102
RTVSPost2010Prop43
 90
        3
102
RTVSPost2010PropOp43
 70
     0
102
RTVSPost2010Prop44ColorIndex
 90
        5
102
RTVSPost2010Prop44ColorRGB
 90
      255
102
RTVSPost2010PropOp44
 70
     0
102
RTVSPost2010Prop45
280
     0
102
RTVSPost2010PropOp45
 70
     0
102
RTVSPost2010Prop46
 90
       50
102
RTVSPost2010PropOp46
 70
     0
102
RTVSPost2010Prop47
 90
       50
102
RTVSPost2010PropOp47
 70
     0
102
RTVSPost2010Prop48
 90
       50
102
RTVSPost2010PropOp48
 70
     0
102
RTVSPost2010Prop49
280
     0
102
RTVSPost2010PropOp49
 70
     0
102
RTVSPost2010Prop50
 90
       50
102
RTVSPost2010PropOp50
 70
     0
102
RTVSPost2010Prop51ColorIndex
 90
      256
102
RTVSPost2010Prop51ColorRGB
 90
-16777216
102
RTVSPost2010PropOp51
 70
     0
102
RTVSPost2010Prop52
140
1.0
102
RTVSPost2010PropOp52
 70
     0
102
RTVSPost2010Prop53
 90
        2
102
RTVSPost2010PropOp53
 70
     0
102
RTVSPost2010Prop54
  1
strokes_ogs.tif
102
RTVSPost2010PropOp54
 70
     0
102
RTVSPost2010Prop55
280
     0
102
RTVSPost2010PropOp55
 70
     0
102
RTVSPost2010Prop56
140
1.0
102
RTVSPost2010PropOp56
 70
     0
102
RTVSPost2010Prop57
140
1.0
102
RTVSPost2010PropOp57
 70
     0
  0
XRECORD
  5
468
102
{ACAD_REACTORS
330
467
102
}
330
467
100
AcDbXrecord
280
     1
102
RTVSPost2010Prop28
280
     0
102
RTVSPost2010PropOp28
 70
     1
102
RTVSPost2010Prop29
280
     1
102
RTVSPost2010PropOp29
 70
     1
102
RTVSPost2010Prop30
280
     1
102
RTVSPost2010PropOp30
 70
     1
102
RTVSPost2010Prop31
280
     0
102
RTVSPost2010PropOp31
 70
     1
102
RTVSPost2010Prop32
280
     0
102
RTVSPost2010PropOp32
 70
     1
102
RTVSPost2010Prop33
280
     0
102
RTVSPost2010PropOp33
 70
     1
102
RTVSPost2010Prop34
280
     0
102
RTVSPost2010PropOp34
 70
     1
102
RTVSPost2010Prop35
280
     0
102
RTVSPost2010PropOp35
 70
     1
102
RTVSPost2010Prop36
280
     0
102
RTVSPost2010PropOp36
 70
     1
102
RTVSPost2010Prop37
 90
       50
102
RTVSPost2010PropOp37
 70
     1
102
RTVSPost2010Prop38
140
0.0
102
RTVSPost2010PropOp38
 70
     1
102
RTVSPost2010Prop39
140
1.0
102
RTVSPost2010PropOp39
 70
     1
102
RTVSPost2010Prop40
 90
        0
102
RTVSPost2010PropOp40
 70
     1
102
RTVSPost2010Prop41ColorIndex
 90
       18
102
RTVSPost2010Prop41ColorRGB
 90
        0
102
RTVSPost2010PropOp41
 70
     1
102
RTVSPost2010Prop42
 90
       50
102
RTVSPost2010PropOp42
 70
     1
102
RTVSPost2010Prop43
 90
        3
102
RTVSPost2010PropOp43
 70
     1
102
RTVSPost2010Prop44ColorIndex
 90
        5
102
RTVSPost2010Prop44ColorRGB
 90
      255
102
RTVSPost2010PropOp44
 70
     1
102
RTVSPost2010Prop45
280
     0
102
RTVSPost2010PropOp45
 70
     1
102
RTVSPost2010Prop46
 90
       50
102
RTVSPost2010PropOp46
 70
     1
102
RTVSPost2010Prop47
 90
       50
102
RTVSPost2010PropOp47
 70
     1
102
RTVSPost2010Prop48
 90
       50
102
RTVSPost2010PropOp48
 70
     1
102
RTVSPost2010Prop49
280
     0
102
RTVSPost2010PropOp49
 70
     1
102
RTVSPost2010Prop50
 90
       50
102
RTVSPost2010PropOp50
 70
     1
102
RTVSPost2010Prop51ColorIndex
 90
      256
102
RTVSPost2010Prop51ColorRGB
 90
-16777216
102
RTVSPost2010PropOp51
 70
     0
102
RTVSPost2010Prop52
140
1.0
102
RTVSPost2010PropOp52
 70
     0
102
RTVSPost2010Prop53
 90
        2
102
RTVSPost2010PropOp53
 70
     1
102
RTVSPost2010Prop54
  1
strokes_ogs.tif
102
RTVSPost2010PropOp54
 70
     1
102
RTVSPost2010Prop55
280
     0
102
RTVSPost2010PropOp55
 70
     1
102
RTVSPost2010Prop56
140
1.0
102
RTVSPost2010PropOp56
 70
     1
102
RTVSPost2010Prop57
140
1.0
102
RTVSPost2010PropOp57
 70
     1
  0
XRECORD
  5
486
102
{ACAD_REACTORS
330
485
102
}
330
485
100
AcDbXrecord
280
     1
102
RTVSPost2010Prop28
280
     0
102
RTVSPost2010PropOp28
 70
     1
102
RTVSPost2010Prop29
280
     1
102
RTVSPost2010PropOp29
 70
     1
102
RTVSPost2010Prop30
280
     1
102
RTVSPost2010PropOp30
 70
     1
102
RTVSPost2010Prop31
280
     0
102
RTVSPost2010PropOp31
 70
     1
102
RTVSPost2010Prop32
280
     0
102
RTVSPost2010PropOp32
 70
     1
102
RTVSPost2010Prop33
280
     0
102
RTVSPost2010PropOp33
 70
     1
102
RTVSPost2010Prop34
280
     0
102
RTVSPost2010PropOp34
 70
     1
102
RTVSPost2010Prop35
280
     0
102
RTVSPost2010PropOp35
 70
     1
102
RTVSPost2010Prop36
280
     0
102
RTVSPost2010PropOp36
 70
     1
102
RTVSPost2010Prop37
 90
       50
102
RTVSPost2010PropOp37
 70
     1
102
RTVSPost2010Prop38
140
0.0
102
RTVSPost2010PropOp38
 70
     1
102
RTVSPost2010Prop39
140
1.0
102
RTVSPost2010PropOp39
 70
     1
102
RTVSPost2010Prop40
 90
        0
102
RTVSPost2010PropOp40
 70
     1
102
RTVSPost2010Prop41ColorIndex
 90
       18
102
RTVSPost2010Prop41ColorRGB
 90
        0
102
RTVSPost2010PropOp41
 70
     1
102
RTVSPost2010Prop42
 90
       50
102
RTVSPost2010PropOp42
 70
     1
102
RTVSPost2010Prop43
 90
        3
102
RTVSPost2010PropOp43
 70
     1
102
RTVSPost2010Prop44ColorIndex
 90
        5
102
RTVSPost2010Prop44ColorRGB
 90
      255
102
RTVSPost2010PropOp44
 70
     1
102
RTVSPost2010Prop45
280
     0
102
RTVSPost2010PropOp45
 70
     1
102
RTVSPost2010Prop46
 90
       50
102
RTVSPost2010PropOp46
 70
     1
102
RTVSPost2010Prop47
 90
       50
102
RTVSPost2010PropOp47
 70
     1
102
RTVSPost2010Prop48
 90
       50
102
RTVSPost2010PropOp48
 70
     1
102
RTVSPost2010Prop49
280
     0
102
RTVSPost2010PropOp49
 70
     1
102
RTVSPost2010Prop50
 90
       50
102
RTVSPost2010PropOp50
 70
     1
102
RTVSPost2010Prop51ColorIndex
 90
      256
102
RTVSPost2010Prop51ColorRGB
 90
-16777216
102
RTVSPost2010PropOp51
 70
     0
102
RTVSPost2010Prop52
140
1.0
102
RTVSPost2010PropOp52
 70
     0
102
RTVSPost2010Prop53
 90
        2
102
RTVSPost2010PropOp53
 70
     1
102
RTVSPost2010Prop54
  1
strokes_ogs.tif
102
RTVSPost2010PropOp54
 70
     1
102
RTVSPost2010Prop55
280
     0
102
RTVSPost2010PropOp55
 70
     1
102
RTVSPost2010Prop56
140
1.0
102
RTVSPost2010PropOp56
 70
     1
102
RTVSPost2010Prop57
140
1.0
102
RTVSPost2010PropOp57
 70
     1
  0
XRECORD
  5
484
102
{ACAD_REACTORS
330
483
102
}
330
483
100
AcDbXrecord
280
     1
102
RTVSPost2010Prop28
280
     0
102
RTVSPost2010PropOp28
 70
     1
102
RTVSPost2010Prop29
280
     1
102
RTVSPost2010PropOp29
 70
     1
102
RTVSPost2010Prop30
280
     1
102
RTVSPost2010PropOp30
 70
     1
102
RTVSPost2010Prop31
280
     0
102
RTVSPost2010PropOp31
 70
     1
102
RTVSPost2010Prop32
280
     0
102
RTVSPost2010PropOp32
 70
     1
102
RTVSPost2010Prop33
280
     0
102
RTVSPost2010PropOp33
 70
     1
102
RTVSPost2010Prop34
280
     0
102
RTVSPost2010PropOp34
 70
     1
102
RTVSPost2010Prop35
280
     0
102
RTVSPost2010PropOp35
 70
     1
102
RTVSPost2010Prop36
280
     0
102
RTVSPost2010PropOp36
 70
     1
102
RTVSPost2010Prop37
 90
       50
102
RTVSPost2010PropOp37
 70
     1
102
RTVSPost2010Prop38
140
0.0
102
RTVSPost2010PropOp38
 70
     1
102
RTVSPost2010Prop39
140
1.0
102
RTVSPost2010PropOp39
 70
     1
102
RTVSPost2010Prop40
 90
        0
102
RTVSPost2010PropOp40
 70
     1
102
RTVSPost2010Prop41ColorIndex
 90
       18
102
RTVSPost2010Prop41ColorRGB
 90
        0
102
RTVSPost2010PropOp41
 70
     1
102
RTVSPost2010Prop42
 90
       50
102
RTVSPost2010PropOp42
 70
     1
102
RTVSPost2010Prop43
 90
        3
102
RTVSPost2010PropOp43
 70
     1
102
RTVSPost2010Prop44ColorIndex
 90
        5
102
RTVSPost2010Prop44ColorRGB
 90
      255
102
RTVSPost2010PropOp44
 70
     1
102
RTVSPost2010Prop45
280
     0
102
RTVSPost2010PropOp45
 70
     1
102
RTVSPost2010Prop46
 90
       50
102
RTVSPost2010PropOp46
 70
     1
102
RTVSPost2010Prop47
 90
       50
102
RTVSPost2010PropOp47
 70
     1
102
RTVSPost2010Prop48
 90
       50
102
RTVSPost2010PropOp48
 70
     1
102
RTVSPost2010Prop49
280
     0
102
RTVSPost2010PropOp49
 70
     1
102
RTVSPost2010Prop50
 90
       50
102
RTVSPost2010PropOp50
 70
     1
102
RTVSPost2010Prop51ColorIndex
 90
      256
102
RTVSPost2010Prop51ColorRGB
 90
-16777216
102
RTVSPost2010PropOp51
 70
     0
102
RTVSPost2010Prop52
140
1.0
102
RTVSPost2010PropOp52
 70
     0
102
RTVSPost2010Prop53
 90
        2
102
RTVSPost2010PropOp53
 70
     1
102
RTVSPost2010Prop54
  1
strokes_ogs.tif
102
RTVSPost2010PropOp54
 70
     1
102
RTVSPost2010Prop55
280
     0
102
RTVSPost2010PropOp55
 70
     1
102
RTVSPost2010Prop56
140
1.0
102
RTVSPost2010PropOp56
 70
     1
102
RTVSPost2010Prop57
140
1.0
102
RTVSPost2010PropOp57
 70
     1
  0
XRECORD
  5
47E
102
{ACAD_REACTORS
330
47D
102
}
330
47D
100
AcDbXrecord
280
     1
102
RTVSPost2010Prop28
280
     0
102
RTVSPost2010PropOp28
 70
     1
102
RTVSPost2010Prop29
280
     1
102
RTVSPost2010PropOp29
 70
     1
102
RTVSPost2010Prop30
280
     1
102
RTVSPost2010PropOp30
 70
     1
102
RTVSPost2010Prop31
280
     0
102
RTVSPost2010PropOp31
 70
     1
102
RTVSPost2010Prop32
280
     0
102
RTVSPost2010PropOp32
 70
     1
102
RTVSPost2010Prop33
280
     0
102
RTVSPost2010PropOp33
 70
     1
102
RTVSPost2010Prop34
280
     0
102
RTVSPost2010PropOp34
 70
     1
102
RTVSPost2010Prop35
280
     0
102
RTVSPost2010PropOp35
 70
     1
102
RTVSPost2010Prop36
280
     0
102
RTVSPost2010PropOp36
 70
     1
102
RTVSPost2010Prop37
 90
       50
102
RTVSPost2010PropOp37
 70
     1
102
RTVSPost2010Prop38
140
0.0
102
RTVSPost2010PropOp38
 70
     1
102
RTVSPost2010Prop39
140
1.0
102
RTVSPost2010PropOp39
 70
     1
102
RTVSPost2010Prop40
 90
        0
102
RTVSPost2010PropOp40
 70
     1
102
RTVSPost2010Prop41ColorIndex
 90
       18
102
RTVSPost2010Prop41ColorRGB
 90
        0
102
RTVSPost2010PropOp41
 70
     1
102
RTVSPost2010Prop42
 90
       50
102
RTVSPost2010PropOp42
 70
     1
102
RTVSPost2010Prop43
 90
        3
102
RTVSPost2010PropOp43
 70
     1
102
RTVSPost2010Prop44ColorIndex
 90
        5
102
RTVSPost2010Prop44ColorRGB
 90
      255
102
RTVSPost2010PropOp44
 70
     1
102
RTVSPost2010Prop45
280
     0
102
RTVSPost2010PropOp45
 70
     1
102
RTVSPost2010Prop46
 90
       50
102
RTVSPost2010PropOp46
 70
     1
102
RTVSPost2010Prop47
 90
       50
102
RTVSPost2010PropOp47
 70
     1
102
RTVSPost2010Prop48
 90
       50
102
RTVSPost2010PropOp48
 70
     1
102
RTVSPost2010Prop49
280
     0
102
RTVSPost2010PropOp49
 70
     1
102
RTVSPost2010Prop50
 90
       50
102
RTVSPost2010PropOp50
 70
     1
102
RTVSPost2010Prop51ColorIndex
 90
      256
102
RTVSPost2010Prop51ColorRGB
 90
-16777216
102
RTVSPost2010PropOp51
 70
     0
102
RTVSPost2010Prop52
140
1.0
102
RTVSPost2010PropOp52
 70
     0
102
RTVSPost2010Prop53
 90
        2
102
RTVSPost2010PropOp53
 70
     1
102
RTVSPost2010Prop54
  1
strokes_ogs.tif
102
RTVSPost2010PropOp54
 70
     1
102
RTVSPost2010Prop55
280
     0
102
RTVSPost2010PropOp55
 70
     1
102
RTVSPost2010Prop56
140
1.0
102
RTVSPost2010PropOp56
 70
     1
102
RTVSPost2010Prop57
140
1.0
102
RTVSPost2010PropOp57
 70
     1
  0
XRECORD
  5
480
102
{ACAD_REACTORS
330
47F
102
}
330
47F
100
AcDbXrecord
280
     1
102
RTVSPost2010Prop28
280
     0
102
RTVSPost2010PropOp28
 70
     1
102
RTVSPost2010Prop29
280
     1
102
RTVSPost2010PropOp29
 70
     1
102
RTVSPost2010Prop30
280
     1
102
RTVSPost2010PropOp30
 70
     1
102
RTVSPost2010Prop31
280
     0
102
RTVSPost2010PropOp31
 70
     1
102
RTVSPost2010Prop32
280
     0
102
RTVSPost2010PropOp32
 70
     1
102
RTVSPost2010Prop33
280
     0
102
RTVSPost2010PropOp33
 70
     1
102
RTVSPost2010Prop34
280
     0
102
RTVSPost2010PropOp34
 70
     1
102
RTVSPost2010Prop35
280
     0
102
RTVSPost2010PropOp35
 70
     1
102
RTVSPost2010Prop36
280
     0
102
RTVSPost2010PropOp36
 70
     1
102
RTVSPost2010Prop37
 90
       50
102
RTVSPost2010PropOp37
 70
     1
102
RTVSPost2010Prop38
140
0.0
102
RTVSPost2010PropOp38
 70
     1
102
RTVSPost2010Prop39
140
1.0
102
RTVSPost2010PropOp39
 70
     1
102
RTVSPost2010Prop40
 90
        0
102
RTVSPost2010PropOp40
 70
     1
102
RTVSPost2010Prop41ColorIndex
 90
       18
102
RTVSPost2010Prop41ColorRGB
 90
        0
102
RTVSPost2010PropOp41
 70
     1
102
RTVSPost2010Prop42
 90
       50
102
RTVSPost2010PropOp42
 70
     1
102
RTVSPost2010Prop43
 90
        3
102
RTVSPost2010PropOp43
 70
     1
102
RTVSPost2010Prop44ColorIndex
 90
        5
102
RTVSPost2010Prop44ColorRGB
 90
      255
102
RTVSPost2010PropOp44
 70
     1
102
RTVSPost2010Prop45
280
     0
102
RTVSPost2010PropOp45
 70
     1
102
RTVSPost2010Prop46
 90
       50
102
RTVSPost2010PropOp46
 70
     1
102
RTVSPost2010Prop47
 90
       50
102
RTVSPost2010PropOp47
 70
     1
102
RTVSPost2010Prop48
 90
       50
102
RTVSPost2010PropOp48
 70
     1
102
RTVSPost2010Prop49
280
     0
102
RTVSPost2010PropOp49
 70
     1
102
RTVSPost2010Prop50
 90
       50
102
RTVSPost2010PropOp50
 70
     1
102
RTVSPost2010Prop51ColorIndex
 90
      256
102
RTVSPost2010Prop51ColorRGB
 90
-16777216
102
RTVSPost2010PropOp51
 70
     0
102
RTVSPost2010Prop52
140
1.0
102
RTVSPost2010PropOp52
 70
     0
102
RTVSPost2010Prop53
 90
        2
102
RTVSPost2010PropOp53
 70
     1
102
RTVSPost2010Prop54
  1
strokes_ogs.tif
102
RTVSPost2010PropOp54
 70
     1
102
RTVSPost2010Prop55
280
     0
102
RTVSPost2010PropOp55
 70
     1
102
RTVSPost2010Prop56
140
1.0
102
RTVSPost2010PropOp56
 70
     1
102
RTVSPost2010Prop57
140
1.0
102
RTVSPost2010PropOp57
 70
     1
  0
XRECORD
  5
470
102
{ACAD_REACTORS
330
46F
102
}
330
46F
100
AcDbXrecord
280
     1
102
RTVSPost2010Prop28
280
     0
102
RTVSPost2010PropOp28
 70
     1
102
RTVSPost2010Prop29
280
     1
102
RTVSPost2010PropOp29
 70
     1
102
RTVSPost2010Prop30
280
     1
102
RTVSPost2010PropOp30
 70
     1
102
RTVSPost2010Prop31
280
     0
102
RTVSPost2010PropOp31
 70
     1
102
RTVSPost2010Prop32
280
     0
102
RTVSPost2010PropOp32
 70
     1
102
RTVSPost2010Prop33
280
     0
102
RTVSPost2010PropOp33
 70
     1
102
RTVSPost2010Prop34
280
     0
102
RTVSPost2010PropOp34
 70
     1
102
RTVSPost2010Prop35
280
     0
102
RTVSPost2010PropOp35
 70
     1
102
RTVSPost2010Prop36
280
     0
102
RTVSPost2010PropOp36
 70
     1
102
RTVSPost2010Prop37
 90
       50
102
RTVSPost2010PropOp37
 70
     1
102
RTVSPost2010Prop38
140
0.0
102
RTVSPost2010PropOp38
 70
     1
102
RTVSPost2010Prop39
140
1.0
102
RTVSPost2010PropOp39
 70
     1
102
RTVSPost2010Prop40
 90
        0
102
RTVSPost2010PropOp40
 70
     1
102
RTVSPost2010Prop41ColorIndex
 90
       18
102
RTVSPost2010Prop41ColorRGB
 90
        0
102
RTVSPost2010PropOp41
 70
     1
102
RTVSPost2010Prop42
 90
       50
102
RTVSPost2010PropOp42
 70
     1
102
RTVSPost2010Prop43
 90
        3
102
RTVSPost2010PropOp43
 70
     1
102
RTVSPost2010Prop44ColorIndex
 90
        5
102
RTVSPost2010Prop44ColorRGB
 90
      255
102
RTVSPost2010PropOp44
 70
     1
102
RTVSPost2010Prop45
280
     0
102
RTVSPost2010PropOp45
 70
     1
102
RTVSPost2010Prop46
 90
       50
102
RTVSPost2010PropOp46
 70
     1
102
RTVSPost2010Prop47
 90
       50
102
RTVSPost2010PropOp47
 70
     1
102
RTVSPost2010Prop48
 90
       50
102
RTVSPost2010PropOp48
 70
     1
102
RTVSPost2010Prop49
280
     0
102
RTVSPost2010PropOp49
 70
     1
102
RTVSPost2010Prop50
 90
       50
102
RTVSPost2010PropOp50
 70
     1
102
RTVSPost2010Prop51ColorIndex
 90
      256
102
RTVSPost2010Prop51ColorRGB
 90
-16777216
102
RTVSPost2010PropOp51
 70
     0
102
RTVSPost2010Prop52
140
1.0
102
RTVSPost2010PropOp52
 70
     0
102
RTVSPost2010Prop53
 90
        2
102
RTVSPost2010PropOp53
 70
     1
102
RTVSPost2010Prop54
  1
strokes_ogs.tif
102
RTVSPost2010PropOp54
 70
     1
102
RTVSPost2010Prop55
280
     0
102
RTVSPost2010PropOp55
 70
     1
102
RTVSPost2010Prop56
140
1.0
102
RTVSPost2010PropOp56
 70
     1
102
RTVSPost2010Prop57
140
1.0
102
RTVSPost2010PropOp57
 70
     1
  0
XRECORD
  5
462
102
{ACAD_REACTORS
330
461
102
}
330
461
100
AcDbXrecord
280
     1
102
RTVSPost2010Prop28
280
     0
102
RTVSPost2010PropOp28
 70
     1
102
RTVSPost2010Prop29
280
     1
102
RTVSPost2010PropOp29
 70
     1
102
RTVSPost2010Prop30
280
     1
102
RTVSPost2010PropOp30
 70
     1
102
RTVSPost2010Prop31
280
     0
102
RTVSPost2010PropOp31
 70
     1
102
RTVSPost2010Prop32
280
     0
102
RTVSPost2010PropOp32
 70
     1
102
RTVSPost2010Prop33
280
     0
102
RTVSPost2010PropOp33
 70
     1
102
RTVSPost2010Prop34
280
     0
102
RTVSPost2010PropOp34
 70
     1
102
RTVSPost2010Prop35
280
     0
102
RTVSPost2010PropOp35
 70
     1
102
RTVSPost2010Prop36
280
     0
102
RTVSPost2010PropOp36
 70
     1
102
RTVSPost2010Prop37
 90
       50
102
RTVSPost2010PropOp37
 70
     1
102
RTVSPost2010Prop38
140
0.0
102
RTVSPost2010PropOp38
 70
     1
102
RTVSPost2010Prop39
140
1.0
102
RTVSPost2010PropOp39
 70
     1
102
RTVSPost2010Prop40
 90
        0
102
RTVSPost2010PropOp40
 70
     1
102
RTVSPost2010Prop41ColorIndex
 90
       18
102
RTVSPost2010Prop41ColorRGB
 90
        0
102
RTVSPost2010PropOp41
 70
     1
102
RTVSPost2010Prop42
 90
       50
102
RTVSPost2010PropOp42
 70
     1
102
RTVSPost2010Prop43
 90
        3
102
RTVSPost2010PropOp43
 70
     1
102
RTVSPost2010Prop44ColorIndex
 90
        5
102
RTVSPost2010Prop44ColorRGB
 90
      255
102
RTVSPost2010PropOp44
 70
     1
102
RTVSPost2010Prop45
280
     0
102
RTVSPost2010PropOp45
 70
     1
102
RTVSPost2010Prop46
 90
       50
102
RTVSPost2010PropOp46
 70
     1
102
RTVSPost2010Prop47
 90
       50
102
RTVSPost2010PropOp47
 70
     1
102
RTVSPost2010Prop48
 90
       50
102
RTVSPost2010PropOp48
 70
     1
102
RTVSPost2010Prop49
280
     0
102
RTVSPost2010PropOp49
 70
     1
102
RTVSPost2010Prop50
 90
       50
102
RTVSPost2010PropOp50
 70
     1
102
RTVSPost2010Prop51ColorIndex
 90
      256
102
RTVSPost2010Prop51ColorRGB
 90
-16777216
102
RTVSPost2010PropOp51
 70
     0
102
RTVSPost2010Prop52
140
1.0
102
RTVSPost2010PropOp52
 70
     0
102
RTVSPost2010Prop53
 90
        2
102
RTVSPost2010PropOp53
 70
     1
102
RTVSPost2010Prop54
  1
strokes_ogs.tif
102
RTVSPost2010PropOp54
 70
     1
102
RTVSPost2010Prop55
280
     0
102
RTVSPost2010PropOp55
 70
     1
102
RTVSPost2010Prop56
140
1.0
102
RTVSPost2010PropOp56
 70
     1
102
RTVSPost2010Prop57
140
1.0
102
RTVSPost2010PropOp57
 70
     1
  0
XRECORD
  5
482
102
{ACAD_REACTORS
330
481
102
}
330
481
100
AcDbXrecord
280
     1
102
RTVSPost2010Prop28
280
     0
102
RTVSPost2010PropOp28
 70
     1
102
RTVSPost2010Prop29
280
     1
102
RTVSPost2010PropOp29
 70
     1
102
RTVSPost2010Prop30
280
     1
102
RTVSPost2010PropOp30
 70
     1
102
RTVSPost2010Prop31
280
     0
102
RTVSPost2010PropOp31
 70
     1
102
RTVSPost2010Prop32
280
     0
102
RTVSPost2010PropOp32
 70
     1
102
RTVSPost2010Prop33
280
     0
102
RTVSPost2010PropOp33
 70
     1
102
RTVSPost2010Prop34
280
     0
102
RTVSPost2010PropOp34
 70
     1
102
RTVSPost2010Prop35
280
     0
102
RTVSPost2010PropOp35
 70
     1
102
RTVSPost2010Prop36
280
     0
102
RTVSPost2010PropOp36
 70
     1
102
RTVSPost2010Prop37
 90
       50
102
RTVSPost2010PropOp37
 70
     1
102
RTVSPost2010Prop38
140
0.0
102
RTVSPost2010PropOp38
 70
     1
102
RTVSPost2010Prop39
140
1.0
102
RTVSPost2010PropOp39
 70
     1
102
RTVSPost2010Prop40
 90
        0
102
RTVSPost2010PropOp40
 70
     1
102
RTVSPost2010Prop41ColorIndex
 90
       18
102
RTVSPost2010Prop41ColorRGB
 90
        0
102
RTVSPost2010PropOp41
 70
     1
102
RTVSPost2010Prop42
 90
       50
102
RTVSPost2010PropOp42
 70
     1
102
RTVSPost2010Prop43
 90
        3
102
RTVSPost2010PropOp43
 70
     1
102
RTVSPost2010Prop44ColorIndex
 90
        5
102
RTVSPost2010Prop44ColorRGB
 90
      255
102
RTVSPost2010PropOp44
 70
     1
102
RTVSPost2010Prop45
280
     0
102
RTVSPost2010PropOp45
 70
     1
102
RTVSPost2010Prop46
 90
       50
102
RTVSPost2010PropOp46
 70
     1
102
RTVSPost2010Prop47
 90
       50
102
RTVSPost2010PropOp47
 70
     1
102
RTVSPost2010Prop48
 90
       50
102
RTVSPost2010PropOp48
 70
     1
102
RTVSPost2010Prop49
280
     0
102
RTVSPost2010PropOp49
 70
     1
102
RTVSPost2010Prop50
 90
       50
102
RTVSPost2010PropOp50
 70
     1
102
RTVSPost2010Prop51ColorIndex
 90
      256
102
RTVSPost2010Prop51ColorRGB
 90
-16777216
102
RTVSPost2010PropOp51
 70
     0
102
RTVSPost2010Prop52
140
1.0
102
RTVSPost2010PropOp52
 70
     0
102
RTVSPost2010Prop53
 90
        2
102
RTVSPost2010PropOp53
 70
     1
102
RTVSPost2010Prop54
  1
strokes_ogs.tif
102
RTVSPost2010PropOp54
 70
     1
102
RTVSPost2010Prop55
280
     0
102
RTVSPost2010PropOp55
 70
     1
102
RTVSPost2010Prop56
140
1.0
102
RTVSPost2010PropOp56
 70
     1
102
RTVSPost2010Prop57
140
1.0
102
RTVSPost2010PropOp57
 70
     1
  0
ENDSEC
  0
EOF
