  0
SECTION
  2
HEADER
  9
$ACADVER
  1
AC1024
  9
$ACADMAINTVER
 70
     6
  9
$DWGCODEPAGE
  3
ANSI_1252
  9
$INSBASE
 10
0.0
 20
0.0
 30
0.0
  9
$EXTMIN
 10
1.000000E+20
 20
1.000000E+20
 30
1.000000E+20
  9
$EXTMAX
 10
-1.000000E+20
 20
-1.000000E+20
 30
-1.000000E+20
  9
$LIMMIN
 10
0.0
 20
0.0
  9
$LIMMAX
 10
420.0
 20
297.0
  9
$ORTHOMODE
 70
     0
  9
$REGENMODE
 70
     1
  9
$FILLMODE
 70
     1
  9
$QTEXTMODE
 70
     0
  9
$MIRRTEXT
 70
     1
  9
$LTSCALE
 40
1.0
  9
$ATTMODE
 70
     1
  9
$TEXTSIZE
 40
2.5
  9
$TRACEWID
 40
1.0
  9
$TEXTSTYLE
  7
Standard
  9
$CLAYER
  8
0
  9
$CELTYPE
  6
ByLayer
  9
$CECOLOR
 62
   256
  9
$CELTSCALE
 40
1.0
  9
$DISPSILH
 70
     0
  9
$DIMSCALE
 40
1.0
  9
$DIMASZ
 40
2.5
  9
$DIMEXO
 40
0.625
  9
$DIMDLI
 40
3.75
  9
$DIMRND
 40
0.0
  9
$DIMDLE
 40
0.0
  9
$DIMEXE
 40
1.25
  9
$DIMTP
 40
0.0
  9
$DIMTM
 40
0.0
  9
$DIMTXT
 40
2.5
  9
$DIMCEN
 40
2.5
  9
$DIMTSZ
 40
0.0
  9
$DIMTOL
 70
     0
  9
$DIMLIM
 70
     0
  9
$DIMTIH
 70
     0
  9
$DIMTOH
 70
     0
  9
$DIMSE1
 70
     0
  9
$DIMSE2
 70
     0
  9
$DIMTAD
 70
     1
  9
$DIMZIN
 70
     8
  9
$DIMBLK
  1

  9
$DIMASO
 70
     1
  9
$DIMSHO
 70
     1
  9
$DIMPOST
  1

  9
$DIMAPOST
  1

  9
$DIMALT
 70
     0
  9
$DIMALTD
 70
     3
  9
$DIMALTF
 40
0.03937
  9
$DIMLFAC
 40
1.0
  9
$DIMTOFL
 70
     1
  9
$DIMTVP
 40
0.0
  9
$DIMTIX
 70
     0
  9
$DIMSOXD
 70
     0
  9
$DIMSAH
 70
     0
  9
$DIMBLK1
  1

  9
$DIMBLK2
  1

  9
$DIMSTYLE
  2
ISO-25
  9
$DIMCLRD
 70
     0
  9
$DIMCLRE
 70
     0
  9
$DIMCLRT
 70
     0
  9
$DIMTFAC
 40
1.0
  9
$DIMGAP
 40
0.625
  9
$DIMJUST
 70
     0
  9
$DIMSD1
 70
     0
  9
$DIMSD2
 70
     0
  9
$DIMTOLJ
 70
     0
  9
$DIMTZIN
 70
     8
  9
$DIMALTZ
 70
     0
  9
$DIMALTTZ
 70
     0
  9
$DIMUPT
 70
     0
  9
$DIMDEC
 70
     2
  9
$DIMTDEC
 70
     2
  9
$DIMALTU
 70
     2
  9
$DIMALTTD
 70
     3
  9
$DIMTXSTY
  7
Standard
  9
$DIMAUNIT
 70
     0
  9
$DIMADEC
 70
     0
  9
$DIMALTRND
 40
0.0
  9
$DIMAZIN
 70
     0
  9
$DIMDSEP
 70
    44
  9
$DIMATFIT
 70
     3
  9
$DIMFRAC
 70
     0
  9
$DIMLDRBLK
  1

  9
$DIMLUNIT
 70
     2
  9
$DIMLWD
 70
    -2
  9
$DIMLWE
 70
    -2
  9
$DIMTMOVE
 70
     0
  9
$DIMFXL
 40
1.0
  9
$DIMFXLON
 70
     0
  9
$DIMJOGANG
 40
0.785398
  9
$DIMTFILL
 70
     0
  9
$DIMTFILLCLR
 70
     0
  9
$DIMARCSYM
 70
     0
  9
$DIMLTYPE
  6

  9
$DIMLTEX1
  6

  9
$DIMLTEX2
  6

  9
$DIMTXTDIRECTION
 70
     0
  9
$LUNITS
 70
     2
  9
$LUPREC
 70
     4
  9
$SKETCHINC
 40
1.0
  9
$FILLETRAD
 40
10.0
  9
$AUNITS
 70
     0
  9
$AUPREC
 70
     0
  9
$MENU
  1
.
  9
$ELEVATION
 40
0.0
  9
$PELEVATION
 40
0.0
  9
$THICKNESS
 40
0.0
  9
$LIMCHECK
 70
     0
  9
$CHAMFERA
 40
0.0
  9
$CHAMFERB
 40
0.0
  9
$CHAMFERC
 40
0.0
  9
$CHAMFERD
 40
0.0
  9
$SKPOLY
 70
     0
  9
$TDCREATE
 40
2457806.725104526
  9
$TDUCREATE
 40
2457806.683437859
  9
$TDUPDATE
 40
2457806.725105428
  9
$TDUUPDATE
 40
2457806.683438762
  9
$TDINDWG
 40
0.0000000116
  9
$TDUSRTIMER
 40
0.0000000116
  9
$USRTIMER
 70
     1
  9
$ANGBASE
 50
0.0
  9
$ANGDIR
 70
     0
  9
$PDMODE
 70
     0
  9
$PDSIZE
 40
0.0
  9
$PLINEWID
 40
0.0
  9
$SPLFRAME
 70
     0
  9
$SPLINETYPE
 70
     6
  9
$SPLINESEGS
 70
     8
  9
$HANDSEED
  5
48B
  9
$SURFTAB1
 70
     6
  9
$SURFTAB2
 70
     6
  9
$SURFTYPE
 70
     6
  9
$SURFU
 70
     6
  9
$SURFV
 70
     6
  9
$UCSBASE
  2

  9
$UCSNAME
  2

  9
$UCSORG
 10
0.0
 20
0.0
 30
0.0
  9
$UCSXDIR
 10
1.0
 20
0.0
 30
0.0
  9
$UCSYDIR
 10
0.0
 20
1.0
 30
0.0
  9
$UCSORTHOREF
  2

  9
$UCSORTHOVIEW
 70
     0
  9
$UCSORGTOP
 10
0.0
 20
0.0
 30
0.0
  9
$UCSORGBOTTOM
 10
0.0
 20
0.0
 30
0.0
  9
$UCSORGLEFT
 10
0.0
 20
0.0
 30
0.0
  9
$UCSORGRIGHT
 10
0.0
 20
0.0
 30
0.0
  9
$UCSORGFRONT
 10
0.0
 20
0.0
 30
0.0
  9
$UCSORGBACK
 10
0.0
 20
0.0
 30
0.0
  9
$PUCSBASE
  2

  9
$PUCSNAME
  2

  9
$PUCSORG
 10
0.0
 20
0.0
 30
0.0
  9
$PUCSXDIR
 10
1.0
 20
0.0
 30
0.0
  9
$PUCSYDIR
 10
0.0
 20
1.0
 30
0.0
  9
$PUCSORTHOREF
  2

  9
$PUCSORTHOVIEW
 70
     0
  9
$PUCSORGTOP
 10
0.0
 20
0.0
 30
0.0
  9
$PUCSORGBOTTOM
 10
0.0
 20
0.0
 30
0.0
  9
$PUCSORGLEFT
 10
0.0
 20
0.0
 30
0.0
  9
$PUCSORGRIGHT
 10
0.0
 20
0.0
 30
0.0
  9
$PUCSORGFRONT
 10
0.0
 20
0.0
 30
0.0
  9
$PUCSORGBACK
 10
0.0
 20
0.0
 30
0.0
  9
$USERI1
 70
     0
  9
$USERI2
 70
     0
  9
$USERI3
 70
     0
  9
$USERI4
 70
     0
  9
$USERI5
 70
     0
  9
$USERR1
 40
0.0
  9
$USERR2
 40
0.0
  9
$USERR3
 40
0.0
  9
$USERR4
 40
0.0
  9
$USERR5
 40
0.0
  9
$WORLDVIEW
 70
     1
  9
$SHADEDGE
 70
     3
  9
$SHADEDIF
 70
    70
  9
$TILEMODE
 70
     1
  9
$MAXACTVP
 70
    64
  9
$PINSBASE
 10
0.0
 20
0.0
 30
0.0
  9
$PLIMCHECK
 70
     0
  9
$PEXTMIN
 10
1.000000E+20
 20
1.000000E+20
 30
1.000000E+20
  9
$PEXTMAX
 10
-1.000000E+20
 20
-1.000000E+20
 30
-1.000000E+20
  9
$PLIMMIN
 10
0.0
 20
0.0
  9
$PLIMMAX
 10
420.0
 20
297.0
  9
$UNITMODE
 70
     0
  9
$VISRETAIN
 70
     1
  9
$PLINEGEN
 70
     0
  9
$PSLTSCALE
 70
     1
  9
$TREEDEPTH
 70
  3020
  9
$CMLSTYLE
  2
Standard
  9
$CMLJUST
 70
     0
  9
$CMLSCALE
 40
20.0
  9
$PROXYGRAPHICS
 70
     1
  9
$MEASUREMENT
 70
     1
  9
$CELWEIGHT
370
    -1
  9
$ENDCAPS
280
     0
  9
$JOINSTYLE
280
     0
  9
$LWDISPLAY
290
     0
  9
$INSUNITS
 70
     4
  9
$HYPERLINKBASE
  1

  9
$STYLESHEET
  1

  9
$XEDIT
290
     1
  9
$CEPSNTYPE
380
     0
  9
$PSTYLEMODE
290
     1
  9
$FINGERPRINTGUID
  2
{13979A13-0D63-4117-B5B2-D7437DFCC1C1}
  9
$VERSIONGUID
  2
{FAEB1C32-E019-11D5-929B-00C0DF256EC4}
  9
$EXTNAMES
290
     1
  9
$PSVPSCALE
 40
0.0
  9
$OLESTARTUP
290
     0
  9
$SORTENTS
280
   127
  9
$INDEXCTL
280
     0
  9
$HIDETEXT
280
     1
  9
$XCLIPFRAME
280
     2
  9
$HALOGAP
280
     0
  9
$OBSCOLOR
 70
   257
  9
$OBSLTYPE
280
     0
  9
$INTERSECTIONDISPLAY
280
     0
  9
$INTERSECTIONCOLOR
 70
   257
  9
$DIMASSOC
280
     2
  9
$PROJECTNAME
  1

  9
$CAMERADISPLAY
290
     0
  9
$LENSLENGTH
 40
50.0
  9
$CAMERAHEIGHT
 40
0.0
  9
$STEPSPERSEC
 40
2.0
  9
$STEPSIZE
 40
6.0
  9
$3DDWFPREC
 40
2.0
  9
$PSOLWIDTH
 40
5.0
  9
$PSOLHEIGHT
 40
80.0
  9
$LOFTANG1
 40
1.570796
  9
$LOFTANG2
 40
1.570796
  9
$LOFTMAG1
 40
0.0
  9
$LOFTMAG2
 40
0.0
  9
$LOFTPARAM
 70
     7
  9
$LOFTNORMALS
280
     1
  9
$LATITUDE
 40
37.795
  9
$LONGITUDE
 40
-122.394
  9
$NORTHDIRECTION
 40
0.0
  9
$TIMEZONE
 70
 -8000
  9
$LIGHTGLYPHDISPLAY
280
     1
  9
$TILEMODELIGHTSYNCH
280
     1
  9
$CMATERIAL
347
44
  9
$SOLIDHIST
280
     0
  9
$SHOWHIST
280
     1
  9
$DWFFRAME
280
     2
  9
$DGNFRAME
280
     2
  9
$REALWORLDSCALE
290
     1
  9
$INTERFERECOLOR
 62
   256
  9
$CSHADOW
280
     0
  9
$SHADOWPLANELOCATION
 40
0.0
  0
ENDSEC
  0
SECTION
  2
CLASSES
  0
CLASS
  1
ACDBDICTIONARYWDFLT
  2
AcDbDictionaryWithDefault
  3
ObjectDBX Classes
 90
        0
 91
        4
280
     0
281
     0
  0
CLASS
  1
VISUALSTYLE
  2
AcDbVisualStyle
  3
ObjectDBX Classes
 90
     4095
 91
        4
280
     0
281
     0
  0
CLASS
  1
MATERIAL
  2
AcDbMaterial
  3
ObjectDBX Classes
 90
     1153
 91
        4
280
     0
281
     0
  0
CLASS
  1
SCALE
  2
AcDbScale
  3
ObjectDBX Classes
 90
     1153
 91
        4
280
     0
281
     0
  0
CLASS
  1
TABLESTYLE
  2
AcDbTableStyle
  3
ObjectDBX Classes
 90
     4095
 91
        4
280
     0
281
     0
  0
CLASS
  1
MLEADERSTYLE
  2
AcDbMLeaderStyle
  3
ACDB_MLEADERSTYLE_CLASS
 90
     4095
 91
        4
280
     0
281
     0
  0
CLASS
  1
SUN
  2
AcDbSun
  3
SCENEOE
 90
     1153
 91
        4
280
     0
281
     0
  0
CLASS
  1
DICTIONARYVAR
  2
AcDbDictionaryVar
  3
ObjectDBX Classes
 90
        0
 91
        4
280
     0
281
     0
  0
CLASS
  1
CELLSTYLEMAP
  2
AcDbCellStyleMap
  3
ObjectDBX Classes
 90
     1152
 91
        4
280
     0
281
     0
  0
ENDSEC
  0
SECTION
  2
TABLES
  0
TABLE
  2
VPORT
  5
8
330
0
100
AcDbSymbolTable
 70
     1
  0
VPORT
  5
29
330
8
100
AcDbSymbolTableRecord
100
AcDbViewportTableRecord
  2
*Active
 70
     0
 10
0.0
 20
0.0
 11
1.0
 21
1.0
 12
344.186916
 22
148.5
 13
0.0
 23
0.0
 14
10.0
 24
10.0
 15
10.0
 25
10.0
 16
0.0
 26
0.0
 36
1.0
 17
0.0
 27
0.0
 37
0.0
 40
297.0
 41
1.972973
 42
50.0
 43
0.0
 44
0.0
 50
0.0
 51
0.0
 71
     0
 72
   100
 73
     1
 74
     3
 75
     0
 76
     0
 77
     0
 78
     0
281
     0
 65
     1
110
0.0
120
0.0
130
0.0
111
1.0
121
0.0
131
0.0
112
0.0
122
1.0
132
0.0
 79
     0
146
0.0
348
2F
 60
     3
 61
     5
292
     1
282
     1
141
0.0
142
0.0
 63
   250
361
6D
  0
ENDTAB
  0
TABLE
  2
LTYPE
  5
5
330
0
100
AcDbSymbolTable
 70
     1
  0
LTYPE
  5
14
330
5
100
AcDbSymbolTableRecord
100
AcDbLinetypeTableRecord
  2
ByBlock
 70
     0
  3

 72
    65
 73
     0
 40
0.0
  0
LTYPE
  5
15
330
5
100
AcDbSymbolTableRecord
100
AcDbLinetypeTableRecord
  2
ByLayer
 70
     0
  3

 72
    65
 73
     0
 40
0.0
  0
LTYPE
  5
16
330
5
100
AcDbSymbolTableRecord
100
AcDbLinetypeTableRecord
  2
Continuous
 70
     0
  3
Solid line
 72
    65
 73
     0
 40
0.0
  0
ENDTAB
  0
TABLE
  2
LAYER
  5
2
330
0
100
AcDbSymbolTable
 70
     1
  0
LAYER
  5
10
330
2
100
AcDbSymbolTableRecord
100
AcDbLayerTableRecord
  2
0
 70
     0
 62
   106
  6
Continuous
370
     0
390
F
347
46
  0
ENDTAB
  0
TABLE
  2
STYLE
  5
3
330
0
100
AcDbSymbolTable
 70
     4
  0
STYLE
  5
11
330
3
100
AcDbSymbolTableRecord
100
AcDbTextStyleTableRecord
  2
Standard
 70
     0
 40
0.0
 41
1.0
 50
0.0
 71
     0
 42
2.5
  3
txt
  4

  0
STYLE
  5
6E
330
3
100
AcDbSymbolTableRecord
100
AcDbTextStyleTableRecord
  2
Default
 70
     0
 40
0.0
 41
1.0
 50
0.0
 71
     0
 42
2.5
  3

  4

1001
ACAD
1000
txt
1071
        0
  0
STYLE
  5
6F
330
3
100
AcDbSymbolTableRecord
100
AcDbTextStyleTableRecord
  2
ISO
 70
     0
 40
0.0
 41
1.0
 50
0.0
 71
     0
 42
2.5
  3

  4

1001
ACAD
1000
txt
1071
        0
  0
STYLE
  5
70
330
3
100
AcDbSymbolTableRecord
100
AcDbTextStyleTableRecord
  2
zucchetti
 70
     0
 40
0.0
 41
1.0
 50
0.0
 71
     0
 42
2.5
  3

  4

1001
ACAD
1000
Arial
1071
        0
  0
ENDTAB
  0
TABLE
  2
VIEW
  5
6
330
0
100
AcDbSymbolTable
 70
     0
  0
ENDTAB
  0
TABLE
  2
UCS
  5
7
330
0
100
AcDbSymbolTable
 70
     0
  0
ENDTAB
  0
TABLE
  2
APPID
  5
9
330
0
100
AcDbSymbolTable
 70
     1
  0
APPID
  5
12
330
9
100
AcDbSymbolTableRecord
100
AcDbRegAppTableRecord
  2
ACAD
 70
     0
  0
ENDTAB
  0
TABLE
  2
DIMSTYLE
  5
A
330
0
100
AcDbSymbolTable
 70
     4
100
AcDbDimStyleTable
  0
DIMSTYLE
105
27
330
A
100
AcDbSymbolTableRecord
100
AcDbDimStyleTableRecord
  2
ISO-25
 70
     0
 41
2.5
 42
0.625
 43
3.75
 44
1.25
 73
     0
 74
     0
 77
     1
 78
     8
140
2.5
141
2.5
143
0.03937
147
0.625
171
     3
172
     1
178
     0
271
     2
272
     2
274
     3
278
    44
283
     0
284
     8
340
11
  0
DIMSTYLE
105
71
330
A
100
AcDbSymbolTableRecord
100
AcDbDimStyleTableRecord
  2
Default
 70
     0
  3
<>
 41
4.375
 42
1.05
 44
2.1
 49
10.01
 73
     0
 74
     0
 77
     1
 78
     8
140
3.5
146
0.4
147
1.75
172
     1
271
     2
178
     3
271
     2
272
     3
284
     8
340
6E
341
72
342
72
  0
DIMSTYLE
105
79
330
A
100
AcDbSymbolTableRecord
100
AcDbDimStyleTableRecord
  2
ISO
 70
     0
  3
<>
 41
4.375
 42
1.05
 44
2.1
 49
10.01
 73
     0
 74
     0
 77
     1
 78
     8
140
3.5
146
0.4
147
1.75
172
     1
271
     2
178
     3
271
     2
272
     3
284
     8
340
6F
341
72
342
72
  0
DIMSTYLE
105
7A
330
A
100
AcDbSymbolTableRecord
100
AcDbDimStyleTableRecord
  2
zucchetti
 70
     0
  3
<>
 41
3.0
 42
0.9
 44
1.8
 49
8.58
 73
     0
 74
     0
 77
     1
 78
     8
140
3.0
146
0.6
147
1.5
172
     1
176
     3
177
     3
271
     2
178
     3
271
     2
272
     2
284
     8
340
70
  0
ENDTAB
  0
TABLE
  2
BLOCK_RECORD
  5
1
330
0
100
AcDbSymbolTable
 70
     7
  0
BLOCK_RECORD
  5
1F
330
1
100
AcDbSymbolTableRecord
100
AcDbBlockTableRecord
  2
*Model_Space
340
22
 70
     0
280
     1
281
     0
  0
BLOCK_RECORD
  5
1B
330
1
100
AcDbSymbolTableRecord
100
AcDbBlockTableRecord
  2
*Paper_Space
340
1E
 70
     0
280
     1
281
     0
  0
BLOCK_RECORD
  5
23
330
1
100
AcDbSymbolTableRecord
100
AcDbBlockTableRecord
  2
*Paper_Space0
340
26
 70
     0
280
     1
281
     0
  0
BLOCK_RECORD
  5
72
330
1
100
AcDbSymbolTableRecord
100
AcDbBlockTableRecord
  2
_CLOSED
340
0
 70
     0
280
     1
281
     0
  0
BLOCK_RECORD
  5
7B
330
1
100
AcDbSymbolTableRecord
100
AcDbBlockTableRecord
  2
a
340
0
102
{BLKREFS
331
178
102
}
 70
     0
280
     1
281
     0
  0
BLOCK_RECORD
  5
179
330
1
100
AcDbSymbolTableRecord
100
AcDbBlockTableRecord
  2
b
340
0
102
{BLKREFS
331
21E
102
}
 70
     0
280
     1
281
     0
  0
BLOCK_RECORD
  5
21F
330
1
100
AcDbSymbolTableRecord
100
AcDbBlockTableRecord
  2
c
340
0
102
{BLKREFS
331
276
102
}
 70
     0
280
     1
281
     0
  0
BLOCK_RECORD
  5
277
330
1
100
AcDbSymbolTableRecord
100
AcDbBlockTableRecord
  2
d
340
0
102
{BLKREFS
331
3F1
102
}
 70
     0
280
     1
281
     0
  0
BLOCK_RECORD
  5
3F2
330
1
100
AcDbSymbolTableRecord
100
AcDbBlockTableRecord
  2
e
340
0
102
{BLKREFS
331
451
102
}
 70
     0
280
     1
281
     0
  0
ENDTAB
  0
ENDSEC
  0
SECTION
  2
BLOCKS
  0
BLOCK
  5
20
330
1F
100
AcDbEntity
  8
0
100
AcDbBlockBegin
  2
*Model_Space
 70
     0
 10
0.0
 20
0.0
 30
0.0
  3
*Model_Space
  1

  0
ENDBLK
  5
21
330
1F
100
AcDbEntity
  8
0
100
AcDbBlockEnd
  0
BLOCK
  5
1C
330
1B
100
AcDbEntity
 67
     1
  8
0
100
AcDbBlockBegin
  2
*Paper_Space
 70
     0
 10
0.0
 20
0.0
 30
0.0
  3
*Paper_Space
  1

  0
ENDBLK
  5
1D
330
1B
100
AcDbEntity
 67
     1
  8
0
100
AcDbBlockEnd
  0
BLOCK
  5
24
330
23
100
AcDbEntity
  8
0
100
AcDbBlockBegin
  2
*Paper_Space0
 70
     0
 10
0.0
 20
0.0
 30
0.0
  3
*Paper_Space0
  1

  0
ENDBLK
  5
25
330
23
100
AcDbEntity
  8
0
100
AcDbBlockEnd
  0
BLOCK
  5
73
330
72
100
AcDbEntity
  8
0
100
AcDbBlockBegin
  2
_CLOSED
 70
     0
 10
0.0
 20
0.0
 30
0.0
  3
_CLOSED
  1

  0
LINE
  5
75
330
72
100
AcDbEntity
  8
0
  6
ByBlock
 62
     0
370
    -2
100
AcDbLine
 10
-1.0
 20
0.166667
 30
0.0
 11
0.0
 21
0.0
 31
0.0
  0
LINE
  5
76
330
72
100
AcDbEntity
  8
0
  6
ByBlock
 62
     0
370
    -2
100
AcDbLine
 10
0.0
 20
0.0
 30
0.0
 11
-1.0
 21
-0.166667
 31
0.0
  0
LINE
  5
77
330
72
100
AcDbEntity
  8
0
  6
ByBlock
 62
     0
370
    -2
100
AcDbLine
 10
-1.0
 20
0.166667
 30
0.0
 11
-1.0
 21
-0.166667
 31
0.0
  0
LINE
  5
78
330
72
100
AcDbEntity
  8
0
  6
ByBlock
 62
     0
370
    -2
100
AcDbLine
 10
0.0
 20
0.0
 30
0.0
 11
-1.0
 21
0.0
 31
0.0
  0
ENDBLK
  5
74
330
72
100
AcDbEntity
  8
0
100
AcDbBlockEnd
  0
BLOCK
  5
176
330
7B
100
AcDbEntity
  8
0
100
AcDbBlockBegin
  2
a
 70
     0
 10
74.615517
 20
111.606232
 30
0.0
  3
a
  1

  0
ARC
  5
7C
330
7B
100
AcDbEntity
  8
0
  6
Continuous
 62
     0
370
     0
100
AcDbCircle
 10
148.692902
 20
509.620293
 30
0.0
 40
27.31829574580204
100
AcDbArc
 50
90.0
 51
270.0
  0
ARC
  5
7D
330
7B
100
AcDbEntity
  8
0
  6
Continuous
 62
     0
370
     0
100
AcDbCircle
 10
148.692902
 20
509.620293
 30
0.0
 40
27.31829574580204
100
AcDbArc
 50
270.0
 51
90.0
  0
ARC
  5
7E
330
7B
100
AcDbEntity
  8
0
  6
Continuous
 62
     0
370
    30
100
AcDbCircle
 10
148.692902
 20
509.620293
 30
0.0
 40
28.25000000000001
100
AcDbArc
 50
270.0
 51
90.0
  0
ARC
  5
7F
330
7B
100
AcDbEntity
  8
0
  6
Continuous
 62
     0
370
    30
100
AcDbCircle
 10
148.692902
 20
509.620293
 30
0.0
 40
28.25000000000001
100
AcDbArc
 50
90.0
 51
270.0
  0
ARC
  5
80
330
7B
100
AcDbEntity
  8
0
  6
Continuous
 62
     0
370
    30
100
AcDbCircle
 10
148.692902
 20
509.620293
 30
0.0
 40
30.5
100
AcDbArc
 50
326.921868
 51
146.921868
  0
ARC
  5
81
330
7B
100
AcDbEntity
  8
0
  6
Continuous
 62
     0
370
    30
100
AcDbCircle
 10
148.692902
 20
509.620293
 30
0.0
 40
30.5
100
AcDbArc
 50
146.921868
 51
326.921868
  0
ARC
  5
82
330
7B
100
AcDbEntity
  8
0
  6
Continuous
 62
     0
370
     0
100
AcDbCircle
 10
348.692906
 20
509.62024
 30
0.0
 40
27.31829574580204
100
AcDbArc
 50
89.99997
 51
269.99997
  0
ARC
  5
83
330
7B
100
AcDbEntity
  8
0
  6
Continuous
 62
     0
370
     0
100
AcDbCircle
 10
348.692906
 20
509.62024
 30
0.0
 40
27.31829574580204
100
AcDbArc
 50
269.99997
 51
89.99997
  0
ARC
  5
84
330
7B
100
AcDbEntity
  8
0
  6
Continuous
 62
     0
370
    30
100
AcDbCircle
 10
348.692906
 20
509.62024
 30
0.0
 40
28.25000000000001
100
AcDbArc
 50
269.99997
 51
89.99997
  0
ARC
  5
85
330
7B
100
AcDbEntity
  8
0
  6
Continuous
 62
     0
370
    30
100
AcDbCircle
 10
348.692906
 20
509.62024
 30
0.0
 40
28.25000000000001
100
AcDbArc
 50
89.99997
 51
269.99997
  0
ARC
  5
86
330
7B
100
AcDbEntity
  8
0
  6
Continuous
 62
     0
370
    30
100
AcDbCircle
 10
348.692903
 20
509.62024
 30
0.0
 40
30.5
100
AcDbArc
 50
213.078102
 51
33.078102
  0
ARC
  5
87
330
7B
100
AcDbEntity
  8
0
  6
Continuous
 62
     0
370
    30
100
AcDbCircle
 10
348.692903
 20
509.62024
 30
0.0
 40
30.5
100
AcDbArc
 50
33.078102
 51
213.078102
  0
LINE
  5
88
330
7B
100
AcDbEntity
  8
0
  6
Continuous
 62
     0
370
     0
100
AcDbLine
 10
237.69832
 20
437.870293
 30
0.0
 11
259.692901
 21
437.870293
 31
0.0
  0
LINE
  5
89
330
7B
100
AcDbEntity
  8
0
  6
Continuous
 62
     0
370
     0
100
AcDbLine
 10
259.692901
 20
454.870293
 30
0.0
 11
237.69832
 21
454.870293
 31
0.0
  0
LINE
  5
8A
330
7B
100
AcDbEntity
  8
0
  6
Continuous
 62
     0
370
     0
100
AcDbLine
 10
260.692902
 20
457.370293
 30
0.0
 11
236.698812
 21
457.370293
 31
0.0
  0
LINE
  5
8B
330
7B
100
AcDbEntity
  8
0
  6
Continuous
 62
     0
370
     0
100
AcDbLine
 10
236.698812
 20
455.370293
 30
0.0
 11
260.692902
 21
455.370293
 31
0.0
  0
LINE
  5
8C
330
7B
100
AcDbEntity
  8
0
  6
Continuous
 62
     0
370
    30
100
AcDbLine
 10
239.672347
 20
437.620293
 30
0.0
 11
239.922223
 21
437.870293
 31
0.0
  0
LINE
  5
8D
330
7B
100
AcDbEntity
  8
0
  6
Continuous
 62
     0
370
    30
100
AcDbLine
 10
237.692902
 20
509.620293
 30
0.0
 11
237.692902
 21
462.620293
 31
0.0
  0
LINE
  5
8E
330
7B
100
AcDbEntity
  8
0
  6
Continuous
 62
     0
370
     0
100
AcDbLine
 10
237.692902
 20
462.620293
 30
0.0
 11
259.692902
 21
462.620293
 31
0.0
  0
ARC
  5
8F
330
7B
100
AcDbEntity
  8
0
  6
Continuous
 62
     0
370
    30
100
AcDbCircle
 10
248.692902
 20
509.620293
 30
0.0
 40
11.0
100
AcDbArc
 50
0.0
 51
180.0
  0
LINE
  5
90
330
7B
100
AcDbEntity
  8
0
  6
Continuous
 62
     0
370
    30
100
AcDbLine
 10
237.692902
 20
462.620293
 30
0.0
 11
237.692902
 21
457.620293
 31
0.0
  0
ARC
  5
91
330
7B
100
AcDbEntity
  8
0
  6
Continuous
 62
     0
370
    30
100
AcDbCircle
 10
248.692902
 20
509.620293
 30
0.0
 40
12.5
100
AcDbArc
 50
133.742715
 51
208.357637
  0
ARC
  5
92
330
7B
100
AcDbEntity
  8
0
  6
Continuous
 62
     0
370
    30
100
AcDbCircle
 10
248.692902
 20
509.620293
 30
0.0
 40
12.5
100
AcDbArc
 50
331.642363
 51
133.742715
  0
ARC
  5
93
330
7B
100
AcDbEntity
  8
0
  6
Continuous
 62
     0
370
     0
100
AcDbCircle
 10
248.693115
 20
509.620308
 30
0.0
 40
12.25013645514776
100
AcDbArc
 50
133.743488
 51
206.107937
  0
ARC
  5
94
330
7B
100
AcDbEntity
  8
0
  6
Continuous
 62
     0
370
     0
100
AcDbCircle
 10
248.692889
 20
509.620244
 30
0.0
 40
12.25002667633804
100
AcDbArc
 50
333.890976
 51
133.742513
  0
ARC
  5
95
330
7B
100
AcDbEntity
  8
0
  6
Continuous
 62
     0
370
    30
100
AcDbCircle
 10
248.692902
 20
509.620293
 30
0.0
 40
30.50000000000001
100
AcDbArc
 50
138.537083
 51
248.859527
  0
ARC
  5
96
330
7B
100
AcDbEntity
  8
0
  6
Continuous
 62
     0
370
    30
100
AcDbCircle
 10
248.692902
 20
509.620293
 30
0.0
 40
30.50000000000001
100
AcDbArc
 50
291.140473
 51
318.537083
  0
ARC
  5
97
330
7B
100
AcDbEntity
  8
0
  6
Continuous
 62
     0
370
    30
100
AcDbCircle
 10
248.692902
 20
509.620293
 30
0.0
 40
30.50000000000001
100
AcDbArc
 50
318.537083
 51
138.537083
  0
LINE
  5
98
330
7B
100
AcDbEntity
  8
0
  6
Continuous
 62
     0
370
    30
100
AcDbLine
 10
259.692902
 20
457.620293
 30
0.0
 11
259.692902
 21
462.620293
 31
0.0
  0
LINE
  5
99
330
7B
100
AcDbEntity
  8
0
  6
Continuous
 62
     0
370
    30
100
AcDbLine
 10
259.692902
 20
462.620293
 30
0.0
 11
259.692902
 21
509.620293
 31
0.0
  0
LINE
  5
9A
330
7B
100
AcDbEntity
  8
0
  6
Continuous
 62
     0
370
    30
100
AcDbLine
 10
260.692902
 20
455.370293
 30
0.0
 11
260.692902
 21
457.370293
 31
0.0
  0
LINE
  5
9B
330
7B
100
AcDbEntity
  8
0
  6
Continuous
 62
     0
370
    30
100
AcDbLine
 10
236.692902
 20
455.370293
 30
0.0
 11
236.692902
 21
457.370293
 31
0.0
  0
LINE
  5
9C
330
7B
100
AcDbEntity
  8
0
  6
Continuous
 62
     0
370
    30
100
AcDbLine
 10
259.692901
 20
437.870293
 30
0.0
 11
259.692901
 21
454.870293
 31
0.0
  0
LINE
  5
9D
330
7B
100
AcDbEntity
  8
0
  6
Continuous
 62
     0
370
    30
100
AcDbLine
 10
237.692902
 20
437.870293
 30
0.0
 11
237.692902
 21
454.870293
 31
0.0
  0
LINE
  5
9E
330
7B
100
AcDbEntity
  8
0
  6
Continuous
 62
     0
370
    30
100
AcDbLine
 10
352.029751
 20
507.493558
 30
0.0
 11
352.208344
 21
506.989526
 31
0.0
  0
LINE
  5
9F
330
7B
100
AcDbEntity
  8
0
  6
Continuous
 62
     0
370
    30
100
AcDbLine
 10
352.208344
 20
506.989526
 30
0.0
 11
352.795719
 21
506.849297
 31
0.0
  0
LINE
  5
A0
330
7B
100
AcDbEntity
  8
0
  6
Continuous
 62
     0
370
    30
100
AcDbLine
 10
352.795719
 20
506.849297
 30
0.0
 11
353.269323
 21
506.849297
 31
0.0
  0
LINE
  5
A1
330
7B
100
AcDbEntity
  8
0
  6
Continuous
 62
     0
370
    30
100
AcDbLine
 10
353.269323
 20
506.849297
 30
0.0
 11
353.764094
 21
506.927349
 31
0.0
  0
LINE
  5
A2
330
7B
100
AcDbEntity
  8
0
  6
Continuous
 62
     0
370
    30
100
AcDbLine
 10
353.764094
 20
506.927349
 30
0.0
 11
354.057782
 21
507.166797
 31
0.0
  0
LINE
  5
A3
330
7B
100
AcDbEntity
  8
0
  6
Continuous
 62
     0
370
    30
100
AcDbLine
 10
354.057782
 20
507.166797
 30
0.0
 11
354.277386
 21
507.621881
 31
0.0
  0
LINE
  5
A4
330
7B
100
AcDbEntity
  8
0
  6
Continuous
 62
     0
370
    30
100
AcDbLine
 10
354.340886
 20
507.621881
 30
0.0
 11
354.131865
 21
506.678641
 31
0.0
  0
LINE
  5
A5
330
7B
100
AcDbEntity
  8
0
  6
Continuous
 62
     0
370
    30
100
AcDbLine
 10
354.131865
 20
506.678641
 30
0.0
 11
350.844417
 21
506.678641
 31
0.0
  0
LINE
  5
A6
330
7B
100
AcDbEntity
  8
0
  6
Continuous
 62
     0
370
    30
100
AcDbLine
 10
350.919823
 20
506.739495
 30
0.0
 11
351.279657
 21
506.900891
 31
0.0
  0
LINE
  5
A7
330
7B
100
AcDbEntity
  8
0
  6
Continuous
 62
     0
370
    30
100
AcDbLine
 10
351.279657
 20
506.900891
 30
0.0
 11
351.437084
 21
507.353329
 31
0.0
  0
LINE
  5
A8
330
7B
100
AcDbEntity
  8
0
  6
Continuous
 62
     0
370
    30
100
AcDbLine
 10
351.437084
 20
507.353329
 30
0.0
 11
351.437084
 21
511.57211
 31
0.0
  0
LINE
  5
A9
330
7B
100
AcDbEntity
  8
0
  6
Continuous
 62
     0
370
    30
100
AcDbLine
 10
351.437084
 20
511.57211
 30
0.0
 11
351.261136
 21
512.056297
 31
0.0
  0
LINE
  5
AA
330
7B
100
AcDbEntity
  8
0
  6
Continuous
 62
     0
370
    30
100
AcDbLine
 10
351.261136
 20
512.056297
 30
0.0
 11
350.844417
 21
512.193881
 31
0.0
  0
LINE
  5
AB
330
7B
100
AcDbEntity
  8
0
  6
Continuous
 62
     0
370
    30
100
AcDbLine
 10
350.844417
 20
512.267964
 30
0.0
 11
352.622417
 21
512.267964
 31
0.0
  0
LINE
  5
AC
330
7B
100
AcDbEntity
  8
0
  6
Continuous
 62
     0
370
    30
100
AcDbLine
 10
352.622417
 20
512.193881
 30
0.0
 11
352.209667
 21
512.060266
 31
0.0
  0
LINE
  5
AD
330
7B
100
AcDbEntity
  8
0
  6
Continuous
 62
     0
370
    30
100
AcDbLine
 10
352.209667
 20
512.060266
 30
0.0
 11
352.029751
 21
511.57211
 31
0.0
  0
LINE
  5
AE
330
7B
100
AcDbEntity
  8
0
  6
Continuous
 62
     0
370
    30
100
AcDbLine
 10
352.029751
 20
511.57211
 30
0.0
 11
352.029751
 21
507.493558
 31
0.0
  0
LINE
  5
AF
330
7B
100
AcDbEntity
  8
0
  6
Continuous
 62
     0
370
    30
100
AcDbLine
 10
356.810732
 20
507.366558
 30
0.0
 11
356.810732
 21
511.574756
 31
0.0
  0
LINE
  5
B0
330
7B
100
AcDbEntity
  8
0
  6
Continuous
 62
     0
370
    30
100
AcDbLine
 10
356.810732
 20
511.574756
 30
0.0
 11
356.74549
 21
511.909091
 31
0.0
  0
LINE
  5
B1
330
7B
100
AcDbEntity
  8
0
  6
Continuous
 62
     0
370
    30
100
AcDbLine
 10
356.74549
 20
511.909091
 30
0.0
 11
356.579762
 21
512.094634
 31
0.0
  0
LINE
  5
B2
330
7B
100
AcDbEntity
  8
0
  6
Continuous
 62
     0
370
    30
100
AcDbLine
 10
356.579762
 20
512.094634
 30
0.0
 11
356.343472
 21
512.153141
 31
0.0
  0
LINE
  5
B3
330
7B
100
AcDbEntity
  8
0
  6
Continuous
 62
     0
370
    30
100
AcDbLine
 10
356.343472
 20
512.153141
 30
0.0
 11
356.218066
 21
512.153141
 31
0.0
  0
LINE
  5
B4
330
7B
100
AcDbEntity
  8
0
  6
Continuous
 62
     0
370
    30
100
AcDbLine
 10
356.218066
 20
512.153141
 30
0.0
 11
356.218066
 21
512.317964
 31
0.0
  0
LINE
  5
B5
330
7B
100
AcDbEntity
  8
0
  6
Continuous
 62
     0
370
    30
100
AcDbLine
 10
356.218066
 20
512.317964
 30
0.0
 11
358.393993
 21
512.317964
 31
0.0
  0
LINE
  5
B6
330
7B
100
AcDbEntity
  8
0
  6
Continuous
 62
     0
370
    30
100
AcDbLine
 10
358.393993
 20
512.317964
 30
0.0
 11
359.22566
 21
512.238874
 31
0.0
  0
LINE
  5
B7
330
7B
100
AcDbEntity
  8
0
  6
Continuous
 62
     0
370
    30
100
AcDbLine
 10
359.22566
 20
512.238874
 30
0.0
 11
359.910006
 21
512.029452
 31
0.0
  0
LINE
  5
B8
330
7B
100
AcDbEntity
  8
0
  6
Continuous
 62
     0
370
    30
100
AcDbLine
 10
359.910006
 20
512.029452
 30
0.0
 11
360.433582
 21
511.742659
 31
0.0
  0
LINE
  5
B9
330
7B
100
AcDbEntity
  8
0
  6
Continuous
 62
     0
370
    30
100
AcDbLine
 10
360.433582
 20
511.742659
 30
0.0
 11
360.808612
 21
511.424235
 31
0.0
  0
LINE
  5
BA
330
7B
100
AcDbEntity
  8
0
  6
Continuous
 62
     0
370
    30
100
AcDbLine
 10
360.808612
 20
511.424235
 30
0.0
 11
361.259338
 21
510.825388
 31
0.0
  0
LINE
  5
BB
330
7B
100
AcDbEntity
  8
0
  6
Continuous
 62
     0
370
    30
100
AcDbLine
 10
361.259338
 20
510.825388
 30
0.0
 11
361.538072
 21
510.129238
 31
0.0
  0
LINE
  5
BC
330
7B
100
AcDbEntity
  8
0
  6
Continuous
 62
     0
370
    30
100
AcDbLine
 10
361.538072
 20
510.129238
 30
0.0
 11
361.630899
 21
509.376068
 31
0.0
  0
LINE
  5
BD
330
7B
100
AcDbEntity
  8
0
  6
Continuous
 62
     0
370
    30
100
AcDbLine
 10
361.630899
 20
509.376068
 30
0.0
 11
361.539325
 21
508.635858
 31
0.0
  0
LINE
  5
BE
330
7B
100
AcDbEntity
  8
0
  6
Continuous
 62
     0
370
    30
100
AcDbLine
 10
361.539325
 20
508.635858
 30
0.0
 11
361.277646
 21
507.985906
 31
0.0
  0
LINE
  5
BF
330
7B
100
AcDbEntity
  8
0
  6
Continuous
 62
     0
370
    30
100
AcDbLine
 10
361.277646
 20
507.985906
 30
0.0
 11
360.869298
 21
507.444149
 31
0.0
  0
LINE
  5
C0
330
7B
100
AcDbEntity
  8
0
  6
Continuous
 62
     0
370
    30
100
AcDbLine
 10
360.869298
 20
507.444149
 30
0.0
 11
360.318165
 21
507.004898
 31
0.0
  0
LINE
  5
C1
330
7B
100
AcDbEntity
  8
0
  6
Continuous
 62
     0
370
    30
100
AcDbLine
 10
360.318165
 20
507.004898
 30
0.0
 11
359.694829
 21
506.741662
 31
0.0
  0
LINE
  5
C2
330
7B
100
AcDbEntity
  8
0
  6
Continuous
 62
     0
370
    30
100
AcDbLine
 10
359.694829
 20
506.741662
 30
0.0
 11
358.748534
 21
506.64187
 31
0.0
  0
LINE
  5
C3
330
7B
100
AcDbEntity
  8
0
  6
Continuous
 62
     0
370
    30
100
AcDbLine
 10
358.748534
 20
506.64187
 30
0.0
 11
356.218066
 21
506.64187
 31
0.0
  0
LINE
  5
C4
330
7B
100
AcDbEntity
  8
0
  6
Continuous
 62
     0
370
    30
100
AcDbLine
 10
356.218066
 20
506.64187
 30
0.0
 11
356.218066
 21
506.802724
 31
0.0
  0
LINE
  5
C5
330
7B
100
AcDbEntity
  8
0
  6
Continuous
 62
     0
370
    30
100
AcDbLine
 10
356.218066
 20
506.802724
 30
0.0
 11
356.343472
 21
506.802724
 31
0.0
  0
LINE
  5
C6
330
7B
100
AcDbEntity
  8
0
  6
Continuous
 62
     0
370
    30
100
AcDbLine
 10
356.343472
 20
506.802724
 30
0.0
 11
356.690506
 21
506.975795
 31
0.0
  0
LINE
  5
C7
330
7B
100
AcDbEntity
  8
0
  6
Continuous
 62
     0
370
    30
100
AcDbLine
 10
356.690506
 20
506.975795
 30
0.0
 11
356.810732
 21
507.366558
 31
0.0
  0
LINE
  5
C8
330
7B
100
AcDbEntity
  8
0
  6
Continuous
 62
     0
370
    30
100
AcDbLine
 10
358.359597
 20
512.043339
 30
0.0
 11
357.503399
 21
511.959629
 31
0.0
  0
LINE
  5
C9
330
7B
100
AcDbEntity
  8
0
  6
Continuous
 62
     0
370
    30
100
AcDbLine
 10
357.503399
 20
511.959629
 30
0.0
 11
357.503399
 21
507.584839
 31
0.0
  0
LINE
  5
CA
330
7B
100
AcDbEntity
  8
0
  6
Continuous
 62
     0
370
    30
100
AcDbLine
 10
357.503399
 20
507.584839
 30
0.0
 11
357.596756
 21
507.135166
 31
0.0
  0
LINE
  5
CB
330
7B
100
AcDbEntity
  8
0
  6
Continuous
 62
     0
370
    30
100
AcDbLine
 10
357.596756
 20
507.135166
 30
0.0
 11
357.884296
 21
506.956452
 31
0.0
  0
LINE
  5
CC
330
7B
100
AcDbEntity
  8
0
  6
Continuous
 62
     0
370
    30
100
AcDbLine
 10
357.884296
 20
506.956452
 30
0.0
 11
358.505118
 21
506.912526
 31
0.0
  0
LINE
  5
CD
330
7B
100
AcDbEntity
  8
0
  6
Continuous
 62
     0
370
    30
100
AcDbLine
 10
358.505118
 20
506.912526
 30
0.0
 11
359.495229
 21
507.029594
 31
0.0
  0
LINE
  5
CE
330
7B
100
AcDbEntity
  8
0
  6
Continuous
 62
     0
370
    30
100
AcDbLine
 10
359.495229
 20
507.029594
 30
0.0
 11
360.263563
 21
507.547302
 31
0.0
  0
LINE
  5
CF
330
7B
100
AcDbEntity
  8
0
  6
Continuous
 62
     0
370
    30
100
AcDbLine
 10
360.263563
 20
507.547302
 30
0.0
 11
360.707416
 21
508.28014
 31
0.0
  0
LINE
  5
D0
330
7B
100
AcDbEntity
  8
0
  6
Continuous
 62
     0
370
    30
100
AcDbLine
 10
360.707416
 20
508.28014
 30
0.0
 11
360.874732
 21
509.335058
 31
0.0
  0
LINE
  5
D1
330
7B
100
AcDbEntity
  8
0
  6
Continuous
 62
     0
370
    30
100
AcDbLine
 10
360.874732
 20
509.335058
 30
0.0
 11
360.739033
 21
510.301741
 31
0.0
  0
LINE
  5
D2
330
7B
100
AcDbEntity
  8
0
  6
Continuous
 62
     0
370
    30
100
AcDbLine
 10
360.739033
 20
510.301741
 30
0.0
 11
360.327547
 21
511.150845
 31
0.0
  0
LINE
  5
D3
330
7B
100
AcDbEntity
  8
0
  6
Continuous
 62
     0
370
    30
100
AcDbLine
 10
360.327547
 20
511.150845
 30
0.0
 11
359.533585
 21
511.80631
 31
0.0
  0
LINE
  5
D4
330
7B
100
AcDbEntity
  8
0
  6
Continuous
 62
     0
370
    30
100
AcDbLine
 10
359.533585
 20
511.80631
 30
0.0
 11
358.359597
 21
512.043339
 31
0.0
  0
LINE
  5
D5
330
7B
100
AcDbEntity
  8
0
  6
Continuous
 62
     0
370
    30
100
AcDbLine
 10
348.587479
 20
509.620293
 30
0.0
 11
348.591008
 21
509.460735
 31
0.0
  0
LINE
  5
D6
330
7B
100
AcDbEntity
  8
0
  6
Continuous
 62
     0
370
    30
100
AcDbLine
 10
348.591008
 20
509.460735
 30
0.0
 11
348.200889
 21
507.969015
 31
0.0
  0
LINE
  5
D7
330
7B
100
AcDbEntity
  8
0
  6
Continuous
 62
     0
370
    30
100
AcDbLine
 10
348.200889
 20
507.969015
 30
0.0
 11
347.138234
 21
506.870074
 31
0.0
  0
ARC
  5
D8
330
7B
100
AcDbEntity
  8
0
  6
Continuous
 62
     0
370
    30
100
AcDbCircle
 10
345.655259
 20
509.350899
 30
0.0
 40
2.890278209639406
100
AcDbArc
 50
269.851933
 51
300.869927
  0
ARC
  5
D9
330
7B
100
AcDbEntity
  8
0
  6
Continuous
 62
     0
370
    30
100
AcDbCircle
 10
345.641721
 20
509.418735
 30
0.0
 40
2.958110518039449
100
AcDbArc
 50
239.501823
 51
270.117537
  0
LINE
  5
DA
330
7B
100
AcDbEntity
  8
0
  6
Continuous
 62
     0
370
    30
100
AcDbLine
 10
344.140448
 20
506.869893
 30
0.0
 11
343.062951
 21
507.971641
 31
0.0
  0
ARC
  5
DB
330
7B
100
AcDbEntity
  8
0
  6
Continuous
 62
     0
370
    30
100
AcDbCircle
 10
345.760619
 20
509.47944
 30
0.0
 40
3.090447827149172
100
AcDbArc
 50
179.905311
 51
209.202
  0
LINE
  5
DC
330
7B
100
AcDbEntity
  8
0
  6
Continuous
 62
     0
370
    30
100
AcDbLine
 10
342.670175
 20
509.484547
 30
0.0
 11
342.672951
 21
509.620293
 31
0.0
  0
LINE
  5
DD
330
7B
100
AcDbEntity
  8
0
  6
Continuous
 62
     0
370
    30
100
AcDbLine
 10
342.672951
 20
509.620293
 30
0.0
 11
342.902973
 21
510.66286
 31
0.0
  0
LINE
  5
DE
330
7B
100
AcDbEntity
  8
0
  6
Continuous
 62
     0
370
    30
100
AcDbLine
 10
342.902973
 20
510.66286
 30
0.0
 11
343.556967
 21
511.62765
 31
0.0
  0
LINE
  5
DF
330
7B
100
AcDbEntity
  8
0
  6
Continuous
 62
     0
370
    30
100
AcDbLine
 10
343.556967
 20
511.62765
 30
0.0
 11
344.51463
 21
512.26251
 31
0.0
  0
LINE
  5
E0
330
7B
100
AcDbEntity
  8
0
  6
Continuous
 62
     0
370
    30
100
AcDbLine
 10
344.51463
 20
512.26251
 30
0.0
 11
345.639852
 21
512.487297
 31
0.0
  0
LINE
  5
E1
330
7B
100
AcDbEntity
  8
0
  6
Continuous
 62
     0
370
    30
100
AcDbLine
 10
345.639852
 20
512.487297
 30
0.0
 11
346.742073
 21
512.271981
 31
0.0
  0
LINE
  5
E2
330
7B
100
AcDbEntity
  8
0
  6
Continuous
 62
     0
370
    30
100
AcDbLine
 10
346.742073
 20
512.271981
 30
0.0
 11
347.690754
 21
511.650368
 31
0.0
  0
LINE
  5
E3
330
7B
100
AcDbEntity
  8
0
  6
Continuous
 62
     0
370
    30
100
AcDbLine
 10
347.690754
 20
511.650368
 30
0.0
 11
348.351481
 21
510.684298
 31
0.0
  0
LINE
  5
E4
330
7B
100
AcDbEntity
  8
0
  6
Continuous
 62
     0
370
    30
100
AcDbLine
 10
348.351481
 20
510.684298
 30
0.0
 11
348.587479
 21
509.620293
 31
0.0
  0
LINE
  5
E5
330
7B
100
AcDbEntity
  8
0
  6
Continuous
 62
     0
370
    30
100
AcDbLine
 10
345.638529
 20
512.216641
 30
0.0
 11
344.92974
 21
512.102479
 31
0.0
  0
LINE
  5
E6
330
7B
100
AcDbEntity
  8
0
  6
Continuous
 62
     0
370
    30
100
AcDbLine
 10
344.92974
 20
512.102479
 30
0.0
 11
344.220165
 21
511.686573
 31
0.0
  0
LINE
  5
E7
330
7B
100
AcDbEntity
  8
0
  6
Continuous
 62
     0
370
    30
100
AcDbLine
 10
344.220165
 20
511.686573
 30
0.0
 11
343.651501
 21
510.8362
 31
0.0
  0
LINE
  5
E8
330
7B
100
AcDbEntity
  8
0
  6
Continuous
 62
     0
370
    30
100
AcDbLine
 10
343.651501
 20
510.8362
 30
0.0
 11
343.428334
 21
509.620293
 31
0.0
  0
LINE
  5
E9
330
7B
100
AcDbEntity
  8
0
  6
Continuous
 62
     0
370
    30
100
AcDbLine
 10
343.428334
 20
509.620293
 30
0.0
 11
343.426342
 21
509.469995
 31
0.0
  0
LINE
  5
EA
330
7B
100
AcDbEntity
  8
0
  6
Continuous
 62
     0
370
    30
100
AcDbLine
 10
343.426342
 20
509.469995
 30
0.0
 11
343.612692
 21
508.221861
 31
0.0
  0
LINE
  5
EB
330
7B
100
AcDbEntity
  8
0
  6
Continuous
 62
     0
370
    30
100
AcDbLine
 10
343.612692
 20
508.221861
 30
0.0
 11
344.121263
 21
507.35909
 31
0.0
  0
LINE
  5
EC
330
7B
100
AcDbEntity
  8
0
  6
Continuous
 62
     0
370
    30
100
AcDbLine
 10
344.121263
 20
507.35909
 30
0.0
 11
344.833333
 21
506.878877
 31
0.0
  0
LINE
  5
ED
330
7B
100
AcDbEntity
  8
0
  6
Continuous
 62
     0
370
    30
100
AcDbLine
 10
344.833333
 20
506.878877
 30
0.0
 11
345.646467
 21
506.731287
 31
0.0
  0
LINE
  5
EE
330
7B
100
AcDbEntity
  8
0
  6
Continuous
 62
     0
370
    30
100
AcDbLine
 10
345.646467
 20
506.731287
 30
0.0
 11
346.408908
 21
506.867302
 31
0.0
  0
LINE
  5
EF
330
7B
100
AcDbEntity
  8
0
  6
Continuous
 62
     0
370
    30
100
AcDbLine
 10
346.408908
 20
506.867302
 30
0.0
 11
347.113429
 21
507.310098
 31
0.0
  0
LINE
  5
F0
330
7B
100
AcDbEntity
  8
0
  6
Continuous
 62
     0
370
    30
100
AcDbLine
 10
347.113429
 20
507.310098
 30
0.0
 11
347.634319
 21
508.146177
 31
0.0
  0
LINE
  5
F1
330
7B
100
AcDbEntity
  8
0
  6
Continuous
 62
     0
370
    30
100
AcDbLine
 10
347.634319
 20
508.146177
 30
0.0
 11
347.834842
 21
509.447506
 31
0.0
  0
LINE
  5
F2
330
7B
100
AcDbEntity
  8
0
  6
Continuous
 62
     0
370
    30
100
AcDbLine
 10
347.834844
 20
509.447506
 30
0.0
 11
347.832398
 21
509.620293
 31
0.0
  0
ARC
  5
F3
330
7B
100
AcDbEntity
  8
0
  6
Continuous
 62
     0
370
    30
100
AcDbCircle
 10
344.687679
 20
509.675215
 30
0.0
 40
3.145195924545881
100
AcDbArc
 50
358.999428
 51
28.490979
  0
LINE
  5
F4
330
7B
100
AcDbEntity
  8
0
  6
Continuous
 62
     0
370
    30
100
AcDbLine
 10
347.451968
 20
511.175538
 30
0.0
 11
346.576827
 21
512.004962
 31
0.0
  0
LINE
  5
F5
330
7B
100
AcDbEntity
  8
0
  6
Continuous
 62
     0
370
    30
100
AcDbLine
 10
346.576827
 20
512.004962
 30
0.0
 11
345.638529
 21
512.216641
 31
0.0
  0
ARC
  5
F6
330
7B
100
AcDbEntity
  8
0
  6
Continuous
 62
     0
370
    30
100
AcDbCircle
 10
338.544001
 20
509.625746
 30
0.0
 40
2.861559653807495
100
AcDbArc
 50
90.139248
 51
121.33775
  0
LINE
  5
F7
330
7B
100
AcDbEntity
  8
0
  6
Continuous
 62
     0
370
    30
100
AcDbLine
 10
338.537046
 20
512.487297
 30
0.0
 11
339.584799
 21
512.337961
 31
0.0
  0
LINE
  5
F8
330
7B
100
AcDbEntity
  8
0
  6
Continuous
 62
     0
370
    30
100
AcDbLine
 10
339.584799
 20
512.337961
 30
0.0
 11
339.973528
 21
512.181408
 31
0.0
  0
LINE
  5
F9
330
7B
100
AcDbEntity
  8
0
  6
Continuous
 62
     0
370
    30
100
AcDbLine
 10
339.973528
 20
512.181408
 30
0.0
 11
340.145713
 21
512.148631
 31
0.0
  0
LINE
  5
FA
330
7B
100
AcDbEntity
  8
0
  6
Continuous
 62
     0
370
    30
100
AcDbLine
 10
340.145713
 20
512.148631
 30
0.0
 11
340.300765
 21
512.19641
 31
0.0
  0
LINE
  5
FB
330
7B
100
AcDbEntity
  8
0
  6
Continuous
 62
     0
370
    30
100
AcDbLine
 10
340.300765
 20
512.19641
 30
0.0
 11
340.37969
 21
512.402631
 31
0.0
  0
LINE
  5
FC
330
7B
100
AcDbEntity
  8
0
  6
Continuous
 62
     0
370
    30
100
AcDbLine
 10
340.37969
 20
512.402631
 30
0.0
 11
340.505275
 21
512.402631
 31
0.0
  0
LINE
  5
FD
330
7B
100
AcDbEntity
  8
0
  6
Continuous
 62
     0
370
    30
100
AcDbLine
 10
340.505275
 20
512.402631
 30
0.0
 11
340.505275
 21
510.947964
 31
0.0
  0
LINE
  5
FE
330
7B
100
AcDbEntity
  8
0
  6
Continuous
 62
     0
370
    30
100
AcDbLine
 10
340.505275
 20
510.947964
 30
0.0
 11
340.317499
 21
510.947964
 31
0.0
  0
LINE
  5
FF
330
7B
100
AcDbEntity
  8
0
  6
Continuous
 62
     0
370
    30
100
AcDbLine
 10
340.317499
 20
510.947964
 30
0.0
 11
339.945459
 21
511.658003
 31
0.0
  0
LINE
  5
100
330
7B
100
AcDbEntity
  8
0
  6
Continuous
 62
     0
370
    30
100
AcDbLine
 10
339.945459
 20
511.658003
 30
0.0
 11
339.257582
 21
512.081799
 31
0.0
  0
LINE
  5
101
330
7B
100
AcDbEntity
  8
0
  6
Continuous
 62
     0
370
    30
100
AcDbLine
 10
339.257582
 20
512.081799
 30
0.0
 11
338.529109
 21
512.216641
 31
0.0
  0
LINE
  5
102
330
7B
100
AcDbEntity
  8
0
  6
Continuous
 62
     0
370
    30
100
AcDbLine
 10
338.529109
 20
512.216641
 30
0.0
 11
337.662125
 21
512.01802
 31
0.0
  0
LINE
  5
103
330
7B
100
AcDbEntity
  8
0
  6
Continuous
 62
     0
370
    30
100
AcDbLine
 10
337.662125
 20
512.01802
 30
0.0
 11
336.960469
 21
511.457112
 31
0.0
  0
LINE
  5
104
330
7B
100
AcDbEntity
  8
0
  6
Continuous
 62
     0
370
    30
100
AcDbLine
 10
336.960469
 20
511.457112
 30
0.0
 11
336.499707
 21
510.584391
 31
0.0
  0
LINE
  5
105
330
7B
100
AcDbEntity
  8
0
  6
Continuous
 62
     0
370
    30
100
AcDbLine
 10
336.499707
 20
510.584391
 30
0.0
 11
336.338022
 21
509.620293
 31
0.0
  0
LINE
  5
106
330
7B
100
AcDbEntity
  8
0
  6
Continuous
 62
     0
370
    30
100
AcDbLine
 10
336.338022
 20
509.620293
 30
0.0
 11
336.335442
 21
509.471318
 31
0.0
  0
LINE
  5
107
330
7B
100
AcDbEntity
  8
0
  6
Continuous
 62
     0
370
    30
100
AcDbLine
 10
336.335442
 20
509.471318
 30
0.0
 11
336.49442
 21
508.392627
 31
0.0
  0
LINE
  5
108
330
7B
100
AcDbEntity
  8
0
  6
Continuous
 62
     0
370
    30
100
AcDbLine
 10
336.49442
 20
508.392627
 30
0.0
 11
336.958741
 21
507.533639
 31
0.0
  0
LINE
  5
109
330
7B
100
AcDbEntity
  8
0
  6
Continuous
 62
     0
370
    30
100
AcDbLine
 10
336.958741
 20
507.533639
 30
0.0
 11
337.662375
 21
506.985981
 31
0.0
  0
LINE
  5
10A
330
7B
100
AcDbEntity
  8
0
  6
Continuous
 62
     0
370
    30
100
AcDbLine
 10
337.662375
 20
506.985981
 30
0.0
 11
338.552921
 21
506.801401
 31
0.0
  0
LINE
  5
10B
330
7B
100
AcDbEntity
  8
0
  6
Continuous
 62
     0
370
    30
100
AcDbLine
 10
338.552921
 20
506.801401
 30
0.0
 11
339.45208
 21
506.970649
 31
0.0
  0
LINE
  5
10C
330
7B
100
AcDbEntity
  8
0
  6
Continuous
 62
     0
370
    30
100
AcDbLine
 10
339.45208
 20
506.970649
 30
0.0
 11
340.420609
 21
507.620472
 31
0.0
  0
LINE
  5
10D
330
7B
100
AcDbEntity
  8
0
  6
Continuous
 62
     0
370
    30
100
AcDbLine
 10
340.420609
 20
507.620472
 30
0.0
 11
340.420609
 21
507.256718
 31
0.0
  0
LINE
  5
10E
330
7B
100
AcDbEntity
  8
0
  6
Continuous
 62
     0
370
    30
100
AcDbLine
 10
340.420609
 20
507.256718
 30
0.0
 11
339.487691
 21
506.650295
 31
0.0
  0
LINE
  5
10F
330
7B
100
AcDbEntity
  8
0
  6
Continuous
 62
     0
370
    30
100
AcDbLine
 10
339.487691
 20
506.650295
 30
0.0
 11
338.447088
 21
506.460631
 31
0.0
  0
LINE
  5
110
330
7B
100
AcDbEntity
  8
0
  6
Continuous
 62
     0
370
    30
100
AcDbLine
 10
338.447088
 20
506.460631
 30
0.0
 11
337.250256
 21
506.707237
 31
0.0
  0
LINE
  5
111
330
7B
100
AcDbEntity
  8
0
  6
Continuous
 62
     0
370
    30
100
AcDbLine
 10
337.250256
 20
506.707237
 30
0.0
 11
336.335364
 21
507.373049
 31
0.0
  0
LINE
  5
112
330
7B
100
AcDbEntity
  8
0
  6
Continuous
 62
     0
370
    30
100
AcDbLine
 10
336.335364
 20
507.373049
 30
0.0
 11
335.770161
 21
508.316464
 31
0.0
  0
LINE
  5
113
330
7B
100
AcDbEntity
  8
0
  6
Continuous
 62
     0
370
    30
100
AcDbLine
 10
335.770161
 20
508.316464
 30
0.0
 11
335.579275
 21
509.391943
 31
0.0
  0
LINE
  5
114
330
7B
100
AcDbEntity
  8
0
  6
Continuous
 62
     0
370
    30
100
AcDbLine
 10
335.579275
 20
509.391943
 30
0.0
 11
335.586944
 21
509.620293
 31
0.0
  0
LINE
  5
115
330
7B
100
AcDbEntity
  8
0
  6
Continuous
 62
     0
370
    30
100
AcDbLine
 10
335.586944
 20
509.620293
 30
0.0
 11
335.977166
 21
510.93893
 31
0.0
  0
ARC
  5
116
330
7B
100
AcDbEntity
  8
0
  6
Continuous
 62
     0
370
    30
100
AcDbCircle
 10
338.679689
 20
509.441263
 30
0.0
 40
3.089763211427204
100
AcDbArc
 50
121.70765
 51
151.005928
  0
LINE
  5
117
330
7B
100
AcDbEntity
  8
0
  6
Continuous
 62
     0
370
    30
100
AcDbLine
 10
148.692902
 20
506.500544
 30
0.0
 11
147.62775
 21
506.879213
 31
0.0
  0
ARC
  5
118
330
7B
100
AcDbEntity
  8
0
  6
Continuous
 62
     0
370
    30
100
AcDbCircle
 10
149.182973
 20
509.480718
 30
0.0
 40
3.030931385028675
100
AcDbArc
 50
209.664546
 51
239.12831
  0
ARC
  5
119
330
7B
100
AcDbEntity
  8
0
  6
Continuous
 62
     0
370
    30
100
AcDbCircle
 10
149.225599
 20
509.4835
 30
0.0
 40
3.069404256855794
100
AcDbArc
 50
179.770683
 51
209.315864
  0
LINE
  5
11A
330
7B
100
AcDbEntity
  8
0
  6
Continuous
 62
     0
370
    30
100
AcDbLine
 10
146.15622
 20
509.495785
 30
0.0
 11
146.158699
 21
509.623701
 31
0.0
  0
LINE
  5
11B
330
7B
100
AcDbEntity
  8
0
  6
Continuous
 62
     0
370
    30
100
AcDbLine
 10
146.158699
 20
509.623701
 30
0.0
 11
146.388934
 21
510.672269
 31
0.0
  0
LINE
  5
11C
330
7B
100
AcDbEntity
  8
0
  6
Continuous
 62
     0
370
    30
100
AcDbLine
 10
146.388934
 20
510.672269
 30
0.0
 11
147.043178
 21
511.637323
 31
0.0
  0
LINE
  5
11D
330
7B
100
AcDbEntity
  8
0
  6
Continuous
 62
     0
370
    30
100
AcDbLine
 10
147.043178
 20
511.637323
 30
0.0
 11
148.001359
 21
512.272537
 31
0.0
  0
LINE
  5
11E
330
7B
100
AcDbEntity
  8
0
  6
Continuous
 62
     0
370
    30
100
AcDbLine
 10
148.001359
 20
512.272537
 30
0.0
 11
149.127286
 21
512.497712
 31
0.0
  0
LINE
  5
11F
330
7B
100
AcDbEntity
  8
0
  6
Continuous
 62
     0
370
    30
100
AcDbLine
 10
149.127286
 20
512.497712
 30
0.0
 11
150.23036
 21
512.282692
 31
0.0
  0
LINE
  5
120
330
7B
100
AcDbEntity
  8
0
  6
Continuous
 62
     0
370
    30
100
AcDbLine
 10
150.23036
 20
512.282692
 30
0.0
 11
151.179701
 21
511.661228
 31
0.0
  0
LINE
  5
121
330
7B
100
AcDbEntity
  8
0
  6
Continuous
 62
     0
370
    30
100
AcDbLine
 10
151.179701
 20
511.661228
 30
0.0
 11
151.84086
 21
510.695238
 31
0.0
  0
LINE
  5
122
330
7B
100
AcDbEntity
  8
0
  6
Continuous
 62
     0
370
    30
100
AcDbLine
 10
151.84086
 20
510.695238
 30
0.0
 11
152.080621
 21
509.471839
 31
0.0
  0
ARC
  5
123
330
7B
100
AcDbEntity
  8
0
  6
Continuous
 62
     0
370
    30
100
AcDbCircle
 10
149.04848
 20
509.467555
 30
0.0
 40
3.032144167050939
100
AcDbArc
 50
330.615669
 51
0.08095
  0
LINE
  5
124
330
7B
100
AcDbEntity
  8
0
  6
Continuous
 62
     0
370
    30
100
AcDbLine
 10
151.690533
 20
507.979786
 30
0.0
 11
150.62739
 21
506.880385
 31
0.0
  0
ARC
  5
125
330
7B
100
AcDbEntity
  8
0
  6
Continuous
 62
     0
370
    30
100
AcDbCircle
 10
149.135584
 20
509.390301
 30
0.0
 40
2.919788773380885
100
AcDbArc
 50
270.014728
 51
300.725764
  0
LINE
  5
126
330
7B
100
AcDbEntity
  8
0
  6
Continuous
 62
     0
370
    30
100
AcDbLine
 10
149.136335
 20
506.470513
 30
0.0
 11
148.692902
 21
506.500544
 31
0.0
  0
LINE
  5
127
330
7B
100
AcDbEntity
  8
0
  6
Continuous
 62
     0
370
    30
100
AcDbLine
 10
148.692901
 20
506.783205
 30
0.0
 11
149.13366
 21
506.741513
 31
0.0
  0
LINE
  5
128
330
7B
100
AcDbEntity
  8
0
  6
Continuous
 62
     0
370
    30
100
AcDbLine
 10
149.13366
 20
506.741513
 30
0.0
 11
149.896451
 21
506.877633
 31
0.0
  0
LINE
  5
129
330
7B
100
AcDbEntity
  8
0
  6
Continuous
 62
     0
370
    30
100
AcDbLine
 10
149.896451
 20
506.877633
 30
0.0
 11
150.60079
 21
507.321874
 31
0.0
  0
LINE
  5
12A
330
7B
100
AcDbEntity
  8
0
  6
Continuous
 62
     0
370
    30
100
AcDbLine
 10
150.60079
 20
507.321874
 30
0.0
 11
151.121216
 21
508.157654
 31
0.0
  0
LINE
  5
12B
330
7B
100
AcDbEntity
  8
0
  6
Continuous
 62
     0
370
    30
100
AcDbLine
 10
151.121216
 20
508.157654
 30
0.0
 11
151.321142
 21
509.458566
 31
0.0
  0
ARC
  5
12C
330
7B
100
AcDbEntity
  8
0
  6
Continuous
 62
     0
370
    30
100
AcDbCircle
 10
148.009693
 20
509.632015
 30
0.0
 40
3.315988219570206
100
AcDbArc
 50
357.001669
 51
27.959504
  0
LINE
  5
12D
330
7B
100
AcDbEntity
  8
0
  6
Continuous
 62
     0
370
    30
100
AcDbLine
 10
150.938637
 20
511.186707
 30
0.0
 11
150.063562
 21
512.016178
 31
0.0
  0
LINE
  5
12E
330
7B
100
AcDbEntity
  8
0
  6
Continuous
 62
     0
370
    30
100
AcDbLine
 10
150.063562
 20
512.016178
 30
0.0
 11
149.124921
 21
512.227616
 31
0.0
  0
LINE
  5
12F
330
7B
100
AcDbEntity
  8
0
  6
Continuous
 62
     0
370
    30
100
AcDbLine
 10
149.124921
 20
512.227616
 30
0.0
 11
148.415739
 21
512.113323
 31
0.0
  0
LINE
  5
130
330
7B
100
AcDbEntity
  8
0
  6
Continuous
 62
     0
370
    30
100
AcDbLine
 10
148.415739
 20
512.113323
 30
0.0
 11
147.705584
 21
511.697029
 31
0.0
  0
LINE
  5
131
330
7B
100
AcDbEntity
  8
0
  6
Continuous
 62
     0
370
    30
100
AcDbLine
 10
147.705584
 20
511.697029
 30
0.0
 11
147.136184
 21
510.846141
 31
0.0
  0
LINE
  5
132
330
7B
100
AcDbEntity
  8
0
  6
Continuous
 62
     0
370
    30
100
AcDbLine
 10
147.136184
 20
510.846141
 30
0.0
 11
146.91236
 21
509.620876
 31
0.0
  0
LINE
  5
133
330
7B
100
AcDbEntity
  8
0
  6
Continuous
 62
     0
370
    30
100
AcDbLine
 10
146.91236
 20
509.620876
 30
0.0
 11
146.910615
 21
509.478408
 31
0.0
  0
LINE
  5
134
330
7B
100
AcDbEntity
  8
0
  6
Continuous
 62
     0
370
    30
100
AcDbLine
 10
146.910615
 20
509.478408
 30
0.0
 11
147.097669
 21
508.230722
 31
0.0
  0
LINE
  5
135
330
7B
100
AcDbEntity
  8
0
  6
Continuous
 62
     0
370
    30
100
AcDbLine
 10
147.097669
 20
508.230722
 30
0.0
 11
147.607335
 21
507.368482
 31
0.0
  0
LINE
  5
136
330
7B
100
AcDbEntity
  8
0
  6
Continuous
 62
     0
370
    30
100
AcDbLine
 10
147.607335
 20
507.368482
 30
0.0
 11
148.320186
 21
506.888762
 31
0.0
  0
LINE
  5
137
330
7B
100
AcDbEntity
  8
0
  6
Continuous
 62
     0
370
    30
100
AcDbLine
 10
148.320186
 20
506.888762
 30
0.0
 11
148.692902
 21
506.783205
 31
0.0
  0
LINE
  5
138
330
7B
100
AcDbEntity
  8
0
  6
Continuous
 62
     0
370
    30
100
AcDbLine
 10
142.71821
 20
511.601546
 30
0.0
 11
142.587522
 21
512.012554
 31
0.0
  0
LINE
  5
139
330
7B
100
AcDbEntity
  8
0
  6
Continuous
 62
     0
370
    30
100
AcDbLine
 10
142.587522
 20
512.012554
 30
0.0
 11
142.13103
 21
512.169193
 31
0.0
  0
LINE
  5
13A
330
7B
100
AcDbEntity
  8
0
  6
Continuous
 62
     0
370
    30
100
AcDbLine
 10
142.13103
 20
512.169193
 30
0.0
 11
142.131527
 21
512.344752
 31
0.0
  0
LINE
  5
13B
330
7B
100
AcDbEntity
  8
0
  6
Continuous
 62
     0
370
    30
100
AcDbLine
 10
142.131527
 20
512.344752
 30
0.0
 11
143.998064
 21
512.336776
 31
0.0
  0
LINE
  5
13C
330
7B
100
AcDbEntity
  8
0
  6
Continuous
 62
     0
370
    30
100
AcDbLine
 10
143.998064
 20
512.336776
 30
0.0
 11
143.997568
 21
512.161451
 31
0.0
  0
LINE
  5
13D
330
7B
100
AcDbEntity
  8
0
  6
Continuous
 62
     0
370
    30
100
AcDbLine
 10
143.997568
 20
512.161451
 30
0.0
 11
143.536961
 21
512.010034
 31
0.0
  0
LINE
  5
13E
330
7B
100
AcDbEntity
  8
0
  6
Continuous
 62
     0
370
    30
100
AcDbLine
 10
143.536961
 20
512.010034
 30
0.0
 11
143.406683
 21
511.595962
 31
0.0
  0
LINE
  5
13F
330
7B
100
AcDbEntity
  8
0
  6
Continuous
 62
     0
370
    30
100
AcDbLine
 10
143.406683
 20
511.595962
 30
0.0
 11
143.404587
 21
509.630887
 31
0.0
  0
LINE
  5
140
330
7B
100
AcDbEntity
  8
0
  6
Continuous
 62
     0
370
    30
100
AcDbLine
 10
143.404587
 20
509.630887
 30
0.0
 11
143.407257
 21
507.390812
 31
0.0
  0
ARC
  5
141
330
7B
100
AcDbEntity
  8
0
  6
Continuous
 62
     0
370
    30
100
AcDbCircle
 10
144.042796
 20
507.468143
 30
0.0
 40
0.640226292932994
100
AcDbArc
 50
186.937499
 51
266.011089
  0
LINE
  5
142
330
7B
100
AcDbEntity
  8
0
  6
Continuous
 62
     0
370
    30
100
AcDbLine
 10
143.998259
 20
506.829468
 30
0.0
 11
143.9988
 21
506.654754
 31
0.0
  0
LINE
  5
143
330
7B
100
AcDbEntity
  8
0
  6
Continuous
 62
     0
370
    30
100
AcDbLine
 10
143.9988
 20
506.654754
 30
0.0
 11
142.132125
 21
506.662695
 31
0.0
  0
LINE
  5
144
330
7B
100
AcDbEntity
  8
0
  6
Continuous
 62
     0
370
    30
100
AcDbLine
 10
142.132125
 20
506.662695
 30
0.0
 11
142.131586
 21
506.837608
 31
0.0
  0
LINE
  5
145
330
7B
100
AcDbEntity
  8
0
  6
Continuous
 62
     0
370
    30
100
AcDbLine
 10
142.131586
 20
506.837608
 30
0.0
 11
142.578467
 21
506.973238
 31
0.0
  0
LINE
  5
146
330
7B
100
AcDbEntity
  8
0
  6
Continuous
 62
     0
370
    30
100
AcDbLine
 10
142.578467
 20
506.973238
 30
0.0
 11
142.718784
 21
507.388462
 31
0.0
  0
LINE
  5
147
330
7B
100
AcDbEntity
  8
0
  6
Continuous
 62
     0
370
    30
100
AcDbLine
 10
142.718784
 20
507.388462
 30
0.0
 11
142.716115
 21
509.528663
 31
0.0
  0
LINE
  5
148
330
7B
100
AcDbEntity
  8
0
  6
Continuous
 62
     0
370
    30
100
AcDbLine
 10
142.716115
 20
509.528663
 30
0.0
 11
139.707765
 21
509.545715
 31
0.0
  0
LINE
  5
149
330
7B
100
AcDbEntity
  8
0
  6
Continuous
 62
     0
370
    30
100
AcDbLine
 10
139.707765
 20
509.545715
 30
0.0
 11
139.710369
 21
507.413406
 31
0.0
  0
LINE
  5
14A
330
7B
100
AcDbEntity
  8
0
  6
Continuous
 62
     0
370
    30
100
AcDbLine
 10
139.710369
 20
507.413406
 30
0.0
 11
139.856799
 21
506.996099
 31
0.0
  0
LINE
  5
14B
330
7B
100
AcDbEntity
  8
0
  6
Continuous
 62
     0
370
    30
100
AcDbLine
 10
139.856799
 20
506.996099
 30
0.0
 11
140.299029
 21
506.848171
 31
0.0
  0
LINE
  5
14C
330
7B
100
AcDbEntity
  8
0
  6
Continuous
 62
     0
370
    30
100
AcDbLine
 10
140.299029
 20
506.848171
 30
0.0
 11
140.299565
 21
506.673056
 31
0.0
  0
LINE
  5
14D
330
7B
100
AcDbEntity
  8
0
  6
Continuous
 62
     0
370
    30
100
AcDbLine
 10
140.299565
 20
506.673056
 30
0.0
 11
138.440257
 21
506.686163
 31
0.0
  0
LINE
  5
14E
330
7B
100
AcDbEntity
  8
0
  6
Continuous
 62
     0
370
    30
100
AcDbLine
 10
138.440257
 20
506.686163
 30
0.0
 11
138.439725
 21
506.861081
 31
0.0
  0
LINE
  5
14F
330
7B
100
AcDbEntity
  8
0
  6
Continuous
 62
     0
370
    30
100
AcDbLine
 10
138.439725
 20
506.861081
 30
0.0
 11
138.887432
 21
507.000704
 31
0.0
  0
LINE
  5
150
330
7B
100
AcDbEntity
  8
0
  6
Continuous
 62
     0
370
    30
100
AcDbLine
 10
138.887432
 20
507.000704
 30
0.0
 11
139.024601
 21
507.415595
 31
0.0
  0
LINE
  5
151
330
7B
100
AcDbEntity
  8
0
  6
Continuous
 62
     0
370
    30
100
AcDbLine
 10
139.024601
 20
507.415595
 30
0.0
 11
139.022002
 21
509.65572
 31
0.0
  0
LINE
  5
152
330
7B
100
AcDbEntity
  8
0
  6
Continuous
 62
     0
370
    30
100
AcDbLine
 10
139.022002
 20
509.65572
 30
0.0
 11
139.024142
 21
511.620825
 31
0.0
  0
ARC
  5
153
330
7B
100
AcDbEntity
  8
0
  6
Continuous
 62
     0
370
    30
100
AcDbCircle
 10
138.385066
 20
511.552586
 30
0.0
 40
0.6427084719744486
100
AcDbArc
 50
6.094786
 51
85.169589
  0
LINE
  5
154
330
7B
100
AcDbEntity
  8
0
  6
Continuous
 62
     0
370
    30
100
AcDbLine
 10
138.439186
 20
512.193012
 30
0.0
 11
138.439685
 21
512.368468
 31
0.0
  0
LINE
  5
155
330
7B
100
AcDbEntity
  8
0
  6
Continuous
 62
     0
370
    30
100
AcDbLine
 10
138.439685
 20
512.368468
 30
0.0
 11
140.298912
 21
512.355303
 31
0.0
  0
LINE
  5
156
330
7B
100
AcDbEntity
  8
0
  6
Continuous
 62
     0
370
    30
100
AcDbLine
 10
140.298912
 20
512.355303
 30
0.0
 11
140.298415
 21
512.179794
 31
0.0
  0
LINE
  5
157
330
7B
100
AcDbEntity
  8
0
  6
Continuous
 62
     0
370
    30
100
AcDbLine
 10
140.298415
 20
512.179794
 30
0.0
 11
139.840825
 21
512.030828
 31
0.0
  0
LINE
  5
158
330
7B
100
AcDbEntity
  8
0
  6
Continuous
 62
     0
370
    30
100
AcDbLine
 10
139.840825
 20
512.030828
 30
0.0
 11
139.709892
 21
511.618621
 31
0.0
  0
LINE
  5
159
330
7B
100
AcDbEntity
  8
0
  6
Continuous
 62
     0
370
    30
100
AcDbLine
 10
139.709892
 20
511.618621
 30
0.0
 11
139.707776
 21
509.816376
 31
0.0
  0
LINE
  5
15A
330
7B
100
AcDbEntity
  8
0
  6
Continuous
 62
     0
370
    30
100
AcDbLine
 10
139.707776
 20
509.816376
 30
0.0
 11
142.71612
 21
509.79932
 31
0.0
  0
LINE
  5
15B
330
7B
100
AcDbEntity
  8
0
  6
Continuous
 62
     0
370
    30
100
AcDbLine
 10
142.71612
 20
509.79932
 30
0.0
 11
142.71821
 21
511.601546
 31
0.0
  0
LINE
  5
15C
330
7B
100
AcDbEntity
  8
0
  6
Continuous
 62
     0
370
    30
100
AcDbLine
 10
158.938773
 20
511.250563
 30
0.0
 11
158.751502
 21
511.249121
 31
0.0
  0
LINE
  5
15D
330
7B
100
AcDbEntity
  8
0
  6
Continuous
 62
     0
370
    30
100
AcDbLine
 10
158.751502
 20
511.249121
 30
0.0
 11
158.50474
 21
511.942884
 31
0.0
  0
LINE
  5
15E
330
7B
100
AcDbEntity
  8
0
  6
Continuous
 62
     0
370
    30
100
AcDbLine
 10
158.50474
 20
511.942884
 30
0.0
 11
157.852818
 21
512.089133
 31
0.0
  0
LINE
  5
15F
330
7B
100
AcDbEntity
  8
0
  6
Continuous
 62
     0
370
    30
100
AcDbLine
 10
157.852818
 20
512.089133
 30
0.0
 11
156.802919
 21
512.082249
 31
0.0
  0
LINE
  5
160
330
7B
100
AcDbEntity
  8
0
  6
Continuous
 62
     0
370
    30
100
AcDbLine
 10
156.802919
 20
512.082249
 30
0.0
 11
156.802313
 21
507.395782
 31
0.0
  0
ARC
  5
161
330
7B
100
AcDbEntity
  8
0
  6
Continuous
 62
     0
370
    30
100
AcDbCircle
 10
157.431375
 20
507.484269
 30
0.0
 40
0.6352553082782486
100
AcDbArc
 50
188.006975
 51
267.340779
  0
LINE
  5
162
330
7B
100
AcDbEntity
  8
0
  6
Continuous
 62
     0
370
    30
100
AcDbLine
 10
157.401902
 20
506.849698
 30
0.0
 11
157.402447
 21
506.675008
 31
0.0
  0
LINE
  5
163
330
7B
100
AcDbEntity
  8
0
  6
Continuous
 62
     0
370
    30
100
AcDbLine
 10
157.402447
 20
506.675008
 30
0.0
 11
155.508595
 21
506.663893
 31
0.0
  0
LINE
  5
164
330
7B
100
AcDbEntity
  8
0
  6
Continuous
 62
     0
370
    30
100
AcDbLine
 10
155.508595
 20
506.663893
 30
0.0
 11
155.508048
 21
506.83907
 31
0.0
  0
LINE
  5
165
330
7B
100
AcDbEntity
  8
0
  6
Continuous
 62
     0
370
    30
100
AcDbLine
 10
155.508048
 20
506.83907
 30
0.0
 11
155.950304
 21
506.967489
 31
0.0
  0
LINE
  5
166
330
7B
100
AcDbEntity
  8
0
  6
Continuous
 62
     0
370
    30
100
AcDbLine
 10
155.950304
 20
506.967489
 30
0.0
 11
156.103776
 21
507.400926
 31
0.0
  0
LINE
  5
167
330
7B
100
AcDbEntity
  8
0
  6
Continuous
 62
     0
370
    30
100
AcDbLine
 10
156.103776
 20
507.400926
 30
0.0
 11
156.104383
 21
512.078134
 31
0.0
  0
LINE
  5
168
330
7B
100
AcDbEntity
  8
0
  6
Continuous
 62
     0
370
    30
100
AcDbLine
 10
156.104383
 20
512.078134
 30
0.0
 11
155.053822
 21
512.072641
 31
0.0
  0
LINE
  5
169
330
7B
100
AcDbEntity
  8
0
  6
Continuous
 62
     0
370
    30
100
AcDbLine
 10
155.053822
 20
512.072641
 30
0.0
 11
154.404993
 21
511.918781
 31
0.0
  0
LINE
  5
16A
330
7B
100
AcDbEntity
  8
0
  6
Continuous
 62
     0
370
    30
100
AcDbLine
 10
154.404993
 20
511.918781
 30
0.0
 11
154.109697
 21
511.22187
 31
0.0
  0
LINE
  5
16B
330
7B
100
AcDbEntity
  8
0
  6
Continuous
 62
     0
370
    30
100
AcDbLine
 10
154.109697
 20
511.22187
 30
0.0
 11
153.952745
 21
511.221235
 31
0.0
  0
LINE
  5
16C
330
7B
100
AcDbEntity
  8
0
  6
Continuous
 62
     0
370
    30
100
AcDbLine
 10
153.952745
 20
511.221235
 30
0.0
 11
153.956434
 21
512.678488
 31
0.0
  0
LINE
  5
16D
330
7B
100
AcDbEntity
  8
0
  6
Continuous
 62
     0
370
    30
100
AcDbLine
 10
153.956434
 20
512.678488
 30
0.0
 11
154.098617
 21
512.679064
 31
0.0
  0
LINE
  5
16E
330
7B
100
AcDbEntity
  8
0
  6
Continuous
 62
     0
370
    30
100
AcDbLine
 10
154.098617
 20
512.679064
 30
0.0
 11
154.210665
 21
512.488037
 31
0.0
  0
LINE
  5
16F
330
7B
100
AcDbEntity
  8
0
  6
Continuous
 62
     0
370
    30
100
AcDbLine
 10
154.210665
 20
512.488037
 30
0.0
 11
154.310913
 21
512.405914
 31
0.0
  0
LINE
  5
170
330
7B
100
AcDbEntity
  8
0
  6
Continuous
 62
     0
370
    30
100
AcDbLine
 10
154.310913
 20
512.405914
 30
0.0
 11
154.462287
 21
512.356267
 31
0.0
  0
LINE
  5
171
330
7B
100
AcDbEntity
  8
0
  6
Continuous
 62
     0
370
    30
100
AcDbLine
 10
154.462287
 20
512.356267
 30
0.0
 11
154.680469
 21
512.341903
 31
0.0
  0
LINE
  5
172
330
7B
100
AcDbEntity
  8
0
  6
Continuous
 62
     0
370
    30
100
AcDbLine
 10
154.680469
 20
512.341903
 30
0.0
 11
158.272032
 21
512.363131
 31
0.0
  0
LINE
  5
173
330
7B
100
AcDbEntity
  8
0
  6
Continuous
 62
     0
370
    30
100
AcDbLine
 10
158.272032
 20
512.363131
 30
0.0
 11
158.799681
 21
512.706492
 31
0.0
  0
LINE
  5
174
330
7B
100
AcDbEntity
  8
0
  6
Continuous
 62
     0
370
    30
100
AcDbLine
 10
158.799681
 20
512.706492
 30
0.0
 11
158.942529
 21
512.707596
 31
0.0
  0
LINE
  5
175
330
7B
100
AcDbEntity
  8
0
  6
Continuous
 62
     0
370
    30
100
AcDbLine
 10
158.942529
 20
512.707596
 30
0.0
 11
158.938773
 21
511.250563
 31
0.0
  0
ENDBLK
  5
177
330
7B
100
AcDbEntity
  8
0
100
AcDbBlockEnd
  0
BLOCK
  5
21C
330
179
100
AcDbEntity
  8
0
100
AcDbBlockBegin
  2
b
 70
     0
 10
74.615517
 20
111.606232
 30
0.0
  3
b
  1

  0
LINE
  5
17A
330
179
100
AcDbEntity
  8
0
  6
Continuous
 62
     0
370
     0
100
AcDbLine
 10
121.374606
 20
310.692665
 30
0.0
 11
148.692902
 21
310.692663
 31
0.0
  0
LINE
  5
17B
330
179
100
AcDbEntity
  8
0
  6
Continuous
 62
     0
370
     0
100
AcDbLine
 10
148.692902
 20
310.692663
 30
0.0
 11
176.011197
 21
310.692665
 31
0.0
  0
LINE
  5
17C
330
179
100
AcDbEntity
  8
0
  6
Continuous
 62
     0
370
     0
100
AcDbLine
 10
148.692902
 20
311.690328
 30
0.0
 11
176.942902
 21
311.69033
 31
0.0
  0
LWPOLYLINE
  5
17D
330
179
100
AcDbEntity
  8
0
  6
Continuous
 62
     0
370
     0
100
AcDbPolyline
 90
       31
 70
     0
 43
0.0
 10
120.442902
 20
311.690338
 10
120.481483
 20
311.690338
 10
120.597137
 20
311.690338
 10
120.789482
 20
311.690338
 10
121.058243
 20
311.690338
 10
121.402878
 20
311.690338
 10
121.822243
 20
311.690338
 10
122.315117
 20
311.690338
 10
122.88028
 20
311.690338
 10
123.51619
 20
311.690338
 10
124.22094
 20
311.690338
 10
124.992645
 20
311.690338
 10
125.829346
 20
311.690338
 10
126.728691
 20
311.690338
 10
127.688103
 20
311.690338
 10
128.705002
 20
311.690338
 10
129.776733
 20
311.690338
 10
130.900253
 20
311.690338
 10
132.072433
 20
311.690338
 10
133.290115
 20
311.690338
 10
134.550064
 20
311.690338
 10
135.848694
 20
311.690338
 10
137.182465
 20
311.690338
 10
138.547775
 20
311.690338
 10
139.940903
 20
311.690338
 10
141.357971
 20
311.690338
 10
142.795105
 20
311.690338
 10
144.248413
 20
311.690338
 10
145.713898
 20
311.690338
 10
147.187531
 20
311.690338
 10
148.692902
 20
311.690338
  0
LINE
  5
17E
330
179
100
AcDbEntity
  8
0
  6
Continuous
 62
     0
370
    30
100
AcDbLine
 10
176.942902
 20
328.257538
 30
0.0
 11
148.692902
 21
328.257538
 31
0.0
  0
LINE
  5
17F
330
179
100
AcDbEntity
  8
0
  6
Continuous
 62
     0
370
    30
100
AcDbLine
 10
148.692902
 20
328.257538
 30
0.0
 11
120.442902
 21
328.257538
 31
0.0
  0
LINE
  5
180
330
179
100
AcDbEntity
  8
0
  6
Continuous
 62
     0
370
    30
100
AcDbLine
 10
123.136126
 20
329.079254
 30
0.0
 11
179.192902
 21
329.079254
 31
0.0
  0
LINE
  5
181
330
179
100
AcDbEntity
  8
0
  6
Continuous
 62
     0
370
    30
100
AcDbLine
 10
118.192902
 20
329.079254
 30
0.0
 11
123.136126
 21
329.079254
 31
0.0
  0
LINE
  5
182
330
179
100
AcDbEntity
  8
0
  6
Continuous
 62
     0
370
    30
100
AcDbLine
 10
123.136126
 20
330.679254
 30
0.0
 11
118.192902
 21
330.679254
 31
0.0
  0
LINE
  5
183
330
179
100
AcDbEntity
  8
0
  6
Continuous
 62
     0
370
    30
100
AcDbLine
 10
179.192902
 20
330.679254
 30
0.0
 11
123.136126
 21
330.679254
 31
0.0
  0
LINE
  5
184
330
179
100
AcDbEntity
  8
0
  6
Continuous
 62
     0
370
    30
100
AcDbLine
 10
123.136126
 20
336.479253
 30
0.0
 11
118.192902
 21
336.479254
 31
0.0
  0
LINE
  5
185
330
179
100
AcDbEntity
  8
0
  6
Continuous
 62
     0
370
    30
100
AcDbLine
 10
179.192902
 20
336.479254
 30
0.0
 11
123.136126
 21
336.479253
 31
0.0
  0
LINE
  5
186
330
179
100
AcDbEntity
  8
0
  6
Continuous
 62
     0
370
    30
100
AcDbLine
 10
123.136126
 20
338.079254
 30
0.0
 11
118.192902
 21
338.079254
 31
0.0
  0
LINE
  5
187
330
179
100
AcDbEntity
  8
0
  6
Continuous
 62
     0
370
    30
100
AcDbLine
 10
179.192902
 20
338.079254
 30
0.0
 11
123.136126
 21
338.079254
 31
0.0
  0
LINE
  5
188
330
179
100
AcDbEntity
  8
0
  6
Continuous
 62
     0
370
    30
100
AcDbLine
 10
122.192902
 20
329.079254
 30
0.0
 11
122.192902
 21
328.257538
 31
0.0
  0
LINE
  5
189
330
179
100
AcDbEntity
  8
0
  6
Continuous
 62
     0
370
    30
100
AcDbLine
 10
175.192902
 20
329.079254
 30
0.0
 11
175.192902
 21
328.257538
 31
0.0
  0
LINE
  5
18A
330
179
100
AcDbEntity
  8
0
  6
Continuous
 62
     0
370
    30
100
AcDbLine
 10
179.192902
 20
336.479254
 30
0.0
 11
179.192902
 21
338.079254
 31
0.0
  0
LINE
  5
18B
330
179
100
AcDbEntity
  8
0
  6
Continuous
 62
     0
370
    30
100
AcDbLine
 10
118.192902
 20
336.479254
 30
0.0
 11
118.192902
 21
338.079254
 31
0.0
  0
LINE
  5
18C
330
179
100
AcDbEntity
  8
0
  6
Continuous
 62
     0
370
    30
100
AcDbLine
 10
178.142902
 20
330.679254
 30
0.0
 11
178.142902
 21
336.479254
 31
0.0
  0
LINE
  5
18D
330
179
100
AcDbEntity
  8
0
  6
Continuous
 62
     0
370
    30
100
AcDbLine
 10
119.242902
 20
330.679254
 30
0.0
 11
119.242902
 21
336.479254
 31
0.0
  0
LINE
  5
18E
330
179
100
AcDbEntity
  8
0
  6
Continuous
 62
     0
370
    30
100
AcDbLine
 10
179.192902
 20
329.079254
 30
0.0
 11
179.192902
 21
330.679254
 31
0.0
  0
LINE
  5
18F
330
179
100
AcDbEntity
  8
0
  6
Continuous
 62
     0
370
    30
100
AcDbLine
 10
118.192902
 20
329.079254
 30
0.0
 11
118.192902
 21
330.679254
 31
0.0
  0
LINE
  5
190
330
179
100
AcDbEntity
  8
0
  6
Continuous
 62
     0
370
    30
100
AcDbLine
 10
176.942902
 20
328.257538
 30
0.0
 11
176.942902
 21
311.69033
 31
0.0
  0
LINE
  5
191
330
179
100
AcDbEntity
  8
0
  6
Continuous
 62
     0
370
    30
100
AcDbLine
 10
120.442902
 20
328.257538
 30
0.0
 11
120.442902
 21
311.69033
 31
0.0
  0
ARC
  5
192
330
179
100
AcDbEntity
  8
0
  6
Continuous
 62
     0
370
    30
100
AcDbCircle
 10
121.44595
 20
311.693177
 30
0.0
 40
1.003052526512355
100
AcDbArc
 50
180.162613
 51
265.918551
  0
ARC
  5
193
330
179
100
AcDbEntity
  8
0
  6
Continuous
 62
     0
370
    30
100
AcDbCircle
 10
175.939853
 20
311.693177
 30
0.0
 40
1.003052526517268
100
AcDbArc
 50
274.081449
 51
359.837387
  0
ARC
  5
194
330
179
100
AcDbEntity
  8
0
  6
Continuous
 62
     0
370
    30
100
AcDbCircle
 10
148.69326
 20
709.752743
 30
0.0
 40
399.9940199769857
100
AcDbArc
 50
271.468326
 51
273.916113
  0
LINE
  5
195
330
179
100
AcDbEntity
  8
0
  6
Continuous
 62
     0
370
    30
100
AcDbLine
 10
157.825209
 20
309.862979
 30
0.0
 11
158.504905
 21
309.879079
 31
0.0
  0
LINE
  5
196
330
179
100
AcDbEntity
  8
0
  6
Continuous
 62
     0
370
    30
100
AcDbLine
 10
154.098775
 20
309.795247
 30
0.0
 11
155.094752
 21
309.809949
 31
0.0
  0
LINE
  5
197
330
179
100
AcDbEntity
  8
0
  6
Continuous
 62
     0
370
    30
100
AcDbLine
 10
148.722969
 20
309.758714
 30
0.0
 11
153.952787
 21
309.7933
 31
0.0
  0
ARC
  5
198
330
179
100
AcDbEntity
  8
0
  6
Continuous
 62
     0
370
    30
100
AcDbCircle
 10
148.692544
 20
709.752747
 30
0.0
 40
399.9940243199514
100
AcDbArc
 50
266.083887
 51
268.531102
  0
LINE
  5
199
330
179
100
AcDbEntity
  8
0
  6
Continuous
 62
     0
370
    30
100
AcDbLine
 10
140.47071
 20
309.843231
 30
0.0
 11
139.560594
 21
309.862979
 31
0.0
  0
LINE
  5
19A
330
179
100
AcDbEntity
  8
0
  6
Continuous
 62
     0
370
    30
100
AcDbLine
 10
147.043157
 20
309.762115
 30
0.0
 11
143.201266
 21
309.796415
 31
0.0
  0
LINE
  5
19B
330
179
100
AcDbEntity
  8
0
  6
Continuous
 62
     0
370
    30
100
AcDbLine
 10
148.662834
 20
309.758714
 30
0.0
 11
147.136177
 21
309.761742
 31
0.0
  0
LINE
  5
19C
330
179
100
AcDbEntity
  8
0
  6
Continuous
 62
     0
370
     0
100
AcDbLine
 10
348.692921
 20
310.692681
 30
0.0
 11
321.37461
 21
310.692677
 31
0.0
  0
LWPOLYLINE
  5
19D
330
179
100
AcDbEntity
  8
0
  6
Continuous
 62
     0
370
     0
100
AcDbPolyline
 90
       31
 70
     0
 43
0.0
 10
376.0112
 20
310.692688
 10
375.980316
 20
310.692688
 10
375.885376
 20
310.692688
 10
375.723206
 20
310.692688
 10
375.490967
 20
310.692688
 10
375.186279
 20
310.692688
 10
374.807098
 20
310.692688
 10
374.35202
 20
310.692688
 10
373.820221
 20
310.692688
 10
373.211456
 20
310.692688
 10
372.526276
 20
310.692688
 10
371.765839
 20
310.692688
 10
370.932037
 20
310.692688
 10
370.027496
 20
310.692688
 10
369.055603
 20
310.692688
 10
368.020233
 20
310.692688
 10
366.926056
 20
310.692688
 10
365.778137
 20
310.692688
 10
364.582031
 20
310.692688
 10
363.34375
 20
310.692688
 10
362.069458
 20
310.692688
 10
360.765533
 20
310.692688
 10
359.438477
 20
310.692688
 10
358.094666
 20
310.692688
 10
356.740509
 20
310.692688
 10
355.38205
 20
310.692688
 10
354.025177
 20
310.692688
 10
352.675415
 20
310.692688
 10
351.337921
 20
310.692688
 10
350.017334
 20
310.692688
 10
348.692932
 20
310.692688
  0
LWPOLYLINE
  5
19E
330
179
100
AcDbEntity
  8
0
  6
Continuous
 62
     0
370
     0
100
AcDbPolyline
 90
       31
 70
     0
 43
0.0
 10
376.942902
 20
311.690338
 10
376.904327
 20
311.690338
 10
376.788666
 20
311.690338
 10
376.596344
 20
311.690338
 10
376.327576
 20
311.690338
 10
375.982941
 20
311.690338
 10
375.563568
 20
311.690338
 10
375.070709
 20
311.690338
 10
374.505524
 20
311.690338
 10
373.869629
 20
311.690338
 10
373.164886
 20
311.690338
 10
372.393158
 20
311.690338
 10
371.556458
 20
311.690338
 10
370.657135
 20
311.690338
 10
369.697723
 20
311.690338
 10
368.680817
 20
311.690338
 10
367.60907
 20
311.690338
 10
366.485565
 20
311.690338
 10
365.313385
 20
311.690338
 10
364.095703
 20
311.690338
 10
362.835754
 20
311.690338
 10
361.537109
 20
311.690338
 10
360.203339
 20
311.690338
 10
358.838043
 20
311.690338
 10
357.444916
 20
311.690338
 10
356.027832
 20
311.690338
 10
354.590729
 20
311.690338
 10
353.137421
 20
311.690338
 10
351.671936
 20
311.690338
 10
350.198303
 20
311.690338
 10
348.692932
 20
311.690338
  0
LINE
  5
19F
330
179
100
AcDbEntity
  8
0
  6
Continuous
 62
     0
370
     0
100
AcDbLine
 10
348.692921
 20
311.690346
 30
0.0
 11
320.442906
 21
311.690342
 31
0.0
  0
LINE
  5
1A0
330
179
100
AcDbEntity
  8
0
  6
Continuous
 62
     0
370
    30
100
AcDbLine
 10
348.692918
 20
328.257555
 30
0.0
 11
376.942903
 21
328.25756
 31
0.0
  0
LINE
  5
1A1
330
179
100
AcDbEntity
  8
0
  6
Continuous
 62
     0
370
    30
100
AcDbLine
 10
320.442903
 20
328.25755
 30
0.0
 11
348.692918
 21
328.257555
 31
0.0
  0
LINE
  5
1A2
330
179
100
AcDbEntity
  8
0
  6
Continuous
 62
     0
370
    30
100
AcDbLine
 10
318.192903
 20
330.679266
 30
0.0
 11
374.249687
 21
330.679276
 31
0.0
  0
LINE
  5
1A3
330
179
100
AcDbEntity
  8
0
  6
Continuous
 62
     0
370
    30
100
AcDbLine
 10
374.249687
 20
330.679276
 30
0.0
 11
379.192903
 21
330.679277
 31
0.0
  0
LINE
  5
1A4
330
179
100
AcDbEntity
  8
0
  6
Continuous
 62
     0
370
    30
100
AcDbLine
 10
379.192903
 20
329.079277
 30
0.0
 11
374.249688
 21
329.079276
 31
0.0
  0
LINE
  5
1A5
330
179
100
AcDbEntity
  8
0
  6
Continuous
 62
     0
370
    30
100
AcDbLine
 10
374.249688
 20
329.079276
 30
0.0
 11
318.192903
 21
329.079266
 31
0.0
  0
LINE
  5
1A6
330
179
100
AcDbEntity
  8
0
  6
Continuous
 62
     0
370
    30
100
AcDbLine
 10
318.192902
 20
336.479266
 30
0.0
 11
374.249686
 21
336.479275
 31
0.0
  0
LINE
  5
1A7
330
179
100
AcDbEntity
  8
0
  6
Continuous
 62
     0
370
    30
100
AcDbLine
 10
374.249686
 20
336.479275
 30
0.0
 11
379.192902
 21
336.479277
 31
0.0
  0
LINE
  5
1A8
330
179
100
AcDbEntity
  8
0
  6
Continuous
 62
     0
370
    30
100
AcDbLine
 10
318.192901
 20
338.079266
 30
0.0
 11
374.249686
 21
338.079276
 31
0.0
  0
LINE
  5
1A9
330
179
100
AcDbEntity
  8
0
  6
Continuous
 62
     0
370
    30
100
AcDbLine
 10
374.249686
 20
338.079276
 30
0.0
 11
379.192901
 21
338.079277
 31
0.0
  0
LINE
  5
1AA
330
179
100
AcDbEntity
  8
0
  6
Continuous
 62
     0
370
    30
100
AcDbLine
 10
375.192903
 20
328.25756
 30
0.0
 11
375.192903
 21
329.079276
 31
0.0
  0
LINE
  5
1AB
330
179
100
AcDbEntity
  8
0
  6
Continuous
 62
     0
370
    30
100
AcDbLine
 10
322.192903
 20
328.257551
 30
0.0
 11
322.192903
 21
329.079267
 31
0.0
  0
LINE
  5
1AC
330
179
100
AcDbEntity
  8
0
  6
Continuous
 62
     0
370
    30
100
AcDbLine
 10
318.192901
 20
338.079266
 30
0.0
 11
318.192902
 21
336.479266
 31
0.0
  0
LINE
  5
1AD
330
179
100
AcDbEntity
  8
0
  6
Continuous
 62
     0
370
    30
100
AcDbLine
 10
379.192901
 20
338.079277
 30
0.0
 11
379.192902
 21
336.479277
 31
0.0
  0
LINE
  5
1AE
330
179
100
AcDbEntity
  8
0
  6
Continuous
 62
     0
370
    30
100
AcDbLine
 10
319.242902
 20
336.479266
 30
0.0
 11
319.242903
 21
330.679266
 31
0.0
  0
LINE
  5
1AF
330
179
100
AcDbEntity
  8
0
  6
Continuous
 62
     0
370
    30
100
AcDbLine
 10
378.142902
 20
336.479277
 30
0.0
 11
378.142903
 21
330.679277
 31
0.0
  0
LINE
  5
1B0
330
179
100
AcDbEntity
  8
0
  6
Continuous
 62
     0
370
    30
100
AcDbLine
 10
318.192903
 20
330.679266
 30
0.0
 11
318.192903
 21
329.079266
 31
0.0
  0
LINE
  5
1B1
330
179
100
AcDbEntity
  8
0
  6
Continuous
 62
     0
370
    30
100
AcDbLine
 10
379.192903
 20
330.679277
 30
0.0
 11
379.192903
 21
329.079277
 31
0.0
  0
LINE
  5
1B2
330
179
100
AcDbEntity
  8
0
  6
Continuous
 62
     0
370
    30
100
AcDbLine
 10
320.442906
 20
311.690342
 30
0.0
 11
320.442903
 21
328.25755
 31
0.0
  0
LINE
  5
1B3
330
179
100
AcDbEntity
  8
0
  6
Continuous
 62
     0
370
    30
100
AcDbLine
 10
376.942906
 20
311.690352
 30
0.0
 11
376.942903
 21
328.25756
 31
0.0
  0
ARC
  5
1B4
330
179
100
AcDbEntity
  8
0
  6
Continuous
 62
     0
370
    30
100
AcDbCircle
 10
375.939857
 20
311.693199
 30
0.0
 40
1.003052526530392
100
AcDbArc
 50
274.081459
 51
359.837397
  0
ARC
  5
1B5
330
179
100
AcDbEntity
  8
0
  6
Continuous
 62
     0
370
    30
100
AcDbCircle
 10
321.445954
 20
311.693189
 30
0.0
 40
1.003052526503974
100
AcDbArc
 50
180.162623
 51
265.918561
  0
LINE
  5
1B6
330
179
100
AcDbEntity
  8
0
  6
Continuous
 62
     0
370
    30
100
AcDbLine
 10
335.977098
 20
309.960895
 30
0.0
 11
321.37461
 21
310.692677
 31
0.0
  0
LINE
  5
1B7
330
179
100
AcDbEntity
  8
0
  6
Continuous
 62
     0
370
    30
100
AcDbLine
 10
347.451958
 20
309.760655
 30
0.0
 11
338.536786
 21
309.887686
 31
0.0
  0
LINE
  5
1B8
330
179
100
AcDbEntity
  8
0
  6
Continuous
 62
     0
370
    30
100
AcDbLine
 10
348.662839
 20
309.758731
 30
0.0
 11
347.832396
 21
309.759656
 31
0.0
  0
ARC
  5
1B9
330
179
100
AcDbEntity
  8
0
  6
Continuous
 62
     0
370
    30
100
AcDbCircle
 10
348.693228
 20
709.751971
 30
0.0
 40
399.9932296872727
100
AcDbArc
 50
271.308196
 51
273.916126
  0
LINE
  5
1BA
330
179
100
AcDbEntity
  8
0
  6
Continuous
 62
     0
370
    30
100
AcDbLine
 10
348.722974
 20
309.758731
 30
0.0
 11
356.915098
 21
309.84325
 31
0.0
  0
ARC
  5
1BB
330
179
100
AcDbEntity
  8
0
  6
Continuous
 62
     0
370
    30
100
AcDbCircle
 10
248.692902
 20
118.879243
 30
0.0
 40
12.0
100
AcDbArc
 50
1.798307
 51
23.556464
  0
ARC
  5
1BC
330
179
100
AcDbEntity
  8
0
  6
Continuous
 62
     0
370
    30
100
AcDbCircle
 10
248.692902
 20
118.879243
 30
0.0
 40
12.0
100
AcDbArc
 50
156.443536
 51
181.798307
  0
ARC
  5
1BD
330
179
100
AcDbEntity
  8
0
  6
Continuous
 62
     0
370
    30
100
AcDbCircle
 10
248.692902
 20
118.879243
 30
0.0
 40
12.0
100
AcDbArc
 50
181.798307
 51
1.798307
  0
ARC
  5
1BE
330
179
100
AcDbEntity
  8
0
  6
Continuous
 62
     0
370
     0
100
AcDbCircle
 10
248.683611
 20
118.877519
 30
0.0
 40
11.75934048021651
100
AcDbArc
 50
1.805283
 51
20.574392
  0
ARC
  5
1BF
330
179
100
AcDbEntity
  8
0
  6
Continuous
 62
     0
370
     0
100
AcDbCircle
 10
248.69436
 20
118.879028
 30
0.0
 40
11.751451369184
100
AcDbArc
 50
159.419419
 51
181.797034
  0
ARC
  5
1C0
330
179
100
AcDbEntity
  8
0
  6
Continuous
 62
     0
370
     0
100
AcDbCircle
 10
248.692902
 20
118.87922
 30
0.0
 40
11.75000000002183
100
AcDbArc
 50
181.798196
 51
1.798417
  0
LINE
  5
1C1
330
179
100
AcDbEntity
  8
0
  6
Continuous
 62
     0
370
    30
100
AcDbLine
 10
237.692902
 20
165.879241
 30
0.0
 11
237.692902
 21
118.879243
 31
0.0
  0
ARC
  5
1C2
330
179
100
AcDbEntity
  8
0
  6
Continuous
 62
     0
370
    30
100
AcDbCircle
 10
248.692902
 20
118.879243
 30
0.0
 40
11.0
100
AcDbArc
 50
180.0
 51
360.0
  0
LINE
  5
1C3
330
179
100
AcDbEntity
  8
0
  6
Continuous
 62
     0
370
     0
100
AcDbLine
 10
259.692902
 20
165.879241
 30
0.0
 11
237.692902
 21
165.879241
 31
0.0
  0
LINE
  5
1C4
330
179
100
AcDbEntity
  8
0
  6
Continuous
 62
     0
370
    30
100
AcDbLine
 10
259.692902
 20
325.579253
 30
0.0
 11
259.692902
 21
165.879241
 31
0.0
  0
LINE
  5
1C5
330
179
100
AcDbEntity
  8
0
  6
Continuous
 62
     0
370
    30
100
AcDbLine
 10
237.692902
 20
165.879241
 30
0.0
 11
237.692902
 21
325.579253
 31
0.0
  0
LINE
  5
1C6
330
179
100
AcDbEntity
  8
0
  6
Continuous
 62
     0
370
     0
100
AcDbLine
 10
236.192902
 20
325.829253
 30
0.0
 11
240.050137
 21
325.829253
 31
0.0
  0
LINE
  5
1C7
330
179
100
AcDbEntity
  8
0
  6
Continuous
 62
     0
370
     0
100
AcDbLine
 10
240.050137
 20
325.829253
 30
0.0
 11
261.192902
 21
325.829253
 31
0.0
  0
LINE
  5
1C8
330
179
100
AcDbEntity
  8
0
  6
Continuous
 62
     0
370
    30
100
AcDbLine
 10
236.442981
 20
325.579253
 30
0.0
 11
237.692902
 21
325.579253
 31
0.0
  0
LINE
  5
1C9
330
179
100
AcDbEntity
  8
0
  6
Continuous
 62
     0
370
    30
100
AcDbLine
 10
240.222992
 20
325.579252
 30
0.0
 11
236.442981
 21
325.579253
 31
0.0
  0
LWPOLYLINE
  5
1CA
330
179
100
AcDbEntity
  8
0
  6
Continuous
 62
     0
370
    30
100
AcDbPolyline
 90
       30
 70
     0
 43
0.0
 10
260.942841
 20
325.579254
 10
260.903198
 20
325.579254
 10
260.784424
 20
325.579254
 10
260.587463
 20
325.579254
 10
260.313568
 20
325.579254
 10
259.964325
 20
325.579254
 10
259.542175
 20
325.579254
 10
259.049835
 20
325.579254
 10
258.490326
 20
325.579254
 10
257.867523
 20
325.579254
 10
257.185272
 20
325.579254
 10
256.447998
 20
325.579254
 10
255.660614
 20
325.579254
 10
254.828079
 20
325.579254
 10
253.955811
 20
325.579254
 10
253.04953
 20
325.579254
 10
252.11499
 20
325.579254
 10
251.15831
 20
325.579254
 10
250.185715
 20
325.579254
 10
249.203445
 20
325.579254
 10
248.21785
 20
325.579254
 10
247.235291
 20
325.579254
 10
246.262146
 20
325.579254
 10
245.30481
 20
325.579254
 10
244.369614
 20
325.579254
 10
243.462387
 20
325.579254
 10
242.588577
 20
325.579254
 10
241.753677
 20
325.579254
 10
240.964111
 20
325.579254
 10
240.222992
 20
325.579254
  0
LINE
  5
1CB
330
179
100
AcDbEntity
  8
0
  6
Continuous
 62
     0
370
    30
100
AcDbLine
 10
259.692902
 20
325.579253
 30
0.0
 11
260.942833
 21
325.579253
 31
0.0
  0
LINE
  5
1CC
330
179
100
AcDbEntity
  8
0
  6
Continuous
 62
     0
370
    30
100
AcDbLine
 10
225.836677
 20
336.479252
 30
0.0
 11
218.192902
 21
336.479253
 31
0.0
  0
LWPOLYLINE
  5
1CD
330
179
100
AcDbEntity
  8
0
  6
Continuous
 62
     0
370
    30
100
AcDbPolyline
 90
       51
 70
     0
 43
0.0
 10
279.192902
 20
336.479248
 10
279.153381
 20
336.479248
 10
279.034882
 20
336.479248
 10
278.837921
 20
336.479248
 10
278.56369
 20
336.479248
 10
278.213928
 20
336.479248
 10
277.790894
 20
336.479248
 10
277.297424
 20
336.479248
 10
276.736786
 20
336.479248
 10
276.112671
 20
336.479248
 10
275.429047
 20
336.479248
 10
274.690308
 20
336.479248
 10
273.90094
 20
336.479248
 10
273.065582
 20
336.479248
 10
272.189087
 20
336.479248
 10
271.276154
 20
336.479248
 10
270.331604
 20
336.479248
 10
269.360077
 20
336.479248
 10
268.361176
 20
336.479248
 10
267.310455
 20
336.479248
 10
266.204559
 20
336.479248
 10
265.044678
 20
336.479248
 10
263.832367
 20
336.479248
 10
262.569733
 20
336.479248
 10
261.259247
 20
336.479248
 10
259.904022
 20
336.479248
 10
258.507568
 20
336.479248
 10
257.073853
 20
336.479248
 10
255.607346
 20
336.479248
 10
254.112869
 20
336.479248
 10
252.595627
 20
336.479248
 10
251.061127
 20
336.479248
 10
249.515091
 20
336.479248
 10
247.96344
 20
336.479248
 10
246.412186
 20
336.479248
 10
244.867355
 20
336.479248
 10
243.33493
 20
336.479248
 10
241.820755
 20
336.479248
 10
240.330444
 20
336.479248
 10
238.869354
 20
336.479248
 10
237.442505
 20
336.479248
 10
236.05452
 20
336.479248
 10
234.709595
 20
336.479248
 10
233.411469
 20
336.479248
 10
232.163361
 20
336.479248
 10
230.968002
 20
336.479248
 10
229.827637
 20
336.479248
 10
228.743973
 20
336.479248
 10
227.718262
 20
336.479248
 10
226.751266
 20
336.479248
 10
225.83667
 20
336.479248
  0
LINE
  5
1CE
330
179
100
AcDbEntity
  8
0
  6
Continuous
 62
     0
370
    30
100
AcDbLine
 10
225.836677
 20
338.079253
 30
0.0
 11
218.192902
 21
338.079253
 31
0.0
  0
LINE
  5
1CF
330
179
100
AcDbEntity
  8
0
  6
Continuous
 62
     0
370
    30
100
AcDbLine
 10
279.192902
 20
338.079253
 30
0.0
 11
225.836677
 21
338.079253
 31
0.0
  0
LINE
  5
1D0
330
179
100
AcDbEntity
  8
0
  6
Continuous
 62
     0
370
    30
100
AcDbLine
 10
225.836677
 20
329.679252
 30
0.0
 11
218.192902
 21
329.679253
 31
0.0
  0
LWPOLYLINE
  5
1D1
330
179
100
AcDbEntity
  8
0
  6
Continuous
 62
     0
370
    30
100
AcDbPolyline
 90
       51
 70
     0
 43
0.0
 10
279.192902
 20
329.67926
 10
279.153381
 20
329.67926
 10
279.034882
 20
329.67926
 10
278.837921
 20
329.67926
 10
278.56369
 20
329.67926
 10
278.213928
 20
329.67926
 10
277.790894
 20
329.67926
 10
277.297424
 20
329.67926
 10
276.736786
 20
329.67926
 10
276.112671
 20
329.67926
 10
275.429047
 20
329.67926
 10
274.690308
 20
329.67926
 10
273.90094
 20
329.67926
 10
273.065582
 20
329.67926
 10
272.189087
 20
329.67926
 10
271.276154
 20
329.67926
 10
270.331604
 20
329.67926
 10
269.360077
 20
329.67926
 10
268.361176
 20
329.67926
 10
267.310455
 20
329.67926
 10
266.204559
 20
329.67926
 10
265.044678
 20
329.67926
 10
263.832367
 20
329.67926
 10
262.569733
 20
329.67926
 10
261.259247
 20
329.67926
 10
259.904022
 20
329.67926
 10
258.507568
 20
329.67926
 10
257.073853
 20
329.67926
 10
255.607346
 20
329.67926
 10
254.112869
 20
329.67926
 10
252.595627
 20
329.67926
 10
251.061127
 20
329.67926
 10
249.515091
 20
329.67926
 10
247.96344
 20
329.67926
 10
246.412186
 20
329.67926
 10
244.867355
 20
329.67926
 10
243.33493
 20
329.67926
 10
241.820755
 20
329.67926
 10
240.330444
 20
329.67926
 10
238.869354
 20
329.67926
 10
237.442505
 20
329.67926
 10
236.05452
 20
329.67926
 10
234.709595
 20
329.67926
 10
233.411469
 20
329.67926
 10
232.163361
 20
329.67926
 10
230.968002
 20
329.67926
 10
229.827637
 20
329.67926
 10
228.743973
 20
329.67926
 10
227.718262
 20
329.67926
 10
226.751266
 20
329.67926
 10
225.83667
 20
329.67926
  0
LINE
  5
1D2
330
179
100
AcDbEntity
  8
0
  6
Continuous
 62
     0
370
    30
100
AcDbLine
 10
218.192902
 20
328.079253
 30
0.0
 11
225.836677
 21
328.079253
 31
0.0
  0
LINE
  5
1D3
330
179
100
AcDbEntity
  8
0
  6
Continuous
 62
     0
370
    30
100
AcDbLine
 10
225.836677
 20
328.079253
 30
0.0
 11
279.192902
 21
328.079253
 31
0.0
  0
LINE
  5
1D4
330
179
100
AcDbEntity
  8
0
  6
Continuous
 62
     0
370
    30
100
AcDbLine
 10
218.192902
 20
328.079253
 30
0.0
 11
218.192902
 21
329.679253
 31
0.0
  0
LINE
  5
1D5
330
179
100
AcDbEntity
  8
0
  6
Continuous
 62
     0
370
    30
100
AcDbLine
 10
279.192902
 20
328.079253
 30
0.0
 11
279.192902
 21
329.679253
 31
0.0
  0
LINE
  5
1D6
330
179
100
AcDbEntity
  8
0
  6
Continuous
 62
     0
370
    30
100
AcDbLine
 10
278.142902
 20
329.679253
 30
0.0
 11
278.142902
 21
336.479253
 31
0.0
  0
LINE
  5
1D7
330
179
100
AcDbEntity
  8
0
  6
Continuous
 62
     0
370
    30
100
AcDbLine
 10
219.242902
 20
329.679253
 30
0.0
 11
219.242902
 21
336.479253
 31
0.0
  0
LINE
  5
1D8
330
179
100
AcDbEntity
  8
0
  6
Continuous
 62
     0
370
    30
100
AcDbLine
 10
279.192902
 20
336.479253
 30
0.0
 11
279.192902
 21
338.079253
 31
0.0
  0
LINE
  5
1D9
330
179
100
AcDbEntity
  8
0
  6
Continuous
 62
     0
370
    30
100
AcDbLine
 10
218.192902
 20
336.479253
 30
0.0
 11
218.192902
 21
338.079253
 31
0.0
  0
LINE
  5
1DA
330
179
100
AcDbEntity
  8
0
  6
Continuous
 62
     0
370
    30
100
AcDbLine
 10
261.192902
 20
328.079253
 30
0.0
 11
261.192902
 21
325.829253
 31
0.0
  0
LINE
  5
1DB
330
179
100
AcDbEntity
  8
0
  6
Continuous
 62
     0
370
    30
100
AcDbLine
 10
236.192902
 20
328.079253
 30
0.0
 11
236.192902
 21
325.829253
 31
0.0
  0
LINE
  5
1DC
330
179
100
AcDbEntity
  8
0
  6
Continuous
 62
     0
370
    30
100
AcDbLine
 10
259.692902
 20
118.879243
 30
0.0
 11
259.692902
 21
165.879241
 31
0.0
  0
LINE
  5
1DD
330
179
100
AcDbEntity
  8
0
  6
Continuous
 62
     0
370
    30
100
AcDbLine
 10
356.218066
 20
309.838603
 30
0.0
 11
358.393993
 21
309.885469
 31
0.0
  0
LINE
  5
1DE
330
179
100
AcDbEntity
  8
0
  6
Continuous
 62
     0
370
    30
100
AcDbLine
 10
358.393993
 20
309.885469
 30
0.0
 11
359.22566
 21
309.905985
 31
0.0
  0
LINE
  5
1DF
330
179
100
AcDbEntity
  8
0
  6
Continuous
 62
     0
370
    30
100
AcDbLine
 10
359.22566
 20
309.905985
 30
0.0
 11
359.910006
 21
309.923281
 31
0.0
  0
LINE
  5
1E0
330
179
100
AcDbEntity
  8
0
  6
Continuous
 62
     0
370
    30
100
AcDbLine
 10
359.910006
 20
309.923281
 30
0.0
 11
360.433582
 21
309.936688
 31
0.0
  0
LINE
  5
1E1
330
179
100
AcDbEntity
  8
0
  6
Continuous
 62
     0
370
    30
100
AcDbLine
 10
360.433582
 20
309.936688
 30
0.0
 11
360.808612
 21
309.946313
 31
0.0
  0
LINE
  5
1E2
330
179
100
AcDbEntity
  8
0
  6
Continuous
 62
     0
370
    30
100
AcDbLine
 10
360.808612
 20
309.946313
 30
0.0
 11
361.259338
 21
309.957972
 31
0.0
  0
LINE
  5
1E3
330
179
100
AcDbEntity
  8
0
  6
Continuous
 62
     0
370
    30
100
AcDbLine
 10
361.259338
 20
309.957972
 30
0.0
 11
361.538072
 21
309.965338
 31
0.0
  0
LINE
  5
1E4
330
179
100
AcDbEntity
  8
0
  6
Continuous
 62
     0
370
    30
100
AcDbLine
 10
342.672951
 20
309.804016
 30
0.0
 11
342.902973
 21
309.801978
 31
0.0
  0
LINE
  5
1E5
330
179
100
AcDbEntity
  8
0
  6
Continuous
 62
     0
370
    30
100
AcDbLine
 10
342.902973
 20
309.801978
 30
0.0
 11
343.556967
 21
309.796724
 31
0.0
  0
LINE
  5
1E6
330
179
100
AcDbEntity
  8
0
  6
Continuous
 62
     0
370
    30
100
AcDbLine
 10
343.556967
 20
309.796724
 30
0.0
 11
344.51463
 21
309.789263
 31
0.0
  0
LINE
  5
1E7
330
179
100
AcDbEntity
  8
0
  6
Continuous
 62
     0
370
    30
100
AcDbLine
 10
344.51463
 20
309.789263
 30
0.0
 11
345.639852
 21
309.78064
 31
0.0
  0
LINE
  5
1E8
330
179
100
AcDbEntity
  8
0
  6
Continuous
 62
     0
370
    30
100
AcDbLine
 10
345.639852
 20
309.78064
 30
0.0
 11
346.742073
 21
309.77226
 31
0.0
  0
LINE
  5
1E9
330
179
100
AcDbEntity
  8
0
  6
Continuous
 62
     0
370
    30
100
AcDbLine
 10
346.742073
 20
309.77226
 30
0.0
 11
347.690754
 21
309.76512
 31
0.0
  0
LINE
  5
1EA
330
179
100
AcDbEntity
  8
0
  6
Continuous
 62
     0
370
    30
100
AcDbLine
 10
347.690754
 20
309.76512
 30
0.0
 11
348.351481
 21
309.760274
 31
0.0
  0
LINE
  5
1EB
330
179
100
AcDbEntity
  8
0
  6
Continuous
 62
     0
370
    30
100
AcDbLine
 10
348.351481
 20
309.760274
 30
0.0
 11
348.587479
 21
309.758727
 31
0.0
  0
LINE
  5
1EC
330
179
100
AcDbEntity
  8
0
  6
Continuous
 62
     0
370
    30
100
AcDbLine
 10
345.638529
 20
309.778801
 30
0.0
 11
344.92974
 21
309.784117
 31
0.0
  0
LINE
  5
1ED
330
179
100
AcDbEntity
  8
0
  6
Continuous
 62
     0
370
    30
100
AcDbLine
 10
344.92974
 20
309.784117
 30
0.0
 11
344.220165
 21
309.789058
 31
0.0
  0
LINE
  5
1EE
330
179
100
AcDbEntity
  8
0
  6
Continuous
 62
     0
370
    30
100
AcDbLine
 10
344.220165
 20
309.789058
 30
0.0
 11
343.651501
 21
309.792332
 31
0.0
  0
LINE
  5
1EF
330
179
100
AcDbEntity
  8
0
  6
Continuous
 62
     0
370
    30
100
AcDbLine
 10
343.651501
 20
309.792332
 30
0.0
 11
343.428334
 21
309.793359
 31
0.0
  0
LINE
  5
1F0
330
179
100
AcDbEntity
  8
0
  6
Continuous
 62
     0
370
    30
100
AcDbLine
 10
347.832396
 20
309.759639
 30
0.0
 11
347.451968
 21
309.763662
 31
0.0
  0
LINE
  5
1F1
330
179
100
AcDbEntity
  8
0
  6
Continuous
 62
     0
370
    30
100
AcDbLine
 10
347.451968
 20
309.763662
 30
0.0
 11
346.576827
 21
309.771419
 31
0.0
  0
LINE
  5
1F2
330
179
100
AcDbEntity
  8
0
  6
Continuous
 62
     0
370
    30
100
AcDbLine
 10
346.576827
 20
309.771419
 30
0.0
 11
345.638529
 21
309.778801
 31
0.0
  0
LINE
  5
1F3
330
179
100
AcDbEntity
  8
0
  6
Continuous
 62
     0
370
    30
100
AcDbLine
 10
337.055755
 20
309.935532
 30
0.0
 11
338.537046
 21
309.897939
 31
0.0
  0
LINE
  5
1F4
330
179
100
AcDbEntity
  8
0
  6
Continuous
 62
     0
370
    30
100
AcDbLine
 10
338.537046
 20
309.897939
 30
0.0
 11
339.584799
 21
309.871658
 31
0.0
  0
LINE
  5
1F5
330
179
100
AcDbEntity
  8
0
  6
Continuous
 62
     0
370
    30
100
AcDbLine
 10
339.584799
 20
309.871658
 30
0.0
 11
339.973528
 21
309.86196
 31
0.0
  0
LINE
  5
1F6
330
179
100
AcDbEntity
  8
0
  6
Continuous
 62
     0
370
    30
100
AcDbLine
 10
339.973528
 20
309.86196
 30
0.0
 11
340.145713
 21
309.858034
 31
0.0
  0
LINE
  5
1F7
330
179
100
AcDbEntity
  8
0
  6
Continuous
 62
     0
370
    30
100
AcDbLine
 10
340.145713
 20
309.858034
 30
0.0
 11
340.300765
 21
309.855055
 31
0.0
  0
LINE
  5
1F8
330
179
100
AcDbEntity
  8
0
  6
Continuous
 62
     0
370
    30
100
AcDbLine
 10
340.37969
 20
309.854788
 30
0.0
 11
340.505275
 21
309.852197
 31
0.0
  0
LINE
  5
1F9
330
179
100
AcDbEntity
  8
0
  6
Continuous
 62
     0
370
    30
100
AcDbLine
 10
337.662125
 20
309.918029
 30
0.0
 11
336.960469
 21
309.935032
 31
0.0
  0
LINE
  5
1FA
330
179
100
AcDbEntity
  8
0
  6
Continuous
 62
     0
370
    30
100
AcDbLine
 10
336.960469
 20
309.935032
 30
0.0
 11
336.499707
 21
309.945761
 31
0.0
  0
LINE
  5
1FB
330
179
100
AcDbEntity
  8
0
  6
Continuous
 62
     0
370
    30
100
AcDbLine
 10
336.499707
 20
309.945761
 30
0.0
 11
336.338022
 21
309.949563
 31
0.0
  0
LINE
  5
1FC
330
179
100
AcDbEntity
  8
0
  6
Continuous
 62
     0
370
    30
100
AcDbLine
 10
335.586944
 20
309.973479
 30
0.0
 11
335.977166
 21
309.963051
 31
0.0
  0
LINE
  5
1FD
330
179
100
AcDbEntity
  8
0
  6
Continuous
 62
     0
370
    30
100
AcDbLine
 10
335.977166
 20
309.963051
 30
0.0
 11
337.055755
 21
309.935532
 31
0.0
  0
LINE
  5
1FE
330
179
100
AcDbEntity
  8
0
  6
Continuous
 62
     0
370
    30
100
AcDbLine
 10
146.158699
 20
309.766741
 30
0.0
 11
146.388934
 21
309.766732
 31
0.0
  0
LINE
  5
1FF
330
179
100
AcDbEntity
  8
0
  6
Continuous
 62
     0
370
    30
100
AcDbLine
 10
146.388934
 20
309.766732
 30
0.0
 11
147.043178
 21
309.767201
 31
0.0
  0
LINE
  5
200
330
179
100
AcDbEntity
  8
0
  6
Continuous
 62
     0
370
    30
100
AcDbLine
 10
147.043178
 20
309.767201
 30
0.0
 11
148.001359
 21
309.768104
 31
0.0
  0
LINE
  5
201
330
179
100
AcDbEntity
  8
0
  6
Continuous
 62
     0
370
    30
100
AcDbLine
 10
148.001359
 20
309.768104
 30
0.0
 11
149.127286
 21
309.769299
 31
0.0
  0
LINE
  5
202
330
179
100
AcDbEntity
  8
0
  6
Continuous
 62
     0
370
    30
100
AcDbLine
 10
149.127286
 20
309.769299
 30
0.0
 11
150.23036
 21
309.770528
 31
0.0
  0
LINE
  5
203
330
179
100
AcDbEntity
  8
0
  6
Continuous
 62
     0
370
    30
100
AcDbLine
 10
150.23036
 20
309.770528
 30
0.0
 11
151.179701
 21
309.77165
 31
0.0
  0
LINE
  5
204
330
179
100
AcDbEntity
  8
0
  6
Continuous
 62
     0
370
    30
100
AcDbLine
 10
151.179701
 20
309.77165
 30
0.0
 11
151.84086
 21
309.772545
 31
0.0
  0
LINE
  5
205
330
179
100
AcDbEntity
  8
0
  6
Continuous
 62
     0
370
    30
100
AcDbLine
 10
151.84086
 20
309.772545
 30
0.0
 11
152.080621
 21
309.773087
 31
0.0
  0
LINE
  5
206
330
179
100
AcDbEntity
  8
0
  6
Continuous
 62
     0
370
    30
100
AcDbLine
 10
151.191649
 20
309.767707
 30
0.0
 11
150.938637
 21
309.768085
 31
0.0
  0
LINE
  5
207
330
179
100
AcDbEntity
  8
0
  6
Continuous
 62
     0
370
    30
100
AcDbLine
 10
142.131527
 20
309.821811
 30
0.0
 11
143.998064
 21
309.795491
 31
0.0
  0
LINE
  5
208
330
179
100
AcDbEntity
  8
0
  6
Continuous
 62
     0
370
    30
100
AcDbLine
 10
140.47075
 20
309.845377
 30
0.0
 11
140.298771
 21
309.848594
 31
0.0
  0
LWPOLYLINE
  5
209
330
179
100
AcDbEntity
  8
0
  6
Continuous
 62
     0
370
    30
100
AcDbPolyline
 90
        6
 70
     0
 43
0.0
 10
139.024139
 20
309.880585
 10
138.990448
 20
309.882263
 10
138.899811
 20
309.885376
 10
138.768555
 20
309.889374
 10
138.613022
 20
309.893829
 10
138.439194
 20
309.898438
  0
LINE
  5
20A
330
179
100
AcDbEntity
  8
0
  6
Continuous
 62
     0
370
    30
100
AcDbLine
 10
138.439685
 20
309.899589
 30
0.0
 11
140.298912
 21
309.856149
 31
0.0
  0
LINE
  5
20B
330
179
100
AcDbEntity
  8
0
  6
Continuous
 62
     0
370
    30
100
AcDbLine
 10
158.938773
 20
309.89328
 30
0.0
 11
158.751502
 21
309.88852
 31
0.0
  0
LINE
  5
20C
330
179
100
AcDbEntity
  8
0
  6
Continuous
 62
     0
370
    30
100
AcDbLine
 10
158.751502
 20
309.88852
 30
0.0
 11
158.50474
 21
309.885817
 31
0.0
  0
LINE
  5
20D
330
179
100
AcDbEntity
  8
0
  6
Continuous
 62
     0
370
    30
100
AcDbLine
 10
158.50474
 20
309.885817
 30
0.0
 11
157.852818
 21
309.871228
 31
0.0
  0
LINE
  5
20E
330
179
100
AcDbEntity
  8
0
  6
Continuous
 62
     0
370
    30
100
AcDbLine
 10
157.852818
 20
309.871228
 30
0.0
 11
156.802919
 21
309.848515
 31
0.0
  0
LINE
  5
20F
330
179
100
AcDbEntity
  8
0
  6
Continuous
 62
     0
370
    30
100
AcDbLine
 10
156.104383
 20
309.834934
 30
0.0
 11
155.053822
 21
309.816812
 31
0.0
  0
LINE
  5
210
330
179
100
AcDbEntity
  8
0
  6
Continuous
 62
     0
370
    30
100
AcDbLine
 10
155.053822
 20
309.816812
 30
0.0
 11
154.404993
 21
309.806105
 31
0.0
  0
LINE
  5
211
330
179
100
AcDbEntity
  8
0
  6
Continuous
 62
     0
370
    30
100
AcDbLine
 10
154.404993
 20
309.806105
 30
0.0
 11
154.109697
 21
309.798599
 31
0.0
  0
LINE
  5
212
330
179
100
AcDbEntity
  8
0
  6
Continuous
 62
     0
370
    30
100
AcDbLine
 10
154.109697
 20
309.798599
 30
0.0
 11
153.952745
 21
309.796501
 31
0.0
  0
LINE
  5
213
330
179
100
AcDbEntity
  8
0
  6
Continuous
 62
     0
370
    30
100
AcDbLine
 10
153.956434
 20
309.805037
 30
0.0
 11
154.098617
 21
309.806938
 31
0.0
  0
LINE
  5
214
330
179
100
AcDbEntity
  8
0
  6
Continuous
 62
     0
370
    30
100
AcDbLine
 10
154.098617
 20
309.806938
 30
0.0
 11
154.210665
 21
309.807053
 31
0.0
  0
LINE
  5
215
330
179
100
AcDbEntity
  8
0
  6
Continuous
 62
     0
370
    30
100
AcDbLine
 10
154.210665
 20
309.807053
 30
0.0
 11
154.310913
 21
309.807868
 31
0.0
  0
LINE
  5
216
330
179
100
AcDbEntity
  8
0
  6
Continuous
 62
     0
370
    30
100
AcDbLine
 10
154.310913
 20
309.807868
 30
0.0
 11
154.462287
 21
309.809681
 31
0.0
  0
LINE
  5
217
330
179
100
AcDbEntity
  8
0
  6
Continuous
 62
     0
370
    30
100
AcDbLine
 10
154.462287
 20
309.809681
 30
0.0
 11
154.680469
 21
309.812789
 31
0.0
  0
LINE
  5
218
330
179
100
AcDbEntity
  8
0
  6
Continuous
 62
     0
370
    30
100
AcDbLine
 10
154.680469
 20
309.812789
 30
0.0
 11
158.272032
 21
309.882836
 31
0.0
  0
LINE
  5
219
330
179
100
AcDbEntity
  8
0
  6
Continuous
 62
     0
370
    30
100
AcDbLine
 10
158.272032
 20
309.882836
 30
0.0
 11
158.799681
 21
309.898327
 31
0.0
  0
LINE
  5
21A
330
179
100
AcDbEntity
  8
0
  6
Continuous
 62
     0
370
    30
100
AcDbLine
 10
158.799681
 20
309.898327
 30
0.0
 11
158.942529
 21
309.901972
 31
0.0
  0
LINE
  5
21B
330
179
100
AcDbEntity
  8
0
  6
Continuous
 62
     0
370
    30
100
AcDbLine
 10
152.077528
 20
309.773033
 30
0.0
 11
151.840869
 21
309.771255
 31
0.0
  0
ENDBLK
  5
21D
330
179
100
AcDbEntity
  8
0
100
AcDbBlockEnd
  0
BLOCK
  5
274
330
21F
100
AcDbEntity
  8
0
100
AcDbBlockBegin
  2
c
 70
     0
 10
74.615517
 20
111.606232
 30
0.0
  3
c
  1

  0
LINE
  5
220
330
21F
100
AcDbEntity
  8
0
  6
Continuous
 62
     0
370
     0
100
AcDbLine
 10
480.742215
 20
482.301997
 30
0.0
 11
480.742215
 21
536.938588
 31
0.0
  0
ARC
  5
221
330
21F
100
AcDbEntity
  8
0
  6
Continuous
 62
     0
370
    30
100
AcDbCircle
 10
81.676167
 20
509.620293
 30
0.0
 40
400.0000000000312
100
AcDbArc
 50
356.083894
 51
359.553124
  0
LINE
  5
222
330
21F
100
AcDbEntity
  8
0
  6
Continuous
 62
     0
370
    30
100
AcDbLine
 10
481.66643
 20
506.829275
 30
0.0
 11
481.665305
 21
506.672407
 31
0.0
  0
ARC
  5
223
330
21F
100
AcDbEntity
  8
0
  6
Continuous
 62
     0
370
    30
100
AcDbCircle
 10
479.74455
 20
482.370293
 30
0.0
 40
1.00000000000001
100
AcDbArc
 50
270.0
 51
356.083894
  0
LINE
  5
224
330
21F
100
AcDbEntity
  8
0
  6
Continuous
 62
     0
370
     0
100
AcDbLine
 10
479.74455
 20
481.370293
 30
0.0
 11
479.74455
 21
537.870293
 31
0.0
  0
LINE
  5
225
330
21F
100
AcDbEntity
  8
0
  6
Continuous
 62
     0
370
    30
100
AcDbLine
 10
479.74455
 20
481.370293
 30
0.0
 11
463.177342
 21
481.370293
 31
0.0
  0
LINE
  5
226
330
21F
100
AcDbEntity
  8
0
  6
Continuous
 62
     0
370
    30
100
AcDbLine
 10
463.177342
 20
537.870293
 30
0.0
 11
463.177342
 21
481.370293
 31
0.0
  0
LINE
  5
227
330
21F
100
AcDbEntity
  8
0
  6
Continuous
 62
     0
370
    30
100
AcDbLine
 10
462.355626
 20
526.26665
 30
0.0
 11
462.355626
 21
540.120293
 31
0.0
  0
LINE
  5
228
330
21F
100
AcDbEntity
  8
0
  6
Continuous
 62
     0
370
    30
100
AcDbLine
 10
462.355626
 20
479.120293
 30
0.0
 11
462.355626
 21
526.26665
 31
0.0
  0
LINE
  5
229
330
21F
100
AcDbEntity
  8
0
  6
Continuous
 62
     0
370
    30
100
AcDbLine
 10
460.755626
 20
526.26665
 30
0.0
 11
460.755626
 21
479.120293
 31
0.0
  0
LINE
  5
22A
330
21F
100
AcDbEntity
  8
0
  6
Continuous
 62
     0
370
    30
100
AcDbLine
 10
460.755626
 20
540.120293
 30
0.0
 11
460.755626
 21
526.26665
 31
0.0
  0
LINE
  5
22B
330
21F
100
AcDbEntity
  8
0
  6
Continuous
 62
     0
370
    30
100
AcDbLine
 10
454.955627
 20
526.26665
 30
0.0
 11
454.955626
 21
479.120293
 31
0.0
  0
LWPOLYLINE
  5
22C
330
21F
100
AcDbEntity
  8
0
  6
Continuous
 62
     0
370
    30
100
AcDbPolyline
 90
       22
 70
     0
 43
0.0
 10
454.955627
 20
540.1203
 10
454.955627
 20
540.083862
 10
454.955627
 20
539.974121
 10
454.955627
 20
539.790649
 10
454.955627
 20
539.533813
 10
454.955627
 20
539.204163
 10
454.955627
 20
538.803101
 10
454.955627
 20
538.332336
 10
454.955627
 20
537.794189
 10
454.955627
 20
537.191406
 10
454.955627
 20
536.527039
 10
454.955627
 20
535.804626
 10
454.955627
 20
535.028015
 10
454.955627
 20
534.201294
 10
454.955627
 20
533.328674
 10
454.955627
 20
532.414612
 10
454.955627
 20
531.463623
 10
454.955627
 20
530.480225
 10
454.955627
 20
529.468933
 10
454.955627
 20
528.434204
 10
454.955627
 20
527.380371
 10
454.955627
 20
526.266663
  0
LINE
  5
22D
330
21F
100
AcDbEntity
  8
0
  6
Continuous
 62
     0
370
    30
100
AcDbLine
 10
453.355626
 20
526.26665
 30
0.0
 11
453.355626
 21
479.120293
 31
0.0
  0
LINE
  5
22E
330
21F
100
AcDbEntity
  8
0
  6
Continuous
 62
     0
370
    30
100
AcDbLine
 10
453.355626
 20
540.120293
 30
0.0
 11
453.355626
 21
526.26665
 31
0.0
  0
LINE
  5
22F
330
21F
100
AcDbEntity
  8
0
  6
Continuous
 62
     0
370
    30
100
AcDbLine
 10
462.355626
 20
536.120293
 30
0.0
 11
463.177342
 21
536.120293
 31
0.0
  0
LINE
  5
230
330
21F
100
AcDbEntity
  8
0
  6
Continuous
 62
     0
370
    30
100
AcDbLine
 10
462.355626
 20
483.120293
 30
0.0
 11
463.177342
 21
483.120293
 31
0.0
  0
LINE
  5
231
330
21F
100
AcDbEntity
  8
0
  6
Continuous
 62
     0
370
    30
100
AcDbLine
 10
454.955626
 20
540.120293
 30
0.0
 11
453.355626
 21
540.120293
 31
0.0
  0
LINE
  5
232
330
21F
100
AcDbEntity
  8
0
  6
Continuous
 62
     0
370
    30
100
AcDbLine
 10
454.955626
 20
479.120293
 30
0.0
 11
453.355626
 21
479.120293
 31
0.0
  0
LINE
  5
233
330
21F
100
AcDbEntity
  8
0
  6
Continuous
 62
     0
370
    30
100
AcDbLine
 10
460.755626
 20
539.070293
 30
0.0
 11
454.955626
 21
539.070293
 31
0.0
  0
LINE
  5
234
330
21F
100
AcDbEntity
  8
0
  6
Continuous
 62
     0
370
    30
100
AcDbLine
 10
460.755626
 20
480.170293
 30
0.0
 11
454.955626
 21
480.170293
 31
0.0
  0
LINE
  5
235
330
21F
100
AcDbEntity
  8
0
  6
Continuous
 62
     0
370
    30
100
AcDbLine
 10
462.355626
 20
540.120293
 30
0.0
 11
460.755626
 21
540.120293
 31
0.0
  0
LINE
  5
236
330
21F
100
AcDbEntity
  8
0
  6
Continuous
 62
     0
370
    30
100
AcDbLine
 10
462.355626
 20
479.120293
 30
0.0
 11
460.755626
 21
479.120293
 31
0.0
  0
LINE
  5
237
330
21F
100
AcDbEntity
  8
0
  6
Continuous
 62
     0
370
    30
100
AcDbLine
 10
463.177342
 20
537.870293
 30
0.0
 11
479.74455
 21
537.870293
 31
0.0
  0
ARC
  5
238
330
21F
100
AcDbEntity
  8
0
  6
Continuous
 62
     0
370
    30
100
AcDbCircle
 10
479.741707
 20
536.867248
 30
0.0
 40
1.00304822133863
100
AcDbArc
 50
4.078499
 51
89.837608
  0
ARC
  5
239
330
21F
100
AcDbEntity
  8
0
  6
Continuous
 62
     0
370
    30
100
AcDbCircle
 10
81.677492
 20
509.620364
 30
0.0
 40
399.9986737945886
100
AcDbArc
 50
0.391842
 51
3.916109
  0
LINE
  5
23A
330
21F
100
AcDbEntity
  8
0
  6
Continuous
 62
     0
370
    30
100
AcDbLine
 10
481.671886
 20
511.4709
 30
0.0
 11
481.668809
 21
512.046387
 31
0.0
  0
LINE
  5
23B
330
21F
100
AcDbEntity
  8
0
  6
Continuous
 62
     0
370
     0
100
AcDbLine
 10
672.900829
 20
437.870293
 30
0.0
 11
683.555634
 21
437.870293
 31
0.0
  0
LINE
  5
23C
330
21F
100
AcDbEntity
  8
0
  6
Continuous
 62
     0
370
     0
100
AcDbLine
 10
661.555635
 20
437.870293
 30
0.0
 11
672.900829
 21
437.870293
 31
0.0
  0
LINE
  5
23D
330
21F
100
AcDbEntity
  8
0
  6
Continuous
 62
     0
370
     0
100
AcDbLine
 10
672.900829
 20
454.870293
 30
0.0
 11
661.555635
 21
454.870293
 31
0.0
  0
LINE
  5
23E
330
21F
100
AcDbEntity
  8
0
  6
Continuous
 62
     0
370
     0
100
AcDbLine
 10
683.555634
 20
454.870293
 30
0.0
 11
672.900829
 21
454.870293
 31
0.0
  0
LINE
  5
23F
330
21F
100
AcDbEntity
  8
0
  6
Continuous
 62
     0
370
     0
100
AcDbLine
 10
672.93221
 20
457.370293
 30
0.0
 11
660.555635
 21
457.370293
 31
0.0
  0
LINE
  5
240
330
21F
100
AcDbEntity
  8
0
  6
Continuous
 62
     0
370
     0
100
AcDbLine
 10
684.555635
 20
457.370293
 30
0.0
 11
672.93221
 21
457.370293
 31
0.0
  0
LINE
  5
241
330
21F
100
AcDbEntity
  8
0
  6
Continuous
 62
     0
370
     0
100
AcDbLine
 10
672.93221
 20
455.370293
 30
0.0
 11
684.555635
 21
455.370293
 31
0.0
  0
LINE
  5
242
330
21F
100
AcDbEntity
  8
0
  6
Continuous
 62
     0
370
     0
100
AcDbLine
 10
660.555635
 20
455.370293
 30
0.0
 11
672.93221
 21
455.370293
 31
0.0
  0
LINE
  5
243
330
21F
100
AcDbEntity
  8
0
  6
Continuous
 62
     0
370
     0
100
AcDbLine
 10
672.555635
 20
462.620293
 30
0.0
 11
683.555635
 21
462.620293
 31
0.0
  0
LINE
  5
244
330
21F
100
AcDbEntity
  8
0
  6
Continuous
 62
     0
370
     0
100
AcDbLine
 10
661.555635
 20
462.620293
 30
0.0
 11
672.555635
 21
462.620293
 31
0.0
  0
LINE
  5
245
330
21F
100
AcDbEntity
  8
0
  6
Continuous
 62
     0
370
     0
100
AcDbLine
 10
625.555635
 20
509.620293
 30
0.0
 11
625.555635
 21
498.620293
 31
0.0
  0
LINE
  5
246
330
21F
100
AcDbEntity
  8
0
  6
Continuous
 62
     0
370
     0
100
AcDbLine
 10
625.555635
 20
520.620293
 30
0.0
 11
625.555635
 21
509.620293
 31
0.0
  0
LINE
  5
247
330
21F
100
AcDbEntity
  8
0
  6
Continuous
 62
     0
370
     0
100
AcDbLine
 10
625.555635
 20
509.620293
 30
0.0
 11
481.676163
 21
509.620293
 31
0.0
  0
LINE
  5
248
330
21F
100
AcDbEntity
  8
0
  6
Continuous
 62
     0
370
    30
100
AcDbLine
 10
463.355623
 20
479.120293
 30
0.0
 11
463.355623
 21
481.370293
 31
0.0
  0
LINE
  5
249
330
21F
100
AcDbEntity
  8
0
  6
Continuous
 62
     0
370
    30
100
AcDbLine
 10
463.355623
 20
537.870293
 30
0.0
 11
463.355623
 21
540.120293
 31
0.0
  0
LINE
  5
24A
330
21F
100
AcDbEntity
  8
0
  6
Continuous
 62
     0
370
    30
100
AcDbLine
 10
463.355623
 20
479.120293
 30
0.0
 11
462.355621
 21
479.120293
 31
0.0
  0
LINE
  5
24B
330
21F
100
AcDbEntity
  8
0
  6
Continuous
 62
     0
370
    30
100
AcDbLine
 10
463.355623
 20
540.120293
 30
0.0
 11
462.355621
 21
540.120293
 31
0.0
  0
LINE
  5
24C
330
21F
100
AcDbEntity
  8
0
  6
Continuous
 62
     0
370
    30
100
AcDbLine
 10
481.52489
 20
498.620517
 30
0.0
 11
625.555635
 21
498.620293
 31
0.0
  0
LINE
  5
24D
330
21F
100
AcDbEntity
  8
0
  6
Continuous
 62
     0
370
    30
100
AcDbLine
 10
625.555635
 20
520.620293
 30
0.0
 11
481.524888
 21
520.620068
 31
0.0
  0
LINE
  5
24E
330
21F
100
AcDbEntity
  8
0
  6
Continuous
 62
     0
370
    30
100
AcDbLine
 10
683.555635
 20
457.620293
 30
0.0
 11
683.555635
 21
462.620293
 31
0.0
  0
LINE
  5
24F
330
21F
100
AcDbEntity
  8
0
  6
Continuous
 62
     0
370
    30
100
AcDbLine
 10
661.555635
 20
457.620293
 30
0.0
 11
661.555635
 21
462.620293
 31
0.0
  0
ARC
  5
250
330
21F
100
AcDbEntity
  8
0
  6
Continuous
 62
     0
370
    30
100
AcDbCircle
 10
625.557557
 20
462.622215
 30
0.0
 40
57.99807815606142
100
AcDbArc
 50
359.998101
 51
90.001899
  0
ARC
  5
251
330
21F
100
AcDbEntity
  8
0
  6
Continuous
 62
     0
370
    30
100
AcDbCircle
 10
625.554013
 20
462.618671
 30
0.0
 40
36.00162182119407
100
AcDbArc
 50
0.002581
 51
89.997419
  0
LINE
  5
252
330
21F
100
AcDbEntity
  8
0
  6
Continuous
 62
     0
370
    30
100
AcDbLine
 10
684.555635
 20
455.370293
 30
0.0
 11
684.555635
 21
457.370293
 31
0.0
  0
LINE
  5
253
330
21F
100
AcDbEntity
  8
0
  6
Continuous
 62
     0
370
    30
100
AcDbLine
 10
660.555635
 20
455.370293
 30
0.0
 11
660.555635
 21
457.370293
 31
0.0
  0
LINE
  5
254
330
21F
100
AcDbEntity
  8
0
  6
Continuous
 62
     0
370
    30
100
AcDbLine
 10
683.555634
 20
437.870293
 30
0.0
 11
683.555634
 21
454.870293
 31
0.0
  0
LINE
  5
255
330
21F
100
AcDbEntity
  8
0
  6
Continuous
 62
     0
370
    30
100
AcDbLine
 10
661.555635
 20
437.870293
 30
0.0
 11
661.555635
 21
454.870293
 31
0.0
  0
LINE
  5
256
330
21F
100
AcDbEntity
  8
0
  6
Continuous
 62
     0
370
    30
100
AcDbLine
 10
481.626636
 20
511.601546
 30
0.0
 11
481.622415
 21
512.012554
 31
0.0
  0
LINE
  5
257
330
21F
100
AcDbEntity
  8
0
  6
Continuous
 62
     0
370
    30
100
AcDbLine
 10
481.622415
 20
512.012554
 30
0.0
 11
481.614218
 21
512.169193
 31
0.0
  0
LINE
  5
258
330
21F
100
AcDbEntity
  8
0
  6
Continuous
 62
     0
370
    30
100
AcDbLine
 10
481.614218
 20
512.169193
 30
0.0
 11
481.613069
 21
512.344752
 31
0.0
  0
LINE
  5
259
330
21F
100
AcDbEntity
  8
0
  6
Continuous
 62
     0
370
    30
100
AcDbLine
 10
481.639389
 20
512.336776
 30
0.0
 11
481.640536
 21
512.161451
 31
0.0
  0
LINE
  5
25A
330
21F
100
AcDbEntity
  8
0
  6
Continuous
 62
     0
370
    30
100
AcDbLine
 10
481.640536
 20
512.161451
 30
0.0
 11
481.635797
 21
512.010034
 31
0.0
  0
LINE
  5
25B
330
21F
100
AcDbEntity
  8
0
  6
Continuous
 62
     0
370
    30
100
AcDbLine
 10
481.635797
 20
512.010034
 30
0.0
 11
481.636356
 21
511.595962
 31
0.0
  0
LINE
  5
25C
330
21F
100
AcDbEntity
  8
0
  6
Continuous
 62
     0
370
    30
100
AcDbLine
 10
481.636356
 20
511.595962
 30
0.0
 11
481.641207
 21
509.630887
 31
0.0
  0
LINE
  5
25D
330
21F
100
AcDbEntity
  8
0
  6
Continuous
 62
     0
370
    30
100
AcDbLine
 10
481.641207
 20
509.630887
 30
0.0
 11
481.635029
 21
507.390812
 31
0.0
  0
LINE
  5
25E
330
21F
100
AcDbEntity
  8
0
  6
Continuous
 62
     0
370
    30
100
AcDbLine
 10
481.635029
 20
507.390812
 30
0.0
 11
481.63888
 21
506.829468
 31
0.0
  0
LINE
  5
25F
330
21F
100
AcDbEntity
  8
0
  6
Continuous
 62
     0
370
    30
100
AcDbLine
 10
481.63888
 20
506.829468
 30
0.0
 11
481.637629
 21
506.654754
 31
0.0
  0
LINE
  5
260
330
21F
100
AcDbEntity
  8
0
  6
Continuous
 62
     0
370
    30
100
AcDbLine
 10
481.611423
 20
506.662695
 30
0.0
 11
481.612669
 21
506.837608
 31
0.0
  0
LINE
  5
261
330
21F
100
AcDbEntity
  8
0
  6
Continuous
 62
     0
370
    30
100
AcDbLine
 10
481.612669
 20
506.837608
 30
0.0
 11
481.620672
 21
506.973238
 31
0.0
  0
LINE
  5
262
330
21F
100
AcDbEntity
  8
0
  6
Continuous
 62
     0
370
    30
100
AcDbLine
 10
481.620672
 20
506.973238
 30
0.0
 11
481.625325
 21
507.388462
 31
0.0
  0
LINE
  5
263
330
21F
100
AcDbEntity
  8
0
  6
Continuous
 62
     0
370
    30
100
AcDbLine
 10
481.625325
 20
507.388462
 30
0.0
 11
481.631501
 21
509.528663
 31
0.0
  0
LINE
  5
264
330
21F
100
AcDbEntity
  8
0
  6
Continuous
 62
     0
370
    30
100
AcDbLine
 10
481.575231
 20
509.545715
 30
0.0
 11
481.569207
 21
507.413406
 31
0.0
  0
LINE
  5
265
330
21F
100
AcDbEntity
  8
0
  6
Continuous
 62
     0
370
    30
100
AcDbLine
 10
481.569207
 20
507.413406
 30
0.0
 11
481.569949
 21
506.996099
 31
0.0
  0
LINE
  5
266
330
21F
100
AcDbEntity
  8
0
  6
Continuous
 62
     0
370
    30
100
AcDbLine
 10
481.569949
 20
506.996099
 30
0.0
 11
481.578478
 21
506.848171
 31
0.0
  0
LINE
  5
267
330
21F
100
AcDbEntity
  8
0
  6
Continuous
 62
     0
370
    30
100
AcDbLine
 10
481.578478
 20
506.848171
 30
0.0
 11
481.577237
 21
506.673056
 31
0.0
  0
LINE
  5
268
330
21F
100
AcDbEntity
  8
0
  6
Continuous
 62
     0
370
    30
100
AcDbLine
 10
481.533984
 20
506.686163
 30
0.0
 11
481.535216
 21
506.861081
 31
0.0
  0
LINE
  5
269
330
21F
100
AcDbEntity
  8
0
  6
Continuous
 62
     0
370
    30
100
AcDbLine
 10
481.535216
 20
506.861081
 30
0.0
 11
481.547384
 21
507.000704
 31
0.0
  0
LINE
  5
26A
330
21F
100
AcDbEntity
  8
0
  6
Continuous
 62
     0
370
    30
100
AcDbLine
 10
481.547384
 20
507.000704
 30
0.0
 11
481.553227
 21
507.415595
 31
0.0
  0
LINE
  5
26B
330
21F
100
AcDbEntity
  8
0
  6
Continuous
 62
     0
370
    30
100
AcDbLine
 10
481.553227
 20
507.415595
 30
0.0
 11
481.55924
 21
509.65572
 31
0.0
  0
LINE
  5
26C
330
21F
100
AcDbEntity
  8
0
  6
Continuous
 62
     0
370
    30
100
AcDbLine
 10
481.55924
 20
509.65572
 30
0.0
 11
481.55429
 21
511.620825
 31
0.0
  0
LINE
  5
26D
330
21F
100
AcDbEntity
  8
0
  6
Continuous
 62
     0
370
    30
100
AcDbLine
 10
481.55429
 20
511.620825
 30
0.0
 11
481.536446
 21
512.193012
 31
0.0
  0
LINE
  5
26E
330
21F
100
AcDbEntity
  8
0
  6
Continuous
 62
     0
370
    30
100
AcDbLine
 10
481.536446
 20
512.193012
 30
0.0
 11
481.535291
 21
512.368468
 31
0.0
  0
LINE
  5
26F
330
21F
100
AcDbEntity
  8
0
  6
Continuous
 62
     0
370
    30
100
AcDbLine
 10
481.578731
 20
512.355303
 30
0.0
 11
481.579882
 21
512.179794
 31
0.0
  0
LINE
  5
270
330
21F
100
AcDbEntity
  8
0
  6
Continuous
 62
     0
370
    30
100
AcDbLine
 10
481.579882
 20
512.179794
 30
0.0
 11
481.570941
 21
512.030828
 31
0.0
  0
LINE
  5
271
330
21F
100
AcDbEntity
  8
0
  6
Continuous
 62
     0
370
    30
100
AcDbLine
 10
481.570941
 20
512.030828
 30
0.0
 11
481.570293
 21
511.618621
 31
0.0
  0
LINE
  5
272
330
21F
100
AcDbEntity
  8
0
  6
Continuous
 62
     0
370
    30
100
AcDbLine
 10
481.570293
 20
511.618621
 30
0.0
 11
481.575191
 21
509.816376
 31
0.0
  0
LINE
  5
273
330
21F
100
AcDbEntity
  8
0
  6
Continuous
 62
     0
370
    30
100
AcDbLine
 10
481.631472
 20
509.79932
 30
0.0
 11
481.626636
 21
511.601546
 31
0.0
  0
ENDBLK
  5
275
330
21F
100
AcDbEntity
  8
0
100
AcDbBlockEnd
  0
BLOCK
  5
3EF
330
277
100
AcDbEntity
  8
0
100
AcDbBlockBegin
  2
d
 70
     0
 10
74.615517
 20
111.606232
 30
0.0
  3
d
  1

  0
LWPOLYLINE
  5
278
330
277
100
AcDbEntity
  8
0
  6
Continuous
 62
     0
370
     0
100
AcDbPolyline
 90
       63
 70
     0
 43
0.0
 10
503.463898
 20
207.866394
 10
502.57489
 20
207.37677
 10
501.671722
 20
206.927887
 10
500.75705
 20
206.523682
 10
499.833893
 20
206.167984
 10
498.905518
 20
205.864548
 10
497.975403
 20
205.616898
 10
497.047302
 20
205.428314
 10
496.125092
 20
205.301758
 10
495.212799
 20
205.239822
 10
494.314545
 20
205.244659
 10
493.434479
 20
205.317963
 10
492.576721
 20
205.460846
 10
491.7453
 20
205.673904
 10
490.944122
 20
205.957123
 10
490.17688
 20
206.309906
 10
489.446991
 20
206.731018
 10
488.757599
 20
207.218658
 10
488.11145
 20
207.770493
 10
487.510925
 20
208.383606
 10
486.957977
 20
209.054657
 10
486.454163
 20
209.779846
 10
486.000519
 20
210.555023
 10
485.597687
 20
211.375793
 10
485.24585
 20
212.237488
 10
484.944794
 20
213.13533
 10
484.693909
 20
214.064468
 10
484.492188
 20
215.020035
 10
484.338348
 20
215.997223
 10
484.230774
 20
216.991364
 10
484.167664
 20
217.997925
 10
484.146942
 20
219.012573
 10
484.167145
 20
220.050644
 10
484.229706
 20
221.129578
 10
484.3367
 20
222.247437
 10
484.489929
 20
223.401825
 10
484.69104
 20
224.589905
 10
484.941284
 20
225.80838
 10
485.241699
 20
227.053543
 10
485.592896
 20
228.321228
 10
485.995087
 20
229.606949
 10
486.44809
 20
230.905823
 10
486.951263
 20
232.212708
 10
487.503601
 20
233.522232
 10
488.103516
 20
234.828842
 10
488.749084
 20
236.126923
 10
489.437958
 20
237.410843
 10
490.167358
 20
238.675034
 10
490.934143
 20
239.914108
 10
491.734924
 20
241.122864
 10
492.565979
 20
242.296432
 10
493.423431
 20
243.430313
 10
494.303223
 20
244.520401
 10
495.201294
 20
245.563095
 10
496.113434
 20
246.555237
 10
497.035553
 20
247.494263
 10
497.963593
 20
248.378067
 10
498.893707
 20
249.205139
 10
499.822113
 20
249.974442
 10
500.745361
 20
250.685455
 10
501.660156
 20
251.33815
 10
502.563507
 20
251.932907
 10
503.463898
 20
252.47699
  0
LWPOLYLINE
  5
279
330
277
100
AcDbEntity
  8
0
  6
Continuous
 62
     0
370
     0
100
AcDbPolyline
 90
       63
 70
     0
 43
0.0
 10
503.463898
 20
252.47699
 10
504.352875
 20
252.966599
 10
505.256042
 20
253.415482
 10
506.170715
 20
253.819702
 10
507.093872
 20
254.175385
 10
508.022247
 20
254.478821
 10
508.952362
 20
254.726471
 10
509.880463
 20
254.91507
 10
510.802673
 20
255.041626
 10
511.714966
 20
255.103561
 10
512.61322
 20
255.098709
 10
513.493286
 20
255.025421
 10
514.351074
 20
254.882538
 10
515.182495
 20
254.669464
 10
515.983643
 20
254.386246
 10
516.750916
 20
254.033478
 10
517.480774
 20
253.612366
 10
518.170166
 20
253.12471
 10
518.816345
 20
252.572891
 10
519.41687
 20
251.959763
 10
519.969788
 20
251.288727
 10
520.473633
 20
250.563538
 10
520.927246
 20
249.788345
 10
521.330078
 20
248.96759
 10
521.681885
 20
248.105881
 10
521.982971
 20
247.208038
 10
522.233887
 20
246.278915
 10
522.435547
 20
245.323349
 10
522.589417
 20
244.346146
 10
522.69696
 20
243.352005
 10
522.760132
 20
242.345459
 10
522.780823
 20
241.330795
 10
522.76062
 20
240.29274
 10
522.698059
 20
239.213791
 10
522.591064
 20
238.095932
 10
522.437805
 20
236.941544
 10
522.236755
 20
235.753479
 10
521.98645
 20
234.534988
 10
521.686035
 20
233.289841
 10
521.3349
 20
232.022141
 10
520.932678
 20
230.73642
 10
520.479675
 20
229.437546
 10
519.976501
 20
228.130661
 10
519.424194
 20
226.821136
 10
518.82428
 20
225.514526
 10
518.17865
 20
224.216446
 10
517.489807
 20
222.932526
 10
516.760437
 20
221.668335
 10
515.993652
 20
220.429276
 10
515.192871
 20
219.22052
 10
514.361816
 20
218.046936
 10
513.504333
 20
216.913055
 10
512.624512
 20
215.822968
 10
511.726471
 20
214.780289
 10
510.814331
 20
213.788132
 10
509.892212
 20
212.849121
 10
508.964172
 20
211.965302
 10
508.034058
 20
211.138245
 10
507.105652
 20
210.368942
 10
506.182404
 20
209.657913
 10
505.267609
 20
209.005234
 10
504.364258
 20
208.410477
 10
503.463898
 20
207.866394
  0
LWPOLYLINE
  5
27A
330
277
100
AcDbEntity
  8
0
  6
Continuous
 62
     0
370
     0
100
AcDbPolyline
 90
       17
 70
     0
 43
0.0
 10
502.758423
 20
253.645004
 10
503.777832
 20
254.203461
 10
504.794586
 20
254.700348
 10
505.80603
 20
255.134476
 10
506.80954
 20
255.504608
 10
507.80246
 20
255.809662
 10
508.782257
 20
256.049011
 10
509.746368
 20
256.222076
 10
510.692261
 20
256.328278
 10
511.617462
 20
256.367279
 10
512.519592
 20
256.339142
 10
513.396301
 20
256.243958
 10
514.245239
 20
256.081818
 10
515.06427
 20
255.853149
 10
515.851257
 20
255.558685
 10
516.604126
 20
255.199188
 10
517.349426
 20
254.756714
  0
LWPOLYLINE
  5
27B
330
277
100
AcDbEntity
  8
0
  6
Continuous
 62
     0
370
     0
100
AcDbPolyline
 90
       46
 70
     0
 43
0.0
 10
488.634369
 20
206.113235
 10
487.914459
 20
206.573654
 10
487.235229
 20
207.099777
 10
486.598633
 20
207.689941
 10
486.006592
 20
208.342407
 10
485.460754
 20
209.055435
 10
484.962311
 20
209.827118
 10
484.512451
 20
210.655594
 10
484.112305
 20
211.539017
 10
483.763031
 20
212.475067
 10
483.465576
 20
213.460983
 10
483.220917
 20
214.493988
 10
483.029907
 20
215.571213
 10
482.893036
 20
216.689499
 10
482.810547
 20
217.845459
 10
482.782654
 20
219.03569
 10
482.809509
 20
220.256882
 10
482.890869
 20
221.50592
 10
483.026489
 20
222.77977
 10
483.216187
 20
224.0755
 10
483.459564
 20
225.389816
 10
483.755798
 20
226.718887
 10
484.104095
 20
228.058716
 10
484.50351
 20
229.405396
 10
484.953003
 20
230.755081
 10
485.451202
 20
232.104187
 10
485.996796
 20
233.449081
 10
486.588348
 20
234.786118
 10
487.224243
 20
236.111679
 10
487.902679
 20
237.422134
 10
488.621765
 20
238.713837
 10
489.379669
 20
239.983215
 10
490.174194
 20
241.226822
 10
491.003174
 20
242.441284
 10
491.86438
 20
243.62323
 10
492.755463
 20
244.769379
 10
493.67392
 20
245.876694
 10
494.617279
 20
246.942139
 10
495.582916
 20
247.962708
 10
496.568268
 20
248.935608
 10
497.570557
 20
249.858261
 10
498.587036
 20
250.728134
 10
499.61496
 20
251.542709
 10
500.65152
 20
252.299835
 10
501.693848
 20
252.997528
 10
502.758423
 20
253.645004
  0
ELLIPSE
  5
27C
330
277
100
AcDbEntity
  8
0
  6
Continuous
 62
     0
370
    30
100
AcDbEllipse
 10
491.043642
 20
237.342517
 30
0.0
 11
14.12500000000001
 21
24.4652176569104
 31
0.0
210
0.0
220
0.0
230
1.0
 40
0.57735
 41
-0.0000000228501573
 42
0.7853981633974367
  0
ELLIPSE
  5
27D
330
277
100
AcDbEntity
  8
0
  6
Continuous
 62
     0
370
    30
100
AcDbEllipse
 10
491.043642
 20
237.342517
 30
0.0
 11
14.12500000000001
 21
24.4652176569104
 31
0.0
210
0.0
220
0.0
230
1.0
 40
0.57735
 41
0.7853981633974367
 42
3.141592630739637
  0
ELLIPSE
  5
27E
330
277
100
AcDbEntity
  8
0
  6
Continuous
 62
     0
370
    30
100
AcDbEllipse
 10
490.462601
 20
237.677981
 30
0.0
 11
-15.25
 21
-26.41377481542538
 31
0.0
210
0.0
220
0.0
230
-1.0
 40
0.57735
 41
1.362720482859841
 42
3.528104729180091
  0
ELLIPSE
  5
27F
330
277
100
AcDbEntity
  8
0
  6
Continuous
 62
     0
370
    30
100
AcDbEllipse
 10
490.462601
 20
237.677981
 30
0.0
 11
-15.25
 21
-26.41377481542538
 31
0.0
210
0.0
220
0.0
230
-1.0
 40
0.57735
 41
5.896673277289596
 42
7.645905790039426
  0
ELLIPSE
  5
280
330
277
100
AcDbEntity
  8
0
  6
Continuous
 62
     0
370
    30
100
AcDbEllipse
 10
489.33123
 20
238.331179
 30
0.0
 11
15.25
 21
26.41377481542538
 31
0.0
210
0.0
220
0.0
230
1.0
 40
0.57735
 41
1.778872170729953
 42
3.141592630739638
  0
ELLIPSE
  5
281
330
277
100
AcDbEntity
  8
0
  6
Continuous
 62
     0
370
    30
100
AcDbEllipse
 10
489.33123
 20
238.331179
 30
0.0
 11
15.25
 21
26.41377481542538
 31
0.0
210
0.0
220
0.0
230
1.0
 40
0.57735
 41
-0.0000000228501555
 42
1.778872170729952
  0
ELLIPSE
  5
282
330
277
100
AcDbEntity
  8
0
  6
Continuous
 62
     0
370
    30
100
AcDbEllipse
 10
485.23001
 20
240.699019
 30
0.0
 11
14.725
 21
25.50444814145172
 31
0.0
210
0.0
220
0.0
230
1.0
 40
0.57735
 41
1.778872170729953
 42
3.141592630739636
  0
ELLIPSE
  5
283
330
277
100
AcDbEntity
  8
0
  6
Continuous
 62
     0
370
    30
100
AcDbEllipse
 10
485.23001
 20
240.699019
 30
0.0
 11
14.725
 21
25.50444814145172
 31
0.0
210
0.0
220
0.0
230
1.0
 40
0.57735
 41
-0.0000000228501564
 42
1.778872170729952
  0
LWPOLYLINE
  5
284
330
277
100
AcDbEntity
  8
0
  6
Continuous
 62
     0
370
    30
100
AcDbPolyline
 90
       32
 70
     0
 43
0.0
 10
467.15863
 20
243.857208
 10
466.662384
 20
242.647507
 10
466.193848
 20
241.413132
 10
465.756042
 20
240.157089
 10
465.35202
 20
238.882721
 10
464.984772
 20
237.59375
 10
464.657166
 20
236.294159
 10
464.371979
 20
234.988312
 10
464.131805
 20
233.680756
 10
463.939026
 20
232.376312
 10
463.795746
 20
231.079987
 10
463.703796
 20
229.796875
 10
463.664642
 20
228.532166
 10
463.679474
 20
227.291031
 10
463.748993
 20
226.078568
 10
463.873535
 20
224.89978
 10
464.053009
 20
223.759445
 10
464.286896
 20
222.662048
 10
464.57431
 20
221.611816
 10
464.913849
 20
220.612564
 10
465.303833
 20
219.667679
 10
465.742157
 20
218.780106
 10
466.22641
 20
217.952286
 10
466.753906
 20
217.186172
 10
467.321686
 20
216.4832
 10
467.926605
 20
215.844299
 10
468.565369
 20
215.269897
 10
469.234558
 20
214.759918
 10
469.930756
 20
214.313873
 10
470.650421
 20
213.930801
 10
471.390137
 20
213.609421
 10
472.169128
 20
213.341202
  0
LWPOLYLINE
  5
285
330
277
100
AcDbEntity
  8
0
  6
Continuous
 62
     0
370
    30
100
AcDbPolyline
 90
       39
 70
     0
 43
0.0
 10
502.39212
 20
265.688995
 10
501.708527
 20
266.278717
 10
500.992035
 20
266.796631
 10
500.246735
 20
267.243408
 10
499.476746
 20
267.620392
 10
498.686066
 20
267.92926
 10
497.878723
 20
268.172211
 10
497.058502
 20
268.351654
 10
496.21521
 20
268.471863
 10
495.332611
 20
268.533661
 10
494.411926
 20
268.533661
 10
493.454834
 20
268.468689
 10
492.463409
 20
268.335907
 10
491.440125
 20
268.132812
 10
490.387817
 20
267.857361
 10
489.309814
 20
267.507996
 10
488.209686
 20
267.083649
 10
487.091461
 20
266.583954
 10
485.959381
 20
266.009033
 10
484.817993
 20
265.359741
 10
483.672028
 20
264.637604
 10
482.526337
 20
263.844727
 10
481.385864
 20
262.983948
 10
480.255493
 20
262.058624
 10
479.140137
 20
261.072723
 10
478.044495
 20
260.030762
 10
476.973053
 20
258.937592
 10
475.930084
 20
257.798553
 10
474.919495
 20
256.619141
 10
473.944824
 20
255.405182
 10
473.009216
 20
254.162506
 10
472.115417
 20
252.897034
 10
471.265656
 20
251.614624
 10
470.461761
 20
250.320984
 10
469.705109
 20
249.021637
 10
468.996613
 20
247.721848
 10
468.336792
 20
246.42662
 10
467.725739
 20
245.140533
 10
467.15863
 20
243.857208
  0
ELLIPSE
  5
286
330
277
100
AcDbEntity
  8
0
  6
Continuous
 62
     0
370
    30
100
AcDbEllipse
 10
484.09864
 20
241.352216
 30
0.0
 11
15.25
 21
26.41377481542538
 31
0.0
210
0.0
220
0.0
230
1.0
 40
0.57735
 41
1.778872170729953
 42
3.141592630739636
  0
ELLIPSE
  5
287
330
277
100
AcDbEntity
  8
0
  6
Continuous
 62
     0
370
    30
100
AcDbEllipse
 10
484.09864
 20
241.352216
 30
0.0
 11
15.25
 21
26.41377481542538
 31
0.0
210
0.0
220
0.0
230
1.0
 40
0.57735
 41
-0.0000000228501564
 42
1.778872170729952
  0
LINE
  5
288
330
277
100
AcDbEntity
  8
0
  6
Continuous
 62
     0
370
    30
100
AcDbLine
 10
505.168642
 20
261.807735
 30
0.0
 11
516.883427
 21
255.0442
 31
0.0
  0
LINE
  5
289
330
277
100
AcDbEntity
  8
0
  6
Continuous
 62
     0
370
    30
100
AcDbLine
 10
476.918641
 20
212.8773
 30
0.0
 11
488.633427
 21
206.113765
 31
0.0
  0
LINE
  5
28A
330
277
100
AcDbEntity
  8
0
  6
Continuous
 62
     0
370
    30
100
AcDbLine
 10
488.634355
 20
206.113229
 30
0.0
 11
489.149817
 21
205.835328
 31
0.0
  0
LINE
  5
28B
330
277
100
AcDbEntity
  8
0
  6
Continuous
 62
     0
370
    30
100
AcDbLine
 10
516.883295
 20
255.044277
 30
0.0
 11
517.38191
 21
254.736693
 31
0.0
  0
LWPOLYLINE
  5
28C
330
277
100
AcDbEntity
  8
0
  6
Continuous
 62
     0
370
    30
100
AcDbPolyline
 90
       47
 70
     0
 43
0.0
 10
503.258331
 20
207.463379
 10
504.281067
 20
208.084122
 10
505.299866
 20
208.762863
 10
506.31192
 20
209.497665
 10
507.314453
 20
210.28656
 10
508.305054
 20
211.127304
 10
509.28125
 20
212.017609
 10
510.240753
 20
212.955154
 10
511.181152
 20
213.937637
 10
512.100037
 20
214.962723
 10
512.995178
 20
216.02803
 10
513.864258
 20
217.130707
 10
514.705383
 20
218.26767
 10
515.516357
 20
219.435913
 10
516.295166
 20
220.63237
 10
517.039673
 20
221.853989
 10
517.747925
 20
223.097763
 10
518.417725
 20
224.360611
 10
519.047424
 20
225.639359
 10
519.63562
 20
226.930634
 10
520.181091
 20
228.231094
 10
520.682312
 20
229.537369
 10
521.138123
 20
230.846085
 10
521.547058
 20
232.1539
 10
521.907898
 20
233.457443
 10
522.21936
 20
234.753418
 10
522.480896
 20
236.038712
 10
522.691956
 20
237.310257
 10
522.852173
 20
238.565018
 10
522.960999
 20
239.799896
 10
523.017883
 20
241.011841
 10
523.0224
 20
242.1978
 10
522.974121
 20
243.354706
 10
522.872925
 20
244.479797
 10
522.718933
 20
245.570496
 10
522.512512
 20
246.624191
 10
522.253723
 20
247.638306
 10
521.94281
 20
248.610245
 10
521.580017
 20
249.537445
 10
521.165527
 20
250.417297
 10
520.700012
 20
251.247253
 10
520.184265
 20
252.024811
 10
519.619202
 20
252.747406
 10
519.005676
 20
253.412506
 10
518.345642
 20
254.017456
 10
517.642273
 20
254.559357
 10
516.883301
 20
255.044281
  0
LWPOLYLINE
  5
28D
330
277
100
AcDbEntity
  8
0
  6
Continuous
 62
     0
370
    30
100
AcDbPolyline
 90
       17
 70
     0
 43
0.0
 10
503.258331
 20
207.463379
 10
502.272797
 20
206.922409
 10
501.286682
 20
206.437302
 10
500.302368
 20
206.009491
 10
499.322144
 20
205.640381
 10
498.348145
 20
205.33107
 10
497.382477
 20
205.082443
 10
496.427277
 20
204.895432
 10
495.48465
 20
204.770966
 10
494.556671
 20
204.709915
 10
493.64563
 20
204.712967
 10
492.753876
 20
204.780518
 10
491.88382
 20
204.912933
 10
491.037842
 20
205.11055
 10
490.218689
 20
205.373337
 10
489.429932
 20
205.700165
 10
488.634369
 20
206.113235
  0
LWPOLYLINE
  5
28E
330
277
100
AcDbEntity
  8
0
  6
Continuous
 62
     0
370
     0
100
AcDbPolyline
 90
       63
 70
     0
 43
0.0
 10
644.885254
 20
334.126617
 10
643.996277
 20
333.589722
 10
643.093079
 20
332.995697
 10
642.178406
 20
332.34375
 10
641.255249
 20
331.633484
 10
640.326904
 20
330.864899
 10
639.39679
 20
330.038574
 10
638.468689
 20
329.155487
 10
637.546448
 20
328.217163
 10
636.634155
 20
327.225647
 10
635.735901
 20
326.183594
 10
634.855835
 20
325.094086
 10
633.998047
 20
323.960724
 10
633.166626
 20
322.787628
 10
632.365479
 20
321.579315
 10
631.598206
 20
320.340576
 10
630.868347
 20
319.076691
 10
630.178955
 20
317.792969
 10
629.532776
 20
316.495056
 10
628.932251
 20
315.188507
 10
628.379333
 20
313.878998
 10
627.875488
 20
312.572021
 10
627.421875
 20
311.27301
 10
627.019043
 20
309.987091
 10
626.667175
 20
308.719147
 10
626.36615
 20
307.473694
 10
626.115234
 20
306.254852
 10
625.913513
 20
305.066345
 10
625.759705
 20
303.91153
 10
625.652161
 20
302.793182
 10
625.588989
 20
301.713745
 10
625.568298
 20
300.67514
 10
625.588501
 20
299.6604
 10
625.651062
 20
298.653717
 10
625.758057
 20
297.659393
 10
625.911316
 20
296.681946
 10
626.112366
 20
295.726074
 10
626.362671
 20
294.7966
 10
626.663025
 20
293.898315
 10
627.014221
 20
293.036133
 10
627.416443
 20
292.214813
 10
627.869446
 20
291.439026
 10
628.37262
 20
290.713165
 10
628.924927
 20
290.041412
 10
629.524841
 20
289.427521
 10
630.17041
 20
288.874908
 10
630.859314
 20
288.386414
 10
631.588684
 20
287.964447
 10
632.355469
 20
287.610809
 10
633.15625
 20
287.326691
 10
633.987305
 20
287.112732
 10
634.844788
 20
286.968964
 10
635.724548
 20
286.894775
 10
636.62262
 20
286.889069
 10
637.53479
 20
286.950165
 10
638.456909
 20
287.075928
 10
639.384949
 20
287.263733
 10
640.315063
 20
287.510681
 10
641.243469
 20
287.813416
 10
642.166687
 20
288.168457
 10
643.081482
 20
288.572083
 10
643.984863
 20
289.020416
 10
644.885193
 20
289.516022
  0
LWPOLYLINE
  5
28F
330
277
100
AcDbEntity
  8
0
  6
Continuous
 62
     0
370
     0
100
AcDbPolyline
 90
       63
 70
     0
 43
0.0
 10
644.885193
 20
289.516022
 10
645.774231
 20
290.052887
 10
646.677368
 20
290.646912
 10
647.592041
 20
291.298889
 10
648.515198
 20
292.009155
 10
649.443604
 20
292.77771
 10
650.373657
 20
293.604065
 10
651.301819
 20
294.487152
 10
652.223999
 20
295.425476
 10
653.136292
 20
296.416962
 10
654.034546
 20
297.459015
 10
654.914612
 20
298.548553
 10
655.7724
 20
299.681885
 10
656.603821
 20
300.85498
 10
657.404968
 20
302.063324
 10
658.172241
 20
303.302032
 10
658.9021
 20
304.565948
 10
659.591492
 20
305.84964
 10
660.237671
 20
307.147583
 10
660.838196
 20
308.454132
 10
661.391113
 20
309.763641
 10
661.894958
 20
311.070587
 10
662.348572
 20
312.369598
 10
662.751404
 20
313.655518
 10
663.103271
 20
314.923462
 10
663.404297
 20
316.168945
 10
663.655212
 20
317.387787
 10
663.856934
 20
318.576263
 10
664.010742
 20
319.73111
 10
664.118347
 20
320.849457
 10
664.181458
 20
321.928894
 10
664.202148
 20
322.967499
 10
664.181946
 20
323.982208
 10
664.119385
 20
324.988892
 10
664.01239
 20
325.983215
 10
663.859192
 20
326.960663
 10
663.658081
 20
327.916534
 10
663.407837
 20
328.846039
 10
663.107422
 20
329.744324
 10
662.756226
 20
330.606506
 10
662.354065
 20
331.427795
 10
661.901062
 20
332.203613
 10
661.397827
 20
332.929443
 10
660.84552
 20
333.601227
 10
660.245605
 20
334.215088
 10
659.600037
 20
334.767731
 10
658.911133
 20
335.256195
 10
658.181763
 20
335.678162
 10
657.414978
 20
336.03183
 10
656.614197
 20
336.315948
 10
655.783142
 20
336.529877
 10
654.92572
 20
336.673676
 10
654.045898
 20
336.747833
 10
653.147827
 20
336.75354
 10
652.235718
 20
336.692444
 10
651.313599
 20
336.566681
 10
650.385498
 20
336.378876
 10
649.455444
 20
336.131958
 10
648.526978
 20
335.829193
 10
647.60376
 20
335.474152
 10
646.688965
 20
335.070526
 10
645.785645
 20
334.622192
 10
644.885254
 20
334.126617
  0
LWPOLYLINE
  5
290
330
277
100
AcDbEntity
  8
0
  6
Continuous
 62
     0
370
     0
100
AcDbPolyline
 90
       16
 70
     0
 43
0.0
 10
658.304626
 20
336.693909
 10
657.546875
 20
337.0867
 10
656.752563
 20
337.41153
 10
655.92395
 20
337.667603
 10
655.063232
 20
337.854065
 10
654.172668
 20
337.970337
 10
653.254761
 20
338.016296
 10
652.312134
 20
337.991821
 10
651.347168
 20
337.89682
 10
650.362671
 20
337.731537
 10
649.361206
 20
337.496613
 10
648.345642
 20
337.192627
 10
647.318665
 20
336.820282
 10
646.283081
 20
336.380676
 10
645.24176
 20
335.875092
 10
644.17981
 20
335.294647
  0
LWPOLYLINE
  5
291
330
277
100
AcDbEntity
  8
0
  6
Continuous
 62
     0
370
     0
100
AcDbPolyline
 90
       46
 70
     0
 43
0.0
 10
644.17981
 20
335.294647
 10
643.119263
 20
334.64978
 10
642.061768
 20
333.941681
 10
641.010193
 20
333.172424
 10
639.96759
 20
332.344086
 10
638.93689
 20
331.458923
 10
637.920959
 20
330.519592
 10
636.922668
 20
329.528687
 10
635.944824
 20
328.488953
 10
634.990295
 20
327.40332
 10
634.061584
 20
326.274933
 10
633.161438
 20
325.106964
 10
632.292419
 20
323.902618
 10
631.456909
 20
322.665344
 10
630.657227
 20
321.398651
 10
629.895752
 20
320.106079
 10
629.174561
 20
318.79126
 10
628.495667
 20
317.457947
 10
627.860962
 20
316.109924
 10
627.272339
 20
314.751007
 10
626.731506
 20
313.384979
 10
626.239746
 20
312.015656
 10
625.798584
 20
310.646759
 10
625.409302
 20
309.282166
 10
625.072998
 20
307.925873
 10
624.790527
 20
306.582031
 10
624.562805
 20
305.254761
 10
624.390503
 20
303.947937
 10
624.273987
 20
302.664764
 10
624.213379
 20
301.408356
 10
624.209045
 20
300.181885
 10
624.261047
 20
298.988708
 10
624.369141
 20
297.832336
 10
624.533081
 20
296.716278
 10
624.752563
 20
295.644073
 10
625.026917
 20
294.618835
 10
625.355164
 20
293.643463
 10
625.736206
 20
292.720886
 10
626.169006
 20
291.853821
 10
626.652405
 20
291.044342
 10
627.18512
 20
290.294373
 10
627.76593
 20
289.605927
 10
628.393433
 20
288.980865
 10
629.065613
 20
288.42099
 10
629.780457
 20
287.928101
 10
630.537598
 20
287.503052
  0
ELLIPSE
  5
292
330
277
100
AcDbEntity
  8
0
  6
Continuous
 62
     0
370
    30
100
AcDbEllipse
 10
632.464987
 20
318.99214
 30
0.0
 11
-14.1249963017515
 21
-24.46521979209481
 31
0.0
210
0.0
220
0.0
230
-1.0
 40
0.57735
 41
2.356195106829542
 42
3.141592676439951
  0
ELLIPSE
  5
293
330
277
100
AcDbEntity
  8
0
  6
Continuous
 62
     0
370
    30
100
AcDbEllipse
 10
632.464987
 20
318.99214
 30
0.0
 11
-14.1249963017515
 21
-24.46521979209481
 31
0.0
210
0.0
220
0.0
230
-1.0
 40
0.57735
 41
0.0000000228501573
 42
2.356195106829542
  0
ELLIPSE
  5
294
330
277
100
AcDbEntity
  8
0
  6
Continuous
 62
     0
370
    30
100
AcDbEllipse
 10
630.752574
 20
319.980801
 30
0.0
 11
-15.24999600720073
 21
-26.41377712066871
 31
0.0
210
0.0
220
0.0
230
-1.0
 40
0.57735
 41
0.2080764605722659
 42
3.141592676439953
  0
ELLIPSE
  5
295
330
277
100
AcDbEntity
  8
0
  6
Continuous
 62
     0
370
    30
100
AcDbEllipse
 10
630.752574
 20
319.980801
 30
0.0
 11
-15.24999600720073
 21
-26.41377712066871
 31
0.0
210
0.0
220
0.0
230
-1.0
 40
0.57735
 41
0.0000000228501575
 42
0.2080764605722659
  0
ELLIPSE
  5
296
330
277
100
AcDbEntity
  8
0
  6
Continuous
 62
     0
370
    30
100
AcDbEllipse
 10
631.883945
 20
319.327604
 30
0.0
 11
15.24999600720073
 21
26.41377712066871
 31
0.0
210
0.0
220
0.0
230
1.0
 40
0.57735
 41
5.89667323158931
 42
6.07510884660732
  0
ELLIPSE
  5
297
330
277
100
AcDbEntity
  8
0
  6
Continuous
 62
     0
370
    30
100
AcDbEllipse
 10
631.883945
 20
319.327604
 30
0.0
 11
15.24999600720073
 21
26.41377712066871
 31
0.0
210
0.0
220
0.0
230
1.0
 40
0.57735
 41
2.933516193017528
 42
3.528104683479805
  0
ELLIPSE
  5
298
330
277
100
AcDbEntity
  8
0
  6
Continuous
 62
     0
370
    30
100
AcDbEllipse
 10
631.883945
 20
319.327604
 30
0.0
 11
15.24999600720073
 21
26.41377712066871
 31
0.0
210
0.0
220
0.0
230
1.0
 40
0.57735
 41
6.07510884660732
 42
9.216701500197114
  0
ELLIPSE
  5
299
330
277
100
AcDbEntity
  8
0
  6
Continuous
 62
     0
370
    30
100
AcDbEllipse
 10
626.651354
 20
322.348641
 30
0.0
 11
-14.72499614465776
 21
-25.50445036733422
 31
0.0
210
0.0
220
0.0
230
-1.0
 40
0.57735
 41
0.2080764605722651
 42
3.14159267643995
  0
ELLIPSE
  5
29A
330
277
100
AcDbEntity
  8
0
  6
Continuous
 62
     0
370
    30
100
AcDbEllipse
 10
626.651354
 20
322.348641
 30
0.0
 11
-14.72499614465776
 21
-25.50445036733422
 31
0.0
210
0.0
220
0.0
230
-1.0
 40
0.57735
 41
0.000000022850158
 42
0.2080764605722651
  0
LWPOLYLINE
  5
29B
330
277
100
AcDbEntity
  8
0
  6
Continuous
 62
     0
370
    30
100
AcDbPolyline
 90
       63
 70
     0
 43
0.0
 10
608.579956
 20
298.323456
 10
608.070312
 20
298.978638
 10
607.589966
 20
299.693726
 10
607.142334
 20
300.469208
 10
606.730591
 20
301.305267
 10
606.358093
 20
302.201538
 10
606.027893
 20
303.157257
 10
605.74292
 20
304.171112
 10
605.506042
 20
305.241241
 10
605.319763
 20
306.365356
 10
605.186279
 20
307.540527
 10
605.107483
 20
308.763367
 10
605.0849
 20
310.030029
 10
605.119629
 20
311.336121
 10
605.21228
 20
312.67691
 10
605.363159
 20
314.047272
 10
605.571838
 20
315.441803
 10
605.837585
 20
316.854889
 10
606.159302
 20
318.280731
 10
606.535217
 20
319.713501
 10
606.963318
 20
321.147369
 10
607.44104
 20
322.576538
 10
607.965698
 20
323.995483
 10
608.53418
 20
325.398804
 10
609.143066
 20
326.781464
 10
609.78894
 20
328.138733
 10
610.468018
 20
329.466248
 10
611.176636
 20
330.760132
 10
611.91095
 20
332.016876
 10
612.667297
 20
333.233521
 10
613.441833
 20
334.407471
 10
614.231079
 20
335.536652
 10
615.032043
 20
336.620087
 10
615.861328
 20
337.681335
 10
616.727661
 20
338.72934
 10
617.629639
 20
339.759521
 10
618.565796
 20
340.767212
 10
619.53418
 20
341.747559
 10
620.532349
 20
342.695587
 10
621.557678
 20
343.606415
 10
622.607178
 20
344.475128
 10
623.67749
 20
345.296906
 10
624.764893
 20
346.067169
 10
625.865417
 20
346.781494
 10
626.975037
 20
347.435852
 10
628.089355
 20
348.026581
 10
629.203857
 20
348.550446
 10
630.314026
 20
349.0047
 10
631.415405
 20
349.387146
 10
632.503418
 20
349.696167
 10
633.573792
 20
349.930756
 10
634.622192
 20
350.090485
 10
635.644775
 20
350.175568
 10
636.637817
 20
350.186798
 10
637.5979
 20
350.125519
 10
638.522034
 20
349.993591
 10
639.407532
 20
349.793427
 10
640.252197
 20
349.527832
 10
641.054199
 20
349.199951
 10
641.812073
 20
348.813385
 10
642.524719
 20
348.371796
 10
643.191589
 20
347.879211
 10
643.813477
 20
347.338623
  0
ARC
  5
29C
330
277
100
AcDbEntity
  8
0
  6
Continuous
 62
     0
370
    30
100
AcDbCircle
 10
616.574907
 20
304.910709
 30
0.0
 40
10.35909793600894
100
AcDbArc
 50
219.486167
 51
253.255848
  0
ELLIPSE
  5
29D
330
277
100
AcDbEntity
  8
0
  6
Continuous
 62
     0
370
    30
100
AcDbEllipse
 10
625.519983
 20
323.001838
 30
0.0
 11
-15.24999600720073
 21
-26.41377712066871
 31
0.0
210
0.0
220
0.0
230
-1.0
 40
0.57735
 41
0.208076460572265
 42
3.141592676439948
  0
ELLIPSE
  5
29E
330
277
100
AcDbEntity
  8
0
  6
Continuous
 62
     0
370
    30
100
AcDbEllipse
 10
625.519983
 20
323.001838
 30
0.0
 11
-15.24999600720073
 21
-26.41377712066871
 31
0.0
210
0.0
220
0.0
230
-1.0
 40
0.57735
 41
0.0000000228501569
 42
0.208076460572265
  0
LINE
  5
29F
330
277
100
AcDbEntity
  8
0
  6
Continuous
 62
     0
370
    30
100
AcDbLine
 10
630.054777
 20
287.763387
 30
0.0
 11
618.33999
 21
294.52692
 31
0.0
  0
LINE
  5
2A0
330
277
100
AcDbEntity
  8
0
  6
Continuous
 62
     0
370
    30
100
AcDbLine
 10
658.304771
 20
336.693826
 30
0.0
 11
646.589983
 21
343.457359
 31
0.0
  0
LINE
  5
2A1
330
277
100
AcDbEntity
  8
0
  6
Continuous
 62
     0
370
    30
100
AcDbLine
 10
658.304638
 20
336.693903
 30
0.0
 11
658.803253
 21
336.386319
 31
0.0
  0
LINE
  5
2A2
330
277
100
AcDbEntity
  8
0
  6
Continuous
 62
     0
370
    30
100
AcDbLine
 10
630.055706
 20
287.762851
 30
0.0
 11
630.571168
 21
287.48495
 31
0.0
  0
LWPOLYLINE
  5
2A3
330
277
100
AcDbEntity
  8
0
  6
Continuous
 62
     0
370
    30
100
AcDbPolyline
 90
       17
 70
     0
 43
0.0
 10
644.679688
 20
289.112976
 10
643.694092
 20
288.572021
 10
642.708008
 20
288.086914
 10
641.723694
 20
287.659119
 10
640.743469
 20
287.290009
 10
639.76947
 20
286.980682
 10
638.803833
 20
286.732056
 10
637.848633
 20
286.545074
 10
636.906006
 20
286.420593
 10
635.978027
 20
286.359528
 10
635.066956
 20
286.36261
 10
634.175232
 20
286.430145
 10
633.305176
 20
286.562561
 10
632.459167
 20
286.760162
 10
631.640015
 20
287.022949
 10
630.851257
 20
287.349792
 10
630.055725
 20
287.762848
  0
LWPOLYLINE
  5
2A4
330
277
100
AcDbEntity
  8
0
  6
Continuous
 62
     0
370
    30
100
AcDbPolyline
 90
       47
 70
     0
 43
0.0
 10
644.679688
 20
289.112976
 10
645.702393
 20
289.733734
 10
646.721191
 20
290.412476
 10
647.733276
 20
291.147278
 10
648.735779
 20
291.936188
 10
649.726379
 20
292.776917
 10
650.702576
 20
293.667236
 10
651.662109
 20
294.604767
 10
652.602478
 20
295.58725
 10
653.521423
 20
296.612335
 10
654.416504
 20
297.677643
 10
655.285645
 20
298.780304
 10
656.126709
 20
299.917297
 10
656.937683
 20
301.08551
 10
657.716492
 20
302.281982
 10
658.46106
 20
303.503601
 10
659.16925
 20
304.747375
 10
659.83905
 20
306.010223
 10
660.46875
 20
307.288971
 10
661.057007
 20
308.580261
 10
661.602417
 20
309.880707
 10
662.103699
 20
311.186981
 10
662.559448
 20
312.495697
 10
662.968445
 20
313.803528
 10
663.329224
 20
315.107056
 10
663.640686
 20
316.403046
 10
663.902222
 20
317.688324
 10
664.113342
 20
318.959869
 10
664.27356
 20
320.21463
 10
664.382324
 20
321.449524
 10
664.439209
 20
322.661469
 10
664.443787
 20
323.847412
 10
664.395447
 20
325.004333
 10
664.29425
 20
326.129425
 10
664.14032
 20
327.220123
 10
663.933838
 20
328.273804
 10
663.675049
 20
329.287933
 10
663.364197
 20
330.259857
 10
663.001343
 20
331.187073
 10
662.586853
 20
332.066925
 10
662.121338
 20
332.896881
 10
661.605591
 20
333.674438
 10
661.040527
 20
334.397034
 10
660.427002
 20
335.062134
 10
659.767029
 20
335.667084
 10
659.063599
 20
336.208984
 10
658.304626
 20
336.693909
  0
ELLIPSE
  5
2A5
330
277
100
AcDbEntity
  8
0
  6
Continuous
 62
     0
370
     0
100
AcDbEllipse
 10
709.807134
 20
134.105385
 30
0.0
 11
-10.99999940989609
 21
6.106226307864890E-16
 31
0.0
210
0.0
220
0.0
230
1.0
 40
0.57735
 41
0.8167845383877159
 42
3.141651270662538
  0
ELLIPSE
  5
2A6
330
277
100
AcDbEntity
  8
0
  6
Continuous
 62
     0
370
     0
100
AcDbEllipse
 10
709.807134
 20
134.105385
 30
0.0
 11
-10.99999940989609
 21
6.106226307864890E-16
 31
0.0
210
0.0
220
0.0
230
1.0
 40
0.57735
 41
-0.000000008639689
 42
0.8167845383877159
  0
ELLIPSE
  5
2A7
330
277
100
AcDbEntity
  8
0
  6
Continuous
 62
     0
370
     0
100
AcDbEllipse
 10
709.807134
 20
150.027068
 30
0.0
 11
12.0
 21
-6.661338147750937E-16
 31
0.0
210
0.0
220
0.0
230
-1.0
 40
0.57735
 41
2.324808115202081
 42
3.552730524551827
  0
ELLIPSE
  5
2A8
330
277
100
AcDbEntity
  8
0
  6
Continuous
 62
     0
370
     0
100
AcDbEllipse
 10
709.807134
 20
150.027068
 30
0.0
 11
12.0
 21
-6.661338147750937E-16
 31
0.0
210
0.0
220
0.0
230
-1.0
 40
0.57735
 41
5.872047453496926
 42
8.607993422381663
  0
ELLIPSE
  5
2A9
330
277
100
AcDbEntity
  8
0
  6
Continuous
 62
     0
370
     0
100
AcDbEllipse
 10
709.807134
 20
148.394075
 30
0.0
 11
-12.0
 21
6.661338147750937E-16
 31
0.0
210
0.0
220
0.0
230
1.0
 40
0.57735
 41
0.816784538387715
 42
3.141651289085106
  0
ELLIPSE
  5
2AA
330
277
100
AcDbEntity
  8
0
  6
Continuous
 62
     0
370
     0
100
AcDbEllipse
 10
709.807134
 20
148.394075
 30
0.0
 11
-12.0
 21
6.661338147750937E-16
 31
0.0
210
0.0
220
0.0
230
1.0
 40
0.57735
 41
-0.0000000086396872
 42
0.8167845383877115
  0
LWPOLYLINE
  5
2AB
330
277
100
AcDbEntity
  8
0
  6
Continuous
 62
     0
370
     0
100
AcDbPolyline
 90
       16
 70
     0
 43
0.0
 10
701.763428
 20
145.286102
 10
701.120667
 20
145.662964
 10
700.52948
 20
146.068451
 10
699.994446
 20
146.499557
 10
699.519897
 20
146.953156
 10
699.108337
 20
147.426498
 10
698.762085
 20
147.916901
 10
698.483093
 20
148.421524
 10
698.272949
 20
148.937225
 10
698.133118
 20
149.460815
 10
698.064697
 20
149.989075
 10
698.067749
 20
150.518814
 10
698.142395
 20
151.046783
 10
698.288269
 20
151.569794
 10
698.504211
 20
152.084656
 10
698.807129
 20
152.615967
  0
LWPOLYLINE
  5
2AC
330
277
100
AcDbEntity
  8
0
  6
Continuous
 62
     0
370
     0
100
AcDbPolyline
 90
       34
 70
     0
 43
0.0
 10
720.807129
 20
152.616013
 10
721.106079
 20
152.092407
 10
721.330627
 20
151.556473
 10
721.479065
 20
151.01178
 10
721.550232
 20
150.461945
 10
721.543945
 20
149.910599
 10
721.460083
 20
149.361374
 10
721.299194
 20
148.817886
 10
721.062561
 20
148.283722
 10
720.751404
 20
147.762451
 10
720.368042
 20
147.257477
 10
719.914917
 20
146.772125
 10
719.394958
 20
146.309662
 10
718.811707
 20
145.873062
 10
718.169006
 20
145.465271
 10
717.470947
 20
145.088989
 10
716.722351
 20
144.746613
 10
715.928101
 20
144.440506
 10
715.093323
 20
144.172684
 10
714.223755
 20
143.944809
 10
713.32489
 20
143.75853
 10
712.402832
 20
143.61499
 10
711.463684
 20
143.515091
 10
710.51355
 20
143.459641
 10
709.558716
 20
143.448853
 10
708.60553
 20
143.48291
 10
707.660278
 20
143.561615
 10
706.729187
 20
143.68428
 10
705.818665
 20
143.850113
 10
704.934509
 20
144.05809
 10
704.082153
 20
144.306992
 10
703.266968
 20
144.595398
 10
702.495422
 20
144.920868
 10
701.763428
 20
145.286102
  0
ELLIPSE
  5
2AD
330
277
100
AcDbEntity
  8
0
  6
Continuous
 62
     0
370
    30
100
AcDbEllipse
 10
709.807134
 20
150.231192
 30
0.0
 11
-11.0
 21
0.0
 31
0.0
210
0.0
220
0.0
230
1.0
 40
0.57735
 41
0.7853981633974456
 42
3.141592644950108
  0
ELLIPSE
  5
2AE
330
277
100
AcDbEntity
  8
0
  6
Continuous
 62
     0
370
    30
100
AcDbEllipse
 10
709.807134
 20
150.231192
 30
0.0
 11
-11.0
 21
0.0
 31
0.0
210
0.0
220
0.0
230
1.0
 40
0.57735
 41
-0.0000000086396854
 42
0.7853981633974456
  0
LWPOLYLINE
  5
2AF
330
277
100
AcDbEntity
  8
0
  6
Continuous
 62
     0
370
     0
100
AcDbPolyline
 90
       31
 70
     0
 43
0.0
 10
702.028931
 20
149.822937
 10
702.605713
 20
149.512985
 10
703.236755
 20
149.2202
 10
703.920532
 20
148.94873
 10
704.654114
 20
148.702774
 10
705.433655
 20
148.486374
 10
706.253723
 20
148.303314
 10
707.107971
 20
148.156982
 10
707.988892
 20
148.050186
 10
708.888184
 20
147.985016
 10
709.796814
 20
147.96283
 10
710.705505
 20
147.984039
 10
711.605103
 20
148.048233
 10
712.486511
 20
148.154114
 10
713.341492
 20
148.299576
 10
714.162415
 20
148.481827
 10
714.942932
 20
148.69751
 10
715.677612
 20
148.942841
 10
716.362549
 20
149.213776
 10
716.994812
 20
149.506134
 10
717.572815
 20
149.815735
 10
718.110291
 20
150.148026
 10
718.618164
 20
150.511658
 10
719.089233
 20
150.905731
 10
719.516357
 20
151.328659
 10
719.892395
 20
151.778137
 10
720.210876
 20
152.251129
 10
720.46582
 20
152.743927
 10
720.652405
 20
153.252228
 10
720.766907
 20
153.771225
 10
720.807129
 20
154.313675
  0
ARC
  5
2B0
330
277
100
AcDbEntity
  8
0
  6
Continuous
 62
     0
370
     0
100
AcDbCircle
 10
704.320071
 20
154.867774
 30
0.0
 40
5.540713049378615
100
AcDbArc
 50
185.739454
 51
245.574805
  0
ARC
  5
2B1
330
277
100
AcDbEntity
  8
0
  6
Continuous
 62
     0
370
     0
100
AcDbCircle
 10
674.309447
 20
206.847699
 30
0.0
 40
5.540713276534245
100
AcDbArc
 50
174.425196
 51
234.26054
  0
LWPOLYLINE
  5
2B2
330
277
100
AcDbEntity
  8
0
  6
Continuous
 62
     0
370
     0
100
AcDbPolyline
 90
       31
 70
     0
 43
0.0
 10
682.07312
 20
221.402969
 10
681.599976
 20
221.632721
 10
681.094238
 20
221.795334
 10
680.561584
 20
221.890213
 10
680.007935
 20
221.91806
 10
679.439453
 20
221.880951
 10
678.862366
 20
221.782043
 10
678.282593
 20
221.625504
 10
677.705566
 20
221.41626
 10
677.136353
 20
221.159744
 10
676.579346
 20
220.861755
 10
676.022705
 20
220.517853
 10
675.453735
 20
220.118378
 10
674.876831
 20
219.662613
 10
674.296997
 20
219.150894
 10
673.719788
 20
218.584641
 10
673.151062
 20
217.966522
 10
672.597046
 20
217.3004
 10
672.063782
 20
216.591339
 10
671.557434
 20
215.84552
 10
671.083496
 20
215.070023
 10
670.647034
 20
214.272629
 10
670.252319
 20
213.461594
 10
669.902771
 20
212.645325
 10
669.600708
 20
211.832108
 10
669.347534
 20
211.029846
 10
669.143555
 20
210.245834
 10
668.988098
 20
209.486572
 10
668.879761
 20
208.757599
 10
668.816284
 20
208.063431
 10
668.794922
 20
207.385956
  0
LWPOLYLINE
  5
2B3
330
277
100
AcDbEntity
  8
0
  6
Continuous
 62
     0
370
    30
100
AcDbPolyline
 90
       29
 70
     0
 43
0.0
 10
555.869995
 20
272.583221
 10
555.897644
 20
273.355743
 10
555.980408
 20
274.15509
 10
556.117798
 20
274.975037
 10
556.308594
 20
275.809723
 10
556.551575
 20
276.65332
 10
556.845215
 20
277.499969
 10
557.187195
 20
278.343658
 10
557.574829
 20
279.178406
 10
558.005676
 20
279.99823
 10
558.476746
 20
280.797241
 10
558.984619
 20
281.569763
 10
559.525696
 20
282.31015
 10
560.096375
 20
283.012848
 10
560.692505
 20
283.673187
 10
561.309448
 20
284.286987
 10
561.942749
 20
284.850098
 10
562.587891
 20
285.358246
 10
563.240356
 20
285.807312
 10
563.89563
 20
286.193176
 10
564.549194
 20
286.513275
 10
565.196533
 20
286.766449
 10
565.833191
 20
286.951569
 10
566.454529
 20
287.067566
 10
567.056213
 20
287.113251
 10
567.633545
 20
287.087585
 10
568.182251
 20
286.989716
 10
568.698608
 20
286.82074
 10
569.184143
 20
286.579285
  0
LINE
  5
2B4
330
277
100
AcDbEntity
  8
0
  6
Continuous
 62
     0
370
     0
100
AcDbLine
 10
668.79494
 20
207.385953
 30
0.0
 11
555.869979
 21
272.58321
 31
0.0
  0
LWPOLYLINE
  5
2B5
330
277
100
AcDbEntity
  8
0
  6
Continuous
 62
     0
370
    30
100
AcDbPolyline
 90
       11
 70
     0
 43
0.0
 10
555.869995
 20
272.583221
 10
555.89386
 20
271.893799
 10
555.965454
 20
271.235626
 10
556.08429
 20
270.613464
 10
556.249573
 20
270.031158
 10
556.460205
 20
269.492157
 10
556.715027
 20
268.999817
 10
557.012634
 20
268.55722
 10
557.350891
 20
268.166748
 10
557.727783
 20
267.830811
 10
558.177979
 20
267.530579
  0
ELLIPSE
  5
2B6
330
277
100
AcDbEntity
  8
0
  6
Continuous
 62
     0
370
     0
100
AcDbEllipse
 10
563.471377
 20
277.176003
 30
0.0
 11
-6.250000000000005
 21
-10.82531754730548
 31
0.0
210
0.0
220
0.0
230
-1.0
 40
0.57735
 41
5.78822902157435
 42
7.875925401555052
  0
ELLIPSE
  5
2B7
330
277
100
AcDbEntity
  8
0
  6
Continuous
 62
     0
370
     0
100
AcDbEllipse
 10
563.471377
 20
277.176003
 30
0.0
 11
-6.250000000000005
 21
-10.82531754730548
 31
0.0
210
0.0
220
0.0
230
-1.0
 40
0.57735
 41
1.592740094375466
 42
3.636551727241762
  0
ELLIPSE
  5
2B8
330
277
100
AcDbEntity
  8
0
  6
Continuous
 62
     0
370
    30
100
AcDbEllipse
 10
561.880387
 20
278.094562
 30
0.0
 11
6.250000000000005
 21
10.82531754730548
 31
0.0
210
0.0
220
0.0
230
1.0
 40
0.57735
 41
-0.0000000228501555
 42
1.548852559214327
  0
ELLIPSE
  5
2B9
330
277
100
AcDbEntity
  8
0
  6
Continuous
 62
     0
370
    30
100
AcDbEllipse
 10
561.880387
 20
278.094562
 30
0.0
 11
6.250000000000005
 21
10.82531754730548
 31
0.0
210
0.0
220
0.0
230
1.0
 40
0.57735
 41
1.548852559214327
 42
3.141592630739638
  0
LWPOLYLINE
  5
2BA
330
277
100
AcDbEntity
  8
0
  6
Continuous
 62
     0
370
     0
100
AcDbPolyline
 90
       27
 70
     0
 43
0.0
 10
557.658997
 20
280.842133
 10
557.186279
 20
280.003967
 10
556.752563
 20
279.145905
 10
556.361206
 20
278.274445
 10
556.015442
 20
277.396271
 10
555.717102
 20
276.516602
 10
555.467957
 20
275.640411
 10
555.269348
 20
274.772919
 10
555.122498
 20
273.919525
 10
555.028503
 20
273.085693
 10
554.987915
 20
272.276642
 10
555.000916
 20
271.497253
 10
555.067505
 20
270.752411
 10
555.187195
 20
270.046722
 10
555.359192
 20
269.384491
 10
555.582581
 20
268.769928
 10
555.855957
 20
268.206757
 10
556.17749
 20
267.698425
 10
556.545349
 20
267.24826
 10
556.957153
 20
266.858856
 10
557.410339
 20
266.532684
 10
557.902222
 20
266.271881
 10
558.429688
 20
266.077881
 10
558.98938
 20
265.951935
 10
559.578003
 20
265.894958
 10
560.191833
 20
265.907135
 10
560.843811
 20
265.991486
  0
LWPOLYLINE
  5
2BB
330
277
100
AcDbEntity
  8
0
  6
Continuous
 62
     0
370
     0
100
AcDbPolyline
 90
       26
 70
     0
 43
0.0
 10
571.843689
 20
285.043762
 10
571.592773
 20
285.646301
 10
571.290894
 20
286.193817
 10
570.939941
 20
286.68277
 10
570.542114
 20
287.109924
 10
570.100037
 20
287.472717
 10
569.616455
 20
287.768677
 10
569.094604
 20
287.995911
 10
568.537781
 20
288.153107
 10
567.949524
 20
288.239044
 10
567.333618
 20
288.253296
 10
566.694092
 20
288.195801
 10
566.034973
 20
288.066772
 10
565.360535
 20
287.867218
 10
564.67511
 20
287.598358
 10
563.983093
 20
287.261841
 10
563.288879
 20
286.859955
 10
562.596985
 20
286.395172
 10
561.911804
 20
285.870422
 10
561.237854
 20
285.289368
 10
560.579529
 20
284.655701
 10
559.940918
 20
283.973297
 10
559.325745
 20
283.246216
 10
558.737915
 20
282.478729
 10
558.181946
 20
281.676971
 10
557.658997
 20
280.842133
  0
LWPOLYLINE
  5
2BC
330
277
100
AcDbEntity
  8
0
  6
Continuous
 62
     0
370
    30
100
AcDbPolyline
 90
       35
 70
     0
 43
0.0
 10
539.77887
 20
288.682068
 10
539.156006
 20
287.470795
 10
538.556702
 20
286.225891
 10
537.984314
 20
284.950104
 10
537.442261
 20
283.646606
 10
536.934143
 20
282.319031
 10
536.463196
 20
280.971313
 10
536.032837
 20
279.60791
 10
535.646179
 20
278.23349
 10
535.306152
 20
276.853088
 10
535.015564
 20
275.472015
 10
534.776794
 20
274.095703
 10
534.591919
 20
272.729828
 10
534.462646
 20
271.380066
 10
534.39032
 20
270.052094
 10
534.375732
 20
268.751495
 10
534.419312
 20
267.483734
 10
534.520996
 20
266.253937
 10
534.680237
 20
265.067047
 10
534.895996
 20
263.927551
 10
535.16687
 20
262.839539
 10
535.490967
 20
261.80658
 10
535.866028
 20
260.831818
 10
536.289551
 20
259.917755
 10
536.758606
 20
259.066437
 10
537.270081
 20
258.279266
 10
537.820679
 20
257.55719
 10
538.40686
 20
256.900543
 10
539.025208
 20
256.309235
 10
539.671997
 20
255.782639
 10
540.343689
 20
255.319748
 10
541.036743
 20
254.919159
 10
541.747864
 20
254.57901
 10
542.490417
 20
254.291595
 10
543.285522
 20
254.052338
  0
LWPOLYLINE
  5
2BD
330
277
100
AcDbEntity
  8
0
  6
Continuous
 62
     0
370
    30
100
AcDbPolyline
 90
       37
 70
     0
 43
0.0
 10
573.404175
 20
306.219269
 10
572.771179
 20
306.812714
 10
572.109192
 20
307.339233
 10
571.421936
 20
307.799988
 10
570.713196
 20
308.196533
 10
569.985229
 20
308.531372
 10
569.220703
 20
308.813019
 10
568.414062
 20
309.040863
 10
567.566162
 20
309.211151
 10
566.678162
 20
309.320404
 10
565.751709
 20
309.365387
 10
564.788818
 20
309.343109
 10
563.79187
 20
309.251099
 10
562.763733
 20
309.087158
 10
561.707642
 20
308.849701
 10
560.627014
 20
308.537628
 10
559.525818
 20
308.150391
 10
558.408264
 20
307.68811
 10
557.278687
 20
307.15152
 10
556.141724
 20
306.541962
 10
555.002075
 20
305.861481
 10
553.864441
 20
305.11261
 10
552.733704
 20
304.298553
 10
551.614441
 20
303.423065
 10
550.511292
 20
302.490265
 10
549.428589
 20
301.504822
 10
548.370361
 20
300.471619
 10
547.340454
 20
299.395905
 10
546.342285
 20
298.283081
 10
545.379028
 20
297.13858
 10
544.453186
 20
295.967987
 10
543.5672
 20
294.776764
 10
542.722778
 20
293.570282
 10
541.921448
 20
292.353699
 10
541.164185
 20
291.13205
 10
540.451599
 20
289.909973
 10
539.77887
 20
288.682068
  0
LWPOLYLINE
  5
2BE
330
277
100
AcDbEntity
  8
0
  6
Continuous
 62
     0
370
    30
100
AcDbPolyline
 90
       33
 70
     0
 43
0.0
 10
540.335266
 20
288.435638
 10
540.99353
 20
289.636566
 10
541.697021
 20
290.841431
 10
542.445557
 20
292.045746
 10
543.238464
 20
293.244659
 10
544.074585
 20
294.433044
 10
544.952454
 20
295.60556
 10
545.870056
 20
296.756622
 10
546.825134
 20
297.880646
 10
547.814758
 20
298.971924
 10
548.835754
 20
300.024811
 10
549.884521
 20
301.033813
 10
550.957092
 20
301.993652
 10
552.049133
 20
302.899292
 10
553.156189
 20
303.746094
 10
554.273499
 20
304.529938
 10
555.39624
 20
305.247101
 10
556.51947
 20
305.894531
 10
557.638306
 20
306.469757
 10
558.747925
 20
306.970947
 10
559.84375
 20
307.396973
 10
560.921326
 20
307.747345
 10
561.976379
 20
308.022217
 10
563.005188
 20
308.222412
 10
564.004211
 20
308.349304
 10
564.970398
 20
308.404816
 10
565.90094
 20
308.391357
 10
566.793701
 20
308.311798
 10
567.64679
 20
308.169312
 10
568.458801
 20
307.967438
 10
569.228699
 20
307.709839
 10
569.957153
 20
307.39975
 10
570.66571
 20
307.02829
  0
LWPOLYLINE
  5
2BF
330
277
100
AcDbEntity
  8
0
  6
Continuous
 62
     0
370
    30
100
AcDbPolyline
 90
       31
 70
     0
 43
0.0
 10
541.215698
 20
256.019409
 10
540.545715
 20
256.443115
 10
539.898926
 20
256.929688
 10
539.278809
 20
257.480408
 10
538.689026
 20
258.096039
 10
538.13324
 20
258.776947
 10
537.615051
 20
259.522949
 10
537.137817
 20
260.333374
 10
536.704834
 20
261.207001
 10
536.319031
 20
262.141968
 10
535.983215
 20
263.135925
 10
535.699768
 20
264.185913
 10
535.470764
 20
265.288483
 10
535.297668
 20
266.439575
 10
535.181763
 20
267.634827
 10
535.123657
 20
268.869354
 10
535.123596
 20
270.137939
 10
535.181274
 20
271.435211
 10
535.295959
 20
272.755463
 10
535.46637
 20
274.093018
 10
535.690918
 20
275.442017
 10
535.96759
 20
276.796844
 10
536.293884
 20
278.151825
 10
536.667114
 20
279.501617
 10
537.084351
 20
280.841095
 10
537.542419
 20
282.165375
 10
538.037903
 20
283.470032
 10
538.567444
 20
284.750977
 10
539.127502
 20
286.004517
 10
539.714661
 20
287.227386
 10
540.335266
 20
288.435638
  0
ELLIPSE
  5
2C0
330
277
100
AcDbEntity
  8
0
  6
Continuous
 62
     0
370
    30
100
AcDbEllipse
 10
554.809319
 20
282.177044
 30
0.0
 11
15.25000000000001
 21
26.41377481542538
 31
0.0
210
0.0
220
0.0
230
1.0
 40
0.57735
 41
1.632530073728791
 42
3.141592630739638
  0
ELLIPSE
  5
2C1
330
277
100
AcDbEntity
  8
0
  6
Continuous
 62
     0
370
    30
100
AcDbEllipse
 10
554.809319
 20
282.177044
 30
0.0
 11
15.25000000000001
 21
26.41377481542538
 31
0.0
210
0.0
220
0.0
230
1.0
 40
0.57735
 41
-0.0000000228501555
 42
1.632530073728791
  0
LWPOLYLINE
  5
2C2
330
277
100
AcDbEntity
  8
0
  6
Continuous
 62
     0
370
    30
100
AcDbPolyline
 90
       32
 70
     0
 43
0.0
 10
544.587219
 20
285.906006
 10
543.974792
 20
284.715607
 10
543.38501
 20
283.492676
 10
542.821106
 20
282.239807
 10
542.286438
 20
280.960022
 10
541.784302
 20
279.656708
 10
541.31781
 20
278.333618
 10
540.890198
 20
276.994873
 10
540.504456
 20
275.644958
 10
540.163391
 20
274.288544
 10
539.869751
 20
272.930695
 10
539.625732
 20
271.576569
 10
539.433533
 20
270.231506
 10
539.294739
 20
268.900848
 10
539.210632
 20
267.590057
 10
539.182251
 20
266.304443
 10
539.210022
 20
265.049225
 10
539.293945
 20
263.829376
 10
539.433716
 20
262.649628
 10
539.628479
 20
261.514404
 10
539.876892
 20
260.427673
 10
540.17749
 20
259.393036
 10
540.528137
 20
258.413605
 10
540.926575
 20
257.492004
 10
541.370117
 20
256.63028
 10
541.855896
 20
255.830093
 10
542.380859
 20
255.092468
 10
542.941711
 20
254.417984
 10
543.535156
 20
253.806732
 10
544.157837
 20
253.258347
 10
544.806274
 20
252.772049
 10
545.499023
 20
252.333984
  0
LWPOLYLINE
  5
2C3
330
277
100
AcDbEntity
  8
0
  6
Continuous
 62
     0
370
    30
100
AcDbPolyline
 90
       34
 70
     0
 43
0.0
 10
576.007263
 20
305.156769
 10
575.299622
 20
305.529877
 10
574.570251
 20
305.844574
 10
573.801086
 20
306.108215
 10
572.990784
 20
306.318054
 10
572.14032
 20
306.47049
 10
571.250916
 20
306.562195
 10
570.324341
 20
306.590149
 10
569.362549
 20
306.551514
 10
568.368103
 20
306.44397
 10
567.343689
 20
306.265533
 10
566.292542
 20
306.01474
 10
565.218201
 20
305.690613
 10
564.124512
 20
305.292816
 10
563.015503
 20
304.821564
 10
561.895508
 20
304.277618
 10
560.769104
 20
303.662476
 10
559.640747
 20
302.978119
 10
558.515076
 20
302.227203
 10
557.396851
 20
301.412842
 10
556.290466
 20
300.538757
 10
555.200317
 20
299.609039
 10
554.130676
 20
298.628204
 10
553.085449
 20
297.601105
 10
552.068298
 20
296.532745
 10
551.08252
 20
295.428436
 10
550.131104
 20
294.293488
 10
549.216614
 20
293.13324
 10
548.341187
 20
291.953064
 10
547.506653
 20
290.758118
 10
546.714294
 20
289.553436
 10
545.96521
 20
288.343842
 10
545.259949
 20
287.133911
 10
544.587219
 20
285.906006
  0
ELLIPSE
  5
2C4
330
277
100
AcDbEntity
  8
0
  6
Continuous
 62
     0
370
    30
100
AcDbEllipse
 10
561.880387
 20
278.094562
 30
0.0
 11
-15.25000000000001
 21
-26.41377481542539
 31
0.0
210
0.0
220
0.0
230
-1.0
 40
0.57735
 41
5.081355371568962
 42
7.792247887040589
  0
ELLIPSE
  5
2C5
330
277
100
AcDbEntity
  8
0
  6
Continuous
 62
     0
370
    30
100
AcDbEllipse
 10
561.880387
 20
278.094562
 30
0.0
 11
-15.25000000000001
 21
-26.41377481542539
 31
0.0
210
0.0
220
0.0
230
-1.0
 40
0.57735
 41
1.509062579861003
 42
4.343423193434325
  0
LINE
  5
2C6
330
277
100
AcDbEntity
  8
0
  6
Continuous
 62
     0
370
    30
100
AcDbLine
 10
571.507043
 20
306.54254
 30
0.0
 11
570.66569
 21
307.028295
 31
0.0
  0
LINE
  5
2C7
330
277
100
AcDbEntity
  8
0
  6
Continuous
 62
     0
370
    30
100
AcDbLine
 10
542.057043
 20
255.533644
 30
0.0
 11
541.215689
 21
256.019399
 31
0.0
  0
LINE
  5
2C8
330
277
100
AcDbEntity
  8
0
  6
Continuous
 62
     0
370
    30
100
AcDbLine
 10
557.221075
 20
266.350869
 30
0.0
 11
557.453533
 21
266.225944
 31
0.0
  0
LINE
  5
2C9
330
277
100
AcDbEntity
  8
0
  6
Continuous
 62
     0
370
    30
100
AcDbLine
 10
569.721679
 20
288.001137
 30
0.0
 11
570.267032
 21
287.628208
 31
0.0
  0
LWPOLYLINE
  5
2CA
330
277
100
AcDbEntity
  8
0
  6
Continuous
 62
     0
370
    30
100
AcDbPolyline
 90
       12
 70
     0
 43
0.0
 10
571.99353
 20
284.957275
 10
571.868591
 20
285.32373
 10
571.726562
 20
285.674438
 10
571.567444
 20
286.008362
 10
571.391235
 20
286.324432
 10
571.197998
 20
286.621704
 10
570.988342
 20
286.89978
 10
570.763855
 20
287.160126
 10
570.52655
 20
287.404297
 10
570.274597
 20
287.628113
 10
569.997375
 20
287.812988
 10
569.72168
 20
288.001129
  0
LWPOLYLINE
  5
2CB
330
277
100
AcDbEntity
  8
0
  6
Continuous
 62
     0
370
    30
100
AcDbPolyline
 90
       16
 70
     0
 43
0.0
 10
560.994568
 20
265.904449
 10
560.716309
 20
265.846985
 10
560.440796
 20
265.801849
 10
560.168457
 20
265.769379
 10
559.899658
 20
265.749939
 10
559.634827
 20
265.743866
 10
559.374084
 20
265.750793
 10
559.11676
 20
265.768738
 10
558.862
 20
265.79538
 10
558.609375
 20
265.829285
 10
558.361877
 20
265.876068
 10
558.124207
 20
265.944916
 10
557.900818
 20
266.044739
 10
557.688354
 20
266.167572
 10
557.472046
 20
266.280609
 10
557.221069
 20
266.350861
  0
LINE
  5
2CC
330
277
100
AcDbEntity
  8
0
  6
Continuous
 62
     0
370
    30
100
AcDbLine
 10
558.148148
 20
267.547818
 30
0.0
 11
671.073206
 21
202.350449
 31
0.0
  0
LINE
  5
2CD
330
277
100
AcDbEntity
  8
0
  6
Continuous
 62
     0
370
    30
100
AcDbLine
 10
682.072985
 20
221.402927
 30
0.0
 11
569.148114
 21
286.600071
 31
0.0
  0
LINE
  5
2CE
330
277
100
AcDbEntity
  8
0
  6
Continuous
 62
     0
370
    30
100
AcDbLine
 10
720.807134
 20
150.231192
 30
0.0
 11
720.807134
 21
154.313675
 31
0.0
  0
LINE
  5
2CF
330
277
100
AcDbEntity
  8
0
  6
Continuous
 62
     0
370
    30
100
AcDbLine
 10
698.807134
 20
150.231192
 30
0.0
 11
698.807134
 21
154.313675
 31
0.0
  0
LWPOLYLINE
  5
2D0
330
277
100
AcDbEntity
  8
0
  6
Continuous
 62
     0
370
    30
100
AcDbPolyline
 90
       37
 70
     0
 43
0.0
 10
720.807129
 20
154.313675
 10
720.769531
 20
156.370575
 10
720.657288
 20
158.451309
 10
720.471436
 20
160.552902
 10
720.213013
 20
162.672333
 10
719.882935
 20
164.806793
 10
719.4823
 20
166.953552
 10
719.012024
 20
169.109833
 10
718.473206
 20
171.272888
 10
717.866943
 20
173.439621
 10
717.19458
 20
175.606735
 10
716.457458
 20
177.770966
 10
715.656921
 20
179.92897
 10
714.79425
 20
182.077484
 10
713.87085
 20
184.213181
 10
712.888428
 20
186.332642
 10
711.848755
 20
188.432465
 10
710.753662
 20
190.509201
 10
709.604919
 20
192.559433
 10
708.404297
 20
194.579758
 10
707.153748
 20
196.566803
 10
705.855347
 20
198.517365
 10
704.511353
 20
200.428268
 10
703.12384
 20
202.296295
 10
701.695068
 20
204.118256
 10
700.227173
 20
205.890976
 10
698.722229
 20
207.611618
 10
697.182312
 20
209.277588
 10
695.609375
 20
210.886353
 10
694.005432
 20
212.435349
 10
692.372498
 20
213.922012
 10
690.712708
 20
215.343796
 10
689.028259
 20
216.698242
 10
687.321411
 20
217.982864
 10
685.594543
 20
219.195221
 10
683.849976
 20
220.33284
 10
682.07312
 20
221.402969
  0
LWPOLYLINE
  5
2D1
330
277
100
AcDbEntity
  8
0
  6
Continuous
 62
     0
370
    30
100
AcDbPolyline
 90
       35
 70
     0
 43
0.0
 10
698.807129
 20
154.313675
 10
698.779175
 20
155.697418
 10
698.694336
 20
157.136032
 10
698.551331
 20
158.623138
 10
698.34906
 20
160.152603
 10
698.087463
 20
161.719055
 10
697.766541
 20
163.317169
 10
697.386292
 20
164.941681
 10
696.947021
 20
166.587387
 10
696.449768
 20
168.24942
 10
695.895935
 20
169.922974
 10
695.286682
 20
171.60321
 10
694.623291
 20
173.285324
 10
693.907043
 20
174.964523
 10
693.139771
 20
176.636307
 10
692.323364
 20
178.296295
 10
691.459778
 20
179.940094
 10
690.550903
 20
181.563309
 10
689.598755
 20
183.16156
 10
688.605713
 20
184.730728
 10
687.57489
 20
186.26712
 10
686.509644
 20
187.767059
 10
685.413086
 20
189.226913
 10
684.288574
 20
190.643021
 10
683.139343
 20
192.011719
 10
681.968567
 20
193.329346
 10
680.77948
 20
194.59227
 10
679.575439
 20
195.796814
 10
678.359619
 20
196.939377
 10
677.136292
 20
198.016968
 10
675.910278
 20
199.027084
 10
674.686584
 20
199.967316
 10
673.470215
 20
200.83519
 10
672.266663
 20
201.62851
 10
671.07312
 20
202.350403
  0
LINE
  5
2D2
330
277
100
AcDbEntity
  8
0
  6
Continuous
 62
     0
370
    30
100
AcDbLine
 10
721.80712
 20
148.394477
 30
0.0
 11
721.758827
 21
147.760726
 31
0.0
  0
LWPOLYLINE
  5
2D3
330
277
100
AcDbEntity
  8
0
  6
Continuous
 62
     0
370
    30
100
AcDbPolyline
 90
       37
 70
     0
 43
0.0
 10
701.644287
 20
143.229218
 10
702.202026
 20
142.945114
 10
702.789307
 20
142.681458
 10
703.403625
 20
142.439392
 10
704.042419
 20
142.220108
 10
704.703186
 20
142.024628
 10
705.383179
 20
141.853455
 10
706.079834
 20
141.707016
 10
706.790405
 20
141.585724
 10
707.512268
 20
141.490005
 10
708.242859
 20
141.420273
 10
708.97937
 20
141.376938
 10
709.719177
 20
141.360382
 10
710.459534
 20
141.37059
 10
711.197449
 20
141.407364
 10
711.930176
 20
141.47052
 10
712.654724
 20
141.55983
 10
713.368286
 20
141.675125
 10
714.067932
 20
141.816132
 10
714.751221
 20
141.982285
 10
715.415771
 20
142.172729
 10
716.059204
 20
142.386642
 10
716.679199
 20
142.623169
 10
717.273438
 20
142.88147
 10
717.8396
 20
143.160721
 10
718.375305
 20
143.460068
 10
718.878235
 20
143.778687
 10
719.346313
 20
144.115616
 10
719.778381
 20
144.469604
 10
720.173157
 20
144.839355
 10
720.529541
 20
145.223587
 10
720.845215
 20
145.621017
 10
721.116821
 20
146.030426
 10
721.341492
 20
146.450546
 10
721.527283
 20
146.87915
 10
721.679199
 20
147.314163
 10
721.745117
 20
147.760941
  0
ARC
  5
2D4
330
277
100
AcDbEntity
  8
0
  6
Continuous
 62
     0
370
    30
100
AcDbCircle
 10
704.032231
 20
149.011143
 30
0.0
 40
6.255633531960976
100
AcDbArc
 50
185.664905
 51
247.559198
  0
LINE
  5
2D5
330
277
100
AcDbEntity
  8
0
  6
Continuous
 62
     0
370
    30
100
AcDbLine
 10
721.80712
 20
150.027471
 30
0.0
 11
721.79937
 21
150.281272
 31
0.0
  0
LINE
  5
2D6
330
277
100
AcDbEntity
  8
0
  6
Continuous
 62
     0
370
    30
100
AcDbLine
 10
697.807149
 20
150.026644
 30
0.0
 11
697.855446
 21
150.660443
 31
0.0
  0
LINE
  5
2D7
330
277
100
AcDbEntity
  8
0
  6
Continuous
 62
     0
370
    30
100
AcDbLine
 10
720.807121
 20
134.105754
 30
0.0
 11
720.762694
 21
133.522742
 31
0.0
  0
LWPOLYLINE
  5
2D8
330
277
100
AcDbEntity
  8
0
  6
Continuous
 62
     0
370
    30
100
AcDbPolyline
 90
       36
 70
     0
 43
0.0
 10
702.328857
 20
129.361389
 10
702.854797
 20
129.093948
 10
703.409241
 20
128.846359
 10
703.989685
 20
128.619797
 10
704.593567
 20
128.41539
 10
705.218384
 20
128.234116
 10
705.86145
 20
128.076462
 10
706.520203
 20
127.942841
 10
707.191895
 20
127.833656
 10
707.873962
 20
127.749321
 10
708.563721
 20
127.690254
 10
709.258545
 20
127.656868
 10
709.95575
 20
127.649452
 10
710.652466
 20
127.6679
 10
711.345947
 20
127.712006
 10
712.033203
 20
127.78157
 10
712.711365
 20
127.876389
 10
713.377686
 20
127.996262
 10
714.029358
 20
128.140839
 10
714.664001
 20
128.309357
 10
715.279358
 20
128.500992
 10
715.873047
 20
128.71489
 10
716.442688
 20
128.950256
 10
716.986084
 20
129.206238
 10
717.500854
 20
129.482025
 10
717.98468
 20
129.776764
 10
718.435364
 20
130.0896
 10
718.85144
 20
130.419357
 10
719.23175
 20
130.764786
 10
719.575256
 20
131.124588
 10
719.879944
 20
131.497528
 10
720.142456
 20
131.882401
 10
720.359741
 20
132.277954
 10
720.53772
 20
132.682159
 10
720.683899
 20
133.092758
 10
720.750488
 20
133.522949
  0
ARC
  5
2D9
330
277
100
AcDbEntity
  8
0
  6
Continuous
 62
     0
370
    30
100
AcDbCircle
 10
704.523059
 20
134.669468
 30
0.0
 40
5.743715532646059
100
AcDbArc
 50
185.639955
 51
247.541146
  0
LINE
  5
2DA
330
277
100
AcDbEntity
  8
0
  6
Continuous
 62
     0
370
    30
100
AcDbLine
 10
720.807133
 20
134.105385
 30
0.0
 11
720.807133
 21
145.569327
 31
0.0
  0
LINE
  5
2DB
330
277
100
AcDbEntity
  8
0
  6
Continuous
 62
     0
370
    30
100
AcDbLine
 10
698.807134
 20
134.105385
 30
0.0
 11
698.807134
 21
145.569498
 31
0.0
  0
LINE
  5
2DC
330
277
100
AcDbEntity
  8
0
  6
Continuous
 62
     0
370
    30
100
AcDbLine
 10
557.797642
 20
259.643483
 30
0.0
 11
557.797642
 21
258.48651
 31
0.0
  0
LINE
  5
2DD
330
277
100
AcDbEntity
  8
0
  6
Continuous
 62
     0
370
    30
100
AcDbLine
 10
557.797642
 20
258.48651
 30
0.0
 11
557.869453
 21
258.191473
 31
0.0
  0
ARC
  5
2DE
330
277
100
AcDbEntity
  8
0
  6
Continuous
 62
     0
370
    30
100
AcDbCircle
 10
558.001395
 20
258.867465
 30
0.0
 40
0.6887479472466596
100
AcDbArc
 50
258.955745
 51
11.444282
  0
LINE
  5
2DF
330
277
100
AcDbEntity
  8
0
  6
Continuous
 62
     0
370
    30
100
AcDbLine
 10
558.676449
 20
259.004123
 30
0.0
 11
558.676449
 21
260.150862
 31
0.0
  0
LINE
  5
2E0
330
277
100
AcDbEntity
  8
0
  6
Continuous
 62
     0
370
    30
100
AcDbLine
 10
558.676449
 20
260.150862
 30
0.0
 11
558.893903
 21
260.276409
 31
0.0
  0
LINE
  5
2E1
330
277
100
AcDbEntity
  8
0
  6
Continuous
 62
     0
370
    30
100
AcDbLine
 10
558.893903
 20
260.276409
 30
0.0
 11
558.893903
 21
259.124553
 31
0.0
  0
LINE
  5
2E2
330
277
100
AcDbEntity
  8
0
  6
Continuous
 62
     0
370
    30
100
AcDbLine
 10
558.893903
 20
259.124553
 30
0.0
 11
558.761554
 21
258.55092
 31
0.0
  0
ARC
  5
2E3
330
277
100
AcDbEntity
  8
0
  6
Continuous
 62
     0
370
    30
100
AcDbCircle
 10
557.905344
 20
258.825575
 30
0.0
 40
0.899183154959206
100
AcDbArc
 50
254.675574
 51
342.214769
  0
LINE
  5
2E4
330
277
100
AcDbEntity
  8
0
  6
Continuous
 62
     0
370
    30
100
AcDbLine
 10
557.667704
 20
257.958363
 30
0.0
 11
557.573542
 21
258.375184
 31
0.0
  0
LINE
  5
2E5
330
277
100
AcDbEntity
  8
0
  6
Continuous
 62
     0
370
    30
100
AcDbLine
 10
557.573542
 20
258.375184
 30
0.0
 11
557.573542
 21
259.514098
 31
0.0
  0
LINE
  5
2E6
330
277
100
AcDbEntity
  8
0
  6
Continuous
 62
     0
370
    30
100
AcDbLine
 10
557.573542
 20
259.514098
 30
0.0
 11
557.797642
 21
259.643483
 31
0.0
  0
LINE
  5
2E7
330
277
100
AcDbEntity
  8
0
  6
Continuous
 62
     0
370
    30
100
AcDbLine
 10
556.205871
 20
257.114373
 30
0.0
 11
556.205871
 21
256.855379
 31
0.0
  0
LINE
  5
2E8
330
277
100
AcDbEntity
  8
0
  6
Continuous
 62
     0
370
    30
100
AcDbLine
 10
556.205871
 20
256.855379
 30
0.0
 11
557.423142
 21
257.55817
 31
0.0
  0
LINE
  5
2E9
330
277
100
AcDbEntity
  8
0
  6
Continuous
 62
     0
370
    30
100
AcDbLine
 10
557.423142
 20
257.55817
 30
0.0
 11
557.423142
 21
257.786164
 31
0.0
  0
LINE
  5
2EA
330
277
100
AcDbEntity
  8
0
  6
Continuous
 62
     0
370
    30
100
AcDbLine
 10
557.423142
 20
257.786164
 30
0.0
 11
556.463662
 21
257.232207
 31
0.0
  0
LINE
  5
2EB
330
277
100
AcDbEntity
  8
0
  6
Continuous
 62
     0
370
    30
100
AcDbLine
 10
556.463662
 20
257.232207
 30
0.0
 11
557.407372
 21
259.161875
 31
0.0
  0
LINE
  5
2EC
330
277
100
AcDbEntity
  8
0
  6
Continuous
 62
     0
370
    30
100
AcDbLine
 10
557.407372
 20
259.161875
 30
0.0
 11
557.407372
 21
259.41816
 31
0.0
  0
LINE
  5
2ED
330
277
100
AcDbEntity
  8
0
  6
Continuous
 62
     0
370
    30
100
AcDbLine
 10
557.407372
 20
259.41816
 30
0.0
 11
556.230504
 21
258.738695
 31
0.0
  0
LINE
  5
2EE
330
277
100
AcDbEntity
  8
0
  6
Continuous
 62
     0
370
    30
100
AcDbLine
 10
556.230504
 20
258.738695
 30
0.0
 11
556.230504
 21
258.510852
 31
0.0
  0
LINE
  5
2EF
330
277
100
AcDbEntity
  8
0
  6
Continuous
 62
     0
370
    30
100
AcDbLine
 10
556.230504
 20
258.510852
 30
0.0
 11
557.140655
 21
259.036328
 31
0.0
  0
LINE
  5
2F0
330
277
100
AcDbEntity
  8
0
  6
Continuous
 62
     0
370
    30
100
AcDbLine
 10
557.140655
 20
259.036328
 30
0.0
 11
556.205871
 21
257.114373
 31
0.0
  0
LWPOLYLINE
  5
2F1
330
277
100
AcDbEntity
  8
0
  6
Continuous
 62
     0
370
    30
100
AcDbPolyline
 90
       23
 70
     0
 43
0.0
 10
560.094971
 20
260.465088
 10
560.089294
 20
260.49884
 10
560.077087
 20
260.544067
 10
560.054077
 20
260.590973
 10
560.016052
 20
260.629791
 10
559.958679
 20
260.650757
 10
559.877808
 20
260.644073
 10
559.745239
 20
260.586731
 10
559.578186
 20
260.455902
 10
559.456238
 20
260.292999
 10
559.37262
 20
260.110291
 10
559.32074
 20
259.920044
 10
559.294006
 20
259.734558
 10
559.285645
 20
259.549988
 10
559.291504
 20
259.403137
 10
559.311218
 20
259.267853
 10
559.348083
 20
259.153046
 10
559.405518
 20
259.067596
 10
559.486755
 20
259.020447
 10
559.595276
 20
259.020477
 10
559.742981
 20
259.081573
 10
559.875244
 20
259.178894
 10
560.005188
 20
259.344208
  0
LINE
  5
2F2
330
277
100
AcDbEntity
  8
0
  6
Continuous
 62
     0
370
    30
100
AcDbLine
 10
560.005216
 20
259.344194
 30
0.0
 11
560.083739
 21
259.586221
 31
0.0
  0
LINE
  5
2F3
330
277
100
AcDbEntity
  8
0
  6
Continuous
 62
     0
370
    30
100
AcDbLine
 10
560.083739
 20
259.586221
 30
0.0
 11
560.330256
 21
259.728547
 31
0.0
  0
LWPOLYLINE
  5
2F4
330
277
100
AcDbEntity
  8
0
  6
Continuous
 62
     0
370
    30
100
AcDbPolyline
 90
       29
 70
     0
 43
0.0
 10
560.330261
 20
259.728546
 10
560.283569
 20
259.511993
 10
560.190491
 20
259.314178
 10
560.062927
 20
259.139282
 10
559.912964
 20
258.991577
 10
559.725098
 20
258.858887
 10
559.553345
 20
258.779755
 10
559.412231
 20
258.754028
 10
559.298889
 20
258.773682
 10
559.21051
 20
258.83078
 10
559.144348
 20
258.917328
 10
559.097595
 20
259.025299
 10
559.067444
 20
259.146759
 10
559.051147
 20
259.273712
 10
559.045776
 20
259.408783
 10
559.054504
 20
259.588806
 10
559.083984
 20
259.790833
 10
559.139404
 20
260.004852
 10
559.226013
 20
260.220856
 10
559.348938
 20
260.428925
 10
559.513306
 20
260.619049
 10
559.754211
 20
260.798981
 10
559.855225
 20
260.850433
 10
559.960999
 20
260.888428
 10
560.065002
 20
260.90567
 10
560.160706
 20
260.894867
 10
560.241638
 20
260.848755
 10
560.301331
 20
260.759949
 10
560.334778
 20
260.603546
  0
LINE
  5
2F5
330
277
100
AcDbEntity
  8
0
  6
Continuous
 62
     0
370
    30
100
AcDbLine
 10
560.334752
 20
260.603538
 30
0.0
 11
560.094947
 21
260.465087
 31
0.0
  0
LWPOLYLINE
  5
2F6
330
277
100
AcDbEntity
  8
0
  6
Continuous
 62
     0
370
    30
100
AcDbPolyline
 90
       23
 70
     0
 43
0.0
 10
561.500488
 20
261.276581
 10
561.494812
 20
261.310333
 10
561.482605
 20
261.35553
 10
561.459595
 20
261.402435
 10
561.42157
 20
261.441254
 10
561.364197
 20
261.462219
 10
561.283325
 20
261.455566
 10
561.150757
 20
261.398193
 10
560.983765
 20
261.267395
 10
560.861755
 20
261.104492
 10
560.778137
 20
260.921783
 10
560.726257
 20
260.731537
 10
560.699524
 20
260.546051
 10
560.691223
 20
260.361481
 10
560.697021
 20
260.21463
 10
560.716736
 20
260.079346
 10
560.753601
 20
259.964539
 10
560.811035
 20
259.879089
 10
560.892334
 20
259.83194
 10
561.000793
 20
259.83197
 10
561.148499
 20
259.893066
 10
561.280762
 20
259.990356
 10
561.410767
 20
260.15567
  0
LINE
  5
2F7
330
277
100
AcDbEntity
  8
0
  6
Continuous
 62
     0
370
    30
100
AcDbLine
 10
561.410747
 20
260.155678
 30
0.0
 11
561.48927
 21
260.397704
 31
0.0
  0
LINE
  5
2F8
330
277
100
AcDbEntity
  8
0
  6
Continuous
 62
     0
370
    30
100
AcDbLine
 10
561.48927
 20
260.397704
 30
0.0
 11
561.735852
 21
260.540069
 31
0.0
  0
LWPOLYLINE
  5
2F9
330
277
100
AcDbEntity
  8
0
  6
Continuous
 62
     0
370
    30
100
AcDbPolyline
 90
       29
 70
     0
 43
0.0
 10
561.73584
 20
260.54007
 10
561.689148
 20
260.323486
 10
561.596008
 20
260.125671
 10
561.468506
 20
259.950775
 10
561.318481
 20
259.80307
 10
561.130554
 20
259.670349
 10
560.958862
 20
259.591217
 10
560.817688
 20
259.56546
 10
560.704346
 20
259.585144
 10
560.616028
 20
259.642242
 10
560.549866
 20
259.72879
 10
560.503113
 20
259.836792
 10
560.472961
 20
259.958252
 10
560.456665
 20
260.085205
 10
560.451355
 20
260.220276
 10
560.460022
 20
260.400299
 10
560.489502
 20
260.602295
 10
560.544922
 20
260.816315
 10
560.631531
 20
261.032349
 10
560.754456
 20
261.240417
 10
560.918823
 20
261.430511
 10
561.159729
 20
261.610474
 10
561.260803
 20
261.661926
 10
561.366516
 20
261.699921
 10
561.47052
 20
261.717163
 10
561.566223
 20
261.70636
 10
561.647156
 20
261.660217
 10
561.706848
 20
261.571442
 10
561.740295
 20
261.415009
  0
LINE
  5
2FA
330
277
100
AcDbEntity
  8
0
  6
Continuous
 62
     0
370
    30
100
AcDbLine
 10
561.740283
 20
261.415022
 30
0.0
 11
561.500478
 21
261.27657
 31
0.0
  0
LINE
  5
2FB
330
277
100
AcDbEntity
  8
0
  6
Continuous
 62
     0
370
    30
100
AcDbLine
 10
562.110091
 20
262.133276
 30
0.0
 11
561.885926
 21
262.003854
 31
0.0
  0
LINE
  5
2FC
330
277
100
AcDbEntity
  8
0
  6
Continuous
 62
     0
370
    30
100
AcDbLine
 10
561.885926
 20
262.003854
 30
0.0
 11
561.885926
 21
260.13491
 31
0.0
  0
LINE
  5
2FD
330
277
100
AcDbEntity
  8
0
  6
Continuous
 62
     0
370
    30
100
AcDbLine
 10
561.885926
 20
260.13491
 30
0.0
 11
562.110091
 21
260.264332
 31
0.0
  0
LINE
  5
2FE
330
277
100
AcDbEntity
  8
0
  6
Continuous
 62
     0
370
    30
100
AcDbLine
 10
562.110091
 20
260.264332
 30
0.0
 11
562.110091
 21
261.108284
 31
0.0
  0
LINE
  5
2FF
330
277
100
AcDbEntity
  8
0
  6
Continuous
 62
     0
370
    30
100
AcDbLine
 10
562.110091
 20
261.108284
 30
0.0
 11
562.879031
 21
261.552232
 31
0.0
  0
LINE
  5
300
330
277
100
AcDbEntity
  8
0
  6
Continuous
 62
     0
370
    30
100
AcDbLine
 10
562.879031
 20
261.552232
 30
0.0
 11
562.879031
 21
260.70828
 31
0.0
  0
LINE
  5
301
330
277
100
AcDbEntity
  8
0
  6
Continuous
 62
     0
370
    30
100
AcDbLine
 10
562.879031
 20
260.70828
 30
0.0
 11
563.103131
 21
260.837664
 31
0.0
  0
LINE
  5
302
330
277
100
AcDbEntity
  8
0
  6
Continuous
 62
     0
370
    30
100
AcDbLine
 10
563.103131
 20
260.837664
 30
0.0
 11
563.103131
 21
262.706608
 31
0.0
  0
LINE
  5
303
330
277
100
AcDbEntity
  8
0
  6
Continuous
 62
     0
370
    30
100
AcDbLine
 10
563.103131
 20
262.706608
 30
0.0
 11
562.879031
 21
262.577224
 31
0.0
  0
LINE
  5
304
330
277
100
AcDbEntity
  8
0
  6
Continuous
 62
     0
370
    30
100
AcDbLine
 10
562.879031
 20
262.577224
 30
0.0
 11
562.879031
 21
261.774807
 31
0.0
  0
LINE
  5
305
330
277
100
AcDbEntity
  8
0
  6
Continuous
 62
     0
370
    30
100
AcDbLine
 10
562.879031
 20
261.774807
 30
0.0
 11
562.110091
 21
261.33086
 31
0.0
  0
LINE
  5
306
330
277
100
AcDbEntity
  8
0
  6
Continuous
 62
     0
370
    30
100
AcDbLine
 10
562.110091
 20
261.33086
 30
0.0
 11
562.110091
 21
262.133276
 31
0.0
  0
LINE
  5
307
330
277
100
AcDbEntity
  8
0
  6
Continuous
 62
     0
370
    30
100
AcDbLine
 10
563.298168
 20
262.819213
 30
0.0
 11
563.298168
 21
260.950269
 31
0.0
  0
LINE
  5
308
330
277
100
AcDbEntity
  8
0
  6
Continuous
 62
     0
370
    30
100
AcDbLine
 10
563.298168
 20
260.950269
 30
0.0
 11
564.331545
 21
261.546889
 31
0.0
  0
LINE
  5
309
330
277
100
AcDbEntity
  8
0
  6
Continuous
 62
     0
370
    30
100
AcDbLine
 10
564.331545
 20
261.546889
 30
0.0
 11
564.331545
 21
261.774732
 31
0.0
  0
LINE
  5
30A
330
277
100
AcDbEntity
  8
0
  6
Continuous
 62
     0
370
    30
100
AcDbLine
 10
564.331545
 20
261.774732
 30
0.0
 11
563.522334
 21
261.307534
 31
0.0
  0
LINE
  5
30B
330
277
100
AcDbEntity
  8
0
  6
Continuous
 62
     0
370
    30
100
AcDbLine
 10
563.522334
 20
261.307534
 30
0.0
 11
563.522334
 21
261.923643
 31
0.0
  0
LINE
  5
30C
330
277
100
AcDbEntity
  8
0
  6
Continuous
 62
     0
370
    30
100
AcDbLine
 10
563.522334
 20
261.923643
 30
0.0
 11
564.275569
 21
262.358523
 31
0.0
  0
LINE
  5
30D
330
277
100
AcDbEntity
  8
0
  6
Continuous
 62
     0
370
    30
100
AcDbLine
 10
564.275569
 20
262.358523
 30
0.0
 11
564.275569
 21
262.581099
 31
0.0
  0
LINE
  5
30E
330
277
100
AcDbEntity
  8
0
  6
Continuous
 62
     0
370
    30
100
AcDbLine
 10
564.275569
 20
262.581099
 30
0.0
 11
563.522334
 21
262.146218
 31
0.0
  0
LINE
  5
30F
330
277
100
AcDbEntity
  8
0
  6
Continuous
 62
     0
370
    30
100
AcDbLine
 10
563.522334
 20
262.146218
 30
0.0
 11
563.522334
 21
262.720641
 31
0.0
  0
LINE
  5
310
330
277
100
AcDbEntity
  8
0
  6
Continuous
 62
     0
370
    30
100
AcDbLine
 10
563.522334
 20
262.720641
 30
0.0
 11
564.99733
 21
263.572231
 31
0.0
  0
LINE
  5
311
330
277
100
AcDbEntity
  8
0
  6
Continuous
 62
     0
370
    30
100
AcDbLine
 10
564.99733
 20
263.572231
 30
0.0
 11
564.99733
 21
261.93128
 31
0.0
  0
LINE
  5
312
330
277
100
AcDbEntity
  8
0
  6
Continuous
 62
     0
370
    30
100
AcDbLine
 10
564.99733
 20
261.93128
 30
0.0
 11
565.219149
 21
262.059348
 31
0.0
  0
LINE
  5
313
330
277
100
AcDbEntity
  8
0
  6
Continuous
 62
     0
370
    30
100
AcDbLine
 10
565.219149
 20
262.059348
 30
0.0
 11
565.219149
 21
263.46537
 31
0.0
  0
LINE
  5
314
330
277
100
AcDbEntity
  8
0
  6
Continuous
 62
     0
370
    30
100
AcDbLine
 10
565.991543
 20
263.019428
 30
0.0
 11
565.991543
 21
262.505289
 31
0.0
  0
LINE
  5
315
330
277
100
AcDbEntity
  8
0
  6
Continuous
 62
     0
370
    30
100
AcDbLine
 10
565.991543
 20
262.505289
 30
0.0
 11
566.213428
 21
262.633394
 31
0.0
  0
LINE
  5
316
330
277
100
AcDbEntity
  8
0
  6
Continuous
 62
     0
370
    30
100
AcDbLine
 10
566.213428
 20
262.633394
 30
0.0
 11
566.213428
 21
262.891322
 31
0.0
  0
LINE
  5
317
330
277
100
AcDbEntity
  8
0
  6
Continuous
 62
     0
370
    30
100
AcDbLine
 10
564.818247
 20
263.696831
 30
0.0
 11
563.298168
 21
262.819213
 31
0.0
  0
LINE
  5
318
330
277
100
AcDbEntity
  8
0
  6
Continuous
 62
     0
370
    30
100
AcDbLine
 10
647.891311
 20
311.073843
 30
0.0
 11
648.014395
 21
310.737062
 31
0.0
  0
LINE
  5
319
330
277
100
AcDbEntity
  8
0
  6
Continuous
 62
     0
370
    30
100
AcDbLine
 10
648.014395
 20
310.737062
 30
0.0
 11
648.425106
 21
310.865031
 31
0.0
  0
LINE
  5
31A
330
277
100
AcDbEntity
  8
0
  6
Continuous
 62
     0
370
    30
100
AcDbLine
 10
648.425106
 20
310.865031
 30
0.0
 11
648.756362
 21
311.060477
 31
0.0
  0
LINE
  5
31B
330
277
100
AcDbEntity
  8
0
  6
Continuous
 62
     0
370
    30
100
AcDbLine
 10
648.756362
 20
311.060477
 30
0.0
 11
649.102375
 21
311.328414
 31
0.0
  0
LINE
  5
31C
330
277
100
AcDbEntity
  8
0
  6
Continuous
 62
     0
370
    30
100
AcDbLine
 10
649.102375
 20
311.328414
 30
0.0
 11
649.308423
 21
311.644755
 31
0.0
  0
LINE
  5
31D
330
277
100
AcDbEntity
  8
0
  6
Continuous
 62
     0
370
    30
100
AcDbLine
 10
649.308423
 20
311.644755
 30
0.0
 11
649.463372
 21
312.106175
 31
0.0
  0
LINE
  5
31E
330
277
100
AcDbEntity
  8
0
  6
Continuous
 62
     0
370
    30
100
AcDbLine
 10
649.507643
 20
312.132463
 30
0.0
 11
649.357772
 21
311.278174
 31
0.0
  0
LINE
  5
31F
330
277
100
AcDbEntity
  8
0
  6
Continuous
 62
     0
370
    30
100
AcDbLine
 10
649.357772
 20
311.278174
 30
0.0
 11
647.055253
 21
309.923344
 31
0.0
  0
LINE
  5
320
330
277
100
AcDbEntity
  8
0
  6
Continuous
 62
     0
370
    30
100
AcDbLine
 10
647.108595
 20
310.003803
 30
0.0
 11
647.362303
 21
310.282907
 31
0.0
  0
LINE
  5
321
330
277
100
AcDbEntity
  8
0
  6
Continuous
 62
     0
370
    30
100
AcDbLine
 10
647.362303
 20
310.282907
 30
0.0
 11
647.474873
 21
310.715867
 31
0.0
  0
LINE
  5
322
330
277
100
AcDbEntity
  8
0
  6
Continuous
 62
     0
370
    30
100
AcDbLine
 10
647.474873
 20
310.715867
 30
0.0
 11
647.476049
 21
314.159809
 31
0.0
  0
LINE
  5
323
330
277
100
AcDbEntity
  8
0
  6
Continuous
 62
     0
370
    30
100
AcDbLine
 10
647.476049
 20
314.159809
 30
0.0
 11
647.350583
 21
314.483923
 31
0.0
  0
LINE
  5
324
330
277
100
AcDbEntity
  8
0
  6
Continuous
 62
     0
370
    30
100
AcDbLine
 10
647.350583
 20
314.483923
 30
0.0
 11
647.057048
 21
314.425482
 31
0.0
  0
LINE
  5
325
330
277
100
AcDbEntity
  8
0
  6
Continuous
 62
     0
370
    30
100
AcDbLine
 10
647.056706
 20
314.486169
 30
0.0
 11
648.304384
 21
315.217552
 31
0.0
  0
LINE
  5
326
330
277
100
AcDbEntity
  8
0
  6
Continuous
 62
     0
370
    30
100
AcDbLine
 10
648.304726
 20
315.156866
 30
0.0
 11
648.016177
 21
314.877355
 31
0.0
  0
LINE
  5
327
330
277
100
AcDbEntity
  8
0
  6
Continuous
 62
     0
370
    30
100
AcDbLine
 10
648.016177
 20
314.877355
 30
0.0
 11
647.891942
 21
314.403603
 31
0.0
  0
LINE
  5
328
330
277
100
AcDbEntity
  8
0
  6
Continuous
 62
     0
370
    30
100
AcDbLine
 10
647.891942
 20
314.403603
 30
0.0
 11
647.891311
 21
311.073843
 31
0.0
  0
LINE
  5
329
330
277
100
AcDbEntity
  8
0
  6
Continuous
 62
     0
370
    30
100
AcDbLine
 10
651.223072
 20
312.95021
 30
0.0
 11
651.224185
 21
316.385547
 31
0.0
  0
LINE
  5
32A
330
277
100
AcDbEntity
  8
0
  6
Continuous
 62
     0
370
    30
100
AcDbLine
 10
651.224185
 20
316.385547
 30
0.0
 11
651.17773
 21
316.632081
 31
0.0
  0
LINE
  5
32B
330
277
100
AcDbEntity
  8
0
  6
Continuous
 62
     0
370
    30
100
AcDbLine
 10
651.17773
 20
316.632081
 30
0.0
 11
651.062097
 21
316.715021
 31
0.0
  0
LINE
  5
32C
330
277
100
AcDbEntity
  8
0
  6
Continuous
 62
     0
370
    30
100
AcDbLine
 10
651.062097
 20
316.715021
 30
0.0
 11
650.898001
 21
316.664602
 31
0.0
  0
LINE
  5
32D
330
277
100
AcDbEntity
  8
0
  6
Continuous
 62
     0
370
    30
100
AcDbLine
 10
650.898001
 20
316.664602
 30
0.0
 11
650.811008
 21
316.612434
 31
0.0
  0
LINE
  5
32E
330
277
100
AcDbEntity
  8
0
  6
Continuous
 62
     0
370
    30
100
AcDbLine
 10
650.811008
 20
316.612434
 30
0.0
 11
650.810246
 21
316.747451
 31
0.0
  0
LINE
  5
32F
330
277
100
AcDbEntity
  8
0
  6
Continuous
 62
     0
370
    30
100
AcDbLine
 10
650.810246
 20
316.747451
 30
0.0
 11
652.31572
 21
317.654903
 31
0.0
  0
LINE
  5
330
330
277
100
AcDbEntity
  8
0
  6
Continuous
 62
     0
370
    30
100
AcDbLine
 10
652.31572
 20
317.654903
 30
0.0
 11
652.88929
 21
317.938228
 31
0.0
  0
LINE
  5
331
330
277
100
AcDbEntity
  8
0
  6
Continuous
 62
     0
370
    30
100
AcDbLine
 10
652.88929
 20
317.938228
 30
0.0
 11
653.360965
 21
318.05368
 31
0.0
  0
LINE
  5
332
330
277
100
AcDbEntity
  8
0
  6
Continuous
 62
     0
370
    30
100
AcDbLine
 10
653.360965
 20
318.05368
 30
0.0
 11
653.72171
 21
318.038737
 31
0.0
  0
LINE
  5
333
330
277
100
AcDbEntity
  8
0
  6
Continuous
 62
     0
370
    30
100
AcDbLine
 10
653.72171
 20
318.038737
 30
0.0
 11
653.98009
 21
317.93578
 31
0.0
  0
LINE
  5
334
330
277
100
AcDbEntity
  8
0
  6
Continuous
 62
     0
370
    30
100
AcDbLine
 10
653.98009
 20
317.93578
 30
0.0
 11
654.290558
 21
317.635591
 31
0.0
  0
LINE
  5
335
330
277
100
AcDbEntity
  8
0
  6
Continuous
 62
     0
370
    30
100
AcDbLine
 10
654.290558
 20
317.635591
 30
0.0
 11
654.482443
 21
317.183987
 31
0.0
  0
LINE
  5
336
330
277
100
AcDbEntity
  8
0
  6
Continuous
 62
     0
370
    30
100
AcDbLine
 10
654.482443
 20
317.183987
 30
0.0
 11
654.546142
 21
316.608043
 31
0.0
  0
LINE
  5
337
330
277
100
AcDbEntity
  8
0
  6
Continuous
 62
     0
370
    30
100
AcDbLine
 10
654.546142
 20
316.608043
 30
0.0
 11
654.482673
 21
315.965538
 31
0.0
  0
LINE
  5
338
330
277
100
AcDbEntity
  8
0
  6
Continuous
 62
     0
370
    30
100
AcDbLine
 10
654.482673
 20
315.965538
 30
0.0
 11
654.302018
 21
315.325495
 31
0.0
  0
LINE
  5
339
330
277
100
AcDbEntity
  8
0
  6
Continuous
 62
     0
370
    30
100
AcDbLine
 10
654.302018
 20
315.325495
 30
0.0
 11
654.020388
 21
314.712337
 31
0.0
  0
LINE
  5
33A
330
277
100
AcDbEntity
  8
0
  6
Continuous
 62
     0
370
    30
100
AcDbLine
 10
654.020388
 20
314.712337
 30
0.0
 11
653.640417
 21
314.123068
 31
0.0
  0
LINE
  5
33B
330
277
100
AcDbEntity
  8
0
  6
Continuous
 62
     0
370
    30
100
AcDbLine
 10
653.640417
 20
314.123068
 30
0.0
 11
653.210845
 21
313.647199
 31
0.0
  0
LINE
  5
33C
330
277
100
AcDbEntity
  8
0
  6
Continuous
 62
     0
370
    30
100
AcDbLine
 10
653.210845
 20
313.647199
 30
0.0
 11
652.558816
 21
313.169522
 31
0.0
  0
LINE
  5
33D
330
277
100
AcDbEntity
  8
0
  6
Continuous
 62
     0
370
    30
100
AcDbLine
 10
652.558816
 20
313.169522
 30
0.0
 11
650.808837
 21
312.113754
 31
0.0
  0
LINE
  5
33E
330
277
100
AcDbEntity
  8
0
  6
Continuous
 62
     0
370
    30
100
AcDbLine
 10
650.808837
 20
312.113754
 30
0.0
 11
650.809661
 21
312.244615
 31
0.0
  0
LINE
  5
33F
330
277
100
AcDbEntity
  8
0
  6
Continuous
 62
     0
370
    30
100
AcDbLine
 10
650.809661
 20
312.244615
 30
0.0
 11
650.896655
 21
312.296783
 31
0.0
  0
LINE
  5
340
330
277
100
AcDbEntity
  8
0
  6
Continuous
 62
     0
370
    30
100
AcDbLine
 10
650.896655
 20
312.296783
 30
0.0
 11
651.13808
 21
312.58206
 31
0.0
  0
LINE
  5
341
330
277
100
AcDbEntity
  8
0
  6
Continuous
 62
     0
370
    30
100
AcDbLine
 10
651.13808
 20
312.58206
 30
0.0
 11
651.223072
 21
312.95021
 31
0.0
  0
LINE
  5
342
330
277
100
AcDbEntity
  8
0
  6
Continuous
 62
     0
370
    30
100
AcDbLine
 10
652.29323
 20
317.415572
 30
0.0
 11
651.702147
 21
316.989403
 31
0.0
  0
LINE
  5
343
330
277
100
AcDbEntity
  8
0
  6
Continuous
 62
     0
370
    30
100
AcDbLine
 10
651.702147
 20
316.989403
 30
0.0
 11
651.703322
 21
313.416724
 31
0.0
  0
LINE
  5
344
330
277
100
AcDbEntity
  8
0
  6
Continuous
 62
     0
370
    30
100
AcDbLine
 10
651.703322
 20
313.416724
 30
0.0
 11
651.766076
 21
313.089561
 31
0.0
  0
LINE
  5
345
330
277
100
AcDbEntity
  8
0
  6
Continuous
 62
     0
370
    30
100
AcDbLine
 10
651.766076
 20
313.089561
 30
0.0
 11
651.963984
 21
313.064156
 31
0.0
  0
LINE
  5
346
330
277
100
AcDbEntity
  8
0
  6
Continuous
 62
     0
370
    30
100
AcDbLine
 10
651.963984
 20
313.064156
 30
0.0
 11
652.392331
 21
313.287883
 31
0.0
  0
LINE
  5
347
330
277
100
AcDbEntity
  8
0
  6
Continuous
 62
     0
370
    30
100
AcDbLine
 10
652.392331
 20
313.287883
 30
0.0
 11
653.074947
 21
313.797783
 31
0.0
  0
LINE
  5
348
330
277
100
AcDbEntity
  8
0
  6
Continuous
 62
     0
370
    30
100
AcDbLine
 10
653.074947
 20
313.797783
 30
0.0
 11
653.605176
 21
314.541704
 31
0.0
  0
LINE
  5
349
330
277
100
AcDbEntity
  8
0
  6
Continuous
 62
     0
370
    30
100
AcDbLine
 10
653.605176
 20
314.541704
 30
0.0
 11
653.911983
 21
315.325333
 31
0.0
  0
LINE
  5
34A
330
277
100
AcDbEntity
  8
0
  6
Continuous
 62
     0
370
    30
100
AcDbLine
 10
653.911983
 20
315.325333
 30
0.0
 11
654.028229
 21
316.256167
 31
0.0
  0
LINE
  5
34B
330
277
100
AcDbEntity
  8
0
  6
Continuous
 62
     0
370
    30
100
AcDbLine
 10
654.028229
 20
316.256167
 30
0.0
 11
653.934844
 21
316.988579
 31
0.0
  0
LINE
  5
34C
330
277
100
AcDbEntity
  8
0
  6
Continuous
 62
     0
370
    30
100
AcDbLine
 10
653.934844
 20
316.988579
 30
0.0
 11
653.650835
 21
317.509866
 31
0.0
  0
LINE
  5
34D
330
277
100
AcDbEntity
  8
0
  6
Continuous
 62
     0
370
    30
100
AcDbLine
 10
653.650835
 20
317.509866
 30
0.0
 11
653.103044
 21
317.713051
 31
0.0
  0
LINE
  5
34E
330
277
100
AcDbEntity
  8
0
  6
Continuous
 62
     0
370
    30
100
AcDbLine
 10
653.103044
 20
317.713051
 30
0.0
 11
652.29323
 21
317.415572
 31
0.0
  0
LINE
  5
34F
330
277
100
AcDbEntity
  8
0
  6
Continuous
 62
     0
370
    30
100
AcDbLine
 10
645.471088
 20
311.397029
 30
0.0
 11
645.473561
 21
311.268204
 31
0.0
  0
LINE
  5
350
330
277
100
AcDbEntity
  8
0
  6
Continuous
 62
     0
370
    30
100
AcDbLine
 10
645.473561
 20
311.268204
 30
0.0
 11
645.195113
 21
309.89245
 31
0.0
  0
LINE
  5
351
330
277
100
AcDbEntity
  8
0
  6
Continuous
 62
     0
370
    30
100
AcDbLine
 10
645.195113
 20
309.89245
 30
0.0
 11
644.437504
 21
308.564921
 31
0.0
  0
LINE
  5
352
330
277
100
AcDbEntity
  8
0
  6
Continuous
 62
     0
370
    30
100
AcDbLine
 10
644.437504
 20
308.564921
 30
0.0
 11
643.375402
 21
307.626874
 31
0.0
  0
ARC
  5
353
330
277
100
AcDbEntity
  8
0
  6
Continuous
 62
     0
370
    30
100
AcDbCircle
 10
642.405734
 20
309.168637
 30
0.0
 40
1.821343366655495
100
AcDbArc
 50
266.72128
 51
302.167195
  0
LINE
  5
354
330
277
100
AcDbEntity
  8
0
  6
Continuous
 62
     0
370
    30
100
AcDbLine
 10
642.301566
 20
307.350275
 30
0.0
 11
641.534246
 21
307.813088
 31
0.0
  0
ARC
  5
355
330
277
100
AcDbEntity
  8
0
  6
Continuous
 62
     0
370
    30
100
AcDbCircle
 10
643.165281
 20
308.810869
 30
0.0
 40
1.912024726926794
100
AcDbArc
 50
177.658683
 51
211.456077
  0
LINE
  5
356
330
277
100
AcDbEntity
  8
0
  6
Continuous
 62
     0
370
    30
100
AcDbLine
 10
641.254852
 20
308.888979
 30
0.0
 11
641.256861
 21
309.000922
 31
0.0
  0
LINE
  5
357
330
277
100
AcDbEntity
  8
0
  6
Continuous
 62
     0
370
    30
100
AcDbLine
 10
641.256861
 20
309.000922
 30
0.0
 11
641.420951
 21
309.945249
 31
0.0
  0
LINE
  5
358
330
277
100
AcDbEntity
  8
0
  6
Continuous
 62
     0
370
    30
100
AcDbLine
 10
641.420951
 20
309.945249
 30
0.0
 11
641.88711
 21
310.997844
 31
0.0
  0
LINE
  5
359
330
277
100
AcDbEntity
  8
0
  6
Continuous
 62
     0
370
    30
100
AcDbLine
 10
641.88711
 20
310.997844
 30
0.0
 11
642.569556
 21
311.904123
 31
0.0
  0
LINE
  5
35A
330
277
100
AcDbEntity
  8
0
  6
Continuous
 62
     0
370
    30
100
AcDbLine
 10
642.569556
 20
311.904123
 30
0.0
 11
643.371306
 21
312.54351
 31
0.0
  0
LINE
  5
35B
330
277
100
AcDbEntity
  8
0
  6
Continuous
 62
     0
370
    30
100
AcDbLine
 10
643.371306
 20
312.54351
 30
0.0
 11
644.156619
 21
312.814264
 31
0.0
  0
LINE
  5
35C
330
277
100
AcDbEntity
  8
0
  6
Continuous
 62
     0
370
    30
100
AcDbLine
 10
644.156619
 20
312.814264
 30
0.0
 11
644.832486
 21
312.691102
 31
0.0
  0
LINE
  5
35D
330
277
100
AcDbEntity
  8
0
  6
Continuous
 62
     0
370
    30
100
AcDbLine
 10
644.832486
 20
312.691102
 30
0.0
 11
645.303118
 21
312.170071
 31
0.0
  0
LINE
  5
35E
330
277
100
AcDbEntity
  8
0
  6
Continuous
 62
     0
370
    30
100
AcDbLine
 10
645.303118
 20
312.170071
 30
0.0
 11
645.471088
 21
311.397029
 31
0.0
  0
LINE
  5
35F
330
277
100
AcDbEntity
  8
0
  6
Continuous
 62
     0
370
    30
100
AcDbLine
 10
643.37167
 20
312.32123
 30
0.0
 11
642.866722
 21
311.940826
 31
0.0
  0
LINE
  5
360
330
277
100
AcDbEntity
  8
0
  6
Continuous
 62
     0
370
    30
100
AcDbLine
 10
642.866722
 20
311.940826
 30
0.0
 11
642.361483
 21
311.313573
 31
0.0
  0
LINE
  5
361
330
277
100
AcDbEntity
  8
0
  6
Continuous
 62
     0
370
    30
100
AcDbLine
 10
642.361483
 20
311.313573
 30
0.0
 11
641.957061
 21
310.388427
 31
0.0
  0
LINE
  5
362
330
277
100
AcDbEntity
  8
0
  6
Continuous
 62
     0
370
    30
100
AcDbLine
 10
641.957061
 20
310.388427
 30
0.0
 11
641.798533
 21
309.304955
 31
0.0
  0
LINE
  5
363
330
277
100
AcDbEntity
  8
0
  6
Continuous
 62
     0
370
    30
100
AcDbLine
 10
641.798533
 20
309.304955
 30
0.0
 11
641.797085
 21
309.181447
 31
0.0
  0
LINE
  5
364
330
277
100
AcDbEntity
  8
0
  6
Continuous
 62
     0
370
    30
100
AcDbLine
 10
641.797085
 20
309.181447
 30
0.0
 11
641.92885
 21
308.238429
 31
0.0
  0
LINE
  5
365
330
277
100
AcDbEntity
  8
0
  6
Continuous
 62
     0
370
    30
100
AcDbLine
 10
641.92885
 20
308.238429
 30
0.0
 11
642.290012
 21
307.740709
 31
0.0
  0
LINE
  5
366
330
277
100
AcDbEntity
  8
0
  6
Continuous
 62
     0
370
    30
100
AcDbLine
 10
642.290012
 20
307.740709
 30
0.0
 11
642.796705
 21
307.637481
 31
0.0
  0
LINE
  5
367
330
277
100
AcDbEntity
  8
0
  6
Continuous
 62
     0
370
    30
100
AcDbLine
 10
642.796705
 20
307.637481
 30
0.0
 11
643.375907
 21
307.846492
 31
0.0
  0
LINE
  5
368
330
277
100
AcDbEntity
  8
0
  6
Continuous
 62
     0
370
    30
100
AcDbLine
 10
643.375907
 20
307.846492
 30
0.0
 11
643.919305
 21
308.266347
 31
0.0
  0
LINE
  5
369
330
277
100
AcDbEntity
  8
0
  6
Continuous
 62
     0
370
    30
100
AcDbLine
 10
643.919305
 20
308.266347
 30
0.0
 11
644.421864
 21
308.912976
 31
0.0
  0
LINE
  5
36A
330
277
100
AcDbEntity
  8
0
  6
Continuous
 62
     0
370
    30
100
AcDbLine
 10
644.421864
 20
308.912976
 30
0.0
 11
644.794201
 21
309.805967
 31
0.0
  0
LINE
  5
36B
330
277
100
AcDbEntity
  8
0
  6
Continuous
 62
     0
370
    30
100
AcDbLine
 10
644.794201
 20
309.805967
 30
0.0
 11
644.938225
 21
310.949071
 31
0.0
  0
LINE
  5
36C
330
277
100
AcDbEntity
  8
0
  6
Continuous
 62
     0
370
    30
100
AcDbLine
 10
644.938227
 20
310.949072
 30
0.0
 11
644.93652
 21
311.08914
 31
0.0
  0
ARC
  5
36D
330
277
100
AcDbEntity
  8
0
  6
Continuous
 62
     0
370
    30
100
AcDbCircle
 10
642.949667
 20
311.196438
 30
0.0
 40
1.989746461641498
100
AcDbArc
 50
356.908799
 51
30.467084
  0
LINE
  5
36E
330
277
100
AcDbEntity
  8
0
  6
Continuous
 62
     0
370
    30
100
AcDbLine
 10
644.664671
 20
312.205325
 30
0.0
 11
644.040367
 21
312.52844
 31
0.0
  0
LINE
  5
36F
330
277
100
AcDbEntity
  8
0
  6
Continuous
 62
     0
370
    30
100
AcDbLine
 10
644.040367
 20
312.52844
 30
0.0
 11
643.37167
 21
312.32123
 31
0.0
  0
LINE
  5
370
330
277
100
AcDbEntity
  8
0
  6
Continuous
 62
     0
370
    30
100
AcDbLine
 10
637.191908
 20
308.761458
 30
0.0
 11
638.265921
 21
309.691689
 31
0.0
  0
LINE
  5
371
330
277
100
AcDbEntity
  8
0
  6
Continuous
 62
     0
370
    30
100
AcDbLine
 10
638.265921
 20
309.691689
 30
0.0
 11
639.025377
 21
309.986771
 31
0.0
  0
LINE
  5
372
330
277
100
AcDbEntity
  8
0
  6
Continuous
 62
     0
370
    30
100
AcDbLine
 10
639.025377
 20
309.986771
 30
0.0
 11
639.307108
 21
310.013685
 31
0.0
  0
LINE
  5
373
330
277
100
AcDbEntity
  8
0
  6
Continuous
 62
     0
370
    30
100
AcDbLine
 10
639.307108
 20
310.013685
 30
0.0
 11
639.431637
 21
310.055613
 31
0.0
  0
LINE
  5
374
330
277
100
AcDbEntity
  8
0
  6
Continuous
 62
     0
370
    30
100
AcDbLine
 10
639.431637
 20
310.055613
 30
0.0
 11
639.543381
 21
310.156709
 31
0.0
  0
LINE
  5
375
330
277
100
AcDbEntity
  8
0
  6
Continuous
 62
     0
370
    30
100
AcDbLine
 10
639.543381
 20
310.156709
 30
0.0
 11
639.599379
 21
310.357199
 31
0.0
  0
LINE
  5
376
330
277
100
AcDbEntity
  8
0
  6
Continuous
 62
     0
370
    30
100
AcDbLine
 10
639.599379
 20
310.357199
 30
0.0
 11
639.690013
 21
310.407411
 31
0.0
  0
LINE
  5
377
330
277
100
AcDbEntity
  8
0
  6
Continuous
 62
     0
370
    30
100
AcDbLine
 10
639.690013
 20
310.407411
 30
0.0
 11
639.695299
 21
309.216629
 31
0.0
  0
LINE
  5
378
330
277
100
AcDbEntity
  8
0
  6
Continuous
 62
     0
370
    30
100
AcDbLine
 10
639.695299
 20
309.216629
 30
0.0
 11
639.559771
 21
309.141557
 31
0.0
  0
LINE
  5
379
330
277
100
AcDbEntity
  8
0
  6
Continuous
 62
     0
370
    30
100
AcDbLine
 10
639.559771
 20
309.141557
 30
0.0
 11
639.288954
 21
309.573888
 31
0.0
  0
LINE
  5
37A
330
277
100
AcDbEntity
  8
0
  6
Continuous
 62
     0
370
    30
100
AcDbLine
 10
639.288954
 20
309.573888
 30
0.0
 11
638.789808
 21
309.64645
 31
0.0
  0
LINE
  5
37B
330
277
100
AcDbEntity
  8
0
  6
Continuous
 62
     0
370
    30
100
AcDbLine
 10
638.789808
 20
309.64645
 30
0.0
 11
638.261473
 21
309.466786
 31
0.0
  0
LINE
  5
37C
330
277
100
AcDbEntity
  8
0
  6
Continuous
 62
     0
370
    30
100
AcDbLine
 10
638.261473
 20
309.466786
 30
0.0
 11
637.633053
 21
308.959543
 31
0.0
  0
LINE
  5
37D
330
277
100
AcDbEntity
  8
0
  6
Continuous
 62
     0
370
    30
100
AcDbLine
 10
637.633053
 20
308.959543
 30
0.0
 11
637.124883
 21
308.222054
 31
0.0
  0
LINE
  5
37E
330
277
100
AcDbEntity
  8
0
  6
Continuous
 62
     0
370
    30
100
AcDbLine
 10
637.124883
 20
308.222054
 30
0.0
 11
636.791489
 21
307.325756
 31
0.0
  0
LINE
  5
37F
330
277
100
AcDbEntity
  8
0
  6
Continuous
 62
     0
370
    30
100
AcDbLine
 10
636.791489
 20
307.325756
 30
0.0
 11
636.674472
 21
306.474117
 31
0.0
  0
LINE
  5
380
330
277
100
AcDbEntity
  8
0
  6
Continuous
 62
     0
370
    30
100
AcDbLine
 10
636.674472
 20
306.474117
 30
0.0
 11
636.672572
 21
306.351471
 31
0.0
  0
LINE
  5
381
330
277
100
AcDbEntity
  8
0
  6
Continuous
 62
     0
370
    30
100
AcDbLine
 10
636.672572
 20
306.351471
 30
0.0
 11
636.787125
 21
305.53439
 31
0.0
  0
LINE
  5
382
330
277
100
AcDbEntity
  8
0
  6
Continuous
 62
     0
370
    30
100
AcDbLine
 10
636.787125
 20
305.53439
 30
0.0
 11
637.122759
 21
305.018368
 31
0.0
  0
LINE
  5
383
330
277
100
AcDbEntity
  8
0
  6
Continuous
 62
     0
370
    30
100
AcDbLine
 10
637.122759
 20
305.018368
 30
0.0
 11
637.632181
 21
304.851607
 31
0.0
  0
LINE
  5
384
330
277
100
AcDbEntity
  8
0
  6
Continuous
 62
     0
370
    30
100
AcDbLine
 10
637.632181
 20
304.851607
 30
0.0
 11
638.277673
 21
305.055351
 31
0.0
  0
LINE
  5
385
330
277
100
AcDbEntity
  8
0
  6
Continuous
 62
     0
370
    30
100
AcDbLine
 10
638.277673
 20
305.055351
 30
0.0
 11
638.9297
 21
305.551254
 31
0.0
  0
LINE
  5
386
330
277
100
AcDbEntity
  8
0
  6
Continuous
 62
     0
370
    30
100
AcDbLine
 10
638.9297
 20
305.551254
 30
0.0
 11
639.632221
 21
306.467031
 31
0.0
  0
LINE
  5
387
330
277
100
AcDbEntity
  8
0
  6
Continuous
 62
     0
370
    30
100
AcDbLine
 10
639.632221
 20
306.467031
 30
0.0
 11
639.630818
 21
306.170838
 31
0.0
  0
LINE
  5
388
330
277
100
AcDbEntity
  8
0
  6
Continuous
 62
     0
370
    30
100
AcDbLine
 10
639.630818
 20
306.170838
 30
0.0
 11
638.95387
 21
305.304808
 31
0.0
  0
LINE
  5
389
330
277
100
AcDbEntity
  8
0
  6
Continuous
 62
     0
370
    30
100
AcDbLine
 10
638.95387
 20
305.304808
 30
0.0
 11
638.199128
 21
304.736048
 31
0.0
  0
LINE
  5
38A
330
277
100
AcDbEntity
  8
0
  6
Continuous
 62
     0
370
    30
100
AcDbLine
 10
638.199128
 20
304.736048
 30
0.0
 11
637.331212
 21
304.461284
 31
0.0
  0
LINE
  5
38B
330
277
100
AcDbEntity
  8
0
  6
Continuous
 62
     0
370
    30
100
AcDbLine
 10
637.331212
 20
304.461284
 30
0.0
 11
636.668069
 21
304.640777
 31
0.0
  0
LINE
  5
38C
330
277
100
AcDbEntity
  8
0
  6
Continuous
 62
     0
370
    30
100
AcDbLine
 10
636.668069
 20
304.640777
 30
0.0
 11
636.258737
 21
305.185914
 31
0.0
  0
LINE
  5
38D
330
277
100
AcDbEntity
  8
0
  6
Continuous
 62
     0
370
    30
100
AcDbLine
 10
636.258737
 20
305.185914
 30
0.0
 11
636.120822
 21
305.987806
 31
0.0
  0
LINE
  5
38E
330
277
100
AcDbEntity
  8
0
  6
Continuous
 62
     0
370
    30
100
AcDbLine
 10
636.120822
 20
305.987806
 30
0.0
 11
636.126469
 21
306.177255
 31
0.0
  0
LINE
  5
38F
330
277
100
AcDbEntity
  8
0
  6
Continuous
 62
     0
370
    30
100
AcDbLine
 10
636.126469
 20
306.177255
 30
0.0
 11
636.409771
 21
307.408968
 31
0.0
  0
LINE
  5
390
330
277
100
AcDbEntity
  8
0
  6
Continuous
 62
     0
370
    30
100
AcDbLine
 10
636.409771
 20
307.408968
 30
0.0
 11
637.191908
 21
308.761458
 31
0.0
  0
LINE
  5
391
330
277
100
AcDbEntity
  8
0
  6
Continuous
 62
     0
370
    30
100
AcDbLine
 10
504.115683
 20
227.248106
 30
0.0
 11
503.363466
 21
227.121889
 31
0.0
  0
ARC
  5
392
330
277
100
AcDbEntity
  8
0
  6
Continuous
 62
     0
370
    30
100
AcDbCircle
 10
503.468144
 20
228.157352
 30
0.0
 40
1.04074086163249
100
AcDbArc
 50
213.678626
 51
264.227416
  0
ARC
  5
393
330
277
100
AcDbEntity
  8
0
  6
Continuous
 62
     0
370
    30
100
AcDbCircle
 10
504.228334
 20
228.572906
 30
0.0
 40
1.905286127633271
100
AcDbArc
 50
177.48721
 51
211.400289
  0
LINE
  5
394
330
277
100
AcDbEntity
  8
0
  6
Continuous
 62
     0
370
    30
100
AcDbLine
 10
502.32488
 20
228.656439
 30
0.0
 11
502.326658
 21
228.76188
 31
0.0
  0
LINE
  5
395
330
277
100
AcDbEntity
  8
0
  6
Continuous
 62
     0
370
    30
100
AcDbLine
 10
502.326658
 20
228.76188
 30
0.0
 11
502.489465
 21
229.712021
 31
0.0
  0
LINE
  5
396
330
277
100
AcDbEntity
  8
0
  6
Continuous
 62
     0
370
    30
100
AcDbLine
 10
502.489465
 20
229.712021
 30
0.0
 11
502.951754
 21
230.767271
 31
0.0
  0
LINE
  5
397
330
277
100
AcDbEntity
  8
0
  6
Continuous
 62
     0
370
    30
100
AcDbLine
 10
502.951754
 20
230.767271
 30
0.0
 11
503.628652
 21
231.677465
 31
0.0
  0
LINE
  5
398
330
277
100
AcDbEntity
  8
0
  6
Continuous
 62
     0
370
    30
100
AcDbLine
 10
503.628652
 20
231.677465
 30
0.0
 11
504.423957
 21
232.321465
 31
0.0
  0
LINE
  5
399
330
277
100
AcDbEntity
  8
0
  6
Continuous
 62
     0
370
    30
100
AcDbLine
 10
504.423957
 20
232.321465
 30
0.0
 11
505.203078
 21
232.596732
 31
0.0
  0
LINE
  5
39A
330
277
100
AcDbEntity
  8
0
  6
Continuous
 62
     0
370
    30
100
AcDbLine
 10
505.203078
 20
232.596732
 30
0.0
 11
505.873571
 21
232.477333
 31
0.0
  0
LINE
  5
39B
330
277
100
AcDbEntity
  8
0
  6
Continuous
 62
     0
370
    30
100
AcDbLine
 10
505.873571
 20
232.477333
 30
0.0
 11
506.340448
 21
231.958888
 31
0.0
  0
LINE
  5
39C
330
277
100
AcDbEntity
  8
0
  6
Continuous
 62
     0
370
    30
100
AcDbLine
 10
506.340448
 20
231.958888
 30
0.0
 11
506.509602
 21
231.05809
 31
0.0
  0
LINE
  5
39D
330
277
100
AcDbEntity
  8
0
  6
Continuous
 62
     0
370
    30
100
AcDbLine
 10
506.509602
 20
231.05809
 30
0.0
 11
506.23361
 21
229.680673
 31
0.0
  0
LINE
  5
39E
330
277
100
AcDbEntity
  8
0
  6
Continuous
 62
     0
370
    30
100
AcDbLine
 10
506.23361
 20
229.680673
 30
0.0
 11
505.482233
 21
228.348771
 31
0.0
  0
LINE
  5
39F
330
277
100
AcDbEntity
  8
0
  6
Continuous
 62
     0
370
    30
100
AcDbLine
 10
505.482233
 20
228.348771
 30
0.0
 11
504.428898
 21
227.404813
 31
0.0
  0
LINE
  5
3A0
330
277
100
AcDbEntity
  8
0
  6
Continuous
 62
     0
370
    30
100
AcDbLine
 10
504.428898
 20
227.404813
 30
0.0
 11
504.115683
 21
227.248106
 31
0.0
  0
LINE
  5
3A1
330
277
100
AcDbEntity
  8
0
  6
Continuous
 62
     0
370
    30
100
AcDbLine
 10
504.117171
 20
227.478039
 30
0.0
 11
504.428453
 21
227.624157
 31
0.0
  0
LINE
  5
3A2
330
277
100
AcDbEntity
  8
0
  6
Continuous
 62
     0
370
    30
100
AcDbLine
 10
504.428453
 20
227.624157
 30
0.0
 11
504.967395
 21
228.046956
 31
0.0
  0
LINE
  5
3A3
330
277
100
AcDbEntity
  8
0
  6
Continuous
 62
     0
370
    30
100
AcDbLine
 10
504.967395
 20
228.046956
 30
0.0
 11
505.46548
 21
228.697198
 31
0.0
  0
LINE
  5
3A4
330
277
100
AcDbEntity
  8
0
  6
Continuous
 62
     0
370
    30
100
AcDbLine
 10
505.46548
 20
228.697198
 30
0.0
 11
505.83426
 21
229.59162
 31
0.0
  0
LINE
  5
3A5
330
277
100
AcDbEntity
  8
0
  6
Continuous
 62
     0
370
    30
100
AcDbLine
 10
505.83426
 20
229.59162
 30
0.0
 11
505.976604
 21
230.734867
 31
0.0
  0
ARC
  5
3A6
330
277
100
AcDbEntity
  8
0
  6
Continuous
 62
     0
370
    30
100
AcDbCircle
 10
503.801945
 20
230.922214
 30
0.0
 40
2.182714102182663
100
AcDbArc
 50
355.076143
 51
29.288668
  0
LINE
  5
3A7
330
277
100
AcDbEntity
  8
0
  6
Continuous
 62
     0
370
    30
100
AcDbLine
 10
505.705634
 20
231.990019
 30
0.0
 11
505.086755
 21
232.310093
 31
0.0
  0
LINE
  5
3A8
330
277
100
AcDbEntity
  8
0
  6
Continuous
 62
     0
370
    30
100
AcDbLine
 10
505.086755
 20
232.310093
 30
0.0
 11
504.423596
 21
232.09921
 31
0.0
  0
LINE
  5
3A9
330
277
100
AcDbEntity
  8
0
  6
Continuous
 62
     0
370
    30
100
AcDbLine
 10
504.423596
 20
232.09921
 30
0.0
 11
503.922741
 21
231.716014
 31
0.0
  0
LINE
  5
3AA
330
277
100
AcDbEntity
  8
0
  6
Continuous
 62
     0
370
    30
100
AcDbLine
 10
503.922741
 20
231.716014
 30
0.0
 11
503.421473
 21
231.085679
 31
0.0
  0
LINE
  5
3AB
330
277
100
AcDbEntity
  8
0
  6
Continuous
 62
     0
370
    30
100
AcDbLine
 10
503.421473
 20
231.085679
 30
0.0
 11
503.02005
 21
230.157781
 31
0.0
  0
LINE
  5
3AC
330
277
100
AcDbEntity
  8
0
  6
Continuous
 62
     0
370
    30
100
AcDbLine
 10
503.02005
 20
230.157781
 30
0.0
 11
502.862451
 21
229.065595
 31
0.0
  0
LINE
  5
3AD
330
277
100
AcDbEntity
  8
0
  6
Continuous
 62
     0
370
    30
100
AcDbLine
 10
502.862451
 20
229.065595
 30
0.0
 11
502.861194
 21
228.948571
 31
0.0
  0
LINE
  5
3AE
330
277
100
AcDbEntity
  8
0
  6
Continuous
 62
     0
370
    30
100
AcDbLine
 10
502.861194
 20
228.948571
 30
0.0
 11
502.99233
 21
228.006857
 31
0.0
  0
LINE
  5
3AF
330
277
100
AcDbEntity
  8
0
  6
Continuous
 62
     0
370
    30
100
AcDbLine
 10
502.99233
 20
228.006857
 30
0.0
 11
503.351151
 21
227.511816
 31
0.0
  0
LINE
  5
3B0
330
277
100
AcDbEntity
  8
0
  6
Continuous
 62
     0
370
    30
100
AcDbLine
 10
503.351151
 20
227.511816
 30
0.0
 11
503.854019
 21
227.411836
 31
0.0
  0
LINE
  5
3B1
330
277
100
AcDbEntity
  8
0
  6
Continuous
 62
     0
370
    30
100
AcDbLine
 10
503.854019
 20
227.411836
 30
0.0
 11
504.117172
 21
227.478039
 31
0.0
  0
LINE
  5
3B2
330
277
100
AcDbEntity
  8
0
  6
Continuous
 62
     0
370
    30
100
AcDbLine
 10
499.864517
 20
228.989153
 30
0.0
 11
499.769122
 21
229.27311
 31
0.0
  0
LINE
  5
3B3
330
277
100
AcDbEntity
  8
0
  6
Continuous
 62
     0
370
    30
100
AcDbLine
 10
499.769122
 20
229.27311
 30
0.0
 11
499.440538
 21
229.21799
 31
0.0
  0
LINE
  5
3B4
330
277
100
AcDbEntity
  8
0
  6
Continuous
 62
     0
370
    30
100
AcDbLine
 10
499.440538
 20
229.21799
 30
0.0
 11
499.440077
 21
229.362005
 31
0.0
  0
LINE
  5
3B5
330
277
100
AcDbEntity
  8
0
  6
Continuous
 62
     0
370
    30
100
AcDbLine
 10
499.440077
 20
229.362005
 30
0.0
 11
500.778529
 21
230.106758
 31
0.0
  0
LINE
  5
3B6
330
277
100
AcDbEntity
  8
0
  6
Continuous
 62
     0
370
    30
100
AcDbLine
 10
500.778529
 20
230.106758
 30
0.0
 11
500.778989
 21
229.962936
 31
0.0
  0
LINE
  5
3B7
330
277
100
AcDbEntity
  8
0
  6
Continuous
 62
     0
370
    30
100
AcDbLine
 10
500.778989
 20
229.962936
 30
0.0
 11
500.44994
 21
229.653196
 31
0.0
  0
LINE
  5
3B8
330
277
100
AcDbEntity
  8
0
  6
Continuous
 62
     0
370
    30
100
AcDbLine
 10
500.44994
 20
229.653196
 30
0.0
 11
500.358215
 21
229.261694
 31
0.0
  0
LINE
  5
3B9
330
277
100
AcDbEntity
  8
0
  6
Continuous
 62
     0
370
    30
100
AcDbLine
 10
500.358215
 20
229.261694
 30
0.0
 11
500.360163
 21
227.654381
 31
0.0
  0
LINE
  5
3BA
330
277
100
AcDbEntity
  8
0
  6
Continuous
 62
     0
370
    30
100
AcDbLine
 10
500.360163
 20
227.654381
 30
0.0
 11
500.357682
 21
225.82898
 31
0.0
  0
ARC
  5
3BB
330
277
100
AcDbEntity
  8
0
  6
Continuous
 62
     0
370
    30
100
AcDbCircle
 10
500.622738
 20
225.824984
 30
0.0
 40
0.265085800081446
100
AcDbArc
 50
179.136283
 51
305.934722
  0
LINE
  5
3BC
330
277
100
AcDbEntity
  8
0
  6
Continuous
 62
     0
370
    30
100
AcDbLine
 10
500.778307
 20
225.610347
 30
0.0
 11
500.777804
 21
225.468425
 31
0.0
  0
LINE
  5
3BD
330
277
100
AcDbEntity
  8
0
  6
Continuous
 62
     0
370
    30
100
AcDbLine
 10
500.777804
 20
225.468425
 30
0.0
 11
499.439335
 21
224.723542
 31
0.0
  0
LINE
  5
3BE
330
277
100
AcDbEntity
  8
0
  6
Continuous
 62
     0
370
    30
100
AcDbLine
 10
499.439335
 20
224.723542
 30
0.0
 11
499.439836
 21
224.865628
 31
0.0
  0
LINE
  5
3BF
330
277
100
AcDbEntity
  8
0
  6
Continuous
 62
     0
370
    30
100
AcDbLine
 10
499.439836
 20
224.865628
 30
0.0
 11
499.761486
 21
225.155541
 31
0.0
  0
LINE
  5
3C0
330
277
100
AcDbEntity
  8
0
  6
Continuous
 62
     0
370
    30
100
AcDbLine
 10
499.761486
 20
225.155541
 30
0.0
 11
499.863996
 21
225.549954
 31
0.0
  0
LINE
  5
3C1
330
277
100
AcDbEntity
  8
0
  6
Continuous
 62
     0
370
    30
100
AcDbLine
 10
499.863996
 20
225.549954
 30
0.0
 11
499.866476
 21
227.29381
 31
0.0
  0
LINE
  5
3C2
330
277
100
AcDbEntity
  8
0
  6
Continuous
 62
     0
370
    30
100
AcDbLine
 10
499.866476
 20
227.29381
 30
0.0
 11
497.699463
 21
226.102552
 31
0.0
  0
LINE
  5
3C3
330
277
100
AcDbEntity
  8
0
  6
Continuous
 62
     0
370
    30
100
AcDbLine
 10
497.699463
 20
226.102552
 30
0.0
 11
497.697044
 21
224.36505
 31
0.0
  0
LINE
  5
3C4
330
277
100
AcDbEntity
  8
0
  6
Continuous
 62
     0
370
    30
100
AcDbLine
 10
497.697044
 20
224.36505
 30
0.0
 11
497.801111
 21
224.083798
 31
0.0
  0
LINE
  5
3C5
330
277
100
AcDbEntity
  8
0
  6
Continuous
 62
     0
370
    30
100
AcDbLine
 10
497.801111
 20
224.083798
 30
0.0
 11
498.119845
 21
224.140073
 31
0.0
  0
LINE
  5
3C6
330
277
100
AcDbEntity
  8
0
  6
Continuous
 62
     0
370
    30
100
AcDbLine
 10
498.119845
 20
224.140073
 30
0.0
 11
498.119347
 21
223.997818
 31
0.0
  0
LINE
  5
3C7
330
277
100
AcDbEntity
  8
0
  6
Continuous
 62
     0
370
    30
100
AcDbLine
 10
498.119347
 20
223.997818
 30
0.0
 11
496.774034
 21
223.267119
 31
0.0
  0
LINE
  5
3C8
330
277
100
AcDbEntity
  8
0
  6
Continuous
 62
     0
370
    30
100
AcDbLine
 10
496.774034
 20
223.267119
 30
0.0
 11
496.774528
 21
223.409218
 31
0.0
  0
LINE
  5
3C9
330
277
100
AcDbEntity
  8
0
  6
Continuous
 62
     0
370
    30
100
AcDbLine
 10
496.774528
 20
223.409218
 30
0.0
 11
497.099709
 21
223.701028
 31
0.0
  0
LINE
  5
3CA
330
277
100
AcDbEntity
  8
0
  6
Continuous
 62
     0
370
    30
100
AcDbLine
 10
497.099709
 20
223.701028
 30
0.0
 11
497.200833
 21
224.093398
 31
0.0
  0
LINE
  5
3CB
330
277
100
AcDbEntity
  8
0
  6
Continuous
 62
     0
370
    30
100
AcDbLine
 10
497.200833
 20
224.093398
 30
0.0
 11
497.203248
 21
225.918937
 31
0.0
  0
LINE
  5
3CC
330
277
100
AcDbEntity
  8
0
  6
Continuous
 62
     0
370
    30
100
AcDbLine
 10
497.203248
 20
225.918937
 30
0.0
 11
497.20126
 21
227.526333
 31
0.0
  0
ARC
  5
3CD
330
277
100
AcDbEntity
  8
0
  6
Continuous
 62
     0
370
    30
100
AcDbCircle
 10
496.926111
 20
227.531979
 30
0.0
 40
0.2752069659364884
100
AcDbArc
 50
358.824414
 51
123.299869
  0
LINE
  5
3CE
330
277
100
AcDbEntity
  8
0
  6
Continuous
 62
     0
370
    30
100
AcDbLine
 10
496.775017
 20
227.762
 30
0.0
 11
496.774553
 21
227.905934
 31
0.0
  0
LINE
  5
3CF
330
277
100
AcDbEntity
  8
0
  6
Continuous
 62
     0
370
    30
100
AcDbLine
 10
496.774553
 20
227.905934
 30
0.0
 11
498.119942
 21
228.636477
 31
0.0
  0
LINE
  5
3D0
330
277
100
AcDbEntity
  8
0
  6
Continuous
 62
     0
370
    30
100
AcDbLine
 10
498.119942
 20
228.636477
 30
0.0
 11
498.120404
 21
228.492501
 31
0.0
  0
LINE
  5
3D1
330
277
100
AcDbEntity
  8
0
  6
Continuous
 62
     0
370
    30
100
AcDbLine
 10
498.120404
 20
228.492501
 30
0.0
 11
497.790517
 21
228.187711
 31
0.0
  0
LINE
  5
3D2
330
277
100
AcDbEntity
  8
0
  6
Continuous
 62
     0
370
    30
100
AcDbLine
 10
497.790517
 20
228.187711
 30
0.0
 11
497.697475
 21
227.797956
 31
0.0
  0
LINE
  5
3D3
330
277
100
AcDbEntity
  8
0
  6
Continuous
 62
     0
370
    30
100
AcDbLine
 10
497.697475
 20
227.797956
 30
0.0
 11
497.699442
 21
226.323567
 31
0.0
  0
LINE
  5
3D4
330
277
100
AcDbEntity
  8
0
  6
Continuous
 62
     0
370
    30
100
AcDbLine
 10
497.699442
 20
226.323567
 30
0.0
 11
499.866459
 21
227.514815
 31
0.0
  0
LINE
  5
3D5
330
277
100
AcDbEntity
  8
0
  6
Continuous
 62
     0
370
    30
100
AcDbLine
 10
499.866459
 20
227.514815
 30
0.0
 11
499.864517
 21
228.989153
 31
0.0
  0
LINE
  5
3D6
330
277
100
AcDbEntity
  8
0
  6
Continuous
 62
     0
370
    30
100
AcDbLine
 10
511.274058
 20
235.359311
 30
0.0
 11
511.145004
 21
235.279736
 31
0.0
  0
LINE
  5
3D7
330
277
100
AcDbEntity
  8
0
  6
Continuous
 62
     0
370
    30
100
AcDbLine
 10
511.145004
 20
235.279736
 30
0.0
 11
510.972428
 21
235.744348
 31
0.0
  0
LINE
  5
3D8
330
277
100
AcDbEntity
  8
0
  6
Continuous
 62
     0
370
    30
100
AcDbLine
 10
510.972428
 20
235.744348
 30
0.0
 11
510.521765
 21
235.591657
 31
0.0
  0
LINE
  5
3D9
330
277
100
AcDbEntity
  8
0
  6
Continuous
 62
     0
370
    30
100
AcDbLine
 10
510.521765
 20
235.591657
 30
0.0
 11
509.795435
 21
235.148145
 31
0.0
  0
LINE
  5
3DA
330
277
100
AcDbEntity
  8
0
  6
Continuous
 62
     0
370
    30
100
AcDbLine
 10
509.795435
 20
235.148145
 30
0.0
 11
509.795998
 21
231.32084
 31
0.0
  0
ARC
  5
3DB
330
277
100
AcDbEntity
  8
0
  6
Continuous
 62
     0
370
    30
100
AcDbCircle
 10
510.047057
 20
231.318445
 30
0.0
 40
0.2510698009448673
100
AcDbArc
 50
179.453319
 51
310.060733
  0
LINE
  5
3DC
330
277
100
AcDbEntity
  8
0
  6
Continuous
 62
     0
370
    30
100
AcDbLine
 10
510.208645
 20
231.126285
 30
0.0
 11
510.208139
 21
230.984389
 31
0.0
  0
LINE
  5
3DD
330
277
100
AcDbEntity
  8
0
  6
Continuous
 62
     0
370
    30
100
AcDbLine
 10
510.208139
 20
230.984389
 30
0.0
 11
508.89492
 21
230.187177
 31
0.0
  0
LINE
  5
3DE
330
277
100
AcDbEntity
  8
0
  6
Continuous
 62
     0
370
    30
100
AcDbLine
 10
508.89492
 20
230.187177
 30
0.0
 11
508.895428
 21
230.329469
 31
0.0
  0
LINE
  5
3DF
330
277
100
AcDbEntity
  8
0
  6
Continuous
 62
     0
370
    30
100
AcDbLine
 10
508.895428
 20
230.329469
 30
0.0
 11
509.203266
 21
230.617693
 31
0.0
  0
LINE
  5
3E0
330
277
100
AcDbEntity
  8
0
  6
Continuous
 62
     0
370
    30
100
AcDbLine
 10
509.203266
 20
230.617693
 30
0.0
 11
509.311663
 21
231.034319
 31
0.0
  0
LINE
  5
3E1
330
277
100
AcDbEntity
  8
0
  6
Continuous
 62
     0
370
    30
100
AcDbLine
 10
509.311663
 20
231.034319
 30
0.0
 11
509.311099
 21
234.854064
 31
0.0
  0
LINE
  5
3E2
330
277
100
AcDbEntity
  8
0
  6
Continuous
 62
     0
370
    30
100
AcDbLine
 10
509.311099
 20
234.854064
 30
0.0
 11
508.581054
 21
234.413292
 31
0.0
  0
LINE
  5
3E3
330
277
100
AcDbEntity
  8
0
  6
Continuous
 62
     0
370
    30
100
AcDbLine
 10
508.581054
 20
234.413292
 30
0.0
 11
508.129834
 21
234.01841
 31
0.0
  0
LINE
  5
3E4
330
277
100
AcDbEntity
  8
0
  6
Continuous
 62
     0
370
    30
100
AcDbLine
 10
508.129834
 20
234.01841
 30
0.0
 11
507.926336
 21
233.325767
 31
0.0
  0
LINE
  5
3E5
330
277
100
AcDbEntity
  8
0
  6
Continuous
 62
     0
370
    30
100
AcDbLine
 10
507.926336
 20
233.325767
 30
0.0
 11
507.816837
 21
233.260316
 31
0.0
  0
LINE
  5
3E6
330
277
100
AcDbEntity
  8
0
  6
Continuous
 62
     0
370
    30
100
AcDbLine
 10
507.816837
 20
233.260316
 30
0.0
 11
507.813409
 21
234.45515
 31
0.0
  0
LINE
  5
3E7
330
277
100
AcDbEntity
  8
0
  6
Continuous
 62
     0
370
    30
100
AcDbLine
 10
507.813409
 20
234.45515
 30
0.0
 11
507.912604
 21
234.514442
 31
0.0
  0
LINE
  5
3E8
330
277
100
AcDbEntity
  8
0
  6
Continuous
 62
     0
370
    30
100
AcDbLine
 10
507.912604
 20
234.514442
 30
0.0
 11
507.991753
 21
234.40426
 31
0.0
  0
LINE
  5
3E9
330
277
100
AcDbEntity
  8
0
  6
Continuous
 62
     0
370
    30
100
AcDbLine
 10
508.062062
 20
234.378465
 30
0.0
 11
508.167818
 21
234.400466
 31
0.0
  0
LINE
  5
3EA
330
277
100
AcDbEntity
  8
0
  6
Continuous
 62
     0
370
    30
100
AcDbLine
 10
508.167818
 20
234.400466
 30
0.0
 11
508.319898
 21
234.47908
 31
0.0
  0
LINE
  5
3EB
330
277
100
AcDbEntity
  8
0
  6
Continuous
 62
     0
370
    30
100
AcDbLine
 10
508.319898
 20
234.47908
 30
0.0
 11
510.809986
 21
235.991258
 31
0.0
  0
LINE
  5
3EC
330
277
100
AcDbEntity
  8
0
  6
Continuous
 62
     0
370
    30
100
AcDbLine
 10
510.809986
 20
235.991258
 30
0.0
 11
511.172136
 21
236.493347
 31
0.0
  0
LINE
  5
3ED
330
277
100
AcDbEntity
  8
0
  6
Continuous
 62
     0
370
    30
100
AcDbLine
 10
511.172136
 20
236.493347
 30
0.0
 11
511.270568
 21
236.554055
 31
0.0
  0
LINE
  5
3EE
330
277
100
AcDbEntity
  8
0
  6
Continuous
 62
     0
370
    30
100
AcDbLine
 10
511.270568
 20
236.554055
 30
0.0
 11
511.274058
 21
235.359311
 31
0.0
  0
ENDBLK
  5
3F0
330
277
100
AcDbEntity
  8
0
100
AcDbBlockEnd
  0
BLOCK
  5
44F
330
3F2
100
AcDbEntity
  8
0
100
AcDbBlockBegin
  2
e
 70
     0
 10
63.30658
 20
0.0
 30
0.0
  3
e
  1

  0
ARC
  5
3F3
330
3F2
100
AcDbEntity
  8
0
  6
Continuous
 62
     0
370
    30
100
AcDbCircle
 10
399.275037
 20
509.620209
 30
0.0
 40
399.9999999999209
100
AcDbArc
 50
180.403657
 51
183.916106
  0
LINE
  5
3F4
330
3F2
100
AcDbEntity
  8
0
  6
Continuous
 62
     0
370
    30
100
AcDbLine
 10
-0.720811
 20
507.797864
 30
0.0
 11
-0.715036
 21
506.802195
 31
0.0
  0
LWPOLYLINE
  5
3F5
330
3F2
100
AcDbEntity
  8
0
  6
Continuous
 62
     0
370
     0
100
AcDbPolyline
 90
       60
 70
     0
 43
0.0
 10
0.208989
 20
482.30191
 10
0.208989
 20
482.333923
 10
0.20899
 20
482.432281
 10
0.20899
 20
482.600372
 10
0.20899
 20
482.841156
 10
0.20899
 20
483.157166
 10
0.20899
 20
483.550415
 10
0.208991
 20
484.022369
 10
0.208991
 20
484.573853
 10
0.208991
 20
485.204987
 10
0.208991
 20
485.9151
 10
0.208991
 20
486.70285
 10
0.208991
 20
487.566101
 10
0.208992
 20
488.501892
 10
0.208992
 20
489.506592
 10
0.208992
 20
490.575836
 10
0.208992
 20
491.704712
 10
0.208992
 20
492.887604
 10
0.208992
 20
494.118561
 10
0.208992
 20
495.391235
 10
0.208992
 20
496.699005
 10
0.208993
 20
498.035065
 10
0.208993
 20
499.392639
 10
0.208993
 20
500.764984
 10
0.208993
 20
502.145508
 10
0.208993
 20
503.527832
 10
0.208993
 20
504.905975
 10
0.208993
 20
506.274261
 10
0.208993
 20
507.627533
 10
0.208993
 20
508.960999
 10
0.208993
 20
510.276917
 10
0.208993
 20
511.610352
 10
0.208993
 20
512.963562
 10
0.208993
 20
514.331848
 10
0.208993
 20
515.709961
 10
0.208993
 20
517.092346
 10
0.208993
 20
518.472839
 10
0.208993
 20
519.845215
 10
0.208993
 20
521.20282
 10
0.208992
 20
522.53894
 10
0.208992
 20
523.846741
 10
0.208992
 20
525.119507
 10
0.208992
 20
526.350525
 10
0.208992
 20
527.533569
 10
0.208992
 20
528.662476
 10
0.208992
 20
529.731873
 10
0.208992
 20
530.736694
 10
0.208991
 20
531.672668
 10
0.208991
 20
532.536011
 10
0.208991
 20
533.323914
 10
0.208991
 20
534.03418
 10
0.208991
 20
534.665466
 10
0.208991
 20
535.217102
 10
0.20899
 20
535.689209
 10
0.20899
 20
536.082581
 10
0.20899
 20
536.398743
 10
0.20899
 20
536.639648
 10
0.20899
 20
536.807861
 10
0.208989
 20
536.906372
 10
0.208989
 20
536.938477
  0
LWPOLYLINE
  5
3F6
330
3F2
100
AcDbEntity
  8
0
  6
Continuous
 62
     0
370
     0
100
AcDbPolyline
 90
       60
 70
     0
 43
0.0
 10
1.206654
 20
481.370209
 10
1.206655
 20
481.410339
 10
1.206655
 20
481.530396
 10
1.206655
 20
481.730011
 10
1.206655
 20
482.008698
 10
1.206655
 20
482.365814
 10
1.206656
 20
482.80011
 10
1.206656
 20
483.310394
 10
1.206656
 20
483.895355
 10
1.206656
 20
484.553314
 10
1.206656
 20
485.282227
 10
1.206656
 20
486.080078
 10
1.206657
 20
486.944733
 10
1.206657
 20
487.873657
 10
1.206657
 20
488.864288
 10
1.206657
 20
489.91394
 10
1.206657
 20
491.019714
 10
1.206657
 20
492.178009
 10
1.206657
 20
493.385223
 10
1.206658
 20
494.637726
 10
1.206658
 20
495.932068
 10
1.206658
 20
497.264984
 10
1.206658
 20
498.633179
 10
1.206658
 20
500.033295
 10
1.206658
 20
501.461273
 10
1.206658
 20
502.91275
 10
1.206658
 20
504.383484
 10
1.206658
 20
505.869049
 10
1.206658
 20
507.36496
 10
1.206658
 20
508.866669
 10
1.206658
 20
510.36969
 10
1.206658
 20
511.869904
 10
1.206658
 20
513.363525
 10
1.206658
 20
514.846985
 10
1.206658
 20
516.316406
 10
1.206658
 20
517.7677
 10
1.206658
 20
519.196289
 10
1.206658
 20
520.597717
 10
1.206658
 20
521.967773
 10
1.206658
 20
523.302734
 10
1.206658
 20
524.598816
 10
1.206657
 20
525.852417
 10
1.206657
 20
527.059998
 10
1.206657
 20
528.218262
 10
1.206657
 20
529.323792
 10
1.206657
 20
530.373413
 10
1.206657
 20
531.364197
 10
1.206657
 20
532.293335
 10
1.206656
 20
533.158264
 10
1.206656
 20
533.956299
 10
1.206656
 20
534.685364
 10
1.206656
 20
535.343506
 10
1.206656
 20
535.92865
 10
1.206656
 20
536.439087
 10
1.206655
 20
536.873596
 10
1.206655
 20
537.230896
 10
1.206655
 20
537.509827
 10
1.206655
 20
537.709595
 10
1.206655
 20
537.829895
 10
1.206654
 20
537.870239
  0
ARC
  5
3F7
330
3F2
100
AcDbEntity
  8
0
  6
Continuous
 62
     0
370
    30
100
AcDbCircle
 10
1.206654
 20
482.370209
 30
0.0
 40
0.99999999999971
100
AcDbArc
 50
183.916106
 51
270.0
  0
LINE
  5
3F8
330
3F2
100
AcDbEntity
  8
0
  6
Continuous
 62
     0
370
    30
100
AcDbLine
 10
1.206654
 20
481.370209
 30
0.0
 11
17.773863
 21
481.370209
 31
0.0
  0
LINE
  5
3F9
330
3F2
100
AcDbEntity
  8
0
  6
Continuous
 62
     0
370
    30
100
AcDbLine
 10
17.773863
 20
537.870209
 30
0.0
 11
17.773863
 21
481.370209
 31
0.0
  0
LINE
  5
3FA
330
3F2
100
AcDbEntity
  8
0
  6
Continuous
 62
     0
370
    30
100
AcDbLine
 10
20.195579
 20
540.120209
 30
0.0
 11
20.195579
 21
526.266553
 31
0.0
  0
LINE
  5
3FB
330
3F2
100
AcDbEntity
  8
0
  6
Continuous
 62
     0
370
    30
100
AcDbLine
 10
20.195579
 20
526.266553
 30
0.0
 11
20.195579
 21
479.120209
 31
0.0
  0
LINE
  5
3FC
330
3F2
100
AcDbEntity
  8
0
  6
Continuous
 62
     0
370
    30
100
AcDbLine
 10
18.595579
 20
479.120209
 30
0.0
 11
18.595579
 21
526.266553
 31
0.0
  0
LINE
  5
3FD
330
3F2
100
AcDbEntity
  8
0
  6
Continuous
 62
     0
370
    30
100
AcDbLine
 10
18.595579
 20
526.266553
 30
0.0
 11
18.595579
 21
540.120209
 31
0.0
  0
LWPOLYLINE
  5
3FE
330
3F2
100
AcDbEntity
  8
0
  6
Continuous
 62
     0
370
    30
100
AcDbPolyline
 90
       22
 70
     0
 43
0.0
 10
25.995579
 20
540.120239
 10
25.995579
 20
540.083801
 10
25.995579
 20
539.973999
 10
25.995579
 20
539.790588
 10
25.995579
 20
539.533691
 10
25.995581
 20
539.204102
 10
25.995581
 20
538.80304
 10
25.995581
 20
538.332275
 10
25.995581
 20
537.794128
 10
25.995581
 20
537.191284
 10
25.995581
 20
536.526917
 10
25.995581
 20
535.804565
 10
25.995581
 20
535.027954
 10
25.995581
 20
534.201172
 10
25.995581
 20
533.328552
 10
25.995581
 20
532.414551
 10
25.995583
 20
531.463562
 10
25.995583
 20
530.480164
 10
25.995583
 20
529.468872
 10
25.995583
 20
528.434082
 10
25.995583
 20
527.380249
 10
25.995583
 20
526.266541
  0
LINE
  5
3FF
330
3F2
100
AcDbEntity
  8
0
  6
Continuous
 62
     0
370
    30
100
AcDbLine
 10
25.995582
 20
526.266553
 30
0.0
 11
25.995579
 21
479.120209
 31
0.0
  0
LINE
  5
400
330
3F2
100
AcDbEntity
  8
0
  6
Continuous
 62
     0
370
    30
100
AcDbLine
 10
27.595579
 20
540.120209
 30
0.0
 11
27.595579
 21
526.266553
 31
0.0
  0
LINE
  5
401
330
3F2
100
AcDbEntity
  8
0
  6
Continuous
 62
     0
370
    30
100
AcDbLine
 10
27.595579
 20
526.266553
 30
0.0
 11
27.595579
 21
479.120209
 31
0.0
  0
LINE
  5
402
330
3F2
100
AcDbEntity
  8
0
  6
Continuous
 62
     0
370
    30
100
AcDbLine
 10
17.773863
 20
536.120209
 30
0.0
 11
18.595579
 21
536.120209
 31
0.0
  0
LINE
  5
403
330
3F2
100
AcDbEntity
  8
0
  6
Continuous
 62
     0
370
    30
100
AcDbLine
 10
17.773863
 20
483.120209
 30
0.0
 11
18.595579
 21
483.120209
 31
0.0
  0
LINE
  5
404
330
3F2
100
AcDbEntity
  8
0
  6
Continuous
 62
     0
370
    30
100
AcDbLine
 10
27.595579
 20
540.120209
 30
0.0
 11
25.995579
 21
540.120209
 31
0.0
  0
LINE
  5
405
330
3F2
100
AcDbEntity
  8
0
  6
Continuous
 62
     0
370
    30
100
AcDbLine
 10
27.595579
 20
479.120209
 30
0.0
 11
25.995579
 21
479.120209
 31
0.0
  0
LINE
  5
406
330
3F2
100
AcDbEntity
  8
0
  6
Continuous
 62
     0
370
    30
100
AcDbLine
 10
25.995579
 20
539.070209
 30
0.0
 11
20.195579
 21
539.070209
 31
0.0
  0
LINE
  5
407
330
3F2
100
AcDbEntity
  8
0
  6
Continuous
 62
     0
370
    30
100
AcDbLine
 10
25.995579
 20
480.170209
 30
0.0
 11
20.195579
 21
480.170209
 31
0.0
  0
LINE
  5
408
330
3F2
100
AcDbEntity
  8
0
  6
Continuous
 62
     0
370
    30
100
AcDbLine
 10
20.195579
 20
540.120209
 30
0.0
 11
18.595579
 21
540.120209
 31
0.0
  0
LINE
  5
409
330
3F2
100
AcDbEntity
  8
0
  6
Continuous
 62
     0
370
    30
100
AcDbLine
 10
20.195579
 20
479.120209
 30
0.0
 11
18.595579
 21
479.120209
 31
0.0
  0
LINE
  5
40A
330
3F2
100
AcDbEntity
  8
0
  6
Continuous
 62
     0
370
    30
100
AcDbLine
 10
1.206654
 20
537.870209
 30
0.0
 11
17.773863
 21
537.870209
 31
0.0
  0
ARC
  5
40B
330
3F2
100
AcDbEntity
  8
0
  6
Continuous
 62
     0
370
    30
100
AcDbCircle
 10
1.209497
 20
536.867165
 30
0.0
 40
1.00304819193634
100
AcDbArc
 50
90.162391
 51
175.921502
  0
ARC
  5
40C
330
3F2
100
AcDbEntity
  8
0
  6
Continuous
 62
     0
370
    30
100
AcDbCircle
 10
399.273701
 20
509.620279
 30
0.0
 40
399.998661722393
100
AcDbArc
 50
176.083891
 51
179.613517
  0
LINE
  5
40D
330
3F2
100
AcDbEntity
  8
0
  6
Continuous
 62
     0
370
    30
100
AcDbLine
 10
-0.724961
 20
509.650277
 30
0.0
 11
-0.716939
 21
512.153574
 31
0.0
  0
LINE
  5
40E
330
3F2
100
AcDbEntity
  8
0
  6
Continuous
 62
     0
370
     0
100
AcDbLine
 10
-202.604447
 20
437.870262
 30
0.0
 11
-191.259255
 21
437.870262
 31
0.0
  0
LINE
  5
40F
330
3F2
100
AcDbEntity
  8
0
  6
Continuous
 62
     0
370
     0
100
AcDbLine
 10
-191.259255
 20
437.870262
 30
0.0
 11
-180.604448
 21
437.870262
 31
0.0
  0
LINE
  5
410
330
3F2
100
AcDbEntity
  8
0
  6
Continuous
 62
     0
370
     0
100
AcDbLine
 10
-180.604448
 20
454.870262
 30
0.0
 11
-191.259255
 21
454.870262
 31
0.0
  0
LINE
  5
411
330
3F2
100
AcDbEntity
  8
0
  6
Continuous
 62
     0
370
     0
100
AcDbLine
 10
-191.259255
 20
454.870262
 30
0.0
 11
-202.604447
 21
454.870262
 31
0.0
  0
LINE
  5
412
330
3F2
100
AcDbEntity
  8
0
  6
Continuous
 62
     0
370
    30
100
AcDbLine
 10
-179.854448
 20
455.120262
 30
0.0
 11
-191.235719
 21
455.120262
 31
0.0
  0
LINE
  5
413
330
3F2
100
AcDbEntity
  8
0
  6
Continuous
 62
     0
370
    30
100
AcDbLine
 10
-191.235719
 20
455.120262
 30
0.0
 11
-203.354448
 21
455.120262
 31
0.0
  0
LINE
  5
414
330
3F2
100
AcDbEntity
  8
0
  6
Continuous
 62
     0
370
     0
100
AcDbLine
 10
-179.604448
 20
457.370262
 30
0.0
 11
-191.227873
 21
457.370262
 31
0.0
  0
LINE
  5
415
330
3F2
100
AcDbEntity
  8
0
  6
Continuous
 62
     0
370
     0
100
AcDbLine
 10
-191.227873
 20
457.370262
 30
0.0
 11
-203.604448
 21
457.370262
 31
0.0
  0
LINE
  5
416
330
3F2
100
AcDbEntity
  8
0
  6
Continuous
 62
     0
370
     0
100
AcDbLine
 10
-203.604448
 20
455.370262
 30
0.0
 11
-191.227873
 21
455.370262
 31
0.0
  0
LINE
  5
417
330
3F2
100
AcDbEntity
  8
0
  6
Continuous
 62
     0
370
     0
100
AcDbLine
 10
-191.227873
 20
455.370262
 30
0.0
 11
-179.604448
 21
455.370262
 31
0.0
  0
LINE
  5
418
330
3F2
100
AcDbEntity
  8
0
  6
Continuous
 62
     0
370
    30
100
AcDbLine
 10
-180.854448
 20
437.620262
 30
0.0
 11
-191.2671
 21
437.620262
 31
0.0
  0
LINE
  5
419
330
3F2
100
AcDbEntity
  8
0
  6
Continuous
 62
     0
370
    30
100
AcDbLine
 10
-191.2671
 20
437.620262
 30
0.0
 11
-202.354447
 21
437.620262
 31
0.0
  0
LINE
  5
41A
330
3F2
100
AcDbEntity
  8
0
  6
Continuous
 62
     0
370
    30
100
AcDbLine
 10
-179.854444
 20
457.620262
 30
0.0
 11
-191.235719
 21
457.620262
 31
0.0
  0
LINE
  5
41B
330
3F2
100
AcDbEntity
  8
0
  6
Continuous
 62
     0
370
    30
100
AcDbLine
 10
-180.604447
 20
457.620262
 30
0.0
 11
-179.854444
 21
457.620262
 31
0.0
  0
LINE
  5
41C
330
3F2
100
AcDbEntity
  8
0
  6
Continuous
 62
     0
370
    30
100
AcDbLine
 10
-203.354452
 20
457.620262
 30
0.0
 11
-202.604447
 21
457.620262
 31
0.0
  0
LINE
  5
41D
330
3F2
100
AcDbEntity
  8
0
  6
Continuous
 62
     0
370
    30
100
AcDbLine
 10
-191.235719
 20
457.620262
 30
0.0
 11
-203.354452
 21
457.620262
 31
0.0
  0
LWPOLYLINE
  5
41E
330
3F2
100
AcDbEntity
  8
0
  6
Continuous
 62
     0
370
     0
100
AcDbPolyline
 90
       20
 70
     0
 43
0.0
 10
-202.604446
 20
462.62027
 10
-202.57312
 20
462.62027
 10
-202.475693
 20
462.62027
 10
-202.307617
 20
462.62027
 10
-202.065384
 20
462.62027
 10
-201.746735
 20
462.62027
 10
-201.350983
 20
462.62027
 10
-200.879089
 20
462.62027
 10
-200.333801
 20
462.62027
 10
-199.719666
 20
462.62027
 10
-199.042862
 20
462.62027
 10
-198.311081
 20
462.62027
 10
-197.533142
 20
462.62027
 10
-196.718735
 20
462.62027
 10
-195.877991
 20
462.62027
 10
-195.021103
 20
462.62027
 10
-194.157928
 20
462.62027
 10
-193.29776
 20
462.62027
 10
-192.449005
 20
462.62027
 10
-191.604446
 20
462.62027
  0
LINE
  5
41F
330
3F2
100
AcDbEntity
  8
0
  6
Continuous
 62
     0
370
     0
100
AcDbLine
 10
-191.604448
 20
462.620262
 30
0.0
 11
-180.604448
 21
462.620262
 31
0.0
  0
LINE
  5
420
330
3F2
100
AcDbEntity
  8
0
  6
Continuous
 62
     0
370
     0
100
AcDbLine
 10
-144.604448
 20
498.620262
 30
0.0
 11
-144.604448
 21
509.620262
 31
0.0
  0
LINE
  5
421
330
3F2
100
AcDbEntity
  8
0
  6
Continuous
 62
     0
370
     0
100
AcDbLine
 10
-144.604448
 20
509.620262
 30
0.0
 11
-144.604448
 21
520.620262
 31
0.0
  0
LINE
  5
422
330
3F2
100
AcDbEntity
  8
0
  6
Continuous
 62
     0
370
     0
100
AcDbLine
 10
-0.724962
 20
509.620262
 30
0.0
 11
-144.604448
 21
509.620262
 31
0.0
  0
LINE
  5
423
330
3F2
100
AcDbEntity
  8
0
  6
Continuous
 62
     0
370
    30
100
AcDbLine
 10
17.595564
 20
481.370209
 30
0.0
 11
17.595564
 21
479.120262
 31
0.0
  0
LINE
  5
424
330
3F2
100
AcDbEntity
  8
0
  6
Continuous
 62
     0
370
    30
100
AcDbLine
 10
17.595564
 20
540.120262
 30
0.0
 11
17.595564
 21
537.870209
 31
0.0
  0
LINE
  5
425
330
3F2
100
AcDbEntity
  8
0
  6
Continuous
 62
     0
370
    30
100
AcDbLine
 10
17.595564
 20
479.120262
 30
0.0
 11
18.595583
 21
479.120262
 31
0.0
  0
LINE
  5
426
330
3F2
100
AcDbEntity
  8
0
  6
Continuous
 62
     0
370
    30
100
AcDbLine
 10
17.595564
 20
540.120262
 30
0.0
 11
18.59558
 21
540.120262
 31
0.0
  0
LINE
  5
427
330
3F2
100
AcDbEntity
  8
0
  6
Continuous
 62
     0
370
    30
100
AcDbLine
 10
-0.573687
 20
498.620487
 30
0.0
 11
-144.604448
 21
498.620262
 31
0.0
  0
LINE
  5
428
330
3F2
100
AcDbEntity
  8
0
  6
Continuous
 62
     0
370
    30
100
AcDbLine
 10
-144.604448
 20
520.620262
 30
0.0
 11
-0.573682
 21
520.620038
 31
0.0
  0
LINE
  5
429
330
3F2
100
AcDbEntity
  8
0
  6
Continuous
 62
     0
370
    30
100
AcDbLine
 10
-202.604448
 20
457.620262
 30
0.0
 11
-202.604448
 21
462.620262
 31
0.0
  0
LINE
  5
42A
330
3F2
100
AcDbEntity
  8
0
  6
Continuous
 62
     0
370
    30
100
AcDbLine
 10
-180.604448
 20
457.620262
 30
0.0
 11
-180.604448
 21
462.620262
 31
0.0
  0
ARC
  5
42B
330
3F2
100
AcDbEntity
  8
0
  6
Continuous
 62
     0
370
    30
100
AcDbCircle
 10
-144.60637
 20
462.622184
 30
0.0
 40
57.99807815606142
100
AcDbArc
 50
89.998101
 51
180.001899
  0
ARC
  5
42C
330
3F2
100
AcDbEntity
  8
0
  6
Continuous
 62
     0
370
    30
100
AcDbCircle
 10
-144.602826
 20
462.61864
 30
0.0
 40
36.00162182119407
100
AcDbArc
 50
90.002581
 51
179.997419
  0
LINE
  5
42D
330
3F2
100
AcDbEntity
  8
0
  6
Continuous
 62
     0
370
    30
100
AcDbLine
 10
-203.604448
 20
455.370262
 30
0.0
 11
-203.604448
 21
457.370262
 31
0.0
  0
LINE
  5
42E
330
3F2
100
AcDbEntity
  8
0
  6
Continuous
 62
     0
370
    30
100
AcDbLine
 10
-179.604448
 20
455.370262
 30
0.0
 11
-179.604448
 21
457.370262
 31
0.0
  0
LINE
  5
42F
330
3F2
100
AcDbEntity
  8
0
  6
Continuous
 62
     0
370
    30
100
AcDbLine
 10
-202.604447
 20
437.870262
 30
0.0
 11
-202.604447
 21
454.870262
 31
0.0
  0
LINE
  5
430
330
3F2
100
AcDbEntity
  8
0
  6
Continuous
 62
     0
370
    30
100
AcDbLine
 10
-180.604448
 20
437.870262
 30
0.0
 11
-180.604448
 21
454.870262
 31
0.0
  0
LINE
  5
431
330
3F2
100
AcDbEntity
  8
0
  6
Continuous
 62
     0
370
    30
100
AcDbLine
 10
-0.636247
 20
507.366527
 30
0.0
 11
-0.637821
 21
511.574725
 31
0.0
  0
LINE
  5
432
330
3F2
100
AcDbEntity
  8
0
  6
Continuous
 62
     0
370
    30
100
AcDbLine
 10
-0.637821
 20
511.574725
 30
0.0
 11
-0.637367
 21
511.909061
 31
0.0
  0
LINE
  5
433
330
3F2
100
AcDbEntity
  8
0
  6
Continuous
 62
     0
370
    30
100
AcDbLine
 10
-0.637367
 20
511.909061
 30
0.0
 11
-0.639565
 21
512.094603
 31
0.0
  0
LINE
  5
434
330
3F2
100
AcDbEntity
  8
0
  6
Continuous
 62
     0
370
    30
100
AcDbLine
 10
-0.646168
 20
512.15311
 30
0.0
 11
-0.64509
 21
512.317933
 31
0.0
  0
LINE
  5
435
330
3F2
100
AcDbEntity
  8
0
  6
Continuous
 62
     0
370
    30
100
AcDbLine
 10
-0.577708
 20
512.238843
 30
0.0
 11
-0.560412
 21
512.029421
 31
0.0
  0
LINE
  5
436
330
3F2
100
AcDbEntity
  8
0
  6
Continuous
 62
     0
370
    30
100
AcDbLine
 10
-0.560412
 20
512.029421
 30
0.0
 11
-0.547005
 21
511.742628
 31
0.0
  0
LINE
  5
437
330
3F2
100
AcDbEntity
  8
0
  6
Continuous
 62
     0
370
    30
100
AcDbLine
 10
-0.547005
 20
511.742628
 30
0.0
 11
-0.53738
 21
511.424205
 31
0.0
  0
LINE
  5
438
330
3F2
100
AcDbEntity
  8
0
  6
Continuous
 62
     0
370
    30
100
AcDbLine
 10
-0.53738
 20
511.424205
 30
0.0
 11
-0.525721
 21
510.825357
 31
0.0
  0
LINE
  5
439
330
3F2
100
AcDbEntity
  8
0
  6
Continuous
 62
     0
370
    30
100
AcDbLine
 10
-0.525721
 20
510.825357
 30
0.0
 11
-0.518355
 21
510.129208
 31
0.0
  0
LINE
  5
43A
330
3F2
100
AcDbEntity
  8
0
  6
Continuous
 62
     0
370
    30
100
AcDbLine
 10
-0.518355
 20
510.129208
 30
0.0
 11
-0.515611
 21
509.376038
 31
0.0
  0
LINE
  5
43B
330
3F2
100
AcDbEntity
  8
0
  6
Continuous
 62
     0
370
    30
100
AcDbLine
 10
-0.515611
 20
509.376038
 30
0.0
 11
-0.517427
 21
508.635827
 31
0.0
  0
LINE
  5
43C
330
3F2
100
AcDbEntity
  8
0
  6
Continuous
 62
     0
370
    30
100
AcDbLine
 10
-0.517427
 20
508.635827
 30
0.0
 11
-0.523621
 21
507.985875
 31
0.0
  0
LINE
  5
43D
330
3F2
100
AcDbEntity
  8
0
  6
Continuous
 62
     0
370
    30
100
AcDbLine
 10
-0.523621
 20
507.985875
 30
0.0
 11
-0.533684
 21
507.444118
 31
0.0
  0
LINE
  5
43E
330
3F2
100
AcDbEntity
  8
0
  6
Continuous
 62
     0
370
    30
100
AcDbLine
 10
-0.533684
 20
507.444118
 30
0.0
 11
-0.547457
 21
507.004867
 31
0.0
  0
LINE
  5
43F
330
3F2
100
AcDbEntity
  8
0
  6
Continuous
 62
     0
370
    30
100
AcDbLine
 10
-0.547457
 20
507.004867
 30
0.0
 11
-0.563286
 21
506.741632
 31
0.0
  0
LINE
  5
440
330
3F2
100
AcDbEntity
  8
0
  6
Continuous
 62
     0
370
    30
100
AcDbLine
 10
-0.563286
 20
506.741632
 30
0.0
 11
-0.587473
 21
506.64184
 31
0.0
  0
LINE
  5
441
330
3F2
100
AcDbEntity
  8
0
  6
Continuous
 62
     0
370
    30
100
AcDbLine
 10
-0.643098
 20
506.64184
 30
0.0
 11
-0.644263
 21
506.802694
 31
0.0
  0
LINE
  5
442
330
3F2
100
AcDbEntity
  8
0
  6
Continuous
 62
     0
370
    30
100
AcDbLine
 10
-0.641884
 20
506.802694
 30
0.0
 11
-0.636276
 21
506.975765
 31
0.0
  0
LINE
  5
443
330
3F2
100
AcDbEntity
  8
0
  6
Continuous
 62
     0
370
    30
100
AcDbLine
 10
-0.636276
 20
506.975765
 30
0.0
 11
-0.636247
 21
507.366527
 31
0.0
  0
LINE
  5
444
330
3F2
100
AcDbEntity
  8
0
  6
Continuous
 62
     0
370
    30
100
AcDbLine
 10
-0.621095
 20
511.959598
 30
0.0
 11
-0.622757
 21
507.584808
 31
0.0
  0
LINE
  5
445
330
3F2
100
AcDbEntity
  8
0
  6
Continuous
 62
     0
370
    30
100
AcDbLine
 10
-0.622757
 20
507.584808
 30
0.0
 11
-0.618148
 21
507.135135
 31
0.0
  0
LINE
  5
446
330
3F2
100
AcDbEntity
  8
0
  6
Continuous
 62
     0
370
    30
100
AcDbLine
 10
-0.618148
 20
507.135135
 30
0.0
 11
-0.610491
 21
506.956422
 31
0.0
  0
LINE
  5
447
330
3F2
100
AcDbEntity
  8
0
  6
Continuous
 62
     0
370
    30
100
AcDbLine
 10
-0.595444
 20
506.912496
 30
0.0
 11
-0.570698
 21
507.029564
 31
0.0
  0
LINE
  5
448
330
3F2
100
AcDbEntity
  8
0
  6
Continuous
 62
     0
370
    30
100
AcDbLine
 10
-0.570698
 20
507.029564
 30
0.0
 11
-0.552221
 21
507.547272
 31
0.0
  0
LINE
  5
449
330
3F2
100
AcDbEntity
  8
0
  6
Continuous
 62
     0
370
    30
100
AcDbLine
 10
-0.552221
 20
507.547272
 30
0.0
 11
-0.542258
 21
508.280109
 31
0.0
  0
LINE
  5
44A
330
3F2
100
AcDbEntity
  8
0
  6
Continuous
 62
     0
370
    30
100
AcDbLine
 10
-0.542258
 20
508.280109
 30
0.0
 11
-0.539339
 21
509.335027
 31
0.0
  0
LINE
  5
44B
330
3F2
100
AcDbEntity
  8
0
  6
Continuous
 62
     0
370
    30
100
AcDbLine
 10
-0.539339
 20
509.335027
 30
0.0
 11
-0.542972
 21
510.301711
 31
0.0
  0
LINE
  5
44C
330
3F2
100
AcDbEntity
  8
0
  6
Continuous
 62
     0
370
    30
100
AcDbLine
 10
-0.542972
 20
510.301711
 30
0.0
 11
-0.552808
 21
511.150815
 31
0.0
  0
LINE
  5
44D
330
3F2
100
AcDbEntity
  8
0
  6
Continuous
 62
     0
370
    30
100
AcDbLine
 10
-0.552808
 20
511.150815
 30
0.0
 11
-0.572077
 21
511.80628
 31
0.0
  0
LINE
  5
44E
330
3F2
100
AcDbEntity
  8
0
  6
Continuous
 62
     0
370
    30
100
AcDbLine
 10
-0.572077
 20
511.80628
 30
0.0
 11
-0.600815
 21
512.043308
 31
0.0
  0
ENDBLK
  5
450
330
3F2
100
AcDbEntity
  8
0
100
AcDbBlockEnd
  0
ENDSEC
  0
SECTION
  2
ENTITIES
  0
INSERT
  5
178
330
1F
100
AcDbEntity
  8
0
  6
Continuous
 62
     7
420
 16250871
370
     0
100
AcDbBlockReference
  2
a
 10
74.615517
 20
111.606232
 30
0.0
  0
INSERT
  5
21E
330
1F
100
AcDbEntity
  8
0
  6
Continuous
 62
     7
420
 16250871
370
     0
100
AcDbBlockReference
  2
b
 10
74.615517
 20
111.606232
 30
0.0
  0
INSERT
  5
276
330
1F
100
AcDbEntity
  8
0
  6
Continuous
 62
     7
420
 16250871
370
     0
100
AcDbBlockReference
  2
c
 10
74.615517
 20
111.606232
 30
0.0
  0
INSERT
  5
3F1
330
1F
100
AcDbEntity
  8
0
  6
Continuous
 62
     7
420
 16250871
370
     0
100
AcDbBlockReference
  2
d
 10
74.615517
 20
111.606232
 30
0.0
  0
INSERT
  5
451
330
1F
100
AcDbEntity
  8
0
  6
Continuous
 62
     7
420
 16250871
370
     0
100
AcDbBlockReference
  2
e
 10
63.30658
 20
0.0
 30
0.0
  0
ENDSEC
  0
SECTION
  2
OBJECTS
  0
DICTIONARY
  5
C
330
0
100
AcDbDictionary
281
     1
  3
ACAD_DETAILVIEWSTYLE
350
489
  3
ACAD_GROUP
350
D
  3
ACAD_LAYOUT
350
1A
  3
ACAD_MATERIAL
350
43
  3
ACAD_MLEADERSTYLE
350
6B
  3
ACAD_MLINESTYLE
350
17
  3
ACAD_PLOTSETTINGS
350
19
  3
ACAD_PLOTSTYLENAME
350
E
  3
ACAD_SCALELIST
350
47
  3
ACAD_SECTIONVIEWSTYLE
350
48A
  3
ACAD_TABLESTYLE
350
69
  3
ACAD_VISUALSTYLE
350
2A
  3
ACDB_RECOMPOSE_DATA
350
486
  3
AcDbVariableDictionary
350
452
  0
SUN
  5
6D
330
29
100
AcDbSun
 90
        1
290
     0
 63
     7
421
 16777215
 40
1.0
291
     1
 91
  2455826
 92
 54000000
292
     0
 70
     2
 71
   256
280
     1
  0
DICTIONARY
  5
489
102
{ACAD_REACTORS
330
C
102
}
330
C
100
AcDbDictionary
281
     1
  0
DICTIONARY
  5
D
102
{ACAD_REACTORS
330
C
102
}
330
C
100
AcDbDictionary
281
     1
  0
DICTIONARY
  5
1A
102
{ACAD_REACTORS
330
C
102
}
330
C
100
AcDbDictionary
281
     1
  3
Layout1
350
1E
  3
Layout2
350
26
  3
Model
350
22
  0
DICTIONARY
  5
43
102
{ACAD_REACTORS
330
C
102
}
330
C
100
AcDbDictionary
281
     1
  3
ByBlock
350
45
  3
ByLayer
350
44
  3
Global
350
46
  0
DICTIONARY
  5
6B
102
{ACAD_REACTORS
330
C
102
}
330
C
100
AcDbDictionary
281
     1
  3
Standard
350
6C
  0
DICTIONARY
  5
17
102
{ACAD_REACTORS
330
C
102
}
330
C
100
AcDbDictionary
281
     1
  3
Standard
350
18
  0
DICTIONARY
  5
19
102
{ACAD_REACTORS
330
C
102
}
330
C
100
AcDbDictionary
281
     1
  0
ACDBDICTIONARYWDFLT
  5
E
102
{ACAD_REACTORS
330
C
102
}
330
C
100
AcDbDictionary
281
     1
  3
Normal
350
F
100
AcDbDictionaryWithDefault
340
F
  0
DICTIONARY
  5
47
102
{ACAD_REACTORS
330
C
102
}
330
C
100
AcDbDictionary
281
     1
  3
A0
350
48
  3
A1
350
49
  3
A2
350
4A
  3
A3
350
4B
  3
A4
350
4C
  3
A5
350
4D
  3
A6
350
4E
  3
A7
350
4F
  3
A8
350
50
  3
A9
350
51
  3
B0
350
52
  3
B1
350
53
  3
B2
350
54
  3
B3
350
55
  3
B4
350
56
  3
B5
350
57
  3
B6
350
58
  3
B7
350
59
  3
B8
350
5A
  3
B9
350
5B
  3
C0
350
5C
  3
C1
350
5D
  3
C2
350
5E
  3
C3
350
5F
  3
C4
350
60
  3
C5
350
61
  3
C6
350
62
  3
C7
350
63
  3
C8
350
64
  3
C9
350
65
  3
D0
350
66
  3
D1
350
67
  3
D2
350
68
  0
DICTIONARY
  5
48A
102
{ACAD_REACTORS
330
C
102
}
330
C
100
AcDbDictionary
281
     1
  0
DICTIONARY
  5
69
102
{ACAD_REACTORS
330
C
102
}
330
C
100
AcDbDictionary
281
     1
  3
Standard
350
6A
  0
DICTIONARY
  5
2A
102
{ACAD_REACTORS
330
C
102
}
330
C
100
AcDbDictionary
281
     1
  3
2dWireframe
350
2F
  3
Basic
350
32
  3
Brighten
350
36
  3
ColorChange
350
3A
  3
Conceptual
350
34
  3
Dim
350
35
  3
EdgeColorOff
350
3D
  3
Facepattern
350
39
  3
Flat
350
2B
  3
FlatWithEdges
350
2C
  3
Gouraud
350
2D
  3
GouraudWithEdges
350
2E
  3
Hidden
350
31
  3
JitterOff
350
3B
  3
Linepattern
350
38
  3
OverhangOff
350
3C
  3
Realistic
350
33
  3
Shaded
350
42
  3
Shaded with edges
350
41
  3
Shades of Gray
350
3E
  3
Sketchy
350
3F
  3
Thicken
350
37
  3
Wireframe
350
30
  3
X-Ray
350
40
  0
XRECORD
  5
486
102
{ACAD_REACTORS
330
C
102
}
330
C
100
AcDbXrecord
280
     1
 90
        1
330
6A
  0
DICTIONARY
  5
452
102
{ACAD_REACTORS
330
C
102
}
330
C
100
AcDbDictionary
281
     1
  3
CANNOSCALE
350
453
  3
CMLEADERSTYLE
350
488
  3
CTABLESTYLE
350
487
  0
LAYOUT
  5
1E
102
{ACAD_REACTORS
330
1A
102
}
330
1A
100
AcDbPlotSettings
  1

  2
none_device
  4

  6

 40
0.0
 41
0.0
 42
0.0
 43
0.0
 44
0.0
 45
0.0
 46
0.0
 47
0.0
 48
0.0
 49
0.0
140
0.0
141
0.0
142
1.0
143
1.0
 70
   688
 72
     1
 73
     0
 74
     5
  7

 75
    16
 76
     0
 77
     2
 78
   300
147
1.0
148
0.0
149
0.0
100
AcDbLayout
  1
Layout1
 70
     1
 71
     1
 10
0.0
 20
0.0
 11
420.0
 21
297.0
 12
0.0
 22
0.0
 32
0.0
 14
1.000000E+20
 24
1.000000E+20
 34
1.000000E+20
 15
-1.000000E+20
 25
-1.000000E+20
 35
-1.000000E+20
146
0.0
 13
0.0
 23
0.0
 33
0.0
 16
1.0
 26
0.0
 36
0.0
 17
0.0
 27
1.0
 37
0.0
 76
     0
330
1B
  0
LAYOUT
  5
26
102
{ACAD_REACTORS
330
1A
102
}
330
1A
100
AcDbPlotSettings
  1

  2
none_device
  4

  6

 40
0.0
 41
0.0
 42
0.0
 43
0.0
 44
0.0
 45
0.0
 46
0.0
 47
0.0
 48
0.0
 49
0.0
140
0.0
141
0.0
142
1.0
143
1.0
 70
   688
 72
     1
 73
     0
 74
     5
  7

 75
    16
 76
     0
 77
     2
 78
   300
147
1.0
148
0.0
149
0.0
100
AcDbLayout
  1
Layout2
 70
     1
 71
     2
 10
0.0
 20
0.0
 11
0.0
 21
0.0
 12
0.0
 22
0.0
 32
0.0
 14
0.0
 24
0.0
 34
0.0
 15
0.0
 25
0.0
 35
0.0
146
0.0
 13
0.0
 23
0.0
 33
0.0
 16
1.0
 26
0.0
 36
0.0
 17
0.0
 27
1.0
 37
0.0
 76
     0
330
23
  0
LAYOUT
  5
22
102
{ACAD_REACTORS
330
1A
102
}
330
1A
100
AcDbPlotSettings
  1

  2
none_device
  4
Letter_(8.50_x_11.00_Inches)
  6

 40
6.35
 41
6.35
 42
6.350005
 43
6.350005
 44
215.9
 45
279.4
 46
0.0
 47
0.0
 48
0.0
 49
0.0
140
0.0
141
0.0
142
1.0
143
1.0
 70
  1712
 72
     1
 73
     0
 74
     0
  7

 75
     0
 76
     0
 77
     2
 78
   300
147
1.0
148
0.0
149
0.0
100
AcDbLayout
  1
Model
 70
     1
 71
     0
 10
0.0
 20
0.0
 11
420.0
 21
297.0
 12
0.0
 22
0.0
 32
0.0
 14
1.000000E+20
 24
1.000000E+20
 34
1.000000E+20
 15
-1.000000E+20
 25
-1.000000E+20
 35
-1.000000E+20
146
0.0
 13
0.0
 23
0.0
 33
0.0
 16
1.0
 26
0.0
 36
0.0
 17
0.0
 27
1.0
 37
0.0
 76
     0
330
1F
331
29
  0
MATERIAL
  5
45
102
{ACAD_REACTORS
330
43
102
}
330
43
100
AcDbMaterial
  1
ByBlock
 72
     1
 94
      127
  0
MATERIAL
  5
44
102
{ACAD_REACTORS
330
43
102
}
330
43
100
AcDbMaterial
  1
ByLayer
 72
     1
 94
      127
  0
MATERIAL
  5
46
102
{ACAD_REACTORS
330
43
102
}
330
43
100
AcDbMaterial
  1
Global
 72
     1
 94
      127
  0
MLEADERSTYLE
  5
6C
102
{ACAD_REACTORS
330
6B
102
}
330
6B
100
AcDbMLeaderStyle
179
     2
170
     2
171
     1
172
     0
 90
        2
 40
0.0
 41
0.0
173
     1
 91
-1056964608
340
14
 92
       -2
290
     1
 42
2.0
291
     1
 43
8.0
  3
Standard
341
0
 44
4.0
300

342
11
174
     1
178
     6
175
     1
176
     0
 93
-1056964608
 45
4.0
292
     0
297
     0
 46
4.0
343
0
 94
-1056964608
 47
1.0
 49
1.0
140
1.0
293
     1
141
0.0
294
     1
177
     0
142
1.0
295
     0
296
     0
143
3.75
271
     0
272
     9
273
     9
  0
MLINESTYLE
  5
18
102
{ACAD_REACTORS
330
17
102
}
330
17
100
AcDbMlineStyle
  2
Standard
 70
     0
  3

 62
   256
 51
90.0
 52
90.0
 71
     2
 49
0.5
 62
   256
  6
BYLAYER
 49
-0.5
 62
   256
  6
BYLAYER
  0
ACDBPLACEHOLDER
  5
F
102
{ACAD_REACTORS
330
E
102
}
330
E
  0
SCALE
  5
48
102
{ACAD_REACTORS
330
47
102
}
330
47
100
AcDbScale
 70
     0
300
1:1
140
1.0
141
1.0
290
     1
  0
SCALE
  5
49
102
{ACAD_REACTORS
330
47
102
}
330
47
100
AcDbScale
 70
     0
300
1:2
140
1.0
141
2.0
290
     0
  0
SCALE
  5
4A
102
{ACAD_REACTORS
330
47
102
}
330
47
100
AcDbScale
 70
     0
300
1:4
140
1.0
141
4.0
290
     0
  0
SCALE
  5
4B
102
{ACAD_REACTORS
330
47
102
}
330
47
100
AcDbScale
 70
     0
300
1:5
140
1.0
141
5.0
290
     0
  0
SCALE
  5
4C
102
{ACAD_REACTORS
330
47
102
}
330
47
100
AcDbScale
 70
     0
300
1:8
140
1.0
141
8.0
290
     0
  0
SCALE
  5
4D
102
{ACAD_REACTORS
330
47
102
}
330
47
100
AcDbScale
 70
     0
300
1:10
140
1.0
141
10.0
290
     0
  0
SCALE
  5
4E
102
{ACAD_REACTORS
330
47
102
}
330
47
100
AcDbScale
 70
     0
300
1:16
140
1.0
141
16.0
290
     0
  0
SCALE
  5
4F
102
{ACAD_REACTORS
330
47
102
}
330
47
100
AcDbScale
 70
     0
300
1:20
140
1.0
141
20.0
290
     0
  0
SCALE
  5
50
102
{ACAD_REACTORS
330
47
102
}
330
47
100
AcDbScale
 70
     0
300
1:30
140
1.0
141
30.0
290
     0
  0
SCALE
  5
51
102
{ACAD_REACTORS
330
47
102
}
330
47
100
AcDbScale
 70
     0
300
1:40
140
1.0
141
40.0
290
     0
  0
SCALE
  5
52
102
{ACAD_REACTORS
330
47
102
}
330
47
100
AcDbScale
 70
     0
300
1:50
140
1.0
141
50.0
290
     0
  0
SCALE
  5
53
102
{ACAD_REACTORS
330
47
102
}
330
47
100
AcDbScale
 70
     0
300
1:100
140
1.0
141
100.0
290
     0
  0
SCALE
  5
54
102
{ACAD_REACTORS
330
47
102
}
330
47
100
AcDbScale
 70
     0
300
2:1
140
2.0
141
1.0
290
     0
  0
SCALE
  5
55
102
{ACAD_REACTORS
330
47
102
}
330
47
100
AcDbScale
 70
     0
300
4:1
140
4.0
141
1.0
290
     0
  0
SCALE
  5
56
102
{ACAD_REACTORS
330
47
102
}
330
47
100
AcDbScale
 70
     0
300
8:1
140
8.0
141
1.0
290
     0
  0
SCALE
  5
57
102
{ACAD_REACTORS
330
47
102
}
330
47
100
AcDbScale
 70
     0
300
10:1
140
10.0
141
1.0
290
     0
  0
SCALE
  5
58
102
{ACAD_REACTORS
330
47
102
}
330
47
100
AcDbScale
 70
     0
300
100:1
140
100.0
141
1.0
290
     0
  0
SCALE
  5
59
102
{ACAD_REACTORS
330
47
102
}
330
47
100
AcDbScale
 70
     0
300
1/128" = 1'-0"
140
0.007812
141
12.0
290
     0
  0
SCALE
  5
5A
102
{ACAD_REACTORS
330
47
102
}
330
47
100
AcDbScale
 70
     0
300
1/64" = 1'-0"
140
0.015625
141
12.0
290
     0
  0
SCALE
  5
5B
102
{ACAD_REACTORS
330
47
102
}
330
47
100
AcDbScale
 70
     0
300
1/32" = 1'-0"
140
0.03125
141
12.0
290
     0
  0
SCALE
  5
5C
102
{ACAD_REACTORS
330
47
102
}
330
47
100
AcDbScale
 70
     0
300
1/16" = 1'-0"
140
0.0625
141
12.0
290
     0
  0
SCALE
  5
5D
102
{ACAD_REACTORS
330
47
102
}
330
47
100
AcDbScale
 70
     0
300
3/32" = 1'-0"
140
0.09375
141
12.0
290
     0
  0
SCALE
  5
5E
102
{ACAD_REACTORS
330
47
102
}
330
47
100
AcDbScale
 70
     0
300
1/8" = 1'-0"
140
0.125
141
12.0
290
     0
  0
SCALE
  5
5F
102
{ACAD_REACTORS
330
47
102
}
330
47
100
AcDbScale
 70
     0
300
3/16" = 1'-0"
140
0.1875
141
12.0
290
     0
  0
SCALE
  5
60
102
{ACAD_REACTORS
330
47
102
}
330
47
100
AcDbScale
 70
     0
300
1/4" = 1'-0"
140
0.25
141
12.0
290
     0
  0
SCALE
  5
61
102
{ACAD_REACTORS
330
47
102
}
330
47
100
AcDbScale
 70
     0
300
3/8" = 1'-0"
140
0.375
141
12.0
290
     0
  0
SCALE
  5
62
102
{ACAD_REACTORS
330
47
102
}
330
47
100
AcDbScale
 70
     0
300
1/2" = 1'-0"
140
0.5
141
12.0
290
     0
  0
SCALE
  5
63
102
{ACAD_REACTORS
330
47
102
}
330
47
100
AcDbScale
 70
     0
300
3/4" = 1'-0"
140
0.75
141
12.0
290
     0
  0
SCALE
  5
64
102
{ACAD_REACTORS
330
47
102
}
330
47
100
AcDbScale
 70
     0
300
1" = 1'-0"
140
1.0
141
12.0
290
     0
  0
SCALE
  5
65
102
{ACAD_REACTORS
330
47
102
}
330
47
100
AcDbScale
 70
     0
300
1-1/2" = 1'-0"
140
1.5
141
12.0
290
     0
  0
SCALE
  5
66
102
{ACAD_REACTORS
330
47
102
}
330
47
100
AcDbScale
 70
     0
300
3" = 1'-0"
140
3.0
141
12.0
290
     0
  0
SCALE
  5
67
102
{ACAD_REACTORS
330
47
102
}
330
47
100
AcDbScale
 70
     0
300
6" = 1'-0"
140
6.0
141
12.0
290
     0
  0
SCALE
  5
68
102
{ACAD_REACTORS
330
47
102
}
330
47
100
AcDbScale
 70
     0
300
1'-0" = 1'-0"
140
12.0
141
12.0
290
     0
  0
TABLESTYLE
  5
6A
102
{ACAD_REACTORS
330
69
102
}
102
{ACAD_XDICTIONARY
360
484
102
}
330
69
100
AcDbTableStyle
  3
Standard
 70
     0
 71
     0
 40
0.06
 41
0.06
280
     0
281
     0
  7
Standard
140
4.5
170
     2
 62
     0
 63
   257
283
     0
 90
        4
 91
        0
  1

274
    -2
284
     1
 64
     0
275
    -2
285
     1
 65
     0
276
    -2
286
     1
 66
     0
277
    -2
287
     1
 67
     0
278
    -2
288
     1
 68
     0
279
    -2
289
     1
 69
     0
  7
Standard
140
6.0
170
     5
 62
     0
 63
   257
283
     0
 90
        4
 91
        0
  1

274
    -2
284
     1
 64
     0
275
    -2
285
     1
 65
     0
276
    -2
286
     1
 66
     0
277
    -2
287
     1
 67
     0
278
    -2
288
     1
 68
     0
279
    -2
289
     1
 69
     0
  7
Standard
140
4.5
170
     5
 62
     0
 63
   257
283
     0
 90
        4
 91
        0
  1

274
    -2
284
     1
 64
     0
275
    -2
285
     1
 65
     0
276
    -2
286
     1
 66
     0
277
    -2
287
     1
 67
     0
278
    -2
288
     1
 68
     0
279
    -2
289
     1
 69
     0
  0
VISUALSTYLE
  5
2F
102
{ACAD_REACTORS
330
2A
102
}
102
{ACAD_XDICTIONARY
360
45C
102
}
330
2A
100
AcDbVisualStyle
  2
2dWireframe
 70
     4
177
     2
291
     0
 71
     0
176
     1
 72
     2
176
     1
 73
     0
176
     1
 90
        0
176
     1
 40
0.6
176
     1
 41
30.0
176
     1
 62
     5
 63
     7
421
 16777215
176
     1
 74
     1
176
     1
 91
        4
176
     1
 64
     7
176
     1
 65
   257
176
     1
 75
     1
176
     1
175
     1
176
     1
 42
1.0
176
     1
 92
        0
176
     1
 66
   257
176
     1
 43
1.0
176
     1
 76
     1
176
     1
 77
     6
176
     1
 78
     2
176
     1
 67
     7
176
     1
 79
     5
176
     1
170
     0
176
     1
171
     0
176
     1
290
     0
176
     1
 93
        1
176
     1
 44
0.0
176
     1
173
     0
176
     1
  0
VISUALSTYLE
  5
32
102
{ACAD_REACTORS
330
2A
102
}
102
{ACAD_XDICTIONARY
360
462
102
}
330
2A
100
AcDbVisualStyle
  2
Basic
 70
     7
177
     2
291
     1
 71
     1
176
     1
 72
     0
176
     1
 73
     1
176
     1
 90
        0
176
     1
 40
0.6
176
     1
 41
30.0
176
     1
 62
     5
 63
     7
421
 16777215
176
     1
 74
     0
176
     1
 91
        4
176
     1
 64
     7
176
     1
 65
   257
176
     1
 75
     1
176
     1
175
     1
176
     1
 42
1.0
176
     1
 92
        8
176
     1
 66
     7
176
     1
 43
1.0
176
     1
 76
     1
176
     1
 77
     6
176
     1
 78
     2
176
     1
 67
     7
176
     1
 79
     5
176
     1
170
     0
176
     1
171
     0
176
     1
290
     0
176
     1
 93
        1
176
     1
 44
0.0
176
     1
173
     0
176
     1
  0
VISUALSTYLE
  5
36
102
{ACAD_REACTORS
330
2A
102
}
102
{ACAD_XDICTIONARY
360
46A
102
}
330
2A
100
AcDbVisualStyle
  2
Brighten
 70
    12
177
     2
291
     1
 71
     2
176
     1
 72
     2
176
     1
 73
     0
176
     1
 90
        0
176
     1
 40
0.6
176
     1
 41
30.0
176
     1
 62
     5
 63
     7
421
 16777215
176
     1
 74
     1
176
     1
 91
        4
176
     1
 64
     7
176
     1
 65
   257
176
     1
 75
     1
176
     1
175
     1
176
     1
 42
1.0
176
     1
 92
        8
176
     1
 66
     7
176
     1
 43
1.0
176
     1
 76
     1
176
     1
 77
     6
176
     1
 78
     2
176
     1
 67
     7
176
     1
 79
     5
176
     1
170
     0
176
     1
171
     0
176
     1
290
     0
176
     1
 93
        1
176
     1
 44
50.0
176
     1
173
     0
176
     1
  0
VISUALSTYLE
  5
3A
102
{ACAD_REACTORS
330
2A
102
}
102
{ACAD_XDICTIONARY
360
472
102
}
330
2A
100
AcDbVisualStyle
  2
ColorChange
 70
    16
177
     2
291
     1
 71
     2
176
     1
 72
     2
176
     1
 73
     3
176
     1
 90
        0
176
     1
 40
0.6
176
     1
 41
30.0
176
     1
 62
     5
 63
     8
421
  8421504
176
     1
 74
     1
176
     1
 91
        4
176
     1
 64
     7
176
     1
 65
   257
176
     1
 75
     1
176
     1
175
     1
176
     1
 42
1.0
176
     1
 92
        8
176
     1
 66
     8
424
  8421504
176
     1
 43
1.0
176
     1
 76
     1
176
     1
 77
     6
176
     1
 78
     2
176
     1
 67
     7
176
     1
 79
     5
176
     1
170
     0
176
     1
171
     0
176
     1
290
     0
176
     1
 93
        1
176
     1
 44
0.0
176
     1
173
     0
176
     1
  0
VISUALSTYLE
  5
34
102
{ACAD_REACTORS
330
2A
102
}
102
{ACAD_XDICTIONARY
360
466
102
}
330
2A
100
AcDbVisualStyle
  2
Conceptual
 70
     9
177
     2
291
     0
 71
     3
176
     1
 72
     2
176
     1
 73
     0
176
     1
 90
        0
176
     1
 40
0.6
176
     1
 41
30.0
176
     1
 62
     5
 63
     7
421
 16777215
176
     1
 74
     2
176
     1
 91
        2
176
     1
 64
     7
176
     1
 65
   257
176
     1
 75
     1
176
     1
175
     1
176
     1
 42
179.0
176
     1
 92
        8
176
     1
 66
     7
176
     1
 43
1.0
176
     1
 76
     1
176
     1
 77
     6
176
     1
 78
     2
176
     1
 67
     7
176
     1
 79
     3
176
     1
170
     0
176
     1
171
     0
176
     1
290
     0
176
     1
 93
        1
176
     1
 44
0.0
176
     1
173
     0
176
     1
  0
VISUALSTYLE
  5
35
102
{ACAD_REACTORS
330
2A
102
}
102
{ACAD_XDICTIONARY
360
468
102
}
330
2A
100
AcDbVisualStyle
  2
Dim
 70
    11
177
     2
291
     1
 71
     2
176
     1
 72
     2
176
     1
 73
     0
176
     1
 90
        0
176
     1
 40
0.6
176
     1
 41
30.0
176
     1
 62
     5
 63
     7
421
 16777215
176
     1
 74
     1
176
     1
 91
        4
176
     1
 64
     7
176
     1
 65
   257
176
     1
 75
     1
176
     1
175
     1
176
     1
 42
1.0
176
     1
 92
        8
176
     1
 66
     7
176
     1
 43
1.0
176
     1
 76
     1
176
     1
 77
     6
176
     1
 78
     2
176
     1
 67
     7
176
     1
 79
     5
176
     1
170
     0
176
     1
171
     0
176
     1
290
     0
176
     1
 93
        1
176
     1
 44
-50.0
176
     1
173
     0
176
     1
  0
VISUALSTYLE
  5
3D
102
{ACAD_REACTORS
330
2A
102
}
102
{ACAD_XDICTIONARY
360
478
102
}
330
2A
100
AcDbVisualStyle
  2
EdgeColorOff
 70
    22
177
     2
291
     1
 71
     2
176
     0
 72
     2
176
     0
 73
     0
176
     0
 90
        0
176
     0
 40
0.6
176
     0
 41
30.0
176
     0
 62
     5
 63
     7
421
 16777215
176
     0
 74
     1
176
     0
 91
        4
176
     0
 64
     7
176
     0
 65
   257
176
     0
 75
     1
176
     0
175
     1
176
     0
 42
1.0
176
     0
 92
        8
176
     2
 66
     7
176
     0
 43
1.0
176
     0
 76
     1
176
     0
 77
     6
176
     0
 78
     2
176
     0
 67
     7
176
     0
 79
     5
176
     0
170
     0
176
     0
171
     0
176
     0
290
     0
176
     0
 93
        1
176
     0
 44
0.0
176
     0
173
     0
176
     0
  0
VISUALSTYLE
  5
39
102
{ACAD_REACTORS
330
2A
102
}
102
{ACAD_XDICTIONARY
360
470
102
}
330
2A
100
AcDbVisualStyle
  2
Facepattern
 70
    15
177
     2
291
     1
 71
     2
176
     1
 72
     2
176
     1
 73
     0
176
     1
 90
        0
176
     1
 40
0.6
176
     1
 41
30.0
176
     1
 62
     5
 63
     7
421
 16777215
176
     1
 74
     1
176
     1
 91
        4
176
     1
 64
     7
176
     1
 65
   257
176
     1
 75
     1
176
     1
175
     1
176
     1
 42
1.0
176
     1
 92
        8
176
     1
 66
     7
176
     1
 43
1.0
176
     1
 76
     1
176
     1
 77
     6
176
     1
 78
     2
176
     1
 67
     7
176
     1
 79
     5
176
     1
170
     0
176
     1
171
     0
176
     1
290
     0
176
     1
 93
        1
176
     1
 44
0.0
176
     1
173
     0
176
     1
  0
VISUALSTYLE
  5
2B
102
{ACAD_REACTORS
330
2A
102
}
102
{ACAD_XDICTIONARY
360
454
102
}
330
2A
100
AcDbVisualStyle
  2
Flat
 70
     0
177
     2
291
     1
 71
     2
176
     1
 72
     1
176
     1
 73
     1
176
     1
 90
        2
176
     1
 40
0.6
176
     1
 41
30.0
176
     1
 62
     5
 63
     7
421
 16777215
176
     1
 74
     0
176
     1
 91
        0
176
     1
 64
     7
176
     1
 65
   257
176
     1
 75
     1
176
     1
175
     1
176
     1
 42
1.0
176
     1
 92
        8
176
     1
 66
     7
176
     1
 43
1.0
176
     1
 76
     1
176
     1
 77
     6
176
     1
 78
     2
176
     1
 67
     7
176
     1
 79
     5
176
     1
170
     0
176
     1
171
     0
176
     1
290
     0
176
     1
 93
       13
176
     1
 44
0.0
176
     1
173
     0
176
     1
  0
VISUALSTYLE
  5
2C
102
{ACAD_REACTORS
330
2A
102
}
102
{ACAD_XDICTIONARY
360
456
102
}
330
2A
100
AcDbVisualStyle
  2
FlatWithEdges
 70
     1
177
     2
291
     1
 71
     2
176
     1
 72
     1
176
     1
 73
     1
176
     1
 90
        2
176
     1
 40
0.6
176
     1
 41
30.0
176
     1
 62
     5
 63
     7
421
 16777215
176
     1
 74
     1
176
     1
 91
        0
176
     1
 64
     7
176
     1
 65
   257
176
     1
 75
     1
176
     1
175
     1
176
     1
 42
1.0
176
     1
 92
        0
176
     1
 66
   257
176
     1
 43
1.0
176
     1
 76
     1
176
     1
 77
     6
176
     1
 78
     2
176
     1
 67
     7
176
     1
 79
     5
176
     1
170
     0
176
     1
171
     0
176
     1
290
     0
176
     1
 93
       13
176
     1
 44
0.0
176
     1
173
     0
176
     1
  0
VISUALSTYLE
  5
2D
102
{ACAD_REACTORS
330
2A
102
}
102
{ACAD_XDICTIONARY
360
458
102
}
330
2A
100
AcDbVisualStyle
  2
Gouraud
 70
     2
177
     2
291
     1
 71
     2
176
     1
 72
     2
176
     1
 73
     1
176
     1
 90
        2
176
     1
 40
0.6
176
     1
 41
30.0
176
     1
 62
     5
 63
     7
421
 16777215
176
     1
 74
     0
176
     1
 91
        0
176
     1
 64
     7
176
     1
 65
   257
176
     1
 75
     1
176
     1
175
     1
176
     1
 42
1.0
176
     1
 92
        0
176
     1
 66
     7
176
     1
 43
1.0
176
     1
 76
     1
176
     1
 77
     6
176
     1
 78
     2
176
     1
 67
     7
176
     1
 79
     5
176
     1
170
     0
176
     1
171
     0
176
     1
290
     0
176
     1
 93
       13
176
     1
 44
0.0
176
     1
173
     0
176
     1
  0
VISUALSTYLE
  5
2E
102
{ACAD_REACTORS
330
2A
102
}
102
{ACAD_XDICTIONARY
360
45A
102
}
330
2A
100
AcDbVisualStyle
  2
GouraudWithEdges
 70
     3
177
     2
291
     1
 71
     2
176
     1
 72
     2
176
     1
 73
     1
176
     1
 90
        2
176
     1
 40
0.6
176
     1
 41
30.0
176
     1
 62
     5
 63
     7
421
 16777215
176
     1
 74
     1
176
     1
 91
        0
176
     1
 64
     7
176
     1
 65
   257
176
     1
 75
     1
176
     1
175
     1
176
     1
 42
1.0
176
     1
 92
        0
176
     1
 66
   257
176
     1
 43
1.0
176
     1
 76
     1
176
     1
 77
     6
176
     1
 78
     2
176
     1
 67
     7
176
     1
 79
     5
176
     1
170
     0
176
     1
171
     0
176
     1
290
     0
176
     1
 93
       13
176
     1
 44
0.0
176
     1
173
     0
176
     1
  0
VISUALSTYLE
  5
31
102
{ACAD_REACTORS
330
2A
102
}
102
{ACAD_XDICTIONARY
360
460
102
}
330
2A
100
AcDbVisualStyle
  2
Hidden
 70
     6
177
     2
291
     0
 71
     1
176
     1
 72
     2
176
     1
 73
     2
176
     1
 90
        0
176
     1
 40
0.6
176
     1
 41
30.0
176
     1
 62
     5
 63
     7
421
 16777215
176
     1
 74
     2
176
     1
 91
        2
176
     1
 64
     7
176
     1
 65
   257
176
     1
 75
     2
176
     1
175
     1
176
     1
 42
40.0
176
     1
 92
        0
176
     1
 66
   257
176
     1
 43
1.0
176
     1
 76
     1
176
     1
 77
     6
176
     1
 78
     2
176
     1
 67
     7
176
     1
 79
     3
176
     1
170
     0
176
     1
171
     0
176
     1
290
     0
176
     1
 93
        1
176
     1
 44
0.0
176
     1
173
     0
176
     1
  0
VISUALSTYLE
  5
3B
102
{ACAD_REACTORS
330
2A
102
}
102
{ACAD_XDICTIONARY
360
474
102
}
330
2A
100
AcDbVisualStyle
  2
JitterOff
 70
    20
177
     2
291
     1
 71
     2
176
     0
 72
     2
176
     0
 73
     0
176
     0
 90
        0
176
     0
 40
0.6
176
     0
 41
30.0
176
     0
 62
     5
 63
     7
421
 16777215
176
     0
 74
     1
176
     0
 91
        4
176
     0
 64
     7
176
     0
 65
   257
176
     0
 75
     1
176
     0
175
     1
176
     0
 42
1.0
176
     0
 92
       10
176
     2
 66
     7
176
     0
 43
1.0
176
     0
 76
     1
176
     0
 77
     6
176
     0
 78
     2
176
     0
 67
     7
176
     0
 79
     5
176
     0
170
     0
176
     0
171
     0
176
     0
290
     0
176
     0
 93
        1
176
     0
 44
0.0
176
     0
173
     0
176
     0
  0
VISUALSTYLE
  5
38
102
{ACAD_REACTORS
330
2A
102
}
102
{ACAD_XDICTIONARY
360
46E
102
}
330
2A
100
AcDbVisualStyle
  2
Linepattern
 70
    14
177
     2
291
     1
 71
     2
176
     1
 72
     2
176
     1
 73
     0
176
     1
 90
        0
176
     1
 40
0.6
176
     1
 41
30.0
176
     1
 62
     5
 63
     7
421
 16777215
176
     1
 74
     1
176
     1
 91
        4
176
     1
 64
     7
176
     1
 65
   257
176
     1
 75
     7
176
     1
175
     7
176
     1
 42
1.0
176
     1
 92
        8
176
     1
 66
     7
176
     1
 43
1.0
176
     1
 76
     1
176
     1
 77
     6
176
     1
 78
     2
176
     1
 67
     7
176
     1
 79
     5
176
     1
170
     0
176
     1
171
     0
176
     1
290
     0
176
     1
 93
        1
176
     1
 44
0.0
176
     1
173
     0
176
     1
  0
VISUALSTYLE
  5
3C
102
{ACAD_REACTORS
330
2A
102
}
102
{ACAD_XDICTIONARY
360
476
102
}
330
2A
100
AcDbVisualStyle
  2
OverhangOff
 70
    21
177
     2
291
     1
 71
     2
176
     0
 72
     2
176
     0
 73
     0
176
     0
 90
        0
176
     0
 40
0.6
176
     0
 41
30.0
176
     0
 62
     5
 63
     7
421
 16777215
176
     0
 74
     1
176
     0
 91
        4
176
     0
 64
     7
176
     0
 65
   257
176
     0
 75
     1
176
     0
175
     1
176
     0
 42
1.0
176
     0
 92
        9
176
     2
 66
     7
176
     0
 43
1.0
176
     0
 76
     1
176
     0
 77
     6
176
     0
 78
     2
176
     0
 67
     7
176
     0
 79
     5
176
     0
170
     0
176
     0
171
     0
176
     0
290
     0
176
     0
 93
        1
176
     0
 44
0.0
176
     0
173
     0
176
     0
  0
VISUALSTYLE
  5
33
102
{ACAD_REACTORS
330
2A
102
}
102
{ACAD_XDICTIONARY
360
464
102
}
330
2A
100
AcDbVisualStyle
  2
Realistic
 70
     8
177
     2
291
     0
 71
     2
176
     1
 72
     3
176
     1
 73
     0
176
     1
 90
        2
176
     1
 40
0.6
176
     1
 41
30.0
176
     1
 62
     5
 63
     7
421
 16777215
176
     1
 74
     0
176
     1
 91
        0
176
     1
 64
     7
176
     1
 65
   257
176
     1
 75
     1
176
     1
175
     1
176
     1
 42
1.0
176
     1
 92
        8
176
     1
 66
   257
176
     1
 43
1.0
176
     1
 76
     1
176
     1
 77
     6
176
     1
 78
     2
176
     1
 67
     7
176
     1
 79
     3
176
     1
170
     0
176
     1
171
     0
176
     1
290
     0
176
     1
 93
       13
176
     1
 44
0.0
176
     1
173
     0
176
     1
  0
VISUALSTYLE
  5
42
102
{ACAD_REACTORS
330
2A
102
}
102
{ACAD_XDICTIONARY
360
482
102
}
330
2A
100
AcDbVisualStyle
  2
Shaded
 70
    27
177
     2
291
     0
 71
     2
176
     1
 72
     2
176
     1
 73
     1
176
     1
 90
        2
176
     1
 40
0.6
176
     1
 41
30.0
176
     1
 62
     5
 63
     7
421
 16777215
176
     1
 74
     0
176
     1
 91
        4
176
     1
 64
     7
176
     1
 65
   257
176
     1
 75
     1
176
     1
175
     1
176
     1
 42
1.0
176
     1
 92
        8
176
     1
 66
   257
176
     1
 43
1.0
176
     1
 76
     1
176
     1
 77
     6
176
     1
 78
     2
176
     1
 67
     8
425
  7895160
176
     1
 79
     3
176
     1
170
     0
176
     1
171
     0
176
     1
290
     0
176
     1
 93
        5
176
     1
 44
0.0
176
     1
173
     0
176
     1
  0
VISUALSTYLE
  5
41
102
{ACAD_REACTORS
330
2A
102
}
102
{ACAD_XDICTIONARY
360
480
102
}
330
2A
100
AcDbVisualStyle
  2
Shaded with edges
 70
    26
177
     2
291
     0
 71
     2
176
     1
 72
     2
176
     1
 73
     1
176
     1
 90
        2
176
     1
 40
0.6
176
     1
 41
30.0
176
     1
 62
     5
 63
     7
421
 16777215
176
     1
 74
     1
176
     1
 91
       10
176
     1
 64
     7
176
     1
 65
   257
176
     1
 75
     2
176
     1
175
     1
176
     1
 42
1.0
176
     1
 92
        8
176
     1
 66
   257
176
     1
 43
1.0
176
     1
 76
     1
176
     1
 77
     6
176
     1
 78
     2
176
     1
 67
     7
176
     1
 79
     3
176
     1
170
     0
176
     1
171
     0
176
     1
290
     0
176
     1
 93
        5
176
     1
 44
0.0
176
     1
173
     0
176
     1
  0
VISUALSTYLE
  5
3E
102
{ACAD_REACTORS
330
2A
102
}
102
{ACAD_XDICTIONARY
360
47A
102
}
330
2A
100
AcDbVisualStyle
  2
Shades of Gray
 70
    23
177
     2
291
     0
 71
     2
176
     1
 72
     2
176
     1
 73
     3
176
     1
 90
        0
176
     1
 40
0.6
176
     1
 41
30.0
176
     1
 62
     5
 63
     7
421
 16777215
176
     1
 74
     2
176
     1
 91
        2
176
     1
 64
     7
176
     1
 65
     7
176
     1
 75
     1
176
     1
175
     1
176
     1
 42
40.0
176
     1
 92
        8
176
     1
 66
     7
176
     1
 43
1.0
176
     1
 76
     1
176
     1
 77
     6
176
     1
 78
     2
176
     1
 67
     7
176
     1
 79
     3
176
     1
170
     0
176
     1
171
     0
176
     1
290
     0
176
     1
 93
        1
176
     1
 44
0.0
176
     1
173
     0
176
     1
  0
VISUALSTYLE
  5
3F
102
{ACAD_REACTORS
330
2A
102
}
102
{ACAD_XDICTIONARY
360
47C
102
}
330
2A
100
AcDbVisualStyle
  2
Sketchy
 70
    24
177
     2
291
     0
 71
     1
176
     1
 72
     2
176
     1
 73
     2
176
     1
 90
        0
176
     1
 40
0.6
176
     1
 41
30.0
176
     1
 62
     5
 63
     7
421
 16777215
176
     1
 74
     2
176
     1
 91
        2
176
     1
 64
     7
176
     1
 65
     7
176
     1
 75
     1
176
     1
175
     1
176
     1
 42
40.0
176
     1
 92
       11
176
     1
 66
     7
176
     1
 43
1.0
176
     1
 76
     1
176
     1
 77
     6
176
     1
 78
     2
176
     1
 67
     7
176
     1
 79
     6
176
     1
170
     0
176
     1
171
     0
176
     1
290
     0
176
     1
 93
        1
176
     1
 44
0.0
176
     1
173
     0
176
     1
  0
VISUALSTYLE
  5
37
102
{ACAD_REACTORS
330
2A
102
}
102
{ACAD_XDICTIONARY
360
46C
102
}
330
2A
100
AcDbVisualStyle
  2
Thicken
 70
    13
177
     2
291
     1
 71
     2
176
     1
 72
     2
176
     1
 73
     0
176
     1
 90
        0
176
     1
 40
0.6
176
     1
 41
30.0
176
     1
 62
     5
 63
     7
421
 16777215
176
     1
 74
     1
176
     1
 91
        4
176
     1
 64
     7
176
     1
 65
   257
176
     1
 75
     1
176
     1
175
     1
176
     1
 42
1.0
176
     1
 92
       12
176
     1
 66
     7
176
     1
 43
1.0
176
     1
 76
     1
176
     1
 77
     6
176
     1
 78
     2
176
     1
 67
     7
176
     1
 79
     5
176
     1
170
     0
176
     1
171
     0
176
     1
290
     0
176
     1
 93
        1
176
     1
 44
0.0
176
     1
173
     0
176
     1
  0
VISUALSTYLE
  5
30
102
{ACAD_REACTORS
330
2A
102
}
102
{ACAD_XDICTIONARY
360
45E
102
}
330
2A
100
AcDbVisualStyle
  2
Wireframe
 70
     5
177
     2
291
     0
 71
     0
176
     1
 72
     2
176
     1
 73
     0
176
     1
 90
        0
176
     1
 40
0.6
176
     1
 41
30.0
176
     1
 62
     5
 63
     7
421
 16777215
176
     1
 74
     1
176
     1
 91
        4
176
     1
 64
     7
176
     1
 65
   257
176
     1
 75
     1
176
     1
175
     1
176
     1
 42
1.0
176
     1
 92
        0
176
     1
 66
   257
176
     1
 43
1.0
176
     1
 76
     1
176
     1
 77
     6
176
     1
 78
     2
176
     1
 67
     7
176
     1
 79
     3
176
     1
170
     0
176
     1
171
     0
176
     1
290
     0
176
     1
 93
        1
176
     1
 44
0.0
176
     1
173
     0
176
     1
  0
VISUALSTYLE
  5
40
102
{ACAD_REACTORS
330
2A
102
}
102
{ACAD_XDICTIONARY
360
47E
102
}
330
2A
100
AcDbVisualStyle
  2
X-Ray
 70
    25
177
     2
291
     0
 71
     2
176
     1
 72
     2
176
     1
 73
     1
176
     1
 90
        1
176
     1
 40
0.5
176
     1
 41
30.0
176
     1
 62
     5
 63
     7
421
 16777215
176
     1
 74
     1
176
     1
 91
        0
176
     1
 64
     7
176
     1
 65
   257
176
     1
 75
     1
176
     1
175
     1
176
     1
 42
1.0
176
     1
 92
        8
176
     1
 66
     7
176
     1
 43
1.0
176
     1
 76
     1
176
     1
 77
     6
176
     1
 78
     2
176
     1
 67
     7
176
     1
 79
     3
176
     1
170
     0
176
     1
171
     0
176
     1
290
     0
176
     1
 93
       13
176
     1
 44
0.0
176
     1
173
     0
176
     1
  0
DICTIONARYVAR
  5
453
102
{ACAD_REACTORS
330
452
102
}
330
452
100
DictionaryVariables
280
     0
  1
1:1
  0
DICTIONARYVAR
  5
488
102
{ACAD_REACTORS
330
452
102
}
330
452
100
DictionaryVariables
280
     0
  1
Standard
  0
DICTIONARYVAR
  5
487
102
{ACAD_REACTORS
330
452
102
}
330
452
100
DictionaryVariables
280
     0
  1
Standard
  0
DICTIONARY
  5
484
330
6A
100
AcDbDictionary
280
     1
281
     1
  3
ACAD_ROUNDTRIP_2008_TABLESTYLE_CELLSTYLEMAP
360
485
  0
DICTIONARY
  5
45C
330
2F
100
AcDbDictionary
280
     1
281
     1
  3
ACAD_XREC_ROUNDTRIP
360
45D
  0
DICTIONARY
  5
462
330
32
100
AcDbDictionary
280
     1
281
     1
  3
ACAD_XREC_ROUNDTRIP
360
463
  0
DICTIONARY
  5
46A
330
36
100
AcDbDictionary
280
     1
281
     1
  3
ACAD_XREC_ROUNDTRIP
360
46B
  0
DICTIONARY
  5
472
330
3A
100
AcDbDictionary
280
     1
281
     1
  3
ACAD_XREC_ROUNDTRIP
360
473
  0
DICTIONARY
  5
466
330
34
100
AcDbDictionary
280
     1
281
     1
  3
ACAD_XREC_ROUNDTRIP
360
467
  0
DICTIONARY
  5
468
330
35
100
AcDbDictionary
280
     1
281
     1
  3
ACAD_XREC_ROUNDTRIP
360
469
  0
DICTIONARY
  5
478
330
3D
100
AcDbDictionary
280
     1
281
     1
  3
ACAD_XREC_ROUNDTRIP
360
479
  0
DICTIONARY
  5
470
330
39
100
AcDbDictionary
280
     1
281
     1
  3
ACAD_XREC_ROUNDTRIP
360
471
  0
DICTIONARY
  5
454
330
2B
100
AcDbDictionary
280
     1
281
     1
  3
ACAD_XREC_ROUNDTRIP
360
455
  0
DICTIONARY
  5
456
330
2C
100
AcDbDictionary
280
     1
281
     1
  3
ACAD_XREC_ROUNDTRIP
360
457
  0
DICTIONARY
  5
458
330
2D
100
AcDbDictionary
280
     1
281
     1
  3
ACAD_XREC_ROUNDTRIP
360
459
  0
DICTIONARY
  5
45A
330
2E
100
AcDbDictionary
280
     1
281
     1
  3
ACAD_XREC_ROUNDTRIP
360
45B
  0
DICTIONARY
  5
460
330
31
100
AcDbDictionary
280
     1
281
     1
  3
ACAD_XREC_ROUNDTRIP
360
461
  0
DICTIONARY
  5
474
330
3B
100
AcDbDictionary
280
     1
281
     1
  3
ACAD_XREC_ROUNDTRIP
360
475
  0
DICTIONARY
  5
46E
330
38
100
AcDbDictionary
280
     1
281
     1
  3
ACAD_XREC_ROUNDTRIP
360
46F
  0
DICTIONARY
  5
476
330
3C
100
AcDbDictionary
280
     1
281
     1
  3
ACAD_XREC_ROUNDTRIP
360
477
  0
DICTIONARY
  5
464
330
33
100
AcDbDictionary
280
     1
281
     1
  3
ACAD_XREC_ROUNDTRIP
360
465
  0
DICTIONARY
  5
482
330
42
100
AcDbDictionary
280
     1
281
     1
  3
ACAD_XREC_ROUNDTRIP
360
483
  0
DICTIONARY
  5
480
330
41
100
AcDbDictionary
280
     1
281
     1
  3
ACAD_XREC_ROUNDTRIP
360
481
  0
DICTIONARY
  5
47A
330
3E
100
AcDbDictionary
280
     1
281
     1
  3
ACAD_XREC_ROUNDTRIP
360
47B
  0
DICTIONARY
  5
47C
330
3F
100
AcDbDictionary
280
     1
281
     1
  3
ACAD_XREC_ROUNDTRIP
360
47D
  0
DICTIONARY
  5
46C
330
37
100
AcDbDictionary
280
     1
281
     1
  3
ACAD_XREC_ROUNDTRIP
360
46D
  0
DICTIONARY
  5
45E
330
30
100
AcDbDictionary
280
     1
281
     1
  3
ACAD_XREC_ROUNDTRIP
360
45F
  0
DICTIONARY
  5
47E
330
40
100
AcDbDictionary
280
     1
281
     1
  3
ACAD_XREC_ROUNDTRIP
360
47F
  0
CELLSTYLEMAP
  5
485
102
{ACAD_REACTORS
330
484
102
}
330
484
100
AcDbCellStyleMap
 90
        3
300
CELLSTYLE
  1
TABLEFORMAT_BEGIN
 90
        5
170
     1
 91
        0
 92
    32768
 62
   257
 93
        1
300
CONTENTFORMAT
  1
CONTENTFORMAT_BEGIN
 90
        0
 91
        0
 92
        4
 93
        0
300

 40
0.0
140
1.0
 94
        5
 62
     0
340
11
144
6.0
309
CONTENTFORMAT_END
171
     1
301
MARGIN
  1
CELLMARGIN_BEGIN
 40
1.5
 40
1.5
 40
1.5
 40
1.5
 40
1.5
 40
1.5
309
CELLMARGIN_END
 94
        6
 95
        1
302
GRIDFORMAT
  1
GRIDFORMAT_BEGIN
 90
        0
 91
        1
 62
     0
 92
       -2
340
14
 93
        0
 40
0.045
309
GRIDFORMAT_END
 95
        2
302
GRIDFORMAT
  1
GRIDFORMAT_BEGIN
 90
        0
 91
        1
 62
     0
 92
       -2
340
14
 93
        0
 40
0.045
309
GRIDFORMAT_END
 95
        4
302
GRIDFORMAT
  1
GRIDFORMAT_BEGIN
 90
        0
 91
        1
 62
     0
 92
       -2
340
14
 93
        0
 40
0.045
309
GRIDFORMAT_END
 95
        8
302
GRIDFORMAT
  1
GRIDFORMAT_BEGIN
 90
        0
 91
        1
 62
     0
 92
       -2
340
14
 93
        0
 40
0.045
309
GRIDFORMAT_END
 95
       16
302
GRIDFORMAT
  1
GRIDFORMAT_BEGIN
 90
        0
 91
        1
 62
     0
 92
       -2
340
14
 93
        0
 40
0.045
309
GRIDFORMAT_END
 95
       32
302
GRIDFORMAT
  1
GRIDFORMAT_BEGIN
 90
        0
 91
        1
 62
     0
 92
       -2
340
14
 93
        0
 40
0.045
309
GRIDFORMAT_END
309
TABLEFORMAT_END
  1
CELLSTYLE_BEGIN
 90
        1
 91
        1
300
_TITLE
309
CELLSTYLE_END
300
CELLSTYLE
  1
TABLEFORMAT_BEGIN
 90
        5
170
     1
 91
        0
 92
        0
 62
   257
 93
        1
300
CONTENTFORMAT
  1
CONTENTFORMAT_BEGIN
 90
        0
 91
        0
 92
        4
 93
        0
300

 40
0.0
140
1.0
 94
        5
 62
     0
340
11
144
4.5
309
CONTENTFORMAT_END
171
     1
301
MARGIN
  1
CELLMARGIN_BEGIN
 40
1.5
 40
1.5
 40
1.5
 40
1.5
 40
1.5
 40
1.5
309
CELLMARGIN_END
 94
        6
 95
        1
302
GRIDFORMAT
  1
GRIDFORMAT_BEGIN
 90
        0
 91
        1
 62
     0
 92
       -2
340
14
 93
        0
 40
0.045
309
GRIDFORMAT_END
 95
        2
302
GRIDFORMAT
  1
GRIDFORMAT_BEGIN
 90
        0
 91
        1
 62
     0
 92
       -2
340
14
 93
        0
 40
0.045
309
GRIDFORMAT_END
 95
        4
302
GRIDFORMAT
  1
GRIDFORMAT_BEGIN
 90
        0
 91
        1
 62
     0
 92
       -2
340
14
 93
        0
 40
0.045
309
GRIDFORMAT_END
 95
        8
302
GRIDFORMAT
  1
GRIDFORMAT_BEGIN
 90
        0
 91
        1
 62
     0
 92
       -2
340
14
 93
        0
 40
0.045
309
GRIDFORMAT_END
 95
       16
302
GRIDFORMAT
  1
GRIDFORMAT_BEGIN
 90
        0
 91
        1
 62
     0
 92
       -2
340
14
 93
        0
 40
0.045
309
GRIDFORMAT_END
 95
       32
302
GRIDFORMAT
  1
GRIDFORMAT_BEGIN
 90
        0
 91
        1
 62
     0
 92
       -2
340
14
 93
        0
 40
0.045
309
GRIDFORMAT_END
309
TABLEFORMAT_END
  1
CELLSTYLE_BEGIN
 90
        2
 91
        1
300
_HEADER
309
CELLSTYLE_END
300
CELLSTYLE
  1
TABLEFORMAT_BEGIN
 90
        5
170
     1
 91
        0
 92
        0
 62
   257
 93
        1
300
CONTENTFORMAT
  1
CONTENTFORMAT_BEGIN
 90
        0
 91
        0
 92
        4
 93
        0
300

 40
0.0
140
1.0
 94
        2
 62
     0
340
11
144
4.5
309
CONTENTFORMAT_END
171
     1
301
MARGIN
  1
CELLMARGIN_BEGIN
 40
1.5
 40
1.5
 40
1.5
 40
1.5
 40
1.5
 40
1.5
309
CELLMARGIN_END
 94
        6
 95
        1
302
GRIDFORMAT
  1
GRIDFORMAT_BEGIN
 90
        0
 91
        1
 62
     0
 92
       -2
340
14
 93
        0
 40
0.045
309
GRIDFORMAT_END
 95
        2
302
GRIDFORMAT
  1
GRIDFORMAT_BEGIN
 90
        0
 91
        1
 62
     0
 92
       -2
340
14
 93
        0
 40
0.045
309
GRIDFORMAT_END
 95
        4
302
GRIDFORMAT
  1
GRIDFORMAT_BEGIN
 90
        0
 91
        1
 62
     0
 92
       -2
340
14
 93
        0
 40
0.045
309
GRIDFORMAT_END
 95
        8
302
GRIDFORMAT
  1
GRIDFORMAT_BEGIN
 90
        0
 91
        1
 62
     0
 92
       -2
340
14
 93
        0
 40
0.045
309
GRIDFORMAT_END
 95
       16
302
GRIDFORMAT
  1
GRIDFORMAT_BEGIN
 90
        0
 91
        1
 62
     0
 92
       -2
340
14
 93
        0
 40
0.045
309
GRIDFORMAT_END
 95
       32
302
GRIDFORMAT
  1
GRIDFORMAT_BEGIN
 90
        0
 91
        1
 62
     0
 92
       -2
340
14
 93
        0
 40
0.045
309
GRIDFORMAT_END
309
TABLEFORMAT_END
  1
CELLSTYLE_BEGIN
 90
        3
 91
        2
300
_DATA
309
CELLSTYLE_END
  0
XRECORD
  5
45D
102
{ACAD_REACTORS
330
45C
102
}
330
45C
100
AcDbXrecord
280
     1
102
RTVSPost2010Prop28
280
     1
102
RTVSPost2010PropOp28
 70
     1
102
RTVSPost2010Prop29
280
     1
102
RTVSPost2010PropOp29
 70
     1
102
RTVSPost2010Prop30
280
     0
102
RTVSPost2010PropOp30
 70
     1
102
RTVSPost2010Prop31
280
     0
102
RTVSPost2010PropOp31
 70
     1
102
RTVSPost2010Prop32
280
     0
102
RTVSPost2010PropOp32
 70
     1
102
RTVSPost2010Prop33
280
     0
102
RTVSPost2010PropOp33
 70
     1
102
RTVSPost2010Prop34
280
     0
102
RTVSPost2010PropOp34
 70
     1
102
RTVSPost2010Prop35
280
     0
102
RTVSPost2010PropOp35
 70
     1
102
RTVSPost2010Prop36
280
     0
102
RTVSPost2010PropOp36
 70
     1
102
RTVSPost2010Prop37
 90
       50
102
RTVSPost2010PropOp37
 70
     1
102
RTVSPost2010Prop38
140
0.0
102
RTVSPost2010PropOp38
 70
     1
102
RTVSPost2010Prop39
140
1.0
102
RTVSPost2010PropOp39
 70
     1
102
RTVSPost2010Prop40
 90
        0
102
RTVSPost2010PropOp40
 70
     1
102
RTVSPost2010Prop41ColorIndex
 90
       18
102
RTVSPost2010Prop41ColorRGB
 90
        0
102
RTVSPost2010PropOp41
 70
     1
102
RTVSPost2010Prop42
 90
       50
102
RTVSPost2010PropOp42
 70
     1
102
RTVSPost2010Prop43
 90
        3
102
RTVSPost2010PropOp43
 70
     1
102
RTVSPost2010Prop44ColorIndex
 90
        5
102
RTVSPost2010Prop44ColorRGB
 90
      255
102
RTVSPost2010PropOp44
 70
     1
102
RTVSPost2010Prop45
280
     0
102
RTVSPost2010PropOp45
 70
     1
102
RTVSPost2010Prop46
 90
       50
102
RTVSPost2010PropOp46
 70
     1
102
RTVSPost2010Prop47
 90
       50
102
RTVSPost2010PropOp47
 70
     1
102
RTVSPost2010Prop48
 90
       50
102
RTVSPost2010PropOp48
 70
     1
102
RTVSPost2010Prop49
280
     0
102
RTVSPost2010PropOp49
 70
     1
102
RTVSPost2010Prop50
 90
       50
102
RTVSPost2010PropOp50
 70
     1
102
RTVSPost2010Prop51ColorIndex
 90
      256
102
RTVSPost2010Prop51ColorRGB
 90
-16777216
102
RTVSPost2010PropOp51
 70
     0
102
RTVSPost2010Prop52
140
1.0
102
RTVSPost2010PropOp52
 70
     0
102
RTVSPost2010Prop53
 90
        2
102
RTVSPost2010PropOp53
 70
     1
102
RTVSPost2010Prop54
  1
strokes_ogs.tif
102
RTVSPost2010PropOp54
 70
     1
102
RTVSPost2010Prop55
280
     0
102
RTVSPost2010PropOp55
 70
     1
102
RTVSPost2010Prop56
140
1.0
102
RTVSPost2010PropOp56
 70
     1
102
RTVSPost2010Prop57
140
1.0
102
RTVSPost2010PropOp57
 70
     1
  0
XRECORD
  5
463
102
{ACAD_REACTORS
330
462
102
}
330
462
100
AcDbXrecord
280
     1
102
RTVSPost2010Prop28
280
     0
102
RTVSPost2010PropOp28
 70
     1
102
RTVSPost2010Prop29
280
     1
102
RTVSPost2010PropOp29
 70
     1
102
RTVSPost2010Prop30
280
     1
102
RTVSPost2010PropOp30
 70
     1
102
RTVSPost2010Prop31
280
     0
102
RTVSPost2010PropOp31
 70
     1
102
RTVSPost2010Prop32
280
     0
102
RTVSPost2010PropOp32
 70
     1
102
RTVSPost2010Prop33
280
     0
102
RTVSPost2010PropOp33
 70
     1
102
RTVSPost2010Prop34
280
     0
102
RTVSPost2010PropOp34
 70
     1
102
RTVSPost2010Prop35
280
     0
102
RTVSPost2010PropOp35
 70
     1
102
RTVSPost2010Prop36
280
     0
102
RTVSPost2010PropOp36
 70
     1
102
RTVSPost2010Prop37
 90
       50
102
RTVSPost2010PropOp37
 70
     1
102
RTVSPost2010Prop38
140
0.0
102
RTVSPost2010PropOp38
 70
     1
102
RTVSPost2010Prop39
140
1.0
102
RTVSPost2010PropOp39
 70
     1
102
RTVSPost2010Prop40
 90
        0
102
RTVSPost2010PropOp40
 70
     1
102
RTVSPost2010Prop41ColorIndex
 90
       18
102
RTVSPost2010Prop41ColorRGB
 90
        0
102
RTVSPost2010PropOp41
 70
     1
102
RTVSPost2010Prop42
 90
       50
102
RTVSPost2010PropOp42
 70
     1
102
RTVSPost2010Prop43
 90
        3
102
RTVSPost2010PropOp43
 70
     1
102
RTVSPost2010Prop44ColorIndex
 90
        5
102
RTVSPost2010Prop44ColorRGB
 90
      255
102
RTVSPost2010PropOp44
 70
     1
102
RTVSPost2010Prop45
280
     0
102
RTVSPost2010PropOp45
 70
     1
102
RTVSPost2010Prop46
 90
       50
102
RTVSPost2010PropOp46
 70
     1
102
RTVSPost2010Prop47
 90
       50
102
RTVSPost2010PropOp47
 70
     1
102
RTVSPost2010Prop48
 90
       50
102
RTVSPost2010PropOp48
 70
     1
102
RTVSPost2010Prop49
280
     0
102
RTVSPost2010PropOp49
 70
     1
102
RTVSPost2010Prop50
 90
       50
102
RTVSPost2010PropOp50
 70
     1
102
RTVSPost2010Prop51ColorIndex
 90
      256
102
RTVSPost2010Prop51ColorRGB
 90
-16777216
102
RTVSPost2010PropOp51
 70
     0
102
RTVSPost2010Prop52
140
1.0
102
RTVSPost2010PropOp52
 70
     0
102
RTVSPost2010Prop53
 90
        2
102
RTVSPost2010PropOp53
 70
     1
102
RTVSPost2010Prop54
  1
strokes_ogs.tif
102
RTVSPost2010PropOp54
 70
     1
102
RTVSPost2010Prop55
280
     0
102
RTVSPost2010PropOp55
 70
     1
102
RTVSPost2010Prop56
140
1.0
102
RTVSPost2010PropOp56
 70
     1
102
RTVSPost2010Prop57
140
1.0
102
RTVSPost2010PropOp57
 70
     1
  0
XRECORD
  5
46B
102
{ACAD_REACTORS
330
46A
102
}
330
46A
100
AcDbXrecord
280
     1
102
RTVSPost2010Prop28
280
     0
102
RTVSPost2010PropOp28
 70
     1
102
RTVSPost2010Prop29
280
     1
102
RTVSPost2010PropOp29
 70
     1
102
RTVSPost2010Prop30
280
     1
102
RTVSPost2010PropOp30
 70
     1
102
RTVSPost2010Prop31
280
     0
102
RTVSPost2010PropOp31
 70
     1
102
RTVSPost2010Prop32
280
     0
102
RTVSPost2010PropOp32
 70
     1
102
RTVSPost2010Prop33
280
     0
102
RTVSPost2010PropOp33
 70
     1
102
RTVSPost2010Prop34
280
     0
102
RTVSPost2010PropOp34
 70
     1
102
RTVSPost2010Prop35
280
     0
102
RTVSPost2010PropOp35
 70
     1
102
RTVSPost2010Prop36
280
     0
102
RTVSPost2010PropOp36
 70
     1
102
RTVSPost2010Prop37
 90
       50
102
RTVSPost2010PropOp37
 70
     1
102
RTVSPost2010Prop38
140
0.0
102
RTVSPost2010PropOp38
 70
     1
102
RTVSPost2010Prop39
140
1.0
102
RTVSPost2010PropOp39
 70
     1
102
RTVSPost2010Prop40
 90
        0
102
RTVSPost2010PropOp40
 70
     1
102
RTVSPost2010Prop41ColorIndex
 90
       18
102
RTVSPost2010Prop41ColorRGB
 90
        0
102
RTVSPost2010PropOp41
 70
     1
102
RTVSPost2010Prop42
 90
       50
102
RTVSPost2010PropOp42
 70
     1
102
RTVSPost2010Prop43
 90
        3
102
RTVSPost2010PropOp43
 70
     1
102
RTVSPost2010Prop44ColorIndex
 90
        5
102
RTVSPost2010Prop44ColorRGB
 90
      255
102
RTVSPost2010PropOp44
 70
     1
102
RTVSPost2010Prop45
280
     0
102
RTVSPost2010PropOp45
 70
     1
102
RTVSPost2010Prop46
 90
       50
102
RTVSPost2010PropOp46
 70
     1
102
RTVSPost2010Prop47
 90
       50
102
RTVSPost2010PropOp47
 70
     1
102
RTVSPost2010Prop48
 90
       50
102
RTVSPost2010PropOp48
 70
     1
102
RTVSPost2010Prop49
280
     0
102
RTVSPost2010PropOp49
 70
     1
102
RTVSPost2010Prop50
 90
       50
102
RTVSPost2010PropOp50
 70
     1
102
RTVSPost2010Prop51ColorIndex
 90
      256
102
RTVSPost2010Prop51ColorRGB
 90
-16777216
102
RTVSPost2010PropOp51
 70
     0
102
RTVSPost2010Prop52
140
1.0
102
RTVSPost2010PropOp52
 70
     0
102
RTVSPost2010Prop53
 90
        2
102
RTVSPost2010PropOp53
 70
     1
102
RTVSPost2010Prop54
  1
strokes_ogs.tif
102
RTVSPost2010PropOp54
 70
     1
102
RTVSPost2010Prop55
280
     0
102
RTVSPost2010PropOp55
 70
     1
102
RTVSPost2010Prop56
140
1.0
102
RTVSPost2010PropOp56
 70
     1
102
RTVSPost2010Prop57
140
1.0
102
RTVSPost2010PropOp57
 70
     1
  0
XRECORD
  5
473
102
{ACAD_REACTORS
330
472
102
}
330
472
100
AcDbXrecord
280
     1
102
RTVSPost2010Prop28
280
     0
102
RTVSPost2010PropOp28
 70
     1
102
RTVSPost2010Prop29
280
     1
102
RTVSPost2010PropOp29
 70
     1
102
RTVSPost2010Prop30
280
     1
102
RTVSPost2010PropOp30
 70
     1
102
RTVSPost2010Prop31
280
     0
102
RTVSPost2010PropOp31
 70
     1
102
RTVSPost2010Prop32
280
     0
102
RTVSPost2010PropOp32
 70
     1
102
RTVSPost2010Prop33
280
     0
102
RTVSPost2010PropOp33
 70
     1
102
RTVSPost2010Prop34
280
     0
102
RTVSPost2010PropOp34
 70
     1
102
RTVSPost2010Prop35
280
     0
102
RTVSPost2010PropOp35
 70
     1
102
RTVSPost2010Prop36
280
     0
102
RTVSPost2010PropOp36
 70
     1
102
RTVSPost2010Prop37
 90
       50
102
RTVSPost2010PropOp37
 70
     1
102
RTVSPost2010Prop38
140
0.0
102
RTVSPost2010PropOp38
 70
     1
102
RTVSPost2010Prop39
140
1.0
102
RTVSPost2010PropOp39
 70
     1
102
RTVSPost2010Prop40
 90
        0
102
RTVSPost2010PropOp40
 70
     1
102
RTVSPost2010Prop41ColorIndex
 90
       18
102
RTVSPost2010Prop41ColorRGB
 90
        0
102
RTVSPost2010PropOp41
 70
     1
102
RTVSPost2010Prop42
 90
       50
102
RTVSPost2010PropOp42
 70
     1
102
RTVSPost2010Prop43
 90
        3
102
RTVSPost2010PropOp43
 70
     1
102
RTVSPost2010Prop44ColorIndex
 90
        5
102
RTVSPost2010Prop44ColorRGB
 90
      255
102
RTVSPost2010PropOp44
 70
     1
102
RTVSPost2010Prop45
280
     0
102
RTVSPost2010PropOp45
 70
     1
102
RTVSPost2010Prop46
 90
       50
102
RTVSPost2010PropOp46
 70
     1
102
RTVSPost2010Prop47
 90
       50
102
RTVSPost2010PropOp47
 70
     1
102
RTVSPost2010Prop48
 90
       50
102
RTVSPost2010PropOp48
 70
     1
102
RTVSPost2010Prop49
280
     0
102
RTVSPost2010PropOp49
 70
     1
102
RTVSPost2010Prop50
 90
       50
102
RTVSPost2010PropOp50
 70
     1
102
RTVSPost2010Prop51ColorIndex
 90
      256
102
RTVSPost2010Prop51ColorRGB
 90
-16777216
102
RTVSPost2010PropOp51
 70
     0
102
RTVSPost2010Prop52
140
1.0
102
RTVSPost2010PropOp52
 70
     0
102
RTVSPost2010Prop53
 90
        2
102
RTVSPost2010PropOp53
 70
     1
102
RTVSPost2010Prop54
  1
strokes_ogs.tif
102
RTVSPost2010PropOp54
 70
     1
102
RTVSPost2010Prop55
280
     0
102
RTVSPost2010PropOp55
 70
     1
102
RTVSPost2010Prop56
140
1.0
102
RTVSPost2010PropOp56
 70
     1
102
RTVSPost2010Prop57
140
1.0
102
RTVSPost2010PropOp57
 70
     1
  0
XRECORD
  5
467
102
{ACAD_REACTORS
330
466
102
}
330
466
100
AcDbXrecord
280
     1
102
RTVSPost2010Prop28
280
     0
102
RTVSPost2010PropOp28
 70
     1
102
RTVSPost2010Prop29
280
     1
102
RTVSPost2010PropOp29
 70
     1
102
RTVSPost2010Prop30
280
     1
102
RTVSPost2010PropOp30
 70
     1
102
RTVSPost2010Prop31
280
     0
102
RTVSPost2010PropOp31
 70
     1
102
RTVSPost2010Prop32
280
     0
102
RTVSPost2010PropOp32
 70
     1
102
RTVSPost2010Prop33
280
     0
102
RTVSPost2010PropOp33
 70
     1
102
RTVSPost2010Prop34
280
     0
102
RTVSPost2010PropOp34
 70
     1
102
RTVSPost2010Prop35
280
     0
102
RTVSPost2010PropOp35
 70
     1
102
RTVSPost2010Prop36
280
     0
102
RTVSPost2010PropOp36
 70
     1
102
RTVSPost2010Prop37
 90
       50
102
RTVSPost2010PropOp37
 70
     1
102
RTVSPost2010Prop38
140
0.0
102
RTVSPost2010PropOp38
 70
     1
102
RTVSPost2010Prop39
140
1.0
102
RTVSPost2010PropOp39
 70
     1
102
RTVSPost2010Prop40
 90
        0
102
RTVSPost2010PropOp40
 70
     1
102
RTVSPost2010Prop41ColorIndex
 90
       18
102
RTVSPost2010Prop41ColorRGB
 90
        0
102
RTVSPost2010PropOp41
 70
     1
102
RTVSPost2010Prop42
 90
       50
102
RTVSPost2010PropOp42
 70
     1
102
RTVSPost2010Prop43
 90
        3
102
RTVSPost2010PropOp43
 70
     1
102
RTVSPost2010Prop44ColorIndex
 90
        5
102
RTVSPost2010Prop44ColorRGB
 90
      255
102
RTVSPost2010PropOp44
 70
     1
102
RTVSPost2010Prop45
280
     0
102
RTVSPost2010PropOp45
 70
     1
102
RTVSPost2010Prop46
 90
       50
102
RTVSPost2010PropOp46
 70
     1
102
RTVSPost2010Prop47
 90
       50
102
RTVSPost2010PropOp47
 70
     1
102
RTVSPost2010Prop48
 90
       50
102
RTVSPost2010PropOp48
 70
     1
102
RTVSPost2010Prop49
280
     0
102
RTVSPost2010PropOp49
 70
     1
102
RTVSPost2010Prop50
 90
       50
102
RTVSPost2010PropOp50
 70
     1
102
RTVSPost2010Prop51ColorIndex
 90
      256
102
RTVSPost2010Prop51ColorRGB
 90
-16777216
102
RTVSPost2010PropOp51
 70
     0
102
RTVSPost2010Prop52
140
1.0
102
RTVSPost2010PropOp52
 70
     0
102
RTVSPost2010Prop53
 90
        2
102
RTVSPost2010PropOp53
 70
     1
102
RTVSPost2010Prop54
  1
strokes_ogs.tif
102
RTVSPost2010PropOp54
 70
     1
102
RTVSPost2010Prop55
280
     0
102
RTVSPost2010PropOp55
 70
     1
102
RTVSPost2010Prop56
140
1.0
102
RTVSPost2010PropOp56
 70
     1
102
RTVSPost2010Prop57
140
1.0
102
RTVSPost2010PropOp57
 70
     1
  0
XRECORD
  5
469
102
{ACAD_REACTORS
330
468
102
}
330
468
100
AcDbXrecord
280
     1
102
RTVSPost2010Prop28
280
     0
102
RTVSPost2010PropOp28
 70
     1
102
RTVSPost2010Prop29
280
     1
102
RTVSPost2010PropOp29
 70
     1
102
RTVSPost2010Prop30
280
     1
102
RTVSPost2010PropOp30
 70
     1
102
RTVSPost2010Prop31
280
     0
102
RTVSPost2010PropOp31
 70
     1
102
RTVSPost2010Prop32
280
     0
102
RTVSPost2010PropOp32
 70
     1
102
RTVSPost2010Prop33
280
     0
102
RTVSPost2010PropOp33
 70
     1
102
RTVSPost2010Prop34
280
     0
102
RTVSPost2010PropOp34
 70
     1
102
RTVSPost2010Prop35
280
     0
102
RTVSPost2010PropOp35
 70
     1
102
RTVSPost2010Prop36
280
     0
102
RTVSPost2010PropOp36
 70
     1
102
RTVSPost2010Prop37
 90
       50
102
RTVSPost2010PropOp37
 70
     1
102
RTVSPost2010Prop38
140
0.0
102
RTVSPost2010PropOp38
 70
     1
102
RTVSPost2010Prop39
140
1.0
102
RTVSPost2010PropOp39
 70
     1
102
RTVSPost2010Prop40
 90
        0
102
RTVSPost2010PropOp40
 70
     1
102
RTVSPost2010Prop41ColorIndex
 90
       18
102
RTVSPost2010Prop41ColorRGB
 90
        0
102
RTVSPost2010PropOp41
 70
     1
102
RTVSPost2010Prop42
 90
       50
102
RTVSPost2010PropOp42
 70
     1
102
RTVSPost2010Prop43
 90
        3
102
RTVSPost2010PropOp43
 70
     1
102
RTVSPost2010Prop44ColorIndex
 90
        5
102
RTVSPost2010Prop44ColorRGB
 90
      255
102
RTVSPost2010PropOp44
 70
     1
102
RTVSPost2010Prop45
280
     0
102
RTVSPost2010PropOp45
 70
     1
102
RTVSPost2010Prop46
 90
       50
102
RTVSPost2010PropOp46
 70
     1
102
RTVSPost2010Prop47
 90
       50
102
RTVSPost2010PropOp47
 70
     1
102
RTVSPost2010Prop48
 90
       50
102
RTVSPost2010PropOp48
 70
     1
102
RTVSPost2010Prop49
280
     0
102
RTVSPost2010PropOp49
 70
     1
102
RTVSPost2010Prop50
 90
       50
102
RTVSPost2010PropOp50
 70
     1
102
RTVSPost2010Prop51ColorIndex
 90
      256
102
RTVSPost2010Prop51ColorRGB
 90
-16777216
102
RTVSPost2010PropOp51
 70
     0
102
RTVSPost2010Prop52
140
1.0
102
RTVSPost2010PropOp52
 70
     0
102
RTVSPost2010Prop53
 90
        2
102
RTVSPost2010PropOp53
 70
     1
102
RTVSPost2010Prop54
  1
strokes_ogs.tif
102
RTVSPost2010PropOp54
 70
     1
102
RTVSPost2010Prop55
280
     0
102
RTVSPost2010PropOp55
 70
     1
102
RTVSPost2010Prop56
140
1.0
102
RTVSPost2010PropOp56
 70
     1
102
RTVSPost2010Prop57
140
1.0
102
RTVSPost2010PropOp57
 70
     1
  0
XRECORD
  5
479
102
{ACAD_REACTORS
330
478
102
}
330
478
100
AcDbXrecord
280
     1
102
RTVSPost2010Prop28
280
     0
102
RTVSPost2010PropOp28
 70
     0
102
RTVSPost2010Prop29
280
     1
102
RTVSPost2010PropOp29
 70
     0
102
RTVSPost2010Prop30
280
     1
102
RTVSPost2010PropOp30
 70
     0
102
RTVSPost2010Prop31
280
     0
102
RTVSPost2010PropOp31
 70
     0
102
RTVSPost2010Prop32
280
     0
102
RTVSPost2010PropOp32
 70
     0
102
RTVSPost2010Prop33
280
     0
102
RTVSPost2010PropOp33
 70
     0
102
RTVSPost2010Prop34
280
     0
102
RTVSPost2010PropOp34
 70
     0
102
RTVSPost2010Prop35
280
     0
102
RTVSPost2010PropOp35
 70
     0
102
RTVSPost2010Prop36
280
     0
102
RTVSPost2010PropOp36
 70
     0
102
RTVSPost2010Prop37
 90
       50
102
RTVSPost2010PropOp37
 70
     0
102
RTVSPost2010Prop38
140
0.0
102
RTVSPost2010PropOp38
 70
     0
102
RTVSPost2010Prop39
140
1.0
102
RTVSPost2010PropOp39
 70
     0
102
RTVSPost2010Prop40
 90
        0
102
RTVSPost2010PropOp40
 70
     0
102
RTVSPost2010Prop41ColorIndex
 90
       18
102
RTVSPost2010Prop41ColorRGB
 90
        0
102
RTVSPost2010PropOp41
 70
     0
102
RTVSPost2010Prop42
 90
       50
102
RTVSPost2010PropOp42
 70
     0
102
RTVSPost2010Prop43
 90
        3
102
RTVSPost2010PropOp43
 70
     0
102
RTVSPost2010Prop44ColorIndex
 90
        5
102
RTVSPost2010Prop44ColorRGB
 90
      255
102
RTVSPost2010PropOp44
 70
     0
102
RTVSPost2010Prop45
280
     0
102
RTVSPost2010PropOp45
 70
     0
102
RTVSPost2010Prop46
 90
       50
102
RTVSPost2010PropOp46
 70
     0
102
RTVSPost2010Prop47
 90
       50
102
RTVSPost2010PropOp47
 70
     0
102
RTVSPost2010Prop48
 90
       50
102
RTVSPost2010PropOp48
 70
     0
102
RTVSPost2010Prop49
280
     0
102
RTVSPost2010PropOp49
 70
     0
102
RTVSPost2010Prop50
 90
       50
102
RTVSPost2010PropOp50
 70
     0
102
RTVSPost2010Prop51ColorIndex
 90
      256
102
RTVSPost2010Prop51ColorRGB
 90
-16777216
102
RTVSPost2010PropOp51
 70
     0
102
RTVSPost2010Prop52
140
1.0
102
RTVSPost2010PropOp52
 70
     0
102
RTVSPost2010Prop53
 90
        2
102
RTVSPost2010PropOp53
 70
     0
102
RTVSPost2010Prop54
  1
strokes_ogs.tif
102
RTVSPost2010PropOp54
 70
     0
102
RTVSPost2010Prop55
280
     0
102
RTVSPost2010PropOp55
 70
     0
102
RTVSPost2010Prop56
140
1.0
102
RTVSPost2010PropOp56
 70
     0
102
RTVSPost2010Prop57
140
1.0
102
RTVSPost2010PropOp57
 70
     0
  0
XRECORD
  5
471
102
{ACAD_REACTORS
330
470
102
}
330
470
100
AcDbXrecord
280
     1
102
RTVSPost2010Prop28
280
     0
102
RTVSPost2010PropOp28
 70
     1
102
RTVSPost2010Prop29
280
     1
102
RTVSPost2010PropOp29
 70
     1
102
RTVSPost2010Prop30
280
     1
102
RTVSPost2010PropOp30
 70
     1
102
RTVSPost2010Prop31
280
     0
102
RTVSPost2010PropOp31
 70
     1
102
RTVSPost2010Prop32
280
     0
102
RTVSPost2010PropOp32
 70
     1
102
RTVSPost2010Prop33
280
     0
102
RTVSPost2010PropOp33
 70
     1
102
RTVSPost2010Prop34
280
     0
102
RTVSPost2010PropOp34
 70
     1
102
RTVSPost2010Prop35
280
     0
102
RTVSPost2010PropOp35
 70
     1
102
RTVSPost2010Prop36
280
     0
102
RTVSPost2010PropOp36
 70
     1
102
RTVSPost2010Prop37
 90
       50
102
RTVSPost2010PropOp37
 70
     1
102
RTVSPost2010Prop38
140
0.0
102
RTVSPost2010PropOp38
 70
     1
102
RTVSPost2010Prop39
140
1.0
102
RTVSPost2010PropOp39
 70
     1
102
RTVSPost2010Prop40
 90
        0
102
RTVSPost2010PropOp40
 70
     1
102
RTVSPost2010Prop41ColorIndex
 90
       18
102
RTVSPost2010Prop41ColorRGB
 90
        0
102
RTVSPost2010PropOp41
 70
     1
102
RTVSPost2010Prop42
 90
       50
102
RTVSPost2010PropOp42
 70
     1
102
RTVSPost2010Prop43
 90
        3
102
RTVSPost2010PropOp43
 70
     1
102
RTVSPost2010Prop44ColorIndex
 90
        5
102
RTVSPost2010Prop44ColorRGB
 90
      255
102
RTVSPost2010PropOp44
 70
     1
102
RTVSPost2010Prop45
280
     0
102
RTVSPost2010PropOp45
 70
     1
102
RTVSPost2010Prop46
 90
       50
102
RTVSPost2010PropOp46
 70
     1
102
RTVSPost2010Prop47
 90
       50
102
RTVSPost2010PropOp47
 70
     1
102
RTVSPost2010Prop48
 90
       50
102
RTVSPost2010PropOp48
 70
     1
102
RTVSPost2010Prop49
280
     0
102
RTVSPost2010PropOp49
 70
     1
102
RTVSPost2010Prop50
 90
       50
102
RTVSPost2010PropOp50
 70
     1
102
RTVSPost2010Prop51ColorIndex
 90
      256
102
RTVSPost2010Prop51ColorRGB
 90
-16777216
102
RTVSPost2010PropOp51
 70
     0
102
RTVSPost2010Prop52
140
1.0
102
RTVSPost2010PropOp52
 70
     0
102
RTVSPost2010Prop53
 90
        2
102
RTVSPost2010PropOp53
 70
     1
102
RTVSPost2010Prop54
  1
strokes_ogs.tif
102
RTVSPost2010PropOp54
 70
     1
102
RTVSPost2010Prop55
280
     0
102
RTVSPost2010PropOp55
 70
     1
102
RTVSPost2010Prop56
140
1.0
102
RTVSPost2010PropOp56
 70
     1
102
RTVSPost2010Prop57
140
1.0
102
RTVSPost2010PropOp57
 70
     1
  0
XRECORD
  5
455
102
{ACAD_REACTORS
330
454
102
}
330
454
100
AcDbXrecord
280
     1
102
RTVSPost2010Prop28
280
     0
102
RTVSPost2010PropOp28
 70
     1
102
RTVSPost2010Prop29
280
     1
102
RTVSPost2010PropOp29
 70
     1
102
RTVSPost2010Prop30
280
     1
102
RTVSPost2010PropOp30
 70
     1
102
RTVSPost2010Prop31
280
     0
102
RTVSPost2010PropOp31
 70
     1
102
RTVSPost2010Prop32
280
     0
102
RTVSPost2010PropOp32
 70
     1
102
RTVSPost2010Prop33
280
     0
102
RTVSPost2010PropOp33
 70
     1
102
RTVSPost2010Prop34
280
     0
102
RTVSPost2010PropOp34
 70
     1
102
RTVSPost2010Prop35
280
     0
102
RTVSPost2010PropOp35
 70
     1
102
RTVSPost2010Prop36
280
     0
102
RTVSPost2010PropOp36
 70
     1
102
RTVSPost2010Prop37
 90
       50
102
RTVSPost2010PropOp37
 70
     1
102
RTVSPost2010Prop38
140
0.0
102
RTVSPost2010PropOp38
 70
     1
102
RTVSPost2010Prop39
140
1.0
102
RTVSPost2010PropOp39
 70
     1
102
RTVSPost2010Prop40
 90
        0
102
RTVSPost2010PropOp40
 70
     1
102
RTVSPost2010Prop41ColorIndex
 90
       18
102
RTVSPost2010Prop41ColorRGB
 90
        0
102
RTVSPost2010PropOp41
 70
     1
102
RTVSPost2010Prop42
 90
       50
102
RTVSPost2010PropOp42
 70
     1
102
RTVSPost2010Prop43
 90
        3
102
RTVSPost2010PropOp43
 70
     1
102
RTVSPost2010Prop44ColorIndex
 90
        5
102
RTVSPost2010Prop44ColorRGB
 90
      255
102
RTVSPost2010PropOp44
 70
     1
102
RTVSPost2010Prop45
280
     0
102
RTVSPost2010PropOp45
 70
     1
102
RTVSPost2010Prop46
 90
       50
102
RTVSPost2010PropOp46
 70
     1
102
RTVSPost2010Prop47
 90
       50
102
RTVSPost2010PropOp47
 70
     1
102
RTVSPost2010Prop48
 90
       50
102
RTVSPost2010PropOp48
 70
     1
102
RTVSPost2010Prop49
280
     0
102
RTVSPost2010PropOp49
 70
     1
102
RTVSPost2010Prop50
 90
       50
102
RTVSPost2010PropOp50
 70
     1
102
RTVSPost2010Prop51ColorIndex
 90
      256
102
RTVSPost2010Prop51ColorRGB
 90
-16777216
102
RTVSPost2010PropOp51
 70
     0
102
RTVSPost2010Prop52
140
1.0
102
RTVSPost2010PropOp52
 70
     0
102
RTVSPost2010Prop53
 90
        2
102
RTVSPost2010PropOp53
 70
     1
102
RTVSPost2010Prop54
  1
strokes_ogs.tif
102
RTVSPost2010PropOp54
 70
     1
102
RTVSPost2010Prop55
280
     0
102
RTVSPost2010PropOp55
 70
     1
102
RTVSPost2010Prop56
140
1.0
102
RTVSPost2010PropOp56
 70
     1
102
RTVSPost2010Prop57
140
1.0
102
RTVSPost2010PropOp57
 70
     1
  0
XRECORD
  5
457
102
{ACAD_REACTORS
330
456
102
}
330
456
100
AcDbXrecord
280
     1
102
RTVSPost2010Prop28
280
     0
102
RTVSPost2010PropOp28
 70
     1
102
RTVSPost2010Prop29
280
     1
102
RTVSPost2010PropOp29
 70
     1
102
RTVSPost2010Prop30
280
     1
102
RTVSPost2010PropOp30
 70
     1
102
RTVSPost2010Prop31
280
     0
102
RTVSPost2010PropOp31
 70
     1
102
RTVSPost2010Prop32
280
     0
102
RTVSPost2010PropOp32
 70
     1
102
RTVSPost2010Prop33
280
     0
102
RTVSPost2010PropOp33
 70
     1
102
RTVSPost2010Prop34
280
     0
102
RTVSPost2010PropOp34
 70
     1
102
RTVSPost2010Prop35
280
     0
102
RTVSPost2010PropOp35
 70
     1
102
RTVSPost2010Prop36
280
     0
102
RTVSPost2010PropOp36
 70
     1
102
RTVSPost2010Prop37
 90
       50
102
RTVSPost2010PropOp37
 70
     1
102
RTVSPost2010Prop38
140
0.0
102
RTVSPost2010PropOp38
 70
     1
102
RTVSPost2010Prop39
140
1.0
102
RTVSPost2010PropOp39
 70
     1
102
RTVSPost2010Prop40
 90
        0
102
RTVSPost2010PropOp40
 70
     1
102
RTVSPost2010Prop41ColorIndex
 90
       18
102
RTVSPost2010Prop41ColorRGB
 90
        0
102
RTVSPost2010PropOp41
 70
     1
102
RTVSPost2010Prop42
 90
       50
102
RTVSPost2010PropOp42
 70
     1
102
RTVSPost2010Prop43
 90
        3
102
RTVSPost2010PropOp43
 70
     1
102
RTVSPost2010Prop44ColorIndex
 90
        5
102
RTVSPost2010Prop44ColorRGB
 90
      255
102
RTVSPost2010PropOp44
 70
     1
102
RTVSPost2010Prop45
280
     0
102
RTVSPost2010PropOp45
 70
     1
102
RTVSPost2010Prop46
 90
       50
102
RTVSPost2010PropOp46
 70
     1
102
RTVSPost2010Prop47
 90
       50
102
RTVSPost2010PropOp47
 70
     1
102
RTVSPost2010Prop48
 90
       50
102
RTVSPost2010PropOp48
 70
     1
102
RTVSPost2010Prop49
280
     0
102
RTVSPost2010PropOp49
 70
     1
102
RTVSPost2010Prop50
 90
       50
102
RTVSPost2010PropOp50
 70
     1
102
RTVSPost2010Prop51ColorIndex
 90
      256
102
RTVSPost2010Prop51ColorRGB
 90
-16777216
102
RTVSPost2010PropOp51
 70
     0
102
RTVSPost2010Prop52
140
1.0
102
RTVSPost2010PropOp52
 70
     0
102
RTVSPost2010Prop53
 90
        2
102
RTVSPost2010PropOp53
 70
     1
102
RTVSPost2010Prop54
  1
strokes_ogs.tif
102
RTVSPost2010PropOp54
 70
     1
102
RTVSPost2010Prop55
280
     0
102
RTVSPost2010PropOp55
 70
     1
102
RTVSPost2010Prop56
140
1.0
102
RTVSPost2010PropOp56
 70
     1
102
RTVSPost2010Prop57
140
1.0
102
RTVSPost2010PropOp57
 70
     1
  0
XRECORD
  5
459
102
{ACAD_REACTORS
330
458
102
}
330
458
100
AcDbXrecord
280
     1
102
RTVSPost2010Prop28
280
     0
102
RTVSPost2010PropOp28
 70
     1
102
RTVSPost2010Prop29
280
     1
102
RTVSPost2010PropOp29
 70
     1
102
RTVSPost2010Prop30
280
     1
102
RTVSPost2010PropOp30
 70
     1
102
RTVSPost2010Prop31
280
     0
102
RTVSPost2010PropOp31
 70
     1
102
RTVSPost2010Prop32
280
     0
102
RTVSPost2010PropOp32
 70
     1
102
RTVSPost2010Prop33
280
     0
102
RTVSPost2010PropOp33
 70
     1
102
RTVSPost2010Prop34
280
     0
102
RTVSPost2010PropOp34
 70
     1
102
RTVSPost2010Prop35
280
     0
102
RTVSPost2010PropOp35
 70
     1
102
RTVSPost2010Prop36
280
     0
102
RTVSPost2010PropOp36
 70
     1
102
RTVSPost2010Prop37
 90
       50
102
RTVSPost2010PropOp37
 70
     1
102
RTVSPost2010Prop38
140
0.0
102
RTVSPost2010PropOp38
 70
     1
102
RTVSPost2010Prop39
140
1.0
102
RTVSPost2010PropOp39
 70
     1
102
RTVSPost2010Prop40
 90
        0
102
RTVSPost2010PropOp40
 70
     1
102
RTVSPost2010Prop41ColorIndex
 90
       18
102
RTVSPost2010Prop41ColorRGB
 90
        0
102
RTVSPost2010PropOp41
 70
     1
102
RTVSPost2010Prop42
 90
       50
102
RTVSPost2010PropOp42
 70
     1
102
RTVSPost2010Prop43
 90
        3
102
RTVSPost2010PropOp43
 70
     1
102
RTVSPost2010Prop44ColorIndex
 90
        5
102
RTVSPost2010Prop44ColorRGB
 90
      255
102
RTVSPost2010PropOp44
 70
     1
102
RTVSPost2010Prop45
280
     0
102
RTVSPost2010PropOp45
 70
     1
102
RTVSPost2010Prop46
 90
       50
102
RTVSPost2010PropOp46
 70
     1
102
RTVSPost2010Prop47
 90
       50
102
RTVSPost2010PropOp47
 70
     1
102
RTVSPost2010Prop48
 90
       50
102
RTVSPost2010PropOp48
 70
     1
102
RTVSPost2010Prop49
280
     0
102
RTVSPost2010PropOp49
 70
     1
102
RTVSPost2010Prop50
 90
       50
102
RTVSPost2010PropOp50
 70
     1
102
RTVSPost2010Prop51ColorIndex
 90
      256
102
RTVSPost2010Prop51ColorRGB
 90
-16777216
102
RTVSPost2010PropOp51
 70
     0
102
RTVSPost2010Prop52
140
1.0
102
RTVSPost2010PropOp52
 70
     0
102
RTVSPost2010Prop53
 90
        2
102
RTVSPost2010PropOp53
 70
     1
102
RTVSPost2010Prop54
  1
strokes_ogs.tif
102
RTVSPost2010PropOp54
 70
     1
102
RTVSPost2010Prop55
280
     0
102
RTVSPost2010PropOp55
 70
     1
102
RTVSPost2010Prop56
140
1.0
102
RTVSPost2010PropOp56
 70
     1
102
RTVSPost2010Prop57
140
1.0
102
RTVSPost2010PropOp57
 70
     1
  0
XRECORD
  5
45B
102
{ACAD_REACTORS
330
45A
102
}
330
45A
100
AcDbXrecord
280
     1
102
RTVSPost2010Prop28
280
     0
102
RTVSPost2010PropOp28
 70
     1
102
RTVSPost2010Prop29
280
     1
102
RTVSPost2010PropOp29
 70
     1
102
RTVSPost2010Prop30
280
     1
102
RTVSPost2010PropOp30
 70
     1
102
RTVSPost2010Prop31
280
     0
102
RTVSPost2010PropOp31
 70
     1
102
RTVSPost2010Prop32
280
     0
102
RTVSPost2010PropOp32
 70
     1
102
RTVSPost2010Prop33
280
     0
102
RTVSPost2010PropOp33
 70
     1
102
RTVSPost2010Prop34
280
     0
102
RTVSPost2010PropOp34
 70
     1
102
RTVSPost2010Prop35
280
     0
102
RTVSPost2010PropOp35
 70
     1
102
RTVSPost2010Prop36
280
     0
102
RTVSPost2010PropOp36
 70
     1
102
RTVSPost2010Prop37
 90
       50
102
RTVSPost2010PropOp37
 70
     1
102
RTVSPost2010Prop38
140
0.0
102
RTVSPost2010PropOp38
 70
     1
102
RTVSPost2010Prop39
140
1.0
102
RTVSPost2010PropOp39
 70
     1
102
RTVSPost2010Prop40
 90
        0
102
RTVSPost2010PropOp40
 70
     1
102
RTVSPost2010Prop41ColorIndex
 90
       18
102
RTVSPost2010Prop41ColorRGB
 90
        0
102
RTVSPost2010PropOp41
 70
     1
102
RTVSPost2010Prop42
 90
       50
102
RTVSPost2010PropOp42
 70
     1
102
RTVSPost2010Prop43
 90
        3
102
RTVSPost2010PropOp43
 70
     1
102
RTVSPost2010Prop44ColorIndex
 90
        5
102
RTVSPost2010Prop44ColorRGB
 90
      255
102
RTVSPost2010PropOp44
 70
     1
102
RTVSPost2010Prop45
280
     0
102
RTVSPost2010PropOp45
 70
     1
102
RTVSPost2010Prop46
 90
       50
102
RTVSPost2010PropOp46
 70
     1
102
RTVSPost2010Prop47
 90
       50
102
RTVSPost2010PropOp47
 70
     1
102
RTVSPost2010Prop48
 90
       50
102
RTVSPost2010PropOp48
 70
     1
102
RTVSPost2010Prop49
280
     0
102
RTVSPost2010PropOp49
 70
     1
102
RTVSPost2010Prop50
 90
       50
102
RTVSPost2010PropOp50
 70
     1
102
RTVSPost2010Prop51ColorIndex
 90
      256
102
RTVSPost2010Prop51ColorRGB
 90
-16777216
102
RTVSPost2010PropOp51
 70
     0
102
RTVSPost2010Prop52
140
1.0
102
RTVSPost2010PropOp52
 70
     0
102
RTVSPost2010Prop53
 90
        2
102
RTVSPost2010PropOp53
 70
     1
102
RTVSPost2010Prop54
  1
strokes_ogs.tif
102
RTVSPost2010PropOp54
 70
     1
102
RTVSPost2010Prop55
280
     0
102
RTVSPost2010PropOp55
 70
     1
102
RTVSPost2010Prop56
140
1.0
102
RTVSPost2010PropOp56
 70
     1
102
RTVSPost2010Prop57
140
1.0
102
RTVSPost2010PropOp57
 70
     1
  0
XRECORD
  5
461
102
{ACAD_REACTORS
330
460
102
}
330
460
100
AcDbXrecord
280
     1
102
RTVSPost2010Prop28
280
     0
102
RTVSPost2010PropOp28
 70
     1
102
RTVSPost2010Prop29
280
     1
102
RTVSPost2010PropOp29
 70
     1
102
RTVSPost2010Prop30
280
     1
102
RTVSPost2010PropOp30
 70
     1
102
RTVSPost2010Prop31
280
     0
102
RTVSPost2010PropOp31
 70
     1
102
RTVSPost2010Prop32
280
     0
102
RTVSPost2010PropOp32
 70
     1
102
RTVSPost2010Prop33
280
     0
102
RTVSPost2010PropOp33
 70
     1
102
RTVSPost2010Prop34
280
     0
102
RTVSPost2010PropOp34
 70
     1
102
RTVSPost2010Prop35
280
     0
102
RTVSPost2010PropOp35
 70
     1
102
RTVSPost2010Prop36
280
     0
102
RTVSPost2010PropOp36
 70
     1
102
RTVSPost2010Prop37
 90
       50
102
RTVSPost2010PropOp37
 70
     1
102
RTVSPost2010Prop38
140
0.0
102
RTVSPost2010PropOp38
 70
     1
102
RTVSPost2010Prop39
140
1.0
102
RTVSPost2010PropOp39
 70
     1
102
RTVSPost2010Prop40
 90
        0
102
RTVSPost2010PropOp40
 70
     1
102
RTVSPost2010Prop41ColorIndex
 90
       18
102
RTVSPost2010Prop41ColorRGB
 90
        0
102
RTVSPost2010PropOp41
 70
     1
102
RTVSPost2010Prop42
 90
       50
102
RTVSPost2010PropOp42
 70
     1
102
RTVSPost2010Prop43
 90
        3
102
RTVSPost2010PropOp43
 70
     1
102
RTVSPost2010Prop44ColorIndex
 90
        5
102
RTVSPost2010Prop44ColorRGB
 90
      255
102
RTVSPost2010PropOp44
 70
     1
102
RTVSPost2010Prop45
280
     0
102
RTVSPost2010PropOp45
 70
     1
102
RTVSPost2010Prop46
 90
       50
102
RTVSPost2010PropOp46
 70
     1
102
RTVSPost2010Prop47
 90
       50
102
RTVSPost2010PropOp47
 70
     1
102
RTVSPost2010Prop48
 90
       50
102
RTVSPost2010PropOp48
 70
     1
102
RTVSPost2010Prop49
280
     0
102
RTVSPost2010PropOp49
 70
     1
102
RTVSPost2010Prop50
 90
       50
102
RTVSPost2010PropOp50
 70
     1
102
RTVSPost2010Prop51ColorIndex
 90
      256
102
RTVSPost2010Prop51ColorRGB
 90
-16777216
102
RTVSPost2010PropOp51
 70
     0
102
RTVSPost2010Prop52
140
1.0
102
RTVSPost2010PropOp52
 70
     0
102
RTVSPost2010Prop53
 90
        2
102
RTVSPost2010PropOp53
 70
     1
102
RTVSPost2010Prop54
  1
strokes_ogs.tif
102
RTVSPost2010PropOp54
 70
     1
102
RTVSPost2010Prop55
280
     0
102
RTVSPost2010PropOp55
 70
     1
102
RTVSPost2010Prop56
140
1.0
102
RTVSPost2010PropOp56
 70
     1
102
RTVSPost2010Prop57
140
1.0
102
RTVSPost2010PropOp57
 70
     1
  0
XRECORD
  5
475
102
{ACAD_REACTORS
330
474
102
}
330
474
100
AcDbXrecord
280
     1
102
RTVSPost2010Prop28
280
     0
102
RTVSPost2010PropOp28
 70
     0
102
RTVSPost2010Prop29
280
     1
102
RTVSPost2010PropOp29
 70
     0
102
RTVSPost2010Prop30
280
     1
102
RTVSPost2010PropOp30
 70
     0
102
RTVSPost2010Prop31
280
     0
102
RTVSPost2010PropOp31
 70
     0
102
RTVSPost2010Prop32
280
     0
102
RTVSPost2010PropOp32
 70
     0
102
RTVSPost2010Prop33
280
     0
102
RTVSPost2010PropOp33
 70
     0
102
RTVSPost2010Prop34
280
     0
102
RTVSPost2010PropOp34
 70
     0
102
RTVSPost2010Prop35
280
     0
102
RTVSPost2010PropOp35
 70
     0
102
RTVSPost2010Prop36
280
     0
102
RTVSPost2010PropOp36
 70
     0
102
RTVSPost2010Prop37
 90
       50
102
RTVSPost2010PropOp37
 70
     0
102
RTVSPost2010Prop38
140
0.0
102
RTVSPost2010PropOp38
 70
     0
102
RTVSPost2010Prop39
140
1.0
102
RTVSPost2010PropOp39
 70
     0
102
RTVSPost2010Prop40
 90
        0
102
RTVSPost2010PropOp40
 70
     0
102
RTVSPost2010Prop41ColorIndex
 90
       18
102
RTVSPost2010Prop41ColorRGB
 90
        0
102
RTVSPost2010PropOp41
 70
     0
102
RTVSPost2010Prop42
 90
       50
102
RTVSPost2010PropOp42
 70
     0
102
RTVSPost2010Prop43
 90
        3
102
RTVSPost2010PropOp43
 70
     0
102
RTVSPost2010Prop44ColorIndex
 90
        5
102
RTVSPost2010Prop44ColorRGB
 90
      255
102
RTVSPost2010PropOp44
 70
     0
102
RTVSPost2010Prop45
280
     0
102
RTVSPost2010PropOp45
 70
     0
102
RTVSPost2010Prop46
 90
       50
102
RTVSPost2010PropOp46
 70
     0
102
RTVSPost2010Prop47
 90
       50
102
RTVSPost2010PropOp47
 70
     0
102
RTVSPost2010Prop48
 90
       50
102
RTVSPost2010PropOp48
 70
     0
102
RTVSPost2010Prop49
280
     0
102
RTVSPost2010PropOp49
 70
     0
102
RTVSPost2010Prop50
 90
       50
102
RTVSPost2010PropOp50
 70
     0
102
RTVSPost2010Prop51ColorIndex
 90
      256
102
RTVSPost2010Prop51ColorRGB
 90
-16777216
102
RTVSPost2010PropOp51
 70
     0
102
RTVSPost2010Prop52
140
1.0
102
RTVSPost2010PropOp52
 70
     0
102
RTVSPost2010Prop53
 90
        2
102
RTVSPost2010PropOp53
 70
     0
102
RTVSPost2010Prop54
  1
strokes_ogs.tif
102
RTVSPost2010PropOp54
 70
     0
102
RTVSPost2010Prop55
280
     0
102
RTVSPost2010PropOp55
 70
     0
102
RTVSPost2010Prop56
140
1.0
102
RTVSPost2010PropOp56
 70
     0
102
RTVSPost2010Prop57
140
1.0
102
RTVSPost2010PropOp57
 70
     0
  0
XRECORD
  5
46F
102
{ACAD_REACTORS
330
46E
102
}
330
46E
100
AcDbXrecord
280
     1
102
RTVSPost2010Prop28
280
     0
102
RTVSPost2010PropOp28
 70
     1
102
RTVSPost2010Prop29
280
     1
102
RTVSPost2010PropOp29
 70
     1
102
RTVSPost2010Prop30
280
     1
102
RTVSPost2010PropOp30
 70
     1
102
RTVSPost2010Prop31
280
     0
102
RTVSPost2010PropOp31
 70
     1
102
RTVSPost2010Prop32
280
     0
102
RTVSPost2010PropOp32
 70
     1
102
RTVSPost2010Prop33
280
     0
102
RTVSPost2010PropOp33
 70
     1
102
RTVSPost2010Prop34
280
     0
102
RTVSPost2010PropOp34
 70
     1
102
RTVSPost2010Prop35
280
     0
102
RTVSPost2010PropOp35
 70
     1
102
RTVSPost2010Prop36
280
     0
102
RTVSPost2010PropOp36
 70
     1
102
RTVSPost2010Prop37
 90
       50
102
RTVSPost2010PropOp37
 70
     1
102
RTVSPost2010Prop38
140
0.0
102
RTVSPost2010PropOp38
 70
     1
102
RTVSPost2010Prop39
140
1.0
102
RTVSPost2010PropOp39
 70
     1
102
RTVSPost2010Prop40
 90
        0
102
RTVSPost2010PropOp40
 70
     1
102
RTVSPost2010Prop41ColorIndex
 90
       18
102
RTVSPost2010Prop41ColorRGB
 90
        0
102
RTVSPost2010PropOp41
 70
     1
102
RTVSPost2010Prop42
 90
       50
102
RTVSPost2010PropOp42
 70
     1
102
RTVSPost2010Prop43
 90
        3
102
RTVSPost2010PropOp43
 70
     1
102
RTVSPost2010Prop44ColorIndex
 90
        5
102
RTVSPost2010Prop44ColorRGB
 90
      255
102
RTVSPost2010PropOp44
 70
     1
102
RTVSPost2010Prop45
280
     0
102
RTVSPost2010PropOp45
 70
     1
102
RTVSPost2010Prop46
 90
       50
102
RTVSPost2010PropOp46
 70
     1
102
RTVSPost2010Prop47
 90
       50
102
RTVSPost2010PropOp47
 70
     1
102
RTVSPost2010Prop48
 90
       50
102
RTVSPost2010PropOp48
 70
     1
102
RTVSPost2010Prop49
280
     0
102
RTVSPost2010PropOp49
 70
     1
102
RTVSPost2010Prop50
 90
       50
102
RTVSPost2010PropOp50
 70
     1
102
RTVSPost2010Prop51ColorIndex
 90
      256
102
RTVSPost2010Prop51ColorRGB
 90
-16777216
102
RTVSPost2010PropOp51
 70
     0
102
RTVSPost2010Prop52
140
1.0
102
RTVSPost2010PropOp52
 70
     0
102
RTVSPost2010Prop53
 90
        2
102
RTVSPost2010PropOp53
 70
     1
102
RTVSPost2010Prop54
  1
strokes_ogs.tif
102
RTVSPost2010PropOp54
 70
     1
102
RTVSPost2010Prop55
280
     0
102
RTVSPost2010PropOp55
 70
     1
102
RTVSPost2010Prop56
140
1.0
102
RTVSPost2010PropOp56
 70
     1
102
RTVSPost2010Prop57
140
1.0
102
RTVSPost2010PropOp57
 70
     1
  0
XRECORD
  5
477
102
{ACAD_REACTORS
330
476
102
}
330
476
100
AcDbXrecord
280
     1
102
RTVSPost2010Prop28
280
     0
102
RTVSPost2010PropOp28
 70
     0
102
RTVSPost2010Prop29
280
     1
102
RTVSPost2010PropOp29
 70
     0
102
RTVSPost2010Prop30
280
     1
102
RTVSPost2010PropOp30
 70
     0
102
RTVSPost2010Prop31
280
     0
102
RTVSPost2010PropOp31
 70
     0
102
RTVSPost2010Prop32
280
     0
102
RTVSPost2010PropOp32
 70
     0
102
RTVSPost2010Prop33
280
     0
102
RTVSPost2010PropOp33
 70
     0
102
RTVSPost2010Prop34
280
     0
102
RTVSPost2010PropOp34
 70
     0
102
RTVSPost2010Prop35
280
     0
102
RTVSPost2010PropOp35
 70
     0
102
RTVSPost2010Prop36
280
     0
102
RTVSPost2010PropOp36
 70
     0
102
RTVSPost2010Prop37
 90
       50
102
RTVSPost2010PropOp37
 70
     0
102
RTVSPost2010Prop38
140
0.0
102
RTVSPost2010PropOp38
 70
     0
102
RTVSPost2010Prop39
140
1.0
102
RTVSPost2010PropOp39
 70
     0
102
RTVSPost2010Prop40
 90
        0
102
RTVSPost2010PropOp40
 70
     0
102
RTVSPost2010Prop41ColorIndex
 90
       18
102
RTVSPost2010Prop41ColorRGB
 90
        0
102
RTVSPost2010PropOp41
 70
     0
102
RTVSPost2010Prop42
 90
       50
102
RTVSPost2010PropOp42
 70
     0
102
RTVSPost2010Prop43
 90
        3
102
RTVSPost2010PropOp43
 70
     0
102
RTVSPost2010Prop44ColorIndex
 90
        5
102
RTVSPost2010Prop44ColorRGB
 90
      255
102
RTVSPost2010PropOp44
 70
     0
102
RTVSPost2010Prop45
280
     0
102
RTVSPost2010PropOp45
 70
     0
102
RTVSPost2010Prop46
 90
       50
102
RTVSPost2010PropOp46
 70
     0
102
RTVSPost2010Prop47
 90
       50
102
RTVSPost2010PropOp47
 70
     0
102
RTVSPost2010Prop48
 90
       50
102
RTVSPost2010PropOp48
 70
     0
102
RTVSPost2010Prop49
280
     0
102
RTVSPost2010PropOp49
 70
     0
102
RTVSPost2010Prop50
 90
       50
102
RTVSPost2010PropOp50
 70
     0
102
RTVSPost2010Prop51ColorIndex
 90
      256
102
RTVSPost2010Prop51ColorRGB
 90
-16777216
102
RTVSPost2010PropOp51
 70
     0
102
RTVSPost2010Prop52
140
1.0
102
RTVSPost2010PropOp52
 70
     0
102
RTVSPost2010Prop53
 90
        2
102
RTVSPost2010PropOp53
 70
     0
102
RTVSPost2010Prop54
  1
strokes_ogs.tif
102
RTVSPost2010PropOp54
 70
     0
102
RTVSPost2010Prop55
280
     0
102
RTVSPost2010PropOp55
 70
     0
102
RTVSPost2010Prop56
140
1.0
102
RTVSPost2010PropOp56
 70
     0
102
RTVSPost2010Prop57
140
1.0
102
RTVSPost2010PropOp57
 70
     0
  0
XRECORD
  5
465
102
{ACAD_REACTORS
330
464
102
}
330
464
100
AcDbXrecord
280
     1
102
RTVSPost2010Prop28
280
     0
102
RTVSPost2010PropOp28
 70
     1
102
RTVSPost2010Prop29
280
     1
102
RTVSPost2010PropOp29
 70
     1
102
RTVSPost2010Prop30
280
     1
102
RTVSPost2010PropOp30
 70
     1
102
RTVSPost2010Prop31
280
     0
102
RTVSPost2010PropOp31
 70
     1
102
RTVSPost2010Prop32
280
     0
102
RTVSPost2010PropOp32
 70
     1
102
RTVSPost2010Prop33
280
     0
102
RTVSPost2010PropOp33
 70
     1
102
RTVSPost2010Prop34
280
     0
102
RTVSPost2010PropOp34
 70
     1
102
RTVSPost2010Prop35
280
     0
102
RTVSPost2010PropOp35
 70
     1
102
RTVSPost2010Prop36
280
     0
102
RTVSPost2010PropOp36
 70
     1
102
RTVSPost2010Prop37
 90
       50
102
RTVSPost2010PropOp37
 70
     1
102
RTVSPost2010Prop38
140
0.0
102
RTVSPost2010PropOp38
 70
     1
102
RTVSPost2010Prop39
140
1.0
102
RTVSPost2010PropOp39
 70
     1
102
RTVSPost2010Prop40
 90
        0
102
RTVSPost2010PropOp40
 70
     1
102
RTVSPost2010Prop41ColorIndex
 90
       18
102
RTVSPost2010Prop41ColorRGB
 90
        0
102
RTVSPost2010PropOp41
 70
     1
102
RTVSPost2010Prop42
 90
       50
102
RTVSPost2010PropOp42
 70
     1
102
RTVSPost2010Prop43
 90
        3
102
RTVSPost2010PropOp43
 70
     1
102
RTVSPost2010Prop44ColorIndex
 90
        5
102
RTVSPost2010Prop44ColorRGB
 90
      255
102
RTVSPost2010PropOp44
 70
     1
102
RTVSPost2010Prop45
280
     0
102
RTVSPost2010PropOp45
 70
     1
102
RTVSPost2010Prop46
 90
       50
102
RTVSPost2010PropOp46
 70
     1
102
RTVSPost2010Prop47
 90
       50
102
RTVSPost2010PropOp47
 70
     1
102
RTVSPost2010Prop48
 90
       50
102
RTVSPost2010PropOp48
 70
     1
102
RTVSPost2010Prop49
280
     0
102
RTVSPost2010PropOp49
 70
     1
102
RTVSPost2010Prop50
 90
       50
102
RTVSPost2010PropOp50
 70
     1
102
RTVSPost2010Prop51ColorIndex
 90
      256
102
RTVSPost2010Prop51ColorRGB
 90
-16777216
102
RTVSPost2010PropOp51
 70
     0
102
RTVSPost2010Prop52
140
1.0
102
RTVSPost2010PropOp52
 70
     0
102
RTVSPost2010Prop53
 90
        2
102
RTVSPost2010PropOp53
 70
     1
102
RTVSPost2010Prop54
  1
strokes_ogs.tif
102
RTVSPost2010PropOp54
 70
     1
102
RTVSPost2010Prop55
280
     0
102
RTVSPost2010PropOp55
 70
     1
102
RTVSPost2010Prop56
140
1.0
102
RTVSPost2010PropOp56
 70
     1
102
RTVSPost2010Prop57
140
1.0
102
RTVSPost2010PropOp57
 70
     1
  0
XRECORD
  5
483
102
{ACAD_REACTORS
330
482
102
}
330
482
100
AcDbXrecord
280
     1
102
RTVSPost2010Prop28
280
     0
102
RTVSPost2010PropOp28
 70
     1
102
RTVSPost2010Prop29
280
     1
102
RTVSPost2010PropOp29
 70
     1
102
RTVSPost2010Prop30
280
     1
102
RTVSPost2010PropOp30
 70
     1
102
RTVSPost2010Prop31
280
     0
102
RTVSPost2010PropOp31
 70
     1
102
RTVSPost2010Prop32
280
     0
102
RTVSPost2010PropOp32
 70
     1
102
RTVSPost2010Prop33
280
     0
102
RTVSPost2010PropOp33
 70
     1
102
RTVSPost2010Prop34
280
     0
102
RTVSPost2010PropOp34
 70
     1
102
RTVSPost2010Prop35
280
     0
102
RTVSPost2010PropOp35
 70
     1
102
RTVSPost2010Prop36
280
     0
102
RTVSPost2010PropOp36
 70
     1
102
RTVSPost2010Prop37
 90
       50
102
RTVSPost2010PropOp37
 70
     1
102
RTVSPost2010Prop38
140
0.0
102
RTVSPost2010PropOp38
 70
     1
102
RTVSPost2010Prop39
140
1.0
102
RTVSPost2010PropOp39
 70
     1
102
RTVSPost2010Prop40
 90
        0
102
RTVSPost2010PropOp40
 70
     1
102
RTVSPost2010Prop41ColorIndex
 90
       18
102
RTVSPost2010Prop41ColorRGB
 90
        0
102
RTVSPost2010PropOp41
 70
     1
102
RTVSPost2010Prop42
 90
       50
102
RTVSPost2010PropOp42
 70
     1
102
RTVSPost2010Prop43
 90
        3
102
RTVSPost2010PropOp43
 70
     1
102
RTVSPost2010Prop44ColorIndex
 90
        5
102
RTVSPost2010Prop44ColorRGB
 90
      255
102
RTVSPost2010PropOp44
 70
     1
102
RTVSPost2010Prop45
280
     0
102
RTVSPost2010PropOp45
 70
     1
102
RTVSPost2010Prop46
 90
       50
102
RTVSPost2010PropOp46
 70
     1
102
RTVSPost2010Prop47
 90
       50
102
RTVSPost2010PropOp47
 70
     1
102
RTVSPost2010Prop48
 90
       50
102
RTVSPost2010PropOp48
 70
     1
102
RTVSPost2010Prop49
280
     0
102
RTVSPost2010PropOp49
 70
     1
102
RTVSPost2010Prop50
 90
       50
102
RTVSPost2010PropOp50
 70
     1
102
RTVSPost2010Prop51ColorIndex
 90
      256
102
RTVSPost2010Prop51ColorRGB
 90
-16777216
102
RTVSPost2010PropOp51
 70
     0
102
RTVSPost2010Prop52
140
1.0
102
RTVSPost2010PropOp52
 70
     0
102
RTVSPost2010Prop53
 90
        2
102
RTVSPost2010PropOp53
 70
     1
102
RTVSPost2010Prop54
  1
strokes_ogs.tif
102
RTVSPost2010PropOp54
 70
     1
102
RTVSPost2010Prop55
280
     0
102
RTVSPost2010PropOp55
 70
     1
102
RTVSPost2010Prop56
140
1.0
102
RTVSPost2010PropOp56
 70
     1
102
RTVSPost2010Prop57
140
1.0
102
RTVSPost2010PropOp57
 70
     1
  0
XRECORD
  5
481
102
{ACAD_REACTORS
330
480
102
}
330
480
100
AcDbXrecord
280
     1
102
RTVSPost2010Prop28
280
     0
102
RTVSPost2010PropOp28
 70
     1
102
RTVSPost2010Prop29
280
     1
102
RTVSPost2010PropOp29
 70
     1
102
RTVSPost2010Prop30
280
     1
102
RTVSPost2010PropOp30
 70
     1
102
RTVSPost2010Prop31
280
     0
102
RTVSPost2010PropOp31
 70
     1
102
RTVSPost2010Prop32
280
     0
102
RTVSPost2010PropOp32
 70
     1
102
RTVSPost2010Prop33
280
     0
102
RTVSPost2010PropOp33
 70
     1
102
RTVSPost2010Prop34
280
     0
102
RTVSPost2010PropOp34
 70
     1
102
RTVSPost2010Prop35
280
     0
102
RTVSPost2010PropOp35
 70
     1
102
RTVSPost2010Prop36
280
     0
102
RTVSPost2010PropOp36
 70
     1
102
RTVSPost2010Prop37
 90
       50
102
RTVSPost2010PropOp37
 70
     1
102
RTVSPost2010Prop38
140
0.0
102
RTVSPost2010PropOp38
 70
     1
102
RTVSPost2010Prop39
140
1.0
102
RTVSPost2010PropOp39
 70
     1
102
RTVSPost2010Prop40
 90
        0
102
RTVSPost2010PropOp40
 70
     1
102
RTVSPost2010Prop41ColorIndex
 90
       18
102
RTVSPost2010Prop41ColorRGB
 90
        0
102
RTVSPost2010PropOp41
 70
     1
102
RTVSPost2010Prop42
 90
       50
102
RTVSPost2010PropOp42
 70
     1
102
RTVSPost2010Prop43
 90
        3
102
RTVSPost2010PropOp43
 70
     1
102
RTVSPost2010Prop44ColorIndex
 90
        5
102
RTVSPost2010Prop44ColorRGB
 90
      255
102
RTVSPost2010PropOp44
 70
     1
102
RTVSPost2010Prop45
280
     0
102
RTVSPost2010PropOp45
 70
     1
102
RTVSPost2010Prop46
 90
       50
102
RTVSPost2010PropOp46
 70
     1
102
RTVSPost2010Prop47
 90
       50
102
RTVSPost2010PropOp47
 70
     1
102
RTVSPost2010Prop48
 90
       50
102
RTVSPost2010PropOp48
 70
     1
102
RTVSPost2010Prop49
280
     0
102
RTVSPost2010PropOp49
 70
     1
102
RTVSPost2010Prop50
 90
       50
102
RTVSPost2010PropOp50
 70
     1
102
RTVSPost2010Prop51ColorIndex
 90
      256
102
RTVSPost2010Prop51ColorRGB
 90
-16777216
102
RTVSPost2010PropOp51
 70
     0
102
RTVSPost2010Prop52
140
1.0
102
RTVSPost2010PropOp52
 70
     0
102
RTVSPost2010Prop53
 90
        2
102
RTVSPost2010PropOp53
 70
     1
102
RTVSPost2010Prop54
  1
strokes_ogs.tif
102
RTVSPost2010PropOp54
 70
     1
102
RTVSPost2010Prop55
280
     0
102
RTVSPost2010PropOp55
 70
     1
102
RTVSPost2010Prop56
140
1.0
102
RTVSPost2010PropOp56
 70
     1
102
RTVSPost2010Prop57
140
1.0
102
RTVSPost2010PropOp57
 70
     1
  0
XRECORD
  5
47B
102
{ACAD_REACTORS
330
47A
102
}
330
47A
100
AcDbXrecord
280
     1
102
RTVSPost2010Prop28
280
     0
102
RTVSPost2010PropOp28
 70
     1
102
RTVSPost2010Prop29
280
     1
102
RTVSPost2010PropOp29
 70
     1
102
RTVSPost2010Prop30
280
     1
102
RTVSPost2010PropOp30
 70
     1
102
RTVSPost2010Prop31
280
     0
102
RTVSPost2010PropOp31
 70
     1
102
RTVSPost2010Prop32
280
     0
102
RTVSPost2010PropOp32
 70
     1
102
RTVSPost2010Prop33
280
     0
102
RTVSPost2010PropOp33
 70
     1
102
RTVSPost2010Prop34
280
     0
102
RTVSPost2010PropOp34
 70
     1
102
RTVSPost2010Prop35
280
     0
102
RTVSPost2010PropOp35
 70
     1
102
RTVSPost2010Prop36
280
     0
102
RTVSPost2010PropOp36
 70
     1
102
RTVSPost2010Prop37
 90
       50
102
RTVSPost2010PropOp37
 70
     1
102
RTVSPost2010Prop38
140
0.0
102
RTVSPost2010PropOp38
 70
     1
102
RTVSPost2010Prop39
140
1.0
102
RTVSPost2010PropOp39
 70
     1
102
RTVSPost2010Prop40
 90
        0
102
RTVSPost2010PropOp40
 70
     1
102
RTVSPost2010Prop41ColorIndex
 90
       18
102
RTVSPost2010Prop41ColorRGB
 90
        0
102
RTVSPost2010PropOp41
 70
     1
102
RTVSPost2010Prop42
 90
       50
102
RTVSPost2010PropOp42
 70
     1
102
RTVSPost2010Prop43
 90
        3
102
RTVSPost2010PropOp43
 70
     1
102
RTVSPost2010Prop44ColorIndex
 90
        5
102
RTVSPost2010Prop44ColorRGB
 90
      255
102
RTVSPost2010PropOp44
 70
     1
102
RTVSPost2010Prop45
280
     0
102
RTVSPost2010PropOp45
 70
     1
102
RTVSPost2010Prop46
 90
       50
102
RTVSPost2010PropOp46
 70
     1
102
RTVSPost2010Prop47
 90
       50
102
RTVSPost2010PropOp47
 70
     1
102
RTVSPost2010Prop48
 90
       50
102
RTVSPost2010PropOp48
 70
     1
102
RTVSPost2010Prop49
280
     0
102
RTVSPost2010PropOp49
 70
     1
102
RTVSPost2010Prop50
 90
       50
102
RTVSPost2010PropOp50
 70
     1
102
RTVSPost2010Prop51ColorIndex
 90
      256
102
RTVSPost2010Prop51ColorRGB
 90
-16777216
102
RTVSPost2010PropOp51
 70
     0
102
RTVSPost2010Prop52
140
1.0
102
RTVSPost2010PropOp52
 70
     0
102
RTVSPost2010Prop53
 90
        2
102
RTVSPost2010PropOp53
 70
     1
102
RTVSPost2010Prop54
  1
strokes_ogs.tif
102
RTVSPost2010PropOp54
 70
     1
102
RTVSPost2010Prop55
280
     0
102
RTVSPost2010PropOp55
 70
     1
102
RTVSPost2010Prop56
140
1.0
102
RTVSPost2010PropOp56
 70
     1
102
RTVSPost2010Prop57
140
1.0
102
RTVSPost2010PropOp57
 70
     1
  0
XRECORD
  5
47D
102
{ACAD_REACTORS
330
47C
102
}
330
47C
100
AcDbXrecord
280
     1
102
RTVSPost2010Prop28
280
     0
102
RTVSPost2010PropOp28
 70
     1
102
RTVSPost2010Prop29
280
     1
102
RTVSPost2010PropOp29
 70
     1
102
RTVSPost2010Prop30
280
     1
102
RTVSPost2010PropOp30
 70
     1
102
RTVSPost2010Prop31
280
     0
102
RTVSPost2010PropOp31
 70
     1
102
RTVSPost2010Prop32
280
     0
102
RTVSPost2010PropOp32
 70
     1
102
RTVSPost2010Prop33
280
     0
102
RTVSPost2010PropOp33
 70
     1
102
RTVSPost2010Prop34
280
     0
102
RTVSPost2010PropOp34
 70
     1
102
RTVSPost2010Prop35
280
     0
102
RTVSPost2010PropOp35
 70
     1
102
RTVSPost2010Prop36
280
     0
102
RTVSPost2010PropOp36
 70
     1
102
RTVSPost2010Prop37
 90
       50
102
RTVSPost2010PropOp37
 70
     1
102
RTVSPost2010Prop38
140
0.0
102
RTVSPost2010PropOp38
 70
     1
102
RTVSPost2010Prop39
140
1.0
102
RTVSPost2010PropOp39
 70
     1
102
RTVSPost2010Prop40
 90
        0
102
RTVSPost2010PropOp40
 70
     1
102
RTVSPost2010Prop41ColorIndex
 90
       18
102
RTVSPost2010Prop41ColorRGB
 90
        0
102
RTVSPost2010PropOp41
 70
     1
102
RTVSPost2010Prop42
 90
       50
102
RTVSPost2010PropOp42
 70
     1
102
RTVSPost2010Prop43
 90
        3
102
RTVSPost2010PropOp43
 70
     1
102
RTVSPost2010Prop44ColorIndex
 90
        5
102
RTVSPost2010Prop44ColorRGB
 90
      255
102
RTVSPost2010PropOp44
 70
     1
102
RTVSPost2010Prop45
280
     0
102
RTVSPost2010PropOp45
 70
     1
102
RTVSPost2010Prop46
 90
       50
102
RTVSPost2010PropOp46
 70
     1
102
RTVSPost2010Prop47
 90
       50
102
RTVSPost2010PropOp47
 70
     1
102
RTVSPost2010Prop48
 90
       50
102
RTVSPost2010PropOp48
 70
     1
102
RTVSPost2010Prop49
280
     0
102
RTVSPost2010PropOp49
 70
     1
102
RTVSPost2010Prop50
 90
       50
102
RTVSPost2010PropOp50
 70
     1
102
RTVSPost2010Prop51ColorIndex
 90
      256
102
RTVSPost2010Prop51ColorRGB
 90
-16777216
102
RTVSPost2010PropOp51
 70
     0
102
RTVSPost2010Prop52
140
1.0
102
RTVSPost2010PropOp52
 70
     0
102
RTVSPost2010Prop53
 90
        2
102
RTVSPost2010PropOp53
 70
     1
102
RTVSPost2010Prop54
  1
strokes_ogs.tif
102
RTVSPost2010PropOp54
 70
     1
102
RTVSPost2010Prop55
280
     0
102
RTVSPost2010PropOp55
 70
     1
102
RTVSPost2010Prop56
140
1.0
102
RTVSPost2010PropOp56
 70
     1
102
RTVSPost2010Prop57
140
1.0
102
RTVSPost2010PropOp57
 70
     1
  0
XRECORD
  5
46D
102
{ACAD_REACTORS
330
46C
102
}
330
46C
100
AcDbXrecord
280
     1
102
RTVSPost2010Prop28
280
     0
102
RTVSPost2010PropOp28
 70
     1
102
RTVSPost2010Prop29
280
     1
102
RTVSPost2010PropOp29
 70
     1
102
RTVSPost2010Prop30
280
     1
102
RTVSPost2010PropOp30
 70
     1
102
RTVSPost2010Prop31
280
     0
102
RTVSPost2010PropOp31
 70
     1
102
RTVSPost2010Prop32
280
     0
102
RTVSPost2010PropOp32
 70
     1
102
RTVSPost2010Prop33
280
     0
102
RTVSPost2010PropOp33
 70
     1
102
RTVSPost2010Prop34
280
     0
102
RTVSPost2010PropOp34
 70
     1
102
RTVSPost2010Prop35
280
     0
102
RTVSPost2010PropOp35
 70
     1
102
RTVSPost2010Prop36
280
     0
102
RTVSPost2010PropOp36
 70
     1
102
RTVSPost2010Prop37
 90
       50
102
RTVSPost2010PropOp37
 70
     1
102
RTVSPost2010Prop38
140
0.0
102
RTVSPost2010PropOp38
 70
     1
102
RTVSPost2010Prop39
140
1.0
102
RTVSPost2010PropOp39
 70
     1
102
RTVSPost2010Prop40
 90
        0
102
RTVSPost2010PropOp40
 70
     1
102
RTVSPost2010Prop41ColorIndex
 90
       18
102
RTVSPost2010Prop41ColorRGB
 90
        0
102
RTVSPost2010PropOp41
 70
     1
102
RTVSPost2010Prop42
 90
       50
102
RTVSPost2010PropOp42
 70
     1
102
RTVSPost2010Prop43
 90
        3
102
RTVSPost2010PropOp43
 70
     1
102
RTVSPost2010Prop44ColorIndex
 90
        5
102
RTVSPost2010Prop44ColorRGB
 90
      255
102
RTVSPost2010PropOp44
 70
     1
102
RTVSPost2010Prop45
280
     0
102
RTVSPost2010PropOp45
 70
     1
102
RTVSPost2010Prop46
 90
       50
102
RTVSPost2010PropOp46
 70
     1
102
RTVSPost2010Prop47
 90
       50
102
RTVSPost2010PropOp47
 70
     1
102
RTVSPost2010Prop48
 90
       50
102
RTVSPost2010PropOp48
 70
     1
102
RTVSPost2010Prop49
280
     0
102
RTVSPost2010PropOp49
 70
     1
102
RTVSPost2010Prop50
 90
       50
102
RTVSPost2010PropOp50
 70
     1
102
RTVSPost2010Prop51ColorIndex
 90
      256
102
RTVSPost2010Prop51ColorRGB
 90
-16777216
102
RTVSPost2010PropOp51
 70
     0
102
RTVSPost2010Prop52
140
1.0
102
RTVSPost2010PropOp52
 70
     0
102
RTVSPost2010Prop53
 90
        2
102
RTVSPost2010PropOp53
 70
     1
102
RTVSPost2010Prop54
  1
strokes_ogs.tif
102
RTVSPost2010PropOp54
 70
     1
102
RTVSPost2010Prop55
280
     0
102
RTVSPost2010PropOp55
 70
     1
102
RTVSPost2010Prop56
140
1.0
102
RTVSPost2010PropOp56
 70
     1
102
RTVSPost2010Prop57
140
1.0
102
RTVSPost2010PropOp57
 70
     1
  0
XRECORD
  5
45F
102
{ACAD_REACTORS
330
45E
102
}
330
45E
100
AcDbXrecord
280
     1
102
RTVSPost2010Prop28
280
     0
102
RTVSPost2010PropOp28
 70
     1
102
RTVSPost2010Prop29
280
     1
102
RTVSPost2010PropOp29
 70
     1
102
RTVSPost2010Prop30
280
     1
102
RTVSPost2010PropOp30
 70
     1
102
RTVSPost2010Prop31
280
     0
102
RTVSPost2010PropOp31
 70
     1
102
RTVSPost2010Prop32
280
     0
102
RTVSPost2010PropOp32
 70
     1
102
RTVSPost2010Prop33
280
     0
102
RTVSPost2010PropOp33
 70
     1
102
RTVSPost2010Prop34
280
     0
102
RTVSPost2010PropOp34
 70
     1
102
RTVSPost2010Prop35
280
     0
102
RTVSPost2010PropOp35
 70
     1
102
RTVSPost2010Prop36
280
     0
102
RTVSPost2010PropOp36
 70
     1
102
RTVSPost2010Prop37
 90
       50
102
RTVSPost2010PropOp37
 70
     1
102
RTVSPost2010Prop38
140
0.0
102
RTVSPost2010PropOp38
 70
     1
102
RTVSPost2010Prop39
140
1.0
102
RTVSPost2010PropOp39
 70
     1
102
RTVSPost2010Prop40
 90
        0
102
RTVSPost2010PropOp40
 70
     1
102
RTVSPost2010Prop41ColorIndex
 90
       18
102
RTVSPost2010Prop41ColorRGB
 90
        0
102
RTVSPost2010PropOp41
 70
     1
102
RTVSPost2010Prop42
 90
       50
102
RTVSPost2010PropOp42
 70
     1
102
RTVSPost2010Prop43
 90
        3
102
RTVSPost2010PropOp43
 70
     1
102
RTVSPost2010Prop44ColorIndex
 90
        5
102
RTVSPost2010Prop44ColorRGB
 90
      255
102
RTVSPost2010PropOp44
 70
     1
102
RTVSPost2010Prop45
280
     0
102
RTVSPost2010PropOp45
 70
     1
102
RTVSPost2010Prop46
 90
       50
102
RTVSPost2010PropOp46
 70
     1
102
RTVSPost2010Prop47
 90
       50
102
RTVSPost2010PropOp47
 70
     1
102
RTVSPost2010Prop48
 90
       50
102
RTVSPost2010PropOp48
 70
     1
102
RTVSPost2010Prop49
280
     0
102
RTVSPost2010PropOp49
 70
     1
102
RTVSPost2010Prop50
 90
       50
102
RTVSPost2010PropOp50
 70
     1
102
RTVSPost2010Prop51ColorIndex
 90
      256
102
RTVSPost2010Prop51ColorRGB
 90
-16777216
102
RTVSPost2010PropOp51
 70
     0
102
RTVSPost2010Prop52
140
1.0
102
RTVSPost2010PropOp52
 70
     0
102
RTVSPost2010Prop53
 90
        2
102
RTVSPost2010PropOp53
 70
     1
102
RTVSPost2010Prop54
  1
strokes_ogs.tif
102
RTVSPost2010PropOp54
 70
     1
102
RTVSPost2010Prop55
280
     0
102
RTVSPost2010PropOp55
 70
     1
102
RTVSPost2010Prop56
140
1.0
102
RTVSPost2010PropOp56
 70
     1
102
RTVSPost2010Prop57
140
1.0
102
RTVSPost2010PropOp57
 70
     1
  0
XRECORD
  5
47F
102
{ACAD_REACTORS
330
47E
102
}
330
47E
100
AcDbXrecord
280
     1
102
RTVSPost2010Prop28
280
     0
102
RTVSPost2010PropOp28
 70
     1
102
RTVSPost2010Prop29
280
     1
102
RTVSPost2010PropOp29
 70
     1
102
RTVSPost2010Prop30
280
     1
102
RTVSPost2010PropOp30
 70
     1
102
RTVSPost2010Prop31
280
     0
102
RTVSPost2010PropOp31
 70
     1
102
RTVSPost2010Prop32
280
     0
102
RTVSPost2010PropOp32
 70
     1
102
RTVSPost2010Prop33
280
     0
102
RTVSPost2010PropOp33
 70
     1
102
RTVSPost2010Prop34
280
     0
102
RTVSPost2010PropOp34
 70
     1
102
RTVSPost2010Prop35
280
     0
102
RTVSPost2010PropOp35
 70
     1
102
RTVSPost2010Prop36
280
     0
102
RTVSPost2010PropOp36
 70
     1
102
RTVSPost2010Prop37
 90
       50
102
RTVSPost2010PropOp37
 70
     1
102
RTVSPost2010Prop38
140
0.0
102
RTVSPost2010PropOp38
 70
     1
102
RTVSPost2010Prop39
140
1.0
102
RTVSPost2010PropOp39
 70
     1
102
RTVSPost2010Prop40
 90
        0
102
RTVSPost2010PropOp40
 70
     1
102
RTVSPost2010Prop41ColorIndex
 90
       18
102
RTVSPost2010Prop41ColorRGB
 90
        0
102
RTVSPost2010PropOp41
 70
     1
102
RTVSPost2010Prop42
 90
       50
102
RTVSPost2010PropOp42
 70
     1
102
RTVSPost2010Prop43
 90
        3
102
RTVSPost2010PropOp43
 70
     1
102
RTVSPost2010Prop44ColorIndex
 90
        5
102
RTVSPost2010Prop44ColorRGB
 90
      255
102
RTVSPost2010PropOp44
 70
     1
102
RTVSPost2010Prop45
280
     0
102
RTVSPost2010PropOp45
 70
     1
102
RTVSPost2010Prop46
 90
       50
102
RTVSPost2010PropOp46
 70
     1
102
RTVSPost2010Prop47
 90
       50
102
RTVSPost2010PropOp47
 70
     1
102
RTVSPost2010Prop48
 90
       50
102
RTVSPost2010PropOp48
 70
     1
102
RTVSPost2010Prop49
280
     0
102
RTVSPost2010PropOp49
 70
     1
102
RTVSPost2010Prop50
 90
       50
102
RTVSPost2010PropOp50
 70
     1
102
RTVSPost2010Prop51ColorIndex
 90
      256
102
RTVSPost2010Prop51ColorRGB
 90
-16777216
102
RTVSPost2010PropOp51
 70
     0
102
RTVSPost2010Prop52
140
1.0
102
RTVSPost2010PropOp52
 70
     0
102
RTVSPost2010Prop53
 90
        2
102
RTVSPost2010PropOp53
 70
     1
102
RTVSPost2010Prop54
  1
strokes_ogs.tif
102
RTVSPost2010PropOp54
 70
     1
102
RTVSPost2010Prop55
280
     0
102
RTVSPost2010PropOp55
 70
     1
102
RTVSPost2010Prop56
140
1.0
102
RTVSPost2010PropOp56
 70
     1
102
RTVSPost2010Prop57
140
1.0
102
RTVSPost2010PropOp57
 70
     1
  0
ENDSEC
  0
EOF
