  0
SECTION
  2
HEADER
  9
$ACADVER
  1
AC1024
  9
$ACADMAINTVER
 70
     6
  9
$DWGCODEPAGE
  3
ANSI_1252
  9
$INSBASE
 10
0.0
 20
0.0
 30
0.0
  9
$EXTMIN
 10
1.000000E+20
 20
1.000000E+20
 30
1.000000E+20
  9
$EXTMAX
 10
-1.000000E+20
 20
-1.000000E+20
 30
-1.000000E+20
  9
$LIMMIN
 10
0.0
 20
0.0
  9
$LIMMAX
 10
420.0
 20
297.0
  9
$ORTHOMODE
 70
     0
  9
$REGENMODE
 70
     1
  9
$FILLMODE
 70
     1
  9
$QTEXTMODE
 70
     0
  9
$MIRRTEXT
 70
     1
  9
$LTSCALE
 40
1.0
  9
$ATTMODE
 70
     1
  9
$TEXTSIZE
 40
2.5
  9
$TRACEWID
 40
1.0
  9
$TEXTSTYLE
  7
Standard
  9
$CLAYER
  8
0
  9
$CELTYPE
  6
ByLayer
  9
$CECOLOR
 62
   256
  9
$CELTSCALE
 40
1.0
  9
$DISPSILH
 70
     0
  9
$DIMSCALE
 40
1.0
  9
$DIMASZ
 40
2.5
  9
$DIMEXO
 40
0.625
  9
$DIMDLI
 40
3.75
  9
$DIMRND
 40
0.0
  9
$DIMDLE
 40
0.0
  9
$DIMEXE
 40
1.25
  9
$DIMTP
 40
0.0
  9
$DIMTM
 40
0.0
  9
$DIMTXT
 40
2.5
  9
$DIMCEN
 40
2.5
  9
$DIMTSZ
 40
0.0
  9
$DIMTOL
 70
     0
  9
$DIMLIM
 70
     0
  9
$DIMTIH
 70
     0
  9
$DIMTOH
 70
     0
  9
$DIMSE1
 70
     0
  9
$DIMSE2
 70
     0
  9
$DIMTAD
 70
     1
  9
$DIMZIN
 70
     8
  9
$DIMBLK
  1

  9
$DIMASO
 70
     1
  9
$DIMSHO
 70
     1
  9
$DIMPOST
  1

  9
$DIMAPOST
  1

  9
$DIMALT
 70
     0
  9
$DIMALTD
 70
     3
  9
$DIMALTF
 40
0.03937
  9
$DIMLFAC
 40
1.0
  9
$DIMTOFL
 70
     1
  9
$DIMTVP
 40
0.0
  9
$DIMTIX
 70
     0
  9
$DIMSOXD
 70
     0
  9
$DIMSAH
 70
     0
  9
$DIMBLK1
  1

  9
$DIMBLK2
  1

  9
$DIMSTYLE
  2
ISO-25
  9
$DIMCLRD
 70
     0
  9
$DIMCLRE
 70
     0
  9
$DIMCLRT
 70
     0
  9
$DIMTFAC
 40
1.0
  9
$DIMGAP
 40
0.625
  9
$DIMJUST
 70
     0
  9
$DIMSD1
 70
     0
  9
$DIMSD2
 70
     0
  9
$DIMTOLJ
 70
     0
  9
$DIMTZIN
 70
     8
  9
$DIMALTZ
 70
     0
  9
$DIMALTTZ
 70
     0
  9
$DIMUPT
 70
     0
  9
$DIMDEC
 70
     2
  9
$DIMTDEC
 70
     2
  9
$DIMALTU
 70
     2
  9
$DIMALTTD
 70
     3
  9
$DIMTXSTY
  7
Standard
  9
$DIMAUNIT
 70
     0
  9
$DIMADEC
 70
     0
  9
$DIMALTRND
 40
0.0
  9
$DIMAZIN
 70
     0
  9
$DIMDSEP
 70
    44
  9
$DIMATFIT
 70
     3
  9
$DIMFRAC
 70
     0
  9
$DIMLDRBLK
  1

  9
$DIMLUNIT
 70
     2
  9
$DIMLWD
 70
    -2
  9
$DIMLWE
 70
    -2
  9
$DIMTMOVE
 70
     0
  9
$DIMFXL
 40
1.0
  9
$DIMFXLON
 70
     0
  9
$DIMJOGANG
 40
0.785398
  9
$DIMTFILL
 70
     0
  9
$DIMTFILLCLR
 70
     0
  9
$DIMARCSYM
 70
     0
  9
$DIMLTYPE
  6

  9
$DIMLTEX1
  6

  9
$DIMLTEX2
  6

  9
$DIMTXTDIRECTION
 70
     0
  9
$LUNITS
 70
     2
  9
$LUPREC
 70
     4
  9
$SKETCHINC
 40
1.0
  9
$FILLETRAD
 40
10.0
  9
$AUNITS
 70
     0
  9
$AUPREC
 70
     0
  9
$MENU
  1
.
  9
$ELEVATION
 40
0.0
  9
$PELEVATION
 40
0.0
  9
$THICKNESS
 40
0.0
  9
$LIMCHECK
 70
     0
  9
$CHAMFERA
 40
0.0
  9
$CHAMFERB
 40
0.0
  9
$CHAMFERC
 40
0.0
  9
$CHAMFERD
 40
0.0
  9
$SKPOLY
 70
     0
  9
$TDCREATE
 40
2457806.487507211
  9
$TDUCREATE
 40
2457806.445840544
  9
$TDUPDATE
 40
2457806.487508113
  9
$TDUUPDATE
 40
2457806.445841447
  9
$TDINDWG
 40
0.0000000116
  9
$TDUSRTIMER
 40
0.0000000116
  9
$USRTIMER
 70
     1
  9
$ANGBASE
 50
0.0
  9
$ANGDIR
 70
     0
  9
$PDMODE
 70
     0
  9
$PDSIZE
 40
0.0
  9
$PLINEWID
 40
0.0
  9
$SPLFRAME
 70
     0
  9
$SPLINETYPE
 70
     6
  9
$SPLINESEGS
 70
     8
  9
$HANDSEED
  5
4A8
  9
$SURFTAB1
 70
     6
  9
$SURFTAB2
 70
     6
  9
$SURFTYPE
 70
     6
  9
$SURFU
 70
     6
  9
$SURFV
 70
     6
  9
$UCSBASE
  2

  9
$UCSNAME
  2

  9
$UCSORG
 10
0.0
 20
0.0
 30
0.0
  9
$UCSXDIR
 10
1.0
 20
0.0
 30
0.0
  9
$UCSYDIR
 10
0.0
 20
1.0
 30
0.0
  9
$UCSORTHOREF
  2

  9
$UCSORTHOVIEW
 70
     0
  9
$UCSORGTOP
 10
0.0
 20
0.0
 30
0.0
  9
$UCSORGBOTTOM
 10
0.0
 20
0.0
 30
0.0
  9
$UCSORGLEFT
 10
0.0
 20
0.0
 30
0.0
  9
$UCSORGRIGHT
 10
0.0
 20
0.0
 30
0.0
  9
$UCSORGFRONT
 10
0.0
 20
0.0
 30
0.0
  9
$UCSORGBACK
 10
0.0
 20
0.0
 30
0.0
  9
$PUCSBASE
  2

  9
$PUCSNAME
  2

  9
$PUCSORG
 10
0.0
 20
0.0
 30
0.0
  9
$PUCSXDIR
 10
1.0
 20
0.0
 30
0.0
  9
$PUCSYDIR
 10
0.0
 20
1.0
 30
0.0
  9
$PUCSORTHOREF
  2

  9
$PUCSORTHOVIEW
 70
     0
  9
$PUCSORGTOP
 10
0.0
 20
0.0
 30
0.0
  9
$PUCSORGBOTTOM
 10
0.0
 20
0.0
 30
0.0
  9
$PUCSORGLEFT
 10
0.0
 20
0.0
 30
0.0
  9
$PUCSORGRIGHT
 10
0.0
 20
0.0
 30
0.0
  9
$PUCSORGFRONT
 10
0.0
 20
0.0
 30
0.0
  9
$PUCSORGBACK
 10
0.0
 20
0.0
 30
0.0
  9
$USERI1
 70
     0
  9
$USERI2
 70
     0
  9
$USERI3
 70
     0
  9
$USERI4
 70
     0
  9
$USERI5
 70
     0
  9
$USERR1
 40
0.0
  9
$USERR2
 40
0.0
  9
$USERR3
 40
0.0
  9
$USERR4
 40
0.0
  9
$USERR5
 40
0.0
  9
$WORLDVIEW
 70
     1
  9
$SHADEDGE
 70
     3
  9
$SHADEDIF
 70
    70
  9
$TILEMODE
 70
     1
  9
$MAXACTVP
 70
    64
  9
$PINSBASE
 10
0.0
 20
0.0
 30
0.0
  9
$PLIMCHECK
 70
     0
  9
$PEXTMIN
 10
1.000000E+20
 20
1.000000E+20
 30
1.000000E+20
  9
$PEXTMAX
 10
-1.000000E+20
 20
-1.000000E+20
 30
-1.000000E+20
  9
$PLIMMIN
 10
0.0
 20
0.0
  9
$PLIMMAX
 10
420.0
 20
297.0
  9
$UNITMODE
 70
     0
  9
$VISRETAIN
 70
     1
  9
$PLINEGEN
 70
     0
  9
$PSLTSCALE
 70
     1
  9
$TREEDEPTH
 70
  3020
  9
$CMLSTYLE
  2
Standard
  9
$CMLJUST
 70
     0
  9
$CMLSCALE
 40
20.0
  9
$PROXYGRAPHICS
 70
     1
  9
$MEASUREMENT
 70
     1
  9
$CELWEIGHT
370
    -1
  9
$ENDCAPS
280
     0
  9
$JOINSTYLE
280
     0
  9
$LWDISPLAY
290
     0
  9
$INSUNITS
 70
     4
  9
$HYPERLINKBASE
  1

  9
$STYLESHEET
  1

  9
$XEDIT
290
     1
  9
$CEPSNTYPE
380
     0
  9
$PSTYLEMODE
290
     1
  9
$FINGERPRINTGUID
  2
{AA4FA26B-A2CD-449B-BCBA-4A85C396C2D5}
  9
$VERSIONGUID
  2
{FAEB1C32-E019-11D5-929B-00C0DF256EC4}
  9
$EXTNAMES
290
     1
  9
$PSVPSCALE
 40
0.0
  9
$OLESTARTUP
290
     0
  9
$SORTENTS
280
   127
  9
$INDEXCTL
280
     0
  9
$HIDETEXT
280
     1
  9
$XCLIPFRAME
280
     2
  9
$HALOGAP
280
     0
  9
$OBSCOLOR
 70
   257
  9
$OBSLTYPE
280
     0
  9
$INTERSECTIONDISPLAY
280
     0
  9
$INTERSECTIONCOLOR
 70
   257
  9
$DIMASSOC
280
     2
  9
$PROJECTNAME
  1

  9
$CAMERADISPLAY
290
     0
  9
$LENSLENGTH
 40
50.0
  9
$CAMERAHEIGHT
 40
0.0
  9
$STEPSPERSEC
 40
2.0
  9
$STEPSIZE
 40
6.0
  9
$3DDWFPREC
 40
2.0
  9
$PSOLWIDTH
 40
5.0
  9
$PSOLHEIGHT
 40
80.0
  9
$LOFTANG1
 40
1.570796
  9
$LOFTANG2
 40
1.570796
  9
$LOFTMAG1
 40
0.0
  9
$LOFTMAG2
 40
0.0
  9
$LOFTPARAM
 70
     7
  9
$LOFTNORMALS
280
     1
  9
$LATITUDE
 40
37.795
  9
$LONGITUDE
 40
-122.394
  9
$NORTHDIRECTION
 40
0.0
  9
$TIMEZONE
 70
 -8000
  9
$LIGHTGLYPHDISPLAY
280
     1
  9
$TILEMODELIGHTSYNCH
280
     1
  9
$CMATERIAL
347
44
  9
$SOLIDHIST
280
     0
  9
$SHOWHIST
280
     1
  9
$DWFFRAME
280
     2
  9
$DGNFRAME
280
     2
  9
$REALWORLDSCALE
290
     1
  9
$INTERFERECOLOR
 62
   256
  9
$CSHADOW
280
     0
  9
$SHADOWPLANELOCATION
 40
0.0
  0
ENDSEC
  0
SECTION
  2
CLASSES
  0
CLASS
  1
ACDBDICTIONARYWDFLT
  2
AcDbDictionaryWithDefault
  3
ObjectDBX Classes
 90
        0
 91
        4
280
     0
281
     0
  0
CLASS
  1
VISUALSTYLE
  2
AcDbVisualStyle
  3
ObjectDBX Classes
 90
     4095
 91
        4
280
     0
281
     0
  0
CLASS
  1
MATERIAL
  2
AcDbMaterial
  3
ObjectDBX Classes
 90
     1153
 91
        4
280
     0
281
     0
  0
CLASS
  1
SCALE
  2
AcDbScale
  3
ObjectDBX Classes
 90
     1153
 91
        4
280
     0
281
     0
  0
CLASS
  1
TABLESTYLE
  2
AcDbTableStyle
  3
ObjectDBX Classes
 90
     4095
 91
        4
280
     0
281
     0
  0
CLASS
  1
MLEADERSTYLE
  2
AcDbMLeaderStyle
  3
ACDB_MLEADERSTYLE_CLASS
 90
     4095
 91
        4
280
     0
281
     0
  0
CLASS
  1
SUN
  2
AcDbSun
  3
SCENEOE
 90
     1153
 91
        4
280
     0
281
     0
  0
CLASS
  1
DICTIONARYVAR
  2
AcDbDictionaryVar
  3
ObjectDBX Classes
 90
        0
 91
        4
280
     0
281
     0
  0
CLASS
  1
CELLSTYLEMAP
  2
AcDbCellStyleMap
  3
ObjectDBX Classes
 90
     1152
 91
        4
280
     0
281
     0
  0
ENDSEC
  0
SECTION
  2
TABLES
  0
TABLE
  2
VPORT
  5
8
330
0
100
AcDbSymbolTable
 70
     1
  0
VPORT
  5
29
330
8
100
AcDbSymbolTableRecord
100
AcDbViewportTableRecord
  2
*Active
 70
     0
 10
0.0
 20
0.0
 11
1.0
 21
1.0
 12
344.186916
 22
148.5
 13
0.0
 23
0.0
 14
10.0
 24
10.0
 15
10.0
 25
10.0
 16
0.0
 26
0.0
 36
1.0
 17
0.0
 27
0.0
 37
0.0
 40
297.0
 41
1.972973
 42
50.0
 43
0.0
 44
0.0
 50
0.0
 51
0.0
 71
     0
 72
   100
 73
     1
 74
     3
 75
     0
 76
     0
 77
     0
 78
     0
281
     0
 65
     1
110
0.0
120
0.0
130
0.0
111
1.0
121
0.0
131
0.0
112
0.0
122
1.0
132
0.0
 79
     0
146
0.0
348
2F
 60
     3
 61
     5
292
     1
282
     1
141
0.0
142
0.0
 63
   250
361
6D
  0
ENDTAB
  0
TABLE
  2
LTYPE
  5
5
330
0
100
AcDbSymbolTable
 70
     1
  0
LTYPE
  5
14
330
5
100
AcDbSymbolTableRecord
100
AcDbLinetypeTableRecord
  2
ByBlock
 70
     0
  3

 72
    65
 73
     0
 40
0.0
  0
LTYPE
  5
15
330
5
100
AcDbSymbolTableRecord
100
AcDbLinetypeTableRecord
  2
ByLayer
 70
     0
  3

 72
    65
 73
     0
 40
0.0
  0
LTYPE
  5
16
330
5
100
AcDbSymbolTableRecord
100
AcDbLinetypeTableRecord
  2
Continuous
 70
     0
  3
Solid line
 72
    65
 73
     0
 40
0.0
  0
ENDTAB
  0
TABLE
  2
LAYER
  5
2
330
0
100
AcDbSymbolTable
 70
     1
  0
LAYER
  5
10
330
2
100
AcDbSymbolTableRecord
100
AcDbLayerTableRecord
  2
0
 70
     0
 62
   106
  6
Continuous
370
     0
390
F
347
46
  0
ENDTAB
  0
TABLE
  2
STYLE
  5
3
330
0
100
AcDbSymbolTable
 70
     4
  0
STYLE
  5
11
330
3
100
AcDbSymbolTableRecord
100
AcDbTextStyleTableRecord
  2
Standard
 70
     0
 40
0.0
 41
1.0
 50
0.0
 71
     0
 42
2.5
  3
txt
  4

  0
STYLE
  5
6E
330
3
100
AcDbSymbolTableRecord
100
AcDbTextStyleTableRecord
  2
Default
 70
     0
 40
0.0
 41
1.0
 50
0.0
 71
     0
 42
2.5
  3

  4

1001
ACAD
1000
txt
1071
        0
  0
STYLE
  5
6F
330
3
100
AcDbSymbolTableRecord
100
AcDbTextStyleTableRecord
  2
ISO
 70
     0
 40
0.0
 41
1.0
 50
0.0
 71
     0
 42
2.5
  3

  4

1001
ACAD
1000
txt
1071
        0
  0
STYLE
  5
70
330
3
100
AcDbSymbolTableRecord
100
AcDbTextStyleTableRecord
  2
zucchetti
 70
     0
 40
0.0
 41
1.0
 50
0.0
 71
     0
 42
2.5
  3

  4

1001
ACAD
1000
Arial
1071
        0
  0
ENDTAB
  0
TABLE
  2
VIEW
  5
6
330
0
100
AcDbSymbolTable
 70
     0
  0
ENDTAB
  0
TABLE
  2
UCS
  5
7
330
0
100
AcDbSymbolTable
 70
     0
  0
ENDTAB
  0
TABLE
  2
APPID
  5
9
330
0
100
AcDbSymbolTable
 70
     1
  0
APPID
  5
12
330
9
100
AcDbSymbolTableRecord
100
AcDbRegAppTableRecord
  2
ACAD
 70
     0
  0
ENDTAB
  0
TABLE
  2
DIMSTYLE
  5
A
330
0
100
AcDbSymbolTable
 70
     4
100
AcDbDimStyleTable
  0
DIMSTYLE
105
27
330
A
100
AcDbSymbolTableRecord
100
AcDbDimStyleTableRecord
  2
ISO-25
 70
     0
 41
2.5
 42
0.625
 43
3.75
 44
1.25
 73
     0
 74
     0
 77
     1
 78
     8
140
2.5
141
2.5
143
0.03937
147
0.625
171
     3
172
     1
178
     0
271
     2
272
     2
274
     3
278
    44
283
     0
284
     8
340
11
  0
DIMSTYLE
105
71
330
A
100
AcDbSymbolTableRecord
100
AcDbDimStyleTableRecord
  2
Default
 70
     0
  3
<>
 41
4.375
 42
1.05
 44
2.1
 49
10.01
 73
     0
 74
     0
 77
     1
 78
     8
140
3.5
146
0.4
147
1.75
172
     1
271
     2
178
     3
271
     2
272
     3
284
     8
340
6E
341
72
342
72
  0
DIMSTYLE
105
79
330
A
100
AcDbSymbolTableRecord
100
AcDbDimStyleTableRecord
  2
ISO
 70
     0
  3
<>
 41
4.375
 42
1.05
 44
2.1
 49
10.01
 73
     0
 74
     0
 77
     1
 78
     8
140
3.5
146
0.4
147
1.75
172
     1
271
     2
178
     3
271
     2
272
     3
284
     8
340
6F
341
72
342
72
  0
DIMSTYLE
105
7A
330
A
100
AcDbSymbolTableRecord
100
AcDbDimStyleTableRecord
  2
zucchetti
 70
     0
  3
<>
 41
3.0
 42
0.9
 44
1.8
 49
8.58
 73
     0
 74
     0
 77
     1
 78
     8
140
3.0
146
0.6
147
1.5
172
     1
176
     3
177
     3
271
     2
178
     3
271
     2
272
     2
284
     8
340
70
  0
ENDTAB
  0
TABLE
  2
BLOCK_RECORD
  5
1
330
0
100
AcDbSymbolTable
 70
     7
  0
BLOCK_RECORD
  5
1F
330
1
100
AcDbSymbolTableRecord
100
AcDbBlockTableRecord
  2
*Model_Space
340
22
 70
     0
280
     1
281
     0
  0
BLOCK_RECORD
  5
1B
330
1
100
AcDbSymbolTableRecord
100
AcDbBlockTableRecord
  2
*Paper_Space
340
1E
 70
     0
280
     1
281
     0
  0
BLOCK_RECORD
  5
23
330
1
100
AcDbSymbolTableRecord
100
AcDbBlockTableRecord
  2
*Paper_Space0
340
26
 70
     0
280
     1
281
     0
  0
BLOCK_RECORD
  5
72
330
1
100
AcDbSymbolTableRecord
100
AcDbBlockTableRecord
  2
_CLOSED
340
0
 70
     0
280
     1
281
     0
  0
BLOCK_RECORD
  5
7B
330
1
100
AcDbSymbolTableRecord
100
AcDbBlockTableRecord
  2
a
340
0
102
{BLKREFS
331
111
102
}
 70
     0
280
     1
281
     0
  0
BLOCK_RECORD
  5
112
330
1
100
AcDbSymbolTableRecord
100
AcDbBlockTableRecord
  2
b
340
0
102
{BLKREFS
331
227
102
}
 70
     0
280
     1
281
     0
  0
BLOCK_RECORD
  5
228
330
1
100
AcDbSymbolTableRecord
100
AcDbBlockTableRecord
  2
c
340
0
102
{BLKREFS
331
286
102
}
 70
     0
280
     1
281
     0
  0
BLOCK_RECORD
  5
287
330
1
100
AcDbSymbolTableRecord
100
AcDbBlockTableRecord
  2
d
340
0
102
{BLKREFS
331
416
102
}
 70
     0
280
     1
281
     0
  0
BLOCK_RECORD
  5
417
330
1
100
AcDbSymbolTableRecord
100
AcDbBlockTableRecord
  2
e
340
0
102
{BLKREFS
331
46E
102
}
 70
     0
280
     1
281
     0
  0
ENDTAB
  0
ENDSEC
  0
SECTION
  2
BLOCKS
  0
BLOCK
  5
20
330
1F
100
AcDbEntity
  8
0
100
AcDbBlockBegin
  2
*Model_Space
 70
     0
 10
0.0
 20
0.0
 30
0.0
  3
*Model_Space
  1

  0
ENDBLK
  5
21
330
1F
100
AcDbEntity
  8
0
100
AcDbBlockEnd
  0
BLOCK
  5
1C
330
1B
100
AcDbEntity
 67
     1
  8
0
100
AcDbBlockBegin
  2
*Paper_Space
 70
     0
 10
0.0
 20
0.0
 30
0.0
  3
*Paper_Space
  1

  0
ENDBLK
  5
1D
330
1B
100
AcDbEntity
 67
     1
  8
0
100
AcDbBlockEnd
  0
BLOCK
  5
24
330
23
100
AcDbEntity
  8
0
100
AcDbBlockBegin
  2
*Paper_Space0
 70
     0
 10
0.0
 20
0.0
 30
0.0
  3
*Paper_Space0
  1

  0
ENDBLK
  5
25
330
23
100
AcDbEntity
  8
0
100
AcDbBlockEnd
  0
BLOCK
  5
73
330
72
100
AcDbEntity
  8
0
100
AcDbBlockBegin
  2
_CLOSED
 70
     0
 10
0.0
 20
0.0
 30
0.0
  3
_CLOSED
  1

  0
LINE
  5
75
330
72
100
AcDbEntity
  8
0
  6
ByBlock
 62
     0
370
    -2
100
AcDbLine
 10
-1.0
 20
0.166667
 30
0.0
 11
0.0
 21
0.0
 31
0.0
  0
LINE
  5
76
330
72
100
AcDbEntity
  8
0
  6
ByBlock
 62
     0
370
    -2
100
AcDbLine
 10
0.0
 20
0.0
 30
0.0
 11
-1.0
 21
-0.166667
 31
0.0
  0
LINE
  5
77
330
72
100
AcDbEntity
  8
0
  6
ByBlock
 62
     0
370
    -2
100
AcDbLine
 10
-1.0
 20
0.166667
 30
0.0
 11
-1.0
 21
-0.166667
 31
0.0
  0
LINE
  5
78
330
72
100
AcDbEntity
  8
0
  6
ByBlock
 62
     0
370
    -2
100
AcDbLine
 10
0.0
 20
0.0
 30
0.0
 11
-1.0
 21
0.0
 31
0.0
  0
ENDBLK
  5
74
330
72
100
AcDbEntity
  8
0
100
AcDbBlockEnd
  0
BLOCK
  5
10F
330
7B
100
AcDbEntity
  8
0
100
AcDbBlockBegin
  2
a
 70
     0
 10
339.390015
 20
169.986176
 30
0.0
  3
a
  1

  0
ARC
  5
7C
330
7B
100
AcDbEntity
  8
0
  6
Continuous
 62
     0
370
    30
100
AcDbCircle
 10
400.296143
 20
201.804153
 30
0.0
 40
399.9000000001514
100
AcDbArc
 50
91.477918
 51
93.269808
  0
ARC
  5
7D
330
7B
100
AcDbEntity
  8
0
  6
Continuous
 62
     0
370
    30
100
AcDbCircle
 10
400.296143
 20
201.804153
 30
0.0
 40
399.9000000001514
100
AcDbArc
 50
90.364038
 51
90.674798
  0
LINE
  5
7E
330
7B
100
AcDbEntity
  8
0
  6
Continuous
 62
     0
370
    30
100
AcDbLine
 10
408.960177
 20
601.610285
 30
0.0
 11
423.105615
 21
601.053121
 31
0.0
  0
LINE
  5
7F
330
7B
100
AcDbEntity
  8
0
  6
Continuous
 62
     0
370
    30
100
AcDbLine
 10
403.677645
 20
601.689855
 30
0.0
 11
407.080668
 21
601.646595
 31
0.0
  0
LINE
  5
80
330
7B
100
AcDbEntity
  8
0
  6
Continuous
 62
     0
370
    30
100
AcDbLine
 10
391.860053
 20
601.704086
 30
0.0
 11
389.982053
 21
601.660057
 31
0.0
  0
LINE
  5
81
330
7B
100
AcDbEntity
  8
0
  6
Continuous
 62
     0
370
    30
100
AcDbLine
 10
393.707204
 20
601.749853
 30
0.0
 11
391.85982
 21
601.71515
 31
0.0
  0
LINE
  5
82
330
7B
100
AcDbEntity
  8
0
  6
Continuous
 62
     0
370
    30
100
AcDbLine
 10
395.585386
 20
601.765317
 30
0.0
 11
393.707386
 21
601.738788
 31
0.0
  0
LINE
  5
83
330
7B
100
AcDbEntity
  8
0
  6
Continuous
 62
     0
370
    30
100
AcDbLine
 10
395.585386
 20
601.765317
 30
0.0
 11
395.585386
 21
601.565383
 31
0.0
  0
LINE
  5
84
330
7B
100
AcDbEntity
  8
0
  6
Continuous
 62
     0
370
    30
100
AcDbLine
 10
393.707386
 20
601.738788
 30
0.0
 11
393.707386
 21
601.538867
 31
0.0
  0
LINE
  5
85
330
7B
100
AcDbEntity
  8
0
  6
Continuous
 62
     0
370
    30
100
AcDbLine
 10
391.860053
 20
601.704086
 30
0.0
 11
391.860053
 21
601.504173
 31
0.0
  0
LINE
  5
86
330
7B
100
AcDbEntity
  8
0
  6
Continuous
 62
     0
370
    30
100
AcDbLine
 10
389.982053
 20
601.660057
 30
0.0
 11
389.982053
 21
601.460149
 31
0.0
  0
LINE
  5
87
330
7B
100
AcDbEntity
  8
0
  6
Continuous
 62
     0
370
    30
100
AcDbLine
 10
398.148686
 20
601.795009
 30
0.0
 11
397.755967
 21
601.796052
 31
0.0
  0
LINE
  5
88
330
7B
100
AcDbEntity
  8
0
  6
Continuous
 62
     0
370
    30
100
AcDbLine
 10
399.226202
 20
601.793305
 30
0.0
 11
398.148686
 21
601.795009
 31
0.0
  0
LINE
  5
89
330
7B
100
AcDbEntity
  8
0
  6
Continuous
 62
     0
370
    30
100
AcDbLine
 10
400.733581
 20
601.791481
 30
0.0
 11
399.226202
 21
601.793305
 31
0.0
  0
LINE
  5
8A
330
7B
100
AcDbEntity
  8
0
  6
Continuous
 62
     0
370
    30
100
AcDbLine
 10
402.224026
 20
601.790091
 30
0.0
 11
400.733581
 21
601.791481
 31
0.0
  0
LINE
  5
8B
330
7B
100
AcDbEntity
  8
0
  6
Continuous
 62
     0
370
    30
100
AcDbLine
 10
403.286681
 20
601.789582
 30
0.0
 11
402.224026
 21
601.790091
 31
0.0
  0
LINE
  5
8C
330
7B
100
AcDbEntity
  8
0
  6
Continuous
 62
     0
370
    30
100
AcDbLine
 10
403.6768
 20
601.789823
 30
0.0
 11
403.286681
 21
601.789582
 31
0.0
  0
LINE
  5
8D
330
7B
100
AcDbEntity
  8
0
  6
Continuous
 62
     0
370
     0
100
AcDbLine
 10
403.286681
 20
601.789582
 30
0.0
 11
403.286681
 21
601.589628
 31
0.0
  0
LINE
  5
8E
330
7B
100
AcDbEntity
  8
0
  6
Continuous
 62
     0
370
     0
100
AcDbLine
 10
402.224026
 20
601.790091
 30
0.0
 11
402.224026
 21
601.590135
 31
0.0
  0
LINE
  5
8F
330
7B
100
AcDbEntity
  8
0
  6
Continuous
 62
     0
370
     0
100
AcDbLine
 10
400.733581
 20
601.791481
 30
0.0
 11
400.733581
 21
601.591524
 31
0.0
  0
LINE
  5
90
330
7B
100
AcDbEntity
  8
0
  6
Continuous
 62
     0
370
     0
100
AcDbLine
 10
399.226202
 20
601.793305
 30
0.0
 11
399.226202
 21
601.593345
 31
0.0
  0
LINE
  5
91
330
7B
100
AcDbEntity
  8
0
  6
Continuous
 62
     0
370
     0
100
AcDbLine
 10
398.148686
 20
601.795009
 30
0.0
 11
398.148686
 21
601.595045
 31
0.0
  0
LINE
  5
92
330
7B
100
AcDbEntity
  8
0
  6
Continuous
 62
     0
370
    30
100
AcDbLine
 10
397.755967
 20
601.796052
 30
0.0
 11
397.755967
 21
601.596087
 31
0.0
  0
LINE
  5
93
330
7B
100
AcDbEntity
  8
0
  6
Continuous
 62
     0
370
    30
100
AcDbLine
 10
408.960177
 20
601.699213
 30
0.0
 11
407.082177
 21
601.73549
 31
0.0
  0
LINE
  5
94
330
7B
100
AcDbEntity
  8
0
  6
Continuous
 62
     0
370
    30
100
AcDbLine
 10
408.960177
 20
601.699213
 30
0.0
 11
408.960177
 21
601.499301
 31
0.0
  0
LINE
  5
95
330
7B
100
AcDbEntity
  8
0
  6
Continuous
 62
     0
370
    30
100
AcDbLine
 10
407.082177
 20
601.73549
 30
0.0
 11
407.082177
 21
601.535569
 31
0.0
  0
ARC
  5
96
330
7B
100
AcDbEntity
  8
0
  6
Continuous
 62
     0
370
    30
100
AcDbCircle
 10
550.296143
 20
201.804138
 30
0.0
 40
400.0
100
AcDbArc
 50
91.878726
 51
93.511564
  0
ARC
  5
97
330
7B
100
AcDbEntity
  8
0
  6
Continuous
 62
     0
370
    30
100
AcDbCircle
 10
550.296143
 20
201.804138
 30
0.0
 40
400.0
100
AcDbArc
 50
90.862725
 51
91.172873
  0
LINE
  5
98
330
7B
100
AcDbEntity
  8
0
  6
Continuous
 62
     0
370
    30
100
AcDbLine
 10
525.796143
 20
601.053121
 30
0.0
 11
574.796143
 21
601.053121
 31
0.0
  0
LINE
  5
99
330
7B
100
AcDbEntity
  8
0
  6
Continuous
 62
     0
370
    30
100
AcDbLine
 10
563.23414
 20
601.594843
 30
0.0
 11
574.796143
 21
601.053121
 31
0.0
  0
LINE
  5
9A
330
7B
100
AcDbEntity
  8
0
  6
Continuous
 62
     0
370
    30
100
AcDbLine
 10
555.944197
 20
601.764258
 30
0.0
 11
557.821306
 21
601.733344
 31
0.0
  0
LINE
  5
9B
330
7B
100
AcDbEntity
  8
0
  6
Continuous
 62
     0
370
    30
100
AcDbLine
 10
550.323105
 20
601.804137
 30
0.0
 11
552.447658
 21
601.798351
 31
0.0
  0
LINE
  5
9C
330
7B
100
AcDbEntity
  8
0
  6
Continuous
 62
     0
370
    30
100
AcDbLine
 10
552.447658
 20
601.787535
 30
0.0
 11
555.735106
 21
601.756341
 31
0.0
  0
LINE
  5
9D
330
7B
100
AcDbEntity
  8
0
  6
Continuous
 62
     0
370
    30
100
AcDbLine
 10
555.735106
 20
601.756341
 30
0.0
 11
555.944127
 21
601.759269
 31
0.0
  0
LINE
  5
9E
330
7B
100
AcDbEntity
  8
0
  6
Continuous
 62
     0
370
    30
100
AcDbLine
 10
557.821306
 20
601.722256
 30
0.0
 11
560.351775
 21
601.666631
 31
0.0
  0
LINE
  5
9F
330
7B
100
AcDbEntity
  8
0
  6
Continuous
 62
     0
370
    30
100
AcDbLine
 10
560.351775
 20
601.666631
 30
0.0
 11
561.29807
 21
601.642444
 31
0.0
  0
LINE
  5
A0
330
7B
100
AcDbEntity
  8
0
  6
Continuous
 62
     0
370
    30
100
AcDbLine
 10
561.29807
 20
601.642444
 30
0.0
 11
561.921406
 21
601.626615
 31
0.0
  0
LINE
  5
A1
330
7B
100
AcDbEntity
  8
0
  6
Continuous
 62
     0
370
    30
100
AcDbLine
 10
561.921406
 20
601.626615
 30
0.0
 11
562.472539
 21
601.612842
 31
0.0
  0
LINE
  5
A2
330
7B
100
AcDbEntity
  8
0
  6
Continuous
 62
     0
370
    30
100
AcDbLine
 10
562.472539
 20
601.612842
 30
0.0
 11
562.880887
 21
601.602779
 31
0.0
  0
LINE
  5
A3
330
7B
100
AcDbEntity
  8
0
  6
Continuous
 62
     0
370
    30
100
AcDbLine
 10
562.880887
 20
601.602779
 30
0.0
 11
563.142566
 21
601.596585
 31
0.0
  0
LINE
  5
A4
330
7B
100
AcDbEntity
  8
0
  6
Continuous
 62
     0
370
    30
100
AcDbLine
 10
544.666192
 20
601.761118
 30
0.0
 11
544.273416
 21
601.758771
 31
0.0
  0
LINE
  5
A5
330
7B
100
AcDbEntity
  8
0
  6
Continuous
 62
     0
370
    30
100
AcDbLine
 10
545.743689
 20
601.768775
 30
0.0
 11
544.666192
 21
601.761118
 31
0.0
  0
LINE
  5
A6
330
7B
100
AcDbEntity
  8
0
  6
Continuous
 62
     0
370
    30
100
AcDbLine
 10
547.25103
 20
601.780067
 30
0.0
 11
545.743689
 21
601.768775
 31
0.0
  0
LINE
  5
A7
330
7B
100
AcDbEntity
  8
0
  6
Continuous
 62
     0
370
    30
100
AcDbLine
 10
548.741475
 20
601.791662
 30
0.0
 11
547.25103
 21
601.780067
 31
0.0
  0
LINE
  5
A8
330
7B
100
AcDbEntity
  8
0
  6
Continuous
 62
     0
370
    30
100
AcDbLine
 10
549.80413
 20
601.800427
 30
0.0
 11
548.741475
 21
601.791662
 31
0.0
  0
LINE
  5
A9
330
7B
100
AcDbEntity
  8
0
  6
Continuous
 62
     0
370
    30
100
AcDbLine
 10
550.194249
 20
601.804093
 30
0.0
 11
549.80413
 21
601.800427
 31
0.0
  0
LINE
  5
AA
330
7B
100
AcDbEntity
  8
0
  6
Continuous
 62
     0
370
    30
100
AcDbLine
 10
537.373402
 20
601.593211
 30
0.0
 11
537.182516
 21
601.589056
 31
0.0
  0
LINE
  5
AB
330
7B
100
AcDbEntity
  8
0
  6
Continuous
 62
     0
370
    30
100
AcDbLine
 10
537.938605
 20
601.606891
 30
0.0
 11
537.373402
 21
601.593211
 31
0.0
  0
LINE
  5
AC
330
7B
100
AcDbEntity
  8
0
  6
Continuous
 62
     0
370
    30
100
AcDbLine
 10
538.853497
 20
601.629825
 30
0.0
 11
537.938605
 21
601.606891
 31
0.0
  0
LINE
  5
AD
330
7B
100
AcDbEntity
  8
0
  6
Continuous
 62
     0
370
    30
100
AcDbLine
 10
540.050329
 20
601.660412
 30
0.0
 11
538.853497
 21
601.629825
 31
0.0
  0
LINE
  5
AE
330
7B
100
AcDbEntity
  8
0
  6
Continuous
 62
     0
370
    30
100
AcDbLine
 10
541.090932
 20
601.687175
 30
0.0
 11
540.050329
 21
601.660412
 31
0.0
  0
LINE
  5
AF
330
7B
100
AcDbEntity
  8
0
  6
Continuous
 62
     0
370
    30
100
AcDbLine
 10
542.02385
 20
601.711606
 30
0.0
 11
541.090932
 21
601.687175
 31
0.0
  0
LINE
  5
B0
330
7B
100
AcDbEntity
  8
0
  6
Continuous
 62
     0
370
    30
100
AcDbLine
 10
464.296143
 20
712.509483
 30
0.0
 11
464.296143
 21
669.805314
 31
0.0
  0
LINE
  5
B1
330
7B
100
AcDbEntity
  8
0
  6
Continuous
 62
     0
370
     0
100
AcDbLine
 10
464.296143
 20
669.805314
 30
0.0
 11
486.296143
 21
669.805314
 31
0.0
  0
LINE
  5
B2
330
7B
100
AcDbEntity
  8
0
  6
Continuous
 62
     0
370
    30
100
AcDbLine
 10
464.296143
 20
669.805314
 30
0.0
 11
464.296143
 21
592.805316
 31
0.0
  0
LINE
  5
B3
330
7B
100
AcDbEntity
  8
0
  6
Continuous
 62
     0
370
    30
100
AcDbLine
 10
486.296143
 20
592.805316
 30
0.0
 11
486.296143
 21
669.805314
 31
0.0
  0
LINE
  5
B4
330
7B
100
AcDbEntity
  8
0
  6
Continuous
 62
     0
370
    30
100
AcDbLine
 10
486.296143
 20
669.805314
 30
0.0
 11
486.296143
 21
712.509483
 31
0.0
  0
ARC
  5
B5
330
7B
100
AcDbEntity
  8
0
  6
Continuous
 62
     0
370
    30
100
AcDbCircle
 10
475.296143
 20
717.305314
 30
0.0
 40
12.0
100
AcDbArc
 50
160.004172
 51
340.004172
  0
ARC
  5
B6
330
7B
100
AcDbEntity
  8
0
  6
Continuous
 62
     0
370
    30
100
AcDbCircle
 10
475.296143
 20
717.305314
 30
0.0
 40
12.0
100
AcDbArc
 50
340.004172
 51
160.004172
  0
ARC
  5
B7
330
7B
100
AcDbEntity
  8
0
  6
Continuous
 62
     0
370
     0
100
AcDbCircle
 10
475.296143
 20
717.305314
 30
0.0
 40
11.75
100
AcDbArc
 50
160.004172
 51
340.004172
  0
ARC
  5
B8
330
7B
100
AcDbEntity
  8
0
  6
Continuous
 62
     0
370
     0
100
AcDbCircle
 10
475.296143
 20
717.305314
 30
0.0
 40
11.75
100
AcDbArc
 50
340.004172
 51
160.004172
  0
ARC
  5
B9
330
7B
100
AcDbEntity
  8
0
  6
Continuous
 62
     0
370
     0
100
AcDbCircle
 10
475.296143
 20
717.305314
 30
0.0
 40
11.24999940989608
100
AcDbArc
 50
160.004172
 51
340.004172
  0
ARC
  5
BA
330
7B
100
AcDbEntity
  8
0
  6
Continuous
 62
     0
370
     0
100
AcDbCircle
 10
475.296143
 20
717.305314
 30
0.0
 40
11.24999940989608
100
AcDbArc
 50
340.004172
 51
160.004172
  0
ARC
  5
BB
330
7B
100
AcDbEntity
  8
0
  6
Continuous
 62
     0
370
    30
100
AcDbCircle
 10
475.296143
 20
717.305314
 30
0.0
 40
10.99999940989605
100
AcDbArc
 50
160.004172
 51
340.004172
  0
ARC
  5
BC
330
7B
100
AcDbEntity
  8
0
  6
Continuous
 62
     0
370
    30
100
AcDbCircle
 10
475.296143
 20
717.305314
 30
0.0
 40
10.99999940989605
100
AcDbArc
 50
340.004172
 51
160.004172
  0
ARC
  5
BD
330
7B
100
AcDbEntity
  8
0
  6
Continuous
 62
     0
370
     0
100
AcDbCircle
 10
475.296143
 20
717.305314
 30
0.0
 40
10.74999940989609
100
AcDbArc
 50
160.004172
 51
340.004172
  0
ARC
  5
BE
330
7B
100
AcDbEntity
  8
0
  6
Continuous
 62
     0
370
     0
100
AcDbCircle
 10
475.296143
 20
717.305314
 30
0.0
 40
10.74999940989609
100
AcDbArc
 50
340.004172
 51
160.004172
  0
LINE
  5
BF
330
7B
100
AcDbEntity
  8
0
  6
Continuous
 62
     0
370
    30
100
AcDbLine
 10
373.796143
 20
583.305313
 30
0.0
 11
373.796143
 21
582.505313
 31
0.0
  0
LINE
  5
C0
330
7B
100
AcDbEntity
  8
0
  6
Continuous
 62
     0
370
    30
100
AcDbLine
 10
428.54613
 20
582.505313
 30
0.0
 11
372.046156
 21
582.505313
 31
0.0
  0
LINE
  5
C1
330
7B
100
AcDbEntity
  8
0
  6
Continuous
 62
     0
370
    30
100
AcDbLine
 10
372.046156
 20
582.505313
 30
0.0
 11
372.046156
 21
516.305325
 31
0.0
  0
LWPOLYLINE
  5
C2
330
7B
100
AcDbEntity
  8
0
  6
Continuous
 62
     0
370
    30
100
AcDbPolyline
 90
       50
 70
     0
 43
0.0
 10
428.546143
 20
533.305298
 10
428.526642
 20
533.339722
 10
428.468536
 20
533.442688
 10
428.372894
 20
533.613159
 10
428.241516
 20
533.849548
 10
428.076416
 20
534.149902
 10
427.880554
 20
534.511902
 10
427.657196
 20
534.9328
 10
427.409668
 20
535.409973
 10
427.141479
 20
535.940796
 10
426.856567
 20
536.522705
 10
426.558929
 20
537.153198
 10
426.252686
 20
537.829895
 10
425.942139
 20
538.550903
 10
425.631592
 20
539.314209
 10
425.325531
 20
540.117798
 10
425.028839
 20
540.959961
 10
424.746338
 20
541.838806
 10
424.483032
 20
542.752197
 10
424.244171
 20
543.697571
 10
424.035004
 20
544.672058
 10
423.860321
 20
545.672058
 10
423.724518
 20
546.692749
 10
423.631805
 20
547.729187
 10
423.584656
 20
548.775513
 10
423.584198
 20
549.825134
 10
423.631073
 20
550.871399
 10
423.72348
 20
551.908142
 10
423.858734
 20
552.929077
 10
424.033173
 20
553.929077
 10
424.242096
 20
554.903931
 10
424.480621
 20
555.849609
 10
424.743713
 20
556.763245
 10
425.026093
 20
557.642456
 10
425.322662
 20
558.484985
 10
425.628601
 20
559.28894
 10
425.939209
 20
560.052551
 10
426.249756
 20
560.774048
 10
426.555969
 20
561.451416
 10
426.853668
 20
562.082275
 10
427.138794
 20
562.66449
 10
427.407196
 20
563.19574
 10
427.655029
 20
563.673523
 10
427.878723
 20
564.095032
 10
428.074799
 20
564.45752
 10
428.240021
 20
564.758423
 10
428.371735
 20
564.995422
 10
428.467804
 20
565.166565
 10
428.526215
 20
565.270142
 10
428.546021
 20
565.305176
  0
LINE
  5
C3
330
7B
100
AcDbEntity
  8
0
  6
Continuous
 62
     0
370
    30
100
AcDbLine
 10
430.796143
 20
516.305325
 30
0.0
 11
369.796143
 21
516.305325
 31
0.0
  0
LINE
  5
C4
330
7B
100
AcDbEntity
  8
0
  6
Continuous
 62
     0
370
    30
100
AcDbLine
 10
369.796143
 20
516.305325
 30
0.0
 11
369.796143
 21
514.705325
 31
0.0
  0
LINE
  5
C5
330
7B
100
AcDbEntity
  8
0
  6
Continuous
 62
     0
370
    30
100
AcDbLine
 10
430.796143
 20
514.705325
 30
0.0
 11
369.796143
 21
514.705325
 31
0.0
  0
LINE
  5
C6
330
7B
100
AcDbEntity
  8
0
  6
Continuous
 62
     0
370
    30
100
AcDbLine
 10
370.846143
 20
514.705325
 30
0.0
 11
370.846143
 21
508.905325
 31
0.0
  0
LINE
  5
C7
330
7B
100
AcDbEntity
  8
0
  6
Continuous
 62
     0
370
    30
100
AcDbLine
 10
430.796143
 20
508.905325
 30
0.0
 11
369.796143
 21
508.905325
 31
0.0
  0
LINE
  5
C8
330
7B
100
AcDbEntity
  8
0
  6
Continuous
 62
     0
370
    30
100
AcDbLine
 10
369.796143
 20
508.905325
 30
0.0
 11
369.796143
 21
507.305325
 31
0.0
  0
LINE
  5
C9
330
7B
100
AcDbEntity
  8
0
  6
Continuous
 62
     0
370
    30
100
AcDbLine
 10
430.796143
 20
507.305325
 30
0.0
 11
369.796143
 21
507.305325
 31
0.0
  0
LINE
  5
CA
330
7B
100
AcDbEntity
  8
0
  6
Continuous
 62
     0
370
    30
100
AcDbLine
 10
389.946143
 20
507.305325
 30
0.0
 11
389.946143
 21
488.305316
 31
0.0
  0
LINE
  5
CB
330
7B
100
AcDbEntity
  8
0
  6
Continuous
 62
     0
370
    30
100
AcDbLine
 10
410.646143
 20
488.305316
 30
0.0
 11
389.946143
 21
488.305316
 31
0.0
  0
LINE
  5
CC
330
7B
100
AcDbEntity
  8
0
  6
Continuous
 62
     0
370
    30
100
AcDbLine
 10
389.946143
 20
488.305316
 30
0.0
 11
391.446143
 21
486.805316
 31
0.0
  0
LINE
  5
CD
330
7B
100
AcDbEntity
  8
0
  6
Continuous
 62
     0
370
    30
100
AcDbLine
 10
409.146143
 20
486.805316
 30
0.0
 11
391.446143
 21
486.805316
 31
0.0
  0
LINE
  5
CE
330
7B
100
AcDbEntity
  8
0
  6
Continuous
 62
     0
370
    30
100
AcDbLine
 10
428.54613
 20
533.305316
 30
0.0
 11
522.046156
 21
533.305316
 31
0.0
  0
LWPOLYLINE
  5
CF
330
7B
100
AcDbEntity
  8
0
  6
Continuous
 62
     0
370
    30
100
AcDbPolyline
 90
       50
 70
     0
 43
0.0
 10
522.046143
 20
533.305298
 10
522.065613
 20
533.339722
 10
522.123718
 20
533.442688
 10
522.219299
 20
533.613098
 10
522.35083
 20
533.849548
 10
522.51593
 20
534.149963
 10
522.71167
 20
534.511841
 10
522.934937
 20
534.932617
 10
523.182556
 20
535.409851
 10
523.450745
 20
535.940674
 10
523.735596
 20
536.522522
 10
524.033203
 20
537.152954
 10
524.339478
 20
537.829651
 10
524.650085
 20
538.550537
 10
524.960571
 20
539.313721
 10
525.266541
 20
540.117371
 10
525.563293
 20
540.959595
 10
525.845825
 20
541.838318
 10
526.10907
 20
542.751526
 10
526.3479
 20
543.697021
 10
526.55719
 20
544.671387
 10
526.731934
 20
545.671143
 10
526.867554
 20
546.692017
 10
526.960571
 20
547.728394
 10
527.00769
 20
548.774597
 10
527.007874
 20
549.824219
 10
526.961365
 20
550.870544
 10
526.868835
 20
551.907043
 10
526.733582
 20
552.92804
 10
526.559387
 20
553.928223
 10
526.350464
 20
554.902832
 10
526.111877
 20
555.848511
 10
525.848877
 20
556.762329
 10
525.566589
 20
557.641479
 10
525.269958
 20
558.484009
 10
524.963989
 20
559.288025
 10
524.653503
 20
560.051697
 10
524.342896
 20
560.773132
 10
524.036621
 20
561.450317
 10
523.738892
 20
562.081299
 10
523.453857
 20
562.663696
 10
523.185425
 20
563.195068
 10
522.937683
 20
563.672852
 10
522.71405
 20
564.09436
 10
522.517822
 20
564.457031
 10
522.352417
 20
564.758057
 10
522.220642
 20
564.995117
 10
522.124573
 20
565.166382
 10
522.066101
 20
565.270081
 10
522.046143
 20
565.305237
  0
LWPOLYLINE
  5
D0
330
7B
100
AcDbEntity
  8
0
  6
Continuous
 62
     0
370
    30
100
AcDbPolyline
 90
       43
 70
     0
 43
0.0
 10
486.296082
 20
565.305176
 10
486.26297
 20
565.282471
 10
486.164124
 20
565.214783
 10
486.00119
 20
565.103882
 10
485.776733
 20
564.952698
 10
485.493805
 20
564.764648
 10
485.155975
 20
564.543884
 10
484.766754
 20
564.294983
 10
484.329498
 20
564.022644
 10
483.847351
 20
563.73175
 10
483.323059
 20
563.427246
 10
482.758942
 20
563.114441
 10
482.156769
 20
562.798523
 10
481.517975
 20
562.485107
 10
480.843811
 20
562.180481
 10
480.135315
 20
561.891602
 10
479.393616
 20
561.625549
 10
478.620636
 20
561.390442
 10
477.819092
 20
561.194946
 10
476.993378
 20
561.047546
 10
476.150055
 20
560.955566
 10
475.29718
 20
560.924255
 10
474.444397
 20
560.955444
 10
473.600952
 20
561.047302
 10
472.775269
 20
561.194519
 10
471.973633
 20
561.389954
 10
471.200531
 20
561.624878
 10
470.458801
 20
561.890991
 10
469.750122
 20
562.179871
 10
469.075897
 20
562.484375
 10
468.437042
 20
562.797729
 10
467.834747
 20
563.113647
 10
467.270538
 20
563.426514
 10
466.746094
 20
563.731018
 10
466.263916
 20
564.021973
 10
465.826569
 20
564.294312
 10
465.437195
 20
564.543335
 10
465.099213
 20
564.76416
 10
464.816223
 20
564.952209
 10
464.591614
 20
565.103516
 10
464.428436
 20
565.2146
 10
464.329498
 20
565.282349
 10
464.296143
 20
565.305237
  0
ARC
  5
D1
330
7B
100
AcDbEntity
  8
0
  6
Continuous
 62
     0
370
    30
100
AcDbCircle
 10
475.296143
 20
549.305316
 30
0.0
 40
10.4
100
AcDbArc
 50
131.047153
 51
311.047153
  0
ARC
  5
D2
330
7B
100
AcDbEntity
  8
0
  6
Continuous
 62
     0
370
    30
100
AcDbCircle
 10
475.296143
 20
549.305316
 30
0.0
 40
10.4
100
AcDbArc
 50
311.047153
 51
131.047153
  0
LINE
  5
D3
330
7B
100
AcDbEntity
  8
0
  6
Continuous
 62
     0
370
    30
100
AcDbLine
 10
487.29614
 20
592.805316
 30
0.0
 11
463.296145
 21
592.805316
 31
0.0
  0
LINE
  5
D4
330
7B
100
AcDbEntity
  8
0
  6
Continuous
 62
     0
370
    30
100
AcDbLine
 10
463.296145
 20
592.805316
 30
0.0
 11
463.296145
 21
590.305268
 31
0.0
  0
LINE
  5
D5
330
7B
100
AcDbEntity
  8
0
  6
Continuous
 62
     0
370
    30
100
AcDbLine
 10
487.29614
 20
590.305268
 30
0.0
 11
463.296145
 21
590.305268
 31
0.0
  0
LINE
  5
D6
330
7B
100
AcDbEntity
  8
0
  6
Continuous
 62
     0
370
    30
100
AcDbLine
 10
464.296144
 20
590.305268
 30
0.0
 11
464.296144
 21
565.305257
 31
0.0
  0
LINE
  5
D7
330
7B
100
AcDbEntity
  8
0
  6
Continuous
 62
     0
370
    30
100
AcDbLine
 10
523.796143
 20
583.305313
 30
0.0
 11
523.796143
 21
582.505313
 31
0.0
  0
LINE
  5
D8
330
7B
100
AcDbEntity
  8
0
  6
Continuous
 62
     0
370
    30
100
AcDbLine
 10
578.54613
 20
582.505313
 30
0.0
 11
522.046156
 21
582.505313
 31
0.0
  0
LINE
  5
D9
330
7B
100
AcDbEntity
  8
0
  6
Continuous
 62
     0
370
    30
100
AcDbLine
 10
522.046156
 20
582.505313
 30
0.0
 11
522.046156
 21
565.305257
 31
0.0
  0
LINE
  5
DA
330
7B
100
AcDbEntity
  8
0
  6
Continuous
 62
     0
370
    30
100
AcDbLine
 10
522.046156
 20
533.305316
 30
0.0
 11
522.046156
 21
516.305325
 31
0.0
  0
LINE
  5
DB
330
7B
100
AcDbEntity
  8
0
  6
Continuous
 62
     0
370
    30
100
AcDbLine
 10
580.796143
 20
516.305325
 30
0.0
 11
519.796143
 21
516.305325
 31
0.0
  0
LINE
  5
DC
330
7B
100
AcDbEntity
  8
0
  6
Continuous
 62
     0
370
    30
100
AcDbLine
 10
519.796143
 20
516.305325
 30
0.0
 11
519.796143
 21
514.705325
 31
0.0
  0
LINE
  5
DD
330
7B
100
AcDbEntity
  8
0
  6
Continuous
 62
     0
370
    30
100
AcDbLine
 10
580.796143
 20
514.705325
 30
0.0
 11
519.796143
 21
514.705325
 31
0.0
  0
LINE
  5
DE
330
7B
100
AcDbEntity
  8
0
  6
Continuous
 62
     0
370
    30
100
AcDbLine
 10
520.846143
 20
514.705325
 30
0.0
 11
520.846143
 21
508.905325
 31
0.0
  0
LINE
  5
DF
330
7B
100
AcDbEntity
  8
0
  6
Continuous
 62
     0
370
    30
100
AcDbLine
 10
580.796143
 20
508.905325
 30
0.0
 11
519.796143
 21
508.905325
 31
0.0
  0
LINE
  5
E0
330
7B
100
AcDbEntity
  8
0
  6
Continuous
 62
     0
370
    30
100
AcDbLine
 10
519.796143
 20
508.905325
 30
0.0
 11
519.796143
 21
507.305325
 31
0.0
  0
LINE
  5
E1
330
7B
100
AcDbEntity
  8
0
  6
Continuous
 62
     0
370
    30
100
AcDbLine
 10
580.796143
 20
507.305325
 30
0.0
 11
519.796143
 21
507.305325
 31
0.0
  0
LINE
  5
E2
330
7B
100
AcDbEntity
  8
0
  6
Continuous
 62
     0
370
    30
100
AcDbLine
 10
539.946143
 20
507.305325
 30
0.0
 11
539.946143
 21
488.305316
 31
0.0
  0
LINE
  5
E3
330
7B
100
AcDbEntity
  8
0
  6
Continuous
 62
     0
370
    30
100
AcDbLine
 10
560.646143
 20
488.305316
 30
0.0
 11
539.946143
 21
488.305316
 31
0.0
  0
LINE
  5
E4
330
7B
100
AcDbEntity
  8
0
  6
Continuous
 62
     0
370
    30
100
AcDbLine
 10
539.946143
 20
488.305316
 30
0.0
 11
541.446143
 21
486.805316
 31
0.0
  0
LINE
  5
E5
330
7B
100
AcDbEntity
  8
0
  6
Continuous
 62
     0
370
    30
100
AcDbLine
 10
559.146143
 20
486.805316
 30
0.0
 11
541.446143
 21
486.805316
 31
0.0
  0
LINE
  5
E6
330
7B
100
AcDbEntity
  8
0
  6
Continuous
 62
     0
370
    30
100
AcDbLine
 10
560.646143
 20
488.305316
 30
0.0
 11
559.146143
 21
486.805316
 31
0.0
  0
LINE
  5
E7
330
7B
100
AcDbEntity
  8
0
  6
Continuous
 62
     0
370
    30
100
AcDbLine
 10
560.646143
 20
507.305325
 30
0.0
 11
560.646143
 21
488.305316
 31
0.0
  0
LINE
  5
E8
330
7B
100
AcDbEntity
  8
0
  6
Continuous
 62
     0
370
    30
100
AcDbLine
 10
580.796143
 20
508.905325
 30
0.0
 11
580.796143
 21
507.305325
 31
0.0
  0
LINE
  5
E9
330
7B
100
AcDbEntity
  8
0
  6
Continuous
 62
     0
370
    30
100
AcDbLine
 10
579.746143
 20
514.705325
 30
0.0
 11
579.746143
 21
508.905325
 31
0.0
  0
LINE
  5
EA
330
7B
100
AcDbEntity
  8
0
  6
Continuous
 62
     0
370
    30
100
AcDbLine
 10
580.796143
 20
516.305325
 30
0.0
 11
580.796143
 21
514.705325
 31
0.0
  0
LINE
  5
EB
330
7B
100
AcDbEntity
  8
0
  6
Continuous
 62
     0
370
    30
100
AcDbLine
 10
578.54613
 20
582.505313
 30
0.0
 11
578.54613
 21
516.305325
 31
0.0
  0
LINE
  5
EC
330
7B
100
AcDbEntity
  8
0
  6
Continuous
 62
     0
370
    30
100
AcDbLine
 10
576.796143
 20
583.305313
 30
0.0
 11
576.796143
 21
582.505313
 31
0.0
  0
LINE
  5
ED
330
7B
100
AcDbEntity
  8
0
  6
Continuous
 62
     0
370
    30
100
AcDbLine
 10
486.296141
 20
590.305268
 30
0.0
 11
486.296141
 21
565.305192
 31
0.0
  0
LINE
  5
EE
330
7B
100
AcDbEntity
  8
0
  6
Continuous
 62
     0
370
    30
100
AcDbLine
 10
487.29614
 20
592.805316
 30
0.0
 11
487.29614
 21
590.305268
 31
0.0
  0
LINE
  5
EF
330
7B
100
AcDbEntity
  8
0
  6
Continuous
 62
     0
370
    30
100
AcDbLine
 10
522.046156
 20
565.305257
 30
0.0
 11
486.296078
 21
565.305257
 31
0.0
  0
LINE
  5
F0
330
7B
100
AcDbEntity
  8
0
  6
Continuous
 62
     0
370
    30
100
AcDbLine
 10
464.296144
 20
565.305257
 30
0.0
 11
428.54603
 21
565.305257
 31
0.0
  0
LINE
  5
F1
330
7B
100
AcDbEntity
  8
0
  6
Continuous
 62
     0
370
    30
100
AcDbLine
 10
410.646143
 20
488.305316
 30
0.0
 11
409.146143
 21
486.805316
 31
0.0
  0
LINE
  5
F2
330
7B
100
AcDbEntity
  8
0
  6
Continuous
 62
     0
370
    30
100
AcDbLine
 10
410.646143
 20
507.305325
 30
0.0
 11
410.646143
 21
488.305316
 31
0.0
  0
LINE
  5
F3
330
7B
100
AcDbEntity
  8
0
  6
Continuous
 62
     0
370
    30
100
AcDbLine
 10
430.796143
 20
508.905325
 30
0.0
 11
430.796143
 21
507.305325
 31
0.0
  0
LINE
  5
F4
330
7B
100
AcDbEntity
  8
0
  6
Continuous
 62
     0
370
    30
100
AcDbLine
 10
429.746143
 20
514.705325
 30
0.0
 11
429.746143
 21
508.905325
 31
0.0
  0
LINE
  5
F5
330
7B
100
AcDbEntity
  8
0
  6
Continuous
 62
     0
370
    30
100
AcDbLine
 10
430.796143
 20
516.305325
 30
0.0
 11
430.796143
 21
514.705325
 31
0.0
  0
LINE
  5
F6
330
7B
100
AcDbEntity
  8
0
  6
Continuous
 62
     0
370
    30
100
AcDbLine
 10
428.54613
 20
582.505313
 30
0.0
 11
428.54613
 21
565.305158
 31
0.0
  0
LINE
  5
F7
330
7B
100
AcDbEntity
  8
0
  6
Continuous
 62
     0
370
    30
100
AcDbLine
 10
428.54613
 20
533.305316
 30
0.0
 11
428.54613
 21
516.305325
 31
0.0
  0
LINE
  5
F8
330
7B
100
AcDbEntity
  8
0
  6
Continuous
 62
     0
370
    30
100
AcDbLine
 10
426.796143
 20
583.305313
 30
0.0
 11
426.796143
 21
582.505313
 31
0.0
  0
LINE
  5
F9
330
7B
100
AcDbEntity
  8
0
  6
Continuous
 62
     0
370
     0
100
AcDbLine
 10
428.546143
 20
599.872521
 30
0.0
 11
400.296143
 21
599.872521
 31
0.0
  0
LINE
  5
FA
330
7B
100
AcDbEntity
  8
0
  6
Continuous
 62
     0
370
     0
100
AcDbLine
 10
400.296143
 20
599.872521
 30
0.0
 11
372.046143
 21
599.872521
 31
0.0
  0
LINE
  5
FB
330
7B
100
AcDbEntity
  8
0
  6
Continuous
 62
     0
370
    30
100
AcDbLine
 10
372.977847
 20
600.870186
 30
0.0
 11
400.296143
 21
600.870186
 31
0.0
  0
LINE
  5
FC
330
7B
100
AcDbEntity
  8
0
  6
Continuous
 62
     0
370
    30
100
AcDbLine
 10
400.296143
 20
600.870186
 30
0.0
 11
427.614438
 21
600.870186
 31
0.0
  0
LINE
  5
FD
330
7B
100
AcDbEntity
  8
0
  6
Continuous
 62
     0
370
    30
100
AcDbLine
 10
372.046143
 20
583.305313
 30
0.0
 11
400.296143
 21
583.305313
 31
0.0
  0
LINE
  5
FE
330
7B
100
AcDbEntity
  8
0
  6
Continuous
 62
     0
370
    30
100
AcDbLine
 10
400.296143
 20
583.305313
 30
0.0
 11
428.546143
 21
583.305313
 31
0.0
  0
LINE
  5
FF
330
7B
100
AcDbEntity
  8
0
  6
Continuous
 62
     0
370
    30
100
AcDbLine
 10
400.296143
 20
601.053121
 30
0.0
 11
424.796143
 21
601.053121
 31
0.0
  0
LINE
  5
100
330
7B
100
AcDbEntity
  8
0
  6
Continuous
 62
     0
370
    30
100
AcDbLine
 10
375.796143
 20
601.053121
 30
0.0
 11
400.296143
 21
601.053121
 31
0.0
  0
LINE
  5
101
330
7B
100
AcDbEntity
  8
0
  6
Continuous
 62
     0
370
     0
100
AcDbLine
 10
578.546143
 20
599.872521
 30
0.0
 11
550.296143
 21
599.872521
 31
0.0
  0
LINE
  5
102
330
7B
100
AcDbEntity
  8
0
  6
Continuous
 62
     0
370
     0
100
AcDbLine
 10
550.296143
 20
599.872521
 30
0.0
 11
522.046143
 21
599.872521
 31
0.0
  0
LINE
  5
103
330
7B
100
AcDbEntity
  8
0
  6
Continuous
 62
     0
370
    30
100
AcDbLine
 10
522.977847
 20
600.870186
 30
0.0
 11
550.296143
 21
600.870186
 31
0.0
  0
LINE
  5
104
330
7B
100
AcDbEntity
  8
0
  6
Continuous
 62
     0
370
    30
100
AcDbLine
 10
550.296143
 20
600.870186
 30
0.0
 11
577.614438
 21
600.870186
 31
0.0
  0
LINE
  5
105
330
7B
100
AcDbEntity
  8
0
  6
Continuous
 62
     0
370
    30
100
AcDbLine
 10
522.046143
 20
583.305313
 30
0.0
 11
550.296143
 21
583.305313
 31
0.0
  0
LINE
  5
106
330
7B
100
AcDbEntity
  8
0
  6
Continuous
 62
     0
370
    30
100
AcDbLine
 10
550.296143
 20
583.305313
 30
0.0
 11
578.546143
 21
583.305313
 31
0.0
  0
LINE
  5
107
330
7B
100
AcDbEntity
  8
0
  6
Continuous
 62
     0
370
    30
100
AcDbLine
 10
578.546143
 20
583.305313
 30
0.0
 11
578.546143
 21
599.872521
 31
0.0
  0
LINE
  5
108
330
7B
100
AcDbEntity
  8
0
  6
Continuous
 62
     0
370
    30
100
AcDbLine
 10
522.046143
 20
583.305313
 30
0.0
 11
522.046143
 21
599.872521
 31
0.0
  0
ARC
  5
109
330
7B
100
AcDbEntity
  8
0
  6
Continuous
 62
     0
370
    30
100
AcDbCircle
 10
523.049185
 20
599.86968
 30
0.0
 40
1.003046707917065
100
AcDbArc
 50
94.078418
 51
179.837687
  0
ARC
  5
10A
330
7B
100
AcDbEntity
  8
0
  6
Continuous
 62
     0
370
    30
100
AcDbCircle
 10
577.5431
 20
599.86968
 30
0.0
 40
1.003046707917623
100
AcDbArc
 50
0.162313
 51
85.921582
  0
LINE
  5
10B
330
7B
100
AcDbEntity
  8
0
  6
Continuous
 62
     0
370
    30
100
AcDbLine
 10
428.546143
 20
583.305313
 30
0.0
 11
428.546143
 21
599.872521
 31
0.0
  0
LINE
  5
10C
330
7B
100
AcDbEntity
  8
0
  6
Continuous
 62
     0
370
    30
100
AcDbLine
 10
372.046143
 20
583.305313
 30
0.0
 11
372.046143
 21
599.872521
 31
0.0
  0
ARC
  5
10D
330
7B
100
AcDbEntity
  8
0
  6
Continuous
 62
     0
370
    30
100
AcDbCircle
 10
373.049185
 20
599.86968
 30
0.0
 40
1.003046707913607
100
AcDbArc
 50
94.078418
 51
179.837687
  0
ARC
  5
10E
330
7B
100
AcDbEntity
  8
0
  6
Continuous
 62
     0
370
    30
100
AcDbCircle
 10
427.5431
 20
599.86968
 30
0.0
 40
1.003046707914527
100
AcDbArc
 50
0.162313
 51
85.921582
  0
ENDBLK
  5
110
330
7B
100
AcDbEntity
  8
0
100
AcDbBlockEnd
  0
BLOCK
  5
225
330
112
100
AcDbEntity
  8
0
100
AcDbBlockBegin
  2
b
 70
     0
 10
339.390015
 20
169.986176
 30
0.0
  3
b
  1

  0
ARC
  5
113
330
112
100
AcDbEntity
  8
0
  6
Continuous
 62
     0
370
    30
100
AcDbCircle
 10
400.296127
 20
235.494615
 30
0.0
 40
24.5
100
AcDbArc
 50
270.0
 51
360.0
  0
LINE
  5
114
330
112
100
AcDbEntity
  8
0
  6
Continuous
 62
     0
370
    30
100
AcDbLine
 10
391.267371
 20
237.460866
 30
0.0
 11
391.267371
 21
235.660105
 31
0.0
  0
LINE
  5
115
330
112
100
AcDbEntity
  8
0
  6
Continuous
 62
     0
370
    30
100
AcDbLine
 10
391.398584
 20
237.873269
 30
0.0
 11
391.267371
 21
237.460866
 31
0.0
  0
LINE
  5
116
330
112
100
AcDbEntity
  8
0
  6
Continuous
 62
     0
370
    30
100
AcDbLine
 10
391.860038
 20
238.024889
 30
0.0
 11
391.398584
 21
237.873269
 31
0.0
  0
LINE
  5
117
330
112
100
AcDbEntity
  8
0
  6
Continuous
 62
     0
370
    30
100
AcDbLine
 10
391.860038
 20
238.200105
 30
0.0
 11
391.860038
 21
238.024889
 31
0.0
  0
LINE
  5
118
330
112
100
AcDbEntity
  8
0
  6
Continuous
 62
     0
370
    30
100
AcDbLine
 10
389.982038
 20
238.200105
 30
0.0
 11
391.860038
 21
238.200105
 31
0.0
  0
LINE
  5
119
330
112
100
AcDbEntity
  8
0
  6
Continuous
 62
     0
370
    30
100
AcDbLine
 10
389.982038
 20
238.024922
 30
0.0
 11
389.982038
 21
238.200105
 31
0.0
  0
ARC
  5
11A
330
112
100
AcDbEntity
  8
0
  6
Continuous
 62
     0
370
    30
100
AcDbCircle
 10
390.086289
 20
237.540689
 30
0.0
 40
0.4953288671919095
100
AcDbArc
 50
350.416048
 51
102.149824
  0
LINE
  5
11B
330
112
100
AcDbEntity
  8
0
  6
Continuous
 62
     0
370
    30
100
AcDbLine
 10
390.574704
 20
235.494615
 30
0.0
 11
390.574704
 21
237.45822
 31
0.0
  0
LINE
  5
11C
330
112
100
AcDbEntity
  8
0
  6
Continuous
 62
     0
370
     0
100
AcDbLine
 10
394.992704
 20
235.494633
 30
0.0
 11
390.574704
 21
235.494633
 31
0.0
  0
LINE
  5
11D
330
112
100
AcDbEntity
  8
0
  6
Continuous
 62
     0
370
    30
100
AcDbLine
 10
394.992704
 20
237.45822
 30
0.0
 11
394.992704
 21
235.494615
 31
0.0
  0
LINE
  5
11E
330
112
100
AcDbEntity
  8
0
  6
Continuous
 62
     0
370
    30
100
AcDbLine
 10
395.122716
 20
237.872092
 30
0.0
 11
394.992704
 21
237.45822
 31
0.0
  0
LINE
  5
11F
330
112
100
AcDbEntity
  8
0
  6
Continuous
 62
     0
370
    30
100
AcDbLine
 10
395.585371
 20
238.02489
 30
0.0
 11
395.122716
 21
237.872092
 31
0.0
  0
LINE
  5
120
330
112
100
AcDbEntity
  8
0
  6
Continuous
 62
     0
370
    30
100
AcDbLine
 10
395.585371
 20
238.200105
 30
0.0
 11
395.585371
 21
238.02489
 31
0.0
  0
LINE
  5
121
330
112
100
AcDbEntity
  8
0
  6
Continuous
 62
     0
370
    30
100
AcDbLine
 10
393.707371
 20
238.200105
 30
0.0
 11
395.585371
 21
238.200105
 31
0.0
  0
LINE
  5
122
330
112
100
AcDbEntity
  8
0
  6
Continuous
 62
     0
370
    30
100
AcDbLine
 10
393.707371
 20
238.02485
 30
0.0
 11
393.707371
 21
238.200105
 31
0.0
  0
LINE
  5
123
330
112
100
AcDbEntity
  8
0
  6
Continuous
 62
     0
370
    30
100
AcDbLine
 10
394.167405
 20
237.87074
 30
0.0
 11
393.707371
 21
238.02485
 31
0.0
  0
LINE
  5
124
330
112
100
AcDbEntity
  8
0
  6
Continuous
 62
     0
370
    30
100
AcDbLine
 10
394.300038
 20
237.460866
 30
0.0
 11
394.167405
 21
237.87074
 31
0.0
  0
LINE
  5
125
330
112
100
AcDbEntity
  8
0
  6
Continuous
 62
     0
370
    30
100
AcDbLine
 10
394.300038
 20
235.660105
 30
0.0
 11
394.300038
 21
237.460866
 31
0.0
  0
LINE
  5
126
330
112
100
AcDbEntity
  8
0
  6
Continuous
 62
     0
370
    30
100
AcDbLine
 10
391.267371
 20
235.660105
 30
0.0
 11
394.300038
 21
235.660105
 31
0.0
  0
LINE
  5
127
330
112
100
AcDbEntity
  8
0
  6
Continuous
 62
     0
370
    30
100
AcDbLine
 10
390.574704
 20
233.252668
 30
0.0
 11
390.574704
 21
235.494615
 31
0.0
  0
LINE
  5
128
330
112
100
AcDbEntity
  8
0
  6
Continuous
 62
     0
370
    30
100
AcDbLine
 10
390.435004
 20
232.835999
 30
0.0
 11
390.574704
 21
233.252668
 31
0.0
  0
LINE
  5
129
330
112
100
AcDbEntity
  8
0
  6
Continuous
 62
     0
370
    30
100
AcDbLine
 10
389.982038
 20
232.692702
 30
0.0
 11
390.435004
 21
232.835999
 31
0.0
  0
LINE
  5
12A
330
112
100
AcDbEntity
  8
0
  6
Continuous
 62
     0
370
    30
100
AcDbLine
 10
389.982038
 20
232.517397
 30
0.0
 11
389.982038
 21
232.692702
 31
0.0
  0
LINE
  5
12B
330
112
100
AcDbEntity
  8
0
  6
Continuous
 62
     0
370
    30
100
AcDbLine
 10
391.860038
 20
232.517397
 30
0.0
 11
389.982038
 21
232.517397
 31
0.0
  0
LINE
  5
12C
330
112
100
AcDbEntity
  8
0
  6
Continuous
 62
     0
370
    30
100
AcDbLine
 10
391.860038
 20
232.692888
 30
0.0
 11
391.860038
 21
232.517397
 31
0.0
  0
LINE
  5
12D
330
112
100
AcDbEntity
  8
0
  6
Continuous
 62
     0
370
    30
100
AcDbLine
 10
391.414122
 20
232.838232
 30
0.0
 11
391.860038
 21
232.692888
 31
0.0
  0
LINE
  5
12E
330
112
100
AcDbEntity
  8
0
  6
Continuous
 62
     0
370
    30
100
AcDbLine
 10
391.267371
 20
233.255314
 30
0.0
 11
391.414122
 21
232.838232
 31
0.0
  0
LINE
  5
12F
330
112
100
AcDbEntity
  8
0
  6
Continuous
 62
     0
370
    30
100
AcDbLine
 10
391.267371
 20
235.389449
 30
0.0
 11
391.267371
 21
233.255314
 31
0.0
  0
LINE
  5
130
330
112
100
AcDbEntity
  8
0
  6
Continuous
 62
     0
370
    30
100
AcDbLine
 10
394.300038
 20
235.389449
 30
0.0
 11
391.267371
 21
235.389449
 31
0.0
  0
LINE
  5
131
330
112
100
AcDbEntity
  8
0
  6
Continuous
 62
     0
370
    30
100
AcDbLine
 10
394.300038
 20
233.247376
 30
0.0
 11
394.300038
 21
235.389449
 31
0.0
  0
LINE
  5
132
330
112
100
AcDbEntity
  8
0
  6
Continuous
 62
     0
370
    30
100
AcDbLine
 10
394.157709
 20
232.830742
 30
0.0
 11
394.300038
 21
233.247376
 31
0.0
  0
LINE
  5
133
330
112
100
AcDbEntity
  8
0
  6
Continuous
 62
     0
370
    30
100
AcDbLine
 10
393.707371
 20
232.692735
 30
0.0
 11
394.157709
 21
232.830742
 31
0.0
  0
LINE
  5
134
330
112
100
AcDbEntity
  8
0
  6
Continuous
 62
     0
370
    30
100
AcDbLine
 10
393.707371
 20
232.517397
 30
0.0
 11
393.707371
 21
232.692735
 31
0.0
  0
LINE
  5
135
330
112
100
AcDbEntity
  8
0
  6
Continuous
 62
     0
370
    30
100
AcDbLine
 10
395.585371
 20
232.517397
 30
0.0
 11
393.707371
 21
232.517397
 31
0.0
  0
LINE
  5
136
330
112
100
AcDbEntity
  8
0
  6
Continuous
 62
     0
370
    30
100
AcDbLine
 10
395.585371
 20
232.692568
 30
0.0
 11
395.585371
 21
232.517397
 31
0.0
  0
ARC
  5
137
330
112
100
AcDbEntity
  8
0
  6
Continuous
 62
     0
370
    30
100
AcDbCircle
 10
395.479063
 20
233.173692
 30
0.0
 40
0.4927290345501608
100
AcDbArc
 50
170.776706
 51
282.45974
  0
LINE
  5
138
330
112
100
AcDbEntity
  8
0
  6
Continuous
 62
     0
370
    30
100
AcDbLine
 10
394.992704
 20
235.494615
 30
0.0
 11
394.992704
 21
233.252668
 31
0.0
  0
LINE
  5
139
330
112
100
AcDbEntity
  8
0
  6
Continuous
 62
     0
370
    30
100
AcDbLine
 10
402.776473
 20
237.532565
 30
0.0
 11
403.437257
 21
236.56644
 31
0.0
  0
LINE
  5
13A
330
112
100
AcDbEntity
  8
0
  6
Continuous
 62
     0
370
    30
100
AcDbLine
 10
401.827707
 20
238.15418
 30
0.0
 11
402.776473
 21
237.532565
 31
0.0
  0
LINE
  5
13B
330
112
100
AcDbEntity
  8
0
  6
Continuous
 62
     0
370
    30
100
AcDbLine
 10
400.725628
 20
238.369439
 30
0.0
 11
401.827707
 21
238.15418
 31
0.0
  0
LINE
  5
13C
330
112
100
AcDbEntity
  8
0
  6
Continuous
 62
     0
370
    30
100
AcDbLine
 10
399.600349
 20
238.144628
 30
0.0
 11
400.725628
 21
238.369439
 31
0.0
  0
LINE
  5
13D
330
112
100
AcDbEntity
  8
0
  6
Continuous
 62
     0
370
    30
100
AcDbLine
 10
398.642686
 20
237.509736
 30
0.0
 11
399.600349
 21
238.144628
 31
0.0
  0
LINE
  5
13E
330
112
100
AcDbEntity
  8
0
  6
Continuous
 62
     0
370
    30
100
AcDbLine
 10
397.988726
 20
236.544947
 30
0.0
 11
398.642686
 21
237.509736
 31
0.0
  0
LINE
  5
13F
330
112
100
AcDbEntity
  8
0
  6
Continuous
 62
     0
370
    30
100
AcDbLine
 10
397.758415
 20
235.494615
 30
0.0
 11
397.988726
 21
236.544947
 31
0.0
  0
LINE
  5
140
330
112
100
AcDbEntity
  8
0
  6
Continuous
 62
     0
370
    30
100
AcDbLine
 10
398.737277
 20
236.718341
 30
0.0
 11
398.513905
 21
235.494615
 31
0.0
  0
LINE
  5
141
330
112
100
AcDbEntity
  8
0
  6
Continuous
 62
     0
370
    30
100
AcDbLine
 10
399.305941
 20
237.568714
 30
0.0
 11
398.737277
 21
236.718341
 31
0.0
  0
LINE
  5
142
330
112
100
AcDbEntity
  8
0
  6
Continuous
 62
     0
370
    30
100
AcDbLine
 10
400.015517
 20
237.984621
 30
0.0
 11
399.305941
 21
237.568714
 31
0.0
  0
LINE
  5
143
330
112
100
AcDbEntity
  8
0
  6
Continuous
 62
     0
370
    30
100
AcDbLine
 10
400.724305
 20
238.098782
 30
0.0
 11
400.015517
 21
237.984621
 31
0.0
  0
LINE
  5
144
330
112
100
AcDbEntity
  8
0
  6
Continuous
 62
     0
370
    30
100
AcDbLine
 10
401.662603
 20
237.887104
 30
0.0
 11
400.724305
 21
238.098782
 31
0.0
  0
LINE
  5
145
330
112
100
AcDbEntity
  8
0
  6
Continuous
 62
     0
370
    30
100
AcDbLine
 10
402.537744
 20
237.057679
 30
0.0
 11
401.662603
 21
237.887104
 31
0.0
  0
ARC
  5
146
330
112
100
AcDbEntity
  8
0
  6
Continuous
 62
     0
370
    30
100
AcDbCircle
 10
399.537734
 20
235.486546
 30
0.0
 40
3.386520518351373
100
AcDbArc
 50
357.344514
 51
27.641474
  0
LINE
  5
147
330
112
100
AcDbEntity
  8
0
  6
Continuous
 62
     0
370
    30
100
AcDbLine
 10
402.720096
 20
234.028318
 30
0.0
 11
402.920618
 21
235.329647
 31
0.0
  0
LINE
  5
148
330
112
100
AcDbEntity
  8
0
  6
Continuous
 62
     0
370
    30
100
AcDbLine
 10
402.199205
 20
233.19224
 30
0.0
 11
402.720096
 21
234.028318
 31
0.0
  0
LINE
  5
149
330
112
100
AcDbEntity
  8
0
  6
Continuous
 62
     0
370
    30
100
AcDbLine
 10
401.494754
 20
232.749468
 30
0.0
 11
402.199205
 21
233.19224
 31
0.0
  0
LINE
  5
14A
330
112
100
AcDbEntity
  8
0
  6
Continuous
 62
     0
370
    30
100
AcDbLine
 10
400.732243
 20
232.613428
 30
0.0
 11
401.494754
 21
232.749468
 31
0.0
  0
LINE
  5
14B
330
112
100
AcDbEntity
  8
0
  6
Continuous
 62
     0
370
    30
100
AcDbLine
 10
399.919109
 20
232.761019
 30
0.0
 11
400.732243
 21
232.613428
 31
0.0
  0
LINE
  5
14C
330
112
100
AcDbEntity
  8
0
  6
Continuous
 62
     0
370
    30
100
AcDbLine
 10
399.207108
 20
233.241161
 30
0.0
 11
399.919109
 21
232.761019
 31
0.0
  0
LINE
  5
14D
330
112
100
AcDbEntity
  8
0
  6
Continuous
 62
     0
370
    30
100
AcDbLine
 10
398.698468
 20
234.104003
 30
0.0
 11
399.207108
 21
233.241161
 31
0.0
  0
LINE
  5
14E
330
112
100
AcDbEntity
  8
0
  6
Continuous
 62
     0
370
    30
100
AcDbLine
 10
398.512118
 20
235.352137
 30
0.0
 11
398.698468
 21
234.104003
 31
0.0
  0
LINE
  5
14F
330
112
100
AcDbEntity
  8
0
  6
Continuous
 62
     0
370
    30
100
AcDbLine
 10
398.513905
 20
235.494615
 30
0.0
 11
398.512118
 21
235.352137
 31
0.0
  0
LINE
  5
150
330
112
100
AcDbEntity
  8
0
  6
Continuous
 62
     0
370
    30
100
AcDbLine
 10
397.755951
 20
235.366689
 30
0.0
 11
397.758415
 21
235.494615
 31
0.0
  0
ARC
  5
151
330
112
100
AcDbEntity
  8
0
  6
Continuous
 62
     0
370
    30
100
AcDbCircle
 10
400.798467
 20
235.349138
 30
0.0
 40
3.042566228086707
100
AcDbArc
 50
179.669492
 51
209.435633
  0
ARC
  5
152
330
112
100
AcDbEntity
  8
0
  6
Continuous
 62
     0
370
    30
100
AcDbCircle
 10
400.760281
 20
235.330088
 30
0.0
 40
2.999948709969507
100
AcDbArc
 50
209.47719
 51
239.244645
  0
ARC
  5
153
330
112
100
AcDbEntity
  8
0
  6
Continuous
 62
     0
370
    30
100
AcDbCircle
 10
400.713227
 20
235.248316
 30
0.0
 40
2.905615182080001
100
AcDbArc
 50
239.217435
 51
270.401066
  0
ARC
  5
154
330
112
100
AcDbEntity
  8
0
  6
Continuous
 62
     0
370
    30
100
AcDbCircle
 10
400.755519
 20
235.180318
 30
0.0
 40
2.837631047541128
100
AcDbArc
 50
269.556739
 51
301.165121
  0
ARC
  5
155
330
112
100
AcDbEntity
  8
0
  6
Continuous
 62
     0
370
    30
100
AcDbCircle
 10
400.669281
 20
235.318864
 30
0.0
 40
3.000811409740285
100
AcDbArc
 50
301.20509
 51
330.718304
  0
ARC
  5
156
330
112
100
AcDbEntity
  8
0
  6
Continuous
 62
     0
370
    30
100
AcDbCircle
 10
400.676494
 20
235.330649
 30
0.0
 40
3.000315919402133
100
AcDbArc
 50
330.454646
 51
0.233502
  0
LINE
  5
157
330
112
100
AcDbEntity
  8
0
  6
Continuous
 62
     0
370
    30
100
AcDbLine
 10
403.437257
 20
236.56644
 30
0.0
 11
403.676785
 21
235.342876
 31
0.0
  0
ARC
  5
158
330
112
100
AcDbEntity
  8
0
  6
Continuous
 62
     0
370
    30
100
AcDbCircle
 10
409.822497
 20
238.768882
 30
0.0
 40
0.5687767991929409
100
AcDbArc
 50
269.914738
 51
336.135874
  0
LINE
  5
159
330
112
100
AcDbEntity
  8
0
  6
Continuous
 62
     0
370
    30
100
AcDbLine
 10
406.260359
 20
238.200105
 30
0.0
 11
409.821651
 21
238.200105
 31
0.0
  0
LINE
  5
15A
330
112
100
AcDbEntity
  8
0
  6
Continuous
 62
     0
370
    30
100
AcDbLine
 10
406.043683
 20
238.2153
 30
0.0
 11
406.260359
 21
238.200105
 31
0.0
  0
LINE
  5
15B
330
112
100
AcDbEntity
  8
0
  6
Continuous
 62
     0
370
    30
100
AcDbLine
 10
405.893058
 20
238.265251
 30
0.0
 11
406.043683
 21
238.2153
 31
0.0
  0
LINE
  5
15C
330
112
100
AcDbEntity
  8
0
  6
Continuous
 62
     0
370
    30
100
AcDbLine
 10
405.792544
 20
238.348253
 30
0.0
 11
405.893058
 21
238.265251
 31
0.0
  0
LINE
  5
15D
330
112
100
AcDbEntity
  8
0
  6
Continuous
 62
     0
370
    30
100
AcDbLine
 10
405.67998
 20
238.538772
 30
0.0
 11
405.792544
 21
238.348253
 31
0.0
  0
LINE
  5
15E
330
112
100
AcDbEntity
  8
0
  6
Continuous
 62
     0
370
    30
100
AcDbLine
 10
405.53964
 20
238.538772
 30
0.0
 11
405.67998
 21
238.538772
 31
0.0
  0
LINE
  5
15F
330
112
100
AcDbEntity
  8
0
  6
Continuous
 62
     0
370
    30
100
AcDbLine
 10
405.53964
 20
237.084105
 30
0.0
 11
405.53964
 21
238.538772
 31
0.0
  0
LINE
  5
160
330
112
100
AcDbEntity
  8
0
  6
Continuous
 62
     0
370
    30
100
AcDbLine
 10
405.69571
 20
237.084105
 30
0.0
 11
405.53964
 21
237.084105
 31
0.0
  0
LINE
  5
161
330
112
100
AcDbEntity
  8
0
  6
Continuous
 62
     0
370
    30
100
AcDbLine
 10
405.987738
 20
237.778741
 30
0.0
 11
405.69571
 21
237.084105
 31
0.0
  0
LINE
  5
162
330
112
100
AcDbEntity
  8
0
  6
Continuous
 62
     0
370
    30
100
AcDbLine
 10
406.632099
 20
237.929449
 30
0.0
 11
405.987738
 21
237.778741
 31
0.0
  0
LINE
  5
163
330
112
100
AcDbEntity
  8
0
  6
Continuous
 62
     0
370
    30
100
AcDbLine
 10
407.674828
 20
237.929449
 30
0.0
 11
406.632099
 21
237.929449
 31
0.0
  0
LINE
  5
164
330
112
100
AcDbEntity
  8
0
  6
Continuous
 62
     0
370
    30
100
AcDbLine
 10
407.674828
 20
233.252668
 30
0.0
 11
407.674828
 21
237.929449
 31
0.0
  0
LINE
  5
165
330
112
100
AcDbEntity
  8
0
  6
Continuous
 62
     0
370
    30
100
AcDbLine
 10
407.521432
 20
232.819284
 30
0.0
 11
407.674828
 21
233.252668
 31
0.0
  0
LINE
  5
166
330
112
100
AcDbEntity
  8
0
  6
Continuous
 62
     0
370
    30
100
AcDbLine
 10
407.082161
 20
232.692918
 30
0.0
 11
407.521432
 21
232.819284
 31
0.0
  0
LINE
  5
167
330
112
100
AcDbEntity
  8
0
  6
Continuous
 62
     0
370
    30
100
AcDbLine
 10
407.082161
 20
232.517397
 30
0.0
 11
407.082161
 21
232.692918
 31
0.0
  0
LINE
  5
168
330
112
100
AcDbEntity
  8
0
  6
Continuous
 62
     0
370
    30
100
AcDbLine
 10
408.960161
 20
232.517397
 30
0.0
 11
407.082161
 21
232.517397
 31
0.0
  0
LINE
  5
169
330
112
100
AcDbEntity
  8
0
  6
Continuous
 62
     0
370
    30
100
AcDbLine
 10
408.960161
 20
232.692551
 30
0.0
 11
408.960161
 21
232.517397
 31
0.0
  0
ARC
  5
16A
330
112
100
AcDbEntity
  8
0
  6
Continuous
 62
     0
370
    30
100
AcDbCircle
 10
408.851081
 20
233.169445
 30
0.0
 40
0.4892099068779162
100
AcDbArc
 50
171.304201
 51
282.883669
  0
LINE
  5
16B
330
112
100
AcDbEntity
  8
0
  6
Continuous
 62
     0
370
    30
100
AcDbLine
 10
408.367495
 20
237.929449
 30
0.0
 11
408.367495
 21
233.243407
 31
0.0
  0
LINE
  5
16C
330
112
100
AcDbEntity
  8
0
  6
Continuous
 62
     0
370
    30
100
AcDbLine
 10
409.407578
 20
237.929449
 30
0.0
 11
408.367495
 21
237.929449
 31
0.0
  0
LINE
  5
16D
330
112
100
AcDbEntity
  8
0
  6
Continuous
 62
     0
370
    30
100
AcDbLine
 10
410.053195
 20
237.77878
 30
0.0
 11
409.407578
 21
237.929449
 31
0.0
  0
ARC
  5
16E
330
112
100
AcDbEntity
  8
0
  6
Continuous
 62
     0
370
    30
100
AcDbCircle
 10
409.542696
 20
237.207426
 30
0.0
 40
0.7661941717139851
100
AcDbArc
 50
350.737814
 51
48.21953
  0
LINE
  5
16F
330
112
100
AcDbEntity
  8
0
  6
Continuous
 62
     0
370
    30
100
AcDbLine
 10
410.484161
 20
237.084105
 30
0.0
 11
410.298901
 21
237.084105
 31
0.0
  0
LINE
  5
170
330
112
100
AcDbEntity
  8
0
  6
Continuous
 62
     0
370
    30
100
AcDbLine
 10
410.484161
 20
238.538772
 30
0.0
 11
410.484161
 21
237.084105
 31
0.0
  0
LINE
  5
171
330
112
100
AcDbEntity
  8
0
  6
Continuous
 62
     0
370
    30
100
AcDbLine
 10
410.342648
 20
238.538772
 30
0.0
 11
410.484161
 21
238.538772
 31
0.0
  0
ARC
  5
172
330
112
100
AcDbEntity
  8
0
  6
Continuous
 62
     0
370
    30
100
AcDbCircle
 10
550.296127
 20
235.494615
 30
0.0
 40
24.5
100
AcDbArc
 50
180.0
 51
360.0
  0
LINE
  5
173
330
112
100
AcDbEntity
  8
0
  6
Continuous
 62
     0
370
    30
100
AcDbLine
 10
553.632976
 20
237.446432
 30
0.0
 11
553.812893
 21
237.934589
 31
0.0
  0
LINE
  5
174
330
112
100
AcDbEntity
  8
0
  6
Continuous
 62
     0
370
    30
100
AcDbLine
 10
553.812893
 20
237.934589
 30
0.0
 11
554.225643
 21
238.068203
 31
0.0
  0
LINE
  5
175
330
112
100
AcDbEntity
  8
0
  6
Continuous
 62
     0
370
    30
100
AcDbLine
 10
554.225643
 20
238.142286
 30
0.0
 11
552.447643
 21
238.142286
 31
0.0
  0
LINE
  5
176
330
112
100
AcDbEntity
  8
0
  6
Continuous
 62
     0
370
    30
100
AcDbLine
 10
552.447643
 20
238.068203
 30
0.0
 11
552.864362
 21
237.93062
 31
0.0
  0
LINE
  5
177
330
112
100
AcDbEntity
  8
0
  6
Continuous
 62
     0
370
    30
100
AcDbLine
 10
552.864362
 20
237.93062
 30
0.0
 11
553.04031
 21
237.446432
 31
0.0
  0
LINE
  5
178
330
112
100
AcDbEntity
  8
0
  6
Continuous
 62
     0
370
    30
100
AcDbLine
 10
553.04031
 20
237.446432
 30
0.0
 11
553.04031
 21
233.227651
 31
0.0
  0
LINE
  5
179
330
112
100
AcDbEntity
  8
0
  6
Continuous
 62
     0
370
    30
100
AcDbLine
 10
553.04031
 20
233.227651
 30
0.0
 11
552.882882
 21
232.775214
 31
0.0
  0
LINE
  5
17A
330
112
100
AcDbEntity
  8
0
  6
Continuous
 62
     0
370
    30
100
AcDbLine
 10
552.882882
 20
232.775214
 30
0.0
 11
552.523049
 21
232.613818
 31
0.0
  0
LINE
  5
17B
330
112
100
AcDbEntity
  8
0
  6
Continuous
 62
     0
370
    30
100
AcDbLine
 10
552.447643
 20
232.552964
 30
0.0
 11
555.735091
 21
232.552964
 31
0.0
  0
LINE
  5
17C
330
112
100
AcDbEntity
  8
0
  6
Continuous
 62
     0
370
    30
100
AcDbLine
 10
555.735091
 20
232.552964
 30
0.0
 11
555.944112
 21
233.496203
 31
0.0
  0
LINE
  5
17D
330
112
100
AcDbEntity
  8
0
  6
Continuous
 62
     0
370
    30
100
AcDbLine
 10
555.880612
 20
233.496203
 30
0.0
 11
555.661007
 21
233.04112
 31
0.0
  0
LINE
  5
17E
330
112
100
AcDbEntity
  8
0
  6
Continuous
 62
     0
370
    30
100
AcDbLine
 10
555.661007
 20
233.04112
 30
0.0
 11
555.36732
 21
232.801672
 31
0.0
  0
LINE
  5
17F
330
112
100
AcDbEntity
  8
0
  6
Continuous
 62
     0
370
    30
100
AcDbLine
 10
555.36732
 20
232.801672
 30
0.0
 11
554.872549
 21
232.72362
 31
0.0
  0
LINE
  5
180
330
112
100
AcDbEntity
  8
0
  6
Continuous
 62
     0
370
    30
100
AcDbLine
 10
554.872549
 20
232.72362
 30
0.0
 11
554.398945
 21
232.72362
 31
0.0
  0
LINE
  5
181
330
112
100
AcDbEntity
  8
0
  6
Continuous
 62
     0
370
    30
100
AcDbLine
 10
554.398945
 20
232.72362
 30
0.0
 11
553.81157
 21
232.863849
 31
0.0
  0
LINE
  5
182
330
112
100
AcDbEntity
  8
0
  6
Continuous
 62
     0
370
    30
100
AcDbLine
 10
553.81157
 20
232.863849
 30
0.0
 11
553.632976
 21
233.36788
 31
0.0
  0
LINE
  5
183
330
112
100
AcDbEntity
  8
0
  6
Continuous
 62
     0
370
    30
100
AcDbLine
 10
553.632976
 20
233.36788
 30
0.0
 11
553.632976
 21
237.446432
 31
0.0
  0
LINE
  5
184
330
112
100
AcDbEntity
  8
0
  6
Continuous
 62
     0
370
    30
100
AcDbLine
 10
558.413958
 20
233.24088
 30
0.0
 11
558.293732
 21
232.850118
 31
0.0
  0
LINE
  5
185
330
112
100
AcDbEntity
  8
0
  6
Continuous
 62
     0
370
    30
100
AcDbLine
 10
558.293732
 20
232.850118
 30
0.0
 11
557.946697
 21
232.677047
 31
0.0
  0
LINE
  5
186
330
112
100
AcDbEntity
  8
0
  6
Continuous
 62
     0
370
    30
100
AcDbLine
 10
557.946697
 20
232.677047
 30
0.0
 11
557.821291
 21
232.677047
 31
0.0
  0
LINE
  5
187
330
112
100
AcDbEntity
  8
0
  6
Continuous
 62
     0
370
    30
100
AcDbLine
 10
557.821291
 20
232.677047
 30
0.0
 11
557.821291
 21
232.516193
 31
0.0
  0
LINE
  5
188
330
112
100
AcDbEntity
  8
0
  6
Continuous
 62
     0
370
    30
100
AcDbLine
 10
557.821291
 20
232.516193
 30
0.0
 11
560.35176
 21
232.516193
 31
0.0
  0
LINE
  5
189
330
112
100
AcDbEntity
  8
0
  6
Continuous
 62
     0
370
    30
100
AcDbLine
 10
560.35176
 20
232.516193
 30
0.0
 11
561.298055
 21
232.615985
 31
0.0
  0
LINE
  5
18A
330
112
100
AcDbEntity
  8
0
  6
Continuous
 62
     0
370
    30
100
AcDbLine
 10
561.298055
 20
232.615985
 30
0.0
 11
561.921391
 21
232.87922
 31
0.0
  0
LINE
  5
18B
330
112
100
AcDbEntity
  8
0
  6
Continuous
 62
     0
370
    30
100
AcDbLine
 10
561.921391
 20
232.87922
 30
0.0
 11
562.472524
 21
233.318471
 31
0.0
  0
LINE
  5
18C
330
112
100
AcDbEntity
  8
0
  6
Continuous
 62
     0
370
    30
100
AcDbLine
 10
562.472524
 20
233.318471
 30
0.0
 11
562.880872
 21
233.860228
 31
0.0
  0
LINE
  5
18D
330
112
100
AcDbEntity
  8
0
  6
Continuous
 62
     0
370
    30
100
AcDbLine
 10
562.880872
 20
233.860228
 30
0.0
 11
563.142551
 21
234.510181
 31
0.0
  0
LINE
  5
18E
330
112
100
AcDbEntity
  8
0
  6
Continuous
 62
     0
370
    30
100
AcDbLine
 10
563.142551
 20
234.510181
 30
0.0
 11
563.234125
 21
235.250391
 31
0.0
  0
LINE
  5
18F
330
112
100
AcDbEntity
  8
0
  6
Continuous
 62
     0
370
    30
100
AcDbLine
 10
563.234125
 20
235.250391
 30
0.0
 11
563.141297
 21
236.003561
 31
0.0
  0
LINE
  5
190
330
112
100
AcDbEntity
  8
0
  6
Continuous
 62
     0
370
    30
100
AcDbLine
 10
563.141297
 20
236.003561
 30
0.0
 11
562.862564
 21
236.69971
 31
0.0
  0
LINE
  5
191
330
112
100
AcDbEntity
  8
0
  6
Continuous
 62
     0
370
    30
100
AcDbLine
 10
562.862564
 20
236.69971
 30
0.0
 11
562.411837
 21
237.298558
 31
0.0
  0
LINE
  5
192
330
112
100
AcDbEntity
  8
0
  6
Continuous
 62
     0
370
    30
100
AcDbLine
 10
562.411837
 20
237.298558
 30
0.0
 11
562.036808
 21
237.616981
 31
0.0
  0
LINE
  5
193
330
112
100
AcDbEntity
  8
0
  6
Continuous
 62
     0
370
    30
100
AcDbLine
 10
562.036808
 20
237.616981
 30
0.0
 11
561.513231
 21
237.903774
 31
0.0
  0
LINE
  5
194
330
112
100
AcDbEntity
  8
0
  6
Continuous
 62
     0
370
    30
100
AcDbLine
 10
561.513231
 20
237.903774
 30
0.0
 11
560.828886
 21
238.113196
 31
0.0
  0
LINE
  5
195
330
112
100
AcDbEntity
  8
0
  6
Continuous
 62
     0
370
    30
100
AcDbLine
 10
560.828886
 20
238.113196
 30
0.0
 11
559.997218
 21
238.192286
 31
0.0
  0
LINE
  5
196
330
112
100
AcDbEntity
  8
0
  6
Continuous
 62
     0
370
    30
100
AcDbLine
 10
559.997218
 20
238.192286
 30
0.0
 11
557.821291
 21
238.192286
 31
0.0
  0
LINE
  5
197
330
112
100
AcDbEntity
  8
0
  6
Continuous
 62
     0
370
    30
100
AcDbLine
 10
557.821291
 20
238.192286
 30
0.0
 11
557.821291
 21
238.027464
 31
0.0
  0
LINE
  5
198
330
112
100
AcDbEntity
  8
0
  6
Continuous
 62
     0
370
    30
100
AcDbLine
 10
557.821291
 20
238.027464
 30
0.0
 11
557.946697
 21
238.027464
 31
0.0
  0
LINE
  5
199
330
112
100
AcDbEntity
  8
0
  6
Continuous
 62
     0
370
    30
100
AcDbLine
 10
557.946697
 20
238.027464
 30
0.0
 11
558.182988
 21
237.968956
 31
0.0
  0
LINE
  5
19A
330
112
100
AcDbEntity
  8
0
  6
Continuous
 62
     0
370
    30
100
AcDbLine
 10
558.182988
 20
237.968956
 30
0.0
 11
558.348716
 21
237.783414
 31
0.0
  0
LINE
  5
19B
330
112
100
AcDbEntity
  8
0
  6
Continuous
 62
     0
370
    30
100
AcDbLine
 10
558.348716
 20
237.783414
 30
0.0
 11
558.413958
 21
237.449078
 31
0.0
  0
LINE
  5
19C
330
112
100
AcDbEntity
  8
0
  6
Continuous
 62
     0
370
    30
100
AcDbLine
 10
558.413958
 20
237.449078
 30
0.0
 11
558.413958
 21
233.24088
 31
0.0
  0
LINE
  5
19D
330
112
100
AcDbEntity
  8
0
  6
Continuous
 62
     0
370
    30
100
AcDbLine
 10
559.106625
 20
237.833951
 30
0.0
 11
559.962822
 21
237.917661
 31
0.0
  0
LINE
  5
19E
330
112
100
AcDbEntity
  8
0
  6
Continuous
 62
     0
370
    30
100
AcDbLine
 10
559.962822
 20
237.917661
 30
0.0
 11
561.136811
 21
237.680633
 31
0.0
  0
LINE
  5
19F
330
112
100
AcDbEntity
  8
0
  6
Continuous
 62
     0
370
    30
100
AcDbLine
 10
561.136811
 20
237.680633
 30
0.0
 11
561.930773
 21
237.025168
 31
0.0
  0
LINE
  5
1A0
330
112
100
AcDbEntity
  8
0
  6
Continuous
 62
     0
370
    30
100
AcDbLine
 10
561.930773
 20
237.025168
 30
0.0
 11
562.342259
 21
236.176064
 31
0.0
  0
LINE
  5
1A1
330
112
100
AcDbEntity
  8
0
  6
Continuous
 62
     0
370
    30
100
AcDbLine
 10
562.342259
 20
236.176064
 30
0.0
 11
562.477958
 21
235.20938
 31
0.0
  0
LINE
  5
1A2
330
112
100
AcDbEntity
  8
0
  6
Continuous
 62
     0
370
    30
100
AcDbLine
 10
562.477958
 20
235.20938
 30
0.0
 11
562.310642
 21
234.154462
 31
0.0
  0
LINE
  5
1A3
330
112
100
AcDbEntity
  8
0
  6
Continuous
 62
     0
370
    30
100
AcDbLine
 10
562.310642
 20
234.154462
 30
0.0
 11
561.866789
 21
233.421625
 31
0.0
  0
LINE
  5
1A4
330
112
100
AcDbEntity
  8
0
  6
Continuous
 62
     0
370
    30
100
AcDbLine
 10
561.866789
 20
233.421625
 30
0.0
 11
561.098455
 21
232.903917
 31
0.0
  0
LINE
  5
1A5
330
112
100
AcDbEntity
  8
0
  6
Continuous
 62
     0
370
    30
100
AcDbLine
 10
561.098455
 20
232.903917
 30
0.0
 11
560.108343
 21
232.786849
 31
0.0
  0
LINE
  5
1A6
330
112
100
AcDbEntity
  8
0
  6
Continuous
 62
     0
370
    30
100
AcDbLine
 10
560.108343
 20
232.786849
 30
0.0
 11
559.487522
 21
232.830775
 31
0.0
  0
LINE
  5
1A7
330
112
100
AcDbEntity
  8
0
  6
Continuous
 62
     0
370
    30
100
AcDbLine
 10
559.487522
 20
232.830775
 30
0.0
 11
559.199981
 21
233.009488
 31
0.0
  0
LINE
  5
1A8
330
112
100
AcDbEntity
  8
0
  6
Continuous
 62
     0
370
    30
100
AcDbLine
 10
559.199981
 20
233.009488
 30
0.0
 11
559.106625
 21
233.459161
 31
0.0
  0
LINE
  5
1A9
330
112
100
AcDbEntity
  8
0
  6
Continuous
 62
     0
370
    30
100
AcDbLine
 10
559.106625
 20
233.459161
 30
0.0
 11
559.106625
 21
237.833951
 31
0.0
  0
LINE
  5
1AA
330
112
100
AcDbEntity
  8
0
  6
Continuous
 62
     0
370
    30
100
AcDbLine
 10
548.345299
 20
238.146303
 30
0.0
 11
549.293979
 21
237.52469
 31
0.0
  0
LINE
  5
1AB
330
112
100
AcDbEntity
  8
0
  6
Continuous
 62
     0
370
    30
100
AcDbLine
 10
547.243078
 20
238.36162
 30
0.0
 11
548.345299
 21
238.146303
 31
0.0
  0
LINE
  5
1AC
330
112
100
AcDbEntity
  8
0
  6
Continuous
 62
     0
370
    30
100
AcDbLine
 10
546.117856
 20
238.136833
 30
0.0
 11
547.243078
 21
238.36162
 31
0.0
  0
LINE
  5
1AD
330
112
100
AcDbEntity
  8
0
  6
Continuous
 62
     0
370
    30
100
AcDbLine
 10
545.160192
 20
237.501973
 30
0.0
 11
546.117856
 21
238.136833
 31
0.0
  0
LINE
  5
1AE
330
112
100
AcDbEntity
  8
0
  6
Continuous
 62
     0
370
    30
100
AcDbLine
 10
544.506198
 20
236.537183
 30
0.0
 11
545.160192
 21
237.501973
 31
0.0
  0
LINE
  5
1AF
330
112
100
AcDbEntity
  8
0
  6
Continuous
 62
     0
370
    30
100
AcDbLine
 10
544.276177
 20
235.494615
 30
0.0
 11
544.506198
 21
236.537183
 31
0.0
  0
LINE
  5
1B0
330
112
100
AcDbEntity
  8
0
  6
Continuous
 62
     0
370
     0
100
AcDbLine
 10
545.03156
 20
235.494633
 30
0.0
 11
544.276177
 21
235.494633
 31
0.0
  0
LINE
  5
1B1
330
112
100
AcDbEntity
  8
0
  6
Continuous
 62
     0
370
    30
100
AcDbLine
 10
545.254727
 20
236.710522
 30
0.0
 11
545.03156
 21
235.494615
 31
0.0
  0
LINE
  5
1B2
330
112
100
AcDbEntity
  8
0
  6
Continuous
 62
     0
370
    30
100
AcDbLine
 10
545.82339
 20
237.560895
 30
0.0
 11
545.254727
 21
236.710522
 31
0.0
  0
LINE
  5
1B3
330
112
100
AcDbEntity
  8
0
  6
Continuous
 62
     0
370
    30
100
AcDbLine
 10
546.532966
 20
237.976802
 30
0.0
 11
545.82339
 21
237.560895
 31
0.0
  0
LINE
  5
1B4
330
112
100
AcDbEntity
  8
0
  6
Continuous
 62
     0
370
    30
100
AcDbLine
 10
547.241755
 20
238.090964
 30
0.0
 11
546.532966
 21
237.976802
 31
0.0
  0
LINE
  5
1B5
330
112
100
AcDbEntity
  8
0
  6
Continuous
 62
     0
370
    30
100
AcDbLine
 10
548.180053
 20
237.879285
 30
0.0
 11
547.241755
 21
238.090964
 31
0.0
  0
LINE
  5
1B6
330
112
100
AcDbEntity
  8
0
  6
Continuous
 62
     0
370
    30
100
AcDbLine
 10
549.055193
 20
237.04986
 30
0.0
 11
548.180053
 21
237.879285
 31
0.0
  0
ARC
  5
1B7
330
112
100
AcDbEntity
  8
0
  6
Continuous
 62
     0
370
    30
100
AcDbCircle
 10
546.232135
 20
235.535162
 30
0.0
 40
3.203743063700864
100
AcDbArc
 50
359.27484
 51
28.215567
  0
LINE
  5
1B8
330
112
100
AcDbEntity
  8
0
  6
Continuous
 62
     0
370
     0
100
AcDbLine
 10
550.190705
 20
235.494633
 30
0.0
 11
549.435622
 21
235.494633
 31
0.0
  0
LINE
  5
1B9
330
112
100
AcDbEntity
  8
0
  6
Continuous
 62
     0
370
    30
100
AcDbLine
 10
549.954706
 20
236.558621
 30
0.0
 11
550.190705
 21
235.494615
 31
0.0
  0
LINE
  5
1BA
330
112
100
AcDbEntity
  8
0
  6
Continuous
 62
     0
370
    30
100
AcDbLine
 10
549.293979
 20
237.52469
 30
0.0
 11
549.954706
 21
236.558621
 31
0.0
  0
LINE
  5
1BB
330
112
100
AcDbEntity
  8
0
  6
Continuous
 62
     0
370
    30
100
AcDbLine
 10
549.438067
 20
235.321828
 30
0.0
 11
549.435622
 21
235.494615
 31
0.0
  0
LINE
  5
1BC
330
112
100
AcDbEntity
  8
0
  6
Continuous
 62
     0
370
    30
100
AcDbLine
 10
549.237545
 20
234.020499
 30
0.0
 11
549.438067
 21
235.321828
 31
0.0
  0
LINE
  5
1BD
330
112
100
AcDbEntity
  8
0
  6
Continuous
 62
     0
370
    30
100
AcDbLine
 10
548.716655
 20
233.184421
 30
0.0
 11
549.237545
 21
234.020499
 31
0.0
  0
LINE
  5
1BE
330
112
100
AcDbEntity
  8
0
  6
Continuous
 62
     0
370
    30
100
AcDbLine
 10
548.012133
 20
232.741624
 30
0.0
 11
548.716655
 21
233.184421
 31
0.0
  0
LINE
  5
1BF
330
112
100
AcDbEntity
  8
0
  6
Continuous
 62
     0
370
    30
100
AcDbLine
 10
547.249692
 20
232.605609
 30
0.0
 11
548.012133
 21
232.741624
 31
0.0
  0
LINE
  5
1C0
330
112
100
AcDbEntity
  8
0
  6
Continuous
 62
     0
370
    30
100
AcDbLine
 10
546.436559
 20
232.7532
 30
0.0
 11
547.249692
 21
232.605609
 31
0.0
  0
LINE
  5
1C1
330
112
100
AcDbEntity
  8
0
  6
Continuous
 62
     0
370
    30
100
AcDbLine
 10
545.724489
 20
233.233413
 30
0.0
 11
546.436559
 21
232.7532
 31
0.0
  0
LINE
  5
1C2
330
112
100
AcDbEntity
  8
0
  6
Continuous
 62
     0
370
    30
100
AcDbLine
 10
545.215917
 20
234.096184
 30
0.0
 11
545.724489
 21
233.233413
 31
0.0
  0
LINE
  5
1C3
330
112
100
AcDbEntity
  8
0
  6
Continuous
 62
     0
370
    30
100
AcDbLine
 10
545.029567
 20
235.344318
 30
0.0
 11
545.215917
 21
234.096184
 31
0.0
  0
LINE
  5
1C4
330
112
100
AcDbEntity
  8
0
  6
Continuous
 62
     0
370
    30
100
AcDbLine
 10
545.03156
 20
235.494615
 30
0.0
 11
545.029567
 21
235.344318
 31
0.0
  0
LINE
  5
1C5
330
112
100
AcDbEntity
  8
0
  6
Continuous
 62
     0
370
    30
100
AcDbLine
 10
544.273401
 20
235.35887
 30
0.0
 11
544.276177
 21
235.494615
 31
0.0
  0
ARC
  5
1C6
330
112
100
AcDbEntity
  8
0
  6
Continuous
 62
     0
370
    30
100
AcDbCircle
 10
547.313154
 20
235.340602
 30
0.0
 40
3.039808499134969
100
AcDbArc
 50
179.655686
 51
209.451625
  0
ARC
  5
1C7
330
112
100
AcDbEntity
  8
0
  6
Continuous
 62
     0
370
    30
100
AcDbCircle
 10
547.277691
 20
235.32223
 30
0.0
 40
2.999894605962555
100
AcDbArc
 50
209.479104
 51
239.245736
  0
ARC
  5
1C8
330
112
100
AcDbEntity
  8
0
  6
Continuous
 62
     0
370
    30
100
AcDbCircle
 10
547.230681
 20
235.240514
 30
0.0
 40
2.905632443922136
100
AcDbArc
 50
239.218386
 51
270.400974
  0
ARC
  5
1C9
330
112
100
AcDbEntity
  8
0
  6
Continuous
 62
     0
370
    30
100
AcDbCircle
 10
547.272968
 20
235.172498
 30
0.0
 40
2.837629522657581
100
AcDbArc
 50
269.55673
 51
301.16513
  0
ARC
  5
1CA
330
112
100
AcDbEntity
  8
0
  6
Continuous
 62
     0
370
    30
100
AcDbCircle
 10
547.186728
 20
235.311047
 30
0.0
 40
3.000814209481252
100
AcDbArc
 50
301.205104
 51
330.71829
  0
ARC
  5
1CB
330
112
100
AcDbEntity
  8
0
  6
Continuous
 62
     0
370
    30
100
AcDbCircle
 10
547.197887
 20
235.321799
 30
0.0
 40
2.996376502607851
100
AcDbArc
 50
330.434616
 51
0.253531
  0
LINE
  5
1CC
330
112
100
AcDbEntity
  8
0
  6
Continuous
 62
     0
370
    30
100
AcDbLine
 10
550.190705
 20
235.494615
 30
0.0
 11
550.194234
 21
235.335057
 31
0.0
  0
LINE
  5
1CD
330
112
100
AcDbEntity
  8
0
  6
Continuous
 62
     0
370
    30
100
AcDbLine
 10
537.373387
 20
234.190787
 30
0.0
 11
537.182501
 21
235.266266
 31
0.0
  0
LINE
  5
1CE
330
112
100
AcDbEntity
  8
0
  6
Continuous
 62
     0
370
    30
100
AcDbLine
 10
537.93859
 20
233.247372
 30
0.0
 11
537.373387
 21
234.190787
 31
0.0
  0
LINE
  5
1CF
330
112
100
AcDbEntity
  8
0
  6
Continuous
 62
     0
370
    30
100
AcDbLine
 10
538.853482
 20
232.58156
 30
0.0
 11
537.93859
 21
233.247372
 31
0.0
  0
LINE
  5
1D0
330
112
100
AcDbEntity
  8
0
  6
Continuous
 62
     0
370
    30
100
AcDbLine
 10
540.050313
 20
232.334953
 30
0.0
 11
538.853482
 21
232.58156
 31
0.0
  0
LINE
  5
1D1
330
112
100
AcDbEntity
  8
0
  6
Continuous
 62
     0
370
    30
100
AcDbLine
 10
541.090917
 20
232.524618
 30
0.0
 11
540.050313
 21
232.334953
 31
0.0
  0
LINE
  5
1D2
330
112
100
AcDbEntity
  8
0
  6
Continuous
 62
     0
370
    30
100
AcDbLine
 10
542.023834
 20
233.13104
 30
0.0
 11
541.090917
 21
232.524618
 31
0.0
  0
LINE
  5
1D3
330
112
100
AcDbEntity
  8
0
  6
Continuous
 62
     0
370
    30
100
AcDbLine
 10
542.023834
 20
233.494795
 30
0.0
 11
542.023834
 21
233.13104
 31
0.0
  0
LINE
  5
1D4
330
112
100
AcDbEntity
  8
0
  6
Continuous
 62
     0
370
    30
100
AcDbLine
 10
541.055306
 20
232.844972
 30
0.0
 11
542.023834
 21
233.494795
 31
0.0
  0
LINE
  5
1D5
330
112
100
AcDbEntity
  8
0
  6
Continuous
 62
     0
370
    30
100
AcDbLine
 10
540.156147
 20
232.675724
 30
0.0
 11
541.055306
 21
232.844972
 31
0.0
  0
LINE
  5
1D6
330
112
100
AcDbEntity
  8
0
  6
Continuous
 62
     0
370
    30
100
AcDbLine
 10
539.265601
 20
232.860303
 30
0.0
 11
540.156147
 21
232.675724
 31
0.0
  0
LINE
  5
1D7
330
112
100
AcDbEntity
  8
0
  6
Continuous
 62
     0
370
    30
100
AcDbLine
 10
538.561966
 20
233.407961
 30
0.0
 11
539.265601
 21
232.860303
 31
0.0
  0
LINE
  5
1D8
330
112
100
AcDbEntity
  8
0
  6
Continuous
 62
     0
370
    30
100
AcDbLine
 10
538.097645
 20
234.26695
 30
0.0
 11
538.561966
 21
233.407961
 31
0.0
  0
LINE
  5
1D9
330
112
100
AcDbEntity
  8
0
  6
Continuous
 62
     0
370
    30
100
AcDbLine
 10
537.938668
 20
235.345641
 30
0.0
 11
538.097645
 21
234.26695
 31
0.0
  0
LINE
  5
1DA
330
112
100
AcDbEntity
  8
0
  6
Continuous
 62
     0
370
    30
100
AcDbLine
 10
537.941247
 20
235.494615
 30
0.0
 11
537.938668
 21
235.345641
 31
0.0
  0
LINE
  5
1DB
330
112
100
AcDbEntity
  8
0
  6
Continuous
 62
     0
370
     0
100
AcDbLine
 10
537.941247
 20
235.494633
 30
0.0
 11
537.19017
 21
235.494633
 31
0.0
  0
LINE
  5
1DC
330
112
100
AcDbEntity
  8
0
  6
Continuous
 62
     0
370
    30
100
AcDbLine
 10
537.182501
 20
235.266266
 30
0.0
 11
537.19017
 21
235.494615
 31
0.0
  0
LINE
  5
1DD
330
112
100
AcDbEntity
  8
0
  6
Continuous
 62
     0
370
    30
100
AcDbLine
 10
538.102933
 20
236.458714
 30
0.0
 11
537.941247
 21
235.494615
 31
0.0
  0
LINE
  5
1DE
330
112
100
AcDbEntity
  8
0
  6
Continuous
 62
     0
370
    30
100
AcDbLine
 10
538.563695
 20
237.331434
 30
0.0
 11
538.102933
 21
236.458714
 31
0.0
  0
LINE
  5
1DF
330
112
100
AcDbEntity
  8
0
  6
Continuous
 62
     0
370
    30
100
AcDbLine
 10
539.265351
 20
237.892343
 30
0.0
 11
538.563695
 21
237.331434
 31
0.0
  0
LINE
  5
1E0
330
112
100
AcDbEntity
  8
0
  6
Continuous
 62
     0
370
    30
100
AcDbLine
 10
540.132334
 20
238.090964
 30
0.0
 11
539.265351
 21
237.892343
 31
0.0
  0
LINE
  5
1E1
330
112
100
AcDbEntity
  8
0
  6
Continuous
 62
     0
370
    30
100
AcDbLine
 10
540.860808
 20
237.956122
 30
0.0
 11
540.132334
 21
238.090964
 31
0.0
  0
LINE
  5
1E2
330
112
100
AcDbEntity
  8
0
  6
Continuous
 62
     0
370
    30
100
AcDbLine
 10
541.548685
 20
237.532325
 30
0.0
 11
540.860808
 21
237.956122
 31
0.0
  0
LINE
  5
1E3
330
112
100
AcDbEntity
  8
0
  6
Continuous
 62
     0
370
    30
100
AcDbLine
 10
541.920724
 20
236.822286
 30
0.0
 11
541.548685
 21
237.532325
 31
0.0
  0
LINE
  5
1E4
330
112
100
AcDbEntity
  8
0
  6
Continuous
 62
     0
370
    30
100
AcDbLine
 10
542.108501
 20
236.822286
 30
0.0
 11
541.920724
 21
236.822286
 31
0.0
  0
LINE
  5
1E5
330
112
100
AcDbEntity
  8
0
  6
Continuous
 62
     0
370
    30
100
AcDbLine
 10
542.108501
 20
238.276953
 30
0.0
 11
542.108501
 21
236.822286
 31
0.0
  0
LINE
  5
1E6
330
112
100
AcDbEntity
  8
0
  6
Continuous
 62
     0
370
    30
100
AcDbLine
 10
541.982916
 20
238.276953
 30
0.0
 11
542.108501
 21
238.276953
 31
0.0
  0
LINE
  5
1E7
330
112
100
AcDbEntity
  8
0
  6
Continuous
 62
     0
370
    30
100
AcDbLine
 10
541.903991
 20
238.070733
 30
0.0
 11
541.982916
 21
238.276953
 31
0.0
  0
LINE
  5
1E8
330
112
100
AcDbEntity
  8
0
  6
Continuous
 62
     0
370
    30
100
AcDbLine
 10
541.748938
 20
238.022953
 30
0.0
 11
541.903991
 21
238.070733
 31
0.0
  0
LINE
  5
1E9
330
112
100
AcDbEntity
  8
0
  6
Continuous
 62
     0
370
    30
100
AcDbLine
 10
541.576754
 20
238.055731
 30
0.0
 11
541.748938
 21
238.022953
 31
0.0
  0
LINE
  5
1EA
330
112
100
AcDbEntity
  8
0
  6
Continuous
 62
     0
370
    30
100
AcDbLine
 10
541.188025
 20
238.212284
 30
0.0
 11
541.576754
 21
238.055731
 31
0.0
  0
LINE
  5
1EB
330
112
100
AcDbEntity
  8
0
  6
Continuous
 62
     0
370
    30
100
AcDbLine
 10
540.140272
 20
238.36162
 30
0.0
 11
541.188025
 21
238.212284
 31
0.0
  0
ARC
  5
1EC
330
112
100
AcDbEntity
  8
0
  6
Continuous
 62
     0
370
    30
100
AcDbCircle
 10
540.132367
 20
235.552796
 30
0.0
 40
2.808834930708688
100
AcDbArc
 50
89.838757
 51
121.638242
  0
ARC
  5
1ED
330
112
100
AcDbEntity
  8
0
  6
Continuous
 62
     0
370
    30
100
AcDbCircle
 10
540.24531
 20
235.35145
 30
0.0
 40
3.039515897281552
100
AcDbArc
 50
121.45992
 51
151.253657
  0
ARC
  5
1EE
330
112
100
AcDbEntity
  8
0
  6
Continuous
 62
     0
370
    30
100
AcDbCircle
 10
540.310428
 20
235.2883
 30
0.0
 40
3.127071199866378
100
AcDbArc
 50
150.813003
 51
176.217048
  0
LINE
  5
1EF
330
112
100
AcDbEntity
  8
0
  6
Continuous
 62
     0
370
    30
100
AcDbLine
 10
464.296127
 20
183.694634
 30
0.0
 11
464.296127
 21
187.99461
 31
0.0
  0
LINE
  5
1F0
330
112
100
AcDbEntity
  8
0
  6
Continuous
 62
     0
370
     0
100
AcDbLine
 10
486.296127
 20
187.99461
 30
0.0
 11
464.296127
 21
187.99461
 31
0.0
  0
LINE
  5
1F1
330
112
100
AcDbEntity
  8
0
  6
Continuous
 62
     0
370
    30
100
AcDbLine
 10
464.296127
 20
187.99461
 30
0.0
 11
464.296127
 21
235.494612
 31
0.0
  0
ARC
  5
1F2
330
112
100
AcDbEntity
  8
0
  6
Continuous
 62
     0
370
    30
100
AcDbCircle
 10
475.296127
 20
235.494612
 30
0.0
 40
11.0
100
AcDbArc
 50
360.0
 51
180.0
  0
LINE
  5
1F3
330
112
100
AcDbEntity
  8
0
  6
Continuous
 62
     0
370
    30
100
AcDbLine
 10
486.296127
 20
235.494612
 30
0.0
 11
486.296127
 21
187.99461
 31
0.0
  0
LINE
  5
1F4
330
112
100
AcDbEntity
  8
0
  6
Continuous
 62
     0
370
    30
100
AcDbLine
 10
486.296127
 20
187.99461
 30
0.0
 11
486.296127
 21
183.694634
 31
0.0
  0
LINE
  5
1F5
330
112
100
AcDbEntity
  8
0
  6
Continuous
 62
     0
370
    30
100
AcDbLine
 10
464.254446
 20
183.694634
 30
0.0
 11
463.546127
 21
183.694634
 31
0.0
  0
LINE
  5
1F6
330
112
100
AcDbEntity
  8
0
  6
Continuous
 62
     0
370
    30
100
AcDbLine
 10
487.046127
 20
183.694634
 30
0.0
 11
464.254446
 21
183.694634
 31
0.0
  0
LINE
  5
1F7
330
112
100
AcDbEntity
  8
0
  6
Continuous
 62
     0
370
     0
100
AcDbLine
 10
464.019517
 20
183.444634
 30
0.0
 11
463.296127
 21
183.444634
 31
0.0
  0
LINE
  5
1F8
330
112
100
AcDbEntity
  8
0
  6
Continuous
 62
     0
370
     0
100
AcDbLine
 10
487.296127
 20
183.444634
 30
0.0
 11
464.019517
 21
183.444634
 31
0.0
  0
LINE
  5
1F9
330
112
100
AcDbEntity
  8
0
  6
Continuous
 62
     0
370
     0
100
AcDbLine
 10
464.019517
 20
181.444634
 30
0.0
 11
463.296127
 21
181.444634
 31
0.0
  0
LINE
  5
1FA
330
112
100
AcDbEntity
  8
0
  6
Continuous
 62
     0
370
     0
100
AcDbLine
 10
487.296127
 20
181.444634
 30
0.0
 11
464.019517
 21
181.444634
 31
0.0
  0
LINE
  5
1FB
330
112
100
AcDbEntity
  8
0
  6
Continuous
 62
     0
370
    30
100
AcDbLine
 10
464.254446
 20
181.194634
 30
0.0
 11
463.546127
 21
181.194634
 31
0.0
  0
LINE
  5
1FC
330
112
100
AcDbEntity
  8
0
  6
Continuous
 62
     0
370
    30
100
AcDbLine
 10
487.046127
 20
181.194634
 30
0.0
 11
464.254446
 21
181.194634
 31
0.0
  0
LINE
  5
1FD
330
112
100
AcDbEntity
  8
0
  6
Continuous
 62
     0
370
    30
100
AcDbLine
 10
486.337808
 20
181.194634
 30
0.0
 11
487.046127
 21
181.194634
 31
0.0
  0
LINE
  5
1FE
330
112
100
AcDbEntity
  8
0
  6
Continuous
 62
     0
370
     0
100
AcDbLine
 10
464.959235
 20
180.944634
 30
0.0
 11
464.296128
 21
180.944634
 31
0.0
  0
LINE
  5
1FF
330
112
100
AcDbEntity
  8
0
  6
Continuous
 62
     0
370
     0
100
AcDbLine
 10
486.296127
 20
180.944634
 30
0.0
 11
464.959235
 21
180.944634
 31
0.0
  0
LINE
  5
200
330
112
100
AcDbEntity
  8
0
  6
Continuous
 62
     0
370
     0
100
AcDbLine
 10
464.959235
 20
163.944634
 30
0.0
 11
464.296128
 21
163.944634
 31
0.0
  0
LINE
  5
201
330
112
100
AcDbEntity
  8
0
  6
Continuous
 62
     0
370
     0
100
AcDbLine
 10
486.296127
 20
163.944634
 30
0.0
 11
464.959235
 21
163.944634
 31
0.0
  0
LINE
  5
202
330
112
100
AcDbEntity
  8
0
  6
Continuous
 62
     0
370
    30
100
AcDbLine
 10
464.546128
 20
163.694634
 30
0.0
 11
485.39809
 21
163.694634
 31
0.0
  0
LINE
  5
203
330
112
100
AcDbEntity
  8
0
  6
Continuous
 62
     0
370
    30
100
AcDbLine
 10
465.194164
 20
163.694634
 30
0.0
 11
464.546128
 21
163.694634
 31
0.0
  0
LINE
  5
204
330
112
100
AcDbEntity
  8
0
  6
Continuous
 62
     0
370
    30
100
AcDbLine
 10
486.046127
 20
163.694634
 30
0.0
 11
465.194164
 21
163.694634
 31
0.0
  0
LINE
  5
205
330
112
100
AcDbEntity
  8
0
  6
Continuous
 62
     0
370
    30
100
AcDbLine
 10
485.39809
 20
163.694634
 30
0.0
 11
486.046127
 21
163.694634
 31
0.0
  0
LINE
  5
206
330
112
100
AcDbEntity
  8
0
  6
Continuous
 62
     0
370
    30
100
AcDbLine
 10
486.296127
 20
180.944634
 30
0.0
 11
486.296127
 21
163.944634
 31
0.0
  0
LINE
  5
207
330
112
100
AcDbEntity
  8
0
  6
Continuous
 62
     0
370
    30
100
AcDbLine
 10
464.296128
 20
180.944634
 30
0.0
 11
464.296128
 21
163.944634
 31
0.0
  0
LINE
  5
208
330
112
100
AcDbEntity
  8
0
  6
Continuous
 62
     0
370
    30
100
AcDbLine
 10
487.296127
 20
183.444634
 30
0.0
 11
487.296127
 21
181.444634
 31
0.0
  0
LINE
  5
209
330
112
100
AcDbEntity
  8
0
  6
Continuous
 62
     0
370
    30
100
AcDbLine
 10
463.296127
 20
183.444634
 30
0.0
 11
463.296127
 21
181.444634
 31
0.0
  0
ARC
  5
20A
330
112
100
AcDbEntity
  8
0
  6
Continuous
 62
     0
370
    30
100
AcDbCircle
 10
400.296127
 20
235.494619
 30
0.0
 40
30.50000000000001
100
AcDbArc
 50
180.0
 51
328.359408
  0
ARC
  5
20B
330
112
100
AcDbEntity
  8
0
  6
Continuous
 62
     0
370
    30
100
AcDbCircle
 10
400.296127
 20
235.494619
 30
0.0
 40
30.50000000000001
100
AcDbArc
 50
31.640592
 51
180.0
  0
LWPOLYLINE
  5
20C
330
112
100
AcDbEntity
  8
0
  6
Continuous
 62
     0
370
    30
100
AcDbPolyline
 90
       35
 70
     0
 43
0.0
 10
467.296143
 20
251.494583
 10
467.331451
 20
251.476959
 10
467.436707
 20
251.424744
 10
467.61026
 20
251.339813
 10
467.849243
 20
251.225327
 10
468.150513
 20
251.0849
 10
468.510406
 20
250.923294
 10
468.925171
 20
250.745468
 10
469.391205
 20
250.556732
 10
469.90509
 20
250.362762
 10
470.463531
 20
250.16951
 10
471.063416
 20
249.983063
 10
471.701202
 20
249.809738
 10
472.373077
 20
249.65596
 10
473.074371
 20
249.527969
 10
473.799469
 20
249.431641
 10
474.541229
 20
249.371536
 10
475.291748
 20
249.351105
 10
476.042358
 20
249.371109
 10
476.784271
 20
249.43071
 10
477.509583
 20
249.526688
 10
478.211182
 20
249.654327
 10
478.883453
 20
249.807846
 10
479.521698
 20
249.980942
 10
480.121948
 20
250.167282
 10
480.680939
 20
250.360535
 10
481.195374
 20
250.554504
 10
481.661987
 20
250.743301
 10
482.077362
 20
250.92131
 10
482.437866
 20
251.083191
 10
482.739868
 20
251.223831
 10
482.979645
 20
251.338699
 10
483.1539
 20
251.423935
 10
483.259979
 20
251.476532
 10
483.296082
 20
251.494537
  0
ARC
  5
20D
330
112
100
AcDbEntity
  8
0
  6
Continuous
 62
     0
370
    30
100
AcDbCircle
 10
475.296127
 20
235.494616
 30
0.0
 40
11.99999790185404
100
AcDbArc
 50
180.0
 51
203.556441
  0
ARC
  5
20E
330
112
100
AcDbEntity
  8
0
  6
Continuous
 62
     0
370
    30
100
AcDbCircle
 10
475.296127
 20
235.494616
 30
0.0
 40
11.99999790185404
100
AcDbArc
 50
336.443559
 51
0.0
  0
ARC
  5
20F
330
112
100
AcDbEntity
  8
0
  6
Continuous
 62
     0
370
    30
100
AcDbCircle
 10
475.296127
 20
235.494616
 30
0.0
 40
11.99999790185404
100
AcDbArc
 50
0.0
 51
180.0
  0
LINE
  5
210
330
112
100
AcDbEntity
  8
0
  6
Continuous
 62
     0
370
    30
100
AcDbLine
 10
461.796097
 20
290.194681
 30
0.0
 11
488.796158
 21
290.194681
 31
0.0
  0
ARC
  5
211
330
112
100
AcDbEntity
  8
0
  6
Continuous
 62
     0
370
    30
100
AcDbCircle
 10
461.796097
 20
289.694681
 30
0.0
 40
0.5
100
AcDbArc
 50
90.0
 51
180.0
  0
LINE
  5
212
330
112
100
AcDbEntity
  8
0
  6
Continuous
 62
     0
370
     0
100
AcDbLine
 10
461.296097
 20
289.694681
 30
0.0
 11
489.296158
 21
289.694681
 31
0.0
  0
LINE
  5
213
330
112
100
AcDbEntity
  8
0
  6
Continuous
 62
     0
370
    30
100
AcDbLine
 10
461.296097
 20
289.694681
 30
0.0
 11
461.296097
 21
259.194618
 31
0.0
  0
LINE
  5
214
330
112
100
AcDbEntity
  8
0
  6
Continuous
 62
     0
370
    30
100
AcDbLine
 10
461.296097
 20
259.194618
 30
0.0
 11
489.296158
 21
259.194618
 31
0.0
  0
LINE
  5
215
330
112
100
AcDbEntity
  8
0
  6
Continuous
 62
     0
370
    30
100
AcDbLine
 10
467.296127
 20
259.194618
 30
0.0
 11
467.296127
 21
251.494588
 31
0.0
  0
ARC
  5
216
330
112
100
AcDbEntity
  8
0
  6
Continuous
 62
     0
370
    30
100
AcDbCircle
 10
550.296127
 20
235.494619
 30
0.0
 40
30.50000000000001
100
AcDbArc
 50
211.640592
 51
0.0
  0
ARC
  5
217
330
112
100
AcDbEntity
  8
0
  6
Continuous
 62
     0
370
    30
100
AcDbCircle
 10
550.296127
 20
235.494619
 30
0.0
 40
30.50000000000001
100
AcDbArc
 50
0.0
 51
148.359408
  0
LINE
  5
218
330
112
100
AcDbEntity
  8
0
  6
Continuous
 62
     0
370
    30
100
AcDbLine
 10
483.296127
 20
251.494543
 30
0.0
 11
483.296127
 21
259.194618
 31
0.0
  0
LINE
  5
219
330
112
100
AcDbEntity
  8
0
  6
Continuous
 62
     0
370
    30
100
AcDbLine
 10
489.296158
 20
259.194618
 30
0.0
 11
489.296158
 21
289.694681
 31
0.0
  0
LINE
  5
21A
330
112
100
AcDbEntity
  8
0
  6
Continuous
 62
     0
370
    30
100
AcDbLine
 10
527.01371
 20
219.494647
 30
0.0
 11
486.296127
 21
219.494647
 31
0.0
  0
LINE
  5
21B
330
112
100
AcDbEntity
  8
0
  6
Continuous
 62
     0
370
    30
100
AcDbLine
 10
464.296127
 20
219.494647
 30
0.0
 11
423.578411
 21
219.494647
 31
0.0
  0
LINE
  5
21C
330
112
100
AcDbEntity
  8
0
  6
Continuous
 62
     0
370
    30
100
AcDbLine
 10
527.01371
 20
251.494588
 30
0.0
 11
483.296083
 21
251.494588
 31
0.0
  0
LINE
  5
21D
330
112
100
AcDbEntity
  8
0
  6
Continuous
 62
     0
370
    30
100
AcDbLine
 10
467.296127
 20
251.494588
 30
0.0
 11
423.578263
 21
251.494588
 31
0.0
  0
CIRCLE
  5
21E
330
112
100
AcDbEntity
  8
0
  6
Continuous
 62
     0
370
    30
100
AcDbCircle
 10
400.296127
 20
235.494615
 30
0.0
 40
28.24999999999999
  0
CIRCLE
  5
21F
330
112
100
AcDbEntity
  8
0
  6
Continuous
 62
     0
370
    30
100
AcDbCircle
 10
400.296127
 20
235.494615
 30
0.0
 40
27.31829573934836
  0
ARC
  5
220
330
112
100
AcDbEntity
  8
0
  6
Continuous
 62
     0
370
    30
100
AcDbCircle
 10
400.296127
 20
235.494615
 30
0.0
 40
24.49999999354337
100
AcDbArc
 50
270.0
 51
180.0
  0
ARC
  5
221
330
112
100
AcDbEntity
  8
0
  6
Continuous
 62
     0
370
    30
100
AcDbCircle
 10
400.296127
 20
235.494615
 30
0.0
 40
24.49999999354335
100
AcDbArc
 50
180.0
 51
270.0
  0
CIRCLE
  5
222
330
112
100
AcDbEntity
  8
0
  6
Continuous
 62
     0
370
    30
100
AcDbCircle
 10
550.296127
 20
235.494615
 30
0.0
 40
28.24999999999999
  0
CIRCLE
  5
223
330
112
100
AcDbEntity
  8
0
  6
Continuous
 62
     0
370
    30
100
AcDbCircle
 10
550.296127
 20
235.494615
 30
0.0
 40
27.31829573934837
  0
ARC
  5
224
330
112
100
AcDbEntity
  8
0
  6
Continuous
 62
     0
370
    30
100
AcDbCircle
 10
550.296127
 20
235.494615
 30
0.0
 40
24.49999999354337
100
AcDbArc
 50
270.0
 51
180.0
  0
ENDBLK
  5
226
330
112
100
AcDbEntity
  8
0
100
AcDbBlockEnd
  0
BLOCK
  5
284
330
228
100
AcDbEntity
  8
0
100
AcDbBlockBegin
  2
c
 70
     0
 10
339.390015
 20
169.986176
 30
0.0
  3
c
  1

  0
LINE
  5
229
330
228
100
AcDbEntity
  8
0
  6
Continuous
 62
     0
370
    30
100
AcDbLine
 10
691.801594
 20
601.704153
 30
0.0
 11
691.801594
 21
601.053121
 31
0.0
  0
ARC
  5
22A
330
228
100
AcDbEntity
  8
0
  6
Continuous
 62
     0
370
    30
100
AcDbCircle
 10
691.801659
 20
201.80558
 30
0.0
 40
399.8985722337454
100
AcDbArc
 50
86.73019
 51
89.57309
  0
ARC
  5
22B
330
228
100
AcDbEntity
  8
0
  6
Continuous
 62
     0
370
    30
100
AcDbCircle
 10
691.801547
 20
201.805114
 30
0.0
 40
399.899037774717
100
AcDbArc
 50
90.387659
 51
93.269809
  0
LINE
  5
22C
330
228
100
AcDbEntity
  8
0
  6
Continuous
 62
     0
370
    30
100
AcDbLine
 10
689.271287
 20
601.663135
 30
0.0
 11
689.096104
 21
601.661988
 31
0.0
  0
LINE
  5
22D
330
228
100
AcDbEntity
  8
0
  6
Continuous
 62
     0
370
    30
100
AcDbLine
 10
689.837989
 20
601.681167
 30
0.0
 11
689.271287
 21
601.663135
 31
0.0
  0
LINE
  5
22E
330
228
100
AcDbEntity
  8
0
  6
Continuous
 62
     0
370
    30
100
AcDbLine
 10
691.801594
 20
601.685988
 30
0.0
 11
689.837989
 21
601.681167
 31
0.0
  0
LINE
  5
22F
330
228
100
AcDbEntity
  8
0
  6
Continuous
 62
     0
370
    30
100
AcDbLine
 10
694.043542
 20
601.679703
 30
0.0
 11
691.801594
 21
601.685988
 31
0.0
  0
LINE
  5
230
330
228
100
AcDbEntity
  8
0
  6
Continuous
 62
     0
370
    30
100
AcDbLine
 10
694.460211
 20
601.673729
 30
0.0
 11
694.043542
 21
601.679703
 31
0.0
  0
LINE
  5
231
330
228
100
AcDbEntity
  8
0
  6
Continuous
 62
     0
370
    30
100
AcDbLine
 10
694.778812
 20
601.660057
 30
0.0
 11
694.603508
 21
601.661324
 31
0.0
  0
LINE
  5
232
330
228
100
AcDbEntity
  8
0
  6
Continuous
 62
     0
370
    30
100
AcDbLine
 10
694.778812
 20
601.660057
 30
0.0
 11
694.778812
 21
601.460149
 31
0.0
  0
LINE
  5
233
330
228
100
AcDbEntity
  8
0
  6
Continuous
 62
     0
370
    30
100
AcDbLine
 10
694.603508
 20
601.661324
 30
0.0
 11
694.603508
 21
601.461416
 31
0.0
  0
LINE
  5
234
330
228
100
AcDbEntity
  8
0
  6
Continuous
 62
     0
370
     0
100
AcDbLine
 10
689.837989
 20
601.681167
 30
0.0
 11
689.837989
 21
601.481258
 31
0.0
  0
LINE
  5
235
330
228
100
AcDbEntity
  8
0
  6
Continuous
 62
     0
370
    30
100
AcDbLine
 10
689.271287
 20
601.663135
 30
0.0
 11
689.271287
 21
601.463227
 31
0.0
  0
LINE
  5
236
330
228
100
AcDbEntity
  8
0
  6
Continuous
 62
     0
370
    30
100
AcDbLine
 10
689.096104
 20
601.661988
 30
0.0
 11
689.096104
 21
601.46208
 31
0.0
  0
LINE
  5
237
330
228
100
AcDbEntity
  8
0
  6
Continuous
 62
     0
370
    30
100
AcDbLine
 10
689.151581
 20
601.794755
 30
0.0
 11
688.92677
 21
601.793577
 31
0.0
  0
LINE
  5
238
330
228
100
AcDbEntity
  8
0
  6
Continuous
 62
     0
370
    30
100
AcDbLine
 10
694.953437
 20
601.791481
 30
0.0
 11
694.77912
 21
601.792642
 31
0.0
  0
LINE
  5
239
330
228
100
AcDbEntity
  8
0
  6
Continuous
 62
     0
370
     0
100
AcDbLine
 10
739.301591
 20
717.305314
 30
0.0
 11
739.301591
 21
706.305314
 31
0.0
  0
LINE
  5
23A
330
228
100
AcDbEntity
  8
0
  6
Continuous
 62
     0
370
     0
100
AcDbLine
 10
739.301591
 20
728.305314
 30
0.0
 11
739.301591
 21
717.305314
 31
0.0
  0
LINE
  5
23B
330
228
100
AcDbEntity
  8
0
  6
Continuous
 62
     0
370
     0
100
AcDbLine
 10
691.801591
 20
669.805314
 30
0.0
 11
702.801591
 21
669.805314
 31
0.0
  0
LINE
  5
23C
330
228
100
AcDbEntity
  8
0
  6
Continuous
 62
     0
370
     0
100
AcDbLine
 10
680.801591
 20
669.805314
 30
0.0
 11
691.801591
 21
669.805314
 31
0.0
  0
LINE
  5
23D
330
228
100
AcDbEntity
  8
0
  6
Continuous
 62
     0
370
    30
100
AcDbLine
 10
702.801591
 20
601.552836
 30
0.0
 11
702.801591
 21
669.805314
 31
0.0
  0
LINE
  5
23E
330
228
100
AcDbEntity
  8
0
  6
Continuous
 62
     0
370
    30
100
AcDbLine
 10
680.801591
 20
601.552836
 30
0.0
 11
680.801591
 21
669.805314
 31
0.0
  0
ARC
  5
23F
330
228
100
AcDbEntity
  8
0
  6
Continuous
 62
     0
370
    30
100
AcDbCircle
 10
739.303235
 20
669.80367
 30
0.0
 40
36.50164434648838
100
AcDbArc
 50
90.002581
 51
179.997419
  0
ARC
  5
240
330
228
100
AcDbEntity
  8
0
  6
Continuous
 62
     0
370
    30
100
AcDbCircle
 10
739.299652
 20
669.807253
 30
0.0
 40
58.49806158844124
100
AcDbArc
 50
89.998101
 51
180.001899
  0
LINE
  5
241
330
228
100
AcDbEntity
  8
0
  6
Continuous
 62
     0
370
    30
100
AcDbLine
 10
739.30159
 20
706.305314
 30
0.0
 11
743.601567
 21
706.305314
 31
0.0
  0
LINE
  5
242
330
228
100
AcDbEntity
  8
0
  6
Continuous
 62
     0
370
    30
100
AcDbLine
 10
739.30159
 20
728.305314
 30
0.0
 11
743.601567
 21
728.305314
 31
0.0
  0
LINE
  5
243
330
228
100
AcDbEntity
  8
0
  6
Continuous
 62
     0
370
    30
100
AcDbLine
 10
743.601567
 20
721.323247
 30
0.0
 11
743.601567
 21
705.555314
 31
0.0
  0
LINE
  5
244
330
228
100
AcDbEntity
  8
0
  6
Continuous
 62
     0
370
    30
100
AcDbLine
 10
743.601567
 20
729.055314
 30
0.0
 11
743.601567
 21
721.323247
 31
0.0
  0
LINE
  5
245
330
228
100
AcDbEntity
  8
0
  6
Continuous
 62
     0
370
     0
100
AcDbLine
 10
743.851567
 20
721.408735
 30
0.0
 11
743.851567
 21
705.305314
 31
0.0
  0
LINE
  5
246
330
228
100
AcDbEntity
  8
0
  6
Continuous
 62
     0
370
     0
100
AcDbLine
 10
743.851567
 20
729.305314
 30
0.0
 11
743.851567
 21
721.408735
 31
0.0
  0
LINE
  5
247
330
228
100
AcDbEntity
  8
0
  6
Continuous
 62
     0
370
     0
100
AcDbLine
 10
745.851567
 20
721.408735
 30
0.0
 11
745.851567
 21
705.305314
 31
0.0
  0
LINE
  5
248
330
228
100
AcDbEntity
  8
0
  6
Continuous
 62
     0
370
     0
100
AcDbLine
 10
745.851567
 20
729.305314
 30
0.0
 11
745.851567
 21
721.408735
 31
0.0
  0
LINE
  5
249
330
228
100
AcDbEntity
  8
0
  6
Continuous
 62
     0
370
    30
100
AcDbLine
 10
746.101567
 20
721.323247
 30
0.0
 11
746.101567
 21
705.555314
 31
0.0
  0
LINE
  5
24A
330
228
100
AcDbEntity
  8
0
  6
Continuous
 62
     0
370
    30
100
AcDbLine
 10
746.101567
 20
729.055314
 30
0.0
 11
746.101567
 21
721.323247
 31
0.0
  0
LINE
  5
24B
330
228
100
AcDbEntity
  8
0
  6
Continuous
 62
     0
370
     0
100
AcDbLine
 10
746.351567
 20
721.066783
 30
0.0
 11
746.351567
 21
706.305315
 31
0.0
  0
LINE
  5
24C
330
228
100
AcDbEntity
  8
0
  6
Continuous
 62
     0
370
     0
100
AcDbLine
 10
746.351567
 20
728.305314
 30
0.0
 11
746.351567
 21
721.066783
 31
0.0
  0
LINE
  5
24D
330
228
100
AcDbEntity
  8
0
  6
Continuous
 62
     0
370
     0
100
AcDbLine
 10
763.351567
 20
721.066783
 30
0.0
 11
763.351567
 21
706.305315
 31
0.0
  0
LINE
  5
24E
330
228
100
AcDbEntity
  8
0
  6
Continuous
 62
     0
370
     0
100
AcDbLine
 10
763.351567
 20
728.305314
 30
0.0
 11
763.351567
 21
721.066783
 31
0.0
  0
LINE
  5
24F
330
228
100
AcDbEntity
  8
0
  6
Continuous
 62
     0
370
    30
100
AcDbLine
 10
763.601567
 20
706.555315
 30
0.0
 11
763.601567
 21
713.629334
 31
0.0
  0
LINE
  5
250
330
228
100
AcDbEntity
  8
0
  6
Continuous
 62
     0
370
    30
100
AcDbLine
 10
763.601567
 20
720.981295
 30
0.0
 11
763.601567
 21
706.555315
 31
0.0
  0
LINE
  5
251
330
228
100
AcDbEntity
  8
0
  6
Continuous
 62
     0
370
    30
100
AcDbLine
 10
763.601567
 20
728.055314
 30
0.0
 11
763.601567
 21
720.981295
 31
0.0
  0
LINE
  5
252
330
228
100
AcDbEntity
  8
0
  6
Continuous
 62
     0
370
    30
100
AcDbLine
 10
763.601567
 20
713.629334
 30
0.0
 11
763.601567
 21
728.055314
 31
0.0
  0
LINE
  5
253
330
228
100
AcDbEntity
  8
0
  6
Continuous
 62
     0
370
    30
100
AcDbLine
 10
746.351566
 20
728.305314
 30
0.0
 11
763.351567
 21
728.305314
 31
0.0
  0
LINE
  5
254
330
228
100
AcDbEntity
  8
0
  6
Continuous
 62
     0
370
    30
100
AcDbLine
 10
746.351566
 20
706.305315
 30
0.0
 11
763.351567
 21
706.305315
 31
0.0
  0
LINE
  5
255
330
228
100
AcDbEntity
  8
0
  6
Continuous
 62
     0
370
    30
100
AcDbLine
 10
743.851566
 20
729.305314
 30
0.0
 11
745.851567
 21
729.305314
 31
0.0
  0
LINE
  5
256
330
228
100
AcDbEntity
  8
0
  6
Continuous
 62
     0
370
    30
100
AcDbLine
 10
743.851566
 20
705.305314
 30
0.0
 11
745.851567
 21
705.305314
 31
0.0
  0
LINE
  5
257
330
228
100
AcDbEntity
  8
0
  6
Continuous
 62
     0
370
    30
100
AcDbLine
 10
720.051581
 20
582.505313
 30
0.0
 11
691.801595
 21
582.505313
 31
0.0
  0
LINE
  5
258
330
228
100
AcDbEntity
  8
0
  6
Continuous
 62
     0
370
    30
100
AcDbLine
 10
691.801595
 20
582.505313
 30
0.0
 11
663.551607
 21
582.505313
 31
0.0
  0
LINE
  5
259
330
228
100
AcDbEntity
  8
0
  6
Continuous
 62
     0
370
    30
100
AcDbLine
 10
722.301594
 20
516.305325
 30
0.0
 11
691.801595
 21
516.305325
 31
0.0
  0
LINE
  5
25A
330
228
100
AcDbEntity
  8
0
  6
Continuous
 62
     0
370
    30
100
AcDbLine
 10
691.801595
 20
516.305325
 30
0.0
 11
661.301594
 21
516.305325
 31
0.0
  0
LINE
  5
25B
330
228
100
AcDbEntity
  8
0
  6
Continuous
 62
     0
370
    30
100
AcDbLine
 10
722.301594
 20
514.705325
 30
0.0
 11
691.801595
 21
514.705325
 31
0.0
  0
LINE
  5
25C
330
228
100
AcDbEntity
  8
0
  6
Continuous
 62
     0
370
    30
100
AcDbLine
 10
691.801595
 20
514.705325
 30
0.0
 11
661.301594
 21
514.705325
 31
0.0
  0
LINE
  5
25D
330
228
100
AcDbEntity
  8
0
  6
Continuous
 62
     0
370
    30
100
AcDbLine
 10
722.301594
 20
508.905325
 30
0.0
 11
691.801595
 21
508.905325
 31
0.0
  0
LINE
  5
25E
330
228
100
AcDbEntity
  8
0
  6
Continuous
 62
     0
370
    30
100
AcDbLine
 10
691.801595
 20
508.905325
 30
0.0
 11
661.301594
 21
508.905325
 31
0.0
  0
LINE
  5
25F
330
228
100
AcDbEntity
  8
0
  6
Continuous
 62
     0
370
    30
100
AcDbLine
 10
722.301594
 20
507.305325
 30
0.0
 11
691.801595
 21
507.305325
 31
0.0
  0
LINE
  5
260
330
228
100
AcDbEntity
  8
0
  6
Continuous
 62
     0
370
    30
100
AcDbLine
 10
691.801595
 20
507.305325
 30
0.0
 11
661.301594
 21
507.305325
 31
0.0
  0
LINE
  5
261
330
228
100
AcDbEntity
  8
0
  6
Continuous
 62
     0
370
    30
100
AcDbLine
 10
702.151594
 20
488.305316
 30
0.0
 11
691.801594
 21
488.305316
 31
0.0
  0
LINE
  5
262
330
228
100
AcDbEntity
  8
0
  6
Continuous
 62
     0
370
    30
100
AcDbLine
 10
691.801594
 20
488.305316
 30
0.0
 11
681.451594
 21
488.305316
 31
0.0
  0
LINE
  5
263
330
228
100
AcDbEntity
  8
0
  6
Continuous
 62
     0
370
    30
100
AcDbLine
 10
700.651594
 20
486.805316
 30
0.0
 11
691.801594
 21
486.805316
 31
0.0
  0
LINE
  5
264
330
228
100
AcDbEntity
  8
0
  6
Continuous
 62
     0
370
    30
100
AcDbLine
 10
691.801594
 20
486.805316
 30
0.0
 11
682.951594
 21
486.805316
 31
0.0
  0
LINE
  5
265
330
228
100
AcDbEntity
  8
0
  6
Continuous
 62
     0
370
    30
100
AcDbLine
 10
726.801591
 20
557.148678
 30
0.0
 11
726.801591
 21
538.905316
 31
0.0
  0
LINE
  5
266
330
228
100
AcDbEntity
  8
0
  6
Continuous
 62
     0
370
    30
100
AcDbLine
 10
726.801591
 20
559.705316
 30
0.0
 11
726.801591
 21
557.148678
 31
0.0
  0
LINE
  5
267
330
228
100
AcDbEntity
  8
0
  6
Continuous
 62
     0
370
     0
100
AcDbLine
 10
637.601527
 20
549.305287
 30
0.0
 11
637.601527
 21
563.305317
 31
0.0
  0
LINE
  5
268
330
228
100
AcDbEntity
  8
0
  6
Continuous
 62
     0
370
     0
100
AcDbLine
 10
637.601527
 20
535.305256
 30
0.0
 11
637.601527
 21
549.305287
 31
0.0
  0
LINE
  5
269
330
228
100
AcDbEntity
  8
0
  6
Continuous
 62
     0
370
    30
100
AcDbLine
 10
663.551603
 20
563.305317
 30
0.0
 11
637.601527
 21
563.305317
 31
0.0
  0
LINE
  5
26A
330
228
100
AcDbEntity
  8
0
  6
Continuous
 62
     0
370
    30
100
AcDbLine
 10
663.551603
 20
535.305256
 30
0.0
 11
637.601527
 21
535.305256
 31
0.0
  0
LINE
  5
26B
330
228
100
AcDbEntity
  8
0
  6
Continuous
 62
     0
370
    30
100
AcDbLine
 10
720.051578
 20
559.705316
 30
0.0
 11
726.801591
 21
559.705316
 31
0.0
  0
LINE
  5
26C
330
228
100
AcDbEntity
  8
0
  6
Continuous
 62
     0
370
    30
100
AcDbLine
 10
720.051578
 20
538.905316
 30
0.0
 11
726.801591
 21
538.905316
 31
0.0
  0
LINE
  5
26D
330
228
100
AcDbEntity
  8
0
  6
Continuous
 62
     0
370
    30
100
AcDbLine
 10
681.451594
 20
488.305316
 30
0.0
 11
682.951594
 21
486.805316
 31
0.0
  0
LINE
  5
26E
330
228
100
AcDbEntity
  8
0
  6
Continuous
 62
     0
370
    30
100
AcDbLine
 10
702.151594
 20
488.305316
 30
0.0
 11
700.651594
 21
486.805316
 31
0.0
  0
LINE
  5
26F
330
228
100
AcDbEntity
  8
0
  6
Continuous
 62
     0
370
    30
100
AcDbLine
 10
681.451594
 20
507.305325
 30
0.0
 11
681.451594
 21
488.305316
 31
0.0
  0
LINE
  5
270
330
228
100
AcDbEntity
  8
0
  6
Continuous
 62
     0
370
    30
100
AcDbLine
 10
702.151594
 20
507.305325
 30
0.0
 11
702.151594
 21
488.305316
 31
0.0
  0
LINE
  5
271
330
228
100
AcDbEntity
  8
0
  6
Continuous
 62
     0
370
    30
100
AcDbLine
 10
661.301594
 20
508.905325
 30
0.0
 11
661.301594
 21
507.305325
 31
0.0
  0
LINE
  5
272
330
228
100
AcDbEntity
  8
0
  6
Continuous
 62
     0
370
    30
100
AcDbLine
 10
722.301594
 20
508.905325
 30
0.0
 11
722.301594
 21
507.305325
 31
0.0
  0
LINE
  5
273
330
228
100
AcDbEntity
  8
0
  6
Continuous
 62
     0
370
    30
100
AcDbLine
 10
662.351594
 20
514.705325
 30
0.0
 11
662.351594
 21
508.905325
 31
0.0
  0
LINE
  5
274
330
228
100
AcDbEntity
  8
0
  6
Continuous
 62
     0
370
    30
100
AcDbLine
 10
721.251594
 20
514.705325
 30
0.0
 11
721.251594
 21
508.905325
 31
0.0
  0
LINE
  5
275
330
228
100
AcDbEntity
  8
0
  6
Continuous
 62
     0
370
    30
100
AcDbLine
 10
661.301594
 20
516.305325
 30
0.0
 11
661.301594
 21
514.705325
 31
0.0
  0
LINE
  5
276
330
228
100
AcDbEntity
  8
0
  6
Continuous
 62
     0
370
    30
100
AcDbLine
 10
722.301594
 20
516.305325
 30
0.0
 11
722.301594
 21
514.705325
 31
0.0
  0
LINE
  5
277
330
228
100
AcDbEntity
  8
0
  6
Continuous
 62
     0
370
    30
100
AcDbLine
 10
663.551607
 20
582.505313
 30
0.0
 11
663.551607
 21
516.305325
 31
0.0
  0
LINE
  5
278
330
228
100
AcDbEntity
  8
0
  6
Continuous
 62
     0
370
    30
100
AcDbLine
 10
720.051581
 20
582.505313
 30
0.0
 11
720.051581
 21
516.305325
 31
0.0
  0
LINE
  5
279
330
228
100
AcDbEntity
  8
0
  6
Continuous
 62
     0
370
    30
100
AcDbLine
 10
665.301594
 20
583.305313
 30
0.0
 11
665.301594
 21
582.505313
 31
0.0
  0
LINE
  5
27A
330
228
100
AcDbEntity
  8
0
  6
Continuous
 62
     0
370
    30
100
AcDbLine
 10
718.301594
 20
583.305313
 30
0.0
 11
718.301594
 21
582.505313
 31
0.0
  0
LWPOLYLINE
  5
27B
330
228
100
AcDbEntity
  8
0
  6
Continuous
 62
     0
370
     0
100
AcDbPolyline
 90
       60
 70
     0
 43
0.0
 10
720.051575
 20
599.872498
 10
720.011475
 20
599.872498
 10
719.891418
 20
599.872498
 10
719.691833
 20
599.872498
 10
719.413086
 20
599.872498
 10
719.055969
 20
599.872498
 10
718.621704
 20
599.872498
 10
718.111389
 20
599.872498
 10
717.526428
 20
599.872498
 10
716.868469
 20
599.872498
 10
716.139587
 20
599.872498
 10
715.341736
 20
599.872498
 10
714.477051
 20
599.872498
 10
713.548157
 20
599.872498
 10
712.557495
 20
599.872498
 10
711.507874
 20
599.872498
 10
710.4021
 20
599.872498
 10
709.243774
 20
599.872498
 10
708.03656
 20
599.872498
 10
706.784058
 20
599.872498
 10
705.489746
 20
599.872498
 10
704.156799
 20
599.872498
 10
702.788574
 20
599.872498
 10
701.388489
 20
599.872498
 10
699.96051
 20
599.872498
 10
698.509033
 20
599.872498
 10
697.03833
 20
599.872498
 10
695.552734
 20
599.872498
 10
694.056824
 20
599.872498
 10
692.555115
 20
599.872498
 10
691.052063
 20
599.872498
 10
689.55188
 20
599.872498
 10
688.058228
 20
599.872498
 10
686.574829
 20
599.872498
 10
685.105347
 20
599.872498
 10
683.654114
 20
599.872498
 10
682.225525
 20
599.872498
 10
680.824036
 20
599.872498
 10
679.453979
 20
599.872498
 10
678.11908
 20
599.872498
 10
676.822998
 20
599.872498
 10
675.569397
 20
599.872498
 10
674.361816
 20
599.872498
 10
673.203552
 20
599.872498
 10
672.097961
 20
599.872498
 10
671.04834
 20
599.872498
 10
670.057617
 20
599.872498
 10
669.128479
 20
599.872498
 10
668.26355
 20
599.872498
 10
667.465515
 20
599.872498
 10
666.736389
 20
599.872498
 10
666.078308
 20
599.872498
 10
665.493164
 20
599.872498
 10
664.982727
 20
599.872498
 10
664.548218
 20
599.872498
 10
664.190918
 20
599.872498
 10
663.911987
 20
599.872498
 10
663.712158
 20
599.872498
 10
663.591919
 20
599.872498
 10
663.551575
 20
599.872498
  0
ARC
  5
27C
330
228
100
AcDbEntity
  8
0
  6
Continuous
 62
     0
370
    30
100
AcDbCircle
 10
719.051594
 20
599.872521
 30
0.0
 40
0.9999999999994399
100
AcDbArc
 50
360.0
 51
86.083894
  0
LINE
  5
27D
330
228
100
AcDbEntity
  8
0
  6
Continuous
 62
     0
370
    30
100
AcDbLine
 10
664.483298
 20
600.870186
 30
0.0
 11
719.11989
 21
600.870186
 31
0.0
  0
LINE
  5
27E
330
228
100
AcDbEntity
  8
0
  6
Continuous
 62
     0
370
    30
100
AcDbLine
 10
720.051594
 20
599.872521
 30
0.0
 11
720.051594
 21
583.305313
 31
0.0
  0
LINE
  5
27F
330
228
100
AcDbEntity
  8
0
  6
Continuous
 62
     0
370
    30
100
AcDbLine
 10
663.551594
 20
583.305313
 30
0.0
 11
720.051594
 21
583.305313
 31
0.0
  0
LINE
  5
280
330
228
100
AcDbEntity
  8
0
  6
Continuous
 62
     0
370
    30
100
AcDbLine
 10
667.301594
 20
601.053121
 30
0.0
 11
691.801595
 21
601.053121
 31
0.0
  0
LINE
  5
281
330
228
100
AcDbEntity
  8
0
  6
Continuous
 62
     0
370
    30
100
AcDbLine
 10
691.801595
 20
601.053121
 30
0.0
 11
716.301594
 21
601.053121
 31
0.0
  0
LINE
  5
282
330
228
100
AcDbEntity
  8
0
  6
Continuous
 62
     0
370
    30
100
AcDbLine
 10
663.551594
 20
583.305313
 30
0.0
 11
663.551594
 21
599.872521
 31
0.0
  0
ARC
  5
283
330
228
100
AcDbEntity
  8
0
  6
Continuous
 62
     0
370
    30
100
AcDbCircle
 10
664.554636
 20
599.86968
 30
0.0
 40
1.003046707120371
100
AcDbArc
 50
94.078418
 51
179.837688
  0
ENDBLK
  5
285
330
228
100
AcDbEntity
  8
0
100
AcDbBlockEnd
  0
BLOCK
  5
414
330
287
100
AcDbEntity
  8
0
100
AcDbBlockBegin
  2
d
 70
     0
 10
339.390015
 20
169.986176
 30
0.0
  3
d
  1

  0
ELLIPSE
  5
288
330
287
100
AcDbEntity
  8
0
  6
Continuous
 62
     0
370
    30
100
AcDbEllipse
 10
681.637886
 20
283.866035
 30
0.0
 11
-24.5
 21
0.0
 31
0.0
210
0.0
220
0.0
230
1.0
 40
0.57735
 41
0.7853981633974483
 42
3.926990816987241
  0
LINE
  5
289
330
287
100
AcDbEntity
  8
0
  6
Continuous
 62
     0
370
    30
100
AcDbLine
 10
673.863242
 20
281.590616
 30
0.0
 11
675.136572
 21
280.859377
 31
0.0
  0
LINE
  5
28A
330
287
100
AcDbEntity
  8
0
  6
Continuous
 62
     0
370
    30
100
AcDbLine
 10
673.664411
 20
281.813118
 30
0.0
 11
673.863242
 21
281.590616
 31
0.0
  0
LINE
  5
28B
330
287
100
AcDbEntity
  8
0
  6
Continuous
 62
     0
370
    30
100
AcDbLine
 10
673.883496
 20
282.070811
 30
0.0
 11
673.664411
 21
281.813118
 31
0.0
  0
LINE
  5
28C
330
287
100
AcDbEntity
  8
0
  6
Continuous
 62
     0
370
    30
100
AcDbLine
 10
673.759599
 20
282.141406
 30
0.0
 11
673.883496
 21
282.070811
 31
0.0
  0
LINE
  5
28D
330
287
100
AcDbEntity
  8
0
  6
Continuous
 62
     0
370
    30
100
AcDbLine
 10
672.431653
 20
281.338766
 30
0.0
 11
673.759599
 21
282.141406
 31
0.0
  0
LINE
  5
28E
330
287
100
AcDbEntity
  8
0
  6
Continuous
 62
     0
370
    30
100
AcDbLine
 10
672.555526
 20
281.268184
 30
0.0
 11
672.431653
 21
281.338766
 31
0.0
  0
ARC
  5
28F
330
287
100
AcDbEntity
  8
0
  6
Continuous
 62
     0
370
    30
100
AcDbCircle
 10
672.983724
 20
280.688438
 30
0.0
 40
0.7207346300574042
100
AcDbArc
 50
57.08911
 51
126.44945
  0
LINE
  5
290
330
287
100
AcDbEntity
  8
0
  6
Continuous
 62
     0
370
    30
100
AcDbLine
 10
674.763802
 20
280.495805
 30
0.0
 11
673.375324
 21
281.293507
 31
0.0
  0
ELLIPSE
  5
291
330
287
100
AcDbEntity
  8
0
  6
Continuous
 62
     0
370
     0
100
AcDbEllipse
 10
681.637886
 20
-42.037604
 30
0.0
 11
200.0000000000001
 21
346.4101615137755
 31
0.0
210
0.0
220
0.0
230
1.0
 40
0.57735
 41
0.798657109251856
 42
0.8097041139400503
  0
LINE
  5
292
330
287
100
AcDbEntity
  8
0
  6
Continuous
 62
     0
370
    30
100
AcDbLine
 10
676.499322
 20
283.16491
 30
0.0
 11
677.8878
 21
282.367208
 31
0.0
  0
LINE
  5
293
330
287
100
AcDbEntity
  8
0
  6
Continuous
 62
     0
370
    30
100
AcDbLine
 10
676.298602
 20
283.386506
 30
0.0
 11
676.499322
 21
283.16491
 31
0.0
  0
LINE
  5
294
330
287
100
AcDbEntity
  8
0
  6
Continuous
 62
     0
370
    30
100
AcDbLine
 10
676.517704
 20
283.641666
 30
0.0
 11
676.298602
 21
283.386506
 31
0.0
  0
LINE
  5
295
330
287
100
AcDbEntity
  8
0
  6
Continuous
 62
     0
370
    30
100
AcDbLine
 10
676.393808
 20
283.712261
 30
0.0
 11
676.517704
 21
283.641666
 31
0.0
  0
LINE
  5
296
330
287
100
AcDbEntity
  8
0
  6
Continuous
 62
     0
370
    30
100
AcDbLine
 10
675.065861
 20
282.92391
 30
0.0
 11
676.393808
 21
283.712261
 31
0.0
  0
LINE
  5
297
330
287
100
AcDbEntity
  8
0
  6
Continuous
 62
     0
370
    30
100
AcDbLine
 10
675.189786
 20
282.853299
 30
0.0
 11
675.065861
 21
282.92391
 31
0.0
  0
LINE
  5
298
330
287
100
AcDbEntity
  8
0
  6
Continuous
 62
     0
370
    30
100
AcDbLine
 10
675.624051
 20
282.984936
 30
0.0
 11
675.189786
 21
282.853299
 31
0.0
  0
LINE
  5
299
330
287
100
AcDbEntity
  8
0
  6
Continuous
 62
     0
370
    30
100
AcDbLine
 10
676.007661
 20
282.875211
 30
0.0
 11
675.624051
 21
282.984936
 31
0.0
  0
LINE
  5
29A
330
287
100
AcDbEntity
  8
0
  6
Continuous
 62
     0
370
    30
100
AcDbLine
 10
677.280991
 20
282.143972
 30
0.0
 11
676.007661
 21
282.875211
 31
0.0
  0
LINE
  5
29B
330
287
100
AcDbEntity
  8
0
  6
Continuous
 62
     0
370
    30
100
AcDbLine
 10
675.136572
 20
280.859377
 30
0.0
 11
677.280991
 21
282.143972
 31
0.0
  0
LINE
  5
29C
330
287
100
AcDbEntity
  8
0
  6
Continuous
 62
     0
370
    30
100
AcDbLine
 10
676.349098
 20
279.575403
 30
0.0
 11
674.763802
 21
280.495805
 31
0.0
  0
LINE
  5
29D
330
287
100
AcDbEntity
  8
0
  6
Continuous
 62
     0
370
    30
100
AcDbLine
 10
676.544944
 20
279.343388
 30
0.0
 11
676.349098
 21
279.575403
 31
0.0
  0
LINE
  5
29E
330
287
100
AcDbEntity
  8
0
  6
Continuous
 62
     0
370
    30
100
AcDbLine
 10
676.325975
 20
279.089835
 30
0.0
 11
676.544944
 21
279.343388
 31
0.0
  0
LINE
  5
29F
330
287
100
AcDbEntity
  8
0
  6
Continuous
 62
     0
370
    30
100
AcDbLine
 10
677.777881
 20
279.819873
 30
0.0
 11
676.449935
 21
279.017233
 31
0.0
  0
LINE
  5
2A0
330
287
100
AcDbEntity
  8
0
  6
Continuous
 62
     0
370
    30
100
AcDbLine
 10
677.235707
 20
279.762771
 30
0.0
 11
677.65379
 21
279.892553
 31
0.0
  0
LINE
  5
2A1
330
287
100
AcDbEntity
  8
0
  6
Continuous
 62
     0
370
    30
100
AcDbLine
 10
676.837017
 20
279.872534
 30
0.0
 11
677.235707
 21
279.762771
 31
0.0
  0
LINE
  5
2A2
330
287
100
AcDbEntity
  8
0
  6
Continuous
 62
     0
370
    30
100
AcDbLine
 10
675.327955
 20
280.748899
 30
0.0
 11
676.837017
 21
279.872534
 31
0.0
  0
LINE
  5
2A3
330
287
100
AcDbEntity
  8
0
  6
Continuous
 62
     0
370
    30
100
AcDbLine
 10
677.472374
 20
282.033494
 30
0.0
 11
675.327955
 21
280.748899
 31
0.0
  0
LINE
  5
2A4
330
287
100
AcDbEntity
  8
0
  6
Continuous
 62
     0
370
    30
100
AcDbLine
 10
678.987048
 20
281.153852
 30
0.0
 11
677.472374
 21
282.033494
 31
0.0
  0
LINE
  5
2A5
330
287
100
AcDbEntity
  8
0
  6
Continuous
 62
     0
370
    30
100
AcDbLine
 10
679.181012
 20
280.921806
 30
0.0
 11
678.987048
 21
281.153852
 31
0.0
  0
LINE
  5
2A6
330
287
100
AcDbEntity
  8
0
  6
Continuous
 62
     0
370
    30
100
AcDbLine
 10
678.960161
 20
280.674994
 30
0.0
 11
679.181012
 21
280.921806
 31
0.0
  0
LINE
  5
2A7
330
287
100
AcDbEntity
  8
0
  6
Continuous
 62
     0
370
    30
100
AcDbLine
 10
680.41209
 20
281.390729
 30
0.0
 11
679.084143
 21
280.602378
 31
0.0
  0
ARC
  5
2A8
330
287
100
AcDbEntity
  8
0
  6
Continuous
 62
     0
370
    30
100
AcDbCircle
 10
679.868728
 20
282.045631
 30
0.0
 40
0.717715781611546
100
AcDbArc
 50
236.548059
 51
305.766942
  0
LINE
  5
2A9
330
287
100
AcDbEntity
  8
0
  6
Continuous
 62
     0
370
    30
100
AcDbLine
 10
677.8878
 20
282.367208
 30
0.0
 11
679.473096
 21
281.446806
 31
0.0
  0
LINE
  5
2AA
330
287
100
AcDbEntity
  8
0
  6
Continuous
 62
     0
370
    30
100
AcDbLine
 10
676.007661
 20
282.71197
 30
0.0
 11
677.142001
 21
282.060869
 31
0.0
  0
LINE
  5
2AB
330
287
100
AcDbEntity
  8
0
  6
Continuous
 62
     0
370
    30
100
AcDbLine
 10
675.624051
 20
282.821697
 30
0.0
 11
676.007661
 21
282.71197
 31
0.0
  0
LINE
  5
2AC
330
287
100
AcDbEntity
  8
0
  6
Continuous
 62
     0
370
    30
100
AcDbLine
 10
675.189786
 20
282.690063
 30
0.0
 11
675.624051
 21
282.821697
 31
0.0
  0
LINE
  5
2AD
330
287
100
AcDbEntity
  8
0
  6
Continuous
 62
     0
370
    30
100
AcDbLine
 10
675.065861
 20
282.760674
 30
0.0
 11
675.189786
 21
282.690063
 31
0.0
  0
LINE
  5
2AE
330
287
100
AcDbEntity
  8
0
  6
Continuous
 62
     0
370
    30
100
AcDbLine
 10
676.332487
 20
283.336226
 30
0.0
 11
676.517704
 21
283.47842
 31
0.0
  0
LINE
  5
2AF
330
287
100
AcDbEntity
  8
0
  6
Continuous
 62
     0
370
    30
100
AcDbLine
 10
673.375324
 20
281.130282
 30
0.0
 11
674.763802
 21
280.332579
 31
0.0
  0
ARC
  5
2B0
330
287
100
AcDbEntity
  8
0
  6
Continuous
 62
     0
370
    30
100
AcDbCircle
 10
672.983723
 20
280.525213
 30
0.0
 40
0.720735366147123
100
AcDbArc
 50
57.089053
 51
126.449307
  0
LINE
  5
2B1
330
287
100
AcDbEntity
  8
0
  6
Continuous
 62
     0
370
    30
100
AcDbLine
 10
672.431653
 20
281.175542
 30
0.0
 11
672.555526
 21
281.10496
 31
0.0
  0
LINE
  5
2B2
330
287
100
AcDbEntity
  8
0
  6
Continuous
 62
     0
370
    30
100
AcDbLine
 10
673.697441
 20
281.761935
 30
0.0
 11
673.883496
 21
281.907582
 31
0.0
  0
LINE
  5
2B3
330
287
100
AcDbEntity
  8
0
  6
Continuous
 62
     0
370
    30
100
AcDbLine
 10
679.084143
 20
280.439143
 30
0.0
 11
680.41209
 21
281.227484
 31
0.0
  0
LINE
  5
2B4
330
287
100
AcDbEntity
  8
0
  6
Continuous
 62
     0
370
    30
100
AcDbLine
 10
678.987048
 20
280.990612
 30
0.0
 11
679.14055
 21
280.866556
 31
0.0
  0
LINE
  5
2B5
330
287
100
AcDbEntity
  8
0
  6
Continuous
 62
     0
370
    30
100
AcDbLine
 10
677.472374
 20
281.870251
 30
0.0
 11
678.987048
 21
280.990612
 31
0.0
  0
LINE
  5
2B6
330
287
100
AcDbEntity
  8
0
  6
Continuous
 62
     0
370
    30
100
AcDbLine
 10
675.46606
 20
280.668967
 30
0.0
 11
677.472374
 21
281.870251
 31
0.0
  0
LINE
  5
2B7
330
287
100
AcDbEntity
  8
0
  6
Continuous
 62
     0
370
    30
100
AcDbLine
 10
676.449935
 20
278.854009
 30
0.0
 11
677.777881
 21
279.656645
 31
0.0
  0
LINE
  5
2B8
330
287
100
AcDbEntity
  8
0
  6
Continuous
 62
     0
370
    30
100
AcDbLine
 10
676.349098
 20
279.412177
 30
0.0
 11
676.504226
 21
279.28461
 31
0.0
  0
LINE
  5
2B9
330
287
100
AcDbEntity
  8
0
  6
Continuous
 62
     0
370
    30
100
AcDbLine
 10
674.763802
 20
280.332579
 30
0.0
 11
676.349098
 21
279.412177
 31
0.0
  0
LINE
  5
2BA
330
287
100
AcDbEntity
  8
0
  6
Continuous
 62
     0
370
     0
100
AcDbLine
 10
676.007661
 20
282.875211
 30
0.0
 11
676.007661
 21
282.71197
 31
0.0
  0
LINE
  5
2BB
330
287
100
AcDbEntity
  8
0
  6
Continuous
 62
     0
370
     0
100
AcDbLine
 10
675.624051
 20
282.984936
 30
0.0
 11
675.624051
 21
282.821697
 31
0.0
  0
LINE
  5
2BC
330
287
100
AcDbEntity
  8
0
  6
Continuous
 62
     0
370
    30
100
AcDbLine
 10
675.189786
 20
282.853299
 30
0.0
 11
675.189786
 21
282.690063
 31
0.0
  0
LINE
  5
2BD
330
287
100
AcDbEntity
  8
0
  6
Continuous
 62
     0
370
    30
100
AcDbLine
 10
675.065861
 20
282.92391
 30
0.0
 11
675.065861
 21
282.760674
 31
0.0
  0
LINE
  5
2BE
330
287
100
AcDbEntity
  8
0
  6
Continuous
 62
     0
370
    30
100
AcDbLine
 10
676.517704
 20
283.641666
 30
0.0
 11
676.517704
 21
283.47842
 31
0.0
  0
LINE
  5
2BF
330
287
100
AcDbEntity
  8
0
  6
Continuous
 62
     0
370
    30
100
AcDbLine
 10
680.41209
 20
281.390729
 30
0.0
 11
680.41209
 21
281.227484
 31
0.0
  0
LINE
  5
2C0
330
287
100
AcDbEntity
  8
0
  6
Continuous
 62
     0
370
    30
100
AcDbLine
 10
679.084143
 20
280.602378
 30
0.0
 11
679.084143
 21
280.439143
 31
0.0
  0
LINE
  5
2C1
330
287
100
AcDbEntity
  8
0
  6
Continuous
 62
     0
370
    30
100
AcDbLine
 10
678.960161
 20
280.674994
 30
0.0
 11
678.960161
 21
280.511758
 31
0.0
  0
LINE
  5
2C2
330
287
100
AcDbEntity
  8
0
  6
Continuous
 62
     0
370
     0
100
AcDbLine
 10
679.181012
 20
280.921806
 30
0.0
 11
679.181012
 21
280.758567
 31
0.0
  0
LINE
  5
2C3
330
287
100
AcDbEntity
  8
0
  6
Continuous
 62
     0
370
     0
100
AcDbLine
 10
678.987048
 20
281.153852
 30
0.0
 11
678.987048
 21
280.990612
 31
0.0
  0
LINE
  5
2C4
330
287
100
AcDbEntity
  8
0
  6
Continuous
 62
     0
370
    30
100
AcDbLine
 10
677.472374
 20
282.033494
 30
0.0
 11
677.472374
 21
281.870251
 31
0.0
  0
LINE
  5
2C5
330
287
100
AcDbEntity
  8
0
  6
Continuous
 62
     0
370
    30
100
AcDbLine
 10
675.327955
 20
280.748899
 30
0.0
 11
675.327955
 21
280.585671
 31
0.0
  0
LINE
  5
2C6
330
287
100
AcDbEntity
  8
0
  6
Continuous
 62
     0
370
    30
100
AcDbLine
 10
677.777881
 20
279.819873
 30
0.0
 11
677.777881
 21
279.656645
 31
0.0
  0
LINE
  5
2C7
330
287
100
AcDbEntity
  8
0
  6
Continuous
 62
     0
370
    30
100
AcDbLine
 10
676.449935
 20
279.017233
 30
0.0
 11
676.449935
 21
278.854009
 31
0.0
  0
LINE
  5
2C8
330
287
100
AcDbEntity
  8
0
  6
Continuous
 62
     0
370
    30
100
AcDbLine
 10
676.325975
 20
279.089835
 30
0.0
 11
676.325975
 21
278.926611
 31
0.0
  0
LINE
  5
2C9
330
287
100
AcDbEntity
  8
0
  6
Continuous
 62
     0
370
     0
100
AcDbLine
 10
676.544944
 20
279.343388
 30
0.0
 11
676.544944
 21
279.180163
 31
0.0
  0
LINE
  5
2CA
330
287
100
AcDbEntity
  8
0
  6
Continuous
 62
     0
370
     0
100
AcDbLine
 10
676.349098
 20
279.575403
 30
0.0
 11
676.349098
 21
279.412177
 31
0.0
  0
LINE
  5
2CB
330
287
100
AcDbEntity
  8
0
  6
Continuous
 62
     0
370
     0
100
AcDbLine
 10
673.375324
 20
281.293507
 30
0.0
 11
673.375324
 21
281.130282
 31
0.0
  0
LINE
  5
2CC
330
287
100
AcDbEntity
  8
0
  6
Continuous
 62
     0
370
    30
100
AcDbLine
 10
672.555526
 20
281.268184
 30
0.0
 11
672.555526
 21
281.10496
 31
0.0
  0
LINE
  5
2CD
330
287
100
AcDbEntity
  8
0
  6
Continuous
 62
     0
370
    30
100
AcDbLine
 10
672.431653
 20
281.338766
 30
0.0
 11
672.431653
 21
281.175542
 31
0.0
  0
LINE
  5
2CE
330
287
100
AcDbEntity
  8
0
  6
Continuous
 62
     0
370
    30
100
AcDbLine
 10
673.883496
 20
282.070811
 30
0.0
 11
673.883496
 21
281.907582
 31
0.0
  0
LINE
  5
2CF
330
287
100
AcDbEntity
  8
0
  6
Continuous
 62
     0
370
    30
100
AcDbLine
 10
681.950707
 20
286.395097
 30
0.0
 11
683.101106
 21
286.269717
 31
0.0
  0
LINE
  5
2D0
330
287
100
AcDbEntity
  8
0
  6
Continuous
 62
     0
370
    30
100
AcDbLine
 10
680.84028
 20
286.262443
 30
0.0
 11
681.950707
 21
286.395097
 31
0.0
  0
LINE
  5
2D1
330
287
100
AcDbEntity
  8
0
  6
Continuous
 62
     0
370
    30
100
AcDbLine
 10
679.908782
 20
285.90139
 30
0.0
 11
680.84028
 21
286.262443
 31
0.0
  0
LINE
  5
2D2
330
287
100
AcDbEntity
  8
0
  6
Continuous
 62
     0
370
    30
100
AcDbLine
 10
679.272055
 20
285.35118
 30
0.0
 11
679.908782
 21
285.90139
 31
0.0
  0
LINE
  5
2D3
330
287
100
AcDbEntity
  8
0
  6
Continuous
 62
     0
370
    30
100
AcDbLine
 10
679.043821
 20
284.701749
 30
0.0
 11
679.272055
 21
285.35118
 31
0.0
  0
LINE
  5
2D4
330
287
100
AcDbEntity
  8
0
  6
Continuous
 62
     0
370
    30
100
AcDbLine
 10
679.26361
 20
284.041272
 30
0.0
 11
679.043821
 21
284.701749
 31
0.0
  0
LINE
  5
2D5
330
287
100
AcDbEntity
  8
0
  6
Continuous
 62
     0
370
    30
100
AcDbLine
 10
679.843452
 20
283.518439
 30
0.0
 11
679.26361
 21
284.041272
 31
0.0
  0
LINE
  5
2D6
330
287
100
AcDbEntity
  8
0
  6
Continuous
 62
     0
370
    30
100
AcDbLine
 10
679.670308
 20
284.420206
 30
0.0
 11
680.377665
 21
283.830198
 31
0.0
  0
LINE
  5
2D7
330
287
100
AcDbEntity
  8
0
  6
Continuous
 62
     0
370
    30
100
AcDbLine
 10
679.471109
 20
284.998143
 30
0.0
 11
679.670308
 21
284.420206
 31
0.0
  0
LINE
  5
2D8
330
287
100
AcDbEntity
  8
0
  6
Continuous
 62
     0
370
    30
100
AcDbLine
 10
679.678764
 20
285.456602
 30
0.0
 11
679.471109
 21
284.998143
 31
0.0
  0
LINE
  5
2D9
330
287
100
AcDbEntity
  8
0
  6
Continuous
 62
     0
370
    30
100
AcDbLine
 10
680.099229
 20
285.79187
 30
0.0
 11
679.678764
 21
285.456602
 31
0.0
  0
LINE
  5
2DA
330
287
100
AcDbEntity
  8
0
  6
Continuous
 62
     0
370
    30
100
AcDbLine
 10
680.912386
 20
286.087872
 30
0.0
 11
680.099229
 21
285.79187
 31
0.0
  0
LINE
  5
2DB
330
287
100
AcDbEntity
  8
0
  6
Continuous
 62
     0
370
    30
100
AcDbLine
 10
682.117695
 20
286.106661
 30
0.0
 11
680.912386
 21
286.087872
 31
0.0
  0
LINE
  5
2DC
330
287
100
AcDbEntity
  8
0
  6
Continuous
 62
     0
370
    30
100
AcDbLine
 10
683.610331
 20
285.558067
 30
0.0
 11
682.117695
 21
286.106661
 31
0.0
  0
LINE
  5
2DD
330
287
100
AcDbEntity
  8
0
  6
Continuous
 62
     0
370
    30
100
AcDbLine
 10
684.388719
 20
284.943805
 30
0.0
 11
683.610331
 21
285.558067
 31
0.0
  0
LINE
  5
2DE
330
287
100
AcDbEntity
  8
0
  6
Continuous
 62
     0
370
    30
100
AcDbLine
 10
684.611591
 20
284.388909
 30
0.0
 11
684.388719
 21
284.943805
 31
0.0
  0
LINE
  5
2DF
330
287
100
AcDbEntity
  8
0
  6
Continuous
 62
     0
370
    30
100
AcDbLine
 10
684.426556
 20
283.920507
 30
0.0
 11
684.611591
 21
284.388909
 31
0.0
  0
LINE
  5
2E0
330
287
100
AcDbEntity
  8
0
  6
Continuous
 62
     0
370
    30
100
AcDbLine
 10
683.983573
 20
283.554166
 30
0.0
 11
684.426556
 21
283.920507
 31
0.0
  0
LINE
  5
2E1
330
287
100
AcDbEntity
  8
0
  6
Continuous
 62
     0
370
    30
100
AcDbLine
 10
683.304238
 20
283.283354
 30
0.0
 11
683.983573
 21
283.554166
 31
0.0
  0
LINE
  5
2E2
330
287
100
AcDbEntity
  8
0
  6
Continuous
 62
     0
370
    30
100
AcDbLine
 10
682.461266
 20
283.190076
 30
0.0
 11
683.304238
 21
283.283354
 31
0.0
  0
LINE
  5
2E3
330
287
100
AcDbEntity
  8
0
  6
Continuous
 62
     0
370
    30
100
AcDbLine
 10
681.491482
 20
283.336493
 30
0.0
 11
682.461266
 21
283.190076
 31
0.0
  0
LINE
  5
2E4
330
287
100
AcDbEntity
  8
0
  6
Continuous
 62
     0
370
    30
100
AcDbLine
 10
680.477149
 20
283.771274
 30
0.0
 11
681.491482
 21
283.336493
 31
0.0
  0
LINE
  5
2E5
330
287
100
AcDbEntity
  8
0
  6
Continuous
 62
     0
370
    30
100
AcDbLine
 10
680.377665
 20
283.830198
 30
0.0
 11
680.477149
 21
283.771274
 31
0.0
  0
LINE
  5
2E6
330
287
100
AcDbEntity
  8
0
  6
Continuous
 62
     0
370
    30
100
AcDbLine
 10
679.932168
 20
283.465178
 30
0.0
 11
679.843452
 21
283.518439
 31
0.0
  0
LINE
  5
2E7
330
287
100
AcDbEntity
  8
0
  6
Continuous
 62
     0
370
    30
100
AcDbLine
 10
681.279578
 20
283.007052
 30
0.0
 11
679.932168
 21
283.465178
 31
0.0
  0
LINE
  5
2E8
330
287
100
AcDbEntity
  8
0
  6
Continuous
 62
     0
370
    30
100
AcDbLine
 10
682.820606
 20
282.995737
 30
0.0
 11
681.279578
 21
283.007052
 31
0.0
  0
LINE
  5
2E9
330
287
100
AcDbEntity
  8
0
  6
Continuous
 62
     0
370
    30
100
AcDbLine
 10
684.175891
 20
283.442543
 30
0.0
 11
682.820606
 21
282.995737
 31
0.0
  0
LINE
  5
2EA
330
287
100
AcDbEntity
  8
0
  6
Continuous
 62
     0
370
    30
100
AcDbLine
 10
684.940275
 20
284.217034
 30
0.0
 11
684.175891
 21
283.442543
 31
0.0
  0
ARC
  5
2EB
330
287
100
AcDbEntity
  8
0
  6
Continuous
 62
     0
370
    30
100
AcDbCircle
 10
683.993631
 20
284.630897
 30
0.0
 40
1.033158483416892
100
AcDbArc
 50
336.385538
 51
26.94682
  0
LINE
  5
2EC
330
287
100
AcDbEntity
  8
0
  6
Continuous
 62
     0
370
    30
100
AcDbLine
 10
684.135667
 20
285.867541
 30
0.0
 11
684.914617
 21
285.099087
 31
0.0
  0
LINE
  5
2ED
330
287
100
AcDbEntity
  8
0
  6
Continuous
 62
     0
370
    30
100
AcDbLine
 10
683.101106
 20
286.269717
 30
0.0
 11
684.135667
 21
285.867541
 31
0.0
  0
LINE
  5
2EE
330
287
100
AcDbEntity
  8
0
  6
Continuous
 62
     0
370
    30
100
AcDbLine
 10
681.279578
 20
282.843783
 30
0.0
 11
682.820606
 21
282.83247
 31
0.0
  0
LINE
  5
2EF
330
287
100
AcDbEntity
  8
0
  6
Continuous
 62
     0
370
    30
100
AcDbLine
 10
680.912386
 20
285.924603
 30
0.0
 11
682.117695
 21
285.943392
 31
0.0
  0
LINE
  5
2F0
330
287
100
AcDbEntity
  8
0
  6
Continuous
 62
     0
370
     0
100
AcDbLine
 10
684.175891
 20
283.442543
 30
0.0
 11
684.175891
 21
283.279278
 31
0.0
  0
LINE
  5
2F1
330
287
100
AcDbEntity
  8
0
  6
Continuous
 62
     0
370
     0
100
AcDbLine
 10
682.820606
 20
282.995737
 30
0.0
 11
682.820606
 21
282.83247
 31
0.0
  0
LINE
  5
2F2
330
287
100
AcDbEntity
  8
0
  6
Continuous
 62
     0
370
     0
100
AcDbLine
 10
681.279578
 20
283.007052
 30
0.0
 11
681.279578
 21
282.843783
 31
0.0
  0
LINE
  5
2F3
330
287
100
AcDbEntity
  8
0
  6
Continuous
 62
     0
370
     0
100
AcDbLine
 10
679.932168
 20
283.465178
 30
0.0
 11
679.932168
 21
283.301907
 31
0.0
  0
LINE
  5
2F4
330
287
100
AcDbEntity
  8
0
  6
Continuous
 62
     0
370
     0
100
AcDbLine
 10
680.912386
 20
286.087872
 30
0.0
 11
680.912386
 21
285.924603
 31
0.0
  0
LINE
  5
2F5
330
287
100
AcDbEntity
  8
0
  6
Continuous
 62
     0
370
     0
100
AcDbLine
 10
682.117695
 20
286.106661
 30
0.0
 11
682.117695
 21
285.943392
 31
0.0
  0
LINE
  5
2F6
330
287
100
AcDbEntity
  8
0
  6
Continuous
 62
     0
370
     0
100
AcDbLine
 10
683.610331
 20
285.558067
 30
0.0
 11
683.610331
 21
285.394797
 31
0.0
  0
LINE
  5
2F7
330
287
100
AcDbEntity
  8
0
  6
Continuous
 62
     0
370
    30
100
AcDbLine
 10
686.460378
 20
289.454226
 30
0.0
 11
686.589305
 21
289.792784
 31
0.0
  0
LINE
  5
2F8
330
287
100
AcDbEntity
  8
0
  6
Continuous
 62
     0
370
    30
100
AcDbLine
 10
683.942164
 20
288.056649
 30
0.0
 11
686.460378
 21
289.454226
 31
0.0
  0
LINE
  5
2F9
330
287
100
AcDbEntity
  8
0
  6
Continuous
 62
     0
370
    30
100
AcDbLine
 10
683.778207
 20
287.9769
 30
0.0
 11
683.942164
 21
288.056649
 31
0.0
  0
LINE
  5
2FA
330
287
100
AcDbEntity
  8
0
  6
Continuous
 62
     0
370
    30
100
AcDbLine
 10
683.636379
 20
287.937264
 30
0.0
 11
683.778207
 21
287.9769
 31
0.0
  0
LINE
  5
2FB
330
287
100
AcDbEntity
  8
0
  6
Continuous
 62
     0
370
    30
100
AcDbLine
 10
683.506613
 20
287.930777
 30
0.0
 11
683.636379
 21
287.937264
 31
0.0
  0
LINE
  5
2FC
330
287
100
AcDbEntity
  8
0
  6
Continuous
 62
     0
370
    30
100
AcDbLine
 10
683.292301
 20
287.962705
 30
0.0
 11
683.506613
 21
287.930777
 31
0.0
  0
LINE
  5
2FD
330
287
100
AcDbEntity
  8
0
  6
Continuous
 62
     0
370
    30
100
AcDbLine
 10
684.22167
 20
287.319949
 30
0.0
 11
683.193066
 21
287.906934
 31
0.0
  0
LINE
  5
2FE
330
287
100
AcDbEntity
  8
0
  6
Continuous
 62
     0
370
    30
100
AcDbLine
 10
684.047342
 20
287.77872
 30
0.0
 11
684.332029
 21
287.381969
 31
0.0
  0
LINE
  5
2FF
330
287
100
AcDbEntity
  8
0
  6
Continuous
 62
     0
370
    30
100
AcDbLine
 10
684.396407
 20
288.094669
 30
0.0
 11
684.047342
 21
287.77872
 31
0.0
  0
LINE
  5
300
330
287
100
AcDbEntity
  8
0
  6
Continuous
 62
     0
370
    30
100
AcDbLine
 10
685.133728
 20
288.505763
 30
0.0
 11
684.396407
 21
288.094669
 31
0.0
  0
LINE
  5
301
330
287
100
AcDbEntity
  8
0
  6
Continuous
 62
     0
370
    30
100
AcDbLine
 10
688.440711
 20
286.597396
 30
0.0
 11
685.133728
 21
288.505763
 31
0.0
  0
LINE
  5
302
330
287
100
AcDbEntity
  8
0
  6
Continuous
 62
     0
370
    30
100
AcDbLine
 10
688.638693
 20
286.357955
 30
0.0
 11
688.440711
 21
286.597396
 31
0.0
  0
LINE
  5
303
330
287
100
AcDbEntity
  8
0
  6
Continuous
 62
     0
370
    30
100
AcDbLine
 10
688.417436
 20
286.132611
 30
0.0
 11
688.638693
 21
286.357955
 31
0.0
  0
LINE
  5
304
330
287
100
AcDbEntity
  8
0
  6
Continuous
 62
     0
370
    30
100
AcDbLine
 10
689.869494
 20
286.79699
 30
0.0
 11
688.541548
 21
286.05992
 31
0.0
  0
ARC
  5
305
330
287
100
AcDbEntity
  8
0
  6
Continuous
 62
     0
370
    30
100
AcDbCircle
 10
689.338251
 20
287.47745
 30
0.0
 40
0.7318017671475909
100
AcDbArc
 50
236.753696
 51
303.827572
  0
LINE
  5
306
330
287
100
AcDbEntity
  8
0
  6
Continuous
 62
     0
370
    30
100
AcDbLine
 10
685.623517
 20
288.777618
 30
0.0
 11
688.937049
 21
286.865428
 31
0.0
  0
LINE
  5
307
330
287
100
AcDbEntity
  8
0
  6
Continuous
 62
     0
370
    30
100
AcDbLine
 10
686.358967
 20
289.183986
 30
0.0
 11
685.623517
 21
288.777618
 31
0.0
  0
LINE
  5
308
330
287
100
AcDbEntity
  8
0
  6
Continuous
 62
     0
370
    30
100
AcDbLine
 10
686.922027
 20
289.374336
 30
0.0
 11
686.358967
 21
289.183986
 31
0.0
  0
LINE
  5
309
330
287
100
AcDbEntity
  8
0
  6
Continuous
 62
     0
370
    30
100
AcDbLine
 10
687.586976
 20
289.188836
 30
0.0
 11
686.922027
 21
289.374336
 31
0.0
  0
LINE
  5
30A
330
287
100
AcDbEntity
  8
0
  6
Continuous
 62
     0
370
    30
100
AcDbLine
 10
687.717975
 20
289.26065
 30
0.0
 11
687.586976
 21
289.188836
 31
0.0
  0
LINE
  5
30B
330
287
100
AcDbEntity
  8
0
  6
Continuous
 62
     0
370
    30
100
AcDbLine
 10
686.68937
 20
289.847633
 30
0.0
 11
687.717975
 21
289.26065
 31
0.0
  0
LINE
  5
30C
330
287
100
AcDbEntity
  8
0
  6
Continuous
 62
     0
370
    30
100
AcDbLine
 10
686.589305
 20
289.792784
 30
0.0
 11
686.68937
 21
289.847633
 31
0.0
  0
LINE
  5
30D
330
287
100
AcDbEntity
  8
0
  6
Continuous
 62
     0
370
    30
100
AcDbLine
 10
687.586976
 20
289.025612
 30
0.0
 11
687.717975
 21
289.097425
 31
0.0
  0
LINE
  5
30E
330
287
100
AcDbEntity
  8
0
  6
Continuous
 62
     0
370
    30
100
AcDbLine
 10
686.922027
 20
289.211111
 30
0.0
 11
687.586976
 21
289.025612
 31
0.0
  0
LINE
  5
30F
330
287
100
AcDbEntity
  8
0
  6
Continuous
 62
     0
370
    30
100
AcDbLine
 10
686.358967
 20
289.020759
 30
0.0
 11
686.922027
 21
289.211111
 31
0.0
  0
LINE
  5
310
330
287
100
AcDbEntity
  8
0
  6
Continuous
 62
     0
370
    30
100
AcDbLine
 10
688.541548
 20
285.896685
 30
0.0
 11
689.869494
 21
286.633763
 31
0.0
  0
LINE
  5
311
330
287
100
AcDbEntity
  8
0
  6
Continuous
 62
     0
370
    30
100
AcDbLine
 10
688.440711
 20
286.434163
 30
0.0
 11
688.598584
 21
286.311632
 31
0.0
  0
LINE
  5
312
330
287
100
AcDbEntity
  8
0
  6
Continuous
 62
     0
370
    30
100
AcDbLine
 10
685.133728
 20
288.34253
 30
0.0
 11
688.440711
 21
286.434163
 31
0.0
  0
LINE
  5
313
330
287
100
AcDbEntity
  8
0
  6
Continuous
 62
     0
370
    30
100
AcDbLine
 10
684.047342
 20
287.615478
 30
0.0
 11
684.396407
 21
287.931431
 31
0.0
  0
LINE
  5
314
330
287
100
AcDbEntity
  8
0
  6
Continuous
 62
     0
370
    30
100
AcDbLine
 10
683.193066
 20
287.743692
 30
0.0
 11
684.22167
 21
287.156703
 31
0.0
  0
LINE
  5
315
330
287
100
AcDbEntity
  8
0
  6
Continuous
 62
     0
370
    30
100
AcDbLine
 10
687.717975
 20
289.26065
 30
0.0
 11
687.717975
 21
289.097425
 31
0.0
  0
LINE
  5
316
330
287
100
AcDbEntity
  8
0
  6
Continuous
 62
     0
370
    30
100
AcDbLine
 10
687.586976
 20
289.188836
 30
0.0
 11
687.586976
 21
289.025612
 31
0.0
  0
LINE
  5
317
330
287
100
AcDbEntity
  8
0
  6
Continuous
 62
     0
370
     0
100
AcDbLine
 10
686.922027
 20
289.374336
 30
0.0
 11
686.922027
 21
289.211111
 31
0.0
  0
LINE
  5
318
330
287
100
AcDbEntity
  8
0
  6
Continuous
 62
     0
370
     0
100
AcDbLine
 10
686.358967
 20
289.183986
 30
0.0
 11
686.358967
 21
289.020759
 31
0.0
  0
LINE
  5
319
330
287
100
AcDbEntity
  8
0
  6
Continuous
 62
     0
370
    30
100
AcDbLine
 10
685.623517
 20
288.777618
 30
0.0
 11
685.623517
 21
288.614388
 31
0.0
  0
LINE
  5
31A
330
287
100
AcDbEntity
  8
0
  6
Continuous
 62
     0
370
    30
100
AcDbLine
 10
689.869494
 20
286.79699
 30
0.0
 11
689.869494
 21
286.633763
 31
0.0
  0
LINE
  5
31B
330
287
100
AcDbEntity
  8
0
  6
Continuous
 62
     0
370
    30
100
AcDbLine
 10
688.541548
 20
286.05992
 30
0.0
 11
688.541548
 21
285.896685
 31
0.0
  0
LINE
  5
31C
330
287
100
AcDbEntity
  8
0
  6
Continuous
 62
     0
370
    30
100
AcDbLine
 10
688.417436
 20
286.132611
 30
0.0
 11
688.417436
 21
285.969376
 31
0.0
  0
LINE
  5
31D
330
287
100
AcDbEntity
  8
0
  6
Continuous
 62
     0
370
     0
100
AcDbLine
 10
688.440711
 20
286.597396
 30
0.0
 11
688.440711
 21
286.434163
 31
0.0
  0
LINE
  5
31E
330
287
100
AcDbEntity
  8
0
  6
Continuous
 62
     0
370
    30
100
AcDbLine
 10
685.133728
 20
288.505763
 30
0.0
 11
685.133728
 21
288.34253
 31
0.0
  0
LINE
  5
31F
330
287
100
AcDbEntity
  8
0
  6
Continuous
 62
     0
370
     0
100
AcDbLine
 10
684.396407
 20
288.094669
 30
0.0
 11
684.396407
 21
287.931431
 31
0.0
  0
LINE
  5
320
330
287
100
AcDbEntity
  8
0
  6
Continuous
 62
     0
370
     0
100
AcDbLine
 10
684.047342
 20
287.77872
 30
0.0
 11
684.047342
 21
287.615478
 31
0.0
  0
LINE
  5
321
330
287
100
AcDbEntity
  8
0
  6
Continuous
 62
     0
370
    30
100
AcDbLine
 10
684.332029
 20
287.381969
 30
0.0
 11
684.332029
 21
287.218724
 31
0.0
  0
LINE
  5
322
330
287
100
AcDbEntity
  8
0
  6
Continuous
 62
     0
370
    30
100
AcDbLine
 10
684.22167
 20
287.319949
 30
0.0
 11
684.22167
 21
287.156703
 31
0.0
  0
LINE
  5
323
330
287
100
AcDbEntity
  8
0
  6
Continuous
 62
     0
370
    30
100
AcDbLine
 10
683.193066
 20
287.906934
 30
0.0
 11
683.193066
 21
287.743692
 31
0.0
  0
ELLIPSE
  5
324
330
287
100
AcDbEntity
  8
0
  6
Continuous
 62
     0
370
    30
100
AcDbEllipse
 10
787.703903
 20
345.185069
 30
0.0
 11
-24.5
 21
0.0
 31
0.0
210
0.0
220
0.0
230
1.0
 40
0.57735
 41
0.7853981633974483
 42
3.926990816987242
  0
LINE
  5
325
330
287
100
AcDbEntity
  8
0
  6
Continuous
 62
     0
370
    30
100
AcDbLine
 10
788.683269
 20
347.942108
 30
0.0
 11
788.46531
 21
348.211401
 31
0.0
  0
LINE
  5
326
330
287
100
AcDbEntity
  8
0
  6
Continuous
 62
     0
370
    30
100
AcDbLine
 10
788.46531
 20
348.211401
 30
0.0
 11
788.662689
 21
348.430633
 31
0.0
  0
LINE
  5
327
330
287
100
AcDbEntity
  8
0
  6
Continuous
 62
     0
370
    30
100
AcDbLine
 10
788.610304
 20
348.460482
 30
0.0
 11
787.353068
 21
347.745653
 31
0.0
  0
LINE
  5
328
330
287
100
AcDbEntity
  8
0
  6
Continuous
 62
     0
370
    30
100
AcDbLine
 10
787.405453
 20
347.715803
 30
0.0
 11
787.797404
 21
347.828456
 31
0.0
  0
LINE
  5
329
330
287
100
AcDbEntity
  8
0
  6
Continuous
 62
     0
370
    30
100
AcDbLine
 10
787.797404
 20
347.828456
 30
0.0
 11
788.26419
 21
347.703832
 31
0.0
  0
LINE
  5
32A
330
287
100
AcDbEntity
  8
0
  6
Continuous
 62
     0
370
    30
100
AcDbLine
 10
788.26419
 20
347.703832
 30
0.0
 11
791.247319
 21
345.980164
 31
0.0
  0
LINE
  5
32B
330
287
100
AcDbEntity
  8
0
  6
Continuous
 62
     0
370
    30
100
AcDbLine
 10
791.247319
 20
345.980164
 30
0.0
 11
791.455923
 21
345.729742
 31
0.0
  0
LINE
  5
32C
330
287
100
AcDbEntity
  8
0
  6
Continuous
 62
     0
370
    30
100
AcDbLine
 10
791.455923
 20
345.729742
 30
0.0
 11
791.315606
 21
345.517797
 31
0.0
  0
LINE
  5
32D
330
287
100
AcDbEntity
  8
0
  6
Continuous
 62
     0
370
    30
100
AcDbLine
 10
791.305316
 20
345.462144
 30
0.0
 11
793.629893
 21
346.778769
 31
0.0
  0
LINE
  5
32E
330
287
100
AcDbEntity
  8
0
  6
Continuous
 62
     0
370
    30
100
AcDbLine
 10
793.629893
 20
346.778769
 30
0.0
 11
793.110722
 21
347.251568
 31
0.0
  0
LINE
  5
32F
330
287
100
AcDbEntity
  8
0
  6
Continuous
 62
     0
370
    30
100
AcDbLine
 10
793.065821
 20
347.226373
 30
0.0
 11
793.23233
 21
346.951319
 31
0.0
  0
LINE
  5
330
330
287
100
AcDbEntity
  8
0
  6
Continuous
 62
     0
370
    30
100
AcDbLine
 10
793.23233
 20
346.951319
 30
0.0
 11
793.193976
 21
346.735538
 31
0.0
  0
LINE
  5
331
330
287
100
AcDbEntity
  8
0
  6
Continuous
 62
     0
370
    30
100
AcDbLine
 10
793.193976
 20
346.735538
 30
0.0
 11
792.899312
 21
346.506121
 31
0.0
  0
LINE
  5
332
330
287
100
AcDbEntity
  8
0
  6
Continuous
 62
     0
370
    30
100
AcDbLine
 10
792.899312
 20
346.506121
 30
0.0
 11
792.564423
 21
346.316968
 31
0.0
  0
LINE
  5
333
330
287
100
AcDbEntity
  8
0
  6
Continuous
 62
     0
370
    30
100
AcDbLine
 10
792.564423
 20
346.316968
 30
0.0
 11
792.049929
 21
346.139762
 31
0.0
  0
LINE
  5
334
330
287
100
AcDbEntity
  8
0
  6
Continuous
 62
     0
370
    30
100
AcDbLine
 10
792.049929
 20
346.139762
 30
0.0
 11
791.56724
 21
346.276318
 31
0.0
  0
LINE
  5
335
330
287
100
AcDbEntity
  8
0
  6
Continuous
 62
     0
370
    30
100
AcDbLine
 10
791.56724
 20
346.276318
 30
0.0
 11
788.683269
 21
347.942108
 31
0.0
  0
LINE
  5
336
330
287
100
AcDbEntity
  8
0
  6
Continuous
 62
     0
370
    30
100
AcDbLine
 10
795.037708
 20
348.119829
 30
0.0
 11
795.229006
 21
347.911243
 31
0.0
  0
LINE
  5
337
330
287
100
AcDbEntity
  8
0
  6
Continuous
 62
     0
370
    30
100
AcDbLine
 10
795.229006
 20
347.911243
 30
0.0
 11
795.105995
 21
347.703489
 31
0.0
  0
LINE
  5
338
330
287
100
AcDbEntity
  8
0
  6
Continuous
 62
     0
370
    30
100
AcDbLine
 10
795.13106
 20
347.587615
 30
0.0
 11
796.920372
 21
348.575257
 31
0.0
  0
LINE
  5
339
330
287
100
AcDbEntity
  8
0
  6
Continuous
 62
     0
370
    30
100
AcDbLine
 10
796.920372
 20
348.575257
 30
0.0
 11
797.51894
 21
348.982572
 31
0.0
  0
LINE
  5
33A
330
287
100
AcDbEntity
  8
0
  6
Continuous
 62
     0
370
    30
100
AcDbLine
 10
797.51894
 20
348.982572
 30
0.0
 11
797.77357
 21
349.331589
 31
0.0
  0
LINE
  5
33B
330
287
100
AcDbEntity
  8
0
  6
Continuous
 62
     0
370
    30
100
AcDbLine
 10
797.77357
 20
349.331589
 30
0.0
 11
797.852682
 21
349.724666
 31
0.0
  0
LINE
  5
33C
330
287
100
AcDbEntity
  8
0
  6
Continuous
 62
     0
370
    30
100
AcDbLine
 10
797.852682
 20
349.724666
 30
0.0
 11
797.758348
 21
350.104328
 31
0.0
  0
LINE
  5
33D
330
287
100
AcDbEntity
  8
0
  6
Continuous
 62
     0
370
    30
100
AcDbLine
 10
797.758348
 20
350.104328
 30
0.0
 11
797.483797
 21
350.471442
 31
0.0
  0
LINE
  5
33E
330
287
100
AcDbEntity
  8
0
  6
Continuous
 62
     0
370
    30
100
AcDbLine
 10
797.483797
 20
350.471442
 30
0.0
 11
797.025142
 21
350.809534
 31
0.0
  0
LINE
  5
33F
330
287
100
AcDbEntity
  8
0
  6
Continuous
 62
     0
370
    30
100
AcDbLine
 10
797.025142
 20
350.809534
 30
0.0
 11
796.426931
 21
351.081358
 31
0.0
  0
LINE
  5
340
330
287
100
AcDbEntity
  8
0
  6
Continuous
 62
     0
370
    30
100
AcDbLine
 10
796.426931
 20
351.081358
 30
0.0
 11
795.737585
 21
351.257782
 31
0.0
  0
LINE
  5
341
330
287
100
AcDbEntity
  8
0
  6
Continuous
 62
     0
370
    30
100
AcDbLine
 10
795.737585
 20
351.257782
 30
0.0
 11
794.995424
 21
351.327772
 31
0.0
  0
LINE
  5
342
330
287
100
AcDbEntity
  8
0
  6
Continuous
 62
     0
370
    30
100
AcDbLine
 10
794.995424
 20
351.327772
 30
0.0
 11
794.505079
 21
351.312522
 31
0.0
  0
LINE
  5
343
330
287
100
AcDbEntity
  8
0
  6
Continuous
 62
     0
370
    30
100
AcDbLine
 10
794.505079
 20
351.312522
 30
0.0
 11
793.932061
 21
351.226801
 31
0.0
  0
LINE
  5
344
330
287
100
AcDbEntity
  8
0
  6
Continuous
 62
     0
370
    30
100
AcDbLine
 10
793.932061
 20
351.226801
 30
0.0
 11
793.300072
 21
351.047037
 31
0.0
  0
LINE
  5
345
330
287
100
AcDbEntity
  8
0
  6
Continuous
 62
     0
370
    30
100
AcDbLine
 10
793.300072
 20
351.047037
 30
0.0
 11
792.656069
 21
350.75655
 31
0.0
  0
LINE
  5
346
330
287
100
AcDbEntity
  8
0
  6
Continuous
 62
     0
370
    30
100
AcDbLine
 10
792.656069
 20
350.75655
 30
0.0
 11
791.117456
 21
349.906497
 31
0.0
  0
LINE
  5
347
330
287
100
AcDbEntity
  8
0
  6
Continuous
 62
     0
370
    30
100
AcDbLine
 10
791.322679
 20
349.889343
 30
0.0
 11
791.531132
 21
349.958474
 31
0.0
  0
LINE
  5
348
330
287
100
AcDbEntity
  8
0
  6
Continuous
 62
     0
370
    30
100
AcDbLine
 10
791.531132
 20
349.958474
 30
0.0
 11
791.779518
 21
349.94859
 31
0.0
  0
LINE
  5
349
330
287
100
AcDbEntity
  8
0
  6
Continuous
 62
     0
370
    30
100
AcDbLine
 10
791.779518
 20
349.94859
 30
0.0
 11
792.062062
 21
349.839104
 31
0.0
  0
LINE
  5
34A
330
287
100
AcDbEntity
  8
0
  6
Continuous
 62
     0
370
    30
100
AcDbLine
 10
792.062062
 20
349.839104
 30
0.0
 11
795.037708
 21
348.119829
 31
0.0
  0
LINE
  5
34B
330
287
100
AcDbEntity
  8
0
  6
Continuous
 62
     0
370
    30
100
AcDbLine
 10
792.279705
 20
350.265351
 30
0.0
 11
792.825936
 21
350.632509
 31
0.0
  0
LINE
  5
34C
330
287
100
AcDbEntity
  8
0
  6
Continuous
 62
     0
370
    30
100
AcDbLine
 10
792.825936
 20
350.632509
 30
0.0
 11
793.823676
 21
350.991556
 31
0.0
  0
LINE
  5
34D
330
287
100
AcDbEntity
  8
0
  6
Continuous
 62
     0
370
    30
100
AcDbLine
 10
793.823676
 20
350.991556
 30
0.0
 11
794.848576
 21
351.032364
 31
0.0
  0
LINE
  5
34E
330
287
100
AcDbEntity
  8
0
  6
Continuous
 62
     0
370
    30
100
AcDbLine
 10
794.848576
 20
351.032364
 30
0.0
 11
795.739948
 21
350.845676
 31
0.0
  0
LINE
  5
34F
330
287
100
AcDbEntity
  8
0
  6
Continuous
 62
     0
370
    30
100
AcDbLine
 10
795.739948
 20
350.845676
 30
0.0
 11
796.51945
 21
350.503462
 31
0.0
  0
LINE
  5
350
330
287
100
AcDbEntity
  8
0
  6
Continuous
 62
     0
370
    30
100
AcDbLine
 10
796.51945
 20
350.503462
 30
0.0
 11
797.147079
 21
350.00687
 31
0.0
  0
LINE
  5
351
330
287
100
AcDbEntity
  8
0
  6
Continuous
 62
     0
370
    30
100
AcDbLine
 10
797.147079
 20
350.00687
 30
0.0
 11
797.351422
 21
349.534623
 31
0.0
  0
LINE
  5
352
330
287
100
AcDbEntity
  8
0
  6
Continuous
 62
     0
370
    30
100
AcDbLine
 10
797.351422
 20
349.534623
 30
0.0
 11
797.174203
 21
349.024685
 31
0.0
  0
LINE
  5
353
330
287
100
AcDbEntity
  8
0
  6
Continuous
 62
     0
370
    30
100
AcDbLine
 10
797.174203
 20
349.024685
 30
0.0
 11
796.556868
 21
348.592886
 31
0.0
  0
LINE
  5
354
330
287
100
AcDbEntity
  8
0
  6
Continuous
 62
     0
370
    30
100
AcDbLine
 10
796.556868
 20
348.592886
 30
0.0
 11
796.08682
 21
348.369655
 31
0.0
  0
LINE
  5
355
330
287
100
AcDbEntity
  8
0
  6
Continuous
 62
     0
370
    30
100
AcDbLine
 10
796.08682
 20
348.369655
 30
0.0
 11
795.757129
 21
348.331478
 31
0.0
  0
LINE
  5
356
330
287
100
AcDbEntity
  8
0
  6
Continuous
 62
     0
370
    30
100
AcDbLine
 10
795.757129
 20
348.331478
 30
0.0
 11
795.373149
 21
348.480707
 31
0.0
  0
LINE
  5
357
330
287
100
AcDbEntity
  8
0
  6
Continuous
 62
     0
370
    30
100
AcDbLine
 10
795.373149
 20
348.480707
 30
0.0
 11
792.279705
 21
350.265351
 31
0.0
  0
LINE
  5
358
330
287
100
AcDbEntity
  8
0
  6
Continuous
 62
     0
370
    30
100
AcDbLine
 10
784.449432
 20
346.073336
 30
0.0
 11
785.559798
 21
346.21269
 31
0.0
  0
LINE
  5
359
330
287
100
AcDbEntity
  8
0
  6
Continuous
 62
     0
370
    30
100
AcDbLine
 10
783.517793
 20
345.704417
 30
0.0
 11
784.449432
 21
346.073336
 31
0.0
  0
LINE
  5
35A
330
287
100
AcDbEntity
  8
0
  6
Continuous
 62
     0
370
    30
100
AcDbLine
 10
782.881089
 20
345.146237
 30
0.0
 11
783.517793
 21
345.704417
 31
0.0
  0
LINE
  5
35B
330
287
100
AcDbEntity
  8
0
  6
Continuous
 62
     0
370
    30
100
AcDbLine
 10
782.652832
 20
344.49
 30
0.0
 11
782.881089
 21
345.146237
 31
0.0
  0
LINE
  5
35C
330
287
100
AcDbEntity
  8
0
  6
Continuous
 62
     0
370
    30
100
AcDbLine
 10
782.872598
 20
343.824844
 30
0.0
 11
782.652832
 21
344.49
 31
0.0
  0
LINE
  5
35D
330
287
100
AcDbEntity
  8
0
  6
Continuous
 62
     0
370
    30
100
AcDbLine
 10
783.447155
 20
343.303648
 30
0.0
 11
782.872598
 21
343.824844
 31
0.0
  0
ELLIPSE
  5
35E
330
287
100
AcDbEntity
  8
0
  6
Continuous
 62
     0
370
     0
100
AcDbEllipse
 10
787.703903
 20
19.19964
 30
0.0
 11
200.0000000000001
 21
346.4101615137755
 31
0.0
210
0.0
220
0.0
230
1.0
 40
0.57735
 41
0.7985599617180128
 42
0.8004486079123794
  0
LINE
  5
35F
330
287
100
AcDbEntity
  8
0
  6
Continuous
 62
     0
370
    30
100
AcDbLine
 10
783.279318
 20
344.209071
 30
0.0
 11
783.981292
 21
343.620733
 31
0.0
  0
LINE
  5
360
330
287
100
AcDbEntity
  8
0
  6
Continuous
 62
     0
370
    30
100
AcDbLine
 10
783.08012
 20
344.791064
 30
0.0
 11
783.279318
 21
344.209071
 31
0.0
  0
LINE
  5
361
330
287
100
AcDbEntity
  8
0
  6
Continuous
 62
     0
370
    30
100
AcDbLine
 10
783.287775
 20
345.254574
 30
0.0
 11
783.08012
 21
344.791064
 31
0.0
  0
LINE
  5
362
330
287
100
AcDbEntity
  8
0
  6
Continuous
 62
     0
370
    30
100
AcDbLine
 10
783.70824
 20
345.594883
 30
0.0
 11
783.287775
 21
345.254574
 31
0.0
  0
LINE
  5
363
330
287
100
AcDbEntity
  8
0
  6
Continuous
 62
     0
370
    30
100
AcDbLine
 10
784.521397
 20
345.897551
 30
0.0
 11
783.70824
 21
345.594883
 31
0.0
  0
LINE
  5
364
330
287
100
AcDbEntity
  8
0
  6
Continuous
 62
     0
370
    30
100
AcDbLine
 10
785.726706
 20
345.922549
 30
0.0
 11
784.521397
 21
345.897551
 31
0.0
  0
LINE
  5
365
330
287
100
AcDbEntity
  8
0
  6
Continuous
 62
     0
370
    30
100
AcDbLine
 10
787.095434
 20
345.446216
 30
0.0
 11
785.726706
 21
345.922549
 31
0.0
  0
ELLIPSE
  5
366
330
287
100
AcDbEntity
  8
0
  6
Continuous
 62
     0
370
     0
100
AcDbEllipse
 10
787.703903
 20
19.19964
 30
0.0
 11
200.0000000000001
 21
346.4101615137755
 31
0.0
210
0.0
220
0.0
230
1.0
 40
0.57735
 41
0.7856617196723423
 42
0.7875494295765204
  0
LINE
  5
367
330
287
100
AcDbEntity
  8
0
  6
Continuous
 62
     0
370
    30
100
AcDbLine
 10
786.710117
 20
346.091992
 30
0.0
 11
787.629358
 21
345.755222
 31
0.0
  0
LINE
  5
368
330
287
100
AcDbEntity
  8
0
  6
Continuous
 62
     0
370
    30
100
AcDbLine
 10
785.559798
 20
346.21269
 30
0.0
 11
786.710117
 21
346.091992
 31
0.0
  0
LINE
  5
369
330
287
100
AcDbEntity
  8
0
  6
Continuous
 62
     0
370
    30
100
AcDbLine
 10
787.219342
 20
345.376649
 30
0.0
 11
787.095434
 21
345.446216
 31
0.0
  0
LINE
  5
36A
330
287
100
AcDbEntity
  8
0
  6
Continuous
 62
     0
370
    30
100
AcDbLine
 10
787.99773
 20
344.760941
 30
0.0
 11
787.219342
 21
345.376649
 31
0.0
  0
LINE
  5
36B
330
287
100
AcDbEntity
  8
0
  6
Continuous
 62
     0
370
    30
100
AcDbLine
 10
788.220602
 20
344.202329
 30
0.0
 11
787.99773
 21
344.760941
 31
0.0
  0
LINE
  5
36C
330
287
100
AcDbEntity
  8
0
  6
Continuous
 62
     0
370
    30
100
AcDbLine
 10
788.035534
 20
343.728872
 30
0.0
 11
788.220602
 21
344.202329
 31
0.0
  0
LINE
  5
36D
330
287
100
AcDbEntity
  8
0
  6
Continuous
 62
     0
370
    30
100
AcDbLine
 10
787.592584
 20
343.357147
 30
0.0
 11
788.035534
 21
343.728872
 31
0.0
  0
LINE
  5
36E
330
287
100
AcDbEntity
  8
0
  6
Continuous
 62
     0
370
    30
100
AcDbLine
 10
786.913249
 20
343.080557
 30
0.0
 11
787.592584
 21
343.357147
 31
0.0
  0
LINE
  5
36F
330
287
100
AcDbEntity
  8
0
  6
Continuous
 62
     0
370
    30
100
AcDbLine
 10
786.070178
 20
342.982226
 30
0.0
 11
786.913249
 21
343.080557
 31
0.0
  0
LINE
  5
370
330
287
100
AcDbEntity
  8
0
  6
Continuous
 62
     0
370
    30
100
AcDbLine
 10
785.100493
 20
343.12504
 30
0.0
 11
786.070178
 21
342.982226
 31
0.0
  0
LINE
  5
371
330
287
100
AcDbEntity
  8
0
  6
Continuous
 62
     0
370
    30
100
AcDbLine
 10
784.086159
 20
343.558516
 30
0.0
 11
785.100493
 21
343.12504
 31
0.0
  0
LINE
  5
372
330
287
100
AcDbEntity
  8
0
  6
Continuous
 62
     0
370
    30
100
AcDbLine
 10
783.981292
 20
343.620733
 30
0.0
 11
784.086159
 21
343.558516
 31
0.0
  0
LINE
  5
373
330
287
100
AcDbEntity
  8
0
  6
Continuous
 62
     0
370
    30
100
AcDbLine
 10
783.541179
 20
343.247044
 30
0.0
 11
783.447155
 21
343.303648
 31
0.0
  0
LINE
  5
374
330
287
100
AcDbEntity
  8
0
  6
Continuous
 62
     0
370
    30
100
AcDbLine
 10
784.8887
 20
342.791669
 30
0.0
 11
783.541179
 21
343.247044
 31
0.0
  0
LINE
  5
375
330
287
100
AcDbEntity
  8
0
  6
Continuous
 62
     0
370
    30
100
AcDbLine
 10
786.429659
 20
342.78802
 30
0.0
 11
784.8887
 21
342.791669
 31
0.0
  0
LINE
  5
376
330
287
100
AcDbEntity
  8
0
  6
Continuous
 62
     0
370
    30
100
AcDbLine
 10
787.784902
 20
343.24553
 30
0.0
 11
786.429659
 21
342.78802
 31
0.0
  0
LINE
  5
377
330
287
100
AcDbEntity
  8
0
  6
Continuous
 62
     0
370
    30
100
AcDbLine
 10
788.549285
 20
344.030623
 30
0.0
 11
787.784902
 21
343.24553
 31
0.0
  0
ARC
  5
378
330
287
100
AcDbEntity
  8
0
  6
Continuous
 62
     0
370
    30
100
AcDbCircle
 10
787.585844
 20
344.448019
 30
0.0
 40
1.049970191199539
100
AcDbArc
 50
336.576086
 51
26.727925
  0
LINE
  5
379
330
287
100
AcDbEntity
  8
0
  6
Continuous
 62
     0
370
    30
100
AcDbLine
 10
787.744678
 20
345.691499
 30
0.0
 11
788.523628
 21
344.920247
 31
0.0
  0
LINE
  5
37A
330
287
100
AcDbEntity
  8
0
  6
Continuous
 62
     0
370
    30
100
AcDbLine
 10
787.629358
 20
345.755222
 30
0.0
 11
787.744678
 21
345.691499
 31
0.0
  0
LINE
  5
37B
330
287
100
AcDbEntity
  8
0
  6
Continuous
 62
     0
370
    30
100
AcDbLine
 10
779.488091
 20
339.818078
 30
0.0
 11
778.592637
 21
340.17582
 31
0.0
  0
LINE
  5
37C
330
287
100
AcDbEntity
  8
0
  6
Continuous
 62
     0
370
    30
100
AcDbLine
 10
780.554846
 20
339.674844
 30
0.0
 11
779.488091
 21
339.818078
 31
0.0
  0
LINE
  5
37D
330
287
100
AcDbEntity
  8
0
  6
Continuous
 62
     0
370
    30
100
AcDbLine
 10
781.672572
 20
339.795256
 30
0.0
 11
780.554846
 21
339.674844
 31
0.0
  0
LINE
  5
37E
330
287
100
AcDbEntity
  8
0
  6
Continuous
 62
     0
370
    30
100
AcDbLine
 10
782.693237
 20
340.208158
 30
0.0
 11
781.672572
 21
339.795256
 31
0.0
  0
LINE
  5
37F
330
287
100
AcDbEntity
  8
0
  6
Continuous
 62
     0
370
    30
100
AcDbLine
 10
783.294942
 20
340.732264
 30
0.0
 11
782.693237
 21
340.208158
 31
0.0
  0
LINE
  5
380
330
287
100
AcDbEntity
  8
0
  6
Continuous
 62
     0
370
    30
100
AcDbLine
 10
783.525809
 20
341.380645
 30
0.0
 11
783.294942
 21
340.732264
 31
0.0
  0
LINE
  5
381
330
287
100
AcDbEntity
  8
0
  6
Continuous
 62
     0
370
    30
100
AcDbLine
 10
783.268596
 20
341.530767
 30
0.0
 11
783.525809
 21
341.380645
 31
0.0
  0
LINE
  5
382
330
287
100
AcDbEntity
  8
0
  6
Continuous
 62
     0
370
    30
100
AcDbLine
 10
783.043236
 20
340.849677
 30
0.0
 11
783.268596
 21
341.530767
 31
0.0
  0
LINE
  5
383
330
287
100
AcDbEntity
  8
0
  6
Continuous
 62
     0
370
    30
100
AcDbLine
 10
782.527111
 20
340.394766
 30
0.0
 11
783.043236
 21
340.849677
 31
0.0
  0
LINE
  5
384
330
287
100
AcDbEntity
  8
0
  6
Continuous
 62
     0
370
    30
100
AcDbLine
 10
781.766883
 20
340.088335
 30
0.0
 11
782.527111
 21
340.394766
 31
0.0
  0
LINE
  5
385
330
287
100
AcDbEntity
  8
0
  6
Continuous
 62
     0
370
    30
100
AcDbLine
 10
780.882086
 20
340.010942
 30
0.0
 11
781.766883
 21
340.088335
 31
0.0
  0
LINE
  5
386
330
287
100
AcDbEntity
  8
0
  6
Continuous
 62
     0
370
    30
100
AcDbLine
 10
779.946365
 20
340.163625
 30
0.0
 11
780.882086
 21
340.010942
 31
0.0
  0
LINE
  5
387
330
287
100
AcDbEntity
  8
0
  6
Continuous
 62
     0
370
    30
100
AcDbLine
 10
779.071201
 20
340.536626
 30
0.0
 11
779.946365
 21
340.163625
 31
0.0
  0
LINE
  5
388
330
287
100
AcDbEntity
  8
0
  6
Continuous
 62
     0
370
    30
100
AcDbLine
 10
778.967684
 20
340.598586
 30
0.0
 11
779.071201
 21
340.536626
 31
0.0
  0
ELLIPSE
  5
389
330
287
100
AcDbEntity
  8
0
  6
Continuous
 62
     0
370
     0
100
AcDbEllipse
 10
787.703903
 20
19.19964
 30
0.0
 11
200.0000000000001
 21
346.4101615137755
 31
0.0
210
0.0
220
0.0
230
1.0
 40
0.57735
 41
0.8162902764271651
 42
0.8181689224155493
  0
LINE
  5
38A
330
287
100
AcDbEntity
  8
0
  6
Continuous
 62
     0
370
    30
100
AcDbLine
 10
778.592637
 20
340.17582
 30
0.0
 11
778.436592
 21
340.272432
 31
0.0
  0
LINE
  5
38B
330
287
100
AcDbEntity
  8
0
  6
Continuous
 62
     0
370
    30
100
AcDbLine
 10
778.400292
 20
341.061289
 30
0.0
 11
778.967684
 21
340.598586
 31
0.0
  0
LINE
  5
38C
330
287
100
AcDbEntity
  8
0
  6
Continuous
 62
     0
370
    30
100
AcDbLine
 10
778.108993
 20
341.614441
 30
0.0
 11
778.400292
 21
341.061289
 31
0.0
  0
LINE
  5
38D
330
287
100
AcDbEntity
  8
0
  6
Continuous
 62
     0
370
    30
100
AcDbLine
 10
778.208517
 20
342.143764
 30
0.0
 11
778.108993
 21
341.614441
 31
0.0
  0
LINE
  5
38E
330
287
100
AcDbEntity
  8
0
  6
Continuous
 62
     0
370
    30
100
AcDbLine
 10
778.681121
 20
342.596544
 30
0.0
 11
778.208517
 21
342.143764
 31
0.0
  0
LINE
  5
38F
330
287
100
AcDbEntity
  8
0
  6
Continuous
 62
     0
370
    30
100
AcDbLine
 10
779.291577
 20
342.854165
 30
0.0
 11
778.681121
 21
342.596544
 31
0.0
  0
LINE
  5
390
330
287
100
AcDbEntity
  8
0
  6
Continuous
 62
     0
370
    30
100
AcDbLine
 10
780.077649
 20
342.976691
 30
0.0
 11
779.291577
 21
342.854165
 31
0.0
  0
LINE
  5
391
330
287
100
AcDbEntity
  8
0
  6
Continuous
 62
     0
370
    30
100
AcDbLine
 10
780.842794
 20
342.847647
 30
0.0
 11
780.077649
 21
342.976691
 31
0.0
  0
LINE
  5
392
330
287
100
AcDbEntity
  8
0
  6
Continuous
 62
     0
370
    30
100
AcDbLine
 10
780.975572
 20
342.927481
 30
0.0
 11
780.842794
 21
342.847647
 31
0.0
  0
LINE
  5
393
330
287
100
AcDbEntity
  8
0
  6
Continuous
 62
     0
370
    30
100
AcDbLine
 10
779.946967
 20
343.515243
 30
0.0
 11
780.975572
 21
342.927481
 31
0.0
  0
LINE
  5
394
330
287
100
AcDbEntity
  8
0
  6
Continuous
 62
     0
370
    30
100
AcDbLine
 10
779.858165
 20
343.461857
 30
0.0
 11
779.946967
 21
343.515243
 31
0.0
  0
LINE
  5
395
330
287
100
AcDbEntity
  8
0
  6
Continuous
 62
     0
370
    30
100
AcDbLine
 10
779.948176
 20
343.345229
 30
0.0
 11
779.858165
 21
343.461857
 31
0.0
  0
LINE
  5
396
330
287
100
AcDbEntity
  8
0
  6
Continuous
 62
     0
370
    30
100
AcDbLine
 10
779.872323
 20
343.259991
 30
0.0
 11
779.948176
 21
343.345229
 31
0.0
  0
LINE
  5
397
330
287
100
AcDbEntity
  8
0
  6
Continuous
 62
     0
370
    30
100
AcDbLine
 10
779.727393
 20
343.199873
 30
0.0
 11
779.872323
 21
343.259991
 31
0.0
  0
LINE
  5
398
330
287
100
AcDbEntity
  8
0
  6
Continuous
 62
     0
370
    30
100
AcDbLine
 10
779.34182
 20
343.097169
 30
0.0
 11
779.727393
 21
343.199873
 31
0.0
  0
LINE
  5
399
330
287
100
AcDbEntity
  8
0
  6
Continuous
 62
     0
370
    30
100
AcDbLine
 10
778.495351
 20
342.708934
 30
0.0
 11
779.34182
 21
343.097169
 31
0.0
  0
ARC
  5
39A
330
287
100
AcDbEntity
  8
0
  6
Continuous
 62
     0
370
    30
100
AcDbCircle
 10
779.329916
 20
341.175843
 30
0.0
 40
1.745528471572074
100
AcDbArc
 50
118.562459
 51
155.37795
  0
ARC
  5
39B
330
287
100
AcDbEntity
  8
0
  6
Continuous
 62
     0
370
    30
100
AcDbCircle
 10
778.75714
 20
341.480682
 30
0.0
 40
1.098500598992603
100
AcDbArc
 50
157.385724
 51
207.198506
  0
LINE
  5
39C
330
287
100
AcDbEntity
  8
0
  6
Continuous
 62
     0
370
    30
100
AcDbLine
 10
778.436592
 20
340.272432
 30
0.0
 11
777.780103
 21
340.978585
 31
0.0
  0
ELLIPSE
  5
39D
330
287
100
AcDbEntity
  8
0
  6
Continuous
 62
     0
370
     0
100
AcDbEllipse
 10
768.258467
 20
390.094172
 30
0.0
 11
5.500000000000001
 21
9.526279441628827
 31
0.0
210
0.0
220
0.0
230
1.0
 40
0.57735
 41
2.356194490192347
 42
3.141592630739641
  0
ELLIPSE
  5
39E
330
287
100
AcDbEntity
  8
0
  6
Continuous
 62
     0
370
     0
100
AcDbEllipse
 10
768.258467
 20
390.094172
 30
0.0
 11
5.500000000000001
 21
9.526279441628827
 31
0.0
210
0.0
220
0.0
230
1.0
 40
0.57735
 41
-0.0000000228501529
 42
2.356194490192347
  0
ELLIPSE
  5
39F
330
287
100
AcDbEntity
  8
0
  6
Continuous
 62
     0
370
     0
100
AcDbEllipse
 10
734.670895
 20
370.702378
 30
0.0
 11
-11.0
 21
0.0
 31
0.0
210
0.0
220
0.0
230
1.0
 40
0.57735
 41
0.78539816339745
 42
3.141593074793713
  0
ELLIPSE
  5
3A0
330
287
100
AcDbEntity
  8
0
  6
Continuous
 62
     0
370
     0
100
AcDbEllipse
 10
734.670895
 20
370.702378
 30
0.0
 11
-11.0
 21
0.0
 31
0.0
210
0.0
220
0.0
230
1.0
 40
0.57735
 41
6.283183323773986
 42
7.068583470577036
  0
ELLIPSE
  5
3A1
330
287
100
AcDbEntity
  8
0
  6
Continuous
 62
     0
370
    30
100
AcDbEllipse
 10
734.670895
 20
307.832143
 30
0.0
 11
-11.0
 21
0.0
 31
0.0
210
0.0
220
0.0
230
1.0
 40
0.57735
 41
0.7853981633974492
 42
3.141592644950107
  0
ELLIPSE
  5
3A2
330
287
100
AcDbEntity
  8
0
  6
Continuous
 62
     0
370
    30
100
AcDbEllipse
 10
734.670895
 20
307.832143
 30
0.0
 11
-11.0
 21
0.0
 31
0.0
210
0.0
220
0.0
230
1.0
 40
0.57735
 41
-0.0000000086396863
 42
0.7853981633974474
  0
LINE
  5
3A3
330
287
100
AcDbEntity
  8
0
  6
Continuous
 62
     0
370
    30
100
AcDbLine
 10
745.670895
 20
307.832143
 30
0.0
 11
745.670895
 21
370.702378
 31
0.0
  0
LINE
  5
3A4
330
287
100
AcDbEntity
  8
0
  6
Continuous
 62
     0
370
    30
100
AcDbLine
 10
723.670895
 20
307.832143
 30
0.0
 11
723.670895
 21
370.702378
 31
0.0
  0
LWPOLYLINE
  5
3A5
330
287
100
AcDbEntity
  8
0
  6
Continuous
 62
     0
370
    30
100
AcDbPolyline
 90
       38
 70
     0
 43
0.0
 10
745.670898
 20
370.702393
 10
745.693298
 20
371.901703
 10
745.758667
 20
373.051117
 10
745.864258
 20
374.146088
 10
746.007385
 20
375.181946
 10
746.185242
 20
376.154144
 10
746.394958
 20
377.058319
 10
746.632507
 20
377.892792
 10
746.892822
 20
378.65741
 10
747.171021
 20
379.352142
 10
747.46228
 20
379.976929
 10
747.761536
 20
380.531647
 10
748.064392
 20
381.017731
 10
748.36792
 20
381.440491
 10
748.669373
 20
381.805939
 10
748.966309
 20
382.120148
 10
749.260254
 20
382.390137
 10
749.554565
 20
382.623352
 10
749.852783
 20
382.827179
 10
750.159973
 20
383.006897
 10
750.483765
 20
383.16449
 10
750.832031
 20
383.301605
 10
751.212463
 20
383.419983
 10
751.632629
 20
383.520416
 10
752.098328
 20
383.599243
 10
752.614746
 20
383.651337
 10
753.186951
 20
383.671509
 10
753.816162
 20
383.654846
 10
754.500854
 20
383.596588
 10
755.239136
 20
383.492035
 10
756.029358
 20
383.336456
 10
756.869751
 20
383.125061
 10
757.757751
 20
382.854126
 10
758.688477
 20
382.522675
 10
759.656555
 20
382.13028
 10
760.656799
 20
381.676514
 10
761.683838
 20
381.160889
 10
762.758423
 20
380.567902
  0
LWPOLYLINE
  5
3A6
330
287
100
AcDbEntity
  8
0
  6
Continuous
 62
     0
370
    30
100
AcDbPolyline
 90
       50
 70
     0
 43
0.0
 10
723.670898
 20
370.702393
 10
723.694519
 20
372.315796
 10
723.76593
 20
373.912567
 10
723.885559
 20
375.491516
 10
724.054077
 20
377.051605
 10
724.272095
 20
378.591614
 10
724.540222
 20
380.109955
 10
724.859009
 20
381.60495
 10
725.229187
 20
383.074921
 10
725.651245
 20
384.518158
 10
726.125854
 20
385.933044
 10
726.653625
 20
387.317841
 10
727.235168
 20
388.670929
 10
727.871094
 20
389.99057
 10
728.562012
 20
391.275146
 10
729.308411
 20
392.522736
 10
730.10968
 20
393.730621
 10
730.965088
 20
394.895691
 10
731.873779
 20
396.014862
 10
732.8349
 20
397.085083
 10
733.847717
 20
398.103271
 10
734.911255
 20
399.066376
 10
736.023193
 20
399.97171
 10
737.180664
 20
400.816742
 10
738.380798
 20
401.598999
 10
739.620605
 20
402.315918
 10
740.897217
 20
402.965393
 10
742.20697
 20
403.546356
 10
743.546448
 20
404.057922
 10
744.912109
 20
404.499237
 10
746.300354
 20
404.869476
 10
747.707825
 20
405.168701
 10
749.131226
 20
405.397675
 10
750.567322
 20
405.55722
 10
752.012817
 20
405.648193
 10
753.464783
 20
405.671448
 10
754.921631
 20
405.628296
 10
756.38208
 20
405.520081
 10
757.844849
 20
405.348175
 10
759.308655
 20
405.113953
 10
760.772156
 20
404.818726
 10
762.23407
 20
404.463867
 10
763.693176
 20
404.05072
 10
765.14801
 20
403.580658
 10
766.597412
 20
403.055054
 10
768.040161
 20
402.47522
 10
769.475403
 20
401.842316
 10
770.902527
 20
401.157562
 10
772.320862
 20
400.422058
 10
773.758484
 20
399.620453
  0
LINE
  5
3A7
330
287
100
AcDbEntity
  8
0
  6
Continuous
 62
     0
370
    30
100
AcDbLine
 10
762.758467
 20
380.567893
 30
0.0
 11
763.53138
 21
380.121651
 31
0.0
  0
LINE
  5
3A8
330
287
100
AcDbEntity
  8
0
  6
Continuous
 62
     0
370
    30
100
AcDbLine
 10
773.758467
 20
399.620451
 30
0.0
 11
774.531331
 21
399.174238
 31
0.0
  0
ELLIPSE
  5
3A9
330
287
100
AcDbEntity
  8
0
  6
Continuous
 62
     0
370
     0
100
AcDbEllipse
 10
771.475786
 20
388.236652
 30
0.0
 11
5.999999999999999
 21
10.39230484541326
 31
0.0
210
0.0
220
0.0
230
1.0
 40
0.57735
 41
2.007201461565298
 42
3.141592630739643
  0
ELLIPSE
  5
3AA
330
287
100
AcDbEntity
  8
0
  6
Continuous
 62
     0
370
     0
100
AcDbEllipse
 10
771.475786
 20
388.236652
 30
0.0
 11
5.999999999999999
 21
10.39230484541326
 31
0.0
210
0.0
220
0.0
230
1.0
 40
0.57735
 41
-0.0000000228501511
 42
2.007201461565298
  0
ELLIPSE
  5
3AB
330
287
100
AcDbEntity
  8
0
  6
Continuous
 62
     0
370
     0
100
AcDbEllipse
 10
772.889999
 20
387.420156
 30
0.0
 11
6.000000000000004
 21
10.39230484541327
 31
0.0
210
0.0
220
0.0
230
1.0
 40
0.57735
 41
2.007201461565296
 42
3.141592630739625
  0
ELLIPSE
  5
3AC
330
287
100
AcDbEntity
  8
0
  6
Continuous
 62
     0
370
     0
100
AcDbEllipse
 10
772.889999
 20
387.420156
 30
0.0
 11
6.000000000000004
 21
10.39230484541327
 31
0.0
210
0.0
220
0.0
230
1.0
 40
0.57735
 41
-0.0000000228501724
 42
2.007201461565296
  0
ELLIPSE
  5
3AD
330
287
100
AcDbEntity
  8
0
  6
Continuous
 62
     0
370
     0
100
AcDbEllipse
 10
773.066776
 20
387.318094
 30
0.0
 11
5.874999999999999
 21
10.17579849446715
 31
0.0
210
0.0
220
0.0
230
1.0
 40
0.57735
 41
2.007201461565298
 42
3.500815902883248
  0
ELLIPSE
  5
3AE
330
287
100
AcDbEntity
  8
0
  6
Continuous
 62
     0
370
     0
100
AcDbEllipse
 10
773.066776
 20
387.318094
 30
0.0
 11
5.874999999999999
 21
10.17579849446715
 31
0.0
210
0.0
220
0.0
230
1.0
 40
0.57735
 41
5.92396201218581
 42
8.290386768744884
  0
ELLIPSE
  5
3AF
330
287
100
AcDbEntity
  8
0
  6
Continuous
 62
     0
370
     0
100
AcDbEllipse
 10
773.066776
 20
387.318094
 30
0.0
 11
5.62499970494804
 21
9.742785281529949
 31
0.0
210
0.0
220
0.0
230
1.0
 40
0.57735
 41
2.0072014615653
 42
3.352803516658891
  0
ELLIPSE
  5
3B0
330
287
100
AcDbEntity
  8
0
  6
Continuous
 62
     0
370
     0
100
AcDbEllipse
 10
773.066776
 20
387.318094
 30
0.0
 11
5.62499970494804
 21
9.742785281529949
 31
0.0
210
0.0
220
0.0
230
1.0
 40
0.57735
 41
6.071974398410158
 42
8.290386768744886
  0
ELLIPSE
  5
3B1
330
287
100
AcDbEntity
  8
0
  6
Continuous
 62
     0
370
     0
100
AcDbEllipse
 10
773.243553
 20
387.216031
 30
0.0
 11
5.499999704948029
 21
9.526278930583818
 31
0.0
210
0.0
220
0.0
230
1.0
 40
0.57735
 41
2.007201461565305
 42
3.141594219951377
  0
ELLIPSE
  5
3B2
330
287
100
AcDbEntity
  8
0
  6
Continuous
 62
     0
370
     0
100
AcDbEllipse
 10
773.243553
 20
387.216031
 30
0.0
 11
5.499999704948029
 21
9.526278930583818
 31
0.0
210
0.0
220
0.0
230
1.0
 40
0.57735
 41
-0.0000000228501564
 42
2.007201461565305
  0
ELLIPSE
  5
3B3
330
287
100
AcDbEntity
  8
0
  6
Continuous
 62
     0
370
     0
100
AcDbEllipse
 10
785.264368
 20
380.275811
 30
0.0
 11
5.499999704948026
 21
9.526278930583814
 31
0.0
210
0.0
220
0.0
230
1.0
 40
0.57735
 41
2.007201461565288
 42
3.141592630739701
  0
ELLIPSE
  5
3B4
330
287
100
AcDbEntity
  8
0
  6
Continuous
 62
     0
370
     0
100
AcDbEllipse
 10
785.264368
 20
380.275811
 30
0.0
 11
5.499999704948026
 21
9.526278930583814
 31
0.0
210
0.0
220
0.0
230
1.0
 40
0.57735
 41
-0.0000000228500694
 42
2.007201461565288
  0
ELLIPSE
  5
3B5
330
287
100
AcDbEntity
  8
0
  6
Continuous
 62
     0
370
     0
100
AcDbEllipse
 10
785.441145
 20
380.173748
 30
0.0
 11
5.374999704948047
 21
9.309772579637741
 31
0.0
210
0.0
220
0.0
230
1.0
 40
0.57735
 41
2.007201461565309
 42
5.148794115155084
  0
ELLIPSE
  5
3B6
330
287
100
AcDbEntity
  8
0
  6
Continuous
 62
     0
370
     0
100
AcDbEllipse
 10
785.441145
 20
380.173748
 30
0.0
 11
5.374999704948047
 21
9.309772579637741
 31
0.0
210
0.0
220
0.0
230
1.0
 40
0.57735
 41
5.148794115155092
 42
8.290386768744895
  0
LWPOLYLINE
  5
3B7
330
287
100
AcDbEntity
  8
0
  6
Continuous
 62
     0
370
    30
100
AcDbPolyline
 90
       15
 70
     0
 43
0.0
 10
790.764343
 20
389.802094
 10
791.206543
 20
389.503662
 10
791.608887
 20
389.143097
 10
791.968079
 20
388.723999
 10
792.280701
 20
388.250092
 10
792.544983
 20
387.725128
 10
792.759888
 20
387.152863
 10
792.924744
 20
386.537079
 10
793.038696
 20
385.881683
 10
793.101685
 20
385.190857
 10
793.113708
 20
384.469025
 10
793.074768
 20
383.72049
 10
792.985046
 20
382.949707
 10
792.845215
 20
382.161865
 10
792.649109
 20
381.334076
  0
LWPOLYLINE
  5
3B8
330
287
100
AcDbEntity
  8
0
  6
Continuous
 62
     0
370
    30
100
AcDbPolyline
 90
       25
 70
     0
 43
0.0
 10
779.764343
 20
370.749542
 10
780.258972
 20
370.509918
 10
780.789917
 20
370.339905
 10
781.352173
 20
370.240601
 10
781.940613
 20
370.213074
 10
782.55011
 20
370.25824
 10
783.17627
 20
370.374939
 10
783.814758
 20
370.560822
 10
784.461548
 20
370.813538
 10
785.112366
 20
371.130768
 10
785.763
 20
371.510101
 10
786.409363
 20
371.949188
 10
787.047241
 20
372.445709
 10
787.672424
 20
372.997101
 10
788.281128
 20
373.599335
 10
788.869446
 20
374.247589
 10
789.433716
 20
374.937012
 10
789.970154
 20
375.662781
 10
790.474976
 20
376.420044
 10
790.944458
 20
377.203949
 10
791.374817
 20
378.009644
 10
791.762695
 20
378.831726
 10
792.105652
 20
379.663452
 10
792.401428
 20
380.497955
 10
792.649109
 20
381.334076
  0
LINE
  5
3B9
330
287
100
AcDbEntity
  8
0
  6
Continuous
 62
     0
370
    30
100
AcDbLine
 10
778.743552
 20
396.74231
 30
0.0
 11
790.764368
 21
389.802089
 31
0.0
  0
LINE
  5
3BA
330
287
100
AcDbEntity
  8
0
  6
Continuous
 62
     0
370
    30
100
AcDbLine
 10
767.743553
 20
377.689753
 30
0.0
 11
779.764368
 21
370.749532
 31
0.0
  0
ARC
  5
3BB
330
287
100
AcDbEntity
  8
0
  6
Continuous
 62
     0
370
    30
100
AcDbCircle
 10
776.454619
 20
393.764523
 30
0.0
 40
4.724073665897798
100
AcDbArc
 50
22.013496
 51
58.967419
  0
ARC
  5
3BC
330
287
100
AcDbEntity
  8
0
  6
Continuous
 62
     0
370
    30
100
AcDbCircle
 10
769.179884
 20
381.173221
 30
0.0
 40
4.735785258806494
100
AcDbArc
 50
241.083924
 51
277.939283
  0
LWPOLYLINE
  5
3BD
330
287
100
AcDbEntity
  8
0
  6
Continuous
 62
     0
370
    30
100
AcDbPolyline
 90
       26
 70
     0
 43
0.0
 10
763.409119
 20
387.007782
 10
763.663269
 20
387.882568
 10
763.96759
 20
388.759918
 10
764.319702
 20
389.634155
 10
764.717163
 20
390.499664
 10
765.157715
 20
391.3508
 10
765.638733
 20
392.181946
 10
766.15686
 20
392.988007
 10
766.708679
 20
393.763885
 10
767.290649
 20
394.504486
 10
767.899292
 20
395.204742
 10
768.530884
 20
395.860077
 10
769.181335
 20
396.466888
 10
769.846436
 20
397.021606
 10
770.522095
 20
397.520691
 10
771.204102
 20
397.960602
 10
771.888306
 20
398.33783
 10
772.570679
 20
398.649933
 10
773.247192
 20
398.895172
 10
773.914001
 20
399.071838
 10
774.567078
 20
399.178253
 10
775.202515
 20
399.212769
 10
775.815979
 20
399.174316
 10
776.402649
 20
399.063629
 10
776.957336
 20
398.881653
 10
777.475769
 20
398.628967
  0
ELLIPSE
  5
3BE
330
287
100
AcDbEntity
  8
0
  6
Continuous
 62
     0
370
    30
100
AcDbEllipse
 10
681.637886
 20
268.803604
 30
0.0
 11
28.24998707028868
 21
0.0
 31
0.0
210
0.0
220
0.0
230
-1.0
 40
0.57735
 41
6.263171137129556
 42
8.63937979737193
  0
ELLIPSE
  5
3BF
330
287
100
AcDbEntity
  8
0
  6
Continuous
 62
     0
370
    30
100
AcDbEllipse
 10
681.637886
 20
268.803604
 30
0.0
 11
28.24998707028868
 21
0.0
 31
0.0
210
0.0
220
0.0
230
-1.0
 40
0.57735
 41
2.356194490192345
 42
3.161606840919199
  0
ELLIPSE
  5
3C0
330
287
100
AcDbEntity
  8
0
  6
Continuous
 62
     0
370
    30
100
AcDbEllipse
 10
681.637886
 20
214.75154
 30
0.0
 11
28.24998707028865
 21
0.0
 31
0.0
210
0.0
220
0.0
230
-1.0
 40
0.57735
 41
0.0000000086396861
 42
2.356194490192345
  0
ELLIPSE
  5
3C1
330
287
100
AcDbEntity
  8
0
  6
Continuous
 62
     0
370
    30
100
AcDbEllipse
 10
681.637886
 20
214.75154
 30
0.0
 11
28.24998707028865
 21
0.0
 31
0.0
210
0.0
220
0.0
230
-1.0
 40
0.57735
 41
2.356194490192345
 42
3.141592662229479
  0
ELLIPSE
  5
3C2
330
287
100
AcDbEntity
  8
0
  6
Continuous
 62
     0
370
    30
100
AcDbEllipse
 10
681.637886
 20
214.75154
 30
0.0
 11
30.50000000000001
 21
0.0
 31
0.0
210
0.0
220
0.0
230
-1.0
 40
0.57735
 41
5.89667213849219
 42
8.63937979737193
  0
ELLIPSE
  5
3C3
330
287
100
AcDbEntity
  8
0
  6
Continuous
 62
     0
370
    30
100
AcDbEllipse
 10
681.637886
 20
214.75154
 30
0.0
 11
30.50000000000001
 21
0.0
 31
0.0
210
0.0
220
0.0
230
-1.0
 40
0.57735
 41
2.356194490192345
 42
3.528105839556559
  0
ELLIPSE
  5
3C4
330
287
100
AcDbEntity
  8
0
  6
Continuous
 62
     0
370
    30
100
AcDbEllipse
 10
681.637886
 20
213.445145
 30
0.0
 11
30.50000000000001
 21
0.0
 31
0.0
210
0.0
220
0.0
230
-1.0
 40
0.57735
 41
0.0000000086396861
 42
2.356194490192344
  0
ELLIPSE
  5
3C5
330
287
100
AcDbEntity
  8
0
  6
Continuous
 62
     0
370
    30
100
AcDbEllipse
 10
681.637886
 20
213.445145
 30
0.0
 11
30.50000000000001
 21
0.0
 31
0.0
210
0.0
220
0.0
230
-1.0
 40
0.57735
 41
2.356194490192345
 42
3.141592662229479
  0
ELLIPSE
  5
3C6
330
287
100
AcDbEntity
  8
0
  6
Continuous
 62
     0
370
    30
100
AcDbEllipse
 10
681.637886
 20
208.709465
 30
0.0
 11
29.45000000000001
 21
0.0
 31
0.0
210
0.0
220
0.0
230
-1.0
 40
0.57735
 41
0.0000000086396865
 42
2.356194490192345
  0
ELLIPSE
  5
3C7
330
287
100
AcDbEntity
  8
0
  6
Continuous
 62
     0
370
    30
100
AcDbEllipse
 10
681.637886
 20
208.709465
 30
0.0
 11
29.45000000000001
 21
0.0
 31
0.0
210
0.0
220
0.0
230
-1.0
 40
0.57735
 41
2.356194490192345
 42
3.141592662229479
  0
ELLIPSE
  5
3C8
330
287
100
AcDbEntity
  8
0
  6
Continuous
 62
     0
370
    30
100
AcDbEllipse
 10
681.637886
 20
208.709465
 30
0.0
 11
30.50000000000001
 21
0.0
 31
0.0
210
0.0
220
0.0
230
-1.0
 40
0.57735
 41
6.148310565110068
 42
8.63937979737193
  0
ELLIPSE
  5
3C9
330
287
100
AcDbEntity
  8
0
  6
Continuous
 62
     0
370
    30
100
AcDbEllipse
 10
681.637886
 20
208.709465
 30
0.0
 11
30.50000000000001
 21
0.0
 31
0.0
210
0.0
220
0.0
230
-1.0
 40
0.57735
 41
2.356194490192345
 42
3.276467412938684
  0
ELLIPSE
  5
3CA
330
287
100
AcDbEntity
  8
0
  6
Continuous
 62
     0
370
    30
100
AcDbEllipse
 10
681.637886
 20
207.40307
 30
0.0
 11
30.50000000000001
 21
0.0
 31
0.0
210
0.0
220
0.0
230
-1.0
 40
0.57735
 41
0.0000000086396861
 42
2.356194490192345
  0
ELLIPSE
  5
3CB
330
287
100
AcDbEntity
  8
0
  6
Continuous
 62
     0
370
    30
100
AcDbEllipse
 10
681.637886
 20
207.40307
 30
0.0
 11
30.50000000000001
 21
0.0
 31
0.0
210
0.0
220
0.0
230
-1.0
 40
0.57735
 41
2.356194490192345
 42
3.141592662229479
  0
ELLIPSE
  5
3CC
330
287
100
AcDbEntity
  8
0
  6
Continuous
 62
     0
370
    30
100
AcDbEllipse
 10
681.637886
 20
191.889629
 30
0.0
 11
10.35
 21
0.0
 31
0.0
210
0.0
220
0.0
230
-1.0
 40
0.57735
 41
0.1828311214681554
 42
2.356194490192345
  0
ELLIPSE
  5
3CD
330
287
100
AcDbEntity
  8
0
  6
Continuous
 62
     0
370
    30
100
AcDbEllipse
 10
681.637886
 20
191.889629
 30
0.0
 11
10.35
 21
0.0
 31
0.0
210
0.0
220
0.0
230
-1.0
 40
0.57735
 41
2.356194490192345
 42
2.95876154940101
  0
ELLIPSE
  5
3CE
330
287
100
AcDbEntity
  8
0
  6
Continuous
 62
     0
370
    30
100
AcDbEllipse
 10
681.637886
 20
190.664884
 30
0.0
 11
8.850000000000016
 21
0.0
 31
0.0
210
0.0
220
0.0
230
-1.0
 40
0.57735
 41
0.7853982263771488
 42
2.356194490192344
  0
LWPOLYLINE
  5
3CF
330
287
100
AcDbEntity
  8
0
  6
Continuous
 62
     0
370
    30
100
AcDbPolyline
 90
       13
 70
     0
 43
0.0
 10
767.728149
 20
304.46405
 10
766.990723
 20
304.877289
 10
766.285339
 20
305.246918
 10
765.615967
 20
305.570587
 10
764.985168
 20
305.846741
 10
764.39502
 20
306.073944
 10
763.846436
 20
306.251251
 10
763.339722
 20
306.377991
 10
762.875061
 20
306.453491
 10
762.452026
 20
306.477173
 10
762.069336
 20
306.448578
 10
761.725525
 20
306.367279
 10
761.391663
 20
306.216949
  0
LWPOLYLINE
  5
3D0
330
287
100
AcDbEntity
  8
0
  6
Continuous
 62
     0
370
    30
100
AcDbPolyline
 90
       39
 70
     0
 43
0.0
 10
777.368103
 20
278.490601
 10
778.053162
 20
278.917023
 10
778.706665
 20
279.39328
 10
779.324585
 20
279.916962
 10
779.90271
 20
280.485596
 10
780.436462
 20
281.096619
 10
780.921143
 20
281.747498
 10
781.352051
 20
282.435425
 10
781.724182
 20
283.157043
 10
782.032654
 20
283.908813
 10
782.272888
 20
284.686798
 10
782.441284
 20
285.486389
 10
782.534607
 20
286.302795
 10
782.551147
 20
287.131073
 10
782.491211
 20
287.966339
 10
782.355225
 20
288.80365
 10
782.14563
 20
289.63913
 10
781.866455
 20
290.469391
 10
781.521545
 20
291.291321
 10
781.11554
 20
292.102966
 10
780.653625
 20
292.903107
 10
780.140625
 20
293.690552
 10
779.581299
 20
294.464569
 10
778.980103
 20
295.224884
 10
778.341492
 20
295.971252
 10
777.669739
 20
296.703278
 10
776.968628
 20
297.420502
 10
776.242126
 20
298.122467
 10
775.49408
 20
298.808533
 10
774.728394
 20
299.477692
 10
773.949036
 20
300.128723
 10
773.159912
 20
300.760284
 10
772.365417
 20
301.370483
 10
771.570007
 20
301.957184
 10
770.778198
 20
302.51828
 10
769.994507
 20
303.051483
 10
769.223511
 20
303.554291
 10
768.469788
 20
304.024109
 10
767.728149
 20
304.46405
  0
LWPOLYLINE
  5
3D1
330
287
100
AcDbEntity
  8
0
  6
Continuous
 62
     0
370
    30
100
AcDbPolyline
 90
       20
 70
     0
 43
0.0
 10
739.52063
 20
257.505646
 10
739.325623
 20
257.659515
 10
739.158386
 20
257.881989
 10
739.016663
 20
258.175537
 10
738.898621
 20
258.542053
 10
738.802979
 20
258.982727
 10
738.728821
 20
259.497833
 10
738.675598
 20
260.085419
 10
738.642944
 20
260.742249
 10
738.630798
 20
261.462708
 10
738.638916
 20
262.239105
 10
738.667542
 20
263.062836
 10
738.716675
 20
263.923859
 10
738.786682
 20
264.812103
 10
738.877991
 20
265.717834
 10
738.991516
 20
266.632019
 10
739.128479
 20
267.546753
 10
739.290466
 20
268.45462
 10
739.479797
 20
269.349182
 10
739.70282
 20
270.237244
  0
LWPOLYLINE
  5
3D2
330
287
100
AcDbEntity
  8
0
  6
Continuous
 62
     0
370
    30
100
AcDbPolyline
 90
       22
 70
     0
 43
0.0
 10
739.70282
 20
270.237244
 10
739.911255
 20
270.946228
 10
740.145386
 20
271.634338
 10
740.408142
 20
272.297668
 10
740.702271
 20
272.932281
 10
741.030823
 20
273.533447
 10
741.396545
 20
274.095886
 10
741.802185
 20
274.613617
 10
742.248901
 20
275.080505
 10
742.735779
 20
275.490509
 10
743.261475
 20
275.837982
 10
743.821594
 20
276.119476
 10
744.410095
 20
276.332947
 10
745.020386
 20
276.478119
 10
745.64502
 20
276.556976
 10
746.277039
 20
276.572357
 10
746.910278
 20
276.527893
 10
747.538635
 20
276.427185
 10
748.157166
 20
276.273651
 10
748.761108
 20
276.070557
 10
749.34613
 20
275.820648
 10
749.926453
 20
275.515625
  0
LWPOLYLINE
  5
3D3
330
287
100
AcDbEntity
  8
0
  6
Continuous
 62
     0
370
    30
100
AcDbPolyline
 90
       11
 70
     0
 43
0.0
 10
726.8927
 20
280.887695
 10
726.292114
 20
281.243591
 10
725.747375
 20
281.58548
 10
725.262695
 20
281.911102
 10
724.841187
 20
282.218842
 10
724.484375
 20
282.508331
 10
724.19281
 20
282.779907
 10
723.966553
 20
283.034393
 10
723.804749
 20
283.273529
 10
723.706543
 20
283.499664
 10
723.670898
 20
283.733704
  0
LWPOLYLINE
  5
3D4
330
287
100
AcDbEntity
  8
0
  6
Continuous
 62
     0
370
    30
100
AcDbPolyline
 90
       35
 70
     0
 43
0.0
 10
745.670898
 20
283.734619
 10
745.646484
 20
283.070801
 10
745.572815
 20
282.408356
 10
745.450073
 20
281.75177
 10
745.277771
 20
281.106384
 10
745.055481
 20
280.477661
 10
744.782654
 20
279.871338
 10
744.458679
 20
279.294403
 10
744.08313
 20
278.754486
 10
743.656372
 20
278.259674
 10
743.180054
 20
277.818115
 10
742.65686
 20
277.437103
 10
742.091431
 20
277.121796
 10
741.489197
 20
276.875427
 10
740.856262
 20
276.697327
 10
740.198547
 20
276.585266
 10
739.520935
 20
276.534485
 10
738.82782
 20
276.53949
 10
738.122375
 20
276.594604
 10
737.407166
 20
276.694
 10
736.684082
 20
276.832733
 10
735.954712
 20
277.006256
 10
735.220642
 20
277.210205
 10
734.483337
 20
277.440979
 10
733.744446
 20
277.695282
 10
733.005859
 20
277.970062
 10
732.269836
 20
278.262421
 10
731.539062
 20
278.569458
 10
730.816772
 20
278.888397
 10
730.106567
 20
279.21637
 10
729.41272
 20
279.550354
 10
728.739807
 20
279.887329
 10
728.09259
 20
280.224335
 10
727.476135
 20
280.558228
 10
726.8927
 20
280.887695
  0
ELLIPSE
  5
3D5
330
287
100
AcDbEntity
  8
0
  6
Continuous
 62
     0
370
    30
100
AcDbEllipse
 10
759.419632
 20
258.025852
 30
0.0
 11
5.200000000000001
 21
9.006664199358163
 31
0.0
210
0.0
220
0.0
230
1.0
 40
0.57735
 41
1.501806133189637
 42
4.643398786779428
  0
ELLIPSE
  5
3D6
330
287
100
AcDbEntity
  8
0
  6
Continuous
 62
     0
370
    30
100
AcDbEllipse
 10
759.419632
 20
258.025852
 30
0.0
 11
5.200000000000001
 21
9.006664199358163
 31
0.0
210
0.0
220
0.0
230
1.0
 40
0.57735
 41
4.64339878677943
 42
7.784991440369224
  0
ELLIPSE
  5
3D7
330
287
100
AcDbEntity
  8
0
  6
Continuous
 62
     0
370
    30
100
AcDbEllipse
 10
734.670895
 20
307.832143
 30
0.0
 11
11.99999790185404
 21
0.0
 31
0.0
210
0.0
220
0.0
230
-1.0
 40
0.57735
 41
5.872047854533047
 42
8.63937979737193
  0
ELLIPSE
  5
3D8
330
287
100
AcDbEntity
  8
0
  6
Continuous
 62
     0
370
    30
100
AcDbEllipse
 10
734.670895
 20
307.832143
 30
0.0
 11
11.99999790185404
 21
0.0
 31
0.0
210
0.0
220
0.0
230
-1.0
 40
0.57735
 41
2.356194490192345
 42
3.552730123515703
  0
ELLIPSE
  5
3D9
330
287
100
AcDbEntity
  8
0
  6
Continuous
 62
     0
370
    30
100
AcDbEllipse
 10
734.670895
 20
305.790863
 30
0.0
 11
11.99999790185407
 21
0.0
 31
0.0
210
0.0
220
0.0
230
-1.0
 40
0.57735
 41
0.0000000086396846
 42
2.356194490192344
  0
ELLIPSE
  5
3DA
330
287
100
AcDbEntity
  8
0
  6
Continuous
 62
     0
370
    30
100
AcDbEllipse
 10
734.670895
 20
305.790863
 30
0.0
 11
11.99999790185407
 21
0.0
 31
0.0
210
0.0
220
0.0
230
-1.0
 40
0.57735
 41
2.356194490192345
 42
3.141592662229479
  0
ELLIPSE
  5
3DB
330
287
100
AcDbEntity
  8
0
  6
Continuous
 62
     0
370
     0
100
AcDbEllipse
 10
696.345662
 20
294.441601
 30
0.0
 11
-7.000015238582818
 21
-12.12438204698181
 31
0.0
210
0.0
220
0.0
230
-1.0
 40
0.57735
 41
1.604434857842242
 42
3.141592676439949
  0
ELLIPSE
  5
3DC
330
287
100
AcDbEntity
  8
0
  6
Continuous
 62
     0
370
    30
100
AcDbEllipse
 10
717.912463
 20
281.990003
 30
0.0
 11
-7.000015238582801
 21
-12.12438204698179
 31
0.0
210
0.0
220
0.0
230
-1.0
 40
0.57735
 41
1.402491109557158
 42
2.976997198358036
  0
ELLIPSE
  5
3DD
330
287
100
AcDbEntity
  8
0
  6
Continuous
 62
     0
370
    30
100
AcDbEllipse
 10
717.912463
 20
281.990003
 30
0.0
 11
-4.000000000000001
 21
-6.92820323027551
 31
0.0
210
0.0
220
0.0
230
-1.0
 40
0.57735
 41
0.7853981633974515
 42
3.14159267643995
  0
ELLIPSE
  5
3DE
330
287
100
AcDbEntity
  8
0
  6
Continuous
 62
     0
370
    30
100
AcDbEllipse
 10
717.912463
 20
281.990003
 30
0.0
 11
-4.000000000000001
 21
-6.92820323027551
 31
0.0
210
0.0
220
0.0
230
-1.0
 40
0.57735
 41
0.6509148348532576
 42
0.7853981633974484
  0
ELLIPSE
  5
3DF
330
287
100
AcDbEntity
  8
0
  6
Continuous
 62
     0
370
    30
100
AcDbEllipse
 10
787.703903
 20
330.040847
 30
0.0
 11
28.24998707028868
 21
0.0
 31
0.0
210
0.0
220
0.0
230
-1.0
 40
0.57735
 41
6.26317113712954
 42
8.63937979737193
  0
ELLIPSE
  5
3E0
330
287
100
AcDbEntity
  8
0
  6
Continuous
 62
     0
370
    30
100
AcDbEllipse
 10
787.703903
 20
330.040847
 30
0.0
 11
28.24998707028868
 21
0.0
 31
0.0
210
0.0
220
0.0
230
-1.0
 40
0.57735
 41
2.356194490192345
 42
3.161606840919194
  0
ELLIPSE
  5
3E1
330
287
100
AcDbEntity
  8
0
  6
Continuous
 62
     0
370
    30
100
AcDbEllipse
 10
787.703903
 20
275.988783
 30
0.0
 11
28.24998707028865
 21
0.0
 31
0.0
210
0.0
220
0.0
230
-1.0
 40
0.57735
 41
0.0000000086396859
 42
2.356194490192344
  0
ELLIPSE
  5
3E2
330
287
100
AcDbEntity
  8
0
  6
Continuous
 62
     0
370
    30
100
AcDbEllipse
 10
787.703903
 20
275.988783
 30
0.0
 11
28.24998707028865
 21
0.0
 31
0.0
210
0.0
220
0.0
230
-1.0
 40
0.57735
 41
2.617337023599226
 42
2.732160618551321
  0
ELLIPSE
  5
3E3
330
287
100
AcDbEntity
  8
0
  6
Continuous
 62
     0
370
    30
100
AcDbEllipse
 10
787.703903
 20
275.988783
 30
0.0
 11
28.24998707028865
 21
0.0
 31
0.0
210
0.0
220
0.0
230
-1.0
 40
0.57735
 41
2.356194490192345
 42
2.443563525274274
  0
ELLIPSE
  5
3E4
330
287
100
AcDbEntity
  8
0
  6
Continuous
 62
     0
370
    30
100
AcDbEllipse
 10
787.703903
 20
275.988783
 30
0.0
 11
30.50000000000001
 21
0.0
 31
0.0
210
0.0
220
0.0
230
-1.0
 40
0.57735
 41
5.896672138492191
 42
8.612426085030698
  0
ELLIPSE
  5
3E5
330
287
100
AcDbEntity
  8
0
  6
Continuous
 62
     0
370
    30
100
AcDbEllipse
 10
787.703903
 20
274.682389
 30
0.0
 11
30.50000000000001
 21
0.0
 31
0.0
210
0.0
220
0.0
230
-1.0
 40
0.57735
 41
0.0000000086396856
 42
2.327453363923811
  0
ELLIPSE
  5
3E6
330
287
100
AcDbEntity
  8
0
  6
Continuous
 62
     0
370
    30
100
AcDbEllipse
 10
787.703903
 20
269.946709
 30
0.0
 11
29.45000000000001
 21
0.0
 31
0.0
210
0.0
220
0.0
230
-1.0
 40
0.57735
 41
0.0000000086396864
 42
2.356194490192345
  0
ELLIPSE
  5
3E7
330
287
100
AcDbEntity
  8
0
  6
Continuous
 62
     0
370
    30
100
AcDbEllipse
 10
787.703903
 20
269.946709
 30
0.0
 11
29.45000000000001
 21
0.0
 31
0.0
210
0.0
220
0.0
230
-1.0
 40
0.57735
 41
2.356194490192345
 42
2.393581503516939
  0
ELLIPSE
  5
3E8
330
287
100
AcDbEntity
  8
0
  6
Continuous
 62
     0
370
    30
100
AcDbEllipse
 10
787.703903
 20
269.946709
 30
0.0
 11
30.50000000000001
 21
0.0
 31
0.0
210
0.0
220
0.0
230
-1.0
 40
0.57735
 41
6.148310565110068
 42
8.63937979737193
  0
ELLIPSE
  5
3E9
330
287
100
AcDbEntity
  8
0
  6
Continuous
 62
     0
370
    30
100
AcDbEllipse
 10
787.703903
 20
269.946709
 30
0.0
 11
30.50000000000001
 21
0.0
 31
0.0
210
0.0
220
0.0
230
-1.0
 40
0.57735
 41
2.356194490192345
 42
2.368955416116565
  0
ELLIPSE
  5
3EA
330
287
100
AcDbEntity
  8
0
  6
Continuous
 62
     0
370
    30
100
AcDbEllipse
 10
787.703903
 20
268.640314
 30
0.0
 11
30.50000000000001
 21
0.0
 31
0.0
210
0.0
220
0.0
230
-1.0
 40
0.57735
 41
0.0000000086396859
 42
2.356194490192344
  0
ELLIPSE
  5
3EB
330
287
100
AcDbEntity
  8
0
  6
Continuous
 62
     0
370
    30
100
AcDbEllipse
 10
787.703903
 20
268.640314
 30
0.0
 11
30.50000000000001
 21
0.0
 31
0.0
210
0.0
220
0.0
230
-1.0
 40
0.57735
 41
2.356194490192345
 42
2.389412686071603
  0
ELLIPSE
  5
3EC
330
287
100
AcDbEntity
  8
0
  6
Continuous
 62
     0
370
    30
100
AcDbEllipse
 10
787.703903
 20
253.126872
 30
0.0
 11
10.35
 21
0.0
 31
0.0
210
0.0
220
0.0
230
-1.0
 40
0.57735
 41
0.182831121468155
 42
2.356194490192345
  0
ELLIPSE
  5
3ED
330
287
100
AcDbEntity
  8
0
  6
Continuous
 62
     0
370
    30
100
AcDbEllipse
 10
787.703903
 20
253.126872
 30
0.0
 11
10.35
 21
0.0
 31
0.0
210
0.0
220
0.0
230
-1.0
 40
0.57735
 41
2.356194490192345
 42
2.958761549401013
  0
ELLIPSE
  5
3EE
330
287
100
AcDbEntity
  8
0
  6
Continuous
 62
     0
370
    30
100
AcDbEllipse
 10
787.703903
 20
251.902127
 30
0.0
 11
8.850000000000016
 21
0.0
 31
0.0
210
0.0
220
0.0
230
-1.0
 40
0.57735
 41
0.7853982263771272
 42
2.356194490192345
  0
LINE
  5
3EF
330
287
100
AcDbEntity
  8
0
  6
Continuous
 62
     0
370
    30
100
AcDbLine
 10
759.453916
 20
330.040848
 30
0.0
 11
759.453916
 21
305.098176
 31
0.0
  0
LINE
  5
3F0
330
287
100
AcDbEntity
  8
0
  6
Continuous
 62
     0
370
    30
100
AcDbLine
 10
815.95389
 20
330.040847
 30
0.0
 11
815.95389
 21
275.988783
 31
0.0
  0
LINE
  5
3F1
330
287
100
AcDbEntity
  8
0
  6
Continuous
 62
     0
370
    30
100
AcDbLine
 10
723.670896
 20
287.902974
 30
0.0
 11
721.912463
 21
288.918206
 31
0.0
  0
LINE
  5
3F2
330
287
100
AcDbEntity
  8
0
  6
Continuous
 62
     0
370
    30
100
AcDbLine
 10
723.670896
 20
294.831213
 30
0.0
 11
703.345678
 21
306.565983
 31
0.0
  0
LWPOLYLINE
  5
3F3
330
287
100
AcDbEntity
  8
0
  6
Continuous
 62
     0
370
    30
100
AcDbPolyline
 90
       22
 70
     0
 43
0.0
 10
703.345703
 20
306.565979
 10
702.783569
 20
306.844208
 10
702.184875
 20
307.052582
 10
701.554504
 20
307.190582
 10
700.897644
 20
307.257721
 10
700.219238
 20
307.25354
 10
699.523987
 20
307.177948
 10
698.815247
 20
307.032501
 10
698.096375
 20
306.81897
 10
697.370544
 20
306.539124
 10
696.64093
 20
306.194794
 10
695.91095
 20
305.787933
 10
695.184021
 20
305.321228
 10
694.463806
 20
304.797516
 10
693.753784
 20
304.219513
 10
693.057678
 20
303.590057
 10
692.378845
 20
302.911957
 10
691.720886
 20
302.188904
 10
691.087097
 20
301.425018
 10
690.480774
 20
300.624359
 10
689.905273
 20
299.791107
 10
689.362183
 20
298.927063
  0
LINE
  5
3F4
330
287
100
AcDbEntity
  8
0
  6
Continuous
 62
     0
370
    30
100
AcDbLine
 10
723.670896
 20
303.021989
 30
0.0
 11
723.670896
 21
283.730858
 31
0.0
  0
LINE
  5
3F5
330
287
100
AcDbEntity
  8
0
  6
Continuous
 62
     0
370
    30
100
AcDbLine
 10
745.670893
 20
303.021989
 30
0.0
 11
745.670893
 21
283.730858
 31
0.0
  0
LINE
  5
3F6
330
287
100
AcDbEntity
  8
0
  6
Continuous
 62
     0
370
    30
100
AcDbLine
 10
722.670897
 20
307.832143
 30
0.0
 11
722.670897
 21
305.790863
 31
0.0
  0
LINE
  5
3F7
330
287
100
AcDbEntity
  8
0
  6
Continuous
 62
     0
370
    30
100
AcDbLine
 10
746.670893
 20
307.832143
 30
0.0
 11
746.670893
 21
305.790863
 31
0.0
  0
LINE
  5
3F8
330
287
100
AcDbEntity
  8
0
  6
Continuous
 62
     0
370
    30
100
AcDbLine
 10
749.918744
 20
275.520078
 30
0.0
 11
764.619632
 21
267.032516
 31
0.0
  0
LINE
  5
3F9
330
287
100
AcDbEntity
  8
0
  6
Continuous
 62
     0
370
    30
100
AcDbLine
 10
739.518777
 20
257.50673
 30
0.0
 11
754.219632
 21
249.019188
 31
0.0
  0
LINE
  5
3FA
330
287
100
AcDbEntity
  8
0
  6
Continuous
 62
     0
370
    30
100
AcDbLine
 10
740.270886
 20
257.0725
 30
0.0
 11
709.887873
 21
239.530859
 31
0.0
  0
LINE
  5
3FB
330
287
100
AcDbEntity
  8
0
  6
Continuous
 62
     0
370
    30
100
AcDbLine
 10
777.400088
 20
278.509054
 30
0.0
 11
761.070885
 21
269.081385
 31
0.0
  0
LINE
  5
3FC
330
287
100
AcDbEntity
  8
0
  6
Continuous
 62
     0
370
    30
100
AcDbLine
 10
723.670896
 20
284.43884
 30
0.0
 11
709.887886
 21
276.481216
 31
0.0
  0
LINE
  5
3FD
330
287
100
AcDbEntity
  8
0
  6
Continuous
 62
     0
370
    30
100
AcDbLine
 10
761.400111
 20
306.221812
 30
0.0
 11
745.670894
 21
297.140545
 31
0.0
  0
LINE
  5
3FE
330
287
100
AcDbEntity
  8
0
  6
Continuous
 62
     0
370
    30
100
AcDbLine
 10
653.387899
 20
268.803604
 30
0.0
 11
653.387899
 21
214.75154
 31
0.0
  0
LINE
  5
3FF
330
287
100
AcDbEntity
  8
0
  6
Continuous
 62
     0
370
    30
100
AcDbLine
 10
709.887873
 20
268.803604
 30
0.0
 11
709.887873
 21
214.75154
 31
0.0
  0
LWPOLYLINE
  5
400
330
287
100
AcDbEntity
  8
0
  6
Continuous
 62
     0
370
     0
100
AcDbPolyline
 90
       17
 70
     0
 43
0.0
 10
709.871948
 20
283.53006
 10
709.883545
 20
282.697388
 10
709.821411
 20
281.86554
 10
709.685852
 20
281.036713
 10
709.477234
 20
280.212982
 10
709.196045
 20
279.396454
 10
708.842896
 20
278.589233
 10
708.419067
 20
277.793427
 10
707.925537
 20
277.011169
 10
707.363525
 20
276.244568
 10
706.734436
 20
275.495544
 10
706.039978
 20
274.76593
 10
705.281677
 20
274.057617
 10
704.461426
 20
273.372406
 10
703.581604
 20
272.712219
 10
702.645203
 20
272.079041
 10
701.613647
 20
271.450867
  0
LWPOLYLINE
  5
401
330
287
100
AcDbEntity
  8
0
  6
Continuous
 62
     0
370
     0
100
AcDbPolyline
 90
       46
 70
     0
 43
0.0
 10
701.613647
 20
271.450867
 10
700.541992
 20
270.86377
 10
699.417542
 20
270.309326
 10
698.243896
 20
269.789246
 10
697.024841
 20
269.305359
 10
695.763855
 20
268.859161
 10
694.464417
 20
268.451813
 10
693.130005
 20
268.084259
 10
691.764038
 20
267.757568
 10
690.370117
 20
267.472595
 10
688.952332
 20
267.230011
 10
687.514526
 20
267.030548
 10
686.06073
 20
266.874847
 10
684.594788
 20
266.763336
 10
683.120667
 20
266.696198
 10
681.642334
 20
266.673737
 10
680.163757
 20
266.696045
 10
678.68927
 20
266.76297
 10
677.223267
 20
266.874176
 10
675.770142
 20
267.029419
 10
674.333923
 20
267.228271
 10
672.917969
 20
267.470154
 10
671.525635
 20
267.754456
 10
670.160339
 20
268.080566
 10
668.825745
 20
268.447693
 10
667.525696
 20
268.854706
 10
666.263977
 20
269.300476
 10
665.044495
 20
269.783875
 10
663.870667
 20
270.303436
 10
662.745789
 20
270.857544
 10
661.673096
 20
271.444519
 10
660.65564
 20
272.062805
 10
659.695923
 20
272.710724
 10
658.796021
 20
273.386749
 10
657.958374
 20
274.089294
 10
657.185059
 20
274.81665
 10
656.478333
 20
275.56665
 10
655.840271
 20
276.337067
 10
655.27301
 20
277.125641
 10
654.778198
 20
277.930206
 10
654.356995
 20
278.748535
 10
654.010498
 20
279.57843
 10
653.739807
 20
280.417694
 10
653.545532
 20
281.264038
 10
653.428101
 20
282.115082
 10
653.387878
 20
282.984009
  0
LWPOLYLINE
  5
402
330
287
100
AcDbEntity
  8
0
  6
Continuous
 62
     0
370
    30
100
AcDbPolyline
 90
      124
 70
     0
 43
0.0
 10
700.954834
 20
272.645813
 10
700.037598
 20
272.140289
 10
699.062866
 20
271.651306
 10
698.03125
 20
271.181732
 10
696.944031
 20
270.734375
 10
695.802917
 20
270.312164
 10
694.610168
 20
269.917908
 10
693.368591
 20
269.554413
 10
692.081604
 20
269.224304
 10
690.753113
 20
268.930145
 10
689.387634
 20
268.674194
 10
687.98999
 20
268.458527
 10
686.565613
 20
268.284943
 10
685.120178
 20
268.154907
 10
683.65979
 20
268.069489
 10
682.190613
 20
268.029449
 10
680.718994
 20
268.035156
 10
679.251404
 20
268.086517
 10
677.794189
 20
268.183136
 10
676.353455
 20
268.324127
 10
674.935181
 20
268.508331
 10
673.545044
 20
268.734192
 10
672.188354
 20
268.999878
 10
670.869751
 20
269.303192
 10
669.59375
 20
269.641846
 10
668.364014
 20
270.013275
 10
667.183899
 20
270.414734
 10
666.055969
 20
270.843475
 10
664.982483
 20
271.296631
 10
663.964966
 20
271.771301
 10
663.004456
 20
272.264679
 10
662.100586
 20
272.774506
 10
661.231628
 20
273.312378
 10
660.392639
 20
273.883362
 10
659.588379
 20
274.487
 10
658.823975
 20
275.122559
 10
658.104248
 20
275.78894
 10
657.434204
 20
276.484772
 10
656.818542
 20
277.208313
 10
656.261902
 20
277.95755
 10
655.768494
 20
278.730103
 10
655.342224
 20
279.523376
 10
654.986572
 20
280.334442
 10
654.704468
 20
281.160156
 10
654.498352
 20
281.997162
 10
654.369873
 20
282.841919
 10
654.320251
 20
283.690857
 10
654.349792
 20
284.540222
 10
654.458374
 20
285.386383
 10
654.64502
 20
286.225708
 10
654.908081
 20
287.054596
 10
655.245361
 20
287.869659
 10
655.654053
 20
288.667725
 10
656.130798
 20
289.445801
 10
656.671814
 20
290.201202
 10
657.272949
 20
290.931427
 10
657.929626
 20
291.63446
 10
658.637207
 20
292.308441
 10
659.390808
 20
292.951904
 10
660.185425
 20
293.563721
 10
661.016113
 20
294.143066
 10
661.87793
 20
294.689331
 10
662.770325
 20
295.204681
 10
663.716248
 20
295.702301
 10
664.719421
 20
296.181976
 10
665.77887
 20
296.640869
 10
666.893188
 20
297.07605
 10
668.060303
 20
297.484711
 10
669.277771
 20
297.863983
 10
670.542419
 20
298.211182
 10
671.850586
 20
298.523712
 10
673.198059
 20
298.799103
 10
674.580261
 20
299.035248
 10
675.991882
 20
299.230164
 10
677.42749
 20
299.382233
 10
678.881104
 20
299.490173
 10
680.34668
 20
299.55307
 10
681.817871
 20
299.570343
 10
683.288269
 20
299.54187
 10
684.751465
 20
299.467896
 10
686.201233
 20
299.349091
 10
687.631531
 20
299.186401
 10
689.036438
 20
298.981232
 10
690.410583
 20
298.735321
 10
691.748901
 20
298.450623
 10
693.046753
 20
298.129395
 10
694.300171
 20
297.774109
 10
695.505615
 20
297.38736
 10
696.660034
 20
296.971985
 10
697.761108
 20
296.530731
 10
698.806885
 20
296.066498
 10
699.796143
 20
295.582153
 10
700.727966
 20
295.080566
 10
701.611206
 20
294.558807
 10
702.46582
 20
294.004425
 10
703.288147
 20
293.417084
 10
704.073242
 20
292.797455
 10
704.815979
 20
292.146393
 10
705.511597
 20
291.465149
 10
706.155151
 20
290.75531
 10
706.741943
 20
290.018707
 10
707.267639
 20
289.257538
 10
707.728088
 20
288.474304
 10
708.119568
 20
287.671814
 10
708.438965
 20
286.853058
 10
708.683533
 20
286.021301
 10
708.851196
 20
285.179962
 10
708.940491
 20
284.332672
 10
708.950745
 20
283.483063
 10
708.881714
 20
282.634827
 10
708.734131
 20
281.791626
 10
708.509216
 20
280.957062
 10
708.208923
 20
280.134644
 10
707.835693
 20
279.327637
 10
707.3927
 20
278.539185
 10
706.883423
 20
277.772064
 10
706.311951
 20
277.028931
 10
705.682556
 20
276.311981
 10
704.999939
 20
275.62323
 10
704.26886
 20
274.964264
 10
703.494202
 20
274.336426
 10
702.68103
 20
273.740692
 10
701.834229
 20
273.177765
 10
700.954834
 20
272.645813
  0
LWPOLYLINE
  5
403
330
287
100
AcDbEntity
  8
0
  6
Continuous
 62
     0
370
    30
100
AcDbPolyline
 90
       88
 70
     0
 43
0.0
 10
698.961975
 20
273.94574
 10
699.793884
 20
274.450287
 10
700.596558
 20
274.988312
 10
701.364807
 20
275.559357
 10
702.093262
 20
276.162628
 10
702.776611
 20
276.796967
 10
703.409668
 20
277.460938
 10
703.987305
 20
278.152618
 10
704.5047
 20
278.869812
 10
704.957397
 20
279.609955
 10
705.341248
 20
280.370117
 10
705.652832
 20
281.147125
 10
705.889221
 20
281.937531
 10
706.048035
 20
282.73761
 10
706.127869
 20
283.54361
 10
706.12793
 20
284.351593
 10
706.048096
 20
285.157562
 10
705.889282
 20
285.957672
 10
705.653015
 20
286.748077
 10
705.341431
 20
287.525085
 10
704.957581
 20
288.285278
 10
704.505005
 20
289.025421
 10
703.98761
 20
289.742645
 10
703.410034
 20
290.434326
 10
702.776978
 20
291.098297
 10
702.093628
 20
291.732666
 10
701.365234
 20
292.335968
 10
700.597046
 20
292.907013
 10
699.794373
 20
293.445068
 10
698.962463
 20
293.949646
 10
698.088623
 20
294.429932
 10
697.156738
 20
294.893372
 10
696.167725
 20
295.336914
 10
695.122864
 20
295.757507
 10
694.02417
 20
296.152069
 10
692.874207
 20
296.517578
 10
691.676147
 20
296.851105
 10
690.43396
 20
297.149841
 10
689.152039
 20
297.411194
 10
687.835388
 20
297.632874
 10
686.489624
 20
297.812775
 10
685.120605
 20
297.949249
 10
683.734802
 20
298.041016
 10
682.338806
 20
298.087128
 10
680.939331
 20
298.087158
 10
679.543335
 20
298.041107
 10
678.157471
 20
297.949463
 10
676.788452
 20
297.813049
 10
675.442627
 20
297.633209
 10
674.125916
 20
297.411621
 10
672.843933
 20
297.150299
 10
671.601685
 20
296.851624
 10
670.403564
 20
296.518158
 10
669.25354
 20
296.15271
 10
668.154724
 20
295.758209
 10
667.109802
 20
295.337646
 10
666.120667
 20
294.894135
 10
665.188721
 20
294.430756
 10
664.314758
 20
293.95047
 10
663.482788
 20
293.445953
 10
662.680054
 20
292.907959
 10
661.911804
 20
292.336945
 10
661.18335
 20
291.733734
 10
660.499878
 20
291.099396
 10
659.86676
 20
290.435486
 10
659.289062
 20
289.743835
 10
658.771606
 20
289.026672
 10
658.318848
 20
288.28656
 10
657.934875
 20
287.526398
 10
657.62323
 20
286.74942
 10
657.38678
 20
285.959045
 10
657.227844
 20
285.158936
 10
657.147949
 20
284.352966
 10
657.147827
 20
283.544983
 10
657.227539
 20
282.738983
 10
657.38623
 20
281.938873
 10
657.622437
 20
281.148468
 10
657.933899
 20
280.371429
 10
658.317688
 20
279.611237
 10
658.770264
 20
278.871063
 10
659.287537
 20
278.153809
 10
659.865051
 20
277.462097
 10
660.498047
 20
276.798096
 10
661.181335
 20
276.163666
 10
661.909668
 20
275.560364
 10
662.677856
 20
274.989258
 10
663.480469
 20
274.451202
 10
664.313782
 20
273.94574
  0
LWPOLYLINE
  5
404
330
287
100
AcDbEntity
  8
0
  6
Continuous
 62
     0
370
    30
100
AcDbPolyline
 90
       17
 70
     0
 43
0.0
 10
709.887878
 20
269.456787
 10
709.850159
 20
268.614471
 10
709.737366
 20
267.775482
 10
709.550415
 20
266.943207
 10
709.290649
 20
266.12085
 10
708.960266
 20
265.311493
 10
708.561707
 20
264.518127
 10
708.097961
 20
263.743439
 10
707.572449
 20
262.98996
 10
706.988953
 20
262.259949
 10
706.351562
 20
261.555389
 10
705.664429
 20
260.877991
 10
704.932068
 20
260.229218
 10
704.158875
 20
259.610199
 10
703.349548
 20
259.02182
 10
702.508484
 20
258.464661
 10
701.613647
 20
257.923798
  0
LWPOLYLINE
  5
405
330
287
100
AcDbEntity
  8
0
  6
Continuous
 62
     0
370
    30
100
AcDbPolyline
 90
       48
 70
     0
 43
0.0
 10
701.613647
 20
257.923798
 10
700.683533
 20
257.410675
 10
699.696106
 20
256.914032
 10
698.652039
 20
256.436554
 10
697.552551
 20
255.981064
 10
696.399231
 20
255.550385
 10
695.194214
 20
255.147278
 10
693.940308
 20
254.774475
 10
692.640686
 20
254.434586
 10
691.299194
 20
254.130112
 10
689.919983
 20
253.863327
 10
688.507812
 20
253.636276
 10
687.067932
 20
253.45079
 10
685.605774
 20
253.308334
 10
684.127197
 20
253.210098
 10
682.638245
 20
253.156891
 10
681.145081
 20
253.149139
 10
679.653992
 20
253.18692
 10
678.171204
 20
253.269928
 10
676.702759
 20
253.397461
 10
675.2547
 20
253.568466
 10
673.83252
 20
253.78157
 10
672.441528
 20
254.035065
 10
671.08667
 20
254.326981
 10
669.772339
 20
254.65509
 10
668.502502
 20
255.016983
 10
667.280579
 20
255.410095
 10
666.109436
 20
255.831711
 10
664.991394
 20
256.279083
 10
663.928345
 20
256.74939
 10
662.92157
 20
257.239838
 10
661.971924
 20
257.74765
 10
661.072632
 20
258.274506
 10
660.202148
 20
258.833374
 10
659.363281
 20
259.42511
 10
658.560913
 20
260.049103
 10
657.799744
 20
260.704529
 10
657.084778
 20
261.390228
 10
656.420715
 20
262.104767
 10
655.812134
 20
262.846375
 10
655.263489
 20
263.612946
 10
654.778748
 20
264.40213
 10
654.361694
 20
265.211273
 10
654.015625
 20
266.037506
 10
653.743286
 20
266.877686
 10
653.546936
 20
267.728516
 10
653.428101
 20
268.586517
 10
653.387878
 20
269.456787
  0
LWPOLYLINE
  5
406
330
287
100
AcDbEntity
  8
0
  6
Continuous
 62
     0
370
     0
100
AcDbPolyline
 90
       17
 70
     0
 43
0.0
 10
815.937927
 20
344.767303
 10
815.949585
 20
343.934631
 10
815.88739
 20
343.102783
 10
815.751831
 20
342.273956
 10
815.543274
 20
341.450226
 10
815.262024
 20
340.633698
 10
814.908936
 20
339.826477
 10
814.485107
 20
339.03067
 10
813.991577
 20
338.248413
 10
813.429565
 20
337.481812
 10
812.800476
 20
336.732788
 10
812.105957
 20
336.003174
 10
811.347717
 20
335.294861
 10
810.527405
 20
334.60965
 10
809.647644
 20
333.949463
 10
808.711243
 20
333.316284
 10
807.679688
 20
332.68811
  0
LWPOLYLINE
  5
407
330
287
100
AcDbEntity
  8
0
  6
Continuous
 62
     0
370
     0
100
AcDbPolyline
 90
       46
 70
     0
 43
0.0
 10
807.679688
 20
332.68811
 10
806.608032
 20
332.101013
 10
805.483521
 20
331.54657
 10
804.309937
 20
331.026489
 10
803.09082
 20
330.542603
 10
801.829895
 20
330.096405
 10
800.530457
 20
329.689056
 10
799.196045
 20
329.321503
 10
797.830017
 20
328.994812
 10
796.436157
 20
328.709839
 10
795.018372
 20
328.467255
 10
793.580566
 20
328.267792
 10
792.126709
 20
328.112091
 10
790.660767
 20
328.00058
 10
789.186646
 20
327.933441
 10
787.708313
 20
327.91098
 10
786.229736
 20
327.933289
 10
784.75531
 20
328.000214
 10
783.289307
 20
328.11142
 10
781.836182
 20
328.266663
 10
780.399902
 20
328.465515
 10
778.983948
 20
328.707397
 10
777.591614
 20
328.991699
 10
776.226318
 20
329.31781
 10
774.891724
 20
329.684937
 10
773.591675
 20
330.091949
 10
772.330017
 20
330.53772
 10
771.110535
 20
331.021118
 10
769.936707
 20
331.54068
 10
768.811829
 20
332.094788
 10
767.739136
 20
332.681763
 10
766.72168
 20
333.300049
 10
765.761902
 20
333.947968
 10
764.862061
 20
334.623993
 10
764.024353
 20
335.326538
 10
763.251099
 20
336.053894
 10
762.544312
 20
336.803894
 10
761.90625
 20
337.57431
 10
761.338989
 20
338.362885
 10
760.844238
 20
339.16745
 10
760.423035
 20
339.985779
 10
760.076538
 20
340.815674
 10
759.805847
 20
341.654938
 10
759.611511
 20
342.501282
 10
759.49408
 20
343.352325
 10
759.453918
 20
344.221252
  0
LWPOLYLINE
  5
408
330
287
100
AcDbEntity
  8
0
  6
Continuous
 62
     0
370
    30
100
AcDbPolyline
 90
      124
 70
     0
 43
0.0
 10
807.020874
 20
333.883057
 10
806.103638
 20
333.377533
 10
805.128845
 20
332.88855
 10
804.09729
 20
332.418976
 10
803.010071
 20
331.971619
 10
801.868958
 20
331.549408
 10
800.676208
 20
331.155151
 10
799.434631
 20
330.791656
 10
798.147644
 20
330.461548
 10
796.819153
 20
330.167389
 10
795.453613
 20
329.911438
 10
794.055969
 20
329.69577
 10
792.631592
 20
329.522186
 10
791.186218
 20
329.392151
 10
789.725769
 20
329.306732
 10
788.256592
 20
329.266693
 10
786.785034
 20
329.2724
 10
785.317444
 20
329.323761
 10
783.860168
 20
329.42038
 10
782.419434
 20
329.561371
 10
781.001221
 20
329.745575
 10
779.611084
 20
329.971436
 10
778.254333
 20
330.237122
 10
776.935791
 20
330.540436
 10
775.65979
 20
330.879089
 10
774.430054
 20
331.250519
 10
773.249878
 20
331.651978
 10
772.122009
 20
332.080719
 10
771.048523
 20
332.533875
 10
770.031006
 20
333.008545
 10
769.070496
 20
333.501923
 10
768.166565
 20
334.011749
 10
767.297668
 20
334.549622
 10
766.458618
 20
335.120605
 10
765.654419
 20
335.724243
 10
764.889954
 20
336.359802
 10
764.170288
 20
337.026184
 10
763.500183
 20
337.722015
 10
762.884583
 20
338.445557
 10
762.327942
 20
339.194794
 10
761.834534
 20
339.967346
 10
761.408264
 20
340.76062
 10
761.052612
 20
341.571686
 10
760.770508
 20
342.3974
 10
760.564331
 20
343.234406
 10
760.435913
 20
344.079163
 10
760.38623
 20
344.928101
 10
760.415833
 20
345.777466
 10
760.524414
 20
346.623627
 10
760.71106
 20
347.462952
 10
760.974121
 20
348.29184
 10
761.311401
 20
349.106903
 10
761.720093
 20
349.904968
 10
762.196838
 20
350.683044
 10
762.737854
 20
351.438446
 10
763.338928
 20
352.168671
 10
763.995667
 20
352.871704
 10
764.703247
 20
353.545685
 10
765.456848
 20
354.189148
 10
766.251465
 20
354.800964
 10
767.082153
 20
355.38031
 10
767.94397
 20
355.926575
 10
768.836365
 20
356.441925
 10
769.782288
 20
356.939545
 10
770.785461
 20
357.41922
 10
771.84491
 20
357.878113
 10
772.959229
 20
358.313293
 10
774.126343
 20
358.721954
 10
775.343811
 20
359.101227
 10
776.608398
 20
359.448425
 10
777.916565
 20
359.760956
 10
779.264099
 20
360.036346
 10
780.64624
 20
360.272491
 10
782.057922
 20
360.467407
 10
783.493469
 20
360.619476
 10
784.947144
 20
360.727417
 10
786.41272
 20
360.790314
 10
787.88385
 20
360.807587
 10
789.354248
 20
360.779114
 10
790.817505
 20
360.705139
 10
792.267273
 20
360.586334
 10
793.69751
 20
360.423645
 10
795.102478
 20
360.218475
 10
796.476624
 20
359.972565
 10
797.81488
 20
359.687866
 10
799.112793
 20
359.366638
 10
800.366211
 20
359.011353
 10
801.571594
 20
358.624603
 10
802.726074
 20
358.209198
 10
803.827087
 20
357.767975
 10
804.872925
 20
357.303741
 10
805.862122
 20
356.819397
 10
806.794006
 20
356.31781
 10
807.677246
 20
355.796051
 10
808.53186
 20
355.241669
 10
809.354187
 20
354.654327
 10
810.139221
 20
354.034698
 10
810.882019
 20
353.383636
 10
811.577637
 20
352.702393
 10
812.221191
 20
351.992554
 10
812.807983
 20
351.255951
 10
813.333679
 20
350.494781
 10
813.794128
 20
349.711548
 10
814.185608
 20
348.909058
 10
814.505005
 20
348.090302
 10
814.749512
 20
347.258545
 10
814.917175
 20
346.417206
 10
815.006531
 20
345.569916
 10
815.016724
 20
344.720306
 10
814.947754
 20
343.87207
 10
814.800171
 20
343.02887
 10
814.575256
 20
342.194305
 10
814.274902
 20
341.371887
 10
813.901672
 20
340.56488
 10
813.458679
 20
339.776428
 10
812.949463
 20
339.009308
 10
812.377991
 20
338.266174
 10
811.748596
 20
337.549225
 10
811.065979
 20
336.860474
 10
810.334839
 20
336.201508
 10
809.560242
 20
335.573669
 10
808.747009
 20
334.977936
 10
807.900269
 20
334.415009
 10
807.020874
 20
333.883057
  0
LWPOLYLINE
  5
409
330
287
100
AcDbEntity
  8
0
  6
Continuous
 62
     0
370
    30
100
AcDbPolyline
 90
       88
 70
     0
 43
0.0
 10
805.028015
 20
335.182983
 10
805.859924
 20
335.687531
 10
806.662598
 20
336.225555
 10
807.430786
 20
336.7966
 10
808.159241
 20
337.399872
 10
808.842651
 20
338.03421
 10
809.475708
 20
338.698181
 10
810.053345
 20
339.389862
 10
810.57074
 20
340.107056
 10
811.023376
 20
340.847198
 10
811.407288
 20
341.607361
 10
811.718872
 20
342.384369
 10
811.9552
 20
343.174774
 10
812.114075
 20
343.974854
 10
812.193909
 20
344.780853
 10
812.193909
 20
345.588837
 10
812.114136
 20
346.394806
 10
811.955322
 20
347.194916
 10
811.718994
 20
347.985321
 10
811.407471
 20
348.762329
 10
811.023621
 20
349.522522
 10
810.570984
 20
350.262665
 10
810.05365
 20
350.979889
 10
809.476013
 20
351.67157
 10
808.843018
 20
352.335541
 10
808.159668
 20
352.96991
 10
807.431213
 20
353.573212
 10
806.663025
 20
354.144257
 10
805.860413
 20
354.682312
 10
805.028503
 20
355.18689
 10
804.154602
 20
355.667175
 10
803.222778
 20
356.130615
 10
802.233704
 20
356.574158
 10
801.188843
 20
356.994751
 10
800.090149
 20
357.389313
 10
798.940186
 20
357.754822
 10
797.742188
 20
358.088348
 10
796.5
 20
358.387085
 10
795.218079
 20
358.648438
 10
793.901428
 20
358.870117
 10
792.555603
 20
359.050018
 10
791.186646
 20
359.186493
 10
789.800842
 20
359.278259
 10
788.404846
 20
359.324371
 10
787.005371
 20
359.324402
 10
785.609314
 20
359.278351
 10
784.223511
 20
359.186707
 10
782.854492
 20
359.050293
 10
781.508667
 20
358.870453
 10
780.191956
 20
358.648865
 10
778.909973
 20
358.387543
 10
777.667664
 20
358.088867
 10
776.469604
 20
357.755402
 10
775.31958
 20
357.389954
 10
774.220764
 20
356.995453
 10
773.175842
 20
356.57489
 10
772.186707
 20
356.131378
 10
771.254761
 20
355.667999
 10
770.380737
 20
355.187714
 10
769.548828
 20
354.683197
 10
768.746094
 20
354.145203
 10
767.977844
 20
353.574188
 10
767.249329
 20
352.970978
 10
766.565918
 20
352.336639
 10
765.9328
 20
351.672729
 10
765.355103
 20
350.981079
 10
764.837646
 20
350.263916
 10
764.384888
 20
349.523804
 10
764.000916
 20
348.763641
 10
763.68927
 20
347.986664
 10
763.45282
 20
347.196289
 10
763.293884
 20
346.396179
 10
763.213928
 20
345.59021
 10
763.213867
 20
344.782227
 10
763.293518
 20
343.976227
 10
763.452271
 20
343.176117
 10
763.688477
 20
342.385712
 10
763.999939
 20
341.608673
 10
764.383728
 20
340.84848
 10
764.836243
 20
340.108307
 10
765.353577
 20
339.391052
 10
765.931091
 20
338.699341
 10
766.564026
 20
338.035339
 10
767.247314
 20
337.400909
 10
767.975708
 20
336.797607
 10
768.743896
 20
336.226501
 10
769.546509
 20
335.688446
 10
770.379761
 20
335.182983
  0
LWPOLYLINE
  5
40A
330
287
100
AcDbEntity
  8
0
  6
Continuous
 62
     0
370
    30
100
AcDbPolyline
 90
       17
 70
     0
 43
0.0
 10
815.953918
 20
330.694031
 10
815.916199
 20
329.851715
 10
815.803406
 20
329.012726
 10
815.616394
 20
328.18045
 10
815.356689
 20
327.358093
 10
815.026245
 20
326.548737
 10
814.627686
 20
325.755371
 10
814.16394
 20
324.980682
 10
813.638489
 20
324.227203
 10
813.054993
 20
323.497192
 10
812.417542
 20
322.792633
 10
811.730469
 20
322.115234
 10
810.998047
 20
321.466461
 10
810.224915
 20
320.847443
 10
809.415527
 20
320.259064
 10
808.574463
 20
319.701904
 10
807.679688
 20
319.161041
  0
LWPOLYLINE
  5
40B
330
287
100
AcDbEntity
  8
0
  6
Continuous
 62
     0
370
    30
100
AcDbPolyline
 90
       48
 70
     0
 43
0.0
 10
807.679688
 20
319.161041
 10
806.749512
 20
318.647919
 10
805.762085
 20
318.151276
 10
804.718079
 20
317.673798
 10
803.61853
 20
317.218323
 10
802.46521
 20
316.787628
 10
801.260254
 20
316.384521
 10
800.006348
 20
316.011719
 10
798.706726
 20
315.671844
 10
797.365173
 20
315.367371
 10
795.985962
 20
315.100555
 10
794.573853
 20
314.873535
 10
793.133911
 20
314.688019
 10
791.671753
 20
314.545593
 10
790.193176
 20
314.447357
 10
788.704224
 20
314.394135
 10
787.21106
 20
314.386383
 10
785.720032
 20
314.424164
 10
784.237183
 20
314.507172
 10
782.768799
 20
314.634705
 10
781.320679
 20
314.805725
 10
779.898499
 20
315.018829
 10
778.507568
 20
315.272308
 10
777.15271
 20
315.564209
 10
775.838379
 20
315.892334
 10
774.568542
 20
316.254242
 10
773.346619
 20
316.647339
 10
772.175415
 20
317.068939
 10
771.057434
 20
317.516327
 10
769.994385
 20
317.986633
 10
768.98761
 20
318.477081
 10
768.037964
 20
318.984894
 10
767.138611
 20
319.511749
 10
766.268188
 20
320.070618
 10
765.429321
 20
320.662354
 10
764.626892
 20
321.286346
 10
763.865784
 20
321.941772
 10
763.150818
 20
322.627472
 10
762.486755
 20
323.34201
 10
761.878174
 20
324.083618
 10
761.329468
 20
324.850189
 10
760.844788
 20
325.639374
 10
760.427734
 20
326.448517
 10
760.081665
 20
327.27475
 10
759.809326
 20
328.114929
 10
759.612976
 20
328.965759
 10
759.494141
 20
329.823761
 10
759.453918
 20
330.694031
  0
LINE
  5
40C
330
287
100
AcDbEntity
  8
0
  6
Continuous
 62
     0
370
    30
100
AcDbLine
 10
815.953903
 20
330.694045
 30
0.0
 11
815.953903
 21
344.221113
 31
0.0
  0
LINE
  5
40D
330
287
100
AcDbEntity
  8
0
  6
Continuous
 62
     0
370
    30
100
AcDbLine
 10
759.453903
 20
330.694045
 30
0.0
 11
759.453903
 21
344.221114
 31
0.0
  0
LINE
  5
40E
330
287
100
AcDbEntity
  8
0
  6
Continuous
 62
     0
370
    30
100
AcDbLine
 10
759.453903
 20
344.221266
 30
0.0
 11
759.470971
 21
344.806865
 31
0.0
  0
LINE
  5
40F
330
287
100
AcDbEntity
  8
0
  6
Continuous
 62
     0
370
    30
100
AcDbLine
 10
815.953903
 20
344.220041
 30
0.0
 11
815.936847
 21
344.805426
 31
0.0
  0
LINE
  5
410
330
287
100
AcDbEntity
  8
0
  6
Continuous
 62
     0
370
    30
100
AcDbLine
 10
709.887886
 20
269.456801
 30
0.0
 11
709.887886
 21
282.98387
 31
0.0
  0
LINE
  5
411
330
287
100
AcDbEntity
  8
0
  6
Continuous
 62
     0
370
    30
100
AcDbLine
 10
653.387886
 20
269.456801
 30
0.0
 11
653.387886
 21
282.98387
 31
0.0
  0
LINE
  5
412
330
287
100
AcDbEntity
  8
0
  6
Continuous
 62
     0
370
    30
100
AcDbLine
 10
653.387886
 20
282.984023
 30
0.0
 11
653.404954
 21
283.569621
 31
0.0
  0
LINE
  5
413
330
287
100
AcDbEntity
  8
0
  6
Continuous
 62
     0
370
    30
100
AcDbLine
 10
709.887886
 20
282.982798
 30
0.0
 11
709.870829
 21
283.568182
 31
0.0
  0
ENDBLK
  5
415
330
287
100
AcDbEntity
  8
0
100
AcDbBlockEnd
  0
BLOCK
  5
46C
330
417
100
AcDbEntity
  8
0
100
AcDbBlockBegin
  2
e
 70
     0
 10
334.752228
 20
0.0
 30
0.0
  3
e
  1

  0
ARC
  5
418
330
417
100
AcDbEntity
  8
0
  6
Continuous
 62
     0
370
    30
100
AcDbCircle
 10
233.664917
 20
201.805808
 30
0.0
 40
399.998358700892
100
AcDbArc
 50
90.421394
 51
93.511568
  0
ARC
  5
419
330
417
100
AcDbEntity
  8
0
  6
Continuous
 62
     0
370
    30
100
AcDbCircle
 10
233.665058
 20
201.80552
 30
0.0
 40
399.998647050452
100
AcDbArc
 50
86.488433
 51
89.613524
  0
LINE
  5
41A
330
417
100
AcDbEntity
  8
0
  6
Continuous
 62
     0
370
    30
100
AcDbLine
 10
230.786363
 20
601.642475
 30
0.0
 11
231.049599
 21
601.626645
 31
0.0
  0
LINE
  5
41B
330
417
100
AcDbEntity
  8
0
  6
Continuous
 62
     0
370
    30
100
AcDbLine
 10
231.049599
 20
601.626645
 30
0.0
 11
231.48885
 21
601.612873
 31
0.0
  0
LINE
  5
41C
330
417
100
AcDbEntity
  8
0
  6
Continuous
 62
     0
370
    30
100
AcDbLine
 10
231.48885
 20
601.612873
 30
0.0
 11
232.030607
 21
601.602809
 31
0.0
  0
LINE
  5
41D
330
417
100
AcDbEntity
  8
0
  6
Continuous
 62
     0
370
    30
100
AcDbLine
 10
232.030607
 20
601.602809
 30
0.0
 11
232.680559
 21
601.596615
 31
0.0
  0
LINE
  5
41E
330
417
100
AcDbEntity
  8
0
  6
Continuous
 62
     0
370
    30
100
AcDbLine
 10
232.680559
 20
601.596615
 30
0.0
 11
233.420769
 21
601.5948
 31
0.0
  0
LINE
  5
41F
330
417
100
AcDbEntity
  8
0
  6
Continuous
 62
     0
370
    30
100
AcDbLine
 10
233.420769
 20
601.5948
 30
0.0
 11
234.17394
 21
601.597543
 31
0.0
  0
LINE
  5
420
330
417
100
AcDbEntity
  8
0
  6
Continuous
 62
     0
370
    30
100
AcDbLine
 10
234.17394
 20
601.597543
 30
0.0
 11
234.870089
 21
601.60491
 31
0.0
  0
LINE
  5
421
330
417
100
AcDbEntity
  8
0
  6
Continuous
 62
     0
370
    30
100
AcDbLine
 10
234.870089
 20
601.60491
 30
0.0
 11
235.468936
 21
601.616569
 31
0.0
  0
LINE
  5
422
330
417
100
AcDbEntity
  8
0
  6
Continuous
 62
     0
370
    30
100
AcDbLine
 10
235.468936
 20
601.616569
 30
0.0
 11
235.78736
 21
601.626194
 31
0.0
  0
LINE
  5
423
330
417
100
AcDbEntity
  8
0
  6
Continuous
 62
     0
370
    30
100
AcDbLine
 10
235.78736
 20
601.626194
 30
0.0
 11
236.074153
 21
601.6396
 31
0.0
  0
LINE
  5
424
330
417
100
AcDbEntity
  8
0
  6
Continuous
 62
     0
370
    30
100
AcDbLine
 10
236.074153
 20
601.6396
 30
0.0
 11
236.283575
 21
601.656897
 31
0.0
  0
LINE
  5
425
330
417
100
AcDbEntity
  8
0
  6
Continuous
 62
     0
370
    30
100
AcDbLine
 10
232.030642
 20
601.703786
 30
0.0
 11
234.870132
 21
601.70531
 31
0.0
  0
LINE
  5
426
330
417
100
AcDbEntity
  8
0
  6
Continuous
 62
     0
370
    30
100
AcDbLine
 10
181.865022
 20
706.305345
 30
0.0
 11
181.865022
 21
717.305345
 31
0.0
  0
LINE
  5
427
330
417
100
AcDbEntity
  8
0
  6
Continuous
 62
     0
370
    30
100
AcDbLine
 10
181.865022
 20
717.305345
 30
0.0
 11
181.865022
 21
728.305345
 31
0.0
  0
LINE
  5
428
330
417
100
AcDbEntity
  8
0
  6
Continuous
 62
     0
370
     0
100
AcDbLine
 10
186.164998
 20
706.305345
 30
0.0
 11
186.164998
 21
717.305345
 31
0.0
  0
LINE
  5
429
330
417
100
AcDbEntity
  8
0
  6
Continuous
 62
     0
370
     0
100
AcDbLine
 10
186.164998
 20
717.305345
 30
0.0
 11
186.164998
 21
728.305345
 31
0.0
  0
LINE
  5
42A
330
417
100
AcDbEntity
  8
0
  6
Continuous
 62
     0
370
     0
100
AcDbLine
 10
222.664998
 20
669.805345
 30
0.0
 11
233.664997
 21
669.805345
 31
0.0
  0
LINE
  5
42B
330
417
100
AcDbEntity
  8
0
  6
Continuous
 62
     0
370
     0
100
AcDbLine
 10
233.664997
 20
669.805345
 30
0.0
 11
244.664998
 21
669.805345
 31
0.0
  0
LINE
  5
42C
330
417
100
AcDbEntity
  8
0
  6
Continuous
 62
     0
370
    30
100
AcDbLine
 10
222.664998
 20
601.652889
 30
0.0
 11
222.664998
 21
669.805345
 31
0.0
  0
LINE
  5
42D
330
417
100
AcDbEntity
  8
0
  6
Continuous
 62
     0
370
    30
100
AcDbLine
 10
244.664998
 20
601.652889
 30
0.0
 11
244.664998
 21
669.805345
 31
0.0
  0
ARC
  5
42E
330
417
100
AcDbEntity
  8
0
  6
Continuous
 62
     0
370
    30
100
AcDbCircle
 10
186.163353
 20
669.803701
 30
0.0
 40
36.50164434648829
100
AcDbArc
 50
0.002581
 51
89.997419
  0
ARC
  5
42F
330
417
100
AcDbEntity
  8
0
  6
Continuous
 62
     0
370
    30
100
AcDbCircle
 10
186.166936
 20
669.807283
 30
0.0
 40
58.49806158844127
100
AcDbArc
 50
359.998101
 51
90.001899
  0
LINE
  5
430
330
417
100
AcDbEntity
  8
0
  6
Continuous
 62
     0
370
    30
100
AcDbLine
 10
186.164998
 20
706.305345
 30
0.0
 11
181.865022
 21
706.305345
 31
0.0
  0
LINE
  5
431
330
417
100
AcDbEntity
  8
0
  6
Continuous
 62
     0
370
    30
100
AcDbLine
 10
186.164998
 20
728.305345
 30
0.0
 11
181.865022
 21
728.305345
 31
0.0
  0
LINE
  5
432
330
417
100
AcDbEntity
  8
0
  6
Continuous
 62
     0
370
     0
100
AcDbLine
 10
181.615022
 20
705.305345
 30
0.0
 11
181.615022
 21
713.201924
 31
0.0
  0
LINE
  5
433
330
417
100
AcDbEntity
  8
0
  6
Continuous
 62
     0
370
     0
100
AcDbLine
 10
181.615022
 20
713.201924
 30
0.0
 11
181.615022
 21
729.305345
 31
0.0
  0
LINE
  5
434
330
417
100
AcDbEntity
  8
0
  6
Continuous
 62
     0
370
     0
100
AcDbLine
 10
179.615022
 20
705.305345
 30
0.0
 11
179.615022
 21
713.201924
 31
0.0
  0
LINE
  5
435
330
417
100
AcDbEntity
  8
0
  6
Continuous
 62
     0
370
     0
100
AcDbLine
 10
179.615022
 20
713.201924
 30
0.0
 11
179.615022
 21
729.305345
 31
0.0
  0
LINE
  5
436
330
417
100
AcDbEntity
  8
0
  6
Continuous
 62
     0
370
     0
100
AcDbLine
 10
179.115022
 20
706.305345
 30
0.0
 11
179.115022
 21
713.543876
 31
0.0
  0
LINE
  5
437
330
417
100
AcDbEntity
  8
0
  6
Continuous
 62
     0
370
     0
100
AcDbLine
 10
179.115022
 20
713.543876
 30
0.0
 11
179.115022
 21
728.305344
 31
0.0
  0
LINE
  5
438
330
417
100
AcDbEntity
  8
0
  6
Continuous
 62
     0
370
     0
100
AcDbLine
 10
162.115022
 20
706.305345
 30
0.0
 11
162.115022
 21
713.543876
 31
0.0
  0
LINE
  5
439
330
417
100
AcDbEntity
  8
0
  6
Continuous
 62
     0
370
     0
100
AcDbLine
 10
162.115022
 20
713.543876
 30
0.0
 11
162.115022
 21
728.305344
 31
0.0
  0
LINE
  5
43A
330
417
100
AcDbEntity
  8
0
  6
Continuous
 62
     0
370
    30
100
AcDbLine
 10
179.115022
 20
728.305344
 30
0.0
 11
162.115022
 21
728.305344
 31
0.0
  0
LINE
  5
43B
330
417
100
AcDbEntity
  8
0
  6
Continuous
 62
     0
370
    30
100
AcDbLine
 10
179.115022
 20
706.305345
 30
0.0
 11
162.115022
 21
706.305345
 31
0.0
  0
LINE
  5
43C
330
417
100
AcDbEntity
  8
0
  6
Continuous
 62
     0
370
    30
100
AcDbLine
 10
181.615022
 20
729.305345
 30
0.0
 11
179.615022
 21
729.305345
 31
0.0
  0
LINE
  5
43D
330
417
100
AcDbEntity
  8
0
  6
Continuous
 62
     0
370
    30
100
AcDbLine
 10
181.615022
 20
705.305345
 30
0.0
 11
179.615022
 21
705.305345
 31
0.0
  0
LINE
  5
43E
330
417
100
AcDbEntity
  8
0
  6
Continuous
 62
     0
370
    30
100
AcDbLine
 10
198.664998
 20
538.905347
 30
0.0
 11
198.664998
 21
541.461985
 31
0.0
  0
LINE
  5
43F
330
417
100
AcDbEntity
  8
0
  6
Continuous
 62
     0
370
    30
100
AcDbLine
 10
198.664998
 20
541.461985
 30
0.0
 11
198.664998
 21
559.705347
 31
0.0
  0
LINE
  5
440
330
417
100
AcDbEntity
  8
0
  6
Continuous
 62
     0
370
    30
100
AcDbLine
 10
288.365061
 20
562.805348
 30
0.0
 11
288.365061
 21
549.305317
 31
0.0
  0
LINE
  5
441
330
417
100
AcDbEntity
  8
0
  6
Continuous
 62
     0
370
    30
100
AcDbLine
 10
288.365061
 20
549.305317
 30
0.0
 11
288.365061
 21
535.805287
 31
0.0
  0
LINE
  5
442
330
417
100
AcDbEntity
  8
0
  6
Continuous
 62
     0
370
     0
100
AcDbLine
 10
287.865061
 20
563.305348
 30
0.0
 11
287.865061
 21
549.305317
 31
0.0
  0
LINE
  5
443
330
417
100
AcDbEntity
  8
0
  6
Continuous
 62
     0
370
     0
100
AcDbLine
 10
287.865061
 20
549.305317
 30
0.0
 11
287.865061
 21
535.305287
 31
0.0
  0
LINE
  5
444
330
417
100
AcDbEntity
  8
0
  6
Continuous
 62
     0
370
    30
100
AcDbLine
 10
233.664993
 20
582.505343
 30
0.0
 11
205.415007
 21
582.505343
 31
0.0
  0
LINE
  5
445
330
417
100
AcDbEntity
  8
0
  6
Continuous
 62
     0
370
    30
100
AcDbLine
 10
261.914981
 20
582.505343
 30
0.0
 11
233.664993
 21
582.505343
 31
0.0
  0
LINE
  5
446
330
417
100
AcDbEntity
  8
0
  6
Continuous
 62
     0
370
    30
100
AcDbLine
 10
233.664993
 20
516.305355
 30
0.0
 11
203.164994
 21
516.305355
 31
0.0
  0
LINE
  5
447
330
417
100
AcDbEntity
  8
0
  6
Continuous
 62
     0
370
    30
100
AcDbLine
 10
264.164994
 20
516.305355
 30
0.0
 11
233.664993
 21
516.305355
 31
0.0
  0
LINE
  5
448
330
417
100
AcDbEntity
  8
0
  6
Continuous
 62
     0
370
    30
100
AcDbLine
 10
233.664993
 20
514.705355
 30
0.0
 11
203.164994
 21
514.705355
 31
0.0
  0
LINE
  5
449
330
417
100
AcDbEntity
  8
0
  6
Continuous
 62
     0
370
    30
100
AcDbLine
 10
264.164994
 20
514.705355
 30
0.0
 11
233.664993
 21
514.705355
 31
0.0
  0
LINE
  5
44A
330
417
100
AcDbEntity
  8
0
  6
Continuous
 62
     0
370
    30
100
AcDbLine
 10
233.664993
 20
508.905355
 30
0.0
 11
203.164994
 21
508.905355
 31
0.0
  0
LINE
  5
44B
330
417
100
AcDbEntity
  8
0
  6
Continuous
 62
     0
370
    30
100
AcDbLine
 10
264.164994
 20
508.905355
 30
0.0
 11
233.664993
 21
508.905355
 31
0.0
  0
LINE
  5
44C
330
417
100
AcDbEntity
  8
0
  6
Continuous
 62
     0
370
    30
100
AcDbLine
 10
233.664993
 20
507.305355
 30
0.0
 11
203.164994
 21
507.305355
 31
0.0
  0
LINE
  5
44D
330
417
100
AcDbEntity
  8
0
  6
Continuous
 62
     0
370
    30
100
AcDbLine
 10
264.164994
 20
507.305355
 30
0.0
 11
233.664993
 21
507.305355
 31
0.0
  0
LINE
  5
44E
330
417
100
AcDbEntity
  8
0
  6
Continuous
 62
     0
370
    30
100
AcDbLine
 10
233.664994
 20
488.305347
 30
0.0
 11
223.314994
 21
488.305347
 31
0.0
  0
LINE
  5
44F
330
417
100
AcDbEntity
  8
0
  6
Continuous
 62
     0
370
    30
100
AcDbLine
 10
244.014994
 20
488.305347
 30
0.0
 11
233.664994
 21
488.305347
 31
0.0
  0
LINE
  5
450
330
417
100
AcDbEntity
  8
0
  6
Continuous
 62
     0
370
    30
100
AcDbLine
 10
233.664994
 20
486.805347
 30
0.0
 11
224.814994
 21
486.805347
 31
0.0
  0
LINE
  5
451
330
417
100
AcDbEntity
  8
0
  6
Continuous
 62
     0
370
    30
100
AcDbLine
 10
242.514994
 20
486.805347
 30
0.0
 11
233.664994
 21
486.805347
 31
0.0
  0
LINE
  5
452
330
417
100
AcDbEntity
  8
0
  6
Continuous
 62
     0
370
    30
100
AcDbLine
 10
244.014994
 20
488.305347
 30
0.0
 11
242.514994
 21
486.805347
 31
0.0
  0
LINE
  5
453
330
417
100
AcDbEntity
  8
0
  6
Continuous
 62
     0
370
    30
100
AcDbLine
 10
223.314994
 20
488.305347
 30
0.0
 11
224.814994
 21
486.805347
 31
0.0
  0
LINE
  5
454
330
417
100
AcDbEntity
  8
0
  6
Continuous
 62
     0
370
    30
100
AcDbLine
 10
244.014994
 20
507.305355
 30
0.0
 11
244.014994
 21
488.305347
 31
0.0
  0
LINE
  5
455
330
417
100
AcDbEntity
  8
0
  6
Continuous
 62
     0
370
    30
100
AcDbLine
 10
223.314994
 20
507.305355
 30
0.0
 11
223.314994
 21
488.305347
 31
0.0
  0
LINE
  5
456
330
417
100
AcDbEntity
  8
0
  6
Continuous
 62
     0
370
    30
100
AcDbLine
 10
264.164994
 20
508.905355
 30
0.0
 11
264.164994
 21
507.305355
 31
0.0
  0
LINE
  5
457
330
417
100
AcDbEntity
  8
0
  6
Continuous
 62
     0
370
    30
100
AcDbLine
 10
203.164994
 20
508.905355
 30
0.0
 11
203.164994
 21
507.305355
 31
0.0
  0
LINE
  5
458
330
417
100
AcDbEntity
  8
0
  6
Continuous
 62
     0
370
    30
100
AcDbLine
 10
263.114994
 20
514.705355
 30
0.0
 11
263.114994
 21
508.905355
 31
0.0
  0
LINE
  5
459
330
417
100
AcDbEntity
  8
0
  6
Continuous
 62
     0
370
    30
100
AcDbLine
 10
204.214994
 20
514.705355
 30
0.0
 11
204.214994
 21
508.905355
 31
0.0
  0
LINE
  5
45A
330
417
100
AcDbEntity
  8
0
  6
Continuous
 62
     0
370
    30
100
AcDbLine
 10
264.164994
 20
516.305355
 30
0.0
 11
264.164994
 21
514.705355
 31
0.0
  0
LINE
  5
45B
330
417
100
AcDbEntity
  8
0
  6
Continuous
 62
     0
370
    30
100
AcDbLine
 10
203.164994
 20
516.305355
 30
0.0
 11
203.164994
 21
514.705355
 31
0.0
  0
LINE
  5
45C
330
417
100
AcDbEntity
  8
0
  6
Continuous
 62
     0
370
    30
100
AcDbLine
 10
261.914981
 20
582.505343
 30
0.0
 11
261.914981
 21
516.305355
 31
0.0
  0
LINE
  5
45D
330
417
100
AcDbEntity
  8
0
  6
Continuous
 62
     0
370
    30
100
AcDbLine
 10
205.415007
 20
582.505343
 30
0.0
 11
205.415007
 21
516.305355
 31
0.0
  0
LINE
  5
45E
330
417
100
AcDbEntity
  8
0
  6
Continuous
 62
     0
370
    30
100
AcDbLine
 10
260.164994
 20
583.305343
 30
0.0
 11
260.164994
 21
582.505343
 31
0.0
  0
LINE
  5
45F
330
417
100
AcDbEntity
  8
0
  6
Continuous
 62
     0
370
    30
100
AcDbLine
 10
207.164994
 20
583.305343
 30
0.0
 11
207.164994
 21
582.505343
 31
0.0
  0
LINE
  5
460
330
417
100
AcDbEntity
  8
0
  6
Continuous
 62
     0
370
    30
100
AcDbLine
 10
261.914985
 20
563.305348
 30
0.0
 11
287.865061
 21
563.305348
 31
0.0
  0
LINE
  5
461
330
417
100
AcDbEntity
  8
0
  6
Continuous
 62
     0
370
    30
100
AcDbLine
 10
261.914985
 20
535.305287
 30
0.0
 11
287.865061
 21
535.305287
 31
0.0
  0
LINE
  5
462
330
417
100
AcDbEntity
  8
0
  6
Continuous
 62
     0
370
    30
100
AcDbLine
 10
205.415011
 20
559.705347
 30
0.0
 11
198.664998
 21
559.705347
 31
0.0
  0
LINE
  5
463
330
417
100
AcDbEntity
  8
0
  6
Continuous
 62
     0
370
    30
100
AcDbLine
 10
205.415011
 20
538.905347
 30
0.0
 11
198.664998
 21
538.905347
 31
0.0
  0
LINE
  5
464
330
417
100
AcDbEntity
  8
0
  6
Continuous
 62
     0
370
     0
100
AcDbLine
 10
261.914994
 20
599.872552
 30
0.0
 11
205.414994
 21
599.872552
 31
0.0
  0
ARC
  5
465
330
417
100
AcDbEntity
  8
0
  6
Continuous
 62
     0
370
    30
100
AcDbCircle
 10
206.414994
 20
599.872552
 30
0.0
 40
0.9999999999984931
100
AcDbArc
 50
93.916106
 51
180.0
  0
LWPOLYLINE
  5
466
330
417
100
AcDbEntity
  8
0
  6
Continuous
 62
     0
370
    30
100
AcDbPolyline
 90
       59
 70
     0
 43
0.0
 10
206.346695
 20
600.870239
 10
206.386841
 20
600.870239
 10
206.506989
 20
600.870239
 10
206.706696
 20
600.870239
 10
206.985535
 20
600.870239
 10
207.342758
 20
600.870239
 10
207.777115
 20
600.870239
 10
208.287369
 20
600.870239
 10
208.872192
 20
600.870239
 10
209.529785
 20
600.870239
 10
210.258072
 20
600.870239
 10
211.054962
 20
600.870239
 10
211.918259
 20
600.870239
 10
212.845352
 20
600.870239
 10
213.833557
 20
600.870239
 10
214.880219
 20
600.870239
 10
215.982117
 20
600.870239
 10
217.13559
 20
600.870239
 10
218.336929
 20
600.870239
 10
219.582504
 20
600.870239
 10
220.868851
 20
600.870239
 10
222.192673
 20
600.870239
 10
223.550629
 20
600.870239
 10
224.939041
 20
600.870239
 10
226.353607
 20
600.870239
 10
227.789932
 20
600.870239
 10
229.243637
 20
600.870239
 10
230.71019
 20
600.870239
 10
232.184967
 20
600.870239
 10
233.663376
 20
600.870239
 10
235.140945
 20
600.870239
 10
236.613754
 20
600.870239
 10
238.078018
 20
600.870239
 10
239.530029
 20
600.870239
 10
240.965698
 20
600.870239
 10
242.380554
 20
600.870239
 10
243.770035
 20
600.870239
 10
245.129654
 20
600.870239
 10
246.455429
 20
600.870239
 10
247.743622
 20
600.870239
 10
248.990494
 20
600.870239
 10
250.192383
 20
600.870239
 10
251.345871
 20
600.870239
 10
252.447571
 20
600.870239
 10
253.49411
 20
600.870239
 10
254.482391
 20
600.870239
 10
255.409683
 20
600.870239
 10
256.273193
 20
600.870239
 10
257.070282
 20
600.870239
 10
257.798737
 20
600.870239
 10
258.456451
 20
600.870239
 10
259.041412
 20
600.870239
 10
259.551819
 20
600.870239
 10
259.986359
 20
600.870239
 10
260.34375
 20
600.870239
 10
260.622772
 20
600.870239
 10
260.822662
 20
600.870239
 10
260.942963
 20
600.870239
 10
260.983276
 20
600.870239
  0
LINE
  5
467
330
417
100
AcDbEntity
  8
0
  6
Continuous
 62
     0
370
    30
100
AcDbLine
 10
205.414994
 20
599.872552
 30
0.0
 11
205.414994
 21
583.305343
 31
0.0
  0
LINE
  5
468
330
417
100
AcDbEntity
  8
0
  6
Continuous
 62
     0
370
    30
100
AcDbLine
 10
205.414994
 20
583.305343
 30
0.0
 11
261.914994
 21
583.305343
 31
0.0
  0
LWPOLYLINE
  5
469
330
417
100
AcDbEntity
  8
0
  6
Continuous
 62
     0
370
    30
100
AcDbPolyline
 90
       57
 70
     0
 43
0.0
 10
209.164993
 20
601.053162
 10
209.196884
 20
601.053162
 10
209.295029
 20
601.053162
 10
209.462891
 20
601.053162
 10
209.703552
 20
601.053162
 10
210.019547
 20
601.053162
 10
210.412903
 20
601.053162
 10
210.884918
 20
601.053162
 10
211.436203
 20
601.053162
 10
212.066574
 20
601.053162
 10
212.77504
 20
601.053162
 10
213.559708
 20
601.053162
 10
214.417877
 20
601.053162
 10
215.346024
 20
601.053162
 10
216.339813
 20
601.053162
 10
217.394211
 20
601.053162
 10
218.503525
 20
601.053162
 10
219.66156
 20
601.053162
 10
220.861694
 20
601.053162
 10
222.096985
 20
601.053162
 10
223.360352
 20
601.053162
 10
224.644653
 20
601.053162
 10
225.942825
 20
601.053162
 10
227.247986
 20
601.053162
 10
228.553558
 20
601.053162
 10
229.853302
 20
601.053162
 10
231.141464
 20
601.053162
 10
232.412766
 20
601.053162
 10
233.662415
 20
601.053162
 10
234.911972
 20
601.053162
 10
236.183182
 20
601.053162
 10
237.471283
 20
601.053162
 10
238.771011
 20
601.053162
 10
240.076553
 20
601.053162
 10
241.381744
 20
601.053162
 10
242.679947
 20
601.053162
 10
243.964325
 20
601.053162
 10
245.227798
 20
601.053162
 10
246.463226
 20
601.053162
 10
247.663513
 20
601.053162
 10
248.821747
 20
601.053162
 10
249.931274
 20
601.053162
 10
250.985916
 20
601.053162
 10
251.979965
 20
601.053162
 10
252.908386
 20
601.053162
 10
253.766861
 20
601.053162
 10
254.551849
 20
601.053162
 10
255.26062
 20
601.053162
 10
255.891327
 20
601.053162
 10
256.442932
 20
601.053162
 10
256.915283
 20
601.053162
 10
257.30896
 20
601.053162
 10
257.625275
 20
601.053162
 10
257.866241
 20
601.053162
 10
258.034424
 20
601.053162
 10
258.132843
 20
601.053162
 10
258.165009
 20
601.053162
  0
LINE
  5
46A
330
417
100
AcDbEntity
  8
0
  6
Continuous
 62
     0
370
    30
100
AcDbLine
 10
261.914994
 20
583.305343
 30
0.0
 11
261.914994
 21
599.872552
 31
0.0
  0
ARC
  5
46B
330
417
100
AcDbEntity
  8
0
  6
Continuous
 62
     0
370
    30
100
AcDbCircle
 10
260.911952
 20
599.86971
 30
0.0
 40
1.003046707119916
100
AcDbArc
 50
0.162312
 51
85.921582
  0
ENDBLK
  5
46D
330
417
100
AcDbEntity
  8
0
100
AcDbBlockEnd
  0
ENDSEC
  0
SECTION
  2
ENTITIES
  0
INSERT
  5
111
330
1F
100
AcDbEntity
  8
0
  6
Continuous
 62
     7
420
 16250871
370
     0
100
AcDbBlockReference
  2
a
 10
339.390015
 20
169.986176
 30
0.0
  0
INSERT
  5
227
330
1F
100
AcDbEntity
  8
0
  6
Continuous
 62
     7
420
 16250871
370
     0
100
AcDbBlockReference
  2
b
 10
339.390015
 20
169.986176
 30
0.0
  0
INSERT
  5
286
330
1F
100
AcDbEntity
  8
0
  6
Continuous
 62
     7
420
 16250871
370
     0
100
AcDbBlockReference
  2
c
 10
339.390015
 20
169.986176
 30
0.0
  0
INSERT
  5
416
330
1F
100
AcDbEntity
  8
0
  6
Continuous
 62
     7
420
 16250871
370
     0
100
AcDbBlockReference
  2
d
 10
339.390015
 20
169.986176
 30
0.0
  0
INSERT
  5
46E
330
1F
100
AcDbEntity
  8
0
  6
Continuous
 62
     7
420
 16250871
370
     0
100
AcDbBlockReference
  2
e
 10
334.752228
 20
0.0
 30
0.0
  0
ENDSEC
  0
SECTION
  2
OBJECTS
  0
DICTIONARY
  5
C
330
0
100
AcDbDictionary
281
     1
  3
ACAD_DETAILVIEWSTYLE
350
4A6
  3
ACAD_GROUP
350
D
  3
ACAD_LAYOUT
350
1A
  3
ACAD_MATERIAL
350
43
  3
ACAD_MLEADERSTYLE
350
6B
  3
ACAD_MLINESTYLE
350
17
  3
ACAD_PLOTSETTINGS
350
19
  3
ACAD_PLOTSTYLENAME
350
E
  3
ACAD_SCALELIST
350
47
  3
ACAD_SECTIONVIEWSTYLE
350
4A7
  3
ACAD_TABLESTYLE
350
69
  3
ACAD_VISUALSTYLE
350
2A
  3
ACDB_RECOMPOSE_DATA
350
4A3
  3
AcDbVariableDictionary
350
46F
  0
SUN
  5
6D
330
29
100
AcDbSun
 90
        1
290
     0
 63
     7
421
 16777215
 40
1.0
291
     1
 91
  2455826
 92
 54000000
292
     0
 70
     2
 71
   256
280
     1
  0
DICTIONARY
  5
4A6
102
{ACAD_REACTORS
330
C
102
}
330
C
100
AcDbDictionary
281
     1
  0
DICTIONARY
  5
D
102
{ACAD_REACTORS
330
C
102
}
330
C
100
AcDbDictionary
281
     1
  0
DICTIONARY
  5
1A
102
{ACAD_REACTORS
330
C
102
}
330
C
100
AcDbDictionary
281
     1
  3
Layout1
350
1E
  3
Layout2
350
26
  3
Model
350
22
  0
DICTIONARY
  5
43
102
{ACAD_REACTORS
330
C
102
}
330
C
100
AcDbDictionary
281
     1
  3
ByBlock
350
45
  3
ByLayer
350
44
  3
Global
350
46
  0
DICTIONARY
  5
6B
102
{ACAD_REACTORS
330
C
102
}
330
C
100
AcDbDictionary
281
     1
  3
Standard
350
6C
  0
DICTIONARY
  5
17
102
{ACAD_REACTORS
330
C
102
}
330
C
100
AcDbDictionary
281
     1
  3
Standard
350
18
  0
DICTIONARY
  5
19
102
{ACAD_REACTORS
330
C
102
}
330
C
100
AcDbDictionary
281
     1
  0
ACDBDICTIONARYWDFLT
  5
E
102
{ACAD_REACTORS
330
C
102
}
330
C
100
AcDbDictionary
281
     1
  3
Normal
350
F
100
AcDbDictionaryWithDefault
340
F
  0
DICTIONARY
  5
47
102
{ACAD_REACTORS
330
C
102
}
330
C
100
AcDbDictionary
281
     1
  3
A0
350
48
  3
A1
350
49
  3
A2
350
4A
  3
A3
350
4B
  3
A4
350
4C
  3
A5
350
4D
  3
A6
350
4E
  3
A7
350
4F
  3
A8
350
50
  3
A9
350
51
  3
B0
350
52
  3
B1
350
53
  3
B2
350
54
  3
B3
350
55
  3
B4
350
56
  3
B5
350
57
  3
B6
350
58
  3
B7
350
59
  3
B8
350
5A
  3
B9
350
5B
  3
C0
350
5C
  3
C1
350
5D
  3
C2
350
5E
  3
C3
350
5F
  3
C4
350
60
  3
C5
350
61
  3
C6
350
62
  3
C7
350
63
  3
C8
350
64
  3
C9
350
65
  3
D0
350
66
  3
D1
350
67
  3
D2
350
68
  0
DICTIONARY
  5
4A7
102
{ACAD_REACTORS
330
C
102
}
330
C
100
AcDbDictionary
281
     1
  0
DICTIONARY
  5
69
102
{ACAD_REACTORS
330
C
102
}
330
C
100
AcDbDictionary
281
     1
  3
Standard
350
6A
  0
DICTIONARY
  5
2A
102
{ACAD_REACTORS
330
C
102
}
330
C
100
AcDbDictionary
281
     1
  3
2dWireframe
350
2F
  3
Basic
350
32
  3
Brighten
350
36
  3
ColorChange
350
3A
  3
Conceptual
350
34
  3
Dim
350
35
  3
EdgeColorOff
350
3D
  3
Facepattern
350
39
  3
Flat
350
2B
  3
FlatWithEdges
350
2C
  3
Gouraud
350
2D
  3
GouraudWithEdges
350
2E
  3
Hidden
350
31
  3
JitterOff
350
3B
  3
Linepattern
350
38
  3
OverhangOff
350
3C
  3
Realistic
350
33
  3
Shaded
350
42
  3
Shaded with edges
350
41
  3
Shades of Gray
350
3E
  3
Sketchy
350
3F
  3
Thicken
350
37
  3
Wireframe
350
30
  3
X-Ray
350
40
  0
XRECORD
  5
4A3
102
{ACAD_REACTORS
330
C
102
}
330
C
100
AcDbXrecord
280
     1
 90
        1
330
6A
  0
DICTIONARY
  5
46F
102
{ACAD_REACTORS
330
C
102
}
330
C
100
AcDbDictionary
281
     1
  3
CANNOSCALE
350
470
  3
CMLEADERSTYLE
350
4A5
  3
CTABLESTYLE
350
4A4
  0
LAYOUT
  5
1E
102
{ACAD_REACTORS
330
1A
102
}
330
1A
100
AcDbPlotSettings
  1

  2
none_device
  4

  6

 40
0.0
 41
0.0
 42
0.0
 43
0.0
 44
0.0
 45
0.0
 46
0.0
 47
0.0
 48
0.0
 49
0.0
140
0.0
141
0.0
142
1.0
143
1.0
 70
   688
 72
     1
 73
     0
 74
     5
  7

 75
    16
 76
     0
 77
     2
 78
   300
147
1.0
148
0.0
149
0.0
100
AcDbLayout
  1
Layout1
 70
     1
 71
     1
 10
0.0
 20
0.0
 11
420.0
 21
297.0
 12
0.0
 22
0.0
 32
0.0
 14
1.000000E+20
 24
1.000000E+20
 34
1.000000E+20
 15
-1.000000E+20
 25
-1.000000E+20
 35
-1.000000E+20
146
0.0
 13
0.0
 23
0.0
 33
0.0
 16
1.0
 26
0.0
 36
0.0
 17
0.0
 27
1.0
 37
0.0
 76
     0
330
1B
  0
LAYOUT
  5
26
102
{ACAD_REACTORS
330
1A
102
}
330
1A
100
AcDbPlotSettings
  1

  2
none_device
  4

  6

 40
0.0
 41
0.0
 42
0.0
 43
0.0
 44
0.0
 45
0.0
 46
0.0
 47
0.0
 48
0.0
 49
0.0
140
0.0
141
0.0
142
1.0
143
1.0
 70
   688
 72
     1
 73
     0
 74
     5
  7

 75
    16
 76
     0
 77
     2
 78
   300
147
1.0
148
0.0
149
0.0
100
AcDbLayout
  1
Layout2
 70
     1
 71
     2
 10
0.0
 20
0.0
 11
0.0
 21
0.0
 12
0.0
 22
0.0
 32
0.0
 14
0.0
 24
0.0
 34
0.0
 15
0.0
 25
0.0
 35
0.0
146
0.0
 13
0.0
 23
0.0
 33
0.0
 16
1.0
 26
0.0
 36
0.0
 17
0.0
 27
1.0
 37
0.0
 76
     0
330
23
  0
LAYOUT
  5
22
102
{ACAD_REACTORS
330
1A
102
}
330
1A
100
AcDbPlotSettings
  1

  2
none_device
  4
Letter_(8.50_x_11.00_Inches)
  6

 40
6.35
 41
6.35
 42
6.350005
 43
6.350005
 44
215.9
 45
279.4
 46
0.0
 47
0.0
 48
0.0
 49
0.0
140
0.0
141
0.0
142
1.0
143
1.0
 70
  1712
 72
     1
 73
     0
 74
     0
  7

 75
     0
 76
     0
 77
     2
 78
   300
147
1.0
148
0.0
149
0.0
100
AcDbLayout
  1
Model
 70
     1
 71
     0
 10
0.0
 20
0.0
 11
420.0
 21
297.0
 12
0.0
 22
0.0
 32
0.0
 14
1.000000E+20
 24
1.000000E+20
 34
1.000000E+20
 15
-1.000000E+20
 25
-1.000000E+20
 35
-1.000000E+20
146
0.0
 13
0.0
 23
0.0
 33
0.0
 16
1.0
 26
0.0
 36
0.0
 17
0.0
 27
1.0
 37
0.0
 76
     0
330
1F
331
29
  0
MATERIAL
  5
45
102
{ACAD_REACTORS
330
43
102
}
330
43
100
AcDbMaterial
  1
ByBlock
 72
     1
 94
      127
  0
MATERIAL
  5
44
102
{ACAD_REACTORS
330
43
102
}
330
43
100
AcDbMaterial
  1
ByLayer
 72
     1
 94
      127
  0
MATERIAL
  5
46
102
{ACAD_REACTORS
330
43
102
}
330
43
100
AcDbMaterial
  1
Global
 72
     1
 94
      127
  0
MLEADERSTYLE
  5
6C
102
{ACAD_REACTORS
330
6B
102
}
330
6B
100
AcDbMLeaderStyle
179
     2
170
     2
171
     1
172
     0
 90
        2
 40
0.0
 41
0.0
173
     1
 91
-1056964608
340
14
 92
       -2
290
     1
 42
2.0
291
     1
 43
8.0
  3
Standard
341
0
 44
4.0
300

342
11
174
     1
178
     6
175
     1
176
     0
 93
-1056964608
 45
4.0
292
     0
297
     0
 46
4.0
343
0
 94
-1056964608
 47
1.0
 49
1.0
140
1.0
293
     1
141
0.0
294
     1
177
     0
142
1.0
295
     0
296
     0
143
3.75
271
     0
272
     9
273
     9
  0
MLINESTYLE
  5
18
102
{ACAD_REACTORS
330
17
102
}
330
17
100
AcDbMlineStyle
  2
Standard
 70
     0
  3

 62
   256
 51
90.0
 52
90.0
 71
     2
 49
0.5
 62
   256
  6
BYLAYER
 49
-0.5
 62
   256
  6
BYLAYER
  0
ACDBPLACEHOLDER
  5
F
102
{ACAD_REACTORS
330
E
102
}
330
E
  0
SCALE
  5
48
102
{ACAD_REACTORS
330
47
102
}
330
47
100
AcDbScale
 70
     0
300
1:1
140
1.0
141
1.0
290
     1
  0
SCALE
  5
49
102
{ACAD_REACTORS
330
47
102
}
330
47
100
AcDbScale
 70
     0
300
1:2
140
1.0
141
2.0
290
     0
  0
SCALE
  5
4A
102
{ACAD_REACTORS
330
47
102
}
330
47
100
AcDbScale
 70
     0
300
1:4
140
1.0
141
4.0
290
     0
  0
SCALE
  5
4B
102
{ACAD_REACTORS
330
47
102
}
330
47
100
AcDbScale
 70
     0
300
1:5
140
1.0
141
5.0
290
     0
  0
SCALE
  5
4C
102
{ACAD_REACTORS
330
47
102
}
330
47
100
AcDbScale
 70
     0
300
1:8
140
1.0
141
8.0
290
     0
  0
SCALE
  5
4D
102
{ACAD_REACTORS
330
47
102
}
330
47
100
AcDbScale
 70
     0
300
1:10
140
1.0
141
10.0
290
     0
  0
SCALE
  5
4E
102
{ACAD_REACTORS
330
47
102
}
330
47
100
AcDbScale
 70
     0
300
1:16
140
1.0
141
16.0
290
     0
  0
SCALE
  5
4F
102
{ACAD_REACTORS
330
47
102
}
330
47
100
AcDbScale
 70
     0
300
1:20
140
1.0
141
20.0
290
     0
  0
SCALE
  5
50
102
{ACAD_REACTORS
330
47
102
}
330
47
100
AcDbScale
 70
     0
300
1:30
140
1.0
141
30.0
290
     0
  0
SCALE
  5
51
102
{ACAD_REACTORS
330
47
102
}
330
47
100
AcDbScale
 70
     0
300
1:40
140
1.0
141
40.0
290
     0
  0
SCALE
  5
52
102
{ACAD_REACTORS
330
47
102
}
330
47
100
AcDbScale
 70
     0
300
1:50
140
1.0
141
50.0
290
     0
  0
SCALE
  5
53
102
{ACAD_REACTORS
330
47
102
}
330
47
100
AcDbScale
 70
     0
300
1:100
140
1.0
141
100.0
290
     0
  0
SCALE
  5
54
102
{ACAD_REACTORS
330
47
102
}
330
47
100
AcDbScale
 70
     0
300
2:1
140
2.0
141
1.0
290
     0
  0
SCALE
  5
55
102
{ACAD_REACTORS
330
47
102
}
330
47
100
AcDbScale
 70
     0
300
4:1
140
4.0
141
1.0
290
     0
  0
SCALE
  5
56
102
{ACAD_REACTORS
330
47
102
}
330
47
100
AcDbScale
 70
     0
300
8:1
140
8.0
141
1.0
290
     0
  0
SCALE
  5
57
102
{ACAD_REACTORS
330
47
102
}
330
47
100
AcDbScale
 70
     0
300
10:1
140
10.0
141
1.0
290
     0
  0
SCALE
  5
58
102
{ACAD_REACTORS
330
47
102
}
330
47
100
AcDbScale
 70
     0
300
100:1
140
100.0
141
1.0
290
     0
  0
SCALE
  5
59
102
{ACAD_REACTORS
330
47
102
}
330
47
100
AcDbScale
 70
     0
300
1/128" = 1'-0"
140
0.007812
141
12.0
290
     0
  0
SCALE
  5
5A
102
{ACAD_REACTORS
330
47
102
}
330
47
100
AcDbScale
 70
     0
300
1/64" = 1'-0"
140
0.015625
141
12.0
290
     0
  0
SCALE
  5
5B
102
{ACAD_REACTORS
330
47
102
}
330
47
100
AcDbScale
 70
     0
300
1/32" = 1'-0"
140
0.03125
141
12.0
290
     0
  0
SCALE
  5
5C
102
{ACAD_REACTORS
330
47
102
}
330
47
100
AcDbScale
 70
     0
300
1/16" = 1'-0"
140
0.0625
141
12.0
290
     0
  0
SCALE
  5
5D
102
{ACAD_REACTORS
330
47
102
}
330
47
100
AcDbScale
 70
     0
300
3/32" = 1'-0"
140
0.09375
141
12.0
290
     0
  0
SCALE
  5
5E
102
{ACAD_REACTORS
330
47
102
}
330
47
100
AcDbScale
 70
     0
300
1/8" = 1'-0"
140
0.125
141
12.0
290
     0
  0
SCALE
  5
5F
102
{ACAD_REACTORS
330
47
102
}
330
47
100
AcDbScale
 70
     0
300
3/16" = 1'-0"
140
0.1875
141
12.0
290
     0
  0
SCALE
  5
60
102
{ACAD_REACTORS
330
47
102
}
330
47
100
AcDbScale
 70
     0
300
1/4" = 1'-0"
140
0.25
141
12.0
290
     0
  0
SCALE
  5
61
102
{ACAD_REACTORS
330
47
102
}
330
47
100
AcDbScale
 70
     0
300
3/8" = 1'-0"
140
0.375
141
12.0
290
     0
  0
SCALE
  5
62
102
{ACAD_REACTORS
330
47
102
}
330
47
100
AcDbScale
 70
     0
300
1/2" = 1'-0"
140
0.5
141
12.0
290
     0
  0
SCALE
  5
63
102
{ACAD_REACTORS
330
47
102
}
330
47
100
AcDbScale
 70
     0
300
3/4" = 1'-0"
140
0.75
141
12.0
290
     0
  0
SCALE
  5
64
102
{ACAD_REACTORS
330
47
102
}
330
47
100
AcDbScale
 70
     0
300
1" = 1'-0"
140
1.0
141
12.0
290
     0
  0
SCALE
  5
65
102
{ACAD_REACTORS
330
47
102
}
330
47
100
AcDbScale
 70
     0
300
1-1/2" = 1'-0"
140
1.5
141
12.0
290
     0
  0
SCALE
  5
66
102
{ACAD_REACTORS
330
47
102
}
330
47
100
AcDbScale
 70
     0
300
3" = 1'-0"
140
3.0
141
12.0
290
     0
  0
SCALE
  5
67
102
{ACAD_REACTORS
330
47
102
}
330
47
100
AcDbScale
 70
     0
300
6" = 1'-0"
140
6.0
141
12.0
290
     0
  0
SCALE
  5
68
102
{ACAD_REACTORS
330
47
102
}
330
47
100
AcDbScale
 70
     0
300
1'-0" = 1'-0"
140
12.0
141
12.0
290
     0
  0
TABLESTYLE
  5
6A
102
{ACAD_REACTORS
330
69
102
}
102
{ACAD_XDICTIONARY
360
4A1
102
}
330
69
100
AcDbTableStyle
  3
Standard
 70
     0
 71
     0
 40
0.06
 41
0.06
280
     0
281
     0
  7
Standard
140
4.5
170
     2
 62
     0
 63
   257
283
     0
 90
        4
 91
        0
  1

274
    -2
284
     1
 64
     0
275
    -2
285
     1
 65
     0
276
    -2
286
     1
 66
     0
277
    -2
287
     1
 67
     0
278
    -2
288
     1
 68
     0
279
    -2
289
     1
 69
     0
  7
Standard
140
6.0
170
     5
 62
     0
 63
   257
283
     0
 90
        4
 91
        0
  1

274
    -2
284
     1
 64
     0
275
    -2
285
     1
 65
     0
276
    -2
286
     1
 66
     0
277
    -2
287
     1
 67
     0
278
    -2
288
     1
 68
     0
279
    -2
289
     1
 69
     0
  7
Standard
140
4.5
170
     5
 62
     0
 63
   257
283
     0
 90
        4
 91
        0
  1

274
    -2
284
     1
 64
     0
275
    -2
285
     1
 65
     0
276
    -2
286
     1
 66
     0
277
    -2
287
     1
 67
     0
278
    -2
288
     1
 68
     0
279
    -2
289
     1
 69
     0
  0
VISUALSTYLE
  5
2F
102
{ACAD_REACTORS
330
2A
102
}
102
{ACAD_XDICTIONARY
360
479
102
}
330
2A
100
AcDbVisualStyle
  2
2dWireframe
 70
     4
177
     2
291
     0
 71
     0
176
     1
 72
     2
176
     1
 73
     0
176
     1
 90
        0
176
     1
 40
0.6
176
     1
 41
30.0
176
     1
 62
     5
 63
     7
421
 16777215
176
     1
 74
     1
176
     1
 91
        4
176
     1
 64
     7
176
     1
 65
   257
176
     1
 75
     1
176
     1
175
     1
176
     1
 42
1.0
176
     1
 92
        0
176
     1
 66
   257
176
     1
 43
1.0
176
     1
 76
     1
176
     1
 77
     6
176
     1
 78
     2
176
     1
 67
     7
176
     1
 79
     5
176
     1
170
     0
176
     1
171
     0
176
     1
290
     0
176
     1
 93
        1
176
     1
 44
0.0
176
     1
173
     0
176
     1
  0
VISUALSTYLE
  5
32
102
{ACAD_REACTORS
330
2A
102
}
102
{ACAD_XDICTIONARY
360
47F
102
}
330
2A
100
AcDbVisualStyle
  2
Basic
 70
     7
177
     2
291
     1
 71
     1
176
     1
 72
     0
176
     1
 73
     1
176
     1
 90
        0
176
     1
 40
0.6
176
     1
 41
30.0
176
     1
 62
     5
 63
     7
421
 16777215
176
     1
 74
     0
176
     1
 91
        4
176
     1
 64
     7
176
     1
 65
   257
176
     1
 75
     1
176
     1
175
     1
176
     1
 42
1.0
176
     1
 92
        8
176
     1
 66
     7
176
     1
 43
1.0
176
     1
 76
     1
176
     1
 77
     6
176
     1
 78
     2
176
     1
 67
     7
176
     1
 79
     5
176
     1
170
     0
176
     1
171
     0
176
     1
290
     0
176
     1
 93
        1
176
     1
 44
0.0
176
     1
173
     0
176
     1
  0
VISUALSTYLE
  5
36
102
{ACAD_REACTORS
330
2A
102
}
102
{ACAD_XDICTIONARY
360
487
102
}
330
2A
100
AcDbVisualStyle
  2
Brighten
 70
    12
177
     2
291
     1
 71
     2
176
     1
 72
     2
176
     1
 73
     0
176
     1
 90
        0
176
     1
 40
0.6
176
     1
 41
30.0
176
     1
 62
     5
 63
     7
421
 16777215
176
     1
 74
     1
176
     1
 91
        4
176
     1
 64
     7
176
     1
 65
   257
176
     1
 75
     1
176
     1
175
     1
176
     1
 42
1.0
176
     1
 92
        8
176
     1
 66
     7
176
     1
 43
1.0
176
     1
 76
     1
176
     1
 77
     6
176
     1
 78
     2
176
     1
 67
     7
176
     1
 79
     5
176
     1
170
     0
176
     1
171
     0
176
     1
290
     0
176
     1
 93
        1
176
     1
 44
50.0
176
     1
173
     0
176
     1
  0
VISUALSTYLE
  5
3A
102
{ACAD_REACTORS
330
2A
102
}
102
{ACAD_XDICTIONARY
360
48F
102
}
330
2A
100
AcDbVisualStyle
  2
ColorChange
 70
    16
177
     2
291
     1
 71
     2
176
     1
 72
     2
176
     1
 73
     3
176
     1
 90
        0
176
     1
 40
0.6
176
     1
 41
30.0
176
     1
 62
     5
 63
     8
421
  8421504
176
     1
 74
     1
176
     1
 91
        4
176
     1
 64
     7
176
     1
 65
   257
176
     1
 75
     1
176
     1
175
     1
176
     1
 42
1.0
176
     1
 92
        8
176
     1
 66
     8
424
  8421504
176
     1
 43
1.0
176
     1
 76
     1
176
     1
 77
     6
176
     1
 78
     2
176
     1
 67
     7
176
     1
 79
     5
176
     1
170
     0
176
     1
171
     0
176
     1
290
     0
176
     1
 93
        1
176
     1
 44
0.0
176
     1
173
     0
176
     1
  0
VISUALSTYLE
  5
34
102
{ACAD_REACTORS
330
2A
102
}
102
{ACAD_XDICTIONARY
360
483
102
}
330
2A
100
AcDbVisualStyle
  2
Conceptual
 70
     9
177
     2
291
     0
 71
     3
176
     1
 72
     2
176
     1
 73
     0
176
     1
 90
        0
176
     1
 40
0.6
176
     1
 41
30.0
176
     1
 62
     5
 63
     7
421
 16777215
176
     1
 74
     2
176
     1
 91
        2
176
     1
 64
     7
176
     1
 65
   257
176
     1
 75
     1
176
     1
175
     1
176
     1
 42
179.0
176
     1
 92
        8
176
     1
 66
     7
176
     1
 43
1.0
176
     1
 76
     1
176
     1
 77
     6
176
     1
 78
     2
176
     1
 67
     7
176
     1
 79
     3
176
     1
170
     0
176
     1
171
     0
176
     1
290
     0
176
     1
 93
        1
176
     1
 44
0.0
176
     1
173
     0
176
     1
  0
VISUALSTYLE
  5
35
102
{ACAD_REACTORS
330
2A
102
}
102
{ACAD_XDICTIONARY
360
485
102
}
330
2A
100
AcDbVisualStyle
  2
Dim
 70
    11
177
     2
291
     1
 71
     2
176
     1
 72
     2
176
     1
 73
     0
176
     1
 90
        0
176
     1
 40
0.6
176
     1
 41
30.0
176
     1
 62
     5
 63
     7
421
 16777215
176
     1
 74
     1
176
     1
 91
        4
176
     1
 64
     7
176
     1
 65
   257
176
     1
 75
     1
176
     1
175
     1
176
     1
 42
1.0
176
     1
 92
        8
176
     1
 66
     7
176
     1
 43
1.0
176
     1
 76
     1
176
     1
 77
     6
176
     1
 78
     2
176
     1
 67
     7
176
     1
 79
     5
176
     1
170
     0
176
     1
171
     0
176
     1
290
     0
176
     1
 93
        1
176
     1
 44
-50.0
176
     1
173
     0
176
     1
  0
VISUALSTYLE
  5
3D
102
{ACAD_REACTORS
330
2A
102
}
102
{ACAD_XDICTIONARY
360
495
102
}
330
2A
100
AcDbVisualStyle
  2
EdgeColorOff
 70
    22
177
     2
291
     1
 71
     2
176
     0
 72
     2
176
     0
 73
     0
176
     0
 90
        0
176
     0
 40
0.6
176
     0
 41
30.0
176
     0
 62
     5
 63
     7
421
 16777215
176
     0
 74
     1
176
     0
 91
        4
176
     0
 64
     7
176
     0
 65
   257
176
     0
 75
     1
176
     0
175
     1
176
     0
 42
1.0
176
     0
 92
        8
176
     2
 66
     7
176
     0
 43
1.0
176
     0
 76
     1
176
     0
 77
     6
176
     0
 78
     2
176
     0
 67
     7
176
     0
 79
     5
176
     0
170
     0
176
     0
171
     0
176
     0
290
     0
176
     0
 93
        1
176
     0
 44
0.0
176
     0
173
     0
176
     0
  0
VISUALSTYLE
  5
39
102
{ACAD_REACTORS
330
2A
102
}
102
{ACAD_XDICTIONARY
360
48D
102
}
330
2A
100
AcDbVisualStyle
  2
Facepattern
 70
    15
177
     2
291
     1
 71
     2
176
     1
 72
     2
176
     1
 73
     0
176
     1
 90
        0
176
     1
 40
0.6
176
     1
 41
30.0
176
     1
 62
     5
 63
     7
421
 16777215
176
     1
 74
     1
176
     1
 91
        4
176
     1
 64
     7
176
     1
 65
   257
176
     1
 75
     1
176
     1
175
     1
176
     1
 42
1.0
176
     1
 92
        8
176
     1
 66
     7
176
     1
 43
1.0
176
     1
 76
     1
176
     1
 77
     6
176
     1
 78
     2
176
     1
 67
     7
176
     1
 79
     5
176
     1
170
     0
176
     1
171
     0
176
     1
290
     0
176
     1
 93
        1
176
     1
 44
0.0
176
     1
173
     0
176
     1
  0
VISUALSTYLE
  5
2B
102
{ACAD_REACTORS
330
2A
102
}
102
{ACAD_XDICTIONARY
360
471
102
}
330
2A
100
AcDbVisualStyle
  2
Flat
 70
     0
177
     2
291
     1
 71
     2
176
     1
 72
     1
176
     1
 73
     1
176
     1
 90
        2
176
     1
 40
0.6
176
     1
 41
30.0
176
     1
 62
     5
 63
     7
421
 16777215
176
     1
 74
     0
176
     1
 91
        0
176
     1
 64
     7
176
     1
 65
   257
176
     1
 75
     1
176
     1
175
     1
176
     1
 42
1.0
176
     1
 92
        8
176
     1
 66
     7
176
     1
 43
1.0
176
     1
 76
     1
176
     1
 77
     6
176
     1
 78
     2
176
     1
 67
     7
176
     1
 79
     5
176
     1
170
     0
176
     1
171
     0
176
     1
290
     0
176
     1
 93
       13
176
     1
 44
0.0
176
     1
173
     0
176
     1
  0
VISUALSTYLE
  5
2C
102
{ACAD_REACTORS
330
2A
102
}
102
{ACAD_XDICTIONARY
360
473
102
}
330
2A
100
AcDbVisualStyle
  2
FlatWithEdges
 70
     1
177
     2
291
     1
 71
     2
176
     1
 72
     1
176
     1
 73
     1
176
     1
 90
        2
176
     1
 40
0.6
176
     1
 41
30.0
176
     1
 62
     5
 63
     7
421
 16777215
176
     1
 74
     1
176
     1
 91
        0
176
     1
 64
     7
176
     1
 65
   257
176
     1
 75
     1
176
     1
175
     1
176
     1
 42
1.0
176
     1
 92
        0
176
     1
 66
   257
176
     1
 43
1.0
176
     1
 76
     1
176
     1
 77
     6
176
     1
 78
     2
176
     1
 67
     7
176
     1
 79
     5
176
     1
170
     0
176
     1
171
     0
176
     1
290
     0
176
     1
 93
       13
176
     1
 44
0.0
176
     1
173
     0
176
     1
  0
VISUALSTYLE
  5
2D
102
{ACAD_REACTORS
330
2A
102
}
102
{ACAD_XDICTIONARY
360
475
102
}
330
2A
100
AcDbVisualStyle
  2
Gouraud
 70
     2
177
     2
291
     1
 71
     2
176
     1
 72
     2
176
     1
 73
     1
176
     1
 90
        2
176
     1
 40
0.6
176
     1
 41
30.0
176
     1
 62
     5
 63
     7
421
 16777215
176
     1
 74
     0
176
     1
 91
        0
176
     1
 64
     7
176
     1
 65
   257
176
     1
 75
     1
176
     1
175
     1
176
     1
 42
1.0
176
     1
 92
        0
176
     1
 66
     7
176
     1
 43
1.0
176
     1
 76
     1
176
     1
 77
     6
176
     1
 78
     2
176
     1
 67
     7
176
     1
 79
     5
176
     1
170
     0
176
     1
171
     0
176
     1
290
     0
176
     1
 93
       13
176
     1
 44
0.0
176
     1
173
     0
176
     1
  0
VISUALSTYLE
  5
2E
102
{ACAD_REACTORS
330
2A
102
}
102
{ACAD_XDICTIONARY
360
477
102
}
330
2A
100
AcDbVisualStyle
  2
GouraudWithEdges
 70
     3
177
     2
291
     1
 71
     2
176
     1
 72
     2
176
     1
 73
     1
176
     1
 90
        2
176
     1
 40
0.6
176
     1
 41
30.0
176
     1
 62
     5
 63
     7
421
 16777215
176
     1
 74
     1
176
     1
 91
        0
176
     1
 64
     7
176
     1
 65
   257
176
     1
 75
     1
176
     1
175
     1
176
     1
 42
1.0
176
     1
 92
        0
176
     1
 66
   257
176
     1
 43
1.0
176
     1
 76
     1
176
     1
 77
     6
176
     1
 78
     2
176
     1
 67
     7
176
     1
 79
     5
176
     1
170
     0
176
     1
171
     0
176
     1
290
     0
176
     1
 93
       13
176
     1
 44
0.0
176
     1
173
     0
176
     1
  0
VISUALSTYLE
  5
31
102
{ACAD_REACTORS
330
2A
102
}
102
{ACAD_XDICTIONARY
360
47D
102
}
330
2A
100
AcDbVisualStyle
  2
Hidden
 70
     6
177
     2
291
     0
 71
     1
176
     1
 72
     2
176
     1
 73
     2
176
     1
 90
        0
176
     1
 40
0.6
176
     1
 41
30.0
176
     1
 62
     5
 63
     7
421
 16777215
176
     1
 74
     2
176
     1
 91
        2
176
     1
 64
     7
176
     1
 65
   257
176
     1
 75
     2
176
     1
175
     1
176
     1
 42
40.0
176
     1
 92
        0
176
     1
 66
   257
176
     1
 43
1.0
176
     1
 76
     1
176
     1
 77
     6
176
     1
 78
     2
176
     1
 67
     7
176
     1
 79
     3
176
     1
170
     0
176
     1
171
     0
176
     1
290
     0
176
     1
 93
        1
176
     1
 44
0.0
176
     1
173
     0
176
     1
  0
VISUALSTYLE
  5
3B
102
{ACAD_REACTORS
330
2A
102
}
102
{ACAD_XDICTIONARY
360
491
102
}
330
2A
100
AcDbVisualStyle
  2
JitterOff
 70
    20
177
     2
291
     1
 71
     2
176
     0
 72
     2
176
     0
 73
     0
176
     0
 90
        0
176
     0
 40
0.6
176
     0
 41
30.0
176
     0
 62
     5
 63
     7
421
 16777215
176
     0
 74
     1
176
     0
 91
        4
176
     0
 64
     7
176
     0
 65
   257
176
     0
 75
     1
176
     0
175
     1
176
     0
 42
1.0
176
     0
 92
       10
176
     2
 66
     7
176
     0
 43
1.0
176
     0
 76
     1
176
     0
 77
     6
176
     0
 78
     2
176
     0
 67
     7
176
     0
 79
     5
176
     0
170
     0
176
     0
171
     0
176
     0
290
     0
176
     0
 93
        1
176
     0
 44
0.0
176
     0
173
     0
176
     0
  0
VISUALSTYLE
  5
38
102
{ACAD_REACTORS
330
2A
102
}
102
{ACAD_XDICTIONARY
360
48B
102
}
330
2A
100
AcDbVisualStyle
  2
Linepattern
 70
    14
177
     2
291
     1
 71
     2
176
     1
 72
     2
176
     1
 73
     0
176
     1
 90
        0
176
     1
 40
0.6
176
     1
 41
30.0
176
     1
 62
     5
 63
     7
421
 16777215
176
     1
 74
     1
176
     1
 91
        4
176
     1
 64
     7
176
     1
 65
   257
176
     1
 75
     7
176
     1
175
     7
176
     1
 42
1.0
176
     1
 92
        8
176
     1
 66
     7
176
     1
 43
1.0
176
     1
 76
     1
176
     1
 77
     6
176
     1
 78
     2
176
     1
 67
     7
176
     1
 79
     5
176
     1
170
     0
176
     1
171
     0
176
     1
290
     0
176
     1
 93
        1
176
     1
 44
0.0
176
     1
173
     0
176
     1
  0
VISUALSTYLE
  5
3C
102
{ACAD_REACTORS
330
2A
102
}
102
{ACAD_XDICTIONARY
360
493
102
}
330
2A
100
AcDbVisualStyle
  2
OverhangOff
 70
    21
177
     2
291
     1
 71
     2
176
     0
 72
     2
176
     0
 73
     0
176
     0
 90
        0
176
     0
 40
0.6
176
     0
 41
30.0
176
     0
 62
     5
 63
     7
421
 16777215
176
     0
 74
     1
176
     0
 91
        4
176
     0
 64
     7
176
     0
 65
   257
176
     0
 75
     1
176
     0
175
     1
176
     0
 42
1.0
176
     0
 92
        9
176
     2
 66
     7
176
     0
 43
1.0
176
     0
 76
     1
176
     0
 77
     6
176
     0
 78
     2
176
     0
 67
     7
176
     0
 79
     5
176
     0
170
     0
176
     0
171
     0
176
     0
290
     0
176
     0
 93
        1
176
     0
 44
0.0
176
     0
173
     0
176
     0
  0
VISUALSTYLE
  5
33
102
{ACAD_REACTORS
330
2A
102
}
102
{ACAD_XDICTIONARY
360
481
102
}
330
2A
100
AcDbVisualStyle
  2
Realistic
 70
     8
177
     2
291
     0
 71
     2
176
     1
 72
     3
176
     1
 73
     0
176
     1
 90
        2
176
     1
 40
0.6
176
     1
 41
30.0
176
     1
 62
     5
 63
     7
421
 16777215
176
     1
 74
     0
176
     1
 91
        0
176
     1
 64
     7
176
     1
 65
   257
176
     1
 75
     1
176
     1
175
     1
176
     1
 42
1.0
176
     1
 92
        8
176
     1
 66
   257
176
     1
 43
1.0
176
     1
 76
     1
176
     1
 77
     6
176
     1
 78
     2
176
     1
 67
     7
176
     1
 79
     3
176
     1
170
     0
176
     1
171
     0
176
     1
290
     0
176
     1
 93
       13
176
     1
 44
0.0
176
     1
173
     0
176
     1
  0
VISUALSTYLE
  5
42
102
{ACAD_REACTORS
330
2A
102
}
102
{ACAD_XDICTIONARY
360
49F
102
}
330
2A
100
AcDbVisualStyle
  2
Shaded
 70
    27
177
     2
291
     0
 71
     2
176
     1
 72
     2
176
     1
 73
     1
176
     1
 90
        2
176
     1
 40
0.6
176
     1
 41
30.0
176
     1
 62
     5
 63
     7
421
 16777215
176
     1
 74
     0
176
     1
 91
        4
176
     1
 64
     7
176
     1
 65
   257
176
     1
 75
     1
176
     1
175
     1
176
     1
 42
1.0
176
     1
 92
        8
176
     1
 66
   257
176
     1
 43
1.0
176
     1
 76
     1
176
     1
 77
     6
176
     1
 78
     2
176
     1
 67
     8
425
  7895160
176
     1
 79
     3
176
     1
170
     0
176
     1
171
     0
176
     1
290
     0
176
     1
 93
        5
176
     1
 44
0.0
176
     1
173
     0
176
     1
  0
VISUALSTYLE
  5
41
102
{ACAD_REACTORS
330
2A
102
}
102
{ACAD_XDICTIONARY
360
49D
102
}
330
2A
100
AcDbVisualStyle
  2
Shaded with edges
 70
    26
177
     2
291
     0
 71
     2
176
     1
 72
     2
176
     1
 73
     1
176
     1
 90
        2
176
     1
 40
0.6
176
     1
 41
30.0
176
     1
 62
     5
 63
     7
421
 16777215
176
     1
 74
     1
176
     1
 91
       10
176
     1
 64
     7
176
     1
 65
   257
176
     1
 75
     2
176
     1
175
     1
176
     1
 42
1.0
176
     1
 92
        8
176
     1
 66
   257
176
     1
 43
1.0
176
     1
 76
     1
176
     1
 77
     6
176
     1
 78
     2
176
     1
 67
     7
176
     1
 79
     3
176
     1
170
     0
176
     1
171
     0
176
     1
290
     0
176
     1
 93
        5
176
     1
 44
0.0
176
     1
173
     0
176
     1
  0
VISUALSTYLE
  5
3E
102
{ACAD_REACTORS
330
2A
102
}
102
{ACAD_XDICTIONARY
360
497
102
}
330
2A
100
AcDbVisualStyle
  2
Shades of Gray
 70
    23
177
     2
291
     0
 71
     2
176
     1
 72
     2
176
     1
 73
     3
176
     1
 90
        0
176
     1
 40
0.6
176
     1
 41
30.0
176
     1
 62
     5
 63
     7
421
 16777215
176
     1
 74
     2
176
     1
 91
        2
176
     1
 64
     7
176
     1
 65
     7
176
     1
 75
     1
176
     1
175
     1
176
     1
 42
40.0
176
     1
 92
        8
176
     1
 66
     7
176
     1
 43
1.0
176
     1
 76
     1
176
     1
 77
     6
176
     1
 78
     2
176
     1
 67
     7
176
     1
 79
     3
176
     1
170
     0
176
     1
171
     0
176
     1
290
     0
176
     1
 93
        1
176
     1
 44
0.0
176
     1
173
     0
176
     1
  0
VISUALSTYLE
  5
3F
102
{ACAD_REACTORS
330
2A
102
}
102
{ACAD_XDICTIONARY
360
499
102
}
330
2A
100
AcDbVisualStyle
  2
Sketchy
 70
    24
177
     2
291
     0
 71
     1
176
     1
 72
     2
176
     1
 73
     2
176
     1
 90
        0
176
     1
 40
0.6
176
     1
 41
30.0
176
     1
 62
     5
 63
     7
421
 16777215
176
     1
 74
     2
176
     1
 91
        2
176
     1
 64
     7
176
     1
 65
     7
176
     1
 75
     1
176
     1
175
     1
176
     1
 42
40.0
176
     1
 92
       11
176
     1
 66
     7
176
     1
 43
1.0
176
     1
 76
     1
176
     1
 77
     6
176
     1
 78
     2
176
     1
 67
     7
176
     1
 79
     6
176
     1
170
     0
176
     1
171
     0
176
     1
290
     0
176
     1
 93
        1
176
     1
 44
0.0
176
     1
173
     0
176
     1
  0
VISUALSTYLE
  5
37
102
{ACAD_REACTORS
330
2A
102
}
102
{ACAD_XDICTIONARY
360
489
102
}
330
2A
100
AcDbVisualStyle
  2
Thicken
 70
    13
177
     2
291
     1
 71
     2
176
     1
 72
     2
176
     1
 73
     0
176
     1
 90
        0
176
     1
 40
0.6
176
     1
 41
30.0
176
     1
 62
     5
 63
     7
421
 16777215
176
     1
 74
     1
176
     1
 91
        4
176
     1
 64
     7
176
     1
 65
   257
176
     1
 75
     1
176
     1
175
     1
176
     1
 42
1.0
176
     1
 92
       12
176
     1
 66
     7
176
     1
 43
1.0
176
     1
 76
     1
176
     1
 77
     6
176
     1
 78
     2
176
     1
 67
     7
176
     1
 79
     5
176
     1
170
     0
176
     1
171
     0
176
     1
290
     0
176
     1
 93
        1
176
     1
 44
0.0
176
     1
173
     0
176
     1
  0
VISUALSTYLE
  5
30
102
{ACAD_REACTORS
330
2A
102
}
102
{ACAD_XDICTIONARY
360
47B
102
}
330
2A
100
AcDbVisualStyle
  2
Wireframe
 70
     5
177
     2
291
     0
 71
     0
176
     1
 72
     2
176
     1
 73
     0
176
     1
 90
        0
176
     1
 40
0.6
176
     1
 41
30.0
176
     1
 62
     5
 63
     7
421
 16777215
176
     1
 74
     1
176
     1
 91
        4
176
     1
 64
     7
176
     1
 65
   257
176
     1
 75
     1
176
     1
175
     1
176
     1
 42
1.0
176
     1
 92
        0
176
     1
 66
   257
176
     1
 43
1.0
176
     1
 76
     1
176
     1
 77
     6
176
     1
 78
     2
176
     1
 67
     7
176
     1
 79
     3
176
     1
170
     0
176
     1
171
     0
176
     1
290
     0
176
     1
 93
        1
176
     1
 44
0.0
176
     1
173
     0
176
     1
  0
VISUALSTYLE
  5
40
102
{ACAD_REACTORS
330
2A
102
}
102
{ACAD_XDICTIONARY
360
49B
102
}
330
2A
100
AcDbVisualStyle
  2
X-Ray
 70
    25
177
     2
291
     0
 71
     2
176
     1
 72
     2
176
     1
 73
     1
176
     1
 90
        1
176
     1
 40
0.5
176
     1
 41
30.0
176
     1
 62
     5
 63
     7
421
 16777215
176
     1
 74
     1
176
     1
 91
        0
176
     1
 64
     7
176
     1
 65
   257
176
     1
 75
     1
176
     1
175
     1
176
     1
 42
1.0
176
     1
 92
        8
176
     1
 66
     7
176
     1
 43
1.0
176
     1
 76
     1
176
     1
 77
     6
176
     1
 78
     2
176
     1
 67
     7
176
     1
 79
     3
176
     1
170
     0
176
     1
171
     0
176
     1
290
     0
176
     1
 93
       13
176
     1
 44
0.0
176
     1
173
     0
176
     1
  0
DICTIONARYVAR
  5
470
102
{ACAD_REACTORS
330
46F
102
}
330
46F
100
DictionaryVariables
280
     0
  1
1:1
  0
DICTIONARYVAR
  5
4A5
102
{ACAD_REACTORS
330
46F
102
}
330
46F
100
DictionaryVariables
280
     0
  1
Standard
  0
DICTIONARYVAR
  5
4A4
102
{ACAD_REACTORS
330
46F
102
}
330
46F
100
DictionaryVariables
280
     0
  1
Standard
  0
DICTIONARY
  5
4A1
330
6A
100
AcDbDictionary
280
     1
281
     1
  3
ACAD_ROUNDTRIP_2008_TABLESTYLE_CELLSTYLEMAP
360
4A2
  0
DICTIONARY
  5
479
330
2F
100
AcDbDictionary
280
     1
281
     1
  3
ACAD_XREC_ROUNDTRIP
360
47A
  0
DICTIONARY
  5
47F
330
32
100
AcDbDictionary
280
     1
281
     1
  3
ACAD_XREC_ROUNDTRIP
360
480
  0
DICTIONARY
  5
487
330
36
100
AcDbDictionary
280
     1
281
     1
  3
ACAD_XREC_ROUNDTRIP
360
488
  0
DICTIONARY
  5
48F
330
3A
100
AcDbDictionary
280
     1
281
     1
  3
ACAD_XREC_ROUNDTRIP
360
490
  0
DICTIONARY
  5
483
330
34
100
AcDbDictionary
280
     1
281
     1
  3
ACAD_XREC_ROUNDTRIP
360
484
  0
DICTIONARY
  5
485
330
35
100
AcDbDictionary
280
     1
281
     1
  3
ACAD_XREC_ROUNDTRIP
360
486
  0
DICTIONARY
  5
495
330
3D
100
AcDbDictionary
280
     1
281
     1
  3
ACAD_XREC_ROUNDTRIP
360
496
  0
DICTIONARY
  5
48D
330
39
100
AcDbDictionary
280
     1
281
     1
  3
ACAD_XREC_ROUNDTRIP
360
48E
  0
DICTIONARY
  5
471
330
2B
100
AcDbDictionary
280
     1
281
     1
  3
ACAD_XREC_ROUNDTRIP
360
472
  0
DICTIONARY
  5
473
330
2C
100
AcDbDictionary
280
     1
281
     1
  3
ACAD_XREC_ROUNDTRIP
360
474
  0
DICTIONARY
  5
475
330
2D
100
AcDbDictionary
280
     1
281
     1
  3
ACAD_XREC_ROUNDTRIP
360
476
  0
DICTIONARY
  5
477
330
2E
100
AcDbDictionary
280
     1
281
     1
  3
ACAD_XREC_ROUNDTRIP
360
478
  0
DICTIONARY
  5
47D
330
31
100
AcDbDictionary
280
     1
281
     1
  3
ACAD_XREC_ROUNDTRIP
360
47E
  0
DICTIONARY
  5
491
330
3B
100
AcDbDictionary
280
     1
281
     1
  3
ACAD_XREC_ROUNDTRIP
360
492
  0
DICTIONARY
  5
48B
330
38
100
AcDbDictionary
280
     1
281
     1
  3
ACAD_XREC_ROUNDTRIP
360
48C
  0
DICTIONARY
  5
493
330
3C
100
AcDbDictionary
280
     1
281
     1
  3
ACAD_XREC_ROUNDTRIP
360
494
  0
DICTIONARY
  5
481
330
33
100
AcDbDictionary
280
     1
281
     1
  3
ACAD_XREC_ROUNDTRIP
360
482
  0
DICTIONARY
  5
49F
330
42
100
AcDbDictionary
280
     1
281
     1
  3
ACAD_XREC_ROUNDTRIP
360
4A0
  0
DICTIONARY
  5
49D
330
41
100
AcDbDictionary
280
     1
281
     1
  3
ACAD_XREC_ROUNDTRIP
360
49E
  0
DICTIONARY
  5
497
330
3E
100
AcDbDictionary
280
     1
281
     1
  3
ACAD_XREC_ROUNDTRIP
360
498
  0
DICTIONARY
  5
499
330
3F
100
AcDbDictionary
280
     1
281
     1
  3
ACAD_XREC_ROUNDTRIP
360
49A
  0
DICTIONARY
  5
489
330
37
100
AcDbDictionary
280
     1
281
     1
  3
ACAD_XREC_ROUNDTRIP
360
48A
  0
DICTIONARY
  5
47B
330
30
100
AcDbDictionary
280
     1
281
     1
  3
ACAD_XREC_ROUNDTRIP
360
47C
  0
DICTIONARY
  5
49B
330
40
100
AcDbDictionary
280
     1
281
     1
  3
ACAD_XREC_ROUNDTRIP
360
49C
  0
CELLSTYLEMAP
  5
4A2
102
{ACAD_REACTORS
330
4A1
102
}
330
4A1
100
AcDbCellStyleMap
 90
        3
300
CELLSTYLE
  1
TABLEFORMAT_BEGIN
 90
        5
170
     1
 91
        0
 92
    32768
 62
   257
 93
        1
300
CONTENTFORMAT
  1
CONTENTFORMAT_BEGIN
 90
        0
 91
        0
 92
        4
 93
        0
300

 40
0.0
140
1.0
 94
        5
 62
     0
340
11
144
6.0
309
CONTENTFORMAT_END
171
     1
301
MARGIN
  1
CELLMARGIN_BEGIN
 40
1.5
 40
1.5
 40
1.5
 40
1.5
 40
1.5
 40
1.5
309
CELLMARGIN_END
 94
        6
 95
        1
302
GRIDFORMAT
  1
GRIDFORMAT_BEGIN
 90
        0
 91
        1
 62
     0
 92
       -2
340
14
 93
        0
 40
0.045
309
GRIDFORMAT_END
 95
        2
302
GRIDFORMAT
  1
GRIDFORMAT_BEGIN
 90
        0
 91
        1
 62
     0
 92
       -2
340
14
 93
        0
 40
0.045
309
GRIDFORMAT_END
 95
        4
302
GRIDFORMAT
  1
GRIDFORMAT_BEGIN
 90
        0
 91
        1
 62
     0
 92
       -2
340
14
 93
        0
 40
0.045
309
GRIDFORMAT_END
 95
        8
302
GRIDFORMAT
  1
GRIDFORMAT_BEGIN
 90
        0
 91
        1
 62
     0
 92
       -2
340
14
 93
        0
 40
0.045
309
GRIDFORMAT_END
 95
       16
302
GRIDFORMAT
  1
GRIDFORMAT_BEGIN
 90
        0
 91
        1
 62
     0
 92
       -2
340
14
 93
        0
 40
0.045
309
GRIDFORMAT_END
 95
       32
302
GRIDFORMAT
  1
GRIDFORMAT_BEGIN
 90
        0
 91
        1
 62
     0
 92
       -2
340
14
 93
        0
 40
0.045
309
GRIDFORMAT_END
309
TABLEFORMAT_END
  1
CELLSTYLE_BEGIN
 90
        1
 91
        1
300
_TITLE
309
CELLSTYLE_END
300
CELLSTYLE
  1
TABLEFORMAT_BEGIN
 90
        5
170
     1
 91
        0
 92
        0
 62
   257
 93
        1
300
CONTENTFORMAT
  1
CONTENTFORMAT_BEGIN
 90
        0
 91
        0
 92
        4
 93
        0
300

 40
0.0
140
1.0
 94
        5
 62
     0
340
11
144
4.5
309
CONTENTFORMAT_END
171
     1
301
MARGIN
  1
CELLMARGIN_BEGIN
 40
1.5
 40
1.5
 40
1.5
 40
1.5
 40
1.5
 40
1.5
309
CELLMARGIN_END
 94
        6
 95
        1
302
GRIDFORMAT
  1
GRIDFORMAT_BEGIN
 90
        0
 91
        1
 62
     0
 92
       -2
340
14
 93
        0
 40
0.045
309
GRIDFORMAT_END
 95
        2
302
GRIDFORMAT
  1
GRIDFORMAT_BEGIN
 90
        0
 91
        1
 62
     0
 92
       -2
340
14
 93
        0
 40
0.045
309
GRIDFORMAT_END
 95
        4
302
GRIDFORMAT
  1
GRIDFORMAT_BEGIN
 90
        0
 91
        1
 62
     0
 92
       -2
340
14
 93
        0
 40
0.045
309
GRIDFORMAT_END
 95
        8
302
GRIDFORMAT
  1
GRIDFORMAT_BEGIN
 90
        0
 91
        1
 62
     0
 92
       -2
340
14
 93
        0
 40
0.045
309
GRIDFORMAT_END
 95
       16
302
GRIDFORMAT
  1
GRIDFORMAT_BEGIN
 90
        0
 91
        1
 62
     0
 92
       -2
340
14
 93
        0
 40
0.045
309
GRIDFORMAT_END
 95
       32
302
GRIDFORMAT
  1
GRIDFORMAT_BEGIN
 90
        0
 91
        1
 62
     0
 92
       -2
340
14
 93
        0
 40
0.045
309
GRIDFORMAT_END
309
TABLEFORMAT_END
  1
CELLSTYLE_BEGIN
 90
        2
 91
        1
300
_HEADER
309
CELLSTYLE_END
300
CELLSTYLE
  1
TABLEFORMAT_BEGIN
 90
        5
170
     1
 91
        0
 92
        0
 62
   257
 93
        1
300
CONTENTFORMAT
  1
CONTENTFORMAT_BEGIN
 90
        0
 91
        0
 92
        4
 93
        0
300

 40
0.0
140
1.0
 94
        2
 62
     0
340
11
144
4.5
309
CONTENTFORMAT_END
171
     1
301
MARGIN
  1
CELLMARGIN_BEGIN
 40
1.5
 40
1.5
 40
1.5
 40
1.5
 40
1.5
 40
1.5
309
CELLMARGIN_END
 94
        6
 95
        1
302
GRIDFORMAT
  1
GRIDFORMAT_BEGIN
 90
        0
 91
        1
 62
     0
 92
       -2
340
14
 93
        0
 40
0.045
309
GRIDFORMAT_END
 95
        2
302
GRIDFORMAT
  1
GRIDFORMAT_BEGIN
 90
        0
 91
        1
 62
     0
 92
       -2
340
14
 93
        0
 40
0.045
309
GRIDFORMAT_END
 95
        4
302
GRIDFORMAT
  1
GRIDFORMAT_BEGIN
 90
        0
 91
        1
 62
     0
 92
       -2
340
14
 93
        0
 40
0.045
309
GRIDFORMAT_END
 95
        8
302
GRIDFORMAT
  1
GRIDFORMAT_BEGIN
 90
        0
 91
        1
 62
     0
 92
       -2
340
14
 93
        0
 40
0.045
309
GRIDFORMAT_END
 95
       16
302
GRIDFORMAT
  1
GRIDFORMAT_BEGIN
 90
        0
 91
        1
 62
     0
 92
       -2
340
14
 93
        0
 40
0.045
309
GRIDFORMAT_END
 95
       32
302
GRIDFORMAT
  1
GRIDFORMAT_BEGIN
 90
        0
 91
        1
 62
     0
 92
       -2
340
14
 93
        0
 40
0.045
309
GRIDFORMAT_END
309
TABLEFORMAT_END
  1
CELLSTYLE_BEGIN
 90
        3
 91
        2
300
_DATA
309
CELLSTYLE_END
  0
XRECORD
  5
47A
102
{ACAD_REACTORS
330
479
102
}
330
479
100
AcDbXrecord
280
     1
102
RTVSPost2010Prop28
280
     1
102
RTVSPost2010PropOp28
 70
     1
102
RTVSPost2010Prop29
280
     1
102
RTVSPost2010PropOp29
 70
     1
102
RTVSPost2010Prop30
280
     0
102
RTVSPost2010PropOp30
 70
     1
102
RTVSPost2010Prop31
280
     0
102
RTVSPost2010PropOp31
 70
     1
102
RTVSPost2010Prop32
280
     0
102
RTVSPost2010PropOp32
 70
     1
102
RTVSPost2010Prop33
280
     0
102
RTVSPost2010PropOp33
 70
     1
102
RTVSPost2010Prop34
280
     0
102
RTVSPost2010PropOp34
 70
     1
102
RTVSPost2010Prop35
280
     0
102
RTVSPost2010PropOp35
 70
     1
102
RTVSPost2010Prop36
280
     0
102
RTVSPost2010PropOp36
 70
     1
102
RTVSPost2010Prop37
 90
       50
102
RTVSPost2010PropOp37
 70
     1
102
RTVSPost2010Prop38
140
0.0
102
RTVSPost2010PropOp38
 70
     1
102
RTVSPost2010Prop39
140
1.0
102
RTVSPost2010PropOp39
 70
     1
102
RTVSPost2010Prop40
 90
        0
102
RTVSPost2010PropOp40
 70
     1
102
RTVSPost2010Prop41ColorIndex
 90
       18
102
RTVSPost2010Prop41ColorRGB
 90
        0
102
RTVSPost2010PropOp41
 70
     1
102
RTVSPost2010Prop42
 90
       50
102
RTVSPost2010PropOp42
 70
     1
102
RTVSPost2010Prop43
 90
        3
102
RTVSPost2010PropOp43
 70
     1
102
RTVSPost2010Prop44ColorIndex
 90
        5
102
RTVSPost2010Prop44ColorRGB
 90
      255
102
RTVSPost2010PropOp44
 70
     1
102
RTVSPost2010Prop45
280
     0
102
RTVSPost2010PropOp45
 70
     1
102
RTVSPost2010Prop46
 90
       50
102
RTVSPost2010PropOp46
 70
     1
102
RTVSPost2010Prop47
 90
       50
102
RTVSPost2010PropOp47
 70
     1
102
RTVSPost2010Prop48
 90
       50
102
RTVSPost2010PropOp48
 70
     1
102
RTVSPost2010Prop49
280
     0
102
RTVSPost2010PropOp49
 70
     1
102
RTVSPost2010Prop50
 90
       50
102
RTVSPost2010PropOp50
 70
     1
102
RTVSPost2010Prop51ColorIndex
 90
      256
102
RTVSPost2010Prop51ColorRGB
 90
-16777216
102
RTVSPost2010PropOp51
 70
     0
102
RTVSPost2010Prop52
140
1.0
102
RTVSPost2010PropOp52
 70
     0
102
RTVSPost2010Prop53
 90
        2
102
RTVSPost2010PropOp53
 70
     1
102
RTVSPost2010Prop54
  1
strokes_ogs.tif
102
RTVSPost2010PropOp54
 70
     1
102
RTVSPost2010Prop55
280
     0
102
RTVSPost2010PropOp55
 70
     1
102
RTVSPost2010Prop56
140
1.0
102
RTVSPost2010PropOp56
 70
     1
102
RTVSPost2010Prop57
140
1.0
102
RTVSPost2010PropOp57
 70
     1
  0
XRECORD
  5
480
102
{ACAD_REACTORS
330
47F
102
}
330
47F
100
AcDbXrecord
280
     1
102
RTVSPost2010Prop28
280
     0
102
RTVSPost2010PropOp28
 70
     1
102
RTVSPost2010Prop29
280
     1
102
RTVSPost2010PropOp29
 70
     1
102
RTVSPost2010Prop30
280
     1
102
RTVSPost2010PropOp30
 70
     1
102
RTVSPost2010Prop31
280
     0
102
RTVSPost2010PropOp31
 70
     1
102
RTVSPost2010Prop32
280
     0
102
RTVSPost2010PropOp32
 70
     1
102
RTVSPost2010Prop33
280
     0
102
RTVSPost2010PropOp33
 70
     1
102
RTVSPost2010Prop34
280
     0
102
RTVSPost2010PropOp34
 70
     1
102
RTVSPost2010Prop35
280
     0
102
RTVSPost2010PropOp35
 70
     1
102
RTVSPost2010Prop36
280
     0
102
RTVSPost2010PropOp36
 70
     1
102
RTVSPost2010Prop37
 90
       50
102
RTVSPost2010PropOp37
 70
     1
102
RTVSPost2010Prop38
140
0.0
102
RTVSPost2010PropOp38
 70
     1
102
RTVSPost2010Prop39
140
1.0
102
RTVSPost2010PropOp39
 70
     1
102
RTVSPost2010Prop40
 90
        0
102
RTVSPost2010PropOp40
 70
     1
102
RTVSPost2010Prop41ColorIndex
 90
       18
102
RTVSPost2010Prop41ColorRGB
 90
        0
102
RTVSPost2010PropOp41
 70
     1
102
RTVSPost2010Prop42
 90
       50
102
RTVSPost2010PropOp42
 70
     1
102
RTVSPost2010Prop43
 90
        3
102
RTVSPost2010PropOp43
 70
     1
102
RTVSPost2010Prop44ColorIndex
 90
        5
102
RTVSPost2010Prop44ColorRGB
 90
      255
102
RTVSPost2010PropOp44
 70
     1
102
RTVSPost2010Prop45
280
     0
102
RTVSPost2010PropOp45
 70
     1
102
RTVSPost2010Prop46
 90
       50
102
RTVSPost2010PropOp46
 70
     1
102
RTVSPost2010Prop47
 90
       50
102
RTVSPost2010PropOp47
 70
     1
102
RTVSPost2010Prop48
 90
       50
102
RTVSPost2010PropOp48
 70
     1
102
RTVSPost2010Prop49
280
     0
102
RTVSPost2010PropOp49
 70
     1
102
RTVSPost2010Prop50
 90
       50
102
RTVSPost2010PropOp50
 70
     1
102
RTVSPost2010Prop51ColorIndex
 90
      256
102
RTVSPost2010Prop51ColorRGB
 90
-16777216
102
RTVSPost2010PropOp51
 70
     0
102
RTVSPost2010Prop52
140
1.0
102
RTVSPost2010PropOp52
 70
     0
102
RTVSPost2010Prop53
 90
        2
102
RTVSPost2010PropOp53
 70
     1
102
RTVSPost2010Prop54
  1
strokes_ogs.tif
102
RTVSPost2010PropOp54
 70
     1
102
RTVSPost2010Prop55
280
     0
102
RTVSPost2010PropOp55
 70
     1
102
RTVSPost2010Prop56
140
1.0
102
RTVSPost2010PropOp56
 70
     1
102
RTVSPost2010Prop57
140
1.0
102
RTVSPost2010PropOp57
 70
     1
  0
XRECORD
  5
488
102
{ACAD_REACTORS
330
487
102
}
330
487
100
AcDbXrecord
280
     1
102
RTVSPost2010Prop28
280
     0
102
RTVSPost2010PropOp28
 70
     1
102
RTVSPost2010Prop29
280
     1
102
RTVSPost2010PropOp29
 70
     1
102
RTVSPost2010Prop30
280
     1
102
RTVSPost2010PropOp30
 70
     1
102
RTVSPost2010Prop31
280
     0
102
RTVSPost2010PropOp31
 70
     1
102
RTVSPost2010Prop32
280
     0
102
RTVSPost2010PropOp32
 70
     1
102
RTVSPost2010Prop33
280
     0
102
RTVSPost2010PropOp33
 70
     1
102
RTVSPost2010Prop34
280
     0
102
RTVSPost2010PropOp34
 70
     1
102
RTVSPost2010Prop35
280
     0
102
RTVSPost2010PropOp35
 70
     1
102
RTVSPost2010Prop36
280
     0
102
RTVSPost2010PropOp36
 70
     1
102
RTVSPost2010Prop37
 90
       50
102
RTVSPost2010PropOp37
 70
     1
102
RTVSPost2010Prop38
140
0.0
102
RTVSPost2010PropOp38
 70
     1
102
RTVSPost2010Prop39
140
1.0
102
RTVSPost2010PropOp39
 70
     1
102
RTVSPost2010Prop40
 90
        0
102
RTVSPost2010PropOp40
 70
     1
102
RTVSPost2010Prop41ColorIndex
 90
       18
102
RTVSPost2010Prop41ColorRGB
 90
        0
102
RTVSPost2010PropOp41
 70
     1
102
RTVSPost2010Prop42
 90
       50
102
RTVSPost2010PropOp42
 70
     1
102
RTVSPost2010Prop43
 90
        3
102
RTVSPost2010PropOp43
 70
     1
102
RTVSPost2010Prop44ColorIndex
 90
        5
102
RTVSPost2010Prop44ColorRGB
 90
      255
102
RTVSPost2010PropOp44
 70
     1
102
RTVSPost2010Prop45
280
     0
102
RTVSPost2010PropOp45
 70
     1
102
RTVSPost2010Prop46
 90
       50
102
RTVSPost2010PropOp46
 70
     1
102
RTVSPost2010Prop47
 90
       50
102
RTVSPost2010PropOp47
 70
     1
102
RTVSPost2010Prop48
 90
       50
102
RTVSPost2010PropOp48
 70
     1
102
RTVSPost2010Prop49
280
     0
102
RTVSPost2010PropOp49
 70
     1
102
RTVSPost2010Prop50
 90
       50
102
RTVSPost2010PropOp50
 70
     1
102
RTVSPost2010Prop51ColorIndex
 90
      256
102
RTVSPost2010Prop51ColorRGB
 90
-16777216
102
RTVSPost2010PropOp51
 70
     0
102
RTVSPost2010Prop52
140
1.0
102
RTVSPost2010PropOp52
 70
     0
102
RTVSPost2010Prop53
 90
        2
102
RTVSPost2010PropOp53
 70
     1
102
RTVSPost2010Prop54
  1
strokes_ogs.tif
102
RTVSPost2010PropOp54
 70
     1
102
RTVSPost2010Prop55
280
     0
102
RTVSPost2010PropOp55
 70
     1
102
RTVSPost2010Prop56
140
1.0
102
RTVSPost2010PropOp56
 70
     1
102
RTVSPost2010Prop57
140
1.0
102
RTVSPost2010PropOp57
 70
     1
  0
XRECORD
  5
490
102
{ACAD_REACTORS
330
48F
102
}
330
48F
100
AcDbXrecord
280
     1
102
RTVSPost2010Prop28
280
     0
102
RTVSPost2010PropOp28
 70
     1
102
RTVSPost2010Prop29
280
     1
102
RTVSPost2010PropOp29
 70
     1
102
RTVSPost2010Prop30
280
     1
102
RTVSPost2010PropOp30
 70
     1
102
RTVSPost2010Prop31
280
     0
102
RTVSPost2010PropOp31
 70
     1
102
RTVSPost2010Prop32
280
     0
102
RTVSPost2010PropOp32
 70
     1
102
RTVSPost2010Prop33
280
     0
102
RTVSPost2010PropOp33
 70
     1
102
RTVSPost2010Prop34
280
     0
102
RTVSPost2010PropOp34
 70
     1
102
RTVSPost2010Prop35
280
     0
102
RTVSPost2010PropOp35
 70
     1
102
RTVSPost2010Prop36
280
     0
102
RTVSPost2010PropOp36
 70
     1
102
RTVSPost2010Prop37
 90
       50
102
RTVSPost2010PropOp37
 70
     1
102
RTVSPost2010Prop38
140
0.0
102
RTVSPost2010PropOp38
 70
     1
102
RTVSPost2010Prop39
140
1.0
102
RTVSPost2010PropOp39
 70
     1
102
RTVSPost2010Prop40
 90
        0
102
RTVSPost2010PropOp40
 70
     1
102
RTVSPost2010Prop41ColorIndex
 90
       18
102
RTVSPost2010Prop41ColorRGB
 90
        0
102
RTVSPost2010PropOp41
 70
     1
102
RTVSPost2010Prop42
 90
       50
102
RTVSPost2010PropOp42
 70
     1
102
RTVSPost2010Prop43
 90
        3
102
RTVSPost2010PropOp43
 70
     1
102
RTVSPost2010Prop44ColorIndex
 90
        5
102
RTVSPost2010Prop44ColorRGB
 90
      255
102
RTVSPost2010PropOp44
 70
     1
102
RTVSPost2010Prop45
280
     0
102
RTVSPost2010PropOp45
 70
     1
102
RTVSPost2010Prop46
 90
       50
102
RTVSPost2010PropOp46
 70
     1
102
RTVSPost2010Prop47
 90
       50
102
RTVSPost2010PropOp47
 70
     1
102
RTVSPost2010Prop48
 90
       50
102
RTVSPost2010PropOp48
 70
     1
102
RTVSPost2010Prop49
280
     0
102
RTVSPost2010PropOp49
 70
     1
102
RTVSPost2010Prop50
 90
       50
102
RTVSPost2010PropOp50
 70
     1
102
RTVSPost2010Prop51ColorIndex
 90
      256
102
RTVSPost2010Prop51ColorRGB
 90
-16777216
102
RTVSPost2010PropOp51
 70
     0
102
RTVSPost2010Prop52
140
1.0
102
RTVSPost2010PropOp52
 70
     0
102
RTVSPost2010Prop53
 90
        2
102
RTVSPost2010PropOp53
 70
     1
102
RTVSPost2010Prop54
  1
strokes_ogs.tif
102
RTVSPost2010PropOp54
 70
     1
102
RTVSPost2010Prop55
280
     0
102
RTVSPost2010PropOp55
 70
     1
102
RTVSPost2010Prop56
140
1.0
102
RTVSPost2010PropOp56
 70
     1
102
RTVSPost2010Prop57
140
1.0
102
RTVSPost2010PropOp57
 70
     1
  0
XRECORD
  5
484
102
{ACAD_REACTORS
330
483
102
}
330
483
100
AcDbXrecord
280
     1
102
RTVSPost2010Prop28
280
     0
102
RTVSPost2010PropOp28
 70
     1
102
RTVSPost2010Prop29
280
     1
102
RTVSPost2010PropOp29
 70
     1
102
RTVSPost2010Prop30
280
     1
102
RTVSPost2010PropOp30
 70
     1
102
RTVSPost2010Prop31
280
     0
102
RTVSPost2010PropOp31
 70
     1
102
RTVSPost2010Prop32
280
     0
102
RTVSPost2010PropOp32
 70
     1
102
RTVSPost2010Prop33
280
     0
102
RTVSPost2010PropOp33
 70
     1
102
RTVSPost2010Prop34
280
     0
102
RTVSPost2010PropOp34
 70
     1
102
RTVSPost2010Prop35
280
     0
102
RTVSPost2010PropOp35
 70
     1
102
RTVSPost2010Prop36
280
     0
102
RTVSPost2010PropOp36
 70
     1
102
RTVSPost2010Prop37
 90
       50
102
RTVSPost2010PropOp37
 70
     1
102
RTVSPost2010Prop38
140
0.0
102
RTVSPost2010PropOp38
 70
     1
102
RTVSPost2010Prop39
140
1.0
102
RTVSPost2010PropOp39
 70
     1
102
RTVSPost2010Prop40
 90
        0
102
RTVSPost2010PropOp40
 70
     1
102
RTVSPost2010Prop41ColorIndex
 90
       18
102
RTVSPost2010Prop41ColorRGB
 90
        0
102
RTVSPost2010PropOp41
 70
     1
102
RTVSPost2010Prop42
 90
       50
102
RTVSPost2010PropOp42
 70
     1
102
RTVSPost2010Prop43
 90
        3
102
RTVSPost2010PropOp43
 70
     1
102
RTVSPost2010Prop44ColorIndex
 90
        5
102
RTVSPost2010Prop44ColorRGB
 90
      255
102
RTVSPost2010PropOp44
 70
     1
102
RTVSPost2010Prop45
280
     0
102
RTVSPost2010PropOp45
 70
     1
102
RTVSPost2010Prop46
 90
       50
102
RTVSPost2010PropOp46
 70
     1
102
RTVSPost2010Prop47
 90
       50
102
RTVSPost2010PropOp47
 70
     1
102
RTVSPost2010Prop48
 90
       50
102
RTVSPost2010PropOp48
 70
     1
102
RTVSPost2010Prop49
280
     0
102
RTVSPost2010PropOp49
 70
     1
102
RTVSPost2010Prop50
 90
       50
102
RTVSPost2010PropOp50
 70
     1
102
RTVSPost2010Prop51ColorIndex
 90
      256
102
RTVSPost2010Prop51ColorRGB
 90
-16777216
102
RTVSPost2010PropOp51
 70
     0
102
RTVSPost2010Prop52
140
1.0
102
RTVSPost2010PropOp52
 70
     0
102
RTVSPost2010Prop53
 90
        2
102
RTVSPost2010PropOp53
 70
     1
102
RTVSPost2010Prop54
  1
strokes_ogs.tif
102
RTVSPost2010PropOp54
 70
     1
102
RTVSPost2010Prop55
280
     0
102
RTVSPost2010PropOp55
 70
     1
102
RTVSPost2010Prop56
140
1.0
102
RTVSPost2010PropOp56
 70
     1
102
RTVSPost2010Prop57
140
1.0
102
RTVSPost2010PropOp57
 70
     1
  0
XRECORD
  5
486
102
{ACAD_REACTORS
330
485
102
}
330
485
100
AcDbXrecord
280
     1
102
RTVSPost2010Prop28
280
     0
102
RTVSPost2010PropOp28
 70
     1
102
RTVSPost2010Prop29
280
     1
102
RTVSPost2010PropOp29
 70
     1
102
RTVSPost2010Prop30
280
     1
102
RTVSPost2010PropOp30
 70
     1
102
RTVSPost2010Prop31
280
     0
102
RTVSPost2010PropOp31
 70
     1
102
RTVSPost2010Prop32
280
     0
102
RTVSPost2010PropOp32
 70
     1
102
RTVSPost2010Prop33
280
     0
102
RTVSPost2010PropOp33
 70
     1
102
RTVSPost2010Prop34
280
     0
102
RTVSPost2010PropOp34
 70
     1
102
RTVSPost2010Prop35
280
     0
102
RTVSPost2010PropOp35
 70
     1
102
RTVSPost2010Prop36
280
     0
102
RTVSPost2010PropOp36
 70
     1
102
RTVSPost2010Prop37
 90
       50
102
RTVSPost2010PropOp37
 70
     1
102
RTVSPost2010Prop38
140
0.0
102
RTVSPost2010PropOp38
 70
     1
102
RTVSPost2010Prop39
140
1.0
102
RTVSPost2010PropOp39
 70
     1
102
RTVSPost2010Prop40
 90
        0
102
RTVSPost2010PropOp40
 70
     1
102
RTVSPost2010Prop41ColorIndex
 90
       18
102
RTVSPost2010Prop41ColorRGB
 90
        0
102
RTVSPost2010PropOp41
 70
     1
102
RTVSPost2010Prop42
 90
       50
102
RTVSPost2010PropOp42
 70
     1
102
RTVSPost2010Prop43
 90
        3
102
RTVSPost2010PropOp43
 70
     1
102
RTVSPost2010Prop44ColorIndex
 90
        5
102
RTVSPost2010Prop44ColorRGB
 90
      255
102
RTVSPost2010PropOp44
 70
     1
102
RTVSPost2010Prop45
280
     0
102
RTVSPost2010PropOp45
 70
     1
102
RTVSPost2010Prop46
 90
       50
102
RTVSPost2010PropOp46
 70
     1
102
RTVSPost2010Prop47
 90
       50
102
RTVSPost2010PropOp47
 70
     1
102
RTVSPost2010Prop48
 90
       50
102
RTVSPost2010PropOp48
 70
     1
102
RTVSPost2010Prop49
280
     0
102
RTVSPost2010PropOp49
 70
     1
102
RTVSPost2010Prop50
 90
       50
102
RTVSPost2010PropOp50
 70
     1
102
RTVSPost2010Prop51ColorIndex
 90
      256
102
RTVSPost2010Prop51ColorRGB
 90
-16777216
102
RTVSPost2010PropOp51
 70
     0
102
RTVSPost2010Prop52
140
1.0
102
RTVSPost2010PropOp52
 70
     0
102
RTVSPost2010Prop53
 90
        2
102
RTVSPost2010PropOp53
 70
     1
102
RTVSPost2010Prop54
  1
strokes_ogs.tif
102
RTVSPost2010PropOp54
 70
     1
102
RTVSPost2010Prop55
280
     0
102
RTVSPost2010PropOp55
 70
     1
102
RTVSPost2010Prop56
140
1.0
102
RTVSPost2010PropOp56
 70
     1
102
RTVSPost2010Prop57
140
1.0
102
RTVSPost2010PropOp57
 70
     1
  0
XRECORD
  5
496
102
{ACAD_REACTORS
330
495
102
}
330
495
100
AcDbXrecord
280
     1
102
RTVSPost2010Prop28
280
     0
102
RTVSPost2010PropOp28
 70
     0
102
RTVSPost2010Prop29
280
     1
102
RTVSPost2010PropOp29
 70
     0
102
RTVSPost2010Prop30
280
     1
102
RTVSPost2010PropOp30
 70
     0
102
RTVSPost2010Prop31
280
     0
102
RTVSPost2010PropOp31
 70
     0
102
RTVSPost2010Prop32
280
     0
102
RTVSPost2010PropOp32
 70
     0
102
RTVSPost2010Prop33
280
     0
102
RTVSPost2010PropOp33
 70
     0
102
RTVSPost2010Prop34
280
     0
102
RTVSPost2010PropOp34
 70
     0
102
RTVSPost2010Prop35
280
     0
102
RTVSPost2010PropOp35
 70
     0
102
RTVSPost2010Prop36
280
     0
102
RTVSPost2010PropOp36
 70
     0
102
RTVSPost2010Prop37
 90
       50
102
RTVSPost2010PropOp37
 70
     0
102
RTVSPost2010Prop38
140
0.0
102
RTVSPost2010PropOp38
 70
     0
102
RTVSPost2010Prop39
140
1.0
102
RTVSPost2010PropOp39
 70
     0
102
RTVSPost2010Prop40
 90
        0
102
RTVSPost2010PropOp40
 70
     0
102
RTVSPost2010Prop41ColorIndex
 90
       18
102
RTVSPost2010Prop41ColorRGB
 90
        0
102
RTVSPost2010PropOp41
 70
     0
102
RTVSPost2010Prop42
 90
       50
102
RTVSPost2010PropOp42
 70
     0
102
RTVSPost2010Prop43
 90
        3
102
RTVSPost2010PropOp43
 70
     0
102
RTVSPost2010Prop44ColorIndex
 90
        5
102
RTVSPost2010Prop44ColorRGB
 90
      255
102
RTVSPost2010PropOp44
 70
     0
102
RTVSPost2010Prop45
280
     0
102
RTVSPost2010PropOp45
 70
     0
102
RTVSPost2010Prop46
 90
       50
102
RTVSPost2010PropOp46
 70
     0
102
RTVSPost2010Prop47
 90
       50
102
RTVSPost2010PropOp47
 70
     0
102
RTVSPost2010Prop48
 90
       50
102
RTVSPost2010PropOp48
 70
     0
102
RTVSPost2010Prop49
280
     0
102
RTVSPost2010PropOp49
 70
     0
102
RTVSPost2010Prop50
 90
       50
102
RTVSPost2010PropOp50
 70
     0
102
RTVSPost2010Prop51ColorIndex
 90
      256
102
RTVSPost2010Prop51ColorRGB
 90
-16777216
102
RTVSPost2010PropOp51
 70
     0
102
RTVSPost2010Prop52
140
1.0
102
RTVSPost2010PropOp52
 70
     0
102
RTVSPost2010Prop53
 90
        2
102
RTVSPost2010PropOp53
 70
     0
102
RTVSPost2010Prop54
  1
strokes_ogs.tif
102
RTVSPost2010PropOp54
 70
     0
102
RTVSPost2010Prop55
280
     0
102
RTVSPost2010PropOp55
 70
     0
102
RTVSPost2010Prop56
140
1.0
102
RTVSPost2010PropOp56
 70
     0
102
RTVSPost2010Prop57
140
1.0
102
RTVSPost2010PropOp57
 70
     0
  0
XRECORD
  5
48E
102
{ACAD_REACTORS
330
48D
102
}
330
48D
100
AcDbXrecord
280
     1
102
RTVSPost2010Prop28
280
     0
102
RTVSPost2010PropOp28
 70
     1
102
RTVSPost2010Prop29
280
     1
102
RTVSPost2010PropOp29
 70
     1
102
RTVSPost2010Prop30
280
     1
102
RTVSPost2010PropOp30
 70
     1
102
RTVSPost2010Prop31
280
     0
102
RTVSPost2010PropOp31
 70
     1
102
RTVSPost2010Prop32
280
     0
102
RTVSPost2010PropOp32
 70
     1
102
RTVSPost2010Prop33
280
     0
102
RTVSPost2010PropOp33
 70
     1
102
RTVSPost2010Prop34
280
     0
102
RTVSPost2010PropOp34
 70
     1
102
RTVSPost2010Prop35
280
     0
102
RTVSPost2010PropOp35
 70
     1
102
RTVSPost2010Prop36
280
     0
102
RTVSPost2010PropOp36
 70
     1
102
RTVSPost2010Prop37
 90
       50
102
RTVSPost2010PropOp37
 70
     1
102
RTVSPost2010Prop38
140
0.0
102
RTVSPost2010PropOp38
 70
     1
102
RTVSPost2010Prop39
140
1.0
102
RTVSPost2010PropOp39
 70
     1
102
RTVSPost2010Prop40
 90
        0
102
RTVSPost2010PropOp40
 70
     1
102
RTVSPost2010Prop41ColorIndex
 90
       18
102
RTVSPost2010Prop41ColorRGB
 90
        0
102
RTVSPost2010PropOp41
 70
     1
102
RTVSPost2010Prop42
 90
       50
102
RTVSPost2010PropOp42
 70
     1
102
RTVSPost2010Prop43
 90
        3
102
RTVSPost2010PropOp43
 70
     1
102
RTVSPost2010Prop44ColorIndex
 90
        5
102
RTVSPost2010Prop44ColorRGB
 90
      255
102
RTVSPost2010PropOp44
 70
     1
102
RTVSPost2010Prop45
280
     0
102
RTVSPost2010PropOp45
 70
     1
102
RTVSPost2010Prop46
 90
       50
102
RTVSPost2010PropOp46
 70
     1
102
RTVSPost2010Prop47
 90
       50
102
RTVSPost2010PropOp47
 70
     1
102
RTVSPost2010Prop48
 90
       50
102
RTVSPost2010PropOp48
 70
     1
102
RTVSPost2010Prop49
280
     0
102
RTVSPost2010PropOp49
 70
     1
102
RTVSPost2010Prop50
 90
       50
102
RTVSPost2010PropOp50
 70
     1
102
RTVSPost2010Prop51ColorIndex
 90
      256
102
RTVSPost2010Prop51ColorRGB
 90
-16777216
102
RTVSPost2010PropOp51
 70
     0
102
RTVSPost2010Prop52
140
1.0
102
RTVSPost2010PropOp52
 70
     0
102
RTVSPost2010Prop53
 90
        2
102
RTVSPost2010PropOp53
 70
     1
102
RTVSPost2010Prop54
  1
strokes_ogs.tif
102
RTVSPost2010PropOp54
 70
     1
102
RTVSPost2010Prop55
280
     0
102
RTVSPost2010PropOp55
 70
     1
102
RTVSPost2010Prop56
140
1.0
102
RTVSPost2010PropOp56
 70
     1
102
RTVSPost2010Prop57
140
1.0
102
RTVSPost2010PropOp57
 70
     1
  0
XRECORD
  5
472
102
{ACAD_REACTORS
330
471
102
}
330
471
100
AcDbXrecord
280
     1
102
RTVSPost2010Prop28
280
     0
102
RTVSPost2010PropOp28
 70
     1
102
RTVSPost2010Prop29
280
     1
102
RTVSPost2010PropOp29
 70
     1
102
RTVSPost2010Prop30
280
     1
102
RTVSPost2010PropOp30
 70
     1
102
RTVSPost2010Prop31
280
     0
102
RTVSPost2010PropOp31
 70
     1
102
RTVSPost2010Prop32
280
     0
102
RTVSPost2010PropOp32
 70
     1
102
RTVSPost2010Prop33
280
     0
102
RTVSPost2010PropOp33
 70
     1
102
RTVSPost2010Prop34
280
     0
102
RTVSPost2010PropOp34
 70
     1
102
RTVSPost2010Prop35
280
     0
102
RTVSPost2010PropOp35
 70
     1
102
RTVSPost2010Prop36
280
     0
102
RTVSPost2010PropOp36
 70
     1
102
RTVSPost2010Prop37
 90
       50
102
RTVSPost2010PropOp37
 70
     1
102
RTVSPost2010Prop38
140
0.0
102
RTVSPost2010PropOp38
 70
     1
102
RTVSPost2010Prop39
140
1.0
102
RTVSPost2010PropOp39
 70
     1
102
RTVSPost2010Prop40
 90
        0
102
RTVSPost2010PropOp40
 70
     1
102
RTVSPost2010Prop41ColorIndex
 90
       18
102
RTVSPost2010Prop41ColorRGB
 90
        0
102
RTVSPost2010PropOp41
 70
     1
102
RTVSPost2010Prop42
 90
       50
102
RTVSPost2010PropOp42
 70
     1
102
RTVSPost2010Prop43
 90
        3
102
RTVSPost2010PropOp43
 70
     1
102
RTVSPost2010Prop44ColorIndex
 90
        5
102
RTVSPost2010Prop44ColorRGB
 90
      255
102
RTVSPost2010PropOp44
 70
     1
102
RTVSPost2010Prop45
280
     0
102
RTVSPost2010PropOp45
 70
     1
102
RTVSPost2010Prop46
 90
       50
102
RTVSPost2010PropOp46
 70
     1
102
RTVSPost2010Prop47
 90
       50
102
RTVSPost2010PropOp47
 70
     1
102
RTVSPost2010Prop48
 90
       50
102
RTVSPost2010PropOp48
 70
     1
102
RTVSPost2010Prop49
280
     0
102
RTVSPost2010PropOp49
 70
     1
102
RTVSPost2010Prop50
 90
       50
102
RTVSPost2010PropOp50
 70
     1
102
RTVSPost2010Prop51ColorIndex
 90
      256
102
RTVSPost2010Prop51ColorRGB
 90
-16777216
102
RTVSPost2010PropOp51
 70
     0
102
RTVSPost2010Prop52
140
1.0
102
RTVSPost2010PropOp52
 70
     0
102
RTVSPost2010Prop53
 90
        2
102
RTVSPost2010PropOp53
 70
     1
102
RTVSPost2010Prop54
  1
strokes_ogs.tif
102
RTVSPost2010PropOp54
 70
     1
102
RTVSPost2010Prop55
280
     0
102
RTVSPost2010PropOp55
 70
     1
102
RTVSPost2010Prop56
140
1.0
102
RTVSPost2010PropOp56
 70
     1
102
RTVSPost2010Prop57
140
1.0
102
RTVSPost2010PropOp57
 70
     1
  0
XRECORD
  5
474
102
{ACAD_REACTORS
330
473
102
}
330
473
100
AcDbXrecord
280
     1
102
RTVSPost2010Prop28
280
     0
102
RTVSPost2010PropOp28
 70
     1
102
RTVSPost2010Prop29
280
     1
102
RTVSPost2010PropOp29
 70
     1
102
RTVSPost2010Prop30
280
     1
102
RTVSPost2010PropOp30
 70
     1
102
RTVSPost2010Prop31
280
     0
102
RTVSPost2010PropOp31
 70
     1
102
RTVSPost2010Prop32
280
     0
102
RTVSPost2010PropOp32
 70
     1
102
RTVSPost2010Prop33
280
     0
102
RTVSPost2010PropOp33
 70
     1
102
RTVSPost2010Prop34
280
     0
102
RTVSPost2010PropOp34
 70
     1
102
RTVSPost2010Prop35
280
     0
102
RTVSPost2010PropOp35
 70
     1
102
RTVSPost2010Prop36
280
     0
102
RTVSPost2010PropOp36
 70
     1
102
RTVSPost2010Prop37
 90
       50
102
RTVSPost2010PropOp37
 70
     1
102
RTVSPost2010Prop38
140
0.0
102
RTVSPost2010PropOp38
 70
     1
102
RTVSPost2010Prop39
140
1.0
102
RTVSPost2010PropOp39
 70
     1
102
RTVSPost2010Prop40
 90
        0
102
RTVSPost2010PropOp40
 70
     1
102
RTVSPost2010Prop41ColorIndex
 90
       18
102
RTVSPost2010Prop41ColorRGB
 90
        0
102
RTVSPost2010PropOp41
 70
     1
102
RTVSPost2010Prop42
 90
       50
102
RTVSPost2010PropOp42
 70
     1
102
RTVSPost2010Prop43
 90
        3
102
RTVSPost2010PropOp43
 70
     1
102
RTVSPost2010Prop44ColorIndex
 90
        5
102
RTVSPost2010Prop44ColorRGB
 90
      255
102
RTVSPost2010PropOp44
 70
     1
102
RTVSPost2010Prop45
280
     0
102
RTVSPost2010PropOp45
 70
     1
102
RTVSPost2010Prop46
 90
       50
102
RTVSPost2010PropOp46
 70
     1
102
RTVSPost2010Prop47
 90
       50
102
RTVSPost2010PropOp47
 70
     1
102
RTVSPost2010Prop48
 90
       50
102
RTVSPost2010PropOp48
 70
     1
102
RTVSPost2010Prop49
280
     0
102
RTVSPost2010PropOp49
 70
     1
102
RTVSPost2010Prop50
 90
       50
102
RTVSPost2010PropOp50
 70
     1
102
RTVSPost2010Prop51ColorIndex
 90
      256
102
RTVSPost2010Prop51ColorRGB
 90
-16777216
102
RTVSPost2010PropOp51
 70
     0
102
RTVSPost2010Prop52
140
1.0
102
RTVSPost2010PropOp52
 70
     0
102
RTVSPost2010Prop53
 90
        2
102
RTVSPost2010PropOp53
 70
     1
102
RTVSPost2010Prop54
  1
strokes_ogs.tif
102
RTVSPost2010PropOp54
 70
     1
102
RTVSPost2010Prop55
280
     0
102
RTVSPost2010PropOp55
 70
     1
102
RTVSPost2010Prop56
140
1.0
102
RTVSPost2010PropOp56
 70
     1
102
RTVSPost2010Prop57
140
1.0
102
RTVSPost2010PropOp57
 70
     1
  0
XRECORD
  5
476
102
{ACAD_REACTORS
330
475
102
}
330
475
100
AcDbXrecord
280
     1
102
RTVSPost2010Prop28
280
     0
102
RTVSPost2010PropOp28
 70
     1
102
RTVSPost2010Prop29
280
     1
102
RTVSPost2010PropOp29
 70
     1
102
RTVSPost2010Prop30
280
     1
102
RTVSPost2010PropOp30
 70
     1
102
RTVSPost2010Prop31
280
     0
102
RTVSPost2010PropOp31
 70
     1
102
RTVSPost2010Prop32
280
     0
102
RTVSPost2010PropOp32
 70
     1
102
RTVSPost2010Prop33
280
     0
102
RTVSPost2010PropOp33
 70
     1
102
RTVSPost2010Prop34
280
     0
102
RTVSPost2010PropOp34
 70
     1
102
RTVSPost2010Prop35
280
     0
102
RTVSPost2010PropOp35
 70
     1
102
RTVSPost2010Prop36
280
     0
102
RTVSPost2010PropOp36
 70
     1
102
RTVSPost2010Prop37
 90
       50
102
RTVSPost2010PropOp37
 70
     1
102
RTVSPost2010Prop38
140
0.0
102
RTVSPost2010PropOp38
 70
     1
102
RTVSPost2010Prop39
140
1.0
102
RTVSPost2010PropOp39
 70
     1
102
RTVSPost2010Prop40
 90
        0
102
RTVSPost2010PropOp40
 70
     1
102
RTVSPost2010Prop41ColorIndex
 90
       18
102
RTVSPost2010Prop41ColorRGB
 90
        0
102
RTVSPost2010PropOp41
 70
     1
102
RTVSPost2010Prop42
 90
       50
102
RTVSPost2010PropOp42
 70
     1
102
RTVSPost2010Prop43
 90
        3
102
RTVSPost2010PropOp43
 70
     1
102
RTVSPost2010Prop44ColorIndex
 90
        5
102
RTVSPost2010Prop44ColorRGB
 90
      255
102
RTVSPost2010PropOp44
 70
     1
102
RTVSPost2010Prop45
280
     0
102
RTVSPost2010PropOp45
 70
     1
102
RTVSPost2010Prop46
 90
       50
102
RTVSPost2010PropOp46
 70
     1
102
RTVSPost2010Prop47
 90
       50
102
RTVSPost2010PropOp47
 70
     1
102
RTVSPost2010Prop48
 90
       50
102
RTVSPost2010PropOp48
 70
     1
102
RTVSPost2010Prop49
280
     0
102
RTVSPost2010PropOp49
 70
     1
102
RTVSPost2010Prop50
 90
       50
102
RTVSPost2010PropOp50
 70
     1
102
RTVSPost2010Prop51ColorIndex
 90
      256
102
RTVSPost2010Prop51ColorRGB
 90
-16777216
102
RTVSPost2010PropOp51
 70
     0
102
RTVSPost2010Prop52
140
1.0
102
RTVSPost2010PropOp52
 70
     0
102
RTVSPost2010Prop53
 90
        2
102
RTVSPost2010PropOp53
 70
     1
102
RTVSPost2010Prop54
  1
strokes_ogs.tif
102
RTVSPost2010PropOp54
 70
     1
102
RTVSPost2010Prop55
280
     0
102
RTVSPost2010PropOp55
 70
     1
102
RTVSPost2010Prop56
140
1.0
102
RTVSPost2010PropOp56
 70
     1
102
RTVSPost2010Prop57
140
1.0
102
RTVSPost2010PropOp57
 70
     1
  0
XRECORD
  5
478
102
{ACAD_REACTORS
330
477
102
}
330
477
100
AcDbXrecord
280
     1
102
RTVSPost2010Prop28
280
     0
102
RTVSPost2010PropOp28
 70
     1
102
RTVSPost2010Prop29
280
     1
102
RTVSPost2010PropOp29
 70
     1
102
RTVSPost2010Prop30
280
     1
102
RTVSPost2010PropOp30
 70
     1
102
RTVSPost2010Prop31
280
     0
102
RTVSPost2010PropOp31
 70
     1
102
RTVSPost2010Prop32
280
     0
102
RTVSPost2010PropOp32
 70
     1
102
RTVSPost2010Prop33
280
     0
102
RTVSPost2010PropOp33
 70
     1
102
RTVSPost2010Prop34
280
     0
102
RTVSPost2010PropOp34
 70
     1
102
RTVSPost2010Prop35
280
     0
102
RTVSPost2010PropOp35
 70
     1
102
RTVSPost2010Prop36
280
     0
102
RTVSPost2010PropOp36
 70
     1
102
RTVSPost2010Prop37
 90
       50
102
RTVSPost2010PropOp37
 70
     1
102
RTVSPost2010Prop38
140
0.0
102
RTVSPost2010PropOp38
 70
     1
102
RTVSPost2010Prop39
140
1.0
102
RTVSPost2010PropOp39
 70
     1
102
RTVSPost2010Prop40
 90
        0
102
RTVSPost2010PropOp40
 70
     1
102
RTVSPost2010Prop41ColorIndex
 90
       18
102
RTVSPost2010Prop41ColorRGB
 90
        0
102
RTVSPost2010PropOp41
 70
     1
102
RTVSPost2010Prop42
 90
       50
102
RTVSPost2010PropOp42
 70
     1
102
RTVSPost2010Prop43
 90
        3
102
RTVSPost2010PropOp43
 70
     1
102
RTVSPost2010Prop44ColorIndex
 90
        5
102
RTVSPost2010Prop44ColorRGB
 90
      255
102
RTVSPost2010PropOp44
 70
     1
102
RTVSPost2010Prop45
280
     0
102
RTVSPost2010PropOp45
 70
     1
102
RTVSPost2010Prop46
 90
       50
102
RTVSPost2010PropOp46
 70
     1
102
RTVSPost2010Prop47
 90
       50
102
RTVSPost2010PropOp47
 70
     1
102
RTVSPost2010Prop48
 90
       50
102
RTVSPost2010PropOp48
 70
     1
102
RTVSPost2010Prop49
280
     0
102
RTVSPost2010PropOp49
 70
     1
102
RTVSPost2010Prop50
 90
       50
102
RTVSPost2010PropOp50
 70
     1
102
RTVSPost2010Prop51ColorIndex
 90
      256
102
RTVSPost2010Prop51ColorRGB
 90
-16777216
102
RTVSPost2010PropOp51
 70
     0
102
RTVSPost2010Prop52
140
1.0
102
RTVSPost2010PropOp52
 70
     0
102
RTVSPost2010Prop53
 90
        2
102
RTVSPost2010PropOp53
 70
     1
102
RTVSPost2010Prop54
  1
strokes_ogs.tif
102
RTVSPost2010PropOp54
 70
     1
102
RTVSPost2010Prop55
280
     0
102
RTVSPost2010PropOp55
 70
     1
102
RTVSPost2010Prop56
140
1.0
102
RTVSPost2010PropOp56
 70
     1
102
RTVSPost2010Prop57
140
1.0
102
RTVSPost2010PropOp57
 70
     1
  0
XRECORD
  5
47E
102
{ACAD_REACTORS
330
47D
102
}
330
47D
100
AcDbXrecord
280
     1
102
RTVSPost2010Prop28
280
     0
102
RTVSPost2010PropOp28
 70
     1
102
RTVSPost2010Prop29
280
     1
102
RTVSPost2010PropOp29
 70
     1
102
RTVSPost2010Prop30
280
     1
102
RTVSPost2010PropOp30
 70
     1
102
RTVSPost2010Prop31
280
     0
102
RTVSPost2010PropOp31
 70
     1
102
RTVSPost2010Prop32
280
     0
102
RTVSPost2010PropOp32
 70
     1
102
RTVSPost2010Prop33
280
     0
102
RTVSPost2010PropOp33
 70
     1
102
RTVSPost2010Prop34
280
     0
102
RTVSPost2010PropOp34
 70
     1
102
RTVSPost2010Prop35
280
     0
102
RTVSPost2010PropOp35
 70
     1
102
RTVSPost2010Prop36
280
     0
102
RTVSPost2010PropOp36
 70
     1
102
RTVSPost2010Prop37
 90
       50
102
RTVSPost2010PropOp37
 70
     1
102
RTVSPost2010Prop38
140
0.0
102
RTVSPost2010PropOp38
 70
     1
102
RTVSPost2010Prop39
140
1.0
102
RTVSPost2010PropOp39
 70
     1
102
RTVSPost2010Prop40
 90
        0
102
RTVSPost2010PropOp40
 70
     1
102
RTVSPost2010Prop41ColorIndex
 90
       18
102
RTVSPost2010Prop41ColorRGB
 90
        0
102
RTVSPost2010PropOp41
 70
     1
102
RTVSPost2010Prop42
 90
       50
102
RTVSPost2010PropOp42
 70
     1
102
RTVSPost2010Prop43
 90
        3
102
RTVSPost2010PropOp43
 70
     1
102
RTVSPost2010Prop44ColorIndex
 90
        5
102
RTVSPost2010Prop44ColorRGB
 90
      255
102
RTVSPost2010PropOp44
 70
     1
102
RTVSPost2010Prop45
280
     0
102
RTVSPost2010PropOp45
 70
     1
102
RTVSPost2010Prop46
 90
       50
102
RTVSPost2010PropOp46
 70
     1
102
RTVSPost2010Prop47
 90
       50
102
RTVSPost2010PropOp47
 70
     1
102
RTVSPost2010Prop48
 90
       50
102
RTVSPost2010PropOp48
 70
     1
102
RTVSPost2010Prop49
280
     0
102
RTVSPost2010PropOp49
 70
     1
102
RTVSPost2010Prop50
 90
       50
102
RTVSPost2010PropOp50
 70
     1
102
RTVSPost2010Prop51ColorIndex
 90
      256
102
RTVSPost2010Prop51ColorRGB
 90
-16777216
102
RTVSPost2010PropOp51
 70
     0
102
RTVSPost2010Prop52
140
1.0
102
RTVSPost2010PropOp52
 70
     0
102
RTVSPost2010Prop53
 90
        2
102
RTVSPost2010PropOp53
 70
     1
102
RTVSPost2010Prop54
  1
strokes_ogs.tif
102
RTVSPost2010PropOp54
 70
     1
102
RTVSPost2010Prop55
280
     0
102
RTVSPost2010PropOp55
 70
     1
102
RTVSPost2010Prop56
140
1.0
102
RTVSPost2010PropOp56
 70
     1
102
RTVSPost2010Prop57
140
1.0
102
RTVSPost2010PropOp57
 70
     1
  0
XRECORD
  5
492
102
{ACAD_REACTORS
330
491
102
}
330
491
100
AcDbXrecord
280
     1
102
RTVSPost2010Prop28
280
     0
102
RTVSPost2010PropOp28
 70
     0
102
RTVSPost2010Prop29
280
     1
102
RTVSPost2010PropOp29
 70
     0
102
RTVSPost2010Prop30
280
     1
102
RTVSPost2010PropOp30
 70
     0
102
RTVSPost2010Prop31
280
     0
102
RTVSPost2010PropOp31
 70
     0
102
RTVSPost2010Prop32
280
     0
102
RTVSPost2010PropOp32
 70
     0
102
RTVSPost2010Prop33
280
     0
102
RTVSPost2010PropOp33
 70
     0
102
RTVSPost2010Prop34
280
     0
102
RTVSPost2010PropOp34
 70
     0
102
RTVSPost2010Prop35
280
     0
102
RTVSPost2010PropOp35
 70
     0
102
RTVSPost2010Prop36
280
     0
102
RTVSPost2010PropOp36
 70
     0
102
RTVSPost2010Prop37
 90
       50
102
RTVSPost2010PropOp37
 70
     0
102
RTVSPost2010Prop38
140
0.0
102
RTVSPost2010PropOp38
 70
     0
102
RTVSPost2010Prop39
140
1.0
102
RTVSPost2010PropOp39
 70
     0
102
RTVSPost2010Prop40
 90
        0
102
RTVSPost2010PropOp40
 70
     0
102
RTVSPost2010Prop41ColorIndex
 90
       18
102
RTVSPost2010Prop41ColorRGB
 90
        0
102
RTVSPost2010PropOp41
 70
     0
102
RTVSPost2010Prop42
 90
       50
102
RTVSPost2010PropOp42
 70
     0
102
RTVSPost2010Prop43
 90
        3
102
RTVSPost2010PropOp43
 70
     0
102
RTVSPost2010Prop44ColorIndex
 90
        5
102
RTVSPost2010Prop44ColorRGB
 90
      255
102
RTVSPost2010PropOp44
 70
     0
102
RTVSPost2010Prop45
280
     0
102
RTVSPost2010PropOp45
 70
     0
102
RTVSPost2010Prop46
 90
       50
102
RTVSPost2010PropOp46
 70
     0
102
RTVSPost2010Prop47
 90
       50
102
RTVSPost2010PropOp47
 70
     0
102
RTVSPost2010Prop48
 90
       50
102
RTVSPost2010PropOp48
 70
     0
102
RTVSPost2010Prop49
280
     0
102
RTVSPost2010PropOp49
 70
     0
102
RTVSPost2010Prop50
 90
       50
102
RTVSPost2010PropOp50
 70
     0
102
RTVSPost2010Prop51ColorIndex
 90
      256
102
RTVSPost2010Prop51ColorRGB
 90
-16777216
102
RTVSPost2010PropOp51
 70
     0
102
RTVSPost2010Prop52
140
1.0
102
RTVSPost2010PropOp52
 70
     0
102
RTVSPost2010Prop53
 90
        2
102
RTVSPost2010PropOp53
 70
     0
102
RTVSPost2010Prop54
  1
strokes_ogs.tif
102
RTVSPost2010PropOp54
 70
     0
102
RTVSPost2010Prop55
280
     0
102
RTVSPost2010PropOp55
 70
     0
102
RTVSPost2010Prop56
140
1.0
102
RTVSPost2010PropOp56
 70
     0
102
RTVSPost2010Prop57
140
1.0
102
RTVSPost2010PropOp57
 70
     0
  0
XRECORD
  5
48C
102
{ACAD_REACTORS
330
48B
102
}
330
48B
100
AcDbXrecord
280
     1
102
RTVSPost2010Prop28
280
     0
102
RTVSPost2010PropOp28
 70
     1
102
RTVSPost2010Prop29
280
     1
102
RTVSPost2010PropOp29
 70
     1
102
RTVSPost2010Prop30
280
     1
102
RTVSPost2010PropOp30
 70
     1
102
RTVSPost2010Prop31
280
     0
102
RTVSPost2010PropOp31
 70
     1
102
RTVSPost2010Prop32
280
     0
102
RTVSPost2010PropOp32
 70
     1
102
RTVSPost2010Prop33
280
     0
102
RTVSPost2010PropOp33
 70
     1
102
RTVSPost2010Prop34
280
     0
102
RTVSPost2010PropOp34
 70
     1
102
RTVSPost2010Prop35
280
     0
102
RTVSPost2010PropOp35
 70
     1
102
RTVSPost2010Prop36
280
     0
102
RTVSPost2010PropOp36
 70
     1
102
RTVSPost2010Prop37
 90
       50
102
RTVSPost2010PropOp37
 70
     1
102
RTVSPost2010Prop38
140
0.0
102
RTVSPost2010PropOp38
 70
     1
102
RTVSPost2010Prop39
140
1.0
102
RTVSPost2010PropOp39
 70
     1
102
RTVSPost2010Prop40
 90
        0
102
RTVSPost2010PropOp40
 70
     1
102
RTVSPost2010Prop41ColorIndex
 90
       18
102
RTVSPost2010Prop41ColorRGB
 90
        0
102
RTVSPost2010PropOp41
 70
     1
102
RTVSPost2010Prop42
 90
       50
102
RTVSPost2010PropOp42
 70
     1
102
RTVSPost2010Prop43
 90
        3
102
RTVSPost2010PropOp43
 70
     1
102
RTVSPost2010Prop44ColorIndex
 90
        5
102
RTVSPost2010Prop44ColorRGB
 90
      255
102
RTVSPost2010PropOp44
 70
     1
102
RTVSPost2010Prop45
280
     0
102
RTVSPost2010PropOp45
 70
     1
102
RTVSPost2010Prop46
 90
       50
102
RTVSPost2010PropOp46
 70
     1
102
RTVSPost2010Prop47
 90
       50
102
RTVSPost2010PropOp47
 70
     1
102
RTVSPost2010Prop48
 90
       50
102
RTVSPost2010PropOp48
 70
     1
102
RTVSPost2010Prop49
280
     0
102
RTVSPost2010PropOp49
 70
     1
102
RTVSPost2010Prop50
 90
       50
102
RTVSPost2010PropOp50
 70
     1
102
RTVSPost2010Prop51ColorIndex
 90
      256
102
RTVSPost2010Prop51ColorRGB
 90
-16777216
102
RTVSPost2010PropOp51
 70
     0
102
RTVSPost2010Prop52
140
1.0
102
RTVSPost2010PropOp52
 70
     0
102
RTVSPost2010Prop53
 90
        2
102
RTVSPost2010PropOp53
 70
     1
102
RTVSPost2010Prop54
  1
strokes_ogs.tif
102
RTVSPost2010PropOp54
 70
     1
102
RTVSPost2010Prop55
280
     0
102
RTVSPost2010PropOp55
 70
     1
102
RTVSPost2010Prop56
140
1.0
102
RTVSPost2010PropOp56
 70
     1
102
RTVSPost2010Prop57
140
1.0
102
RTVSPost2010PropOp57
 70
     1
  0
XRECORD
  5
494
102
{ACAD_REACTORS
330
493
102
}
330
493
100
AcDbXrecord
280
     1
102
RTVSPost2010Prop28
280
     0
102
RTVSPost2010PropOp28
 70
     0
102
RTVSPost2010Prop29
280
     1
102
RTVSPost2010PropOp29
 70
     0
102
RTVSPost2010Prop30
280
     1
102
RTVSPost2010PropOp30
 70
     0
102
RTVSPost2010Prop31
280
     0
102
RTVSPost2010PropOp31
 70
     0
102
RTVSPost2010Prop32
280
     0
102
RTVSPost2010PropOp32
 70
     0
102
RTVSPost2010Prop33
280
     0
102
RTVSPost2010PropOp33
 70
     0
102
RTVSPost2010Prop34
280
     0
102
RTVSPost2010PropOp34
 70
     0
102
RTVSPost2010Prop35
280
     0
102
RTVSPost2010PropOp35
 70
     0
102
RTVSPost2010Prop36
280
     0
102
RTVSPost2010PropOp36
 70
     0
102
RTVSPost2010Prop37
 90
       50
102
RTVSPost2010PropOp37
 70
     0
102
RTVSPost2010Prop38
140
0.0
102
RTVSPost2010PropOp38
 70
     0
102
RTVSPost2010Prop39
140
1.0
102
RTVSPost2010PropOp39
 70
     0
102
RTVSPost2010Prop40
 90
        0
102
RTVSPost2010PropOp40
 70
     0
102
RTVSPost2010Prop41ColorIndex
 90
       18
102
RTVSPost2010Prop41ColorRGB
 90
        0
102
RTVSPost2010PropOp41
 70
     0
102
RTVSPost2010Prop42
 90
       50
102
RTVSPost2010PropOp42
 70
     0
102
RTVSPost2010Prop43
 90
        3
102
RTVSPost2010PropOp43
 70
     0
102
RTVSPost2010Prop44ColorIndex
 90
        5
102
RTVSPost2010Prop44ColorRGB
 90
      255
102
RTVSPost2010PropOp44
 70
     0
102
RTVSPost2010Prop45
280
     0
102
RTVSPost2010PropOp45
 70
     0
102
RTVSPost2010Prop46
 90
       50
102
RTVSPost2010PropOp46
 70
     0
102
RTVSPost2010Prop47
 90
       50
102
RTVSPost2010PropOp47
 70
     0
102
RTVSPost2010Prop48
 90
       50
102
RTVSPost2010PropOp48
 70
     0
102
RTVSPost2010Prop49
280
     0
102
RTVSPost2010PropOp49
 70
     0
102
RTVSPost2010Prop50
 90
       50
102
RTVSPost2010PropOp50
 70
     0
102
RTVSPost2010Prop51ColorIndex
 90
      256
102
RTVSPost2010Prop51ColorRGB
 90
-16777216
102
RTVSPost2010PropOp51
 70
     0
102
RTVSPost2010Prop52
140
1.0
102
RTVSPost2010PropOp52
 70
     0
102
RTVSPost2010Prop53
 90
        2
102
RTVSPost2010PropOp53
 70
     0
102
RTVSPost2010Prop54
  1
strokes_ogs.tif
102
RTVSPost2010PropOp54
 70
     0
102
RTVSPost2010Prop55
280
     0
102
RTVSPost2010PropOp55
 70
     0
102
RTVSPost2010Prop56
140
1.0
102
RTVSPost2010PropOp56
 70
     0
102
RTVSPost2010Prop57
140
1.0
102
RTVSPost2010PropOp57
 70
     0
  0
XRECORD
  5
482
102
{ACAD_REACTORS
330
481
102
}
330
481
100
AcDbXrecord
280
     1
102
RTVSPost2010Prop28
280
     0
102
RTVSPost2010PropOp28
 70
     1
102
RTVSPost2010Prop29
280
     1
102
RTVSPost2010PropOp29
 70
     1
102
RTVSPost2010Prop30
280
     1
102
RTVSPost2010PropOp30
 70
     1
102
RTVSPost2010Prop31
280
     0
102
RTVSPost2010PropOp31
 70
     1
102
RTVSPost2010Prop32
280
     0
102
RTVSPost2010PropOp32
 70
     1
102
RTVSPost2010Prop33
280
     0
102
RTVSPost2010PropOp33
 70
     1
102
RTVSPost2010Prop34
280
     0
102
RTVSPost2010PropOp34
 70
     1
102
RTVSPost2010Prop35
280
     0
102
RTVSPost2010PropOp35
 70
     1
102
RTVSPost2010Prop36
280
     0
102
RTVSPost2010PropOp36
 70
     1
102
RTVSPost2010Prop37
 90
       50
102
RTVSPost2010PropOp37
 70
     1
102
RTVSPost2010Prop38
140
0.0
102
RTVSPost2010PropOp38
 70
     1
102
RTVSPost2010Prop39
140
1.0
102
RTVSPost2010PropOp39
 70
     1
102
RTVSPost2010Prop40
 90
        0
102
RTVSPost2010PropOp40
 70
     1
102
RTVSPost2010Prop41ColorIndex
 90
       18
102
RTVSPost2010Prop41ColorRGB
 90
        0
102
RTVSPost2010PropOp41
 70
     1
102
RTVSPost2010Prop42
 90
       50
102
RTVSPost2010PropOp42
 70
     1
102
RTVSPost2010Prop43
 90
        3
102
RTVSPost2010PropOp43
 70
     1
102
RTVSPost2010Prop44ColorIndex
 90
        5
102
RTVSPost2010Prop44ColorRGB
 90
      255
102
RTVSPost2010PropOp44
 70
     1
102
RTVSPost2010Prop45
280
     0
102
RTVSPost2010PropOp45
 70
     1
102
RTVSPost2010Prop46
 90
       50
102
RTVSPost2010PropOp46
 70
     1
102
RTVSPost2010Prop47
 90
       50
102
RTVSPost2010PropOp47
 70
     1
102
RTVSPost2010Prop48
 90
       50
102
RTVSPost2010PropOp48
 70
     1
102
RTVSPost2010Prop49
280
     0
102
RTVSPost2010PropOp49
 70
     1
102
RTVSPost2010Prop50
 90
       50
102
RTVSPost2010PropOp50
 70
     1
102
RTVSPost2010Prop51ColorIndex
 90
      256
102
RTVSPost2010Prop51ColorRGB
 90
-16777216
102
RTVSPost2010PropOp51
 70
     0
102
RTVSPost2010Prop52
140
1.0
102
RTVSPost2010PropOp52
 70
     0
102
RTVSPost2010Prop53
 90
        2
102
RTVSPost2010PropOp53
 70
     1
102
RTVSPost2010Prop54
  1
strokes_ogs.tif
102
RTVSPost2010PropOp54
 70
     1
102
RTVSPost2010Prop55
280
     0
102
RTVSPost2010PropOp55
 70
     1
102
RTVSPost2010Prop56
140
1.0
102
RTVSPost2010PropOp56
 70
     1
102
RTVSPost2010Prop57
140
1.0
102
RTVSPost2010PropOp57
 70
     1
  0
XRECORD
  5
4A0
102
{ACAD_REACTORS
330
49F
102
}
330
49F
100
AcDbXrecord
280
     1
102
RTVSPost2010Prop28
280
     0
102
RTVSPost2010PropOp28
 70
     1
102
RTVSPost2010Prop29
280
     1
102
RTVSPost2010PropOp29
 70
     1
102
RTVSPost2010Prop30
280
     1
102
RTVSPost2010PropOp30
 70
     1
102
RTVSPost2010Prop31
280
     0
102
RTVSPost2010PropOp31
 70
     1
102
RTVSPost2010Prop32
280
     0
102
RTVSPost2010PropOp32
 70
     1
102
RTVSPost2010Prop33
280
     0
102
RTVSPost2010PropOp33
 70
     1
102
RTVSPost2010Prop34
280
     0
102
RTVSPost2010PropOp34
 70
     1
102
RTVSPost2010Prop35
280
     0
102
RTVSPost2010PropOp35
 70
     1
102
RTVSPost2010Prop36
280
     0
102
RTVSPost2010PropOp36
 70
     1
102
RTVSPost2010Prop37
 90
       50
102
RTVSPost2010PropOp37
 70
     1
102
RTVSPost2010Prop38
140
0.0
102
RTVSPost2010PropOp38
 70
     1
102
RTVSPost2010Prop39
140
1.0
102
RTVSPost2010PropOp39
 70
     1
102
RTVSPost2010Prop40
 90
        0
102
RTVSPost2010PropOp40
 70
     1
102
RTVSPost2010Prop41ColorIndex
 90
       18
102
RTVSPost2010Prop41ColorRGB
 90
        0
102
RTVSPost2010PropOp41
 70
     1
102
RTVSPost2010Prop42
 90
       50
102
RTVSPost2010PropOp42
 70
     1
102
RTVSPost2010Prop43
 90
        3
102
RTVSPost2010PropOp43
 70
     1
102
RTVSPost2010Prop44ColorIndex
 90
        5
102
RTVSPost2010Prop44ColorRGB
 90
      255
102
RTVSPost2010PropOp44
 70
     1
102
RTVSPost2010Prop45
280
     0
102
RTVSPost2010PropOp45
 70
     1
102
RTVSPost2010Prop46
 90
       50
102
RTVSPost2010PropOp46
 70
     1
102
RTVSPost2010Prop47
 90
       50
102
RTVSPost2010PropOp47
 70
     1
102
RTVSPost2010Prop48
 90
       50
102
RTVSPost2010PropOp48
 70
     1
102
RTVSPost2010Prop49
280
     0
102
RTVSPost2010PropOp49
 70
     1
102
RTVSPost2010Prop50
 90
       50
102
RTVSPost2010PropOp50
 70
     1
102
RTVSPost2010Prop51ColorIndex
 90
      256
102
RTVSPost2010Prop51ColorRGB
 90
-16777216
102
RTVSPost2010PropOp51
 70
     0
102
RTVSPost2010Prop52
140
1.0
102
RTVSPost2010PropOp52
 70
     0
102
RTVSPost2010Prop53
 90
        2
102
RTVSPost2010PropOp53
 70
     1
102
RTVSPost2010Prop54
  1
strokes_ogs.tif
102
RTVSPost2010PropOp54
 70
     1
102
RTVSPost2010Prop55
280
     0
102
RTVSPost2010PropOp55
 70
     1
102
RTVSPost2010Prop56
140
1.0
102
RTVSPost2010PropOp56
 70
     1
102
RTVSPost2010Prop57
140
1.0
102
RTVSPost2010PropOp57
 70
     1
  0
XRECORD
  5
49E
102
{ACAD_REACTORS
330
49D
102
}
330
49D
100
AcDbXrecord
280
     1
102
RTVSPost2010Prop28
280
     0
102
RTVSPost2010PropOp28
 70
     1
102
RTVSPost2010Prop29
280
     1
102
RTVSPost2010PropOp29
 70
     1
102
RTVSPost2010Prop30
280
     1
102
RTVSPost2010PropOp30
 70
     1
102
RTVSPost2010Prop31
280
     0
102
RTVSPost2010PropOp31
 70
     1
102
RTVSPost2010Prop32
280
     0
102
RTVSPost2010PropOp32
 70
     1
102
RTVSPost2010Prop33
280
     0
102
RTVSPost2010PropOp33
 70
     1
102
RTVSPost2010Prop34
280
     0
102
RTVSPost2010PropOp34
 70
     1
102
RTVSPost2010Prop35
280
     0
102
RTVSPost2010PropOp35
 70
     1
102
RTVSPost2010Prop36
280
     0
102
RTVSPost2010PropOp36
 70
     1
102
RTVSPost2010Prop37
 90
       50
102
RTVSPost2010PropOp37
 70
     1
102
RTVSPost2010Prop38
140
0.0
102
RTVSPost2010PropOp38
 70
     1
102
RTVSPost2010Prop39
140
1.0
102
RTVSPost2010PropOp39
 70
     1
102
RTVSPost2010Prop40
 90
        0
102
RTVSPost2010PropOp40
 70
     1
102
RTVSPost2010Prop41ColorIndex
 90
       18
102
RTVSPost2010Prop41ColorRGB
 90
        0
102
RTVSPost2010PropOp41
 70
     1
102
RTVSPost2010Prop42
 90
       50
102
RTVSPost2010PropOp42
 70
     1
102
RTVSPost2010Prop43
 90
        3
102
RTVSPost2010PropOp43
 70
     1
102
RTVSPost2010Prop44ColorIndex
 90
        5
102
RTVSPost2010Prop44ColorRGB
 90
      255
102
RTVSPost2010PropOp44
 70
     1
102
RTVSPost2010Prop45
280
     0
102
RTVSPost2010PropOp45
 70
     1
102
RTVSPost2010Prop46
 90
       50
102
RTVSPost2010PropOp46
 70
     1
102
RTVSPost2010Prop47
 90
       50
102
RTVSPost2010PropOp47
 70
     1
102
RTVSPost2010Prop48
 90
       50
102
RTVSPost2010PropOp48
 70
     1
102
RTVSPost2010Prop49
280
     0
102
RTVSPost2010PropOp49
 70
     1
102
RTVSPost2010Prop50
 90
       50
102
RTVSPost2010PropOp50
 70
     1
102
RTVSPost2010Prop51ColorIndex
 90
      256
102
RTVSPost2010Prop51ColorRGB
 90
-16777216
102
RTVSPost2010PropOp51
 70
     0
102
RTVSPost2010Prop52
140
1.0
102
RTVSPost2010PropOp52
 70
     0
102
RTVSPost2010Prop53
 90
        2
102
RTVSPost2010PropOp53
 70
     1
102
RTVSPost2010Prop54
  1
strokes_ogs.tif
102
RTVSPost2010PropOp54
 70
     1
102
RTVSPost2010Prop55
280
     0
102
RTVSPost2010PropOp55
 70
     1
102
RTVSPost2010Prop56
140
1.0
102
RTVSPost2010PropOp56
 70
     1
102
RTVSPost2010Prop57
140
1.0
102
RTVSPost2010PropOp57
 70
     1
  0
XRECORD
  5
498
102
{ACAD_REACTORS
330
497
102
}
330
497
100
AcDbXrecord
280
     1
102
RTVSPost2010Prop28
280
     0
102
RTVSPost2010PropOp28
 70
     1
102
RTVSPost2010Prop29
280
     1
102
RTVSPost2010PropOp29
 70
     1
102
RTVSPost2010Prop30
280
     1
102
RTVSPost2010PropOp30
 70
     1
102
RTVSPost2010Prop31
280
     0
102
RTVSPost2010PropOp31
 70
     1
102
RTVSPost2010Prop32
280
     0
102
RTVSPost2010PropOp32
 70
     1
102
RTVSPost2010Prop33
280
     0
102
RTVSPost2010PropOp33
 70
     1
102
RTVSPost2010Prop34
280
     0
102
RTVSPost2010PropOp34
 70
     1
102
RTVSPost2010Prop35
280
     0
102
RTVSPost2010PropOp35
 70
     1
102
RTVSPost2010Prop36
280
     0
102
RTVSPost2010PropOp36
 70
     1
102
RTVSPost2010Prop37
 90
       50
102
RTVSPost2010PropOp37
 70
     1
102
RTVSPost2010Prop38
140
0.0
102
RTVSPost2010PropOp38
 70
     1
102
RTVSPost2010Prop39
140
1.0
102
RTVSPost2010PropOp39
 70
     1
102
RTVSPost2010Prop40
 90
        0
102
RTVSPost2010PropOp40
 70
     1
102
RTVSPost2010Prop41ColorIndex
 90
       18
102
RTVSPost2010Prop41ColorRGB
 90
        0
102
RTVSPost2010PropOp41
 70
     1
102
RTVSPost2010Prop42
 90
       50
102
RTVSPost2010PropOp42
 70
     1
102
RTVSPost2010Prop43
 90
        3
102
RTVSPost2010PropOp43
 70
     1
102
RTVSPost2010Prop44ColorIndex
 90
        5
102
RTVSPost2010Prop44ColorRGB
 90
      255
102
RTVSPost2010PropOp44
 70
     1
102
RTVSPost2010Prop45
280
     0
102
RTVSPost2010PropOp45
 70
     1
102
RTVSPost2010Prop46
 90
       50
102
RTVSPost2010PropOp46
 70
     1
102
RTVSPost2010Prop47
 90
       50
102
RTVSPost2010PropOp47
 70
     1
102
RTVSPost2010Prop48
 90
       50
102
RTVSPost2010PropOp48
 70
     1
102
RTVSPost2010Prop49
280
     0
102
RTVSPost2010PropOp49
 70
     1
102
RTVSPost2010Prop50
 90
       50
102
RTVSPost2010PropOp50
 70
     1
102
RTVSPost2010Prop51ColorIndex
 90
      256
102
RTVSPost2010Prop51ColorRGB
 90
-16777216
102
RTVSPost2010PropOp51
 70
     0
102
RTVSPost2010Prop52
140
1.0
102
RTVSPost2010PropOp52
 70
     0
102
RTVSPost2010Prop53
 90
        2
102
RTVSPost2010PropOp53
 70
     1
102
RTVSPost2010Prop54
  1
strokes_ogs.tif
102
RTVSPost2010PropOp54
 70
     1
102
RTVSPost2010Prop55
280
     0
102
RTVSPost2010PropOp55
 70
     1
102
RTVSPost2010Prop56
140
1.0
102
RTVSPost2010PropOp56
 70
     1
102
RTVSPost2010Prop57
140
1.0
102
RTVSPost2010PropOp57
 70
     1
  0
XRECORD
  5
49A
102
{ACAD_REACTORS
330
499
102
}
330
499
100
AcDbXrecord
280
     1
102
RTVSPost2010Prop28
280
     0
102
RTVSPost2010PropOp28
 70
     1
102
RTVSPost2010Prop29
280
     1
102
RTVSPost2010PropOp29
 70
     1
102
RTVSPost2010Prop30
280
     1
102
RTVSPost2010PropOp30
 70
     1
102
RTVSPost2010Prop31
280
     0
102
RTVSPost2010PropOp31
 70
     1
102
RTVSPost2010Prop32
280
     0
102
RTVSPost2010PropOp32
 70
     1
102
RTVSPost2010Prop33
280
     0
102
RTVSPost2010PropOp33
 70
     1
102
RTVSPost2010Prop34
280
     0
102
RTVSPost2010PropOp34
 70
     1
102
RTVSPost2010Prop35
280
     0
102
RTVSPost2010PropOp35
 70
     1
102
RTVSPost2010Prop36
280
     0
102
RTVSPost2010PropOp36
 70
     1
102
RTVSPost2010Prop37
 90
       50
102
RTVSPost2010PropOp37
 70
     1
102
RTVSPost2010Prop38
140
0.0
102
RTVSPost2010PropOp38
 70
     1
102
RTVSPost2010Prop39
140
1.0
102
RTVSPost2010PropOp39
 70
     1
102
RTVSPost2010Prop40
 90
        0
102
RTVSPost2010PropOp40
 70
     1
102
RTVSPost2010Prop41ColorIndex
 90
       18
102
RTVSPost2010Prop41ColorRGB
 90
        0
102
RTVSPost2010PropOp41
 70
     1
102
RTVSPost2010Prop42
 90
       50
102
RTVSPost2010PropOp42
 70
     1
102
RTVSPost2010Prop43
 90
        3
102
RTVSPost2010PropOp43
 70
     1
102
RTVSPost2010Prop44ColorIndex
 90
        5
102
RTVSPost2010Prop44ColorRGB
 90
      255
102
RTVSPost2010PropOp44
 70
     1
102
RTVSPost2010Prop45
280
     0
102
RTVSPost2010PropOp45
 70
     1
102
RTVSPost2010Prop46
 90
       50
102
RTVSPost2010PropOp46
 70
     1
102
RTVSPost2010Prop47
 90
       50
102
RTVSPost2010PropOp47
 70
     1
102
RTVSPost2010Prop48
 90
       50
102
RTVSPost2010PropOp48
 70
     1
102
RTVSPost2010Prop49
280
     0
102
RTVSPost2010PropOp49
 70
     1
102
RTVSPost2010Prop50
 90
       50
102
RTVSPost2010PropOp50
 70
     1
102
RTVSPost2010Prop51ColorIndex
 90
      256
102
RTVSPost2010Prop51ColorRGB
 90
-16777216
102
RTVSPost2010PropOp51
 70
     0
102
RTVSPost2010Prop52
140
1.0
102
RTVSPost2010PropOp52
 70
     0
102
RTVSPost2010Prop53
 90
        2
102
RTVSPost2010PropOp53
 70
     1
102
RTVSPost2010Prop54
  1
strokes_ogs.tif
102
RTVSPost2010PropOp54
 70
     1
102
RTVSPost2010Prop55
280
     0
102
RTVSPost2010PropOp55
 70
     1
102
RTVSPost2010Prop56
140
1.0
102
RTVSPost2010PropOp56
 70
     1
102
RTVSPost2010Prop57
140
1.0
102
RTVSPost2010PropOp57
 70
     1
  0
XRECORD
  5
48A
102
{ACAD_REACTORS
330
489
102
}
330
489
100
AcDbXrecord
280
     1
102
RTVSPost2010Prop28
280
     0
102
RTVSPost2010PropOp28
 70
     1
102
RTVSPost2010Prop29
280
     1
102
RTVSPost2010PropOp29
 70
     1
102
RTVSPost2010Prop30
280
     1
102
RTVSPost2010PropOp30
 70
     1
102
RTVSPost2010Prop31
280
     0
102
RTVSPost2010PropOp31
 70
     1
102
RTVSPost2010Prop32
280
     0
102
RTVSPost2010PropOp32
 70
     1
102
RTVSPost2010Prop33
280
     0
102
RTVSPost2010PropOp33
 70
     1
102
RTVSPost2010Prop34
280
     0
102
RTVSPost2010PropOp34
 70
     1
102
RTVSPost2010Prop35
280
     0
102
RTVSPost2010PropOp35
 70
     1
102
RTVSPost2010Prop36
280
     0
102
RTVSPost2010PropOp36
 70
     1
102
RTVSPost2010Prop37
 90
       50
102
RTVSPost2010PropOp37
 70
     1
102
RTVSPost2010Prop38
140
0.0
102
RTVSPost2010PropOp38
 70
     1
102
RTVSPost2010Prop39
140
1.0
102
RTVSPost2010PropOp39
 70
     1
102
RTVSPost2010Prop40
 90
        0
102
RTVSPost2010PropOp40
 70
     1
102
RTVSPost2010Prop41ColorIndex
 90
       18
102
RTVSPost2010Prop41ColorRGB
 90
        0
102
RTVSPost2010PropOp41
 70
     1
102
RTVSPost2010Prop42
 90
       50
102
RTVSPost2010PropOp42
 70
     1
102
RTVSPost2010Prop43
 90
        3
102
RTVSPost2010PropOp43
 70
     1
102
RTVSPost2010Prop44ColorIndex
 90
        5
102
RTVSPost2010Prop44ColorRGB
 90
      255
102
RTVSPost2010PropOp44
 70
     1
102
RTVSPost2010Prop45
280
     0
102
RTVSPost2010PropOp45
 70
     1
102
RTVSPost2010Prop46
 90
       50
102
RTVSPost2010PropOp46
 70
     1
102
RTVSPost2010Prop47
 90
       50
102
RTVSPost2010PropOp47
 70
     1
102
RTVSPost2010Prop48
 90
       50
102
RTVSPost2010PropOp48
 70
     1
102
RTVSPost2010Prop49
280
     0
102
RTVSPost2010PropOp49
 70
     1
102
RTVSPost2010Prop50
 90
       50
102
RTVSPost2010PropOp50
 70
     1
102
RTVSPost2010Prop51ColorIndex
 90
      256
102
RTVSPost2010Prop51ColorRGB
 90
-16777216
102
RTVSPost2010PropOp51
 70
     0
102
RTVSPost2010Prop52
140
1.0
102
RTVSPost2010PropOp52
 70
     0
102
RTVSPost2010Prop53
 90
        2
102
RTVSPost2010PropOp53
 70
     1
102
RTVSPost2010Prop54
  1
strokes_ogs.tif
102
RTVSPost2010PropOp54
 70
     1
102
RTVSPost2010Prop55
280
     0
102
RTVSPost2010PropOp55
 70
     1
102
RTVSPost2010Prop56
140
1.0
102
RTVSPost2010PropOp56
 70
     1
102
RTVSPost2010Prop57
140
1.0
102
RTVSPost2010PropOp57
 70
     1
  0
XRECORD
  5
47C
102
{ACAD_REACTORS
330
47B
102
}
330
47B
100
AcDbXrecord
280
     1
102
RTVSPost2010Prop28
280
     0
102
RTVSPost2010PropOp28
 70
     1
102
RTVSPost2010Prop29
280
     1
102
RTVSPost2010PropOp29
 70
     1
102
RTVSPost2010Prop30
280
     1
102
RTVSPost2010PropOp30
 70
     1
102
RTVSPost2010Prop31
280
     0
102
RTVSPost2010PropOp31
 70
     1
102
RTVSPost2010Prop32
280
     0
102
RTVSPost2010PropOp32
 70
     1
102
RTVSPost2010Prop33
280
     0
102
RTVSPost2010PropOp33
 70
     1
102
RTVSPost2010Prop34
280
     0
102
RTVSPost2010PropOp34
 70
     1
102
RTVSPost2010Prop35
280
     0
102
RTVSPost2010PropOp35
 70
     1
102
RTVSPost2010Prop36
280
     0
102
RTVSPost2010PropOp36
 70
     1
102
RTVSPost2010Prop37
 90
       50
102
RTVSPost2010PropOp37
 70
     1
102
RTVSPost2010Prop38
140
0.0
102
RTVSPost2010PropOp38
 70
     1
102
RTVSPost2010Prop39
140
1.0
102
RTVSPost2010PropOp39
 70
     1
102
RTVSPost2010Prop40
 90
        0
102
RTVSPost2010PropOp40
 70
     1
102
RTVSPost2010Prop41ColorIndex
 90
       18
102
RTVSPost2010Prop41ColorRGB
 90
        0
102
RTVSPost2010PropOp41
 70
     1
102
RTVSPost2010Prop42
 90
       50
102
RTVSPost2010PropOp42
 70
     1
102
RTVSPost2010Prop43
 90
        3
102
RTVSPost2010PropOp43
 70
     1
102
RTVSPost2010Prop44ColorIndex
 90
        5
102
RTVSPost2010Prop44ColorRGB
 90
      255
102
RTVSPost2010PropOp44
 70
     1
102
RTVSPost2010Prop45
280
     0
102
RTVSPost2010PropOp45
 70
     1
102
RTVSPost2010Prop46
 90
       50
102
RTVSPost2010PropOp46
 70
     1
102
RTVSPost2010Prop47
 90
       50
102
RTVSPost2010PropOp47
 70
     1
102
RTVSPost2010Prop48
 90
       50
102
RTVSPost2010PropOp48
 70
     1
102
RTVSPost2010Prop49
280
     0
102
RTVSPost2010PropOp49
 70
     1
102
RTVSPost2010Prop50
 90
       50
102
RTVSPost2010PropOp50
 70
     1
102
RTVSPost2010Prop51ColorIndex
 90
      256
102
RTVSPost2010Prop51ColorRGB
 90
-16777216
102
RTVSPost2010PropOp51
 70
     0
102
RTVSPost2010Prop52
140
1.0
102
RTVSPost2010PropOp52
 70
     0
102
RTVSPost2010Prop53
 90
        2
102
RTVSPost2010PropOp53
 70
     1
102
RTVSPost2010Prop54
  1
strokes_ogs.tif
102
RTVSPost2010PropOp54
 70
     1
102
RTVSPost2010Prop55
280
     0
102
RTVSPost2010PropOp55
 70
     1
102
RTVSPost2010Prop56
140
1.0
102
RTVSPost2010PropOp56
 70
     1
102
RTVSPost2010Prop57
140
1.0
102
RTVSPost2010PropOp57
 70
     1
  0
XRECORD
  5
49C
102
{ACAD_REACTORS
330
49B
102
}
330
49B
100
AcDbXrecord
280
     1
102
RTVSPost2010Prop28
280
     0
102
RTVSPost2010PropOp28
 70
     1
102
RTVSPost2010Prop29
280
     1
102
RTVSPost2010PropOp29
 70
     1
102
RTVSPost2010Prop30
280
     1
102
RTVSPost2010PropOp30
 70
     1
102
RTVSPost2010Prop31
280
     0
102
RTVSPost2010PropOp31
 70
     1
102
RTVSPost2010Prop32
280
     0
102
RTVSPost2010PropOp32
 70
     1
102
RTVSPost2010Prop33
280
     0
102
RTVSPost2010PropOp33
 70
     1
102
RTVSPost2010Prop34
280
     0
102
RTVSPost2010PropOp34
 70
     1
102
RTVSPost2010Prop35
280
     0
102
RTVSPost2010PropOp35
 70
     1
102
RTVSPost2010Prop36
280
     0
102
RTVSPost2010PropOp36
 70
     1
102
RTVSPost2010Prop37
 90
       50
102
RTVSPost2010PropOp37
 70
     1
102
RTVSPost2010Prop38
140
0.0
102
RTVSPost2010PropOp38
 70
     1
102
RTVSPost2010Prop39
140
1.0
102
RTVSPost2010PropOp39
 70
     1
102
RTVSPost2010Prop40
 90
        0
102
RTVSPost2010PropOp40
 70
     1
102
RTVSPost2010Prop41ColorIndex
 90
       18
102
RTVSPost2010Prop41ColorRGB
 90
        0
102
RTVSPost2010PropOp41
 70
     1
102
RTVSPost2010Prop42
 90
       50
102
RTVSPost2010PropOp42
 70
     1
102
RTVSPost2010Prop43
 90
        3
102
RTVSPost2010PropOp43
 70
     1
102
RTVSPost2010Prop44ColorIndex
 90
        5
102
RTVSPost2010Prop44ColorRGB
 90
      255
102
RTVSPost2010PropOp44
 70
     1
102
RTVSPost2010Prop45
280
     0
102
RTVSPost2010PropOp45
 70
     1
102
RTVSPost2010Prop46
 90
       50
102
RTVSPost2010PropOp46
 70
     1
102
RTVSPost2010Prop47
 90
       50
102
RTVSPost2010PropOp47
 70
     1
102
RTVSPost2010Prop48
 90
       50
102
RTVSPost2010PropOp48
 70
     1
102
RTVSPost2010Prop49
280
     0
102
RTVSPost2010PropOp49
 70
     1
102
RTVSPost2010Prop50
 90
       50
102
RTVSPost2010PropOp50
 70
     1
102
RTVSPost2010Prop51ColorIndex
 90
      256
102
RTVSPost2010Prop51ColorRGB
 90
-16777216
102
RTVSPost2010PropOp51
 70
     0
102
RTVSPost2010Prop52
140
1.0
102
RTVSPost2010PropOp52
 70
     0
102
RTVSPost2010Prop53
 90
        2
102
RTVSPost2010PropOp53
 70
     1
102
RTVSPost2010Prop54
  1
strokes_ogs.tif
102
RTVSPost2010PropOp54
 70
     1
102
RTVSPost2010Prop55
280
     0
102
RTVSPost2010PropOp55
 70
     1
102
RTVSPost2010Prop56
140
1.0
102
RTVSPost2010PropOp56
 70
     1
102
RTVSPost2010Prop57
140
1.0
102
RTVSPost2010PropOp57
 70
     1
  0
ENDSEC
  0
EOF
