  0
SECTION
  2
HEADER
  9
$ACADVER
  1
AC1024
  9
$ACADMAINTVER
 70
     6
  9
$DWGCODEPAGE
  3
ANSI_1252
  9
$INSBASE
 10
0.0
 20
0.0
 30
0.0
  9
$EXTMIN
 10
1.000000E+20
 20
1.000000E+20
 30
1.000000E+20
  9
$EXTMAX
 10
-1.000000E+20
 20
-1.000000E+20
 30
-1.000000E+20
  9
$LIMMIN
 10
0.0
 20
0.0
  9
$LIMMAX
 10
420.0
 20
297.0
  9
$ORTHOMODE
 70
     0
  9
$REGENMODE
 70
     1
  9
$FILLMODE
 70
     1
  9
$QTEXTMODE
 70
     0
  9
$MIRRTEXT
 70
     1
  9
$LTSCALE
 40
1.0
  9
$ATTMODE
 70
     1
  9
$TEXTSIZE
 40
2.5
  9
$TRACEWID
 40
1.0
  9
$TEXTSTYLE
  7
Standard
  9
$CLAYER
  8
0
  9
$CELTYPE
  6
ByLayer
  9
$CECOLOR
 62
   256
  9
$CELTSCALE
 40
1.0
  9
$DISPSILH
 70
     0
  9
$DIMSCALE
 40
1.0
  9
$DIMASZ
 40
2.5
  9
$DIMEXO
 40
0.625
  9
$DIMDLI
 40
3.75
  9
$DIMRND
 40
0.0
  9
$DIMDLE
 40
0.0
  9
$DIMEXE
 40
1.25
  9
$DIMTP
 40
0.0
  9
$DIMTM
 40
0.0
  9
$DIMTXT
 40
2.5
  9
$DIMCEN
 40
2.5
  9
$DIMTSZ
 40
0.0
  9
$DIMTOL
 70
     0
  9
$DIMLIM
 70
     0
  9
$DIMTIH
 70
     0
  9
$DIMTOH
 70
     0
  9
$DIMSE1
 70
     0
  9
$DIMSE2
 70
     0
  9
$DIMTAD
 70
     1
  9
$DIMZIN
 70
     8
  9
$DIMBLK
  1

  9
$DIMASO
 70
     1
  9
$DIMSHO
 70
     1
  9
$DIMPOST
  1

  9
$DIMAPOST
  1

  9
$DIMALT
 70
     0
  9
$DIMALTD
 70
     3
  9
$DIMALTF
 40
0.03937
  9
$DIMLFAC
 40
1.0
  9
$DIMTOFL
 70
     1
  9
$DIMTVP
 40
0.0
  9
$DIMTIX
 70
     0
  9
$DIMSOXD
 70
     0
  9
$DIMSAH
 70
     0
  9
$DIMBLK1
  1

  9
$DIMBLK2
  1

  9
$DIMSTYLE
  2
ISO-25
  9
$DIMCLRD
 70
     0
  9
$DIMCLRE
 70
     0
  9
$DIMCLRT
 70
     0
  9
$DIMTFAC
 40
1.0
  9
$DIMGAP
 40
0.625
  9
$DIMJUST
 70
     0
  9
$DIMSD1
 70
     0
  9
$DIMSD2
 70
     0
  9
$DIMTOLJ
 70
     0
  9
$DIMTZIN
 70
     8
  9
$DIMALTZ
 70
     0
  9
$DIMALTTZ
 70
     0
  9
$DIMUPT
 70
     0
  9
$DIMDEC
 70
     2
  9
$DIMTDEC
 70
     2
  9
$DIMALTU
 70
     2
  9
$DIMALTTD
 70
     3
  9
$DIMTXSTY
  7
Standard
  9
$DIMAUNIT
 70
     0
  9
$DIMADEC
 70
     0
  9
$DIMALTRND
 40
0.0
  9
$DIMAZIN
 70
     0
  9
$DIMDSEP
 70
    44
  9
$DIMATFIT
 70
     3
  9
$DIMFRAC
 70
     0
  9
$DIMLDRBLK
  1

  9
$DIMLUNIT
 70
     2
  9
$DIMLWD
 70
    -2
  9
$DIMLWE
 70
    -2
  9
$DIMTMOVE
 70
     0
  9
$DIMFXL
 40
1.0
  9
$DIMFXLON
 70
     0
  9
$DIMJOGANG
 40
0.785398
  9
$DIMTFILL
 70
     0
  9
$DIMTFILLCLR
 70
     0
  9
$DIMARCSYM
 70
     0
  9
$DIMLTYPE
  6

  9
$DIMLTEX1
  6

  9
$DIMLTEX2
  6

  9
$DIMTXTDIRECTION
 70
     0
  9
$LUNITS
 70
     2
  9
$LUPREC
 70
     4
  9
$SKETCHINC
 40
1.0
  9
$FILLETRAD
 40
10.0
  9
$AUNITS
 70
     0
  9
$AUPREC
 70
     0
  9
$MENU
  1
.
  9
$ELEVATION
 40
0.0
  9
$PELEVATION
 40
0.0
  9
$THICKNESS
 40
0.0
  9
$LIMCHECK
 70
     0
  9
$CHAMFERA
 40
0.0
  9
$CHAMFERB
 40
0.0
  9
$CHAMFERC
 40
0.0
  9
$CHAMFERD
 40
0.0
  9
$SKPOLY
 70
     0
  9
$TDCREATE
 40
2457823.373174722
  9
$TDUCREATE
 40
2457823.331508055
  9
$TDUPDATE
 40
2457823.373175266
  9
$TDUUPDATE
 40
2457823.3315086
  9
$TDINDWG
 40
0.0000000116
  9
$TDUSRTIMER
 40
0.0000000116
  9
$USRTIMER
 70
     1
  9
$ANGBASE
 50
0.0
  9
$ANGDIR
 70
     0
  9
$PDMODE
 70
     0
  9
$PDSIZE
 40
0.0
  9
$PLINEWID
 40
0.0
  9
$SPLFRAME
 70
     0
  9
$SPLINETYPE
 70
     6
  9
$SPLINESEGS
 70
     8
  9
$HANDSEED
  5
2CC
  9
$SURFTAB1
 70
     6
  9
$SURFTAB2
 70
     6
  9
$SURFTYPE
 70
     6
  9
$SURFU
 70
     6
  9
$SURFV
 70
     6
  9
$UCSBASE
  2

  9
$UCSNAME
  2

  9
$UCSORG
 10
0.0
 20
0.0
 30
0.0
  9
$UCSXDIR
 10
1.0
 20
0.0
 30
0.0
  9
$UCSYDIR
 10
0.0
 20
1.0
 30
0.0
  9
$UCSORTHOREF
  2

  9
$UCSORTHOVIEW
 70
     0
  9
$UCSORGTOP
 10
0.0
 20
0.0
 30
0.0
  9
$UCSORGBOTTOM
 10
0.0
 20
0.0
 30
0.0
  9
$UCSORGLEFT
 10
0.0
 20
0.0
 30
0.0
  9
$UCSORGRIGHT
 10
0.0
 20
0.0
 30
0.0
  9
$UCSORGFRONT
 10
0.0
 20
0.0
 30
0.0
  9
$UCSORGBACK
 10
0.0
 20
0.0
 30
0.0
  9
$PUCSBASE
  2

  9
$PUCSNAME
  2

  9
$PUCSORG
 10
0.0
 20
0.0
 30
0.0
  9
$PUCSXDIR
 10
1.0
 20
0.0
 30
0.0
  9
$PUCSYDIR
 10
0.0
 20
1.0
 30
0.0
  9
$PUCSORTHOREF
  2

  9
$PUCSORTHOVIEW
 70
     0
  9
$PUCSORGTOP
 10
0.0
 20
0.0
 30
0.0
  9
$PUCSORGBOTTOM
 10
0.0
 20
0.0
 30
0.0
  9
$PUCSORGLEFT
 10
0.0
 20
0.0
 30
0.0
  9
$PUCSORGRIGHT
 10
0.0
 20
0.0
 30
0.0
  9
$PUCSORGFRONT
 10
0.0
 20
0.0
 30
0.0
  9
$PUCSORGBACK
 10
0.0
 20
0.0
 30
0.0
  9
$USERI1
 70
     0
  9
$USERI2
 70
     0
  9
$USERI3
 70
     0
  9
$USERI4
 70
     0
  9
$USERI5
 70
     0
  9
$USERR1
 40
0.0
  9
$USERR2
 40
0.0
  9
$USERR3
 40
0.0
  9
$USERR4
 40
0.0
  9
$USERR5
 40
0.0
  9
$WORLDVIEW
 70
     1
  9
$SHADEDGE
 70
     3
  9
$SHADEDIF
 70
    70
  9
$TILEMODE
 70
     1
  9
$MAXACTVP
 70
    64
  9
$PINSBASE
 10
0.0
 20
0.0
 30
0.0
  9
$PLIMCHECK
 70
     0
  9
$PEXTMIN
 10
1.000000E+20
 20
1.000000E+20
 30
1.000000E+20
  9
$PEXTMAX
 10
-1.000000E+20
 20
-1.000000E+20
 30
-1.000000E+20
  9
$PLIMMIN
 10
0.0
 20
0.0
  9
$PLIMMAX
 10
420.0
 20
297.0
  9
$UNITMODE
 70
     0
  9
$VISRETAIN
 70
     1
  9
$PLINEGEN
 70
     0
  9
$PSLTSCALE
 70
     1
  9
$TREEDEPTH
 70
  3020
  9
$CMLSTYLE
  2
Standard
  9
$CMLJUST
 70
     0
  9
$CMLSCALE
 40
20.0
  9
$PROXYGRAPHICS
 70
     1
  9
$MEASUREMENT
 70
     1
  9
$CELWEIGHT
370
    -1
  9
$ENDCAPS
280
     0
  9
$JOINSTYLE
280
     0
  9
$LWDISPLAY
290
     0
  9
$INSUNITS
 70
     4
  9
$HYPERLINKBASE
  1

  9
$STYLESHEET
  1

  9
$XEDIT
290
     1
  9
$CEPSNTYPE
380
     0
  9
$PSTYLEMODE
290
     1
  9
$FINGERPRINTGUID
  2
{507CD1C5-0F60-4CEA-94FF-EE06E3A4AD69}
  9
$VERSIONGUID
  2
{FAEB1C32-E019-11D5-929B-00C0DF256EC4}
  9
$EXTNAMES
290
     1
  9
$PSVPSCALE
 40
0.0
  9
$OLESTARTUP
290
     0
  9
$SORTENTS
280
   127
  9
$INDEXCTL
280
     0
  9
$HIDETEXT
280
     1
  9
$XCLIPFRAME
280
     2
  9
$HALOGAP
280
     0
  9
$OBSCOLOR
 70
   257
  9
$OBSLTYPE
280
     0
  9
$INTERSECTIONDISPLAY
280
     0
  9
$INTERSECTIONCOLOR
 70
   257
  9
$DIMASSOC
280
     2
  9
$PROJECTNAME
  1

  9
$CAMERADISPLAY
290
     0
  9
$LENSLENGTH
 40
50.0
  9
$CAMERAHEIGHT
 40
0.0
  9
$STEPSPERSEC
 40
2.0
  9
$STEPSIZE
 40
6.0
  9
$3DDWFPREC
 40
2.0
  9
$PSOLWIDTH
 40
5.0
  9
$PSOLHEIGHT
 40
80.0
  9
$LOFTANG1
 40
1.570796
  9
$LOFTANG2
 40
1.570796
  9
$LOFTMAG1
 40
0.0
  9
$LOFTMAG2
 40
0.0
  9
$LOFTPARAM
 70
     7
  9
$LOFTNORMALS
280
     1
  9
$LATITUDE
 40
37.795
  9
$LONGITUDE
 40
-122.394
  9
$NORTHDIRECTION
 40
0.0
  9
$TIMEZONE
 70
 -8000
  9
$LIGHTGLYPHDISPLAY
280
     1
  9
$TILEMODELIGHTSYNCH
280
     1
  9
$CMATERIAL
347
44
  9
$SOLIDHIST
280
     0
  9
$SHOWHIST
280
     1
  9
$DWFFRAME
280
     2
  9
$DGNFRAME
280
     2
  9
$REALWORLDSCALE
290
     1
  9
$INTERFERECOLOR
 62
   256
  9
$CSHADOW
280
     0
  9
$SHADOWPLANELOCATION
 40
0.0
  0
ENDSEC
  0
SECTION
  2
CLASSES
  0
CLASS
  1
ACDBDICTIONARYWDFLT
  2
AcDbDictionaryWithDefault
  3
ObjectDBX Classes
 90
        0
 91
        4
280
     0
281
     0
  0
CLASS
  1
VISUALSTYLE
  2
AcDbVisualStyle
  3
ObjectDBX Classes
 90
     4095
 91
        4
280
     0
281
     0
  0
CLASS
  1
MATERIAL
  2
AcDbMaterial
  3
ObjectDBX Classes
 90
     1153
 91
        4
280
     0
281
     0
  0
CLASS
  1
SCALE
  2
AcDbScale
  3
ObjectDBX Classes
 90
     1153
 91
        4
280
     0
281
     0
  0
CLASS
  1
TABLESTYLE
  2
AcDbTableStyle
  3
ObjectDBX Classes
 90
     4095
 91
        4
280
     0
281
     0
  0
CLASS
  1
MLEADERSTYLE
  2
AcDbMLeaderStyle
  3
ACDB_MLEADERSTYLE_CLASS
 90
     4095
 91
        4
280
     0
281
     0
  0
CLASS
  1
SUN
  2
AcDbSun
  3
SCENEOE
 90
     1153
 91
        4
280
     0
281
     0
  0
CLASS
  1
DICTIONARYVAR
  2
AcDbDictionaryVar
  3
ObjectDBX Classes
 90
        0
 91
        4
280
     0
281
     0
  0
CLASS
  1
CELLSTYLEMAP
  2
AcDbCellStyleMap
  3
ObjectDBX Classes
 90
     1152
 91
        4
280
     0
281
     0
  0
ENDSEC
  0
SECTION
  2
TABLES
  0
TABLE
  2
VPORT
  5
8
330
0
100
AcDbSymbolTable
 70
     1
  0
VPORT
  5
29
330
8
100
AcDbSymbolTableRecord
100
AcDbViewportTableRecord
  2
*Active
 70
     0
 10
0.0
 20
0.0
 11
1.0
 21
1.0
 12
344.186916
 22
148.5
 13
0.0
 23
0.0
 14
10.0
 24
10.0
 15
10.0
 25
10.0
 16
0.0
 26
0.0
 36
1.0
 17
0.0
 27
0.0
 37
0.0
 40
297.0
 41
1.972973
 42
50.0
 43
0.0
 44
0.0
 50
0.0
 51
0.0
 71
     0
 72
   100
 73
     1
 74
     3
 75
     0
 76
     0
 77
     0
 78
     0
281
     0
 65
     1
110
0.0
120
0.0
130
0.0
111
1.0
121
0.0
131
0.0
112
0.0
122
1.0
132
0.0
 79
     0
146
0.0
348
2F
 60
     3
 61
     5
292
     1
282
     1
141
0.0
142
0.0
 63
   250
361
6D
  0
ENDTAB
  0
TABLE
  2
LTYPE
  5
5
330
0
100
AcDbSymbolTable
 70
     1
  0
LTYPE
  5
14
330
5
100
AcDbSymbolTableRecord
100
AcDbLinetypeTableRecord
  2
ByBlock
 70
     0
  3

 72
    65
 73
     0
 40
0.0
  0
LTYPE
  5
15
330
5
100
AcDbSymbolTableRecord
100
AcDbLinetypeTableRecord
  2
ByLayer
 70
     0
  3

 72
    65
 73
     0
 40
0.0
  0
LTYPE
  5
16
330
5
100
AcDbSymbolTableRecord
100
AcDbLinetypeTableRecord
  2
Continuous
 70
     0
  3
Solid line
 72
    65
 73
     0
 40
0.0
  0
ENDTAB
  0
TABLE
  2
LAYER
  5
2
330
0
100
AcDbSymbolTable
 70
     1
  0
LAYER
  5
10
330
2
100
AcDbSymbolTableRecord
100
AcDbLayerTableRecord
  2
0
 70
     0
 62
   106
  6
Continuous
370
     0
390
F
347
46
  0
ENDTAB
  0
TABLE
  2
STYLE
  5
3
330
0
100
AcDbSymbolTable
 70
     4
  0
STYLE
  5
11
330
3
100
AcDbSymbolTableRecord
100
AcDbTextStyleTableRecord
  2
Standard
 70
     0
 40
0.0
 41
1.0
 50
0.0
 71
     0
 42
2.5
  3
txt
  4

  0
STYLE
  5
6E
330
3
100
AcDbSymbolTableRecord
100
AcDbTextStyleTableRecord
  2
Default
 70
     0
 40
0.0
 41
1.0
 50
0.0
 71
     0
 42
2.5
  3

  4

1001
ACAD
1000
txt
1071
        0
  0
STYLE
  5
6F
330
3
100
AcDbSymbolTableRecord
100
AcDbTextStyleTableRecord
  2
ISO
 70
     0
 40
0.0
 41
1.0
 50
0.0
 71
     0
 42
2.5
  3

  4

1001
ACAD
1000
txt
1071
        0
  0
STYLE
  5
70
330
3
100
AcDbSymbolTableRecord
100
AcDbTextStyleTableRecord
  2
zucchetti
 70
     0
 40
0.0
 41
1.0
 50
0.0
 71
     0
 42
2.5
  3

  4

1001
ACAD
1000
Arial
1071
        0
  0
ENDTAB
  0
TABLE
  2
VIEW
  5
6
330
0
100
AcDbSymbolTable
 70
     0
  0
ENDTAB
  0
TABLE
  2
UCS
  5
7
330
0
100
AcDbSymbolTable
 70
     0
  0
ENDTAB
  0
TABLE
  2
APPID
  5
9
330
0
100
AcDbSymbolTable
 70
     1
  0
APPID
  5
12
330
9
100
AcDbSymbolTableRecord
100
AcDbRegAppTableRecord
  2
ACAD
 70
     0
  0
ENDTAB
  0
TABLE
  2
DIMSTYLE
  5
A
330
0
100
AcDbSymbolTable
 70
     4
100
AcDbDimStyleTable
  0
DIMSTYLE
105
27
330
A
100
AcDbSymbolTableRecord
100
AcDbDimStyleTableRecord
  2
ISO-25
 70
     0
 41
2.5
 42
0.625
 43
3.75
 44
1.25
 73
     0
 74
     0
 77
     1
 78
     8
140
2.5
141
2.5
143
0.03937
147
0.625
171
     3
172
     1
178
     0
271
     2
272
     2
274
     3
278
    44
283
     0
284
     8
340
11
  0
DIMSTYLE
105
71
330
A
100
AcDbSymbolTableRecord
100
AcDbDimStyleTableRecord
  2
Default
 70
     0
  3
<>
 41
4.375
 42
1.05
 44
2.1
 49
10.01
 73
     0
 74
     0
 77
     1
 78
     8
140
3.5
146
0.4
147
1.75
172
     1
271
     2
178
     3
271
     2
272
     3
284
     8
340
6E
341
72
342
72
  0
DIMSTYLE
105
79
330
A
100
AcDbSymbolTableRecord
100
AcDbDimStyleTableRecord
  2
ISO
 70
     0
  3
<>
 41
4.375
 42
1.05
 44
2.1
 49
10.01
 73
     0
 74
     0
 77
     1
 78
     8
140
3.5
146
0.4
147
1.75
172
     1
271
     2
178
     3
271
     2
272
     3
284
     8
340
6F
341
72
342
72
  0
DIMSTYLE
105
7A
330
A
100
AcDbSymbolTableRecord
100
AcDbDimStyleTableRecord
  2
zucchetti
 70
     0
  3
<>
 41
3.0
 42
0.9
 44
1.8
 49
8.58
 73
     0
 74
     0
 77
     1
 78
     8
140
3.0
146
0.6
147
1.5
172
     1
176
     3
177
     3
271
     2
178
     3
271
     2
272
     2
284
     8
340
70
  0
ENDTAB
  0
TABLE
  2
BLOCK_RECORD
  5
1
330
0
100
AcDbSymbolTable
 70
     7
  0
BLOCK_RECORD
  5
1F
330
1
100
AcDbSymbolTableRecord
100
AcDbBlockTableRecord
  2
*Model_Space
340
22
 70
     0
280
     1
281
     0
  0
BLOCK_RECORD
  5
1B
330
1
100
AcDbSymbolTableRecord
100
AcDbBlockTableRecord
  2
*Paper_Space
340
1E
 70
     0
280
     1
281
     0
  0
BLOCK_RECORD
  5
23
330
1
100
AcDbSymbolTableRecord
100
AcDbBlockTableRecord
  2
*Paper_Space0
340
26
 70
     0
280
     1
281
     0
  0
BLOCK_RECORD
  5
72
330
1
100
AcDbSymbolTableRecord
100
AcDbBlockTableRecord
  2
_CLOSED
340
0
 70
     0
280
     1
281
     0
  0
BLOCK_RECORD
  5
7B
330
1
100
AcDbSymbolTableRecord
100
AcDbBlockTableRecord
  2
a
340
0
102
{BLKREFS
331
BB
102
}
 70
     0
280
     1
281
     0
  0
BLOCK_RECORD
  5
BC
330
1
100
AcDbSymbolTableRecord
100
AcDbBlockTableRecord
  2
b
340
0
102
{BLKREFS
331
12B
102
}
 70
     0
280
     1
281
     0
  0
BLOCK_RECORD
  5
12C
330
1
100
AcDbSymbolTableRecord
100
AcDbBlockTableRecord
  2
c
340
0
102
{BLKREFS
331
18B
102
}
 70
     0
280
     1
281
     0
  0
BLOCK_RECORD
  5
18C
330
1
100
AcDbSymbolTableRecord
100
AcDbBlockTableRecord
  2
d
340
0
102
{BLKREFS
331
230
102
}
 70
     0
280
     1
281
     0
  0
BLOCK_RECORD
  5
231
330
1
100
AcDbSymbolTableRecord
100
AcDbBlockTableRecord
  2
e
340
0
102
{BLKREFS
331
292
102
}
 70
     0
280
     1
281
     0
  0
ENDTAB
  0
ENDSEC
  0
SECTION
  2
BLOCKS
  0
BLOCK
  5
20
330
1F
100
AcDbEntity
  8
0
100
AcDbBlockBegin
  2
*Model_Space
 70
     0
 10
0.0
 20
0.0
 30
0.0
  3
*Model_Space
  1

  0
ENDBLK
  5
21
330
1F
100
AcDbEntity
  8
0
100
AcDbBlockEnd
  0
BLOCK
  5
1C
330
1B
100
AcDbEntity
 67
     1
  8
0
100
AcDbBlockBegin
  2
*Paper_Space
 70
     0
 10
0.0
 20
0.0
 30
0.0
  3
*Paper_Space
  1

  0
ENDBLK
  5
1D
330
1B
100
AcDbEntity
 67
     1
  8
0
100
AcDbBlockEnd
  0
BLOCK
  5
24
330
23
100
AcDbEntity
  8
0
100
AcDbBlockBegin
  2
*Paper_Space0
 70
     0
 10
0.0
 20
0.0
 30
0.0
  3
*Paper_Space0
  1

  0
ENDBLK
  5
25
330
23
100
AcDbEntity
  8
0
100
AcDbBlockEnd
  0
BLOCK
  5
73
330
72
100
AcDbEntity
  8
0
100
AcDbBlockBegin
  2
_CLOSED
 70
     0
 10
0.0
 20
0.0
 30
0.0
  3
_CLOSED
  1

  0
LINE
  5
75
330
72
100
AcDbEntity
  8
0
  6
ByBlock
 62
     0
370
    -2
100
AcDbLine
 10
-1.0
 20
0.166667
 30
0.0
 11
0.0
 21
0.0
 31
0.0
  0
LINE
  5
76
330
72
100
AcDbEntity
  8
0
  6
ByBlock
 62
     0
370
    -2
100
AcDbLine
 10
0.0
 20
0.0
 30
0.0
 11
-1.0
 21
-0.166667
 31
0.0
  0
LINE
  5
77
330
72
100
AcDbEntity
  8
0
  6
ByBlock
 62
     0
370
    -2
100
AcDbLine
 10
-1.0
 20
0.166667
 30
0.0
 11
-1.0
 21
-0.166667
 31
0.0
  0
LINE
  5
78
330
72
100
AcDbEntity
  8
0
  6
ByBlock
 62
     0
370
    -2
100
AcDbLine
 10
0.0
 20
0.0
 30
0.0
 11
-1.0
 21
0.0
 31
0.0
  0
ENDBLK
  5
74
330
72
100
AcDbEntity
  8
0
100
AcDbBlockEnd
  0
BLOCK
  5
B9
330
7B
100
AcDbEntity
  8
0
100
AcDbBlockBegin
  2
a
 70
     0
 10
166.418564
 20
152.01738
 30
0.0
  3
a
  1

  0
LINE
  5
7C
330
7B
100
AcDbEntity
  8
0
  6
Continuous
 62
     0
370
    30
100
AcDbLine
 10
303.815506
 20
450.847388
 30
0.0
 11
303.808088
 21
449.997384
 31
0.0
  0
LINE
  5
7D
330
7B
100
AcDbEntity
  8
0
  6
Continuous
 62
     0
370
    30
100
AcDbLine
 10
268.815506
 20
450.847388
 30
0.0
 11
268.822924
 21
449.997384
 31
0.0
  0
LINE
  5
7E
330
7B
100
AcDbEntity
  8
0
  6
Continuous
 62
     0
370
    30
100
AcDbLine
 10
290.466184
 20
399.997384
 30
0.0
 11
291.031296
 21
399.997384
 31
0.0
  0
LINE
  5
7F
330
7B
100
AcDbEntity
  8
0
  6
Continuous
 62
     0
370
    30
100
AcDbLine
 10
281.599716
 20
399.997384
 30
0.0
 11
290.466184
 21
399.997384
 31
0.0
  0
LINE
  5
80
330
7B
100
AcDbEntity
  8
0
  6
Continuous
 62
     0
370
    30
100
AcDbLine
 10
267.315507
 20
449.997384
 30
0.0
 11
290.466184
 21
449.997384
 31
0.0
  0
LINE
  5
81
330
7B
100
AcDbEntity
  8
0
  6
Continuous
 62
     0
370
    30
100
AcDbLine
 10
290.466184
 20
449.997384
 30
0.0
 11
305.315507
 21
449.997384
 31
0.0
  0
LINE
  5
82
330
7B
100
AcDbEntity
  8
0
  6
Continuous
 62
     0
370
    30
100
AcDbLine
 10
305.315507
 20
449.997384
 30
0.0
 11
305.315507
 21
411.497383
 31
0.0
  0
LINE
  5
83
330
7B
100
AcDbEntity
  8
0
  6
Continuous
 62
     0
370
    30
100
AcDbLine
 10
267.315507
 20
449.997384
 30
0.0
 11
267.315507
 21
411.497383
 31
0.0
  0
LINE
  5
84
330
7B
100
AcDbEntity
  8
0
  6
Continuous
 62
     0
370
    30
100
AcDbLine
 10
306.915506
 20
464.797388
 30
0.0
 11
308.065506
 21
464.797388
 31
0.0
  0
LINE
  5
85
330
7B
100
AcDbEntity
  8
0
  6
Continuous
 62
     0
370
    30
100
AcDbLine
 10
266.815504
 20
464.797388
 30
0.0
 11
265.715506
 21
464.797388
 31
0.0
  0
LINE
  5
86
330
7B
100
AcDbEntity
  8
0
  6
Continuous
 62
     0
370
    30
100
AcDbLine
 10
306.915506
 20
464.797388
 30
0.0
 11
305.815506
 21
464.797388
 31
0.0
  0
LINE
  5
87
330
7B
100
AcDbEntity
  8
0
  6
Continuous
 62
     0
370
    30
100
AcDbLine
 10
264.565506
 20
464.797388
 30
0.0
 11
265.715506
 21
464.797388
 31
0.0
  0
ARC
  5
88
330
7B
100
AcDbEntity
  8
0
  6
Continuous
 62
     0
370
     0
100
AcDbCircle
 10
286.358732
 20
491.667843
 30
0.0
 40
4.451448179326729
100
AcDbArc
 50
349.378894
 51
90.556388
  0
ARC
  5
89
330
7B
100
AcDbEntity
  8
0
  6
Continuous
 62
     0
370
     0
100
AcDbCircle
 10
286.27228
 20
491.667843
 30
0.0
 40
4.451448179326437
100
AcDbArc
 50
89.443612
 51
190.621106
  0
LWPOLYLINE
  5
8A
330
7B
100
AcDbEntity
  8
0
  6
Continuous
 62
     0
370
    30
100
AcDbPolyline
 90
        7
 70
     0
 43
0.0
 10
266.815491
 20
467.828064
 10
266.489288
 20
467.349213
 10
266.219879
 20
466.864075
 10
266.00769
 20
466.373932
 10
265.852905
 20
465.879913
 10
265.755798
 20
465.38327
 10
265.715515
 20
464.797394
  0
LWPOLYLINE
  5
8B
330
7B
100
AcDbEntity
  8
0
  6
Continuous
 62
     0
370
    30
100
AcDbPolyline
 90
        7
 70
     0
 43
0.0
 10
305.815491
 20
467.828064
 10
306.141724
 20
467.349213
 10
306.411133
 20
466.864075
 10
306.623322
 20
466.373932
 10
306.778107
 20
465.879913
 10
306.875214
 20
465.38327
 10
306.915497
 20
464.797394
  0
LWPOLYLINE
  5
8C
330
7B
100
AcDbEntity
  8
0
  6
Continuous
 62
     0
370
    30
100
AcDbPolyline
 90
        9
 70
     0
 43
0.0
 10
305.815491
 20
469.227936
 10
306.335449
 20
468.706848
 10
306.788208
 20
468.174683
 10
307.173157
 20
467.633057
 10
307.489777
 20
467.083588
 10
307.737549
 20
466.527832
 10
307.916199
 20
465.967377
 10
308.025513
 20
465.403687
 10
308.065491
 20
464.797394
  0
LWPOLYLINE
  5
8D
330
7B
100
AcDbEntity
  8
0
  6
Continuous
 62
     0
370
    30
100
AcDbPolyline
 90
        9
 70
     0
 43
0.0
 10
264.565491
 20
464.797394
 10
264.600281
 20
465.362732
 10
264.704529
 20
465.926544
 10
264.878174
 20
466.487274
 10
265.121002
 20
467.043457
 10
265.432648
 20
467.593445
 10
265.812592
 20
468.135681
 10
266.260406
 20
468.668579
 10
266.815491
 20
469.227936
  0
LINE
  5
8E
330
7B
100
AcDbEntity
  8
0
  6
Continuous
 62
     0
370
     0
100
AcDbLine
 10
266.815504
 20
487.42138
 30
0.0
 11
266.094231
 21
487.42138
 31
0.0
  0
LINE
  5
8F
330
7B
100
AcDbEntity
  8
0
  6
Continuous
 62
     0
370
     0
100
AcDbLine
 10
306.536781
 20
487.42138
 30
0.0
 11
305.815504
 21
487.42138
 31
0.0
  0
ARC
  5
90
330
7B
100
AcDbEntity
  8
0
  6
Continuous
 62
     0
370
    30
100
AcDbCircle
 10
139.889874
 20
464.797243
 30
0.0
 40
168.1756319221284
100
AcDbArc
 50
0.000049
 51
7.731261
  0
ARC
  5
91
330
7B
100
AcDbEntity
  8
0
  6
Continuous
 62
     0
370
    30
100
AcDbCircle
 10
432.741138
 20
464.797243
 30
0.0
 40
168.1756319221343
100
AcDbArc
 50
172.268739
 51
179.999951
  0
ARC
  5
92
330
7B
100
AcDbEntity
  8
0
  6
Continuous
 62
     0
370
    30
100
AcDbCircle
 10
267.377456
 20
487.248601
 30
0.0
 40
1.294788906576495
100
AcDbArc
 50
115.72235
 51
172.331469
  0
ARC
  5
93
330
7B
100
AcDbEntity
  8
0
  6
Continuous
 62
     0
370
    30
100
AcDbCircle
 10
305.253555
 20
487.248601
 30
0.0
 40
1.294788986478168
100
AcDbArc
 50
7.668531
 51
64.277798
  0
LINE
  5
94
330
7B
100
AcDbEntity
  8
0
  6
Continuous
 62
     0
370
    30
100
AcDbLine
 10
290.815506
 20
491.687446
 30
0.0
 11
290.815506
 21
490.847381
 31
0.0
  0
LINE
  5
95
330
7B
100
AcDbEntity
  8
0
  6
Continuous
 62
     0
370
    30
100
AcDbLine
 10
281.815506
 20
491.687446
 30
0.0
 11
281.815506
 21
490.847381
 31
0.0
  0
LINE
  5
96
330
7B
100
AcDbEntity
  8
0
  6
Continuous
 62
     0
370
    30
100
AcDbLine
 10
290.815506
 20
491.688307
 30
0.0
 11
290.762389
 21
492.368404
 31
0.0
  0
LINE
  5
97
330
7B
100
AcDbEntity
  8
0
  6
Continuous
 62
     0
370
    30
100
AcDbLine
 10
281.815506
 20
491.688307
 30
0.0
 11
281.868623
 21
492.368404
 31
0.0
  0
LINE
  5
98
330
7B
100
AcDbEntity
  8
0
  6
Continuous
 62
     0
370
    30
100
AcDbLine
 10
305.815506
 20
411.497383
 30
0.0
 11
305.815506
 21
450.847381
 31
0.0
  0
LINE
  5
99
330
7B
100
AcDbEntity
  8
0
  6
Continuous
 62
     0
370
    30
100
AcDbLine
 10
266.815506
 20
411.497383
 30
0.0
 11
266.815506
 21
450.847381
 31
0.0
  0
CIRCLE
  5
9A
330
7B
100
AcDbEntity
  8
0
  6
Continuous
 62
     0
370
    30
100
AcDbCircle
 10
286.315505
 20
479.847382
 30
0.0
 40
4.650149520023733
  0
ARC
  5
9B
330
7B
100
AcDbEntity
  8
0
  6
Continuous
 62
     0
370
    30
100
AcDbCircle
 10
286.315367
 20
479.847349
 30
0.0
 40
4.799996409361457
100
AcDbArc
 50
281.749159
 51
89.998248
  0
ARC
  5
9C
330
7B
100
AcDbEntity
  8
0
  6
Continuous
 62
     0
370
    30
100
AcDbCircle
 10
286.31543
 20
479.846796
 30
0.0
 40
4.799441883046022
100
AcDbArc
 50
130.9255
 51
281.749765
  0
ARC
  5
9D
330
7B
100
AcDbEntity
  8
0
  6
Continuous
 62
     0
370
    30
100
AcDbCircle
 10
286.389384
 20
479.737878
 30
0.0
 40
4.860065084649601
100
AcDbArc
 50
90.871004
 51
118.924038
  0
ARC
  5
9E
330
7B
100
AcDbEntity
  8
0
  6
Continuous
 62
     0
370
    30
100
AcDbCircle
 10
286.281223
 20
479.828938
 30
0.0
 40
4.768566986455309
100
AcDbArc
 50
65.904066
 51
89.588096
  0
ARC
  5
9F
330
7B
100
AcDbEntity
  8
0
  6
Continuous
 62
     0
370
    30
100
AcDbCircle
 10
286.395376
 20
479.726623
 30
0.0
 40
4.615689043056619
100
AcDbArc
 50
257.35145
 51
343.59503
  0
LWPOLYLINE
  5
A0
330
7B
100
AcDbEntity
  8
0
  6
Continuous
 62
     0
370
    30
100
AcDbPolyline
 90
       50
 70
     0
 43
0.0
 10
266.815491
 20
450.847382
 10
266.855499
 20
450.847382
 10
266.975677
 20
450.847382
 10
267.17514
 20
450.847382
 10
267.453094
 20
450.847382
 10
267.808594
 20
450.847382
 10
268.240509
 20
450.847382
 10
268.746674
 20
450.847382
 10
269.324768
 20
450.847382
 10
269.972443
 20
450.847382
 10
270.687408
 20
450.847382
 10
271.466919
 20
450.847382
 10
272.307434
 20
450.847382
 10
273.205322
 20
450.847382
 10
274.156921
 20
450.847382
 10
275.158539
 20
450.847382
 10
276.206238
 20
450.847382
 10
277.295471
 20
450.847382
 10
278.421631
 20
450.847382
 10
279.580109
 20
450.847382
 10
280.766296
 20
450.847382
 10
281.975403
 20
450.847382
 10
283.202362
 20
450.847382
 10
284.442078
 20
450.847382
 10
285.689423
 20
450.847382
 10
286.939331
 20
450.847382
 10
288.186676
 20
450.847382
 10
289.426392
 20
450.847382
 10
290.653381
 20
450.847382
 10
291.862518
 20
450.847382
 10
293.048767
 20
450.847382
 10
294.207306
 20
450.847382
 10
295.333527
 20
450.847382
 10
296.422821
 20
450.847382
 10
297.470612
 20
450.847382
 10
298.472321
 20
450.847382
 10
299.424011
 20
450.847382
 10
300.32196
 20
450.847382
 10
301.162598
 20
450.847382
 10
301.94223
 20
450.847382
 10
302.657318
 20
450.847382
 10
303.305145
 20
450.847382
 10
303.883392
 20
450.847382
 10
304.389709
 20
450.847382
 10
304.821716
 20
450.847382
 10
305.177307
 20
450.847382
 10
305.455322
 20
450.847382
 10
305.654938
 20
450.847382
 10
305.77536
 20
450.847382
 10
305.815765
 20
450.847382
  0
LINE
  5
A1
330
7B
100
AcDbEntity
  8
0
  6
Continuous
 62
     0
370
    30
100
AcDbLine
 10
267.315504
 20
490.847381
 30
0.0
 11
305.315504
 21
490.847381
 31
0.0
  0
LWPOLYLINE
  5
A2
330
7B
100
AcDbEntity
  8
0
  6
Continuous
 62
     0
370
    30
100
AcDbPolyline
 90
       52
 70
     0
 43
0.0
 10
305.815491
 20
490.347382
 10
305.781311
 20
490.347382
 10
305.681396
 20
490.347382
 10
305.520142
 20
490.347382
 10
305.301636
 20
490.347382
 10
305.020325
 20
490.347382
 10
304.671417
 20
490.347382
 10
304.252655
 20
490.347382
 10
303.762421
 20
490.347382
 10
303.199829
 20
490.347382
 10
302.564789
 20
490.347382
 10
301.858154
 20
490.347382
 10
301.081635
 20
490.347382
 10
300.237946
 20
490.347382
 10
299.33075
 20
490.347382
 10
298.364594
 20
490.347382
 10
297.344849
 20
490.347382
 10
296.277679
 20
490.347382
 10
295.16983
 20
490.347382
 10
294.028564
 20
490.347382
 10
292.86142
 20
490.347382
 10
291.676117
 20
490.347382
 10
290.480408
 20
490.347382
 10
289.281799
 20
490.347382
 10
288.087585
 20
490.347382
 10
286.904602
 20
490.347382
 10
285.739136
 20
490.347382
 10
284.596893
 20
490.347382
 10
283.482941
 20
490.347382
 10
282.401581
 20
490.347382
 10
281.340485
 20
490.347382
 10
280.272827
 20
490.347382
 10
279.203369
 20
490.347382
 10
278.138306
 20
490.347382
 10
277.084198
 20
490.347382
 10
276.047913
 20
490.347382
 10
275.036621
 20
490.347382
 10
274.057526
 20
490.347382
 10
273.117859
 20
490.347382
 10
272.224579
 20
490.347382
 10
271.384338
 20
490.347382
 10
270.603271
 20
490.347382
 10
269.886871
 20
490.347382
 10
269.239807
 20
490.347382
 10
268.665924
 20
490.347382
 10
268.168152
 20
490.347382
 10
267.748291
 20
490.347382
 10
267.407288
 20
490.347382
 10
267.144958
 20
490.347382
 10
266.960327
 20
490.347382
 10
266.85141
 20
490.347382
 10
266.815491
 20
490.347382
  0
LINE
  5
A3
330
7B
100
AcDbEntity
  8
0
  6
Continuous
 62
     0
370
    30
100
AcDbLine
 10
266.815504
 20
450.847381
 30
0.0
 11
266.815504
 21
490.347381
 31
0.0
  0
LINE
  5
A4
330
7B
100
AcDbEntity
  8
0
  6
Continuous
 62
     0
370
    30
100
AcDbLine
 10
376.315506
 20
410.497383
 30
0.0
 11
196.315506
 21
410.497383
 31
0.0
  0
ARC
  5
A5
330
7B
100
AcDbEntity
  8
0
  6
Continuous
 62
     0
370
    30
100
AcDbCircle
 10
375.315506
 20
410.497383
 30
0.0
 40
0.9999999999991793
100
AcDbArc
 50
360.0
 51
90.0
  0
LINE
  5
A6
330
7B
100
AcDbEntity
  8
0
  6
Continuous
 62
     0
370
    30
100
AcDbLine
 10
197.315506
 20
411.497383
 30
0.0
 11
375.315506
 21
411.497383
 31
0.0
  0
ARC
  5
A7
330
7B
100
AcDbEntity
  8
0
  6
Continuous
 62
     0
370
    30
100
AcDbCircle
 10
283.152113
 20
401.407096
 30
0.0
 40
1.092486207800811
100
AcDbArc
 50
93.635845
 51
161.364155
  0
LINE
  5
A8
330
7B
100
AcDbEntity
  8
0
  6
Continuous
 62
     0
370
    30
100
AcDbLine
 10
291.886681
 20
399.497383
 30
0.0
 11
376.315506
 21
399.497383
 31
0.0
  0
LINE
  5
A9
330
7B
100
AcDbEntity
  8
0
  6
Continuous
 62
     0
370
    30
100
AcDbLine
 10
376.315506
 20
399.497383
 30
0.0
 11
376.315506
 21
410.497383
 31
0.0
  0
LINE
  5
AA
330
7B
100
AcDbEntity
  8
0
  6
Continuous
 62
     0
370
    30
100
AcDbLine
 10
376.315506
 20
410.497383
 30
0.0
 11
196.315506
 21
410.497383
 31
0.0
  0
LINE
  5
AB
330
7B
100
AcDbEntity
  8
0
  6
Continuous
 62
     0
370
    30
100
AcDbLine
 10
196.315506
 20
399.497383
 30
0.0
 11
280.744331
 21
399.497383
 31
0.0
  0
ARC
  5
AC
330
7B
100
AcDbEntity
  8
0
  6
Continuous
 62
     0
370
    30
100
AcDbCircle
 10
280.66847
 20
400.596248
 30
0.0
 40
1.10147997686401
100
AcDbArc
 50
273.949215
 51
341.050785
  0
LINE
  5
AD
330
7B
100
AcDbEntity
  8
0
  6
Continuous
 62
     0
370
    30
100
AcDbLine
 10
281.710257
 20
400.238564
 30
0.0
 11
282.116907
 21
401.756202
 31
0.0
  0
LINE
  5
AE
330
7B
100
AcDbEntity
  8
0
  6
Continuous
 62
     0
370
    30
100
AcDbLine
 10
283.082833
 20
402.497383
 30
0.0
 11
289.548179
 21
402.497383
 31
0.0
  0
ARC
  5
AF
330
7B
100
AcDbEntity
  8
0
  6
Continuous
 62
     0
370
    30
100
AcDbCircle
 10
289.472473
 20
401.398721
 30
0.0
 40
1.101267659574587
100
AcDbArc
 50
18.94189
 51
86.05811
  0
LINE
  5
B0
330
7B
100
AcDbEntity
  8
0
  6
Continuous
 62
     0
370
    30
100
AcDbLine
 10
290.514105
 20
401.756202
 30
0.0
 11
290.920755
 21
400.238564
 31
0.0
  0
ARC
  5
B1
330
7B
100
AcDbEntity
  8
0
  6
Continuous
 62
     0
370
    30
100
AcDbCircle
 10
291.962542
 20
400.596248
 30
0.0
 40
1.101479975786882
100
AcDbArc
 50
198.949215
 51
266.050785
  0
LINE
  5
B2
330
7B
100
AcDbEntity
  8
0
  6
Continuous
 62
     0
370
    30
100
AcDbLine
 10
291.886681
 20
399.497383
 30
0.0
 11
280.744331
 21
399.497383
 31
0.0
  0
LWPOLYLINE
  5
B3
330
7B
100
AcDbEntity
  8
0
  6
Continuous
 62
     0
370
    30
100
AcDbPolyline
 90
       52
 70
     0
 43
0.0
 10
291.886688
 20
399.497375
 10
294.540985
 20
399.497375
 10
297.18808
 20
399.497375
 10
299.825684
 20
399.497375
 10
302.451447
 20
399.497375
 10
305.06311
 20
399.497375
 10
307.658356
 20
399.497375
 10
310.234924
 20
399.497375
 10
312.790558
 20
399.497375
 10
315.323059
 20
399.497375
 10
317.8302
 20
399.497375
 10
320.309723
 20
399.497375
 10
322.759491
 20
399.497375
 10
325.177368
 20
399.497375
 10
327.56131
 20
399.497375
 10
329.909149
 20
399.497375
 10
332.218811
 20
399.497375
 10
334.488281
 20
399.497375
 10
336.715637
 20
399.497375
 10
338.898926
 20
399.497375
 10
341.036224
 20
399.497375
 10
343.12561
 20
399.497375
 10
345.165253
 20
399.497375
 10
347.153412
 20
399.497375
 10
349.088409
 20
399.497375
 10
350.968475
 20
399.497375
 10
352.791962
 20
399.497375
 10
354.55722
 20
399.497375
 10
356.262787
 20
399.497375
 10
357.907227
 20
399.497375
 10
359.489044
 20
399.497375
 10
361.006775
 20
399.497375
 10
362.459106
 20
399.497375
 10
363.844849
 20
399.497375
 10
365.162811
 20
399.497375
 10
366.411835
 20
399.497375
 10
367.590698
 20
399.497375
 10
368.698425
 20
399.497375
 10
369.73407
 20
399.497375
 10
370.696777
 20
399.497375
 10
371.585693
 20
399.497375
 10
372.399994
 20
399.497375
 10
373.138855
 20
399.497375
 10
373.801788
 20
399.497375
 10
374.388214
 20
399.497375
 10
374.897675
 20
399.497375
 10
375.329559
 20
399.497375
 10
375.683502
 20
399.497375
 10
375.959259
 20
399.497375
 10
376.156616
 20
399.497375
 10
376.275421
 20
399.497375
 10
376.315491
 20
399.497375
  0
LWPOLYLINE
  5
B4
330
7B
100
AcDbEntity
  8
0
  6
Continuous
 62
     0
370
    30
100
AcDbPolyline
 90
       52
 70
     0
 43
0.0
 10
196.315826
 20
399.497375
 10
196.355118
 20
399.497375
 10
196.472977
 20
399.497375
 10
196.669418
 20
399.497375
 10
196.944443
 20
399.497375
 10
197.297928
 20
399.497375
 10
197.729385
 20
399.497375
 10
198.238297
 20
399.497375
 10
198.824127
 20
399.497375
 10
199.486328
 20
399.497375
 10
200.22438
 20
399.497375
 10
201.03775
 20
399.497375
 10
201.925903
 20
399.497375
 10
202.888138
 20
399.497375
 10
203.923416
 20
399.497375
 10
205.030731
 20
399.497375
 10
206.209015
 20
399.497375
 10
207.457245
 20
399.497375
 10
208.774353
 20
399.497375
 10
210.159332
 20
399.497375
 10
211.611115
 20
399.497375
 10
213.128448
 20
399.497375
 10
214.709869
 20
399.497375
 10
216.353867
 20
399.497375
 10
218.05896
 20
399.497375
 10
219.823639
 20
399.497375
 10
221.646423
 20
399.497375
 10
223.525803
 20
399.497375
 10
225.460266
 20
399.497375
 10
227.448135
 20
399.497375
 10
229.487518
 20
399.497375
 10
231.576584
 20
399.497375
 10
233.713425
 20
399.497375
 10
235.896194
 20
399.497375
 10
238.123032
 20
399.497375
 10
240.392044
 20
399.497375
 10
242.70137
 20
399.497375
 10
245.04895
 20
399.497375
 10
247.432648
 20
399.497375
 10
249.850311
 20
399.497375
 10
252.29982
 20
399.497375
 10
254.779022
 20
399.497375
 10
257.285767
 20
399.497375
 10
259.817932
 20
399.497375
 10
262.373352
 20
399.497375
 10
264.949768
 20
399.497375
 10
267.544861
 20
399.497375
 10
270.156372
 20
399.497375
 10
272.782013
 20
399.497375
 10
275.419434
 20
399.497375
 10
278.066406
 20
399.497375
 10
280.744324
 20
399.497375
  0
LINE
  5
B5
330
7B
100
AcDbEntity
  8
0
  6
Continuous
 62
     0
370
    30
100
AcDbLine
 10
196.315506
 20
410.497383
 30
0.0
 11
196.315506
 21
399.497383
 31
0.0
  0
ARC
  5
B6
330
7B
100
AcDbEntity
  8
0
  6
Continuous
 62
     0
370
    30
100
AcDbCircle
 10
197.318963
 20
410.493926
 30
0.0
 40
1.003462686665573
100
AcDbArc
 50
90.197373
 51
179.802627
  0
LINE
  5
B7
330
7B
100
AcDbEntity
  8
0
  6
Continuous
 62
     0
370
    30
100
AcDbLine
 10
375.435623
 20
411.490049
 30
0.0
 11
375.315506
 21
411.497383
 31
0.0
  0
LINE
  5
B8
330
7B
100
AcDbEntity
  8
0
  6
Continuous
 62
     0
370
    30
100
AcDbLine
 10
305.815504
 20
490.347381
 30
0.0
 11
305.815504
 21
450.847381
 31
0.0
  0
ENDBLK
  5
BA
330
7B
100
AcDbEntity
  8
0
100
AcDbBlockEnd
  0
BLOCK
  5
129
330
BC
100
AcDbEntity
  8
0
100
AcDbBlockBegin
  2
b
 70
     0
 10
166.418564
 20
152.01738
 30
0.0
  3
b
  1

  0
LINE
  5
BD
330
BC
100
AcDbEntity
  8
0
  6
Continuous
 62
     0
370
    30
100
AcDbLine
 10
286.315506
 20
239.211524
 30
0.0
 11
282.365506
 21
239.211524
 31
0.0
  0
LINE
  5
BE
330
BC
100
AcDbEntity
  8
0
  6
Continuous
 62
     0
370
    30
100
AcDbLine
 10
290.265506
 20
239.211524
 30
0.0
 11
286.315506
 21
239.211524
 31
0.0
  0
LINE
  5
BF
330
BC
100
AcDbEntity
  8
0
  6
Continuous
 62
     0
370
    30
100
AcDbLine
 10
282.365506
 20
232.457261
 30
0.0
 11
282.365506
 21
239.211524
 31
0.0
  0
LINE
  5
C0
330
BC
100
AcDbEntity
  8
0
  6
Continuous
 62
     0
370
    30
100
AcDbLine
 10
290.265506
 20
232.457261
 30
0.0
 11
290.265506
 21
239.211524
 31
0.0
  0
ARC
  5
C1
330
BC
100
AcDbEntity
  8
0
  6
Continuous
 62
     0
370
    30
100
AcDbCircle
 10
286.315506
 20
284.861517
 30
0.0
 40
21.75
100
AcDbArc
 50
0.0
 51
78.059456
  0
ARC
  5
C2
330
BC
100
AcDbEntity
  8
0
  6
Continuous
 62
     0
370
    30
100
AcDbCircle
 10
286.315506
 20
284.861517
 30
0.0
 40
21.75
100
AcDbArc
 50
101.940544
 51
180.0
  0
ELLIPSE
  5
C3
330
BC
100
AcDbEntity
  8
0
  6
Continuous
 62
     0
370
     0
100
AcDbEllipse
 10
286.315506
 20
326.728051
 30
0.0
 11
3.586956482303133
 21
0.0
 31
0.0
210
0.0
220
0.0
230
-1.0
 40
0.173648
 41
5.485166351883406
 42
7.853981633974483
  0
ELLIPSE
  5
C4
330
BC
100
AcDbEntity
  8
0
  6
Continuous
 62
     0
370
     0
100
AcDbEllipse
 10
286.315506
 20
326.728051
 30
0.0
 11
3.586956482303133
 21
0.0
 31
0.0
210
0.0
220
0.0
230
-1.0
 40
0.173648
 41
1.570796326794897
 42
3.975245618258035
  0
ELLIPSE
  5
C5
330
BC
100
AcDbEntity
  8
0
  6
Continuous
 62
     0
370
     0
100
AcDbEllipse
 10
286.315506
 20
325.580568
 30
0.0
 11
4.499999999999973
 21
0.0
 31
0.0
210
0.0
220
0.0
230
-1.0
 40
0.173648
 41
6.283160945987355
 42
7.853981633974483
  0
ELLIPSE
  5
C6
330
BC
100
AcDbEntity
  8
0
  6
Continuous
 62
     0
370
     0
100
AcDbEllipse
 10
286.315506
 20
325.580568
 30
0.0
 11
4.499999999999973
 21
0.0
 31
0.0
210
0.0
220
0.0
230
-1.0
 40
0.173648
 41
1.570796326794897
 42
3.141629313551753
  0
ARC
  5
C7
330
BC
100
AcDbEntity
  8
0
  6
Continuous
 62
     0
370
    30
100
AcDbCircle
 10
286.315506
 20
285.161368
 30
0.0
 40
21.75206680818712
100
AcDbArc
 50
180.789843
 51
359.210157
  0
LWPOLYLINE
  5
C8
330
BC
100
AcDbEntity
  8
0
  6
Continuous
 62
     0
370
    30
100
AcDbPolyline
 90
       18
 70
     0
 43
0.0
 10
286.315521
 20
263.786285
 10
285.901459
 20
263.793823
 10
285.501984
 20
263.815765
 10
285.131134
 20
263.850311
 10
284.801025
 20
263.894714
 10
284.5224
 20
263.945435
 10
284.304688
 20
263.999054
 10
284.154114
 20
264.052216
 10
284.076294
 20
264.101562
 10
284.074127
 20
264.144775
 10
284.147614
 20
264.18042
 10
284.295471
 20
264.20755
 10
284.511841
 20
264.226868
 10
284.789886
 20
264.23941
 10
285.120483
 20
264.246552
 10
285.491638
 20
264.249969
 10
285.891022
 20
264.251373
 10
286.315491
 20
264.251709
  0
LWPOLYLINE
  5
C9
330
BC
100
AcDbEntity
  8
0
  6
Continuous
 62
     0
370
    30
100
AcDbPolyline
 90
       18
 70
     0
 43
0.0
 10
286.315491
 20
264.251709
 10
286.729553
 20
264.251373
 10
287.130035
 20
264.250061
 10
287.502289
 20
264.246674
 10
287.833893
 20
264.239594
 10
288.11319
 20
264.227203
 10
288.331451
 20
264.20813
 10
288.480835
 20
264.181091
 10
288.556091
 20
264.14563
 10
288.555664
 20
264.102631
 10
288.479187
 20
264.053253
 10
288.330261
 20
264.000183
 10
288.113708
 20
263.946564
 10
287.83606
 20
263.89566
 10
287.506897
 20
263.851074
 10
287.136475
 20
263.816315
 10
286.737244
 20
263.794128
 10
286.315521
 20
263.786285
  0
LWPOLYLINE
  5
CA
330
BC
100
AcDbEntity
  8
0
  6
Continuous
 62
     0
370
     0
100
AcDbPolyline
 90
       35
 70
     0
 43
0.0
 10
286.315491
 20
292.828094
 10
286.587463
 20
292.86911
 10
286.848419
 20
292.985535
 10
287.091858
 20
293.162354
 10
287.316284
 20
293.383759
 10
287.522949
 20
293.63736
 10
287.713867
 20
293.914337
 10
287.891174
 20
294.208618
 10
288.056732
 20
294.515991
 10
288.212097
 20
294.833557
 10
288.358521
 20
295.15921
 10
288.49707
 20
295.491364
 10
288.628571
 20
295.828857
 10
288.753693
 20
296.170807
 10
288.873047
 20
296.516541
 10
288.987091
 20
296.865448
 10
289.096222
 20
297.217163
 10
289.200775
 20
297.571228
 10
289.301025
 20
297.927399
 10
289.397217
 20
298.285431
 10
289.489563
 20
298.645081
 10
289.578217
 20
299.006165
 10
289.663361
 20
299.36853
 10
289.745087
 20
299.732025
 10
289.823517
 20
300.096558
 10
289.898743
 20
300.462006
 10
289.970825
 20
300.828278
 10
290.039856
 20
301.195282
 10
290.105896
 20
301.562958
 10
290.168945
 20
301.931183
 10
290.229065
 20
302.299927
 10
290.286285
 20
302.669159
 10
290.340637
 20
303.038757
 10
290.39212
 20
303.408691
 10
290.441406
 20
303.78421
  0
LINE
  5
CB
330
BC
100
AcDbEntity
  8
0
  6
Continuous
 62
     0
370
     0
100
AcDbLine
 10
290.799169
 20
306.069502
 30
0.0
 11
290.441404
 21
303.784221
 31
0.0
  0
LINE
  5
CC
330
BC
100
AcDbEntity
  8
0
  6
Continuous
 62
     0
370
     0
100
AcDbLine
 10
282.189608
 20
303.784221
 30
0.0
 11
281.831843
 21
306.069502
 31
0.0
  0
LWPOLYLINE
  5
CD
330
BC
100
AcDbEntity
  8
0
  6
Continuous
 62
     0
370
     0
100
AcDbPolyline
 90
       35
 70
     0
 43
0.0
 10
286.315491
 20
292.828094
 10
286.043549
 20
292.86911
 10
285.782593
 20
292.985535
 10
285.539154
 20
293.162354
 10
285.314728
 20
293.383759
 10
285.108063
 20
293.63736
 10
284.917145
 20
293.914337
 10
284.739838
 20
294.208618
 10
284.57428
 20
294.515991
 10
284.418915
 20
294.833557
 10
284.272491
 20
295.15921
 10
284.133942
 20
295.491364
 10
284.002441
 20
295.828857
 10
283.877319
 20
296.170807
 10
283.757965
 20
296.516541
 10
283.643921
 20
296.865448
 10
283.53479
 20
297.217163
 10
283.430237
 20
297.571228
 10
283.329987
 20
297.927399
 10
283.233795
 20
298.285431
 10
283.141449
 20
298.645081
 10
283.052795
 20
299.006165
 10
282.967651
 20
299.36853
 10
282.885925
 20
299.732025
 10
282.807495
 20
300.096558
 10
282.732269
 20
300.462006
 10
282.660187
 20
300.828278
 10
282.591156
 20
301.195282
 10
282.525116
 20
301.562958
 10
282.462067
 20
301.931183
 10
282.401947
 20
302.299927
 10
282.344727
 20
302.669159
 10
282.290375
 20
303.038757
 10
282.238892
 20
303.408691
 10
282.189606
 20
303.78421
  0
ARC
  5
CE
330
BC
100
AcDbEntity
  8
0
  6
Continuous
 62
     0
370
     0
100
AcDbCircle
 10
286.315506
 20
284.861516
 30
0.0
 40
20.22127512455449
100
AcDbArc
 50
106.959112
 51
73.040888
  0
LINE
  5
CF
330
BC
100
AcDbEntity
  8
0
  6
Continuous
 62
     0
370
     0
100
AcDbLine
 10
292.213833
 20
304.203432
 30
0.0
 11
292.133329
 21
303.198619
 31
0.0
  0
ARC
  5
D0
330
BC
100
AcDbEntity
  8
0
  6
Continuous
 62
     0
370
     0
100
AcDbCircle
 10
286.315506
 20
284.861516
 30
0.0
 40
19.2378900294556
100
AcDbArc
 50
107.6027
 51
72.3973
  0
LINE
  5
D1
330
BC
100
AcDbEntity
  8
0
  6
Continuous
 62
     0
370
     0
100
AcDbLine
 10
280.497683
 20
303.198619
 30
0.0
 11
280.417179
 21
304.203432
 31
0.0
  0
LWPOLYLINE
  5
D2
330
BC
100
AcDbEntity
  8
0
  6
Continuous
 62
     0
370
     0
100
AcDbPolyline
 90
       35
 70
     0
 43
0.0
 10
286.315491
 20
292.2995
 10
286.698944
 20
292.340118
 10
287.066772
 20
292.455536
 10
287.409973
 20
292.630737
 10
287.72641
 20
292.85022
 10
288.017761
 20
293.101654
 10
288.286926
 20
293.376282
 10
288.536896
 20
293.668152
 10
288.770325
 20
293.973083
 10
288.98938
 20
294.288177
 10
289.195862
 20
294.611328
 10
289.391205
 20
294.94104
 10
289.576599
 20
295.276123
 10
289.753021
 20
295.615723
 10
289.921295
 20
295.959137
 10
290.082092
 20
296.305817
 10
290.235962
 20
296.655304
 10
290.383392
 20
297.007263
 10
290.52475
 20
297.361359
 10
290.66037
 20
297.717377
 10
290.790558
 20
298.075104
 10
290.915588
 20
298.434357
 10
291.035614
 20
298.794952
 10
291.150848
 20
299.156769
 10
291.261444
 20
299.519684
 10
291.367523
 20
299.883606
 10
291.469177
 20
300.248413
 10
291.566528
 20
300.614044
 10
291.659637
 20
300.980438
 10
291.748566
 20
301.347473
 10
291.833344
 20
301.715088
 10
291.914062
 20
302.083252
 10
291.990692
 20
302.451904
 10
292.063293
 20
302.821014
 10
292.133331
 20
303.198608
  0
LWPOLYLINE
  5
D3
330
BC
100
AcDbEntity
  8
0
  6
Continuous
 62
     0
370
     0
100
AcDbPolyline
 90
       35
 70
     0
 43
0.0
 10
286.315491
 20
292.2995
 10
285.932068
 20
292.340118
 10
285.56424
 20
292.455536
 10
285.221039
 20
292.630737
 10
284.904602
 20
292.85022
 10
284.613251
 20
293.101654
 10
284.344086
 20
293.376282
 10
284.094116
 20
293.668152
 10
283.860687
 20
293.973083
 10
283.641632
 20
294.288177
 10
283.43515
 20
294.611328
 10
283.239807
 20
294.94104
 10
283.054413
 20
295.276123
 10
282.877991
 20
295.615723
 10
282.709717
 20
295.959137
 10
282.54892
 20
296.305817
 10
282.39505
 20
296.655304
 10
282.24762
 20
297.007263
 10
282.106262
 20
297.361359
 10
281.970642
 20
297.717377
 10
281.840454
 20
298.075104
 10
281.715424
 20
298.434357
 10
281.595398
 20
298.794952
 10
281.480164
 20
299.156769
 10
281.369568
 20
299.519684
 10
281.263489
 20
299.883606
 10
281.161835
 20
300.248413
 10
281.064484
 20
300.614044
 10
280.971375
 20
300.980438
 10
280.882446
 20
301.347473
 10
280.797668
 20
301.715088
 10
280.716949
 20
302.083252
 10
280.64032
 20
302.451904
 10
280.567719
 20
302.821014
 10
280.497681
 20
303.198608
  0
LINE
  5
D4
330
BC
100
AcDbEntity
  8
0
  6
Continuous
 62
     0
370
     0
100
AcDbLine
 10
291.458364
 20
304.705947
 30
0.0
 11
292.213833
 21
304.203432
 31
0.0
  0
LINE
  5
D5
330
BC
100
AcDbEntity
  8
0
  6
Continuous
 62
     0
370
     0
100
AcDbLine
 10
281.172648
 20
304.705947
 30
0.0
 11
280.417179
 21
304.203432
 31
0.0
  0
ARC
  5
D6
330
BC
100
AcDbEntity
  8
0
  6
Continuous
 62
     0
370
     0
100
AcDbCircle
 10
279.89167
 20
306.071081
 30
0.0
 40
1.940172943037973
100
AcDbArc
 50
285.715238
 51
359.953388
  0
ARC
  5
D7
330
BC
100
AcDbEntity
  8
0
  6
Continuous
 62
     0
370
     0
100
AcDbCircle
 10
292.739342
 20
306.071081
 30
0.0
 40
1.940172943037693
100
AcDbArc
 50
180.046612
 51
254.284762
  0
ELLIPSE
  5
D8
330
BC
100
AcDbEntity
  8
0
  6
Continuous
 62
     0
370
     0
100
AcDbEllipse
 10
292.275137
 20
303.645582
 30
0.0
 11
1.968435729685857
 21
-0.3539219943661195
 31
0.0
210
0.0
220
0.0
230
1.0
 40
0.232608
 41
3.557715507039171
 42
4.68214679403021
  0
LINE
  5
D9
330
BC
100
AcDbEntity
  8
0
  6
Continuous
 62
     0
370
     0
100
AcDbLine
 10
286.315506
 20
292.299486
 30
0.0
 11
286.315506
 21
292.828082
 31
0.0
  0
ELLIPSE
  5
DA
330
BC
100
AcDbEntity
  8
0
  6
Continuous
 62
     0
370
     0
100
AcDbEllipse
 10
280.355875
 20
303.645582
 30
0.0
 11
-1.968435729685865
 21
-0.3539219943661111
 31
0.0
210
0.0
220
0.0
230
-1.0
 40
0.232608
 41
3.55771550703918
 42
4.682146794030206
  0
LINE
  5
DB
330
BC
100
AcDbEntity
  8
0
  6
Continuous
 62
     0
370
    30
100
AcDbLine
 10
281.815532
 20
305.970211
 30
0.0
 11
281.56291
 21
305.085197
 31
0.0
  0
LINE
  5
DC
330
BC
100
AcDbEntity
  8
0
  6
Continuous
 62
     0
370
    30
100
AcDbLine
 10
291.068114
 20
305.085177
 30
0.0
 11
290.980453
 21
305.252133
 31
0.0
  0
LINE
  5
DD
330
BC
100
AcDbEntity
  8
0
  6
Continuous
 62
     0
370
    30
100
AcDbLine
 10
290.81548
 20
305.970211
 30
0.0
 11
291.068104
 21
305.085193
 31
0.0
  0
LINE
  5
DE
330
BC
100
AcDbEntity
  8
0
  6
Continuous
 62
     0
370
    30
100
AcDbLine
 10
290.815506
 20
325.580568
 30
0.0
 11
290.815506
 21
305.969873
 31
0.0
  0
LINE
  5
DF
330
BC
100
AcDbEntity
  8
0
  6
Continuous
 62
     0
370
    30
100
AcDbLine
 10
281.815506
 20
325.580568
 30
0.0
 11
281.815506
 21
305.969873
 31
0.0
  0
ARC
  5
E0
330
BC
100
AcDbEntity
  8
0
  6
Continuous
 62
     0
370
    30
100
AcDbCircle
 10
288.895986
 20
325.222552
 30
0.0
 40
1.952594213070105
100
AcDbArc
 50
10.560648
 51
92.19036
  0
ARC
  5
E1
330
BC
100
AcDbEntity
  8
0
  6
Continuous
 62
     0
370
    30
100
AcDbCircle
 10
283.735026
 20
325.222552
 30
0.0
 40
1.95259421307001
100
AcDbArc
 50
87.80964
 51
169.439352
  0
ARC
  5
E2
330
BC
100
AcDbEntity
  8
0
  6
Continuous
 62
     0
370
    30
100
AcDbCircle
 10
286.315423
 20
312.358033
 30
0.0
 40
15.02612091513807
100
AcDbArc
 50
80.4064
 51
99.233322
  0
LINE
  5
E3
330
BC
100
AcDbEntity
  8
0
  6
Continuous
 62
     0
370
    30
100
AcDbLine
 10
289.388207
 20
194.105127
 30
0.0
 11
291.115487
 21
194.105127
 31
0.0
  0
LWPOLYLINE
  5
E4
330
BC
100
AcDbEntity
  8
0
  6
Continuous
 62
     0
370
    30
100
AcDbPolyline
 90
        8
 70
     0
 43
0.0
 10
281.516113
 20
194.105133
 10
281.552948
 20
194.105133
 10
281.663452
 20
194.105133
 10
281.846008
 20
194.105133
 10
282.097443
 20
194.105133
 10
282.41449
 20
194.105133
 10
282.792328
 20
194.105133
 10
283.242798
 20
194.105133
  0
LINE
  5
E5
330
BC
100
AcDbEntity
  8
0
  6
Continuous
 62
     0
370
    30
100
AcDbLine
 10
284.919964
 20
193.911516
 30
0.0
 11
281.665778
 21
193.911516
 31
0.0
  0
LWPOLYLINE
  5
E6
330
BC
100
AcDbEntity
  8
0
  6
Continuous
 62
     0
370
    30
100
AcDbPolyline
 90
       11
 70
     0
 43
0.0
 10
290.965668
 20
193.911514
 10
290.928711
 20
193.911514
 10
290.818542
 20
193.911514
 10
290.636871
 20
193.911514
 10
290.386566
 20
193.911514
 10
290.071686
 20
193.911514
 10
289.697113
 20
193.911514
 10
289.26886
 20
193.911514
 10
288.793732
 20
193.911514
 10
288.279236
 20
193.911514
 10
287.71106
 20
193.911514
  0
ARC
  5
E7
330
BC
100
AcDbEntity
  8
0
  6
Continuous
 62
     0
370
    30
100
AcDbCircle
 10
286.315504
 20
213.361515
 30
0.0
 40
19.5000000000013
100
AcDbArc
 50
101.742836
 51
180.0
  0
ARC
  5
E8
330
BC
100
AcDbEntity
  8
0
  6
Continuous
 62
     0
370
    30
100
AcDbCircle
 10
286.315504
 20
213.361515
 30
0.0
 40
19.50000000000155
100
AcDbArc
 50
78.257164
 51
101.742836
  0
LINE
  5
E9
330
BC
100
AcDbEntity
  8
0
  6
Continuous
 62
     0
370
    30
100
AcDbLine
 10
290.284131
 20
232.453398
 30
0.0
 11
290.423917
 21
232.423806
 31
0.0
  0
ARC
  5
EA
330
BC
100
AcDbEntity
  8
0
  6
Continuous
 62
     0
370
    30
100
AcDbCircle
 10
286.315504
 20
213.361515
 30
0.0
 40
18.99999999999646
100
AcDbArc
 50
77.837336
 51
102.153197
  0
ARC
  5
EB
330
BC
100
AcDbEntity
  8
0
  6
Continuous
 62
     0
370
    30
100
AcDbCircle
 10
286.315504
 20
213.361515
 30
0.0
 40
18.99999999999671
100
AcDbArc
 50
102.153197
 51
77.837336
  0
ARC
  5
EC
330
BC
100
AcDbEntity
  8
0
  6
Continuous
 62
     0
370
    30
100
AcDbCircle
 10
286.315504
 20
213.361515
 30
0.0
 40
19.50000000000126
100
AcDbArc
 50
180.0
 51
77.837336
  0
CIRCLE
  5
ED
330
BC
100
AcDbEntity
  8
0
  6
Continuous
 62
     0
370
    30
100
AcDbCircle
 10
286.315506
 20
240.861521
 30
0.0
 40
89.99999999999996
  0
CIRCLE
  5
EE
330
BC
100
AcDbEntity
  8
0
  6
Continuous
 62
     0
370
     0
100
AcDbCircle
 10
286.315506
 20
240.861521
 30
0.0
 40
88.99999999999996
  0
ARC
  5
EF
330
BC
100
AcDbEntity
  8
0
  6
Continuous
 62
     0
370
     0
100
AcDbCircle
 10
286.316279
 20
213.361989
 30
0.0
 40
19.79922696127485
100
AcDbArc
 50
359.998646
 51
78.494401
  0
ARC
  5
F0
330
BC
100
AcDbEntity
  8
0
  6
Continuous
 62
     0
370
     0
100
AcDbCircle
 10
286.315072
 20
213.361454
 30
0.0
 40
19.79981620524422
100
AcDbArc
 50
101.506253
 51
256.544427
  0
ARC
  5
F1
330
BC
100
AcDbEntity
  8
0
  6
Continuous
 62
     0
370
     0
100
AcDbCircle
 10
286.316272
 20
213.360931
 30
0.0
 40
19.79923374964189
100
AcDbArc
 50
283.455033
 51
0.001707
  0
LWPOLYLINE
  5
F2
330
BC
100
AcDbEntity
  8
0
  6
Continuous
 62
     0
370
    30
100
AcDbPolyline
 90
      100
 70
     0
 43
0.0
 10
279.110901
 20
160.713837
 10
278.966492
 20
160.693008
 10
278.825409
 20
160.655457
 10
278.719543
 20
160.587952
 10
278.672699
 20
160.481384
 10
278.672729
 20
160.34491
 10
278.697235
 20
160.192902
 10
278.723999
 20
160.039658
 10
278.73938
 20
159.893906
 10
278.744629
 20
159.754669
 10
278.742523
 20
159.619995
 10
278.73584
 20
159.487961
 10
278.727356
 20
159.356613
 10
278.719879
 20
159.224014
 10
278.716125
 20
159.088242
 10
278.718719
 20
158.948044
 10
278.729462
 20
158.805481
 10
278.749908
 20
158.663513
 10
278.781647
 20
158.525116
 10
278.826233
 20
158.393295
 10
278.885254
 20
158.270996
 10
278.960236
 20
158.161209
 10
279.052399
 20
158.066605
 10
279.160278
 20
157.987671
 10
279.281281
 20
157.923935
 10
279.412842
 20
157.874954
 10
279.552368
 20
157.840256
 10
279.697266
 20
157.819397
 10
279.84494
 20
157.81192
 10
279.992828
 20
157.817383
 10
280.138519
 20
157.835846
 10
280.279724
 20
157.867599
 10
280.414185
 20
157.912979
 10
280.539581
 20
157.972336
 10
280.653656
 20
158.04599
 10
280.75412
 20
158.134262
 10
280.838776
 20
158.237396
 10
280.907196
 20
158.354034
 10
280.960449
 20
158.481339
 10
280.999664
 20
158.61644
 10
281.02597
 20
158.756485
 10
281.040527
 20
158.89859
 10
281.044434
 20
159.039886
 10
281.038879
 20
159.177567
 10
281.026123
 20
159.310791
 10
281.009949
 20
159.441528
 10
280.994354
 20
159.571945
 10
280.983185
 20
159.704178
 10
280.980377
 20
159.840393
 10
280.989899
 20
159.982758
 10
281.015625
 20
160.133408
 10
281.055359
 20
160.291092
 10
281.083618
 20
160.441528
 10
281.069458
 20
160.567398
 10
280.983093
 20
160.651535
 10
280.835815
 20
160.682831
 10
280.691406
 20
160.657776
 10
280.611572
 20
160.574722
 10
280.600281
 20
160.445923
 10
280.626465
 20
160.292114
 10
280.658539
 20
160.134109
 10
280.67218
 20
159.988129
 10
280.670746
 20
159.852554
 10
280.664246
 20
159.721512
 10
280.662598
 20
159.589157
 10
280.670074
 20
159.452484
 10
280.682068
 20
159.312912
 10
280.693268
 20
159.17218
 10
280.698364
 20
159.032059
 10
280.692078
 20
158.894348
 10
280.669037
 20
158.760788
 10
280.623962
 20
158.633148
 10
280.55307
 20
158.513504
 10
280.459198
 20
158.405136
 10
280.346771
 20
158.311615
 10
280.220306
 20
158.236542
 10
280.084259
 20
158.183502
 10
279.943085
 20
158.156082
 10
279.8013
 20
158.157867
 10
279.663025
 20
158.190033
 10
279.53186
 20
158.249008
 10
279.411224
 20
158.330704
 10
279.304657
 20
158.430954
 10
279.215546
 20
158.545654
 10
279.14743
 20
158.67067
 10
279.103546
 20
158.801956
 10
279.082489
 20
158.936935
 10
279.078461
 20
159.074402
 10
279.085571
 20
159.213211
 10
279.09787
 20
159.352188
 10
279.109436
 20
159.490219
 10
279.114349
 20
159.626144
 10
279.106689
 20
159.75882
 10
279.086487
 20
159.888885
 10
279.068054
 20
160.021332
 10
279.067871
 20
160.161789
 10
279.101013
 20
160.315292
 10
279.151123
 20
160.473236
 10
279.170776
 20
160.613586
 10
279.110901
 20
160.713837
  0
LINE
  5
F3
330
BC
100
AcDbEntity
  8
0
  6
Continuous
 62
     0
370
    30
100
AcDbLine
 10
276.305784
 20
158.256558
 30
0.0
 11
276.305784
 21
157.861291
 31
0.0
  0
LINE
  5
F4
330
BC
100
AcDbEntity
  8
0
  6
Continuous
 62
     0
370
    30
100
AcDbLine
 10
276.305784
 20
157.861291
 30
0.0
 11
278.45093
 21
157.861291
 31
0.0
  0
LINE
  5
F5
330
BC
100
AcDbEntity
  8
0
  6
Continuous
 62
     0
370
    30
100
AcDbLine
 10
278.45093
 20
157.861291
 30
0.0
 11
278.45093
 21
158.209246
 31
0.0
  0
LINE
  5
F6
330
BC
100
AcDbEntity
  8
0
  6
Continuous
 62
     0
370
    30
100
AcDbLine
 10
278.45093
 20
158.209246
 30
0.0
 11
276.760078
 21
158.209246
 31
0.0
  0
LINE
  5
F7
330
BC
100
AcDbEntity
  8
0
  6
Continuous
 62
     0
370
    30
100
AcDbLine
 10
276.760078
 20
158.209246
 30
0.0
 11
278.423139
 21
160.322696
 31
0.0
  0
LINE
  5
F8
330
BC
100
AcDbEntity
  8
0
  6
Continuous
 62
     0
370
    30
100
AcDbLine
 10
278.423139
 20
160.322696
 30
0.0
 11
278.423139
 21
160.713829
 31
0.0
  0
LINE
  5
F9
330
BC
100
AcDbEntity
  8
0
  6
Continuous
 62
     0
370
    30
100
AcDbLine
 10
278.423139
 20
160.713829
 30
0.0
 11
276.349193
 21
160.713829
 31
0.0
  0
LINE
  5
FA
330
BC
100
AcDbEntity
  8
0
  6
Continuous
 62
     0
370
    30
100
AcDbLine
 10
276.349193
 20
160.713829
 30
0.0
 11
276.349193
 21
160.366104
 31
0.0
  0
LINE
  5
FB
330
BC
100
AcDbEntity
  8
0
  6
Continuous
 62
     0
370
    30
100
AcDbLine
 10
276.349193
 20
160.366104
 30
0.0
 11
277.953114
 21
160.366104
 31
0.0
  0
LINE
  5
FC
330
BC
100
AcDbEntity
  8
0
  6
Continuous
 62
     0
370
    30
100
AcDbLine
 10
277.953114
 20
160.366104
 30
0.0
 11
276.305784
 21
158.256558
 31
0.0
  0
LWPOLYLINE
  5
FD
330
BC
100
AcDbEntity
  8
0
  6
Continuous
 62
     0
370
    30
100
AcDbPolyline
 90
      131
 70
     0
 43
0.0
 10
283.159332
 20
159.943512
 10
283.263611
 20
159.949814
 10
283.375702
 20
159.949829
 10
283.479218
 20
159.955124
 10
283.557861
 20
159.97728
 10
283.596039
 20
160.027145
 10
283.59201
 20
160.104126
 10
283.554962
 20
160.198441
 10
283.494385
 20
160.300018
 10
283.419769
 20
160.398849
 10
283.339905
 20
160.485748
 10
283.25769
 20
160.558426
 10
283.173248
 20
160.617889
 10
283.0867
 20
160.665192
 10
282.998138
 20
160.70134
 10
282.907715
 20
160.727386
 10
282.815491
 20
160.744354
 10
282.721619
 20
160.753265
 10
282.62619
 20
160.755157
 10
282.529327
 20
160.751053
 10
282.431519
 20
160.741425
 10
282.333588
 20
160.72612
 10
282.236542
 20
160.704926
 10
282.141235
 20
160.677643
 10
282.048584
 20
160.644089
 10
281.959503
 20
160.604034
 10
281.874939
 20
160.557281
 10
281.795807
 20
160.503647
 10
281.722961
 20
160.442902
 10
281.657135
 20
160.375046
 10
281.598175
 20
160.30072
 10
281.545715
 20
160.220734
 10
281.499359
 20
160.135864
 10
281.458801
 20
160.046921
 10
281.423676
 20
159.954697
 10
281.393585
 20
159.860001
 10
281.368256
 20
159.763626
 10
281.34726
 20
159.666382
 10
281.330261
 20
159.569031
 10
281.317261
 20
159.471954
 10
281.30835
 20
159.375198
 10
281.303772
 20
159.278778
 10
281.30368
 20
159.182709
 10
281.308319
 20
159.087006
 10
281.31778
 20
158.991699
 10
281.332336
 20
158.89679
 10
281.352142
 20
158.802292
 10
281.377411
 20
158.708252
 10
281.408234
 20
158.614792
 10
281.444733
 20
158.522659
 10
281.486877
 20
158.432724
 10
281.534729
 20
158.345901
 10
281.588226
 20
158.263062
 10
281.647461
 20
158.185104
 10
281.712402
 20
158.112915
 10
281.783051
 20
158.047409
 10
281.859467
 20
157.989456
 10
281.94162
 20
157.939911
 10
282.028961
 20
157.899017
 10
282.120605
 20
157.866501
 10
282.215607
 20
157.842041
 10
282.312958
 20
157.825333
 10
282.411774
 20
157.816071
 10
282.511108
 20
157.81395
 10
282.609955
 20
157.81868
 10
282.707428
 20
157.829926
 10
282.802551
 20
157.847412
 10
282.894562
 20
157.871017
 10
282.983246
 20
157.90126
 10
283.068512
 20
157.938736
 10
283.150269
 20
157.984055
 10
283.228394
 20
158.037827
 10
283.302734
 20
158.100677
 10
283.37326
 20
158.173187
 10
283.439789
 20
158.255997
 10
283.502258
 20
158.349686
 10
283.557343
 20
158.45253
 10
283.580597
 20
158.547379
 10
283.540466
 20
158.611389
 10
283.442841
 20
158.634659
 10
283.335602
 20
158.622101
 10
283.247559
 20
158.580643
 10
283.174316
 20
158.519287
 10
283.108582
 20
158.447189
 10
283.043121
 20
158.373535
 10
282.971588
 20
158.306503
 10
282.892975
 20
158.249023
 10
282.808167
 20
158.202194
 10
282.717926
 20
158.167145
 10
282.623138
 20
158.144958
 10
282.525177
 20
158.136353
 10
282.426697
 20
158.141251
 10
282.330414
 20
158.159454
 10
282.239105
 20
158.190796
 10
282.155487
 20
158.235062
 10
282.08075
 20
158.291443
 10
282.014435
 20
158.35849
 10
281.956085
 20
158.434723
 10
281.905182
 20
158.518616
 10
281.861176
 20
158.608704
 10
281.823608
 20
158.703461
 10
281.791962
 20
158.801437
 10
281.765686
 20
158.901108
 10
281.744293
 20
159.000992
 10
281.7276
 20
159.100067
 10
281.715912
 20
159.198242
 10
281.709686
 20
159.295517
 10
281.70932
 20
159.391907
 10
281.71524
 20
159.487396
 10
281.727905
 20
159.582031
 10
281.747681
 20
159.675797
 10
281.774994
 20
159.768707
 10
281.810303
 20
159.860779
 10
281.853943
 20
159.95192
 10
281.905792
 20
160.040863
 10
281.965393
 20
160.125641
 10
282.032257
 20
160.204269
 10
282.105927
 20
160.27475
 10
282.185944
 20
160.335083
 10
282.27179
 20
160.383301
 10
282.363007
 20
160.417374
 10
282.459137
 20
160.435349
 10
282.559601
 20
160.435364
 10
282.662201
 20
160.417664
 10
282.763611
 20
160.383957
 10
282.860474
 20
160.335999
 10
282.949432
 20
160.275558
 10
283.02713
 20
160.204361
 10
283.090271
 20
160.124191
 10
283.135437
 20
160.036774
 10
283.159332
 20
159.943512
  0
LWPOLYLINE
  5
FE
330
BC
100
AcDbEntity
  8
0
  6
Continuous
 62
     0
370
    30
100
AcDbPolyline
 90
      131
 70
     0
 43
0.0
 10
285.636261
 20
159.943512
 10
285.740509
 20
159.949814
 10
285.8526
 20
159.949829
 10
285.956146
 20
159.955124
 10
286.03476
 20
159.97728
 10
286.072937
 20
160.027161
 10
286.068909
 20
160.104141
 10
286.03186
 20
160.198456
 10
285.971283
 20
160.300034
 10
285.896667
 20
160.398865
 10
285.816803
 20
160.485764
 10
285.734589
 20
160.558441
 10
285.650116
 20
160.617905
 10
285.563568
 20
160.665207
 10
285.475037
 20
160.701355
 10
285.384583
 20
160.727386
 10
285.292389
 20
160.744354
 10
285.198486
 20
160.753265
 10
285.103058
 20
160.755157
 10
285.006195
 20
160.751053
 10
284.908386
 20
160.741425
 10
284.810455
 20
160.72612
 10
284.713409
 20
160.704926
 10
284.618073
 20
160.677643
 10
284.525421
 20
160.644089
 10
284.436371
 20
160.604034
 10
284.351807
 20
160.557281
 10
284.272644
 20
160.503647
 10
284.199829
 20
160.442902
 10
284.134003
 20
160.375046
 10
284.075043
 20
160.30072
 10
284.022583
 20
160.220718
 10
283.976227
 20
160.135849
 10
283.935669
 20
160.04689
 10
283.900543
 20
159.954681
 10
283.870483
 20
159.85997
 10
283.845123
 20
159.763596
 10
283.824127
 20
159.666351
 10
283.807159
 20
159.568985
 10
283.794128
 20
159.471924
 10
283.785248
 20
159.375168
 10
283.78067
 20
159.278748
 10
283.780579
 20
159.182663
 10
283.785217
 20
159.08696
 10
283.794708
 20
158.991653
 10
283.809235
 20
158.896744
 10
283.829041
 20
158.802246
 10
283.854309
 20
158.708206
 10
283.885132
 20
158.614746
 10
283.921631
 20
158.522614
 10
283.963776
 20
158.432678
 10
284.011627
 20
158.34584
 10
284.065125
 20
158.263
 10
284.124359
 20
158.185043
 10
284.189301
 20
158.112854
 10
284.259949
 20
158.047348
 10
284.336365
 20
157.989395
 10
284.418518
 20
157.93985
 10
284.50589
 20
157.898972
 10
284.597534
 20
157.866455
 10
284.692535
 20
157.84201
 10
284.789886
 20
157.825302
 10
284.888733
 20
157.816055
 10
284.988037
 20
157.81395
 10
285.086914
 20
157.81868
 10
285.184357
 20
157.829941
 10
285.27948
 20
157.847427
 10
285.37149
 20
157.871033
 10
285.460175
 20
157.901276
 10
285.545441
 20
157.938751
 10
285.627197
 20
157.98407
 10
285.705292
 20
158.037842
 10
285.779663
 20
158.100693
 10
285.850189
 20
158.173203
 10
285.916748
 20
158.255997
 10
285.979248
 20
158.349686
 10
286.034332
 20
158.452515
 10
286.057617
 20
158.547363
 10
286.017517
 20
158.611359
 10
285.919861
 20
158.634644
 10
285.812622
 20
158.622086
 10
285.724579
 20
158.580643
 10
285.651306
 20
158.519318
 10
285.585571
 20
158.447235
 10
285.520081
 20
158.373581
 10
285.448547
 20
158.306564
 10
285.369965
 20
158.249069
 10
285.285126
 20
158.20224
 10
285.194916
 20
158.167175
 10
285.100128
 20
158.144974
 10
285.002167
 20
158.136353
 10
284.903687
 20
158.141235
 10
284.807404
 20
158.159439
 10
284.716095
 20
158.190765
 10
284.632446
 20
158.235031
 10
284.557709
 20
158.291412
 10
284.491394
 20
158.358459
 10
284.433044
 20
158.434677
 10
284.382111
 20
158.51857
 10
284.338135
 20
158.608658
 10
284.300537
 20
158.70343
 10
284.26886
 20
158.801392
 10
284.242584
 20
158.901062
 10
284.221222
 20
159.000961
 10
284.204498
 20
159.100037
 10
284.192841
 20
159.198212
 10
284.186584
 20
159.295471
 10
284.186218
 20
159.391861
 10
284.192169
 20
159.487366
 10
284.204803
 20
159.582001
 10
284.224579
 20
159.675766
 10
284.251892
 20
159.768677
 10
284.287201
 20
159.860748
 10
284.330841
 20
159.951889
 10
284.38269
 20
160.040848
 10
284.442291
 20
160.125626
 10
284.509186
 20
160.204254
 10
284.582855
 20
160.274734
 10
284.662842
 20
160.335083
 10
284.748688
 20
160.383286
 10
284.839905
 20
160.417374
 10
284.936035
 20
160.435349
 10
285.036499
 20
160.435364
 10
285.139069
 20
160.417664
 10
285.240479
 20
160.383957
 10
285.337341
 20
160.335999
 10
285.4263
 20
160.275543
 10
285.504028
 20
160.204361
 10
285.567139
 20
160.124176
 10
285.612335
 20
160.036774
 10
285.636261
 20
159.943512
  0
LINE
  5
FF
330
BC
100
AcDbEntity
  8
0
  6
Continuous
 62
     0
370
    30
100
AcDbLine
 10
288.460537
 20
157.861521
 30
0.0
 11
288.460537
 21
160.713829
 31
0.0
  0
LINE
  5
100
330
BC
100
AcDbEntity
  8
0
  6
Continuous
 62
     0
370
    30
100
AcDbLine
 10
288.460537
 20
160.713829
 30
0.0
 11
288.065614
 21
160.713829
 31
0.0
  0
LINE
  5
101
330
BC
100
AcDbEntity
  8
0
  6
Continuous
 62
     0
370
    30
100
AcDbLine
 10
288.065614
 20
160.713829
 30
0.0
 11
288.065614
 21
159.489213
 31
0.0
  0
LINE
  5
102
330
BC
100
AcDbEntity
  8
0
  6
Continuous
 62
     0
370
    30
100
AcDbLine
 10
288.065614
 20
159.489213
 30
0.0
 11
286.710543
 21
159.489213
 31
0.0
  0
LINE
  5
103
330
BC
100
AcDbEntity
  8
0
  6
Continuous
 62
     0
370
    30
100
AcDbLine
 10
286.710543
 20
159.489213
 30
0.0
 11
286.710543
 21
160.713829
 31
0.0
  0
LINE
  5
104
330
BC
100
AcDbEntity
  8
0
  6
Continuous
 62
     0
370
    30
100
AcDbLine
 10
286.710543
 20
160.713829
 30
0.0
 11
286.315506
 21
160.713829
 31
0.0
  0
LINE
  5
105
330
BC
100
AcDbEntity
  8
0
  6
Continuous
 62
     0
370
    30
100
AcDbLine
 10
286.315506
 20
160.713829
 30
0.0
 11
286.315506
 21
157.861521
 31
0.0
  0
LINE
  5
106
330
BC
100
AcDbEntity
  8
0
  6
Continuous
 62
     0
370
    30
100
AcDbLine
 10
286.315506
 20
157.861521
 30
0.0
 11
286.710543
 21
157.861521
 31
0.0
  0
LINE
  5
107
330
BC
100
AcDbEntity
  8
0
  6
Continuous
 62
     0
370
    30
100
AcDbLine
 10
286.710543
 20
157.861521
 30
0.0
 11
286.710543
 21
159.149527
 31
0.0
  0
LINE
  5
108
330
BC
100
AcDbEntity
  8
0
  6
Continuous
 62
     0
370
    30
100
AcDbLine
 10
286.710543
 20
159.149527
 30
0.0
 11
288.065614
 21
159.149527
 31
0.0
  0
LINE
  5
109
330
BC
100
AcDbEntity
  8
0
  6
Continuous
 62
     0
370
    30
100
AcDbLine
 10
288.065614
 20
159.149527
 30
0.0
 11
288.065614
 21
157.861521
 31
0.0
  0
LINE
  5
10A
330
BC
100
AcDbEntity
  8
0
  6
Continuous
 62
     0
370
    30
100
AcDbLine
 10
288.065614
 20
157.861521
 30
0.0
 11
288.460537
 21
157.861521
 31
0.0
  0
LINE
  5
10B
330
BC
100
AcDbEntity
  8
0
  6
Continuous
 62
     0
370
    30
100
AcDbLine
 10
288.804242
 20
157.861521
 30
0.0
 11
290.625319
 21
157.861521
 31
0.0
  0
LINE
  5
10C
330
BC
100
AcDbEntity
  8
0
  6
Continuous
 62
     0
370
    30
100
AcDbLine
 10
290.625319
 20
157.861521
 30
0.0
 11
290.625319
 21
158.209246
 31
0.0
  0
LINE
  5
10D
330
BC
100
AcDbEntity
  8
0
  6
Continuous
 62
     0
370
    30
100
AcDbLine
 10
290.625319
 20
158.209246
 30
0.0
 11
289.19928
 21
158.209246
 31
0.0
  0
LINE
  5
10E
330
BC
100
AcDbEntity
  8
0
  6
Continuous
 62
     0
370
    30
100
AcDbLine
 10
289.19928
 20
158.209246
 30
0.0
 11
289.19928
 21
159.149527
 31
0.0
  0
LINE
  5
10F
330
BC
100
AcDbEntity
  8
0
  6
Continuous
 62
     0
370
    30
100
AcDbLine
 10
289.19928
 20
159.149527
 30
0.0
 11
290.526674
 21
159.149527
 31
0.0
  0
LINE
  5
110
330
BC
100
AcDbEntity
  8
0
  6
Continuous
 62
     0
370
    30
100
AcDbLine
 10
290.526674
 20
159.149527
 30
0.0
 11
290.526674
 21
159.489213
 31
0.0
  0
LINE
  5
111
330
BC
100
AcDbEntity
  8
0
  6
Continuous
 62
     0
370
    30
100
AcDbLine
 10
290.526674
 20
159.489213
 30
0.0
 11
289.19928
 21
159.489213
 31
0.0
  0
LINE
  5
112
330
BC
100
AcDbEntity
  8
0
  6
Continuous
 62
     0
370
    30
100
AcDbLine
 10
289.19928
 20
159.489213
 30
0.0
 11
289.19928
 21
160.365875
 31
0.0
  0
LINE
  5
113
330
BC
100
AcDbEntity
  8
0
  6
Continuous
 62
     0
370
    30
100
AcDbLine
 10
289.19928
 20
160.365875
 30
0.0
 11
291.798603
 21
160.365875
 31
0.0
  0
LINE
  5
114
330
BC
100
AcDbEntity
  8
0
  6
Continuous
 62
     0
370
    30
100
AcDbLine
 10
291.798603
 20
160.365875
 30
0.0
 11
291.798603
 21
157.861521
 31
0.0
  0
LINE
  5
115
330
BC
100
AcDbEntity
  8
0
  6
Continuous
 62
     0
370
    30
100
AcDbLine
 10
291.798603
 20
157.861521
 30
0.0
 11
292.189507
 21
157.861521
 31
0.0
  0
LINE
  5
116
330
BC
100
AcDbEntity
  8
0
  6
Continuous
 62
     0
370
    30
100
AcDbLine
 10
292.189507
 20
157.861521
 30
0.0
 11
292.189507
 21
160.365875
 31
0.0
  0
LINE
  5
117
330
BC
100
AcDbEntity
  8
0
  6
Continuous
 62
     0
370
    30
100
AcDbLine
 10
292.189507
 20
160.365875
 30
0.0
 11
293.550663
 21
160.365875
 31
0.0
  0
LINE
  5
118
330
BC
100
AcDbEntity
  8
0
  6
Continuous
 62
     0
370
    30
100
AcDbLine
 10
293.550663
 20
160.365875
 30
0.0
 11
293.550663
 21
157.861521
 31
0.0
  0
LINE
  5
119
330
BC
100
AcDbEntity
  8
0
  6
Continuous
 62
     0
370
    30
100
AcDbLine
 10
293.550663
 20
157.861521
 30
0.0
 11
293.941682
 21
157.861521
 31
0.0
  0
LINE
  5
11A
330
BC
100
AcDbEntity
  8
0
  6
Continuous
 62
     0
370
    30
100
AcDbLine
 10
293.941682
 20
157.861521
 30
0.0
 11
293.941682
 21
160.365875
 31
0.0
  0
LINE
  5
11B
330
BC
100
AcDbEntity
  8
0
  6
Continuous
 62
     0
370
    30
100
AcDbLine
 10
293.941682
 20
160.365875
 30
0.0
 11
294.897695
 21
160.365875
 31
0.0
  0
LINE
  5
11C
330
BC
100
AcDbEntity
  8
0
  6
Continuous
 62
     0
370
    30
100
AcDbLine
 10
294.897695
 20
160.365875
 30
0.0
 11
294.897695
 21
160.713829
 31
0.0
  0
LINE
  5
11D
330
BC
100
AcDbEntity
  8
0
  6
Continuous
 62
     0
370
    30
100
AcDbLine
 10
294.897695
 20
160.713829
 30
0.0
 11
288.804242
 21
160.713829
 31
0.0
  0
LINE
  5
11E
330
BC
100
AcDbEntity
  8
0
  6
Continuous
 62
     0
370
    30
100
AcDbLine
 10
288.804242
 20
160.713829
 30
0.0
 11
288.804242
 21
157.861521
 31
0.0
  0
LINE
  5
11F
330
BC
100
AcDbEntity
  8
0
  6
Continuous
 62
     0
370
    30
100
AcDbLine
 10
295.193859
 20
157.861521
 30
0.0
 11
295.589011
 21
157.861521
 31
0.0
  0
LINE
  5
120
330
BC
100
AcDbEntity
  8
0
  6
Continuous
 62
     0
370
    30
100
AcDbLine
 10
295.589011
 20
157.861521
 30
0.0
 11
295.589011
 21
160.713829
 31
0.0
  0
LINE
  5
121
330
BC
100
AcDbEntity
  8
0
  6
Continuous
 62
     0
370
    30
100
AcDbLine
 10
295.589011
 20
160.713829
 30
0.0
 11
295.193859
 21
160.713829
 31
0.0
  0
LINE
  5
122
330
BC
100
AcDbEntity
  8
0
  6
Continuous
 62
     0
370
    30
100
AcDbLine
 10
295.193859
 20
160.713829
 30
0.0
 11
295.193859
 21
157.861521
 31
0.0
  0
LINE
  5
123
330
BC
100
AcDbEntity
  8
0
  6
Continuous
 62
     0
370
    30
100
AcDbLine
 10
295.908716
 20
157.861521
 30
0.0
 11
296.305705
 21
157.861521
 31
0.0
  0
LINE
  5
124
330
BC
100
AcDbEntity
  8
0
  6
Continuous
 62
     0
370
    30
100
AcDbLine
 10
296.305705
 20
157.861521
 30
0.0
 11
296.305705
 21
158.612092
 31
0.0
  0
LINE
  5
125
330
BC
100
AcDbEntity
  8
0
  6
Continuous
 62
     0
370
    30
100
AcDbLine
 10
296.305705
 20
158.612092
 30
0.0
 11
295.908716
 21
158.612092
 31
0.0
  0
LINE
  5
126
330
BC
100
AcDbEntity
  8
0
  6
Continuous
 62
     0
370
    30
100
AcDbLine
 10
295.908716
 20
158.612092
 30
0.0
 11
295.908716
 21
157.861521
 31
0.0
  0
ARC
  5
127
330
BC
100
AcDbEntity
  8
0
  6
Continuous
 62
     0
370
    30
100
AcDbCircle
 10
286.297457
 20
208.03156
 30
0.0
 40
14.87170800909456
100
AcDbArc
 50
270.808909
 51
288.294294
  0
ARC
  5
128
330
BC
100
AcDbEntity
  8
0
  6
Continuous
 62
     0
370
    30
100
AcDbCircle
 10
286.320811
 20
207.956073
 30
0.0
 40
14.79604071772854
100
AcDbArc
 50
251.660798
 51
269.979453
  0
ENDBLK
  5
12A
330
BC
100
AcDbEntity
  8
0
100
AcDbBlockEnd
  0
BLOCK
  5
189
330
12C
100
AcDbEntity
  8
0
100
AcDbBlockBegin
  2
c
 70
     0
 10
166.418564
 20
152.01738
 30
0.0
  3
c
  1

  0
LINE
  5
12D
330
12C
100
AcDbEntity
  8
0
  6
Continuous
 62
     0
370
    30
100
AcDbLine
 10
524.794214
 20
450.847388
 30
0.0
 11
524.801632
 21
449.997384
 31
0.0
  0
LINE
  5
12E
330
12C
100
AcDbEntity
  8
0
  6
Continuous
 62
     0
370
    30
100
AcDbLine
 10
559.794214
 20
450.847388
 30
0.0
 11
559.786796
 21
449.997384
 31
0.0
  0
LINE
  5
12F
330
12C
100
AcDbEntity
  8
0
  6
Continuous
 62
     0
370
    30
100
AcDbLine
 10
523.753127
 20
449.997384
 30
0.0
 11
561.294213
 21
449.997384
 31
0.0
  0
LINE
  5
130
330
12C
100
AcDbEntity
  8
0
  6
Continuous
 62
     0
370
    30
100
AcDbLine
 10
523.294213
 20
449.997384
 30
0.0
 11
523.753127
 21
449.997384
 31
0.0
  0
LINE
  5
131
330
12C
100
AcDbEntity
  8
0
  6
Continuous
 62
     0
370
    30
100
AcDbLine
 10
523.294213
 20
449.997384
 30
0.0
 11
523.294213
 21
411.497383
 31
0.0
  0
LINE
  5
132
330
12C
100
AcDbEntity
  8
0
  6
Continuous
 62
     0
370
    30
100
AcDbLine
 10
561.294213
 20
449.997384
 30
0.0
 11
561.294213
 21
411.497383
 31
0.0
  0
LINE
  5
133
330
12C
100
AcDbEntity
  8
0
  6
Continuous
 62
     0
370
    30
100
AcDbLine
 10
522.826194
 20
483.797382
 30
0.0
 11
516.444206
 21
483.797382
 31
0.0
  0
LINE
  5
134
330
12C
100
AcDbEntity
  8
0
  6
Continuous
 62
     0
370
    30
100
AcDbLine
 10
516.444206
 20
483.797382
 30
0.0
 11
516.444206
 21
475.897382
 31
0.0
  0
LINE
  5
135
330
12C
100
AcDbEntity
  8
0
  6
Continuous
 62
     0
370
    30
100
AcDbLine
 10
516.444206
 20
483.797382
 30
0.0
 11
515.944206
 21
483.297382
 31
0.0
  0
LINE
  5
136
330
12C
100
AcDbEntity
  8
0
  6
Continuous
 62
     0
370
    30
100
AcDbLine
 10
515.944206
 20
483.297382
 30
0.0
 11
515.944206
 21
476.397382
 31
0.0
  0
LINE
  5
137
330
12C
100
AcDbEntity
  8
0
  6
Continuous
 62
     0
370
    30
100
AcDbLine
 10
515.944206
 20
476.397382
 30
0.0
 11
515.944206
 21
483.297382
 31
0.0
  0
LINE
  5
138
330
12C
100
AcDbEntity
  8
0
  6
Continuous
 62
     0
370
    30
100
AcDbLine
 10
522.82648
 20
475.897382
 30
0.0
 11
516.444206
 21
475.897382
 31
0.0
  0
LINE
  5
139
330
12C
100
AcDbEntity
  8
0
  6
Continuous
 62
     0
370
    30
100
AcDbLine
 10
470.794214
 20
464.797388
 30
0.0
 11
449.044213
 21
464.797388
 31
0.0
  0
ARC
  5
13A
330
12C
100
AcDbEntity
  8
0
  6
Continuous
 62
     0
370
    30
100
AcDbCircle
 10
443.271218
 20
489.360626
 30
0.0
 40
15.0
100
AcDbArc
 50
156.164777
 51
170.0
  0
LINE
  5
13B
330
12C
100
AcDbEntity
  8
0
  6
Continuous
 62
     0
370
     0
100
AcDbLine
 10
429.550547
 20
495.422241
 30
0.0
 11
428.30481
 21
488.357316
 31
0.0
  0
LINE
  5
13C
330
12C
100
AcDbEntity
  8
0
  6
Continuous
 62
     0
370
     0
100
AcDbLine
 10
430.856578
 20
496.119081
 30
0.0
 11
429.293745
 21
487.255812
 31
0.0
  0
ARC
  5
13D
330
12C
100
AcDbEntity
  8
0
  6
Continuous
 62
     0
370
    30
100
AcDbCircle
 10
430.648201
 20
494.937312
 30
0.0
 40
1.200000047683717
100
AcDbArc
 50
80.0
 51
156.164777
  0
LINE
  5
13E
330
12C
100
AcDbEntity
  8
0
  6
Continuous
 62
     0
370
    30
100
AcDbLine
 10
470.794214
 20
464.797388
 30
0.0
 11
492.246429
 21
474.800721
 31
0.0
  0
LWPOLYLINE
  5
13F
330
12C
100
AcDbEntity
  8
0
  6
Continuous
 62
     0
370
    30
100
AcDbPolyline
 90
       18
 70
     0
 43
0.0
 10
491.869446
 20
479.847382
 10
491.861908
 20
479.885864
 10
491.839935
 20
479.999817
 10
491.805328
 20
480.185059
 10
491.760895
 20
480.43454
 10
491.710114
 20
480.739532
 10
491.656433
 20
481.090271
 10
491.603241
 20
481.474792
 10
491.553864
 20
481.880737
 10
491.510681
 20
482.2948
 10
491.475098
 20
482.702759
 10
491.447998
 20
483.090607
 10
491.428711
 20
483.445251
 10
491.416229
 20
483.753815
 10
491.409119
 20
484.005646
 10
491.405731
 20
484.19278
 10
491.404358
 20
484.307953
 10
491.404022
 20
484.347382
  0
LINE
  5
140
330
12C
100
AcDbEntity
  8
0
  6
Continuous
 62
     0
370
    30
100
AcDbLine
 10
430.856578
 20
496.119081
 30
0.0
 11
462.827648
 21
490.481719
 31
0.0
  0
LWPOLYLINE
  5
141
330
12C
100
AcDbEntity
  8
0
  6
Continuous
 62
     0
370
     0
100
AcDbPolyline
 90
       15
 70
     0
 43
0.0
 10
449.174774
 20
483.750244
 10
449.151917
 20
483.78479
 10
449.109131
 20
483.88089
 10
449.081665
 20
484.028381
 10
449.089142
 20
484.2211
 10
449.119232
 20
484.45697
 10
449.163177
 20
484.732788
 10
449.218079
 20
485.044312
 10
449.279999
 20
485.387238
 10
449.344849
 20
485.757294
 10
449.40918
 20
486.149994
 10
449.466339
 20
486.561096
 10
449.509705
 20
486.985596
 10
449.546112
 20
487.419006
 10
449.586212
 20
487.858124
  0
LWPOLYLINE
  5
142
330
12C
100
AcDbEntity
  8
0
  6
Continuous
 62
     0
370
     0
100
AcDbPolyline
 90
        9
 70
     0
 43
0.0
 10
451.871521
 20
489.668243
 10
451.422333
 20
489.586792
 10
451.007477
 20
489.455383
 10
450.634888
 20
489.277069
 10
450.310699
 20
489.056091
 10
450.04007
 20
488.797485
 10
449.82608
 20
488.508026
 10
449.672211
 20
488.194153
 10
449.586212
 20
487.858124
  0
LWPOLYLINE
  5
143
330
12C
100
AcDbEntity
  8
0
  6
Continuous
 62
     0
370
     0
100
AcDbPolyline
 90
       35
 70
     0
 43
0.0
 10
462.827637
 20
490.48172
 10
462.786682
 20
490.480591
 10
462.670319
 20
490.477325
 10
462.493683
 20
490.472137
 10
462.2724
 20
490.465271
 10
462.018982
 20
490.456879
 10
461.742188
 20
490.447083
 10
461.44809
 20
490.435913
 10
461.1409
 20
490.423462
 10
460.823486
 20
490.409729
 10
460.498047
 20
490.394775
 10
460.166077
 20
490.37854
 10
459.828766
 20
490.361084
 10
459.486969
 20
490.342407
 10
459.141449
 20
490.322479
 10
458.792694
 20
490.301331
 10
458.441193
 20
490.278992
 10
458.08728
 20
490.255402
 10
457.731293
 20
490.230591
 10
457.373444
 20
490.20459
 10
457.013977
 20
490.177338
 10
456.653076
 20
490.148895
 10
456.290894
 20
490.119232
 10
455.927582
 20
490.088348
 10
455.563202
 20
490.056274
 10
455.197937
 20
490.02298
 10
454.831848
 20
489.988495
 10
454.465027
 20
489.952789
 10
454.097534
 20
489.915894
 10
453.729492
 20
489.877808
 10
453.360901
 20
489.838531
 10
452.991882
 20
489.798065
 10
452.622437
 20
489.756409
 10
452.252686
 20
489.713593
 10
451.871521
 20
489.668243
  0
LINE
  5
144
330
12C
100
AcDbEntity
  8
0
  6
Continuous
 62
     0
370
     0
100
AcDbLine
 10
491.015488
 20
487.42138
 30
0.0
 11
451.452298
 21
487.42138
 31
0.0
  0
LINE
  5
145
330
12C
100
AcDbEntity
  8
0
  6
Continuous
 62
     0
370
     0
100
AcDbLine
 10
490.032103
 20
488.510257
 30
0.0
 11
452.45711
 21
488.510257
 31
0.0
  0
LWPOLYLINE
  5
146
330
12C
100
AcDbEntity
  8
0
  6
Continuous
 62
     0
370
     0
100
AcDbPolyline
 90
        7
 70
     0
 43
0.0
 10
452.457123
 20
488.510254
 10
452.215393
 20
488.428894
 10
452.001007
 20
488.303589
 10
451.816803
 20
488.139038
 10
451.664886
 20
487.941437
 10
451.547943
 20
487.718353
 10
451.452301
 20
487.421387
  0
ARC
  5
147
330
12C
100
AcDbEntity
  8
0
  6
Continuous
 62
     0
370
    30
100
AcDbCircle
 10
470.794213
 20
408.745388
 30
0.0
 40
82.0519999999998
100
AcDbArc
 50
90.0
 51
95.200972
  0
LWPOLYLINE
  5
148
330
12C
100
AcDbEntity
  8
0
  6
Continuous
 62
     0
370
     0
100
AcDbPolyline
 90
       34
 70
     0
 43
0.0
 10
463.356232
 20
490.459564
 10
463.31308
 20
490.454681
 10
463.190918
 20
490.440704
 10
463.006256
 20
490.41922
 10
462.775909
 20
490.391815
 10
462.512909
 20
490.359741
 10
462.226379
 20
490.323853
 10
461.922455
 20
490.284668
 10
461.605438
 20
490.242584
 10
461.278229
 20
490.197876
 10
460.942902
 20
490.150726
 10
460.601074
 20
490.101227
 10
460.253876
 20
490.0495
 10
459.902161
 20
489.995636
 10
459.546661
 20
489.939636
 10
459.187897
 20
489.881622
 10
458.826324
 20
489.821564
 10
458.46228
 20
489.759521
 10
458.0961
 20
489.695526
 10
457.728027
 20
489.629578
 10
457.358276
 20
489.561707
 10
456.987
 20
489.491913
 10
456.61438
 20
489.420227
 10
456.24054
 20
489.34668
 10
455.865631
 20
489.271271
 10
455.489716
 20
489.19397
 10
455.112946
 20
489.114838
 10
454.735352
 20
489.033905
 10
454.357056
 20
488.951111
 10
453.978088
 20
488.866516
 10
453.598572
 20
488.780121
 10
453.218536
 20
488.691956
 10
452.838013
 20
488.60199
 10
452.457123
 20
488.510254
  0
ARC
  5
149
330
12C
100
AcDbEntity
  8
0
  6
Continuous
 62
     0
370
    30
100
AcDbCircle
 10
617.217698
 20
464.797388
 30
0.0
 40
168.1734848484853
100
AcDbArc
 50
173.903068
 51
180.0
  0
LWPOLYLINE
  5
14A
330
12C
100
AcDbEntity
  8
0
  6
Continuous
 62
     0
370
     0
100
AcDbPolyline
 90
       25
 70
     0
 43
0.0
 10
449.995453
 20
482.659241
 10
449.998413
 20
482.658325
 10
450.007751
 20
482.660889
 10
450.024109
 20
482.674225
 10
450.048126
 20
482.7052
 10
450.080353
 20
482.760925
 10
450.120789
 20
482.844604
 10
450.168854
 20
482.9552
 10
450.223633
 20
483.087921
 10
450.284393
 20
483.240631
 10
450.350616
 20
483.413513
 10
450.4216
 20
483.605652
 10
450.496643
 20
483.816132
 10
450.575043
 20
484.044128
 10
450.656036
 20
484.288727
 10
450.738861
 20
484.54895
 10
450.822845
 20
484.823822
 10
450.907104
 20
485.112457
 10
450.99115
 20
485.413513
 10
451.074432
 20
485.724945
 10
451.156067
 20
486.043762
 10
451.235962
 20
486.374207
 10
451.313507
 20
486.718964
 10
451.382324
 20
487.047485
 10
451.452301
 20
487.421387
  0
ARC
  5
14B
330
12C
100
AcDbEntity
  8
0
  6
Continuous
 62
     0
370
    30
100
AcDbCircle
 10
449.00112
 20
482.765443
 30
0.0
 40
1.000000000000001
100
AcDbArc
 50
353.903068
 51
80.0
  0
ELLIPSE
  5
14C
330
12C
100
AcDbEntity
  8
0
  6
Continuous
 62
     0
370
     0
100
AcDbEllipse
 10
449.556661
 20
487.690435
 30
0.0
 11
-1.97224498501819
 21
0.3320387312808573
 31
0.0
210
0.0
220
0.0
230
1.0
 40
0.08513
 41
3.43591436572159
 42
4.711729994643983
  0
ELLIPSE
  5
14D
330
12C
100
AcDbEntity
  8
0
  6
Continuous
 62
     0
370
     0
100
AcDbEllipse
 10
452.010147
 20
490.454509
 30
0.0
 11
0.4722631870754627
 21
-1.943442173601607
 31
0.0
210
0.0
220
0.0
230
1.0
 40
0.172107
 41
5.086713579082039
 42
6.211144866073053
  0
LINE
  5
14E
330
12C
100
AcDbEntity
  8
0
  6
Continuous
 62
     0
370
    30
100
AcDbLine
 10
449.803244
 20
483.3626
 30
0.0
 11
449.680475
 21
483.499217
 31
0.0
  0
LINE
  5
14F
330
12C
100
AcDbEntity
  8
0
  6
Continuous
 62
     0
370
    30
100
AcDbLine
 10
449.174768
 20
483.750251
 30
0.0
 11
449.351696
 21
483.701857
 31
0.0
  0
LINE
  5
150
330
12C
100
AcDbEntity
  8
0
  6
Continuous
 62
     0
370
    30
100
AcDbLine
 10
492.246419
 20
474.801053
 30
0.0
 11
491.86944
 21
479.847388
 31
0.0
  0
LINE
  5
151
330
12C
100
AcDbEntity
  8
0
  6
Continuous
 62
     0
370
    30
100
AcDbLine
 10
491.015488
 20
487.421381
 30
0.0
 11
491.404014
 21
484.347388
 31
0.0
  0
ARC
  5
152
330
12C
100
AcDbEntity
  8
0
  6
Continuous
 62
     0
370
    30
100
AcDbCircle
 10
470.793831
 20
408.742171
 30
0.0
 40
82.05521722868465
100
AcDbArc
 50
76.440488
 51
89.99838
  0
ARC
  5
153
330
12C
100
AcDbEntity
  8
0
  6
Continuous
 62
     0
370
    30
100
AcDbCircle
 10
489.726027
 20
487.245339
 30
0.0
 40
1.301422255540432
100
AcDbArc
 50
7.774101
 51
76.397188
  0
LINE
  5
154
330
12C
100
AcDbEntity
  8
0
  6
Continuous
 62
     0
370
    30
100
AcDbLine
 10
429.293745
 20
487.255812
 30
0.0
 11
449.174768
 21
483.750251
 31
0.0
  0
ARC
  5
155
330
12C
100
AcDbEntity
  8
0
  6
Continuous
 62
     0
370
    30
100
AcDbCircle
 10
429.504325
 20
488.439558
 30
0.0
 40
1.202330930646138
100
AcDbArc
 50
183.922212
 51
259.913012
  0
ARC
  5
156
330
12C
100
AcDbEntity
  8
0
  6
Continuous
 62
     0
370
    30
100
AcDbCircle
 10
443.277369
 20
489.360294
 30
0.0
 40
15.00611556198473
100
AcDbArc
 50
170.004213
 51
183.832391
  0
LINE
  5
157
330
12C
100
AcDbEntity
  8
0
  6
Continuous
 62
     0
370
    30
100
AcDbLine
 10
428.499102
 20
491.965348
 30
0.0
 11
428.579868
 21
492.387877
 31
0.0
  0
LINE
  5
158
330
12C
100
AcDbEntity
  8
0
  6
Continuous
 62
     0
370
     0
100
AcDbLine
 10
489.072901
 20
469.497383
 30
0.0
 11
480.873385
 21
469.497383
 31
0.0
  0
LINE
  5
159
330
12C
100
AcDbEntity
  8
0
  6
Continuous
 62
     0
370
     0
100
AcDbLine
 10
490.294212
 20
469.497383
 30
0.0
 11
489.072901
 21
469.497383
 31
0.0
  0
LINE
  5
15A
330
12C
100
AcDbEntity
  8
0
  6
Continuous
 62
     0
370
    30
100
AcDbLine
 10
490.294212
 20
411.497383
 30
0.0
 11
490.294212
 21
469.497383
 31
0.0
  0
LINE
  5
15B
330
12C
100
AcDbEntity
  8
0
  6
Continuous
 62
     0
370
    30
100
AcDbLine
 10
451.294212
 20
411.497383
 30
0.0
 11
451.294212
 21
464.797388
 31
0.0
  0
LWPOLYLINE
  5
15C
330
12C
100
AcDbEntity
  8
0
  6
Continuous
 62
     0
370
    30
100
AcDbPolyline
 90
       26
 70
     0
 43
0.0
 10
561.550598
 20
475.047394
 10
561.550598
 20
475.08493
 10
561.550598
 20
475.197266
 10
561.550598
 20
475.382355
 10
561.550598
 20
475.636566
 10
561.550598
 20
475.957367
 10
561.550598
 20
476.340607
 10
561.550598
 20
476.779388
 10
561.550598
 20
477.266541
 10
561.550598
 20
477.794495
 10
561.550598
 20
478.354584
 10
561.550598
 20
478.93811
 10
561.550598
 20
479.536163
 10
561.550598
 20
480.139191
 10
561.550598
 20
480.737549
 10
561.550598
 20
481.321747
 10
561.550598
 20
481.882782
 10
561.550598
 20
482.411835
 10
561.550598
 20
482.900269
 10
561.550598
 20
483.340637
 10
561.550598
 20
483.725769
 10
561.550598
 20
484.04892
 10
561.550598
 20
484.305481
 10
561.550598
 20
484.492371
 10
561.550598
 20
484.607025
 10
561.550598
 20
484.647339
  0
LINE
  5
15D
330
12C
100
AcDbEntity
  8
0
  6
Continuous
 62
     0
370
    30
100
AcDbLine
 10
561.744213
 20
484.396427
 30
0.0
 11
561.744213
 21
475.31259
 31
0.0
  0
LWPOLYLINE
  5
15E
330
12C
100
AcDbEntity
  8
0
  6
Continuous
 62
     0
370
    30
100
AcDbPolyline
 90
       26
 70
     0
 43
0.0
 10
561.294189
 20
484.647064
 10
561.294189
 20
484.609467
 10
561.294189
 20
484.496704
 10
561.294189
 20
484.310394
 10
561.294189
 20
484.054047
 10
561.294189
 20
483.731476
 10
561.294189
 20
483.347351
 10
561.294189
 20
482.908295
 10
561.294189
 20
482.421112
 10
561.294189
 20
481.893127
 10
561.294189
 20
481.332977
 10
561.294189
 20
480.749512
 10
561.294189
 20
480.151764
 10
561.294189
 20
479.549164
 10
561.294189
 20
478.951324
 10
561.294189
 20
478.367737
 10
561.294189
 20
477.807373
 10
561.294189
 20
477.278931
 10
561.294189
 20
476.791046
 10
561.294189
 20
476.351318
 10
561.294189
 20
475.966736
 10
561.294189
 20
475.644165
 10
561.294189
 20
475.388123
 10
561.294189
 20
475.201508
 10
561.294189
 20
475.08728
 10
561.294189
 20
475.047363
  0
LINE
  5
15F
330
12C
100
AcDbEntity
  8
0
  6
Continuous
 62
     0
370
    30
100
AcDbLine
 10
561.794214
 20
484.597381
 30
0.0
 11
561.443301
 21
482.847404
 31
0.0
  0
LINE
  5
160
330
12C
100
AcDbEntity
  8
0
  6
Continuous
 62
     0
370
    30
100
AcDbLine
 10
522.995508
 20
482.847425
 30
0.0
 11
522.794214
 21
483.947381
 31
0.0
  0
LWPOLYLINE
  5
161
330
12C
100
AcDbEntity
  8
0
  6
Continuous
 62
     0
370
    30
100
AcDbPolyline
 90
       26
 70
     0
 43
0.0
 10
522.793945
 20
450.847382
 10
522.832581
 20
450.847382
 10
522.947937
 20
450.847382
 10
523.139221
 20
450.847382
 10
523.405823
 20
450.847382
 10
523.746826
 20
450.847382
 10
524.161316
 20
450.847382
 10
524.647339
 20
450.847382
 10
525.202637
 20
450.847382
 10
525.825073
 20
450.847382
 10
526.51239
 20
450.847382
 10
527.262268
 20
450.847382
 10
528.071411
 20
450.847382
 10
528.936462
 20
450.847382
 10
529.853943
 20
450.847382
 10
530.820435
 20
450.847382
 10
531.832336
 20
450.847382
 10
532.885559
 20
450.847382
 10
533.975769
 20
450.847382
 10
535.098633
 20
450.847382
 10
536.249756
 20
450.847382
 10
537.424866
 20
450.847382
 10
538.619202
 20
450.847382
 10
539.828003
 20
450.847382
 10
541.046448
 20
450.847382
 10
542.294189
 20
450.847382
  0
LINE
  5
162
330
12C
100
AcDbEntity
  8
0
  6
Continuous
 62
     0
370
    30
100
AcDbLine
 10
542.294215
 20
450.847381
 30
0.0
 11
561.79448
 21
450.847381
 31
0.0
  0
LINE
  5
163
330
12C
100
AcDbEntity
  8
0
  6
Continuous
 62
     0
370
    30
100
AcDbLine
 10
542.294215
 20
490.347381
 30
0.0
 11
523.202331
 21
490.347381
 31
0.0
  0
LINE
  5
164
330
12C
100
AcDbEntity
  8
0
  6
Continuous
 62
     0
370
    30
100
AcDbLine
 10
523.202331
 20
490.347381
 30
0.0
 11
522.794214
 21
490.347381
 31
0.0
  0
LINE
  5
165
330
12C
100
AcDbEntity
  8
0
  6
Continuous
 62
     0
370
    30
100
AcDbLine
 10
523.720039
 20
490.847381
 30
0.0
 11
561.294214
 21
490.847381
 31
0.0
  0
LWPOLYLINE
  5
166
330
12C
100
AcDbEntity
  8
0
  6
Continuous
 62
     0
370
    30
100
AcDbPolyline
 90
       26
 70
     0
 43
0.0
 10
561.794189
 20
490.347382
 10
561.758728
 20
490.347382
 10
561.65509
 20
490.347382
 10
561.487976
 20
490.347382
 10
561.261414
 20
490.347382
 10
560.969055
 20
490.347382
 10
560.606262
 20
490.347382
 10
560.170715
 20
490.347382
 10
559.660767
 20
490.347382
 10
559.075684
 20
490.347382
 10
558.415466
 20
490.347382
 10
557.681213
 20
490.347382
 10
556.874878
 20
490.347382
 10
555.999634
 20
490.347382
 10
555.059509
 20
490.347382
 10
554.05957
 20
490.347382
 10
553.005798
 20
490.347382
 10
551.904785
 20
490.347382
 10
550.763977
 20
490.347382
 10
549.591064
 20
490.347382
 10
548.394104
 20
490.347382
 10
547.181396
 20
490.347382
 10
545.960999
 20
490.347382
 10
544.740784
 20
490.347382
 10
543.52832
 20
490.347382
 10
542.294189
 20
490.347382
  0
LINE
  5
167
330
12C
100
AcDbEntity
  8
0
  6
Continuous
 62
     0
370
    30
100
AcDbLine
 10
523.720039
 20
490.847381
 30
0.0
 11
523.294214
 21
490.847381
 31
0.0
  0
LINE
  5
168
330
12C
100
AcDbEntity
  8
0
  6
Continuous
 62
     0
370
    30
100
AcDbLine
 10
542.294215
 20
490.347381
 30
0.0
 11
561.794214
 21
490.347381
 31
0.0
  0
LINE
  5
169
330
12C
100
AcDbEntity
  8
0
  6
Continuous
 62
     0
370
    30
100
AcDbLine
 10
523.202331
 20
490.347381
 30
0.0
 11
542.294215
 21
490.347381
 31
0.0
  0
ARC
  5
16A
330
12C
100
AcDbEntity
  8
0
  6
Continuous
 62
     0
370
    30
100
AcDbCircle
 10
503.588241
 20
479.844753
 30
0.0
 40
19.63817365504355
100
AcDbArc
 50
347.957147
 51
8.79488
  0
ARC
  5
16B
330
12C
100
AcDbEntity
  8
0
  6
Continuous
 62
     0
370
    30
100
AcDbCircle
 10
581.199694
 20
479.836697
 30
0.0
 40
19.98447511201638
100
AcDbArc
 50
171.335281
 51
193.335718
  0
LWPOLYLINE
  5
16C
330
12C
100
AcDbEntity
  8
0
  6
Continuous
 62
     0
370
    30
100
AcDbPolyline
 90
       36
 70
     0
 43
0.0
 10
523.77948
 20
455.439758
 10
523.743713
 20
455.505676
 10
523.708374
 20
455.571564
 10
523.673462
 20
455.637451
 10
523.639221
 20
455.7034
 10
523.605591
 20
455.769409
 10
523.572693
 20
455.83551
 10
523.540588
 20
455.901642
 10
523.509216
 20
455.967712
 10
523.478577
 20
456.0336
 10
523.448547
 20
456.099213
 10
523.419189
 20
456.164459
 10
523.390442
 20
456.229614
 10
523.362366
 20
456.295044
 10
523.3349
 20
456.361053
 10
523.308044
 20
456.428101
 10
523.281799
 20
456.496429
 10
523.256165
 20
456.565308
 10
523.231323
 20
456.633362
 10
523.207275
 20
456.699219
 10
523.184082
 20
456.761505
 10
523.161865
 20
456.819031
 10
523.140442
 20
456.873962
 10
523.119568
 20
456.931396
 10
523.098877
 20
456.99646
 10
523.078125
 20
457.07431
 10
523.057007
 20
457.169769
 10
523.035889
 20
457.276642
 10
523.015869
 20
457.376434
 10
522.998108
 20
457.449951
 10
522.983826
 20
457.477997
 10
522.974121
 20
457.441711
 10
522.969055
 20
457.339355
 10
522.967346
 20
457.19519
 10
522.967407
 20
457.035675
 10
522.967712
 20
456.884796
  0
LINE
  5
16D
330
12C
100
AcDbEntity
  8
0
  6
Continuous
 62
     0
370
    30
100
AcDbLine
 10
522.967722
 20
456.884803
 30
0.0
 11
522.967722
 21
453.994739
 31
0.0
  0
LWPOLYLINE
  5
16E
330
12C
100
AcDbEntity
  8
0
  6
Continuous
 62
     0
370
    30
100
AcDbPolyline
 90
       36
 70
     0
 43
0.0
 10
522.967712
 20
453.994751
 10
522.967407
 20
453.846771
 10
522.967346
 20
453.687225
 10
522.968994
 20
453.542542
 10
522.973999
 20
453.439178
 10
522.983643
 20
453.401581
 10
522.997864
 20
453.428619
 10
523.015503
 20
453.501465
 10
523.035461
 20
453.600952
 10
523.05658
 20
453.707855
 10
523.077698
 20
453.80365
 10
523.098511
 20
453.881775
 10
523.119141
 20
453.947021
 10
523.140015
 20
454.004547
 10
523.161438
 20
454.059479
 10
523.183655
 20
454.116913
 10
523.206787
 20
454.179138
 10
523.230835
 20
454.244934
 10
523.255737
 20
454.312988
 10
523.281311
 20
454.381866
 10
523.307556
 20
454.450195
 10
523.334412
 20
454.517242
 10
523.361877
 20
454.583313
 10
523.389954
 20
454.648712
 10
523.41864
 20
454.713867
 10
523.447998
 20
454.779144
 10
523.477966
 20
454.844727
 10
523.508667
 20
454.910614
 10
523.540039
 20
454.976685
 10
523.572144
 20
455.042816
 10
523.60498
 20
455.108917
 10
523.63855
 20
455.174927
 10
523.672852
 20
455.240875
 10
523.707703
 20
455.306763
 10
523.743103
 20
455.37265
 10
523.77948
 20
455.439758
  0
LWPOLYLINE
  5
16F
330
12C
100
AcDbEntity
  8
0
  6
Continuous
 62
     0
370
    30
100
AcDbPolyline
 90
       55
 70
     0
 43
0.0
 10
523.143066
 20
455.209991
 10
523.121704
 20
455.213898
 10
523.10144
 20
455.220367
 10
523.081299
 20
455.223328
 10
523.060486
 20
455.216675
 10
523.038513
 20
455.197571
 10
523.019165
 20
455.198853
 10
523.008728
 20
455.272217
 10
523.008667
 20
455.403473
 10
523.016602
 20
455.522583
 10
523.030701
 20
455.593811
 10
523.049805
 20
455.62912
 10
523.072815
 20
455.643799
 10
523.098083
 20
455.652863
 10
523.121704
 20
455.67041
 10
523.139282
 20
455.710266
 10
523.146606
 20
455.785889
 10
523.144531
 20
455.89679
 10
523.139099
 20
456.027435
 10
523.136719
 20
456.161469
 10
523.14386
 20
456.282471
 10
523.16333
 20
456.375214
 10
523.188232
 20
456.427307
 10
523.210266
 20
456.426788
 10
523.222473
 20
456.364868
 10
523.226074
 20
456.253418
 10
523.226013
 20
456.112854
 10
523.227112
 20
455.96347
 10
523.233398
 20
455.824951
 10
523.246155
 20
455.714111
 10
523.265869
 20
455.647003
 10
523.292358
 20
455.634033
 10
523.322815
 20
455.654053
 10
523.35321
 20
455.674896
 10
523.379517
 20
455.664429
 10
523.397949
 20
455.59259
 10
523.406738
 20
455.466675
 10
523.405884
 20
455.32608
 10
523.395569
 20
455.211273
 10
523.376221
 20
455.154144
 10
523.349854
 20
455.146149
 10
523.319092
 20
455.166809
 10
523.286316
 20
455.195709
 10
523.254333
 20
455.212189
 10
523.229492
 20
455.193054
 10
523.219971
 20
455.115784
 10
523.223511
 20
454.988464
 10
523.231079
 20
454.839447
 10
523.236389
 20
454.691284
 10
523.236206
 20
454.560028
 10
523.227356
 20
454.461426
 10
523.20697
 20
454.411011
 10
523.178467
 20
454.415131
 10
523.152954
 20
454.469452
 10
523.141907
 20
454.569916
  0
LINE
  5
170
330
12C
100
AcDbEntity
  8
0
  6
Continuous
 62
     0
370
    30
100
AcDbLine
 10
523.141882
 20
454.569903
 30
0.0
 11
523.143058
 21
455.209992
 31
0.0
  0
LWPOLYLINE
  5
171
330
12C
100
AcDbEntity
  8
0
  6
Continuous
 62
     0
370
    30
100
AcDbPolyline
 90
       36
 70
     0
 43
0.0
 10
522.804688
 20
453.370728
 10
522.811951
 20
453.40509
 10
522.820801
 20
453.483337
 10
522.829956
 20
453.599243
 10
522.838257
 20
453.746613
 10
522.844299
 20
453.91925
 10
522.847107
 20
454.110107
 10
522.846863
 20
454.308716
 10
522.844055
 20
454.503815
 10
522.83905
 20
454.684082
 10
522.832397
 20
454.838196
 10
522.824524
 20
454.956696
 10
522.816223
 20
455.038055
 10
522.808289
 20
455.082825
 10
522.801514
 20
455.091583
 10
522.796753
 20
455.06485
 10
522.794495
 20
455.011841
 10
522.79425
 20
454.97937
 10
522.79541
 20
455.016571
 10
522.798035
 20
455.101196
 10
522.802856
 20
455.173248
 10
522.81012
 20
455.188782
 10
522.819092
 20
455.148773
 10
522.828735
 20
455.062012
 10
522.838257
 20
454.937164
 10
522.846619
 20
454.782959
 10
522.853027
 20
454.60791
 10
522.857178
 20
454.419678
 10
522.858765
 20
454.225891
 10
522.857605
 20
454.034027
 10
522.853455
 20
453.851685
 10
522.846313
 20
453.686127
 10
522.837158
 20
453.543335
 10
522.827026
 20
453.429108
 10
522.817261
 20
453.349182
 10
522.808838
 20
453.309082
  0
LINE
  5
172
330
12C
100
AcDbEntity
  8
0
  6
Continuous
 62
     0
370
    30
100
AcDbLine
 10
522.808809
 20
453.309075
 30
0.0
 11
522.807715
 21
453.665826
 31
0.0
  0
LWPOLYLINE
  5
173
330
12C
100
AcDbEntity
  8
0
  6
Continuous
 62
     0
370
    30
100
AcDbPolyline
 90
       48
 70
     0
 43
0.0
 10
522.807739
 20
453.665833
 10
522.811096
 20
453.737152
 10
522.814941
 20
453.812622
 10
522.818909
 20
453.892456
 10
522.82251
 20
453.976715
 10
522.825378
 20
454.065582
 10
522.827026
 20
454.15918
 10
522.827087
 20
454.257568
 10
522.8255
 20
454.358429
 10
522.822632
 20
454.456299
 10
522.818787
 20
454.54541
 10
522.814514
 20
454.619995
 10
522.810059
 20
454.674286
 10
522.805969
 20
454.702576
 10
522.80249
 20
454.699982
 10
522.799805
 20
454.667084
 10
522.797791
 20
454.606537
 10
522.79657
 20
454.521118
 10
522.795898
 20
454.417938
 10
522.795715
 20
454.311798
 10
522.795654
 20
454.218231
 10
522.795532
 20
454.150909
 10
522.795349
 20
454.107086
 10
522.79541
 20
454.075073
 10
522.795593
 20
454.056183
 10
522.795654
 20
454.090881
 10
522.79541
 20
454.19397
 10
522.795288
 20
454.313538
 10
522.795654
 20
454.41803
 10
522.796692
 20
454.50296
 10
522.798401
 20
454.564941
 10
522.801025
 20
454.600891
 10
522.804199
 20
454.608948
 10
522.807739
 20
454.587524
 10
522.81134
 20
454.535217
 10
522.814575
 20
454.456146
 10
522.816956
 20
454.359619
 10
522.817932
 20
454.255249
 10
522.817261
 20
454.151703
 10
522.815125
 20
454.054443
 10
522.812134
 20
453.96814
 10
522.808655
 20
453.897003
 10
522.80542
 20
453.835999
 10
522.80304
 20
453.770721
 10
522.802246
 20
453.687531
 10
522.802795
 20
453.586761
 10
522.803894
 20
453.47818
 10
522.804688
 20
453.370728
  0
LWPOLYLINE
  5
174
330
12C
100
AcDbEntity
  8
0
  6
Continuous
 62
     0
370
    30
100
AcDbPolyline
 90
       72
 70
     0
 43
0.0
 10
522.79425
 20
457.150635
 10
522.794983
 20
457.226959
 10
522.796753
 20
457.289032
 10
522.7995
 20
457.336395
 10
522.802917
 20
457.36853
 10
522.806946
 20
457.38501
 10
522.811401
 20
457.385284
 10
522.816162
 20
457.368927
 10
522.820984
 20
457.335419
 10
522.825806
 20
457.284302
 10
522.830383
 20
457.215088
 10
522.834595
 20
457.128204
 10
522.838379
 20
457.026489
 10
522.841553
 20
456.913177
 10
522.844116
 20
456.791534
 10
522.845947
 20
456.664764
 10
522.846863
 20
456.536133
 10
522.846863
 20
456.408875
 10
522.845825
 20
456.286194
 10
522.843689
 20
456.171356
 10
522.84021
 20
456.067596
 10
522.835632
 20
455.976898
 10
522.830261
 20
455.899139
 10
522.824402
 20
455.833923
 10
522.818542
 20
455.780945
 10
522.813049
 20
455.739868
 10
522.808228
 20
455.710999
 10
522.804138
 20
455.697693
 10
522.80072
 20
455.703918
 10
522.798096
 20
455.733673
 10
522.796204
 20
455.790955
 10
522.794983
 20
455.876404
 10
522.794373
 20
455.95813
 10
522.794189
 20
455.986267
 10
522.794373
 20
455.933655
 10
522.794983
 20
455.837067
 10
522.796143
 20
455.743439
 10
522.797974
 20
455.677826
 10
522.800476
 20
455.638672
 10
522.803711
 20
455.622772
 10
522.807739
 20
455.627014
 10
522.812683
 20
455.648163
 10
522.81842
 20
455.683563
 10
522.824707
 20
455.731964
 10
522.831421
 20
455.792358
 10
522.838196
 20
455.863739
 10
522.844788
 20
455.945099
 10
522.850891
 20
456.035431
 10
522.856323
 20
456.133728
 10
522.860779
 20
456.238983
 10
522.864014
 20
456.350189
 10
522.865784
 20
456.466339
 10
522.865845
 20
456.586182
 10
522.86438
 20
456.707642
 10
522.861694
 20
456.828461
 10
522.85791
 20
456.946442
 10
522.85321
 20
457.059326
 10
522.8479
 20
457.164886
 10
522.842163
 20
457.260864
 10
522.836182
 20
457.345062
 10
522.830139
 20
457.415222
 10
522.824402
 20
457.469086
 10
522.81897
 20
457.505066
 10
522.814026
 20
457.523529
 10
522.80957
 20
457.525452
 10
522.805603
 20
457.511688
 10
522.802185
 20
457.483215
 10
522.799316
 20
457.440918
 10
522.797058
 20
457.385712
 10
522.79541
 20
457.318542
 10
522.794495
 20
457.240265
 10
522.79425
 20
457.150635
  0
LWPOLYLINE
  5
175
330
12C
100
AcDbEntity
  8
0
  6
Continuous
 62
     0
370
    30
100
AcDbPolyline
 90
       17
 70
     0
 43
0.0
 10
522.823792
 20
456.562775
 10
522.822266
 20
456.698547
 10
522.818176
 20
456.819855
 10
522.812622
 20
456.91217
 10
522.806458
 20
456.961029
 10
522.800781
 20
456.951935
 10
522.796387
 20
456.872437
 10
522.793762
 20
456.734558
 10
522.792847
 20
456.567017
 10
522.793701
 20
456.398743
 10
522.796265
 20
456.258759
 10
522.800537
 20
456.175781
 10
522.806152
 20
456.163483
 10
522.812317
 20
456.209839
 10
522.817932
 20
456.300354
 10
522.822083
 20
456.420563
 10
522.823792
 20
456.562775
  0
LWPOLYLINE
  5
176
330
12C
100
AcDbEntity
  8
0
  6
Continuous
 62
     0
370
    30
100
AcDbPolyline
 90
       17
 70
     0
 43
0.0
 10
522.796143
 20
456.588501
 10
522.797485
 20
456.733521
 10
522.801086
 20
456.863007
 10
522.805908
 20
456.961365
 10
522.811279
 20
457.013153
 10
522.816284
 20
457.002747
 10
522.820068
 20
456.916931
 10
522.822327
 20
456.769012
 10
522.82312
 20
456.589813
 10
522.822388
 20
456.41037
 10
522.820129
 20
456.26181
 10
522.816345
 20
456.174927
 10
522.811401
 20
456.163544
 10
522.80603
 20
456.214539
 10
522.801147
 20
456.312378
 10
522.797546
 20
456.441528
 10
522.796143
 20
456.588501
  0
LWPOLYLINE
  5
177
330
12C
100
AcDbEntity
  8
0
  6
Continuous
 62
     0
370
    30
100
AcDbPolyline
 90
      107
 70
     0
 43
0.0
 10
604.794189
 20
410.497375
 10
604.754578
 20
410.497375
 10
604.635925
 20
410.497375
 10
604.438416
 20
410.497375
 10
604.162354
 20
410.497375
 10
603.807861
 20
410.497375
 10
603.375244
 20
410.497375
 10
602.864685
 20
410.497375
 10
602.276611
 20
410.497375
 10
601.611755
 20
410.497375
 10
600.870728
 20
410.497375
 10
600.054199
 20
410.497375
 10
599.162903
 20
410.497375
 10
598.19751
 20
410.497375
 10
597.158691
 20
410.497375
 10
596.047424
 20
410.497375
 10
594.864868
 20
410.497375
 10
593.612061
 20
410.497375
 10
592.290161
 20
410.497375
 10
590.900269
 20
410.497375
 10
589.44342
 20
410.497375
 10
587.920898
 20
410.497375
 10
586.334167
 20
410.497375
 10
584.68457
 20
410.497375
 10
582.973755
 20
410.497375
 10
581.203125
 20
410.497375
 10
579.374207
 20
410.497375
 10
577.488403
 20
410.497375
 10
575.547546
 20
410.497375
 10
573.553284
 20
410.497375
 10
571.507446
 20
410.497375
 10
569.411926
 20
410.497375
 10
567.268494
 20
410.497375
 10
565.078918
 20
410.497375
 10
562.845093
 20
410.497375
 10
560.569031
 20
410.497375
 10
558.252808
 20
410.497375
 10
555.898438
 20
410.497375
 10
553.508057
 20
410.497375
 10
551.083679
 20
410.497375
 10
548.627441
 20
410.497375
 10
546.141418
 20
410.497375
 10
543.627808
 20
410.497375
 10
541.088928
 20
410.497375
 10
538.526917
 20
410.497375
 10
535.944153
 20
410.497375
 10
533.342834
 20
410.497375
 10
530.72522
 20
410.497375
 10
528.093506
 20
410.497375
 10
525.450195
 20
410.497375
 10
522.797485
 20
410.497375
 10
520.137756
 20
410.497375
 10
517.473389
 20
410.497375
 10
514.806641
 20
410.497375
 10
512.139893
 20
410.497375
 10
509.475433
 20
410.497375
 10
506.815643
 20
410.497375
 10
504.162872
 20
410.497375
 10
501.51944
 20
410.497375
 10
498.887634
 20
410.497375
 10
496.269867
 20
410.497375
 10
493.668365
 20
410.497375
 10
491.085419
 20
410.497375
 10
488.523254
 20
410.497375
 10
485.984131
 20
410.497375
 10
483.470306
 20
410.497375
 10
480.983978
 20
410.497375
 10
478.527435
 20
410.497375
 10
476.102753
 20
410.497375
 10
473.712036
 20
410.497375
 10
471.35733
 20
410.497375
 10
469.040741
 20
410.497375
 10
466.764282
 20
410.497375
 10
464.53009
 20
410.497375
 10
462.340118
 20
410.497375
 10
460.196228
 20
410.497375
 10
458.10025
 20
410.497375
 10
456.053955
 20
410.497375
 10
454.059204
 20
410.497375
 10
452.117798
 20
410.497375
 10
450.231537
 20
410.497375
 10
448.402039
 20
410.497375
 10
446.630859
 20
410.497375
 10
444.919464
 20
410.497375
 10
443.269348
 20
410.497375
 10
441.681976
 20
410.497375
 10
440.158844
 20
410.497375
 10
438.701416
 20
410.497375
 10
437.310883
 20
410.497375
 10
435.988342
 20
410.497375
 10
434.734894
 20
410.497375
 10
433.551666
 20
410.497375
 10
432.439758
 20
410.497375
 10
431.400269
 20
410.497375
 10
430.434143
 20
410.497375
 10
429.542175
 20
410.497375
 10
428.724945
 20
410.497375
 10
427.983215
 20
410.497375
 10
427.317627
 20
410.497375
 10
426.728851
 20
410.497375
 10
426.21759
 20
410.497375
 10
425.784241
 20
410.497375
 10
425.429047
 20
410.497375
 10
425.152191
 20
410.497375
 10
424.953949
 20
410.497375
 10
424.834564
 20
410.497375
 10
424.79422
 20
410.497375
  0
LINE
  5
178
330
12C
100
AcDbEntity
  8
0
  6
Continuous
 62
     0
370
    30
100
AcDbLine
 10
425.794212
 20
411.497383
 30
0.0
 11
603.794212
 21
411.497383
 31
0.0
  0
LINE
  5
179
330
12C
100
AcDbEntity
  8
0
  6
Continuous
 62
     0
370
    30
100
AcDbLine
 10
604.736137
 20
402.497383
 30
0.0
 11
604.696224
 21
401.756202
 31
0.0
  0
LINE
  5
17A
330
12C
100
AcDbEntity
  8
0
  6
Continuous
 62
     0
370
    30
100
AcDbLine
 10
424.794212
 20
399.497383
 30
0.0
 11
604.621613
 21
399.497383
 31
0.0
  0
LINE
  5
17B
330
12C
100
AcDbEntity
  8
0
  6
Continuous
 62
     0
370
    30
100
AcDbLine
 10
604.621613
 20
399.497383
 30
0.0
 11
604.676311
 21
400.238564
 31
0.0
  0
LINE
  5
17C
330
12C
100
AcDbEntity
  8
0
  6
Continuous
 62
     0
370
    30
100
AcDbLine
 10
604.676311
 20
400.238564
 30
0.0
 11
604.696224
 21
401.756202
 31
0.0
  0
LINE
  5
17D
330
12C
100
AcDbEntity
  8
0
  6
Continuous
 62
     0
370
    30
100
AcDbLine
 10
424.794219
 20
399.497383
 30
0.0
 11
604.621613
 21
399.497383
 31
0.0
  0
LINE
  5
17E
330
12C
100
AcDbEntity
  8
0
  6
Continuous
 62
     0
370
    30
100
AcDbLine
 10
604.794212
 20
410.497383
 30
0.0
 11
604.794212
 21
402.497383
 31
0.0
  0
LINE
  5
17F
330
12C
100
AcDbEntity
  8
0
  6
Continuous
 62
     0
370
    30
100
AcDbLine
 10
424.794212
 20
410.497383
 30
0.0
 11
424.794212
 21
399.497383
 31
0.0
  0
ARC
  5
180
330
12C
100
AcDbEntity
  8
0
  6
Continuous
 62
     0
370
    30
100
AcDbCircle
 10
603.790755
 20
410.493926
 30
0.0
 40
1.003462686668223
100
AcDbArc
 50
0.197373
 51
89.802627
  0
ARC
  5
181
330
12C
100
AcDbEntity
  8
0
  6
Continuous
 62
     0
370
    30
100
AcDbCircle
 10
425.797669
 20
410.493926
 30
0.0
 40
1.0034626866687
100
AcDbArc
 50
90.197373
 51
179.802627
  0
LINE
  5
182
330
12C
100
AcDbEntity
  8
0
  6
Continuous
 62
     0
370
    30
100
AcDbLine
 10
561.794214
 20
490.347381
 30
0.0
 11
561.794214
 21
484.597381
 31
0.0
  0
LINE
  5
183
330
12C
100
AcDbEntity
  8
0
  6
Continuous
 62
     0
370
    30
100
AcDbLine
 10
522.794214
 20
490.347381
 30
0.0
 11
522.794214
 21
483.947381
 31
0.0
  0
LINE
  5
184
330
12C
100
AcDbEntity
  8
0
  6
Continuous
 62
     0
370
    30
100
AcDbLine
 10
522.794214
 20
453.665826
 30
0.0
 11
522.794214
 21
475.747381
 31
0.0
  0
LINE
  5
185
330
12C
100
AcDbEntity
  8
0
  6
Continuous
 62
     0
370
    30
100
AcDbLine
 10
522.794214
 20
450.847381
 30
0.0
 11
522.794214
 21
453.309075
 31
0.0
  0
LINE
  5
186
330
12C
100
AcDbEntity
  8
0
  6
Continuous
 62
     0
370
    30
100
AcDbLine
 10
561.794214
 20
450.847381
 30
0.0
 11
561.794214
 21
475.10029
 31
0.0
  0
ARC
  5
187
330
12C
100
AcDbEntity
  8
0
  6
Continuous
 62
     0
370
    30
100
AcDbCircle
 10
547.699657
 20
479.842076
 30
0.0
 40
14.79604071773333
100
AcDbArc
 50
0.020547
 51
18.339202
  0
ARC
  5
188
330
12C
100
AcDbEntity
  8
0
  6
Continuous
 62
     0
370
    30
100
AcDbCircle
 10
547.706502
 20
479.851563
 30
0.0
 40
14.78919012244593
100
AcDbArc
 50
341.656592
 51
357.375736
  0
ENDBLK
  5
18A
330
12C
100
AcDbEntity
  8
0
100
AcDbBlockEnd
  0
BLOCK
  5
22E
330
18C
100
AcDbEntity
  8
0
100
AcDbBlockBegin
  2
d
 70
     0
 10
166.418564
 20
152.01738
 30
0.0
  3
d
  1

  0
ELLIPSE
  5
18D
330
18C
100
AcDbEntity
  8
0
  6
Continuous
 62
     0
370
    30
100
AcDbEllipse
 10
573.129932
 20
266.638261
 30
0.0
 11
-19.0
 21
-1.054711873393899E-15
 31
0.0
210
0.0
220
0.0
230
1.0
 40
0.57735
 41
0.4006080305950421
 42
2.576427166179673
  0
LINE
  5
18E
330
18C
100
AcDbEntity
  8
0
  6
Continuous
 62
     0
370
    30
100
AcDbLine
 10
592.129932
 20
264.799099
 30
0.0
 11
592.129932
 21
232.837897
 31
0.0
  0
LINE
  5
18F
330
18C
100
AcDbEntity
  8
0
  6
Continuous
 62
     0
370
    30
100
AcDbLine
 10
554.129932
 20
264.799099
 30
0.0
 11
554.129932
 21
232.837881
 31
0.0
  0
ELLIPSE
  5
190
330
18C
100
AcDbEntity
  8
0
  6
Continuous
 62
     0
370
    30
100
AcDbEllipse
 10
554.851216
 20
301.563904
 30
0.0
 11
1.974999999999042
 21
3.420800344949662
 31
0.0
210
0.0
220
0.0
230
1.0
 40
0.57735
 41
0.7853981633972449
 42
3.141592630739638
  0
ELLIPSE
  5
191
330
18C
100
AcDbEntity
  8
0
  6
Continuous
 62
     0
370
    30
100
AcDbEllipse
 10
554.851216
 20
301.563904
 30
0.0
 11
1.974999999999042
 21
3.420800344949662
 31
0.0
210
0.0
220
0.0
230
1.0
 40
0.57735
 41
0.2828055336610245
 42
0.7853981633972449
  0
LINE
  5
192
330
18C
100
AcDbEntity
  8
0
  6
Continuous
 62
     0
370
    30
100
AcDbLine
 10
553.629931
 20
297.707946
 30
0.0
 11
552.876216
 21
298.143104
 31
0.0
  0
ELLIPSE
  5
193
330
18C
100
AcDbEntity
  8
0
  6
Continuous
 62
     0
370
    30
100
AcDbEllipse
 10
522.571796
 20
307.912167
 30
0.0
 11
21.75
 21
0.0
 31
0.0
210
0.0
220
0.0
230
-1.0
 40
0.57735
 41
2.356194490192345
 42
3.484901632213199
  0
ELLIPSE
  5
194
330
18C
100
AcDbEntity
  8
0
  6
Continuous
 62
     0
370
     0
100
AcDbEllipse
 10
493.779079
 20
346.49129
 30
0.0
 11
2.769748721864385
 21
3.546616982101446
 31
0.0
210
0.0
220
0.0
230
1.0
 40
0.468323
 41
-0.0000000179355739
 42
0.8586784147904609
  0
ELLIPSE
  5
195
330
18C
100
AcDbEntity
  8
0
  6
Continuous
 62
     0
370
     0
100
AcDbEllipse
 10
493.779079
 20
346.49129
 30
0.0
 11
2.769748721864385
 21
3.546616982101446
 31
0.0
210
0.0
220
0.0
230
1.0
 40
0.468323
 41
0.8586784147904609
 42
3.141592635654214
  0
LWPOLYLINE
  5
196
330
18C
100
AcDbEntity
  8
0
  6
Continuous
 62
     0
370
    30
100
AcDbPolyline
 90
       47
 70
     0
 43
0.0
 10
507.19223
 20
299.032776
 10
508.074585
 20
299.013611
 10
509.003815
 20
299.022919
 10
509.977478
 20
299.060791
 10
510.993195
 20
299.127228
 10
512.048218
 20
299.222107
 10
513.139832
 20
299.345398
 10
514.26532
 20
299.496948
 10
515.421814
 20
299.676666
 10
516.606079
 20
299.884247
 10
517.814941
 20
300.119354
 10
519.044983
 20
300.381683
 10
520.292725
 20
300.670807
 10
521.554138
 20
300.986053
 10
522.825012
 20
301.32663
 10
524.101318
 20
301.691864
 10
525.378784
 20
302.080963
 10
526.652649
 20
302.492737
 10
527.917908
 20
302.925903
 10
529.169678
 20
303.379211
 10
530.40271
 20
303.851044
 10
531.611694
 20
304.339752
 10
532.791321
 20
304.843475
 10
533.936279
 20
305.360138
 10
535.041321
 20
305.887634
 10
536.101257
 20
306.423737
 10
537.111267
 20
306.966125
 10
538.06665
 20
307.512299
 10
538.963013
 20
308.059845
 10
539.796631
 20
308.606354
 10
540.564026
 20
309.149384
 10
541.261902
 20
309.686493
 10
541.888184
 20
310.215515
 10
542.440735
 20
310.734222
 10
542.917725
 20
311.240448
 10
543.318481
 20
311.732452
 10
543.642456
 20
312.208466
 10
543.889343
 20
312.666779
 10
544.059082
 20
313.105927
 10
544.152527
 20
313.524628
 10
544.17041
 20
313.921753
 10
544.113647
 20
314.296143
 10
543.983643
 20
314.646973
 10
543.781799
 20
314.973419
 10
543.509705
 20
315.27475
 10
543.169067
 20
315.550354
 10
542.759949
 20
315.800751
  0
LWPOLYLINE
  5
197
330
18C
100
AcDbEntity
  8
0
  6
Continuous
 62
     0
370
    30
100
AcDbPolyline
 90
       18
 70
     0
 43
0.0
 10
537.474243
 20
311.596527
 10
537.176025
 20
311.461884
 10
536.877991
 20
311.400696
 10
536.591248
 20
311.414459
 10
536.326355
 20
311.501343
 10
536.093506
 20
311.657135
 10
535.901611
 20
311.876312
 10
535.757629
 20
312.15033
 10
535.667786
 20
312.470032
 10
535.635864
 20
312.824768
 10
535.662781
 20
313.202393
 10
535.748352
 20
313.590576
 10
535.887878
 20
313.976532
 10
536.075867
 20
314.347351
 10
536.304749
 20
314.691132
 10
536.565002
 20
314.997284
 10
536.846558
 20
315.255432
 10
537.145142
 20
315.460754
  0
LWPOLYLINE
  5
198
330
18C
100
AcDbEntity
  8
0
  6
Continuous
 62
     0
370
    30
100
AcDbPolyline
 90
       18
 70
     0
 43
0.0
 10
537.145142
 20
315.460754
 10
537.438232
 20
315.598297
 10
537.722473
 20
315.667908
 10
537.988159
 20
315.666595
 10
538.227661
 20
315.594147
 10
538.43396
 20
315.451477
 10
538.601746
 20
315.243713
 10
538.72644
 20
314.977234
 10
538.804626
 20
314.660339
 10
538.834595
 20
314.304443
 10
538.815247
 20
313.921417
 10
538.747253
 20
313.524475
 10
538.631836
 20
313.127319
 10
538.471252
 20
312.74353
 10
538.269775
 20
312.386383
 10
538.032166
 20
312.069
 10
537.76532
 20
311.803162
 10
537.474243
 20
311.596527
  0
LWPOLYLINE
  5
199
330
18C
100
AcDbEntity
  8
0
  6
Continuous
 62
     0
370
    30
100
AcDbPolyline
 90
       11
 70
     0
 43
0.0
 10
537.510681
 20
315.622314
 10
537.594727
 20
315.295898
 10
537.633362
 20
314.935211
 10
537.625671
 20
314.551788
 10
537.571472
 20
314.157562
 10
537.471436
 20
313.764862
 10
537.327332
 20
313.386108
 10
537.141785
 20
313.033752
 10
536.919067
 20
312.720032
 10
536.6651
 20
312.456085
 10
536.363525
 20
312.237762
  0
LINE
  5
19A
330
18C
100
AcDbEntity
  8
0
  6
Continuous
 62
     0
370
    30
100
AcDbLine
 10
535.801823
 20
312.049488
 30
0.0
 11
536.363551
 21
312.237767
 31
0.0
  0
LWPOLYLINE
  5
19B
330
18C
100
AcDbEntity
  8
0
  6
Continuous
 62
     0
370
     0
100
AcDbPolyline
 90
       33
 70
     0
 43
0.0
 10
516.938599
 20
332.135681
 10
517.110107
 20
332.271423
 10
517.21283
 20
332.434235
 10
517.2547
 20
332.613922
 10
517.247986
 20
332.802795
 10
517.203674
 20
332.996002
 10
517.130432
 20
333.190765
 10
517.034485
 20
333.385559
 10
516.920349
 20
333.579468
 10
516.791382
 20
333.771973
 10
516.650024
 20
333.962799
 10
516.498291
 20
334.151764
 10
516.337524
 20
334.338715
 10
516.168884
 20
334.523621
 10
515.993286
 20
334.706451
 10
515.811523
 20
334.887146
 10
515.624146
 20
335.065704
 10
515.431641
 20
335.242096
 10
515.234497
 20
335.416382
 10
515.032959
 20
335.588501
 10
514.827454
 20
335.758453
 10
514.618103
 20
335.92627
 10
514.405212
 20
336.091919
 10
514.188904
 20
336.255402
 10
513.96936
 20
336.416718
 10
513.746765
 20
336.575836
 10
513.521179
 20
336.732788
 10
513.292725
 20
336.887543
 10
513.061523
 20
337.04007
 10
512.827576
 20
337.190399
 10
512.591064
 20
337.33847
 10
512.351929
 20
337.484314
 10
512.108887
 20
337.628693
  0
LWPOLYLINE
  5
19C
330
18C
100
AcDbEntity
  8
0
  6
Continuous
 62
     0
370
     0
100
AcDbPolyline
 90
        6
 70
     0
 43
0.0
 10
504.82132
 20
332.175323
 10
504.680695
 20
332.366119
 10
504.571228
 20
332.595947
 10
504.486572
 20
332.865143
 10
504.428528
 20
333.167999
 10
504.40506
 20
333.568848
  0
LWPOLYLINE
  5
19D
330
18C
100
AcDbEntity
  8
0
  6
Continuous
 62
     0
370
     0
100
AcDbPolyline
 90
       10
 70
     0
 43
0.0
 10
506.273987
 20
334.259918
 10
505.953644
 20
334.342255
 10
505.646698
 20
334.3797
 10
505.360687
 20
334.373566
 10
505.102386
 20
334.326355
 10
504.877838
 20
334.241119
 10
504.692352
 20
334.121246
 10
504.549103
 20
333.971924
 10
504.452271
 20
333.795959
 10
504.40506
 20
333.568848
  0
LWPOLYLINE
  5
19E
330
18C
100
AcDbEntity
  8
0
  6
Continuous
 62
     0
370
     0
100
AcDbPolyline
 90
       30
 70
     0
 43
0.0
 10
516.938599
 20
332.135681
 10
516.674255
 20
332.027496
 10
516.351196
 20
331.964905
 10
515.992798
 20
331.941132
 10
515.61554
 20
331.947174
 10
515.229126
 20
331.975311
 10
514.838623
 20
332.019836
 10
514.446838
 20
332.076782
 10
514.055237
 20
332.143311
 10
513.664673
 20
332.217407
 10
513.275635
 20
332.297546
 10
512.888428
 20
332.382599
 10
512.503113
 20
332.47168
 10
512.119873
 20
332.564178
 10
511.738739
 20
332.659485
 10
511.359711
 20
332.757172
 10
510.982849
 20
332.856934
 10
510.608124
 20
332.958466
 10
510.235596
 20
333.061523
 10
509.865234
 20
333.165894
 10
509.49707
 20
333.271423
 10
509.131104
 20
333.37796
 10
508.767395
 20
333.485382
 10
508.405914
 20
333.593628
 10
508.046753
 20
333.702576
 10
507.68988
 20
333.812164
 10
507.335358
 20
333.922363
 10
506.983246
 20
334.033051
 10
506.633545
 20
334.144257
 10
506.273987
 20
334.259918
  0
ELLIPSE
  5
19F
330
18C
100
AcDbEntity
  8
0
  6
Continuous
 62
     0
370
     0
100
AcDbEllipse
 10
522.571796
 20
326.384578
 30
0.0
 11
20.22127512455449
 21
0.0
 31
0.0
210
0.0
220
0.0
230
-1.0
 40
0.57735
 41
5.560835553681514
 42
9.914183776173097
  0
LINE
  5
1A0
330
18C
100
AcDbEntity
  8
0
  6
Continuous
 62
     0
370
     0
100
AcDbLine
 10
513.243674
 20
337.038602
 30
0.0
 11
513.719328
 21
337.13485
 31
0.0
  0
ELLIPSE
  5
1A1
330
18C
100
AcDbEntity
  8
0
  6
Continuous
 62
     0
370
     0
100
AcDbEllipse
 10
522.571796
 20
327.273643
 30
0.0
 11
19.2378900294556
 21
0.0
 31
0.0
210
0.0
220
0.0
230
-1.0
 40
0.57735
 41
4.234215884775489
 42
9.90295105637858
  0
LWPOLYLINE
  5
1A2
330
18C
100
AcDbEntity
  8
0
  6
Continuous
 62
     0
370
     0
100
AcDbPolyline
 90
        7
 70
     0
 43
0.0
 10
505.491699
 20
332.384613
 10
505.304657
 20
332.409943
 10
505.12146
 20
332.376556
 10
504.958984
 20
332.295837
 10
504.831787
 20
332.179901
 10
504.749908
 20
332.03891
 10
504.724243
 20
331.872894
  0
LWPOLYLINE
  5
1A3
330
18C
100
AcDbEntity
  8
0
  6
Continuous
 62
     0
370
     0
100
AcDbPolyline
 90
       33
 70
     0
 43
0.0
 10
517.312378
 20
331.901794
 10
517.567688
 20
332.082336
 10
517.751099
 20
332.281586
 10
517.868347
 20
332.489471
 10
517.93103
 20
332.69928
 10
517.950745
 20
332.907501
 10
517.936646
 20
333.112427
 10
517.895691
 20
333.313354
 10
517.833008
 20
333.510071
 10
517.752319
 20
333.702515
 10
517.656616
 20
333.890747
 10
517.548035
 20
334.07489
 10
517.428284
 20
334.255066
 10
517.298645
 20
334.431366
 10
517.160278
 20
334.603912
 10
517.014099
 20
334.772797
 10
516.860657
 20
334.93808
 10
516.700745
 20
335.099884
 10
516.534729
 20
335.258209
 10
516.363098
 20
335.413177
 10
516.186157
 20
335.564758
 10
516.004211
 20
335.713074
 10
515.817505
 20
335.858093
 10
515.626343
 20
335.999878
 10
515.430786
 20
336.138397
 10
515.23114
 20
336.273712
 10
515.027466
 20
336.405853
 10
514.819824
 20
336.53476
 10
514.608398
 20
336.660492
 10
514.393311
 20
336.78302
 10
514.174561
 20
336.902374
 10
513.952209
 20
337.018494
 10
513.719299
 20
337.134857
  0
LWPOLYLINE
  5
1A4
330
18C
100
AcDbEntity
  8
0
  6
Continuous
 62
     0
370
     0
100
AcDbPolyline
 90
       29
 70
     0
 43
0.0
 10
517.312378
 20
331.901794
 10
516.942383
 20
331.731201
 10
516.516296
 20
331.604523
 10
516.062073
 20
331.517548
 10
515.59729
 20
331.461914
 10
515.130554
 20
331.429962
 10
514.666016
 20
331.415863
 10
514.205322
 20
331.415405
 10
513.749268
 20
331.425568
 10
513.297913
 20
331.444122
 10
512.851318
 20
331.469452
 10
512.409363
 20
331.500275
 10
511.971893
 20
331.535675
 10
511.538727
 20
331.57486
 10
511.109772
 20
331.617218
 10
510.684875
 20
331.662323
 10
510.263916
 20
331.709717
 10
509.846832
 20
331.759125
 10
509.433533
 20
331.810272
 10
509.023956
 20
331.862915
 10
508.618073
 20
331.91687
 10
508.215851
 20
331.972015
 10
507.817291
 20
332.028198
 10
507.422394
 20
332.085358
 10
507.031128
 20
332.143341
 10
506.643555
 20
332.202118
 10
506.259705
 20
332.261658
 10
505.879578
 20
332.321869
 10
505.491699
 20
332.384613
  0
ELLIPSE
  5
1A5
330
18C
100
AcDbEntity
  8
0
  6
Continuous
 62
     0
370
     0
100
AcDbEllipse
 10
502.975071
 20
332.630475
 30
0.0
 11
-1.993453965411144
 21
0.1616826762104974
 31
0.0
210
0.0
220
0.0
230
1.0
 40
0.711924
 41
3.149856524035876
 42
3.971799373224524
  0
ELLIPSE
  5
1A6
330
18C
100
AcDbEntity
  8
0
  6
Continuous
 62
     0
370
     0
100
AcDbEllipse
 10
513.503551
 20
338.96269
 30
0.0
 11
0.8776658868583673
 21
1.797137332271827
 31
0.0
210
0.0
220
0.0
230
1.0
 40
0.786314
 41
3.511109357060642
 42
3.827452610363281
  0
ELLIPSE
  5
1A7
330
18C
100
AcDbEntity
  8
0
  6
Continuous
 62
     0
370
     0
100
AcDbEllipse
 10
517.184159
 20
333.602073
 30
0.0
 11
-0.9999999999999989
 21
1.732050807568875
 31
0.0
210
0.0
220
0.0
230
-1.0
 40
0.57735
 41
3.836216737781887
 42
4.101523742186672
  0
ELLIPSE
  5
1A8
330
18C
100
AcDbEntity
  8
0
  6
Continuous
 62
     0
370
     0
100
AcDbEllipse
 10
505.07536
 20
334.096672
 30
0.0
 11
-0.3227967822997241
 21
-1.973778669794806
 31
0.0
210
0.0
220
0.0
230
-1.0
 40
0.587582
 41
4.534170581896124
 42
5.658601868887142
  0
LINE
  5
1A9
330
18C
100
AcDbEntity
  8
0
  6
Continuous
 62
     0
370
    30
100
AcDbLine
 10
514.539335
 20
335.988134
 30
0.0
 11
512.625954
 21
337.165537
 31
0.0
  0
LINE
  5
1AA
330
18C
100
AcDbEntity
  8
0
  6
Continuous
 62
     0
370
    30
100
AcDbLine
 10
513.091677
 20
337.118684
 30
0.0
 11
513.407401
 21
337.1682
 31
0.0
  0
ARC
  5
1AB
330
18C
100
AcDbEntity
  8
0
  6
Continuous
 62
     0
370
    30
100
AcDbCircle
 10
425.553937
 20
307.950376
 30
0.0
 40
118.7666681904799
100
AcDbArc
 50
2.881455
 51
9.476915
  0
ARC
  5
1AC
330
18C
100
AcDbEntity
  8
0
  6
Continuous
 62
     0
370
    30
100
AcDbCircle
 10
619.799035
 20
307.925782
 30
0.0
 40
118.9772395544165
100
AcDbArc
 50
170.52801
 51
180.006557
  0
ARC
  5
1AD
330
18C
100
AcDbEntity
  8
0
  6
Continuous
 62
     0
370
    30
100
AcDbCircle
 10
511.460731
 20
325.849738
 30
0.0
 40
9.16752203265155
100
AcDbArc
 50
136.128567
 51
169.591198
  0
LWPOLYLINE
  5
1AE
330
18C
100
AcDbEntity
  8
0
  6
Continuous
 62
     0
370
    30
100
AcDbPolyline
 90
       33
 70
     0
 43
0.0
 10
513.407349
 20
337.168243
 10
514.500244
 20
337.474152
 10
515.625305
 20
337.740845
 10
516.777649
 20
337.967529
 10
517.952271
 20
338.153381
 10
519.144287
 20
338.297577
 10
520.348694
 20
338.399323
 10
521.560608
 20
338.457825
 10
522.775269
 20
338.472565
 10
523.988403
 20
338.443695
 10
525.196045
 20
338.371613
 10
526.394043
 20
338.256683
 10
527.578308
 20
338.099182
 10
528.744751
 20
337.899658
 10
529.889221
 20
337.658844
 10
531.007629
 20
337.377563
 10
532.095764
 20
337.056671
 10
533.149536
 20
336.697021
 10
534.1651
 20
336.2995
 10
535.139282
 20
335.865387
 10
536.069153
 20
335.395935
 10
536.951721
 20
334.892426
 10
537.784058
 20
334.35614
 10
538.56311
 20
333.788361
 10
539.28595
 20
333.190399
 10
539.949585
 20
332.563477
 10
540.551025
 20
331.908936
 10
541.087402
 20
331.22821
 10
541.555969
 20
330.523193
 10
541.954163
 20
329.795898
 10
542.279175
 20
329.048309
 10
542.528442
 20
328.284119
 10
542.699646
 20
327.505554
  0
LINE
  5
1AF
330
18C
100
AcDbEntity
  8
0
  6
Continuous
 62
     0
370
    30
100
AcDbLine
 10
496.548828
 20
350.037907
 30
0.0
 11
514.539427
 21
335.988057
 31
0.0
  0
LINE
  5
1B0
330
18C
100
AcDbEntity
  8
0
  6
Continuous
 62
     0
370
    30
100
AcDbLine
 10
491.00933
 20
342.944674
 30
0.0
 11
504.815296
 21
332.162834
 31
0.0
  0
ARC
  5
1B1
330
18C
100
AcDbEntity
  8
0
  6
Continuous
 62
     0
370
    30
100
AcDbCircle
 10
495.130023
 20
347.847584
 30
0.0
 40
2.609571581385348
100
AcDbArc
 50
57.116655
 51
126.323264
  0
LWPOLYLINE
  5
1B2
330
18C
100
AcDbEntity
  8
0
  6
Continuous
 62
     0
370
    30
100
AcDbPolyline
 90
       21
 70
     0
 43
0.0
 10
491.010193
 20
342.944122
 10
490.737885
 20
343.206177
 10
490.519043
 20
343.51709
 10
490.357605
 20
343.861389
 10
490.257019
 20
344.224243
 10
490.213562
 20
344.598358
 10
490.219147
 20
344.981079
 10
490.26709
 20
345.370178
 10
490.354614
 20
345.764679
 10
490.479584
 20
346.163818
 10
490.639923
 20
346.566437
 10
490.833069
 20
346.969269
 10
491.056396
 20
347.368317
 10
491.30722
 20
347.759613
 10
491.582855
 20
348.139099
 10
491.880188
 20
348.502747
 10
492.19577
 20
348.846497
 10
492.526154
 20
349.166229
 10
492.867859
 20
349.457916
 10
493.217804
 20
349.718079
 10
493.584259
 20
349.950073
  0
ELLIPSE
  5
1B3
330
18C
100
AcDbEntity
  8
0
  6
Continuous
 62
     0
370
    30
100
AcDbEllipse
 10
522.571795
 20
255.819681
 30
0.0
 11
-19.5
 21
2.164934898019055E-15
 31
0.0
210
0.0
220
0.0
230
1.0
 40
0.57735
 41
5.602097882728007
 42
5.934946862393862
  0
ELLIPSE
  5
1B4
330
18C
100
AcDbEntity
  8
0
  6
Continuous
 62
     0
370
     0
100
AcDbEllipse
 10
522.571795
 20
311.749697
 30
0.0
 11
19.5
 21
-2.164934898019055E-15
 31
0.0
210
0.0
220
0.0
230
-1.0
 40
0.57735
 41
1.141196586183248
 42
1.704922718878926
  0
ELLIPSE
  5
1B5
330
18C
100
AcDbEntity
  8
0
  6
Continuous
 62
     0
370
     0
100
AcDbEllipse
 10
522.571795
 20
311.749697
 30
0.0
 11
19.5
 21
-2.164934898019055E-15
 31
0.0
210
0.0
220
0.0
230
-1.0
 40
0.57735
 41
0.1365227116526546
 42
1.141196586183248
  0
ELLIPSE
  5
1B6
330
18C
100
AcDbEntity
  8
0
  6
Continuous
 62
     0
370
     0
100
AcDbEllipse
 10
522.571795
 20
312.157945
 30
0.0
 11
19.0
 21
-2.109423746787797E-15
 31
0.0
210
0.0
220
0.0
230
-1.0
 40
0.57735
 41
1.141196586183248
 42
1.583913236825116
  0
ELLIPSE
  5
1B7
330
18C
100
AcDbEntity
  8
0
  6
Continuous
 62
     0
370
     0
100
AcDbEllipse
 10
522.571795
 20
312.157945
 30
0.0
 11
19.0
 21
-2.109423746787797E-15
 31
0.0
210
0.0
220
0.0
230
-1.0
 40
0.57735
 41
0.2470532403189961
 42
1.141196586183247
  0
LINE
  5
1B8
330
18C
100
AcDbEntity
  8
0
  6
Continuous
 62
     0
370
    30
100
AcDbLine
 10
542.071795
 20
262.002268
 30
0.0
 11
542.071795
 21
310.381519
 31
0.0
  0
LINE
  5
1B9
330
18C
100
AcDbEntity
  8
0
  6
Continuous
 62
     0
370
    30
100
AcDbLine
 10
503.071795
 20
262.002265
 30
0.0
 11
503.071795
 21
302.350019
 31
0.0
  0
LWPOLYLINE
  5
1BA
330
18C
100
AcDbEntity
  8
0
  6
Continuous
 62
     0
370
    30
100
AcDbPolyline
 90
       26
 70
     0
 43
0.0
 10
586.625977
 20
286.706665
 10
586.200928
 20
286.390961
 10
585.787781
 20
286.017426
 10
585.393188
 20
285.593384
 10
585.023499
 20
285.126801
 10
584.685364
 20
284.625702
 10
584.385132
 20
284.098083
 10
584.128296
 20
283.55249
 10
583.918274
 20
282.998352
 10
583.758057
 20
282.445374
 10
583.650696
 20
281.903137
 10
583.599243
 20
281.381287
 10
583.604736
 20
280.88855
 10
583.665833
 20
280.432556
 10
583.781006
 20
280.020905
 10
583.948669
 20
279.661194
 10
584.167236
 20
279.360809
 10
584.432861
 20
279.12439
 10
584.73999
 20
278.954559
 10
585.083069
 20
278.853882
 10
585.456604
 20
278.82489
 10
585.854919
 20
278.86969
 10
586.271057
 20
278.986664
 10
586.697693
 20
279.172699
 10
587.127258
 20
279.424652
 10
587.552612
 20
279.739471
  0
LWPOLYLINE
  5
1BB
330
18C
100
AcDbEntity
  8
0
  6
Continuous
 62
     0
370
    30
100
AcDbPolyline
 90
       24
 70
     0
 43
0.0
 10
587.552612
 20
279.739471
 10
587.963379
 20
280.107635
 10
588.356018
 20
280.526337
 10
588.724182
 20
280.987579
 10
589.061646
 20
281.483398
 10
589.362061
 20
282.005798
 10
589.620117
 20
282.546478
 10
589.832397
 20
283.09613
 10
589.99585
 20
283.645416
 10
590.107544
 20
284.184937
 10
590.164368
 20
284.705292
 10
590.165039
 20
285.197784
 10
590.110779
 20
285.654968
 10
590.003052
 20
286.069366
 10
589.843445
 20
286.433655
 10
589.633423
 20
286.740448
 10
589.376343
 20
286.98468
 10
589.077637
 20
287.163696
 10
588.742554
 20
287.274963
 10
588.376587
 20
287.315887
 10
587.985229
 20
287.284149
 10
587.574951
 20
287.180756
 10
587.152954
 20
287.008881
 10
586.721985
 20
286.768951
  0
LWPOLYLINE
  5
1BC
330
18C
100
AcDbEntity
  8
0
  6
Continuous
 62
     0
370
    30
100
AcDbPolyline
 90
       27
 70
     0
 43
0.0
 10
584.346191
 20
278.992401
 10
584.062134
 20
279.200867
 10
583.825623
 20
279.4664
 10
583.638794
 20
279.778839
 10
583.501221
 20
280.127014
 10
583.4104
 20
280.500275
 10
583.360962
 20
280.912506
 10
583.355713
 20
281.371613
 10
583.399841
 20
281.871918
 10
583.496765
 20
282.404968
 10
583.647644
 20
282.959717
 10
583.851074
 20
283.523285
 10
584.103027
 20
284.081787
 10
584.396912
 20
284.621429
 10
584.724304
 20
285.129791
 10
585.075745
 20
285.596466
 10
585.441406
 20
286.013947
 10
585.811951
 20
286.377625
 10
586.180908
 20
286.687347
 10
586.566101
 20
286.958954
 10
586.968689
 20
287.188477
 10
587.38092
 20
287.365753
 10
587.793457
 20
287.481873
 10
588.196106
 20
287.529999
 10
588.57843
 20
287.506226
 10
588.930542
 20
287.410126
 10
589.245422
 20
287.244049
  0
ARC
  5
1BD
330
18C
100
AcDbEntity
  8
0
  6
Continuous
 62
     0
370
    30
100
AcDbCircle
 10
591.71798
 20
279.167138
 30
0.0
 40
9.125181194862229
100
AcDbArc
 50
121.732794
 51
146.984433
  0
LWPOLYLINE
  5
1BE
330
18C
100
AcDbEntity
  8
0
  6
Continuous
 62
     0
370
    30
100
AcDbPolyline
 90
       24
 70
     0
 43
0.0
 10
559.34137
 20
291.623047
 10
558.577759
 20
292.089813
 10
557.874084
 20
292.571747
 10
557.230652
 20
293.065613
 10
556.646729
 20
293.568542
 10
556.106873
 20
294.09256
 10
555.607239
 20
294.644073
 10
555.153015
 20
295.221893
 10
554.749268
 20
295.824371
 10
554.400879
 20
296.449493
 10
554.112488
 20
297.094849
 10
553.888184
 20
297.75766
 10
553.73175
 20
298.434753
 10
553.646301
 20
299.122742
 10
553.634155
 20
299.817841
 10
553.696899
 20
300.516205
 10
553.835388
 20
301.213776
 10
554.049377
 20
301.906433
 10
554.337952
 20
302.590118
 10
554.69928
 20
303.260864
 10
555.130554
 20
303.914856
 10
555.628296
 20
304.548553
 10
556.188477
 20
305.158752
 10
556.823669
 20
305.757935
  0
LWPOLYLINE
  5
1BF
330
18C
100
AcDbEntity
  8
0
  6
Continuous
 62
     0
370
    30
100
AcDbPolyline
 90
       96
 70
     0
 43
0.0
 10
557.167603
 20
305.942017
 10
556.549194
 20
305.348755
 10
555.992004
 20
304.72818
 10
555.500916
 20
304.083496
 10
555.080383
 20
303.418243
 10
554.73407
 20
302.736389
 10
554.464661
 20
302.042084
 10
554.273865
 20
301.339722
 10
554.162476
 20
300.633728
 10
554.130249
 20
299.928589
 10
554.176025
 20
299.228607
 10
554.297607
 20
298.537994
 10
554.492065
 20
297.860626
 10
554.755676
 20
297.200104
 10
555.084045
 20
296.559601
 10
555.472412
 20
295.941925
 10
555.915527
 20
295.349457
 10
556.407837
 20
294.784058
 10
556.943909
 20
294.247223
 10
557.52301
 20
293.735809
 10
558.162842
 20
293.234772
 10
558.865784
 20
292.745697
 10
559.631653
 20
292.272125
 10
560.459534
 20
291.81778
 10
561.347717
 20
291.386322
 10
562.29364
 20
290.981506
 10
563.293762
 20
290.606873
 10
564.343872
 20
290.265808
 10
565.438782
 20
289.961426
 10
566.572693
 20
289.696472
 10
567.739136
 20
289.473267
 10
568.931091
 20
289.293701
 10
570.141052
 20
289.159058
 10
571.36145
 20
289.070099
 10
572.584534
 20
289.027008
 10
573.802612
 20
289.029358
 10
575.008423
 20
289.076233
 10
576.194763
 20
289.166138
 10
577.355225
 20
289.29718
 10
578.483887
 20
289.46701
 10
579.5755
 20
289.673004
 10
580.62561
 20
289.912231
 10
581.630493
 20
290.18161
 10
582.587158
 20
290.477936
 10
583.49353
 20
290.798004
 10
584.369995
 20
291.147919
 10
585.229004
 20
291.534149
 10
586.064453
 20
291.956848
 10
586.870117
 20
292.41571
 10
587.639526
 20
292.909943
 10
588.366211
 20
293.438385
 10
589.043945
 20
293.999268
 10
589.666626
 20
294.590363
 10
590.228638
 20
295.209015
 10
590.724792
 20
295.852051
 10
591.150696
 20
296.5159
 10
591.502625
 20
297.196655
 10
591.777832
 20
297.890167
 10
591.974548
 20
298.592102
 10
592.091858
 20
299.297974
 10
592.129944
 20
300.003326
 10
592.089905
 20
300.703827
 10
591.973877
 20
301.395294
 10
591.784729
 20
302.073761
 10
591.526123
 20
302.735657
 10
591.202393
 20
303.377747
 10
590.818298
 20
303.997192
 10
590.379089
 20
304.591644
 10
589.890259
 20
305.159088
 10
589.357239
 20
305.69809
 10
588.781921
 20
306.210785
 10
588.146851
 20
306.712555
 10
587.448608
 20
307.202667
 10
586.687378
 20
307.677521
 10
585.864075
 20
308.133423
 10
584.980286
 20
308.566711
 10
584.038574
 20
308.973633
 10
583.042358
 20
309.350647
 10
581.995789
 20
309.694305
 10
580.903992
 20
310.001526
 10
579.772766
 20
310.269501
 10
578.608521
 20
310.49588
 10
577.418274
 20
310.678741
 10
576.209351
 20
310.816772
 10
574.989502
 20
310.909149
 10
573.766357
 20
310.955658
 10
572.547607
 20
310.956635
 10
571.340637
 20
310.913055
 10
570.152588
 20
310.826294
 10
568.98999
 20
310.698242
 10
567.858765
 20
310.531189
 10
566.764221
 20
310.32782
 10
565.710876
 20
310.090942
 10
564.702576
 20
309.8237
 10
563.742188
 20
309.529266
 10
562.827087
 20
309.208984
  0
LWPOLYLINE
  5
1C0
330
18C
100
AcDbEntity
  8
0
  6
Continuous
 62
     0
370
    30
100
AcDbPolyline
 90
       53
 70
     0
 43
0.0
 10
586.739441
 20
307.64679
 10
587.533752
 20
307.172913
 10
588.265442
 20
306.682404
 10
588.934021
 20
306.178833
 10
589.539917
 20
305.665619
 10
590.096924
 20
305.132812
 10
590.612305
 20
304.571075
 10
591.080627
 20
303.981689
 10
591.49646
 20
303.366364
 10
591.854492
 20
302.727234
 10
592.14978
 20
302.066895
 10
592.377869
 20
301.388306
 10
592.534729
 20
300.694855
 10
592.617249
 20
299.990265
 10
592.622742
 20
299.278473
 10
592.549683
 20
298.563721
 10
592.3974
 20
297.850342
 10
592.166016
 20
297.142761
 10
591.856812
 20
296.445282
 10
591.472046
 20
295.762146
 10
591.014648
 20
295.097412
 10
590.488647
 20
294.454742
 10
589.898621
 20
293.837555
 10
589.249756
 20
293.248779
 10
588.547791
 20
292.690948
 10
587.798828
 20
292.166046
 10
587.009094
 20
291.67572
 10
586.184937
 20
291.220947
 10
585.332642
 20
290.802399
 10
584.458374
 20
290.420258
 10
583.567566
 20
290.074158
 10
582.639282
 20
289.755005
 10
581.661072
 20
289.460175
 10
580.635315
 20
289.192871
 10
579.564941
 20
288.956238
 10
578.453796
 20
288.753265
 10
577.306396
 20
288.586823
 10
576.127991
 20
288.459412
 10
574.924561
 20
288.373352
 10
573.702454
 20
288.330414
 10
572.468689
 20
288.332031
 10
571.230591
 20
288.379089
 10
569.995728
 20
288.471954
 10
568.771606
 20
288.610352
 10
567.565857
 20
288.79361
 10
566.385742
 20
289.020325
 10
565.238159
 20
289.288757
 10
564.129517
 20
289.596527
 10
563.065491
 20
289.940979
 10
562.05127
 20
290.319031
 10
561.091003
 20
290.727356
 10
560.188171
 20
291.162476
 10
559.34137
 20
291.623047
  0
LWPOLYLINE
  5
1C1
330
18C
100
AcDbEntity
  8
0
  6
Continuous
 62
     0
370
    30
100
AcDbPolyline
 90
        8
 70
     0
 43
0.0
 10
557.167603
 20
305.942017
 10
557.805847
 20
306.477356
 10
558.497986
 20
306.989899
 10
559.241394
 20
307.477875
 10
560.03363
 20
307.939606
 10
560.871765
 20
308.373413
 10
561.75293
 20
308.777832
 10
562.824402
 20
309.208008
  0
LWPOLYLINE
  5
1C2
330
18C
100
AcDbEntity
  8
0
  6
Continuous
 62
     0
370
    30
100
AcDbPolyline
 90
       53
 70
     0
 43
0.0
 10
559.34137
 20
291.623047
 10
560.12384
 20
291.195587
 10
560.964172
 20
290.785339
 10
561.861328
 20
290.395691
 10
562.81366
 20
290.030121
 10
563.818542
 20
289.692017
 10
564.872864
 20
289.384705
 10
565.972412
 20
289.111389
 10
567.112366
 20
288.875031
 10
568.28717
 20
288.678284
 10
569.490662
 20
288.523376
 10
570.716003
 20
288.41217
 10
571.955994
 20
288.345978
 10
573.203247
 20
288.325653
 10
574.450012
 20
288.351379
 10
575.68866
 20
288.422913
 10
576.911804
 20
288.539337
 10
578.112244
 20
288.699249
 10
579.283325
 20
288.900787
 10
580.418823
 20
289.141632
 10
581.513245
 20
289.419098
 10
582.561951
 20
289.730194
 10
583.560852
 20
290.071686
 10
584.506775
 20
290.440277
 10
585.397339
 20
290.83252
 10
586.230957
 20
291.244965
 10
587.006836
 20
291.674377
 10
587.744019
 20
292.130066
 10
588.450745
 20
292.619141
 10
589.120972
 20
293.14093
 10
589.748901
 20
293.694397
 10
590.328552
 20
294.278046
 10
590.854187
 20
294.889923
 10
591.320312
 20
295.527649
 10
591.721863
 20
296.188324
 10
592.054382
 20
296.868744
 10
592.313904
 20
297.565277
 10
592.497498
 20
298.273926
 10
592.602844
 20
298.99057
 10
592.628662
 20
299.710846
 10
592.574768
 20
300.430359
 10
592.44165
 20
301.144684
 10
592.231018
 20
301.849518
 10
591.945374
 20
302.540802
 10
591.588074
 20
303.214661
 10
591.163208
 20
303.867615
 10
590.675537
 20
304.496552
 10
590.130188
 20
305.098724
 10
589.532898
 20
305.671936
 10
588.889343
 20
306.214386
 10
588.205566
 20
306.724731
 10
587.487488
 20
307.202087
 10
586.739441
 20
307.64679
  0
LINE
  5
1C3
330
18C
100
AcDbEntity
  8
0
  6
Continuous
 62
     0
370
    30
100
AcDbLine
 10
557.114113
 20
306.006345
 30
0.0
 11
556.823688
 21
305.757938
 31
0.0
  0
LWPOLYLINE
  5
1C4
330
18C
100
AcDbEntity
  8
0
  6
Continuous
 62
     0
370
    30
100
AcDbPolyline
 90
       24
 70
     0
 43
0.0
 10
556.823669
 20
305.757935
 10
556.238037
 20
305.208679
 10
555.700073
 20
304.631989
 10
555.214844
 20
304.029816
 10
554.787109
 20
303.40451
 10
554.421326
 20
302.758728
 10
554.121399
 20
302.095612
 10
553.890564
 20
301.418488
 10
553.731445
 20
300.731018
 10
553.645752
 20
300.037018
 10
553.634521
 20
299.340393
 10
553.697815
 20
298.645172
 10
553.835022
 20
297.955322
 10
554.044495
 20
297.274689
 10
554.323975
 20
296.606995
 10
554.670288
 20
295.955658
 10
555.079834
 20
295.323883
 10
555.548218
 20
294.714478
 10
556.070862
 20
294.129883
 10
556.6427
 20
293.572205
 10
557.258484
 20
293.04306
 10
557.912842
 20
292.543762
 10
558.600403
 20
292.075165
 10
559.34137
 20
291.623047
  0
LWPOLYLINE
  5
1C5
330
18C
100
AcDbEntity
  8
0
  6
Continuous
 62
     0
370
    30
100
AcDbPolyline
 90
       40
 70
     0
 43
0.0
 10
592.629944
 20
267.332275
 10
592.590393
 20
266.615723
 10
592.47229
 20
265.903534
 10
592.276978
 20
265.199921
 10
592.006836
 20
264.509003
 10
591.665039
 20
263.834625
 10
591.255432
 20
263.180298
 10
590.782593
 20
262.549164
 10
590.251526
 20
261.944
 10
589.667786
 20
261.367096
 10
589.036926
 20
260.820312
 10
588.364929
 20
260.305084
 10
587.657593
 20
259.822357
 10
586.920715
 20
259.372711
 10
586.142212
 20
258.947174
 10
585.306458
 20
258.538666
 10
584.414368
 20
258.150574
 10
583.46759
 20
257.786224
 10
582.468689
 20
257.449005
 10
581.420776
 20
257.142212
 10
580.327881
 20
256.869019
 10
579.194763
 20
256.632324
 10
578.026917
 20
256.434723
 10
576.830322
 20
256.278503
 10
575.611755
 20
256.165497
 10
574.378235
 20
256.097046
 10
573.137207
 20
256.073944
 10
571.896057
 20
256.096497
 10
570.662415
 20
256.164459
 10
569.443604
 20
256.276947
 10
568.246765
 20
256.432678
 10
567.078552
 20
256.629791
 10
565.945007
 20
256.866028
 10
564.851624
 20
257.138824
 10
563.803162
 20
257.445251
 10
562.803589
 20
257.782104
 10
561.856262
 20
258.146179
 10
560.963501
 20
258.534027
 10
560.127075
 20
258.942291
 10
559.34137
 20
259.371429
  0
ARC
  5
1C6
330
18C
100
AcDbEntity
  8
0
  6
Continuous
 62
     0
370
    30
100
AcDbCircle
 10
563.402865
 20
268.314546
 30
0.0
 40
9.822173124621973
100
AcDbArc
 50
185.739454
 51
245.574805
  0
ARC
  5
1C7
330
18C
100
AcDbEntity
  8
0
  6
Continuous
 62
     0
370
    30
100
AcDbCircle
 10
588.238227
 20
285.314804
 30
0.0
 40
2.084391204778389
100
AcDbArc
 50
59.142662
 51
129.28227
  0
LWPOLYLINE
  5
1C8
330
18C
100
AcDbEntity
  8
0
  6
Continuous
 62
     0
370
    30
100
AcDbPolyline
 90
       23
 70
     0
 43
0.0
 10
584.066345
 20
284.13913
 10
583.794128
 20
283.668945
 10
583.563171
 20
283.185303
 10
583.378113
 20
282.695496
 10
583.243652
 20
282.20697
 10
583.16449
 20
281.727051
 10
583.144775
 20
281.26297
 10
583.184509
 20
280.821228
 10
583.281494
 20
280.407867
 10
583.433472
 20
280.0289
 10
583.638245
 20
279.690399
 10
583.893311
 20
279.398254
 10
584.192871
 20
279.15683
 10
584.529663
 20
278.969696
 10
584.896179
 20
278.840332
 10
585.285034
 20
278.772308
 10
585.68866
 20
278.769135
 10
586.099731
 20
278.83432
 10
586.510742
 20
278.971405
 10
586.914917
 20
279.181915
 10
587.3078
 20
279.459808
 10
587.685425
 20
279.79718
 10
588.054443
 20
280.198669
  0
LWPOLYLINE
  5
1C9
330
18C
100
AcDbEntity
  8
0
  6
Continuous
 62
     0
370
     0
100
AcDbPolyline
 90
      165
 70
     0
 43
0.0
 10
503.071808
 20
288.696381
 10
500.910461
 20
287.805786
 10
498.796082
 20
286.878357
 10
496.73053
 20
285.914948
 10
494.715576
 20
284.916443
 10
492.753113
 20
283.883728
 10
490.84491
 20
282.817627
 10
488.992767
 20
281.719086
 10
487.198273
 20
280.589111
 10
485.462891
 20
279.428711
 10
483.788147
 20
278.239014
 10
482.175568
 20
277.021027
 10
480.626587
 20
275.775818
 10
479.142761
 20
274.504456
 10
477.725433
 20
273.208038
 10
476.375702
 20
271.887787
 10
475.094727
 20
270.544891
 10
473.883606
 20
269.180573
 10
472.743439
 20
267.796021
 10
471.675354
 20
266.392426
 10
470.68045
 20
264.971039
 10
469.759491
 20
263.533142
 10
468.913208
 20
262.080017
 10
468.142273
 20
260.612976
 10
467.447388
 20
259.133301
 10
466.829224
 20
257.642365
 10
466.288483
 20
256.141418
 10
465.825714
 20
254.631821
 10
465.441162
 20
253.114914
 10
465.135101
 20
251.592056
 10
464.907715
 20
250.064606
 10
464.759277
 20
248.53392
 10
464.690002
 20
247.001389
 10
464.700134
 20
245.468338
 10
464.789581
 20
243.936127
 10
464.95813
 20
242.406143
 10
465.205536
 20
240.879745
 10
465.531616
 20
239.358261
 10
465.936096
 20
237.843079
 10
466.418762
 20
236.335556
 10
466.979279
 20
234.837036
 10
467.617035
 20
233.348846
 10
468.33136
 20
231.872284
 10
469.121521
 20
230.408646
 10
469.986877
 20
228.959274
 10
470.926697
 20
227.525436
 10
471.940338
 20
226.108475
 10
473.026886
 20
224.709625
 10
474.185211
 20
223.330109
 10
475.414246
 20
221.97113
 10
476.71283
 20
220.633881
 10
478.079865
 20
219.31958
 10
479.514221
 20
218.029434
 10
481.014771
 20
216.764618
 10
482.580078
 20
215.526245
 10
484.208649
 20
214.315353
 10
485.898956
 20
213.133011
 10
487.649536
 20
211.98027
 10
489.458862
 20
210.85817
 10
491.325409
 20
209.767807
 10
493.24762
 20
208.710129
 10
495.223633
 20
207.686035
 10
497.251648
 20
206.696396
 10
499.329803
 20
205.742065
 10
501.456299
 20
204.823914
 10
503.629272
 20
203.942825
 10
505.846924
 20
203.099625
 10
508.107208
 20
202.295044
 10
510.408051
 20
201.529739
 10
512.747375
 20
200.804352
 10
515.123047
 20
200.119507
 10
517.533081
 20
199.475876
 10
519.975281
 20
198.874084
 10
522.447571
 20
198.314713
 10
524.947693
 20
197.798203
 10
527.473328
 20
197.324936
 10
530.022339
 20
196.895309
 10
532.592346
 20
196.509735
 10
535.181091
 20
196.168579
 10
537.786377
 20
195.872269
 10
540.405823
 20
195.621033
 10
543.037109
 20
195.415009
 10
545.677856
 20
195.254349
 10
548.325745
 20
195.139175
 10
550.978333
 20
195.069611
 10
553.633362
 20
195.045807
 10
556.288452
 20
195.067841
 10
558.941223
 20
195.135651
 10
561.589294
 20
195.249069
 10
564.230347
 20
195.40799
 10
566.862061
 20
195.612259
 10
569.481995
 20
195.861755
 10
572.08783
 20
196.156342
 10
574.677307
 20
196.495773
 10
577.248047
 20
196.879639
 10
579.797913
 20
197.307571
 10
582.324524
 20
197.779175
 10
584.825684
 20
198.294022
 10
587.299072
 20
198.851746
 10
589.742432
 20
199.45192
 10
592.153748
 20
200.093964
 10
594.530823
 20
200.777222
 10
596.871582
 20
201.501068
 10
599.17395
 20
202.264847
 10
601.435791
 20
203.067917
 10
603.655151
 20
203.909637
 10
605.829895
 20
204.789307
 10
607.958191
 20
205.706039
 10
610.038208
 20
206.658997
 10
612.068176
 20
207.647293
 10
614.046265
 20
208.670074
 10
615.970581
 20
209.726471
 10
617.839294
 20
210.815598
 10
619.650879
 20
211.936462
 10
621.403748
 20
213.088043
 10
623.096375
 20
214.269272
 10
624.727356
 20
215.47908
 10
626.295105
 20
216.716431
 10
627.798218
 20
217.980255
 10
629.235107
 20
219.26947
 10
630.604797
 20
220.582901
 10
631.906006
 20
221.919312
 10
633.137695
 20
223.277481
 10
634.298828
 20
224.656219
 10
635.388123
 20
226.054306
 10
636.404602
 20
227.470505
 10
637.347351
 20
228.903595
 10
638.215576
 20
230.352295
 10
639.008667
 20
231.815323
 10
639.725952
 20
233.291412
 10
640.366638
 20
234.779282
 10
640.930115
 20
236.277649
 10
641.415649
 20
237.785233
 10
641.82312
 20
239.300583
 10
642.1521
 20
240.82222
 10
642.402527
 20
242.348663
 10
642.574158
 20
243.878403
 10
642.666748
 20
245.409988
 10
642.680115
 20
246.94191
 10
642.614258
 20
248.472839
 10
642.469299
 20
250.001633
 10
642.245483
 20
251.527191
 10
641.943115
 20
253.04834
 10
641.562317
 20
254.563721
 10
641.103577
 20
256.07193
 10
640.567139
 20
257.571594
 10
639.953491
 20
259.06131
 10
639.263306
 20
260.539734
 10
638.497253
 20
262.005554
 10
637.655945
 20
263.45752
 10
636.739868
 20
264.894501
 10
635.749756
 20
266.315399
 10
634.686218
 20
267.719055
 10
633.550354
 20
269.104187
 10
632.343262
 20
270.469574
 10
631.06604
 20
271.813904
 10
629.719666
 20
273.135895
 10
628.305359
 20
274.434265
 10
626.824219
 20
275.707764
 10
625.277588
 20
276.95517
 10
623.667419
 20
278.175262
 10
621.995361
 20
279.366852
 10
620.263306
 20
280.528778
 10
618.473022
 20
281.65979
 10
616.617004
 20
282.764069
  0
LWPOLYLINE
  5
1CA
330
18C
100
AcDbEntity
  8
0
  6
Continuous
 62
     0
370
     0
100
AcDbPolyline
 90
        5
 70
     0
 43
0.0
 10
553.44635
 20
297.813934
 10
550.808044
 20
297.787109
 10
548.171448
 20
297.715088
 10
545.539001
 20
297.598022
 10
542.071777
 20
297.374481
  0
LWPOLYLINE
  5
1CB
330
18C
100
AcDbEntity
  8
0
  6
Continuous
 62
     0
370
     0
100
AcDbPolyline
 90
       12
 70
     0
 43
0.0
 10
616.617004
 20
282.764069
 10
614.707092
 20
283.834137
 10
612.741211
 20
284.871399
 10
610.721497
 20
285.874756
 10
608.649963
 20
286.843231
 10
606.528809
 20
287.775726
 10
604.360046
 20
288.671234
 10
602.145752
 20
289.528717
 10
599.888062
 20
290.34729
 10
597.589294
 20
291.126343
 10
595.251648
 20
291.865204
 10
592.629944
 20
292.633057
  0
LINE
  5
1CC
330
18C
100
AcDbEntity
  8
0
  6
Continuous
 62
     0
370
    30
100
AcDbLine
 10
542.344662
 20
263.601915
 30
0.0
 11
542.071795
 21
264.988166
 31
0.0
  0
LINE
  5
1CD
330
18C
100
AcDbEntity
  8
0
  6
Continuous
 62
     0
370
    30
100
AcDbLine
 10
542.148923
 20
261.293472
 30
0.0
 11
542.371571
 21
263.004954
 31
0.0
  0
LINE
  5
1CE
330
18C
100
AcDbEntity
  8
0
  6
Continuous
 62
     0
370
    30
100
AcDbLine
 10
503.071795
 20
264.988114
 30
0.0
 11
502.798949
 21
263.601883
 31
0.0
  0
LINE
  5
1CF
330
18C
100
AcDbEntity
  8
0
  6
Continuous
 62
     0
370
    30
100
AcDbLine
 10
592.378005
 20
233.97862
 30
0.0
 11
592.129932
 21
235.119771
 31
0.0
  0
LINE
  5
1D0
330
18C
100
AcDbEntity
  8
0
  6
Continuous
 62
     0
370
    30
100
AcDbLine
 10
553.881832
 20
233.97825
 30
0.0
 11
553.830163
 21
233.161904
 31
0.0
  0
LINE
  5
1D1
330
18C
100
AcDbEntity
  8
0
  6
Continuous
 62
     0
370
    30
100
AcDbLine
 10
554.129932
 20
235.119737
 30
0.0
 11
553.881865
 21
233.97851
 31
0.0
  0
ARC
  5
1D2
330
18C
100
AcDbEntity
  8
0
  6
Continuous
 62
     0
370
    30
100
AcDbCircle
 10
615.940185
 20
199.61214
 30
0.0
 40
1.713758826592344
100
AcDbArc
 50
123.383986
 51
164.853779
  0
LWPOLYLINE
  5
1D3
330
18C
100
AcDbEntity
  8
0
  6
Continuous
 62
     0
370
    30
100
AcDbPolyline
 90
       30
 70
     0
 43
0.0
 10
621.141479
 20
202.234558
 10
622.640747
 20
203.240234
 10
624.108521
 20
204.277435
 10
625.542175
 20
205.34584
 10
626.939148
 20
206.445084
 10
628.296936
 20
207.574677
 10
629.612854
 20
208.734085
 10
630.884399
 20
209.922638
 10
632.10907
 20
211.139633
 10
633.284363
 20
212.384247
 10
634.407776
 20
213.655533
 10
635.476929
 20
214.952515
 10
636.489502
 20
216.274109
 10
637.443237
 20
217.61911
 10
638.33606
 20
218.986282
 10
639.165833
 20
220.374252
 10
639.930664
 20
221.781631
 10
640.628723
 20
223.206894
 10
641.258362
 20
224.648483
 10
641.818115
 20
226.104782
 10
642.306519
 20
227.574066
 10
642.722412
 20
229.054626
 10
643.064758
 20
230.544662
 10
643.332703
 20
232.042328
 10
643.525635
 20
233.545776
 10
643.642944
 20
235.053131
 10
643.684387
 20
236.562485
 10
643.649902
 20
238.07193
 10
643.539551
 20
239.579544
 10
643.347778
 20
241.122742
  0
LWPOLYLINE
  5
1D4
330
18C
100
AcDbEntity
  8
0
  6
Continuous
 62
     0
370
    30
100
AcDbPolyline
 90
      114
 70
     0
 43
0.0
 10
643.684509
 20
245.618164
 10
643.645203
 20
244.078629
 10
643.527039
 20
242.541107
 10
643.330261
 20
241.007629
 10
643.055359
 20
239.480194
 10
642.703064
 20
237.96077
 10
642.274353
 20
236.451294
 10
641.770264
 20
234.953659
 10
641.192139
 20
233.469727
 10
640.541382
 20
232.001266
 10
639.819702
 20
230.550003
 10
639.02887
 20
229.117599
 10
638.170776
 20
227.705627
 10
637.247498
 20
226.315582
 10
636.261292
 20
224.948868
 10
635.214355
 20
223.606827
 10
634.109253
 20
222.290649
 10
632.948303
 20
221.001495
 10
631.734192
 20
219.740402
 10
630.469482
 20
218.508316
 10
629.156799
 20
217.306046
 10
627.798889
 20
216.134369
 10
626.398499
 20
214.993927
 10
624.958374
 20
213.885269
 10
623.48114
 20
212.808853
 10
621.969604
 20
211.76506
 10
620.426453
 20
210.754166
 10
618.854309
 20
209.776352
 10
617.255798
 20
208.831726
 10
615.614807
 20
207.910095
 10
613.916321
 20
207.003784
 10
612.160522
 20
206.114319
 10
610.347839
 20
205.24324
 10
608.478638
 20
204.39212
 10
606.553711
 20
203.562531
 10
604.573792
 20
202.756027
 10
602.539856
 20
201.974213
 10
600.453003
 20
201.218643
 10
598.314636
 20
200.49086
 10
596.12616
 20
199.792435
 10
593.889282
 20
199.124847
 10
591.605713
 20
198.489594
 10
589.277527
 20
197.888092
 10
586.906799
 20
197.321732
 10
584.49585
 20
196.791824
 10
582.047119
 20
196.299652
 10
579.563232
 20
195.84639
 10
577.046936
 20
195.433151
 10
574.501099
 20
195.060974
 10
571.928711
 20
194.730774
 10
569.332886
 20
194.443405
 10
566.716797
 20
194.1996
 10
564.083801
 20
193.999985
 10
561.437134
 20
193.845093
 10
558.780396
 20
193.735306
 10
556.116882
 20
193.670929
 10
553.450195
 20
193.65213
 10
550.783813
 20
193.67894
 10
548.121277
 20
193.751312
 10
545.466003
 20
193.869049
 10
542.821533
 20
194.03183
 10
540.191223
 20
194.239258
 10
537.578491
 20
194.490753
 10
534.986511
 20
194.785706
 10
532.418579
 20
195.123337
 10
529.877686
 20
195.502808
 10
527.366882
 20
195.923157
 10
524.889038
 20
196.383331
 10
522.446777
 20
196.882217
 10
520.042725
 20
197.418625
 10
517.67926
 20
197.991257
 10
515.358765
 20
198.598801
 10
513.083252
 20
199.239838
 10
510.854736
 20
199.912949
 10
508.674957
 20
200.616653
 10
506.545563
 20
201.349411
 10
504.467957
 20
202.109711
 10
502.44342
 20
202.895981
 10
500.473083
 20
203.70665
 10
498.557861
 20
204.540146
 10
496.698578
 20
205.394882
 10
494.895813
 20
206.269302
 10
493.150085
 20
207.161835
 10
491.4617
 20
208.070953
 10
489.830536
 20
208.9953
 10
488.236511
 20
209.94574
 10
486.669281
 20
210.929382
 10
485.13147
 20
211.946075
 10
483.625763
 20
212.995621
 10
482.154846
 20
214.077728
 10
480.721466
 20
215.192001
 10
479.328339
 20
216.337982
 10
477.97821
 20
217.515076
 10
476.673798
 20
218.722641
 10
475.417755
 20
219.9599
 10
474.212799
 20
221.225998
 10
473.061493
 20
222.519958
 10
471.9664
 20
223.840759
 10
470.929993
 20
225.187241
 10
469.954681
 20
226.558151
 10
469.042694
 20
227.952148
 10
468.196259
 20
229.367828
 10
467.417419
 20
230.80365
 10
466.708069
 20
232.258057
 10
466.069977
 20
233.72937
 10
465.504761
 20
235.215836
 10
465.013824
 20
236.715683
 10
464.59845
 20
238.227051
 10
464.259735
 20
239.748032
 10
463.998505
 20
241.276672
 10
463.815491
 20
242.811005
 10
463.711151
 20
244.349014
 10
463.68576
 20
245.888702
 10
463.740204
 20
247.441528
  0
LWPOLYLINE
  5
1D5
330
18C
100
AcDbEntity
  8
0
  6
Continuous
 62
     0
370
    30
100
AcDbPolyline
 90
       85
 70
     0
 43
0.0
 10
464.02124
 20
241.122742
 10
463.829681
 20
239.582214
 10
463.717438
 20
238.037781
 10
463.684814
 20
236.49147
 10
463.731934
 20
234.945358
 10
463.858612
 20
233.401474
 10
464.064545
 20
231.861877
 10
464.349182
 20
230.328583
 10
464.711761
 20
228.803589
 10
465.151367
 20
227.288864
 10
465.666809
 20
225.786301
 10
466.256805
 20
224.297791
 10
466.91983
 20
222.825119
 10
467.654175
 20
221.370026
 10
468.458038
 20
219.934174
 10
469.329468
 20
218.51915
 10
470.266266
 20
217.126465
 10
471.266266
 20
215.757507
 10
472.327057
 20
214.413635
 10
473.446228
 20
213.096069
 10
474.621246
 20
211.805923
 10
475.849518
 20
210.544235
 10
477.128326
 20
209.311966
 10
478.455017
 20
208.109924
 10
479.826843
 20
206.938873
 10
481.241028
 20
205.799423
 10
482.694824
 20
204.692123
 10
484.185455
 20
203.617447
 10
485.710175
 20
202.575729
 10
487.266235
 20
201.567245
 10
488.850952
 20
200.592163
 10
490.46283
 20
199.649948
 10
492.123566
 20
198.727524
 10
493.842255
 20
197.820908
 10
495.618683
 20
196.931625
 10
497.452423
 20
196.061264
 10
499.342987
 20
195.211395
 10
501.289642
 20
194.383621
 10
503.291534
 20
193.579529
 10
505.347626
 20
192.80072
 10
507.456726
 20
192.048782
 10
509.617493
 20
191.325272
 10
511.828369
 20
190.631775
 10
514.087646
 20
189.969788
 10
516.393494
 20
189.34079
 10
518.743774
 20
188.746231
 10
521.136292
 20
188.187485
 10
523.568726
 20
187.665894
 10
526.038513
 20
187.182709
 10
528.542969
 20
186.739105
 10
531.079346
 20
186.336197
 10
533.644592
 20
185.974991
 10
536.235657
 20
185.656403
 10
538.849426
 20
185.381256
 10
541.482605
 20
185.150253
 10
544.131775
 20
184.96402
 10
546.793579
 20
184.823013
 10
549.464478
 20
184.727646
 10
552.140991
 20
184.678131
 10
554.81958
 20
184.674622
 10
557.496643
 20
184.717117
 10
560.16864
 20
184.805527
 10
562.832031
 20
184.939575
 10
565.483398
 20
185.118958
 10
568.119202
 20
185.343155
 10
570.736145
 20
185.611618
 10
573.330933
 20
185.92363
 10
575.900269
 20
186.278397
 10
578.441223
 20
186.675018
 10
580.950745
 20
187.112488
 10
583.426025
 20
187.589706
 10
585.864319
 20
188.10553
 10
588.263062
 20
188.658676
 10
590.619934
 20
189.247864
 10
592.932678
 20
189.871704
 10
595.199158
 20
190.528763
 10
597.417542
 20
191.21756
 10
599.58606
 20
191.936584
 10
601.703125
 20
192.68428
 10
603.767395
 20
193.459091
 10
605.777649
 20
194.259445
 10
607.732788
 20
195.08371
 10
609.631958
 20
195.930313
 10
611.474365
 20
196.797653
 10
613.262634
 20
197.685699
  0
ARC
  5
1D6
330
18C
100
AcDbEntity
  8
0
  6
Continuous
 62
     0
370
    30
100
AcDbCircle
 10
612.356648
 20
199.109913
 30
0.0
 40
1.687955009995667
100
AcDbArc
 50
302.462084
 51
344.642921
  0
LINE
  5
1D7
330
18C
100
AcDbEntity
  8
0
  6
Continuous
 62
     0
370
    30
100
AcDbLine
 10
613.984333
 20
198.662885
 30
0.0
 11
614.285958
 21
200.059916
 31
0.0
  0
LINE
  5
1D8
330
18C
100
AcDbEntity
  8
0
  6
Continuous
 62
     0
370
    30
100
AcDbLine
 10
614.997194
 20
201.043131
 30
0.0
 11
619.568884
 21
203.682598
 31
0.0
  0
LINE
  5
1D9
330
18C
100
AcDbEntity
  8
0
  6
Continuous
 62
     0
370
    30
100
AcDbLine
 10
620.223674
 20
203.488058
 30
0.0
 11
620.497138
 21
202.423055
 31
0.0
  0
ARC
  5
1DA
330
18C
100
AcDbEntity
  8
0
  6
Continuous
 62
     0
370
    30
100
AcDbCircle
 10
620.880541
 20
202.538116
 30
0.0
 40
0.4002966180559127
100
AcDbArc
 50
196.704746
 51
310.680997
  0
LINE
  5
1DB
330
18C
100
AcDbEntity
  8
0
  6
Continuous
 62
     0
370
     0
100
AcDbLine
 10
619.757043
 20
203.757467
 30
0.0
 11
620.223674
 21
203.488058
 31
0.0
  0
ARC
  5
1DC
330
18C
100
AcDbEntity
  8
0
  6
Continuous
 62
     0
370
    30
100
AcDbCircle
 10
619.831875
 20
203.368556
 30
0.0
 40
0.4096175259399423
100
AcDbArc
 50
16.962078
 51
129.94428
  0
ARC
  5
1DD
330
18C
100
AcDbEntity
  8
0
  6
Continuous
 62
     0
370
    30
100
AcDbCircle
 10
619.892184
 20
203.66809
 30
0.0
 40
0.8868750006651422
100
AcDbArc
 50
211.010176
 51
268.989821
  0
LINE
  5
1DE
330
18C
100
AcDbEntity
  8
0
  6
Continuous
 62
     0
370
     0
100
AcDbLine
 10
620.497138
 20
202.423055
 30
0.0
 11
619.132064
 21
203.211181
 31
0.0
  0
LWPOLYLINE
  5
1DF
330
18C
100
AcDbEntity
  8
0
  6
Continuous
 62
     0
370
    30
100
AcDbPolyline
 90
       29
 70
     0
 43
0.0
 10
621.141479
 20
202.234558
 10
622.834656
 20
203.37413
 10
624.470032
 20
204.541504
 10
626.046387
 20
205.735657
 10
627.562317
 20
206.955582
 10
629.016602
 20
208.200287
 10
630.407898
 20
209.468765
 10
631.735107
 20
210.759918
 10
632.997192
 20
212.072678
 10
634.193115
 20
213.405899
 10
635.321899
 20
214.758514
 10
636.382385
 20
216.129425
 10
637.373779
 20
217.517456
 10
638.295349
 20
218.921432
 10
639.146362
 20
220.340195
 10
639.926025
 20
221.772552
 10
640.633606
 20
223.217316
 10
641.268555
 20
224.673309
 10
641.830383
 20
226.139267
 10
642.318665
 20
227.613983
 10
642.733032
 20
229.096222
 10
643.072998
 20
230.584763
 10
643.338257
 20
232.078354
 10
643.528625
 20
233.575745
 10
643.644043
 20
235.075684
 10
643.684448
 20
236.576935
 10
643.649719
 20
238.078217
 10
643.539734
 20
239.578293
 10
643.347717
 20
241.122604
  0
LWPOLYLINE
  5
1E0
330
18C
100
AcDbEntity
  8
0
  6
Continuous
 62
     0
370
    30
100
AcDbPolyline
 90
       81
 70
     0
 43
0.0
 10
464.02124
 20
241.122757
 10
463.829224
 20
239.580429
 10
463.716949
 20
238.035507
 10
463.684631
 20
236.489319
 10
463.732117
 20
234.943268
 10
463.859161
 20
233.398682
 10
464.065643
 20
231.856964
 10
464.351288
 20
230.319473
 10
464.715942
 20
228.787552
 10
465.159363
 20
227.262604
 10
465.681396
 20
225.745972
 10
466.281586
 20
224.239014
 10
466.959259
 20
222.743027
 10
467.713623
 20
221.259323
 10
468.544006
 20
219.7892
 10
469.449615
 20
218.333954
 10
470.429688
 20
216.894913
 10
471.483551
 20
215.473373
 10
472.610382
 20
214.070618
 10
473.809235
 20
212.687897
 10
475.078857
 20
211.326385
 10
476.417999
 20
209.987244
 10
477.825409
 20
208.671646
 10
479.299866
 20
207.380768
 10
480.840088
 20
206.115784
 10
482.444885
 20
204.877838
 10
484.112976
 20
203.668106
 10
485.842804
 20
202.48764
 10
487.632721
 20
201.337402
 10
489.481079
 20
200.218353
 10
491.386139
 20
199.1315
 10
493.346252
 20
198.077774
 10
495.359772
 20
197.058182
 10
497.424988
 20
196.073685
 10
499.540192
 20
195.125214
 10
501.703461
 20
194.213577
 10
503.91275
 20
193.339478
 10
506.166046
 20
192.503647
 10
508.461334
 20
191.706802
 10
510.7966
 20
190.949677
 10
513.1698
 20
190.233002
 10
515.578979
 20
189.55748
 10
518.021973
 20
188.923798
 10
520.496643
 20
188.332397
 10
523.000671
 20
187.783752
 10
525.531799
 20
187.27829
 10
528.087891
 20
186.816422
 10
530.666565
 20
186.398621
 10
533.265564
 20
186.025284
 10
535.88269
 20
185.696884
 10
538.515686
 20
185.413727
 10
541.162109
 20
185.17598
 10
543.819641
 20
184.983734
 10
546.485901
 20
184.837158
 10
549.158447
 20
184.736343
 10
551.835083
 20
184.681427
 10
554.513306
 20
184.672516
 10
557.190796
 20
184.709747
 10
559.865112
 20
184.793091
 10
562.534058
 20
184.922363
 10
565.195129
 20
185.097382
 10
567.846069
 20
185.317947
 10
570.484497
 20
185.583847
 10
573.108032
 20
185.894913
 10
575.714294
 20
186.250946
 10
578.301025
 20
186.651733
 10
580.865845
 20
187.096893
 10
583.406677
 20
187.585922
 10
585.921204
 20
188.118332
 10
588.407227
 20
188.693619
 10
590.862549
 20
189.311249
 10
593.285034
 20
189.970749
 10
595.672363
 20
190.6716
 10
598.0224
 20
191.413284
 10
600.33313
 20
192.195084
 10
602.602539
 20
193.01622
 10
604.828674
 20
193.875946
 10
607.009583
 20
194.773468
 10
609.143372
 20
195.708023
 10
611.227966
 20
196.678818
 10
613.262634
 20
197.685699
  0
LWPOLYLINE
  5
1E1
330
18C
100
AcDbEntity
  8
0
  6
Continuous
 62
     0
370
     0
100
AcDbPolyline
 90
       60
 70
     0
 43
0.0
 10
542.071777
 20
267.650238
 10
542.387695
 20
266.937347
 10
542.625427
 20
266.214447
 10
542.783691
 20
265.484314
 10
542.862183
 20
264.749878
 10
542.861023
 20
264.014008
 10
542.78009
 20
263.279633
 10
542.619446
 20
262.549683
 10
542.379395
 20
261.827026
 10
542.061218
 20
261.114471
 10
541.666443
 20
260.414795
 10
541.196655
 20
259.730774
 10
540.653442
 20
259.065155
 10
540.038574
 20
258.420654
 10
539.354797
 20
257.799683
 10
538.605103
 20
257.20459
 10
537.792419
 20
256.637756
 10
536.919678
 20
256.101562
 10
535.990112
 20
255.59819
 10
535.007629
 20
255.129501
 10
533.976257
 20
254.697189
 10
532.900085
 20
254.302979
 10
531.783203
 20
253.948578
 10
530.629822
 20
253.635559
 10
529.44458
 20
253.36496
 10
528.232361
 20
253.13768
 10
526.997864
 20
252.95462
 10
525.746033
 20
252.816681
 10
524.481567
 20
252.724625
 10
523.209534
 20
252.678589
 10
521.934937
 20
252.678574
 10
520.662903
 20
252.724579
 10
519.398438
 20
252.816605
 10
518.146545
 20
252.954514
 10
516.912109
 20
253.137543
 10
515.699829
 20
253.364777
 10
514.514587
 20
253.635361
 10
513.361206
 20
253.948349
 10
512.244263
 20
254.302719
 10
511.16806
 20
254.696899
 10
510.136658
 20
255.129181
 10
509.154114
 20
255.597855
 10
508.224518
 20
256.101196
 10
507.351776
 20
256.63739
 10
506.539032
 20
257.204193
 10
505.789276
 20
257.799255
 10
505.105438
 20
258.420197
 10
504.49054
 20
259.064697
 10
503.947266
 20
259.730286
 10
503.477448
 20
260.414337
 10
503.082611
 20
261.113983
 10
502.764374
 20
261.826538
 10
502.524261
 20
262.549164
 10
502.363586
 20
263.279114
 10
502.282623
 20
264.013489
 10
502.281403
 20
264.749359
 10
502.359863
 20
265.483795
 10
502.518036
 20
266.213928
 10
502.755707
 20
266.936859
 10
503.071808
 20
267.650269
  0
LWPOLYLINE
  5
1E2
330
18C
100
AcDbEntity
  8
0
  6
Continuous
 62
     0
370
     0
100
AcDbPolyline
 90
       60
 70
     0
 43
0.0
 10
592.129944
 20
238.419281
 10
592.44281
 20
237.723389
 10
592.67926
 20
237.017532
 10
592.837952
 20
236.304459
 10
592.918579
 20
235.587006
 10
592.921204
 20
234.868011
 10
592.845825
 20
234.15036
 10
592.692444
 20
233.436905
 10
592.461243
 20
232.730453
 10
592.153564
 20
232.033798
 10
591.770813
 20
231.349609
 10
591.314636
 20
230.680634
 10
590.786499
 20
230.029572
 10
590.18811
 20
229.399094
 10
589.522217
 20
228.791565
 10
588.791687
 20
228.20932
 10
587.999451
 20
227.654633
 10
587.148376
 20
227.129852
 10
586.241577
 20
226.637161
 10
585.282837
 20
226.178375
 10
584.276184
 20
225.755157
 10
583.225586
 20
225.369171
 10
582.135071
 20
225.022141
 10
581.008728
 20
224.715576
 10
579.851135
 20
224.450516
 10
578.667053
 20
224.227829
 10
577.461182
 20
224.048431
 10
576.238159
 20
223.913177
 10
575.002808
 20
223.82283
 10
573.76001
 20
223.777512
 10
572.514709
 20
223.777237
 10
571.271851
 20
223.822021
 10
570.036377
 20
223.911835
 10
568.813171
 20
224.046555
 10
567.607056
 20
224.225449
 10
566.422668
 20
224.447601
 10
565.264771
 20
224.712158
 10
564.138062
 20
225.018234
 10
563.047058
 20
225.364807
 10
561.995972
 20
225.75032
 10
560.98877
 20
226.173111
 10
560.029419
 20
226.6315
 10
559.121948
 20
227.123795
 10
558.270203
 20
227.648209
 10
557.477234
 20
228.20253
 10
556.745972
 20
228.78447
 10
556.079285
 20
229.391708
 10
555.480103
 20
230.021927
 10
554.951111
 20
230.67276
 10
554.494019
 20
231.341553
 10
554.110413
 20
232.025558
 10
553.801819
 20
232.722092
 10
553.569702
 20
233.428436
 10
553.415405
 20
234.14183
 10
553.339111
 20
234.859451
 10
553.34082
 20
235.57843
 10
553.420532
 20
236.295914
 10
553.578308
 20
237.009064
 10
553.813782
 20
237.715027
 10
554.129944
 20
238.419342
  0
LWPOLYLINE
  5
1E3
330
18C
100
AcDbEntity
  8
0
  6
Continuous
 62
     0
370
    30
100
AcDbPolyline
 90
       16
 70
     0
 43
0.0
 10
508.404022
 20
255.998947
 10
507.559326
 20
256.531158
 10
506.774414
 20
257.093079
 10
506.05249
 20
257.682465
 10
505.396515
 20
258.297028
 10
504.80899
 20
258.934235
 10
504.292236
 20
259.591553
 10
503.84848
 20
260.266449
 10
503.47934
 20
260.956146
 10
503.186279
 20
261.657898
 10
502.970612
 20
262.368958
 10
502.833069
 20
263.086456
 10
502.77417
 20
263.807526
 10
502.794312
 20
264.529297
 10
502.893341
 20
265.248901
 10
503.071808
 20
265.967041
  0
LWPOLYLINE
  5
1E4
330
18C
100
AcDbEntity
  8
0
  6
Continuous
 62
     0
370
    30
100
AcDbPolyline
 90
       16
 70
     0
 43
0.0
 10
542.071777
 20
265.967041
 10
542.249573
 20
265.252502
 10
542.348999
 20
264.532928
 10
542.369507
 20
263.811157
 10
542.310974
 20
263.090057
 10
542.173889
 20
262.372559
 10
541.958618
 20
261.661469
 10
541.665894
 20
260.959656
 10
541.29718
 20
260.269867
 10
540.85376
 20
259.59491
 10
540.337402
 20
258.9375
 10
539.750183
 20
258.300171
 10
539.094604
 20
257.685516
 10
538.372986
 20
257.095978
 10
537.588379
 20
256.533936
 10
536.739563
 20
255.998962
  0
LWPOLYLINE
  5
1E5
330
18C
100
AcDbEntity
  8
0
  6
Continuous
 62
     0
370
    30
100
AcDbPolyline
 90
       16
 70
     0
 43
0.0
 10
559.315369
 20
227.01355
 10
558.491333
 20
227.533157
 10
557.725708
 20
228.081757
 10
557.021667
 20
228.657196
 10
556.382141
 20
229.257187
 10
555.809448
 20
229.879318
 10
555.305969
 20
230.521072
 10
554.87384
 20
231.179947
 10
554.514648
 20
231.853256
 10
554.229858
 20
232.538315
 10
554.020691
 20
233.232407
 10
553.887878
 20
233.932755
 10
553.831909
 20
234.636536
 10
553.853149
 20
235.340942
 10
553.951477
 20
236.043182
 10
554.129944
 20
236.751907
  0
LWPOLYLINE
  5
1E6
330
18C
100
AcDbEntity
  8
0
  6
Continuous
 62
     0
370
    30
100
AcDbPolyline
 90
       16
 70
     0
 43
0.0
 10
592.129944
 20
236.751907
 10
592.306091
 20
236.054764
 10
592.405701
 20
235.3526
 10
592.428223
 20
234.648209
 10
592.373535
 20
233.944397
 10
592.242004
 20
233.243988
 10
592.034119
 20
232.549759
 10
591.750549
 20
231.864532
 10
591.392578
 20
231.19101
 10
590.96167
 20
230.531876
 10
590.459351
 20
229.889816
 10
589.887817
 20
229.267349
 10
589.249329
 20
228.666962
 10
588.546326
 20
228.09111
 10
587.781738
 20
227.542038
 10
586.944458
 20
227.01355
  0
LWPOLYLINE
  5
1E7
330
18C
100
AcDbEntity
  8
0
  6
Continuous
 62
     0
370
    30
100
AcDbPolyline
 90
      100
 70
     0
 43
0.0
 10
605.263062
 20
210.768539
 10
605.175659
 20
210.701096
 10
605.102478
 20
210.628174
 10
605.075317
 20
210.557404
 10
605.117554
 20
210.494766
 10
605.21405
 20
210.439072
 10
605.338867
 20
210.387024
 10
605.466125
 20
210.335403
 10
605.580017
 20
210.282181
 10
605.68219
 20
210.227478
 10
605.77594
 20
210.171646
 10
605.864563
 20
210.115021
 10
605.951477
 20
210.057938
 10
606.039917
 20
210.000748
 10
606.13324
 20
209.943802
 10
606.234192
 20
209.887619
 10
606.34259
 20
209.833801
 10
606.457458
 20
209.784195
 10
606.577698
 20
209.740662
 10
606.702454
 20
209.705032
 10
606.830627
 20
209.679169
 10
606.961243
 20
209.664948
 10
607.093323
 20
209.663925
 10
607.225403
 20
209.67572
 10
607.356018
 20
209.699081
 10
607.483704
 20
209.732773
 10
607.606873
 20
209.775543
 10
607.724121
 20
209.826172
 10
607.833801
 20
209.883377
 10
607.934509
 20
209.945969
 10
608.024536
 20
210.01297
 10
608.101929
 20
210.083557
 10
608.164978
 20
210.156967
 10
608.21167
 20
210.232391
 10
608.240356
 20
210.309021
 10
608.249023
 20
210.386063
 10
608.236023
 20
210.462738
 10
608.201965
 20
210.538284
 10
608.149658
 20
210.611984
 10
608.081909
 20
210.683151
 10
608.001526
 20
210.751083
 10
607.911377
 20
210.815033
 10
607.81427
 20
210.874329
 10
607.713013
 20
210.928284
 10
607.609741
 20
210.977478
 10
607.50592
 20
211.024261
 10
607.402649
 20
211.071106
 10
607.30127
 20
211.120514
 10
607.202942
 20
211.174957
 10
607.109009
 20
211.236923
 10
607.02063
 20
211.308884
 10
606.937256
 20
211.38945
 10
606.850891
 20
211.462463
 10
606.751953
 20
211.508224
 10
606.63147
 20
211.507553
 10
606.505188
 20
211.460358
 10
606.420471
 20
211.39122
 10
606.422302
 20
211.324692
 10
606.505127
 20
211.267456
 10
606.632263
 20
211.215347
 10
606.766724
 20
211.16394
 10
606.8797
 20
211.10994
 10
606.974609
 20
211.054016
 10
607.062622
 20
210.997864
 10
607.155029
 20
210.943161
 10
607.256897
 20
210.890411
 10
607.364075
 20
210.838318
 10
607.471497
 20
210.785446
 10
607.574219
 20
210.730362
 10
607.667175
 20
210.671585
 10
607.745422
 20
210.607697
 10
607.803955
 20
210.537231
 10
607.838562
 20
210.459503
 10
607.848938
 20
210.376953
 10
607.835693
 20
210.292892
 10
607.7995
 20
210.210587
 10
607.740967
 20
210.133362
 10
607.660645
 20
210.064484
 10
607.559265
 20
210.007248
 10
607.438904
 20
209.963852
 10
607.304504
 20
209.934296
 10
607.161499
 20
209.918304
 10
607.015259
 20
209.915634
 10
606.871094
 20
209.925995
 10
606.734497
 20
209.949142
 10
606.610535
 20
209.984741
 10
606.500122
 20
210.031174
 10
606.400024
 20
210.085602
 10
606.306885
 20
210.145142
 10
606.217285
 20
210.206894
 10
606.127869
 20
210.267975
 10
606.035278
 20
210.325516
 10
605.936157
 20
210.376602
 10
605.829895
 20
210.421463
 10
605.723206
 20
210.467972
 10
605.623657
 20
210.525116
 10
605.538452
 20
210.601151
 10
605.462219
 20
210.686127
 10
605.377014
 20
210.751709
 10
605.263062
 20
210.768539
  0
LINE
  5
1E8
330
18C
100
AcDbEntity
  8
0
  6
Continuous
 62
     0
370
    30
100
AcDbLine
 10
605.017081
 20
208.620184
 30
0.0
 11
605.296577
 21
208.458817
 31
0.0
  0
LINE
  5
1E9
330
18C
100
AcDbEntity
  8
0
  6
Continuous
 62
     0
370
    30
100
AcDbLine
 10
605.296577
 20
208.458817
 30
0.0
 11
606.813424
 21
209.334569
 31
0.0
  0
LINE
  5
1EA
330
18C
100
AcDbEntity
  8
0
  6
Continuous
 62
     0
370
    30
100
AcDbLine
 10
606.813424
 20
209.334569
 30
0.0
 11
606.567383
 21
209.476621
 31
0.0
  0
LINE
  5
1EB
330
18C
100
AcDbEntity
  8
0
  6
Continuous
 62
     0
370
    30
100
AcDbLine
 10
606.567383
 20
209.476621
 30
0.0
 11
605.37177
 21
208.786333
 31
0.0
  0
LINE
  5
1EC
330
18C
100
AcDbEntity
  8
0
  6
Continuous
 62
     0
370
    30
100
AcDbLine
 10
605.37177
 20
208.786333
 30
0.0
 11
605.053297
 21
210.328088
 31
0.0
  0
LINE
  5
1ED
330
18C
100
AcDbEntity
  8
0
  6
Continuous
 62
     0
370
    30
100
AcDbLine
 10
605.053297
 20
210.328088
 30
0.0
 11
604.776724
 21
210.487767
 31
0.0
  0
LINE
  5
1EE
330
18C
100
AcDbEntity
  8
0
  6
Continuous
 62
     0
370
    30
100
AcDbLine
 10
604.776724
 20
210.487767
 30
0.0
 11
603.310222
 21
209.641082
 31
0.0
  0
LINE
  5
1EF
330
18C
100
AcDbEntity
  8
0
  6
Continuous
 62
     0
370
    30
100
AcDbLine
 10
603.310222
 20
209.641082
 30
0.0
 11
603.556101
 21
209.499124
 31
0.0
  0
LINE
  5
1F0
330
18C
100
AcDbEntity
  8
0
  6
Continuous
 62
     0
370
    30
100
AcDbLine
 10
603.556101
 20
209.499124
 30
0.0
 11
604.690244
 21
210.153922
 31
0.0
  0
LINE
  5
1F1
330
18C
100
AcDbEntity
  8
0
  6
Continuous
 62
     0
370
    30
100
AcDbLine
 10
604.690244
 20
210.153922
 30
0.0
 11
605.017081
 21
208.620184
 31
0.0
  0
LWPOLYLINE
  5
1F2
330
18C
100
AcDbEntity
  8
0
  6
Continuous
 62
     0
370
    30
100
AcDbPolyline
 90
      105
 70
     0
 43
0.0
 10
608.67041
 20
212.106827
 10
608.759338
 20
212.163437
 10
608.85614
 20
212.220245
 10
608.92218
 20
212.273438
 10
608.920044
 20
212.31926
 10
608.842346
 20
212.355499
 10
608.714417
 20
212.381638
 10
608.563232
 20
212.397232
 10
608.414673
 20
212.401917
 10
608.278992
 20
212.396042
 10
608.155212
 20
212.380508
 10
608.042053
 20
212.356232
 10
607.938232
 20
212.324127
 10
607.842468
 20
212.28508
 10
607.753479
 20
212.240036
 10
607.670044
 20
212.18988
 10
607.591553
 20
212.135437
 10
607.519287
 20
212.077332
 10
607.454712
 20
212.016129
 10
607.399414
 20
211.952377
 10
607.35498
 20
211.886658
 10
607.322876
 20
211.81955
 10
607.304688
 20
211.751602
 10
607.301819
 20
211.68338
 10
607.313904
 20
211.615326
 10
607.339478
 20
211.547806
 10
607.376892
 20
211.48114
 10
607.424561
 20
211.415726
 10
607.480896
 20
211.351883
 10
607.54425
 20
211.289978
 10
607.613159
 20
211.230362
 10
607.686218
 20
211.17337
 10
607.763428
 20
211.119171
 10
607.845032
 20
211.067932
 10
607.931335
 20
211.019821
 10
608.022461
 20
210.975006
 10
608.118652
 20
210.93364
 10
608.220276
 20
210.895905
 10
608.327393
 20
210.861954
 10
608.439697
 20
210.832184
 10
608.556091
 20
210.807281
 10
608.675293
 20
210.787979
 10
608.796204
 20
210.775009
 10
608.91748
 20
210.769058
 10
609.037964
 20
210.770889
 10
609.156433
 20
210.781189
 10
609.27179
 20
210.800537
 10
609.382935
 20
210.828339
 10
609.489014
 20
210.863617
 10
609.589233
 20
210.905365
 10
609.682617
 20
210.952591
 10
609.768311
 20
211.004288
 10
609.845398
 20
211.059464
 10
609.913025
 20
211.117111
 10
609.970215
 20
211.176727
 10
610.016052
 20
211.238617
 10
610.049561
 20
211.303177
 10
610.069641
 20
211.370804
 10
610.075439
 20
211.44191
 10
610.065857
 20
211.516891
 10
610.039917
 20
211.596146
 10
609.9953
 20
211.675079
 10
609.921753
 20
211.719681
 10
609.817261
 20
211.698456
 10
609.729431
 20
211.639328
 10
609.692566
 20
211.572891
 10
609.689453
 20
211.50351
 10
609.697449
 20
211.432663
 10
609.69519
 20
211.361893
 10
609.674683
 20
211.292709
 10
609.635437
 20
211.226654
 10
609.577026
 20
211.165268
 10
609.499878
 20
211.110184
 10
609.407227
 20
211.06337
 10
609.30304
 20
211.026871
 10
609.191528
 20
211.002731
 10
609.075928
 20
210.99205
 10
608.957947
 20
210.993546
 10
608.838806
 20
211.005661
 10
608.719971
 20
211.026764
 10
608.602783
 20
211.055267
 10
608.488586
 20
211.089584
 10
608.378723
 20
211.128113
 10
608.274536
 20
211.169418
 10
608.176758
 20
211.213287
 10
608.085999
 20
211.260056
 10
608.002869
 20
211.310074
 10
607.927856
 20
211.363678
 10
607.861511
 20
211.421204
 10
607.804504
 20
211.483017
 10
607.757385
 20
211.549438
 10
607.721008
 20
211.620239
 10
607.697388
 20
211.693741
 10
607.688599
 20
211.767944
 10
607.696777
 20
211.840881
 10
607.723938
 20
211.910614
 10
607.772217
 20
211.975159
 10
607.84375
 20
212.032562
 10
607.939514
 20
212.080933
 10
608.054443
 20
212.118851
 10
608.181519
 20
212.145035
 10
608.31366
 20
212.158218
 10
608.443848
 20
212.15712
 10
608.565002
 20
212.140472
 10
608.67041
 20
212.106827
  0
LWPOLYLINE
  5
1F3
330
18C
100
AcDbEntity
  8
0
  6
Continuous
 62
     0
370
    30
100
AcDbPolyline
 90
      105
 70
     0
 43
0.0
 10
610.421875
 20
213.118027
 10
610.510742
 20
213.174622
 10
610.607544
 20
213.23143
 10
610.673645
 20
213.284637
 10
610.671509
 20
213.33046
 10
610.593811
 20
213.366699
 10
610.465881
 20
213.392822
 10
610.314697
 20
213.408432
 10
610.166077
 20
213.413101
 10
610.030457
 20
213.407227
 10
609.906616
 20
213.391693
 10
609.793457
 20
213.367416
 10
609.689636
 20
213.335312
 10
609.593872
 20
213.296265
 10
609.504883
 20
213.251221
 10
609.421448
 20
213.20105
 10
609.342957
 20
213.146622
 10
609.270691
 20
213.088516
 10
609.206116
 20
213.027298
 10
609.150818
 20
212.963562
 10
609.106384
 20
212.897842
 10
609.07428
 20
212.830719
 10
609.056091
 20
212.762772
 10
609.053223
 20
212.69455
 10
609.065308
 20
212.626495
 10
609.090942
 20
212.558975
 10
609.128357
 20
212.492325
 10
609.176025
 20
212.426895
 10
609.232361
 20
212.363052
 10
609.295715
 20
212.301147
 10
609.364563
 20
212.241547
 10
609.437622
 20
212.18454
 10
609.514893
 20
212.130341
 10
609.596497
 20
212.079102
 10
609.6828
 20
212.030991
 10
609.773926
 20
211.986176
 10
609.870117
 20
211.944824
 10
609.97168
 20
211.907074
 10
610.078857
 20
211.873123
 10
610.191162
 20
211.843353
 10
610.307556
 20
211.818451
 10
610.426819
 20
211.799149
 10
610.547668
 20
211.786163
 10
610.668945
 20
211.780228
 10
610.789429
 20
211.782043
 10
610.907959
 20
211.792358
 10
611.023254
 20
211.811707
 10
611.134399
 20
211.839523
 10
611.24054
 20
211.874802
 10
611.340698
 20
211.916565
 10
611.434082
 20
211.963791
 10
611.519775
 20
212.015503
 10
611.596863
 20
212.070663
 10
611.664429
 20
212.128326
 10
611.72168
 20
212.187927
 10
611.767517
 20
212.249817
 10
611.800964
 20
212.314377
 10
611.821106
 20
212.382004
 10
611.826843
 20
212.45311
 10
611.817322
 20
212.528091
 10
611.791382
 20
212.607361
 10
611.746826
 20
212.68631
 10
611.67334
 20
212.730927
 10
611.568787
 20
212.709702
 10
611.480957
 20
212.650574
 10
611.444031
 20
212.584137
 10
611.440918
 20
212.514755
 10
611.448914
 20
212.443909
 10
611.446655
 20
212.373123
 10
611.426147
 20
212.30394
 10
611.386902
 20
212.237885
 10
611.328552
 20
212.176498
 10
611.251404
 20
212.121414
 10
611.158691
 20
212.074585
 10
611.054565
 20
212.038071
 10
610.943054
 20
212.013931
 10
610.827454
 20
212.003235
 10
610.709412
 20
212.004745
 10
610.590332
 20
212.016846
 10
610.471497
 20
212.037949
 10
610.354309
 20
212.066452
 10
610.240051
 20
212.100769
 10
610.130249
 20
212.139297
 10
610.026001
 20
212.180603
 10
609.928223
 20
212.224472
 10
609.837463
 20
212.27124
 10
609.754333
 20
212.321243
 10
609.679321
 20
212.374847
 10
609.612976
 20
212.432388
 10
609.555969
 20
212.494186
 10
609.50885
 20
212.560608
 10
609.472473
 20
212.631424
 10
609.448853
 20
212.704926
 10
609.440063
 20
212.779129
 10
609.448181
 20
212.852081
 10
609.475342
 20
212.921814
 10
609.523682
 20
212.986359
 10
609.595215
 20
213.043747
 10
609.690918
 20
213.092117
 10
609.805847
 20
213.130035
 10
609.932922
 20
213.156219
 10
610.065063
 20
213.169403
 10
610.195251
 20
213.168304
 10
610.316406
 20
213.151642
 10
610.421875
 20
213.118027
  0
LINE
  5
1F4
330
18C
100
AcDbEntity
  8
0
  6
Continuous
 62
     0
370
    30
100
AcDbLine
 10
613.891122
 20
213.421067
 30
0.0
 11
611.874236
 21
214.585518
 31
0.0
  0
LINE
  5
1F5
330
18C
100
AcDbEntity
  8
0
  6
Continuous
 62
     0
370
    30
100
AcDbLine
 10
611.874236
 20
214.585518
 30
0.0
 11
611.594983
 21
214.424291
 31
0.0
  0
LINE
  5
1F6
330
18C
100
AcDbEntity
  8
0
  6
Continuous
 62
     0
370
    30
100
AcDbLine
 10
611.594983
 20
214.424291
 30
0.0
 11
612.460918
 21
213.924344
 31
0.0
  0
LINE
  5
1F7
330
18C
100
AcDbEntity
  8
0
  6
Continuous
 62
     0
370
    30
100
AcDbLine
 10
612.460918
 20
213.924344
 30
0.0
 11
611.502738
 21
213.371138
 31
0.0
  0
LINE
  5
1F8
330
18C
100
AcDbEntity
  8
0
  6
Continuous
 62
     0
370
    30
100
AcDbLine
 10
611.502738
 20
213.371138
 30
0.0
 11
610.636804
 21
213.871086
 31
0.0
  0
LINE
  5
1F9
330
18C
100
AcDbEntity
  8
0
  6
Continuous
 62
     0
370
    30
100
AcDbLine
 10
610.636804
 20
213.871086
 30
0.0
 11
610.35747
 21
213.709812
 31
0.0
  0
LINE
  5
1FA
330
18C
100
AcDbEntity
  8
0
  6
Continuous
 62
     0
370
    30
100
AcDbLine
 10
610.35747
 20
213.709812
 30
0.0
 11
612.374357
 21
212.545362
 31
0.0
  0
LINE
  5
1FB
330
18C
100
AcDbEntity
  8
0
  6
Continuous
 62
     0
370
    30
100
AcDbLine
 10
612.374357
 20
212.545362
 30
0.0
 11
612.65369
 21
212.706636
 31
0.0
  0
LINE
  5
1FC
330
18C
100
AcDbEntity
  8
0
  6
Continuous
 62
     0
370
    30
100
AcDbLine
 10
612.65369
 20
212.706636
 30
0.0
 11
611.742933
 21
213.232462
 31
0.0
  0
LINE
  5
1FD
330
18C
100
AcDbEntity
  8
0
  6
Continuous
 62
     0
370
    30
100
AcDbLine
 10
611.742933
 20
213.232462
 30
0.0
 11
612.701112
 21
213.785667
 31
0.0
  0
LINE
  5
1FE
330
18C
100
AcDbEntity
  8
0
  6
Continuous
 62
     0
370
    30
100
AcDbLine
 10
612.701112
 20
213.785667
 30
0.0
 11
613.61187
 21
213.259841
 31
0.0
  0
LINE
  5
1FF
330
18C
100
AcDbEntity
  8
0
  6
Continuous
 62
     0
370
    30
100
AcDbLine
 10
613.61187
 20
213.259841
 30
0.0
 11
613.891122
 21
213.421067
 31
0.0
  0
LINE
  5
200
330
18C
100
AcDbEntity
  8
0
  6
Continuous
 62
     0
370
    30
100
AcDbLine
 10
614.134159
 20
213.561385
 30
0.0
 11
615.421855
 21
214.304836
 31
0.0
  0
LINE
  5
201
330
18C
100
AcDbEntity
  8
0
  6
Continuous
 62
     0
370
    30
100
AcDbLine
 10
615.421855
 20
214.304836
 30
0.0
 11
615.175976
 21
214.446794
 31
0.0
  0
LINE
  5
202
330
18C
100
AcDbEntity
  8
0
  6
Continuous
 62
     0
370
    30
100
AcDbLine
 10
615.175976
 20
214.446794
 30
0.0
 11
614.167614
 21
213.864616
 31
0.0
  0
LINE
  5
203
330
18C
100
AcDbEntity
  8
0
  6
Continuous
 62
     0
370
    30
100
AcDbLine
 10
614.167614
 20
213.864616
 30
0.0
 11
613.502735
 21
214.248484
 31
0.0
  0
LINE
  5
204
330
18C
100
AcDbEntity
  8
0
  6
Continuous
 62
     0
370
    30
100
AcDbLine
 10
613.502735
 20
214.248484
 30
0.0
 11
614.441345
 21
214.790391
 31
0.0
  0
LINE
  5
205
330
18C
100
AcDbEntity
  8
0
  6
Continuous
 62
     0
370
    30
100
AcDbLine
 10
614.441345
 20
214.790391
 30
0.0
 11
614.20115
 21
214.929067
 31
0.0
  0
LINE
  5
206
330
18C
100
AcDbEntity
  8
0
  6
Continuous
 62
     0
370
    30
100
AcDbLine
 10
614.20115
 20
214.929067
 30
0.0
 11
613.26254
 21
214.387161
 31
0.0
  0
LINE
  5
207
330
18C
100
AcDbEntity
  8
0
  6
Continuous
 62
     0
370
    30
100
AcDbLine
 10
613.26254
 20
214.387161
 30
0.0
 11
612.642647
 21
214.745056
 31
0.0
  0
LINE
  5
208
330
18C
100
AcDbEntity
  8
0
  6
Continuous
 62
     0
370
    30
100
AcDbLine
 10
612.642647
 20
214.745056
 30
0.0
 11
614.480646
 21
215.806226
 31
0.0
  0
LINE
  5
209
330
18C
100
AcDbEntity
  8
0
  6
Continuous
 62
     0
370
    30
100
AcDbLine
 10
614.480646
 20
215.806226
 30
0.0
 11
616.251492
 21
214.783828
 31
0.0
  0
LINE
  5
20A
330
18C
100
AcDbEntity
  8
0
  6
Continuous
 62
     0
370
    30
100
AcDbLine
 10
616.251492
 20
214.783828
 30
0.0
 11
616.527902
 21
214.943413
 31
0.0
  0
LINE
  5
20B
330
18C
100
AcDbEntity
  8
0
  6
Continuous
 62
     0
370
    30
100
AcDbLine
 10
616.527902
 20
214.943413
 30
0.0
 11
614.757057
 21
215.965811
 31
0.0
  0
LINE
  5
20C
330
18C
100
AcDbEntity
  8
0
  6
Continuous
 62
     0
370
    30
100
AcDbLine
 10
614.757057
 20
215.965811
 30
0.0
 11
615.71954
 21
216.521501
 31
0.0
  0
LINE
  5
20D
330
18C
100
AcDbEntity
  8
0
  6
Continuous
 62
     0
370
    30
100
AcDbLine
 10
615.71954
 20
216.521501
 30
0.0
 11
617.490385
 21
215.499103
 31
0.0
  0
LINE
  5
20E
330
18C
100
AcDbEntity
  8
0
  6
Continuous
 62
     0
370
    30
100
AcDbLine
 10
617.490385
 20
215.499103
 30
0.0
 11
617.766877
 21
215.658736
 31
0.0
  0
LINE
  5
20F
330
18C
100
AcDbEntity
  8
0
  6
Continuous
 62
     0
370
    30
100
AcDbLine
 10
617.766877
 20
215.658736
 30
0.0
 11
615.996031
 21
216.681134
 31
0.0
  0
LINE
  5
210
330
18C
100
AcDbEntity
  8
0
  6
Continuous
 62
     0
370
    30
100
AcDbLine
 10
615.996031
 20
216.681134
 30
0.0
 11
616.672035
 21
217.071425
 31
0.0
  0
LINE
  5
211
330
18C
100
AcDbEntity
  8
0
  6
Continuous
 62
     0
370
    30
100
AcDbLine
 10
616.672035
 20
217.071425
 30
0.0
 11
616.425994
 21
217.213477
 31
0.0
  0
LINE
  5
212
330
18C
100
AcDbEntity
  8
0
  6
Continuous
 62
     0
370
    30
100
AcDbLine
 10
616.425994
 20
217.213477
 30
0.0
 11
612.117272
 21
214.725835
 31
0.0
  0
LINE
  5
213
330
18C
100
AcDbEntity
  8
0
  6
Continuous
 62
     0
370
    30
100
AcDbLine
 10
612.117272
 20
214.725835
 30
0.0
 11
614.134159
 21
213.561385
 31
0.0
  0
LINE
  5
214
330
18C
100
AcDbEntity
  8
0
  6
Continuous
 62
     0
370
    30
100
AcDbLine
 10
618.6523
 20
216.169935
 30
0.0
 11
618.931715
 21
216.331255
 31
0.0
  0
LINE
  5
215
330
18C
100
AcDbEntity
  8
0
  6
Continuous
 62
     0
370
    30
100
AcDbLine
 10
618.931715
 20
216.331255
 30
0.0
 11
616.914828
 21
217.495705
 31
0.0
  0
LINE
  5
216
330
18C
100
AcDbEntity
  8
0
  6
Continuous
 62
     0
370
    30
100
AcDbLine
 10
616.914828
 20
217.495705
 30
0.0
 11
616.635413
 21
217.334385
 31
0.0
  0
LINE
  5
217
330
18C
100
AcDbEntity
  8
0
  6
Continuous
 62
     0
370
    30
100
AcDbLine
 10
616.635413
 20
217.334385
 30
0.0
 11
618.6523
 21
216.169935
 31
0.0
  0
LINE
  5
218
330
18C
100
AcDbEntity
  8
0
  6
Continuous
 62
     0
370
    30
100
AcDbLine
 10
619.15778
 20
216.461774
 30
0.0
 11
619.438494
 21
216.623844
 31
0.0
  0
LINE
  5
219
330
18C
100
AcDbEntity
  8
0
  6
Continuous
 62
     0
370
    30
100
AcDbLine
 10
619.438494
 20
216.623844
 30
0.0
 11
618.90776
 21
216.930264
 31
0.0
  0
LINE
  5
21A
330
18C
100
AcDbEntity
  8
0
  6
Continuous
 62
     0
370
    30
100
AcDbLine
 10
618.90776
 20
216.930264
 30
0.0
 11
618.627046
 21
216.768193
 31
0.0
  0
LINE
  5
21B
330
18C
100
AcDbEntity
  8
0
  6
Continuous
 62
     0
370
    30
100
AcDbLine
 10
618.627046
 20
216.768193
 30
0.0
 11
619.15778
 21
216.461774
 31
0.0
  0
LINE
  5
21C
330
18C
100
AcDbEntity
  8
0
  6
Continuous
 62
     0
370
    30
100
AcDbLine
 10
592.42993
 20
234.794959
 30
0.0
 11
592.418616
 21
234.423695
 31
0.0
  0
LINE
  5
21D
330
18C
100
AcDbEntity
  8
0
  6
Continuous
 62
     0
370
    30
100
AcDbLine
 10
553.82993
 20
234.794894
 30
0.0
 11
553.841243
 21
234.423665
 31
0.0
  0
LINE
  5
21E
330
18C
100
AcDbEntity
  8
0
  6
Continuous
 62
     0
370
    30
100
AcDbLine
 10
542.371795
 20
263.984713
 30
0.0
 11
542.360172
 21
263.603315
 31
0.0
  0
LINE
  5
21F
330
18C
100
AcDbEntity
  8
0
  6
Continuous
 62
     0
370
    30
100
AcDbLine
 10
502.771795
 20
263.984647
 30
0.0
 11
502.783417
 21
263.603285
 31
0.0
  0
LINE
  5
220
330
18C
100
AcDbEntity
  8
0
  6
Continuous
 62
     0
370
    30
100
AcDbLine
 10
592.42993
 20
233.1619
 30
0.0
 11
592.42993
 21
234.423695
 31
0.0
  0
LINE
  5
221
330
18C
100
AcDbEntity
  8
0
  6
Continuous
 62
     0
370
    30
100
AcDbLine
 10
619.488557
 20
202.850659
 30
0.0
 11
620.670508
 21
202.168259
 31
0.0
  0
LINE
  5
222
330
18C
100
AcDbEntity
  8
0
  6
Continuous
 62
     0
370
    30
100
AcDbLine
 10
643.684494
 20
236.632011
 30
0.0
 11
643.684494
 21
245.613474
 31
0.0
  0
LINE
  5
223
330
18C
100
AcDbEntity
  8
0
  6
Continuous
 62
     0
370
    30
100
AcDbLine
 10
463.684494
 20
245.613474
 30
0.0
 11
463.684494
 21
236.632012
 31
0.0
  0
LINE
  5
224
330
18C
100
AcDbEntity
  8
0
  6
Continuous
 62
     0
370
    30
100
AcDbLine
 10
643.684494
 20
245.618135
 30
0.0
 11
643.627686
 21
247.481591
 31
0.0
  0
LINE
  5
225
330
18C
100
AcDbEntity
  8
0
  6
Continuous
 62
     0
370
    30
100
AcDbLine
 10
463.684494
 20
245.613475
 30
0.0
 11
463.741299
 21
247.477349
 31
0.0
  0
LWPOLYLINE
  5
226
330
18C
100
AcDbEntity
  8
0
  6
Continuous
 62
     0
370
    30
100
AcDbPolyline
 90
       34
 70
     0
 43
0.0
 10
503.071808
 20
288.954498
 10
500.908417
 20
288.072662
 10
498.790222
 20
287.154297
 10
496.719055
 20
286.200134
 10
494.696747
 20
285.210907
 10
492.725098
 20
284.187439
 10
490.805908
 20
283.130493
 10
488.94104
 20
282.040771
 10
487.132263
 20
280.919128
 10
485.380981
 20
279.766479
 10
483.688507
 20
278.583862
 10
482.056091
 20
277.372375
 10
480.485046
 20
276.132996
 10
478.976593
 20
274.866791
 10
477.532074
 20
273.574799
 10
476.15274
 20
272.258057
 10
474.839844
 20
270.917603
 10
473.594696
 20
269.554504
 10
472.418579
 20
268.169769
 10
471.312744
 20
266.764465
 10
470.278473
 20
265.33963
 10
469.316589
 20
263.896423
 10
468.427887
 20
262.436127
 10
467.613159
 20
260.959961
 10
466.873138
 20
259.469177
 10
466.208557
 20
257.964966
 10
465.620239
 20
256.448578
 10
465.108917
 20
254.921234
 10
464.675262
 20
253.384308
 10
464.319702
 20
251.839554
 10
464.042511
 20
250.288864
 10
463.844055
 20
248.734131
 10
463.724609
 20
247.177216
 10
463.684479
 20
245.61348
  0
LWPOLYLINE
  5
227
330
18C
100
AcDbEntity
  8
0
  6
Continuous
 62
     0
370
    30
100
AcDbPolyline
 90
        5
 70
     0
 43
0.0
 10
553.133301
 20
297.994659
 10
550.597107
 20
297.965576
 10
548.063416
 20
297.894928
 10
545.534302
 20
297.782623
 10
542.071777
 20
297.560394
  0
LWPOLYLINE
  5
228
330
18C
100
AcDbEntity
  8
0
  6
Continuous
 62
     0
370
    30
100
AcDbPolyline
 90
       12
 70
     0
 43
0.0
 10
617.117004
 20
282.813599
 10
615.163147
 20
283.90802
 10
613.152527
 20
284.967957
 10
611.08728
 20
285.992371
 10
608.969482
 20
286.980164
 10
606.80127
 20
287.930206
 10
604.584717
 20
288.841461
 10
602.32196
 20
289.713104
 10
600.015198
 20
290.544464
 10
597.666565
 20
291.334991
 10
595.27832
 20
292.084045
 10
592.629944
 20
292.853271
  0
LWPOLYLINE
  5
229
330
18C
100
AcDbEntity
  8
0
  6
Continuous
 62
     0
370
    30
100
AcDbPolyline
 90
       28
 70
     0
 43
0.0
 10
617.117004
 20
282.813599
 10
618.943298
 20
281.727966
 10
620.715698
 20
280.611023
 10
622.432556
 20
279.463837
 10
624.092102
 20
278.287445
 10
625.692749
 20
277.082916
 10
627.232727
 20
275.851288
 10
628.710632
 20
274.593628
 10
630.125244
 20
273.310913
 10
631.475586
 20
272.004211
 10
632.760437
 20
270.67453
 10
633.978821
 20
269.322906
 10
635.129517
 20
267.950348
 10
636.211487
 20
266.557892
 10
637.223694
 20
265.146576
 10
638.1651
 20
263.717499
 10
639.035095
 20
262.271881
 10
639.832825
 20
260.810913
 10
640.557495
 20
259.335754
 10
641.208435
 20
257.847626
 10
641.78479
 20
256.347717
 10
642.285889
 20
254.837204
 10
642.710999
 20
253.317383
 10
643.059692
 20
251.789978
 10
643.331726
 20
250.256805
 10
643.526733
 20
248.719696
 10
643.644409
 20
247.180481
 10
643.684509
 20
245.618134
  0
LINE
  5
22A
330
18C
100
AcDbEntity
  8
0
  6
Continuous
 62
     0
370
    30
100
AcDbLine
 10
592.629931
 20
299.583895
 30
0.0
 11
592.629931
 21
267.33228
 31
0.0
  0
LINE
  5
22B
330
18C
100
AcDbEntity
  8
0
  6
Continuous
 62
     0
370
    30
100
AcDbLine
 10
553.629931
 20
299.583895
 30
0.0
 11
553.629931
 21
267.33228
 31
0.0
  0
LINE
  5
22C
330
18C
100
AcDbEntity
  8
0
  6
Continuous
 62
     0
370
    30
100
AcDbLine
 10
584.346558
 20
278.993059
 30
0.0
 11
584.456697
 21
278.934604
 31
0.0
  0
LINE
  5
22D
330
18C
100
AcDbEntity
  8
0
  6
Continuous
 62
     0
370
    30
100
AcDbLine
 10
589.145946
 20
287.306389
 30
0.0
 11
589.251771
 21
287.240043
 31
0.0
  0
ENDBLK
  5
22F
330
18C
100
AcDbEntity
  8
0
100
AcDbBlockEnd
  0
BLOCK
  5
290
330
231
100
AcDbEntity
  8
0
100
AcDbBlockBegin
  2
e
 70
     0
 10
173.833954
 20
0.0
 30
0.0
  3
e
  1

  0
LINE
  5
232
330
231
100
AcDbEntity
  8
0
  6
Continuous
 62
     0
370
    30
100
AcDbLine
 10
39.009485
 20
450.847372
 30
0.0
 11
39.002067
 21
449.997368
 31
0.0
  0
LINE
  5
233
330
231
100
AcDbEntity
  8
0
  6
Continuous
 62
     0
370
    30
100
AcDbLine
 10
4.009485
 20
450.847372
 30
0.0
 11
4.016903
 21
449.997368
 31
0.0
  0
LINE
  5
234
330
231
100
AcDbEntity
  8
0
  6
Continuous
 62
     0
370
    30
100
AcDbLine
 10
2.509485
 20
449.997368
 30
0.0
 11
2.968399
 21
449.997368
 31
0.0
  0
LINE
  5
235
330
231
100
AcDbEntity
  8
0
  6
Continuous
 62
     0
370
    30
100
AcDbLine
 10
2.968399
 20
449.997368
 30
0.0
 11
40.509485
 21
449.997368
 31
0.0
  0
LINE
  5
236
330
231
100
AcDbEntity
  8
0
  6
Continuous
 62
     0
370
    30
100
AcDbLine
 10
40.509485
 20
449.997368
 30
0.0
 11
40.509485
 21
411.497368
 31
0.0
  0
LINE
  5
237
330
231
100
AcDbEntity
  8
0
  6
Continuous
 62
     0
370
    30
100
AcDbLine
 10
2.509485
 20
449.997368
 30
0.0
 11
2.509485
 21
411.497368
 31
0.0
  0
LINE
  5
238
330
231
100
AcDbEntity
  8
0
  6
Continuous
 62
     0
370
    30
100
AcDbLine
 10
40.977505
 20
483.797367
 30
0.0
 11
47.359493
 21
483.797367
 31
0.0
  0
LINE
  5
239
330
231
100
AcDbEntity
  8
0
  6
Continuous
 62
     0
370
    30
100
AcDbLine
 10
47.359493
 20
475.897367
 30
0.0
 11
47.359493
 21
483.797367
 31
0.0
  0
LINE
  5
23A
330
231
100
AcDbEntity
  8
0
  6
Continuous
 62
     0
370
    30
100
AcDbLine
 10
47.359493
 20
483.797367
 30
0.0
 11
47.859493
 21
483.297367
 31
0.0
  0
LINE
  5
23B
330
231
100
AcDbEntity
  8
0
  6
Continuous
 62
     0
370
    30
100
AcDbLine
 10
47.859493
 20
483.297367
 30
0.0
 11
47.859493
 21
476.397367
 31
0.0
  0
LINE
  5
23C
330
231
100
AcDbEntity
  8
0
  6
Continuous
 62
     0
370
    30
100
AcDbLine
 10
47.859493
 20
476.397367
 30
0.0
 11
47.859493
 21
483.297367
 31
0.0
  0
LINE
  5
23D
330
231
100
AcDbEntity
  8
0
  6
Continuous
 62
     0
370
    30
100
AcDbLine
 10
40.977219
 20
475.897367
 30
0.0
 11
47.359493
 21
475.897367
 31
0.0
  0
LINE
  5
23E
330
231
100
AcDbEntity
  8
0
  6
Continuous
 62
     0
370
    30
100
AcDbLine
 10
114.759485
 20
464.797373
 30
0.0
 11
93.009484
 21
464.797373
 31
0.0
  0
ARC
  5
23F
330
231
100
AcDbEntity
  8
0
  6
Continuous
 62
     0
370
    30
100
AcDbCircle
 10
120.532481
 20
489.36061
 30
0.0
 40
15.0
100
AcDbArc
 50
10.0
 51
23.835223
  0
LINE
  5
240
330
231
100
AcDbEntity
  8
0
  6
Continuous
 62
     0
370
     0
100
AcDbLine
 10
135.498889
 20
488.357301
 30
0.0
 11
134.253152
 21
495.422226
 31
0.0
  0
LINE
  5
241
330
231
100
AcDbEntity
  8
0
  6
Continuous
 62
     0
370
     0
100
AcDbLine
 10
134.509954
 20
487.255796
 30
0.0
 11
132.94712
 21
496.119066
 31
0.0
  0
ARC
  5
242
330
231
100
AcDbEntity
  8
0
  6
Continuous
 62
     0
370
    30
100
AcDbCircle
 10
133.155498
 20
494.937297
 30
0.0
 40
1.200000047683717
100
AcDbArc
 50
23.835223
 51
100.0
  0
LWPOLYLINE
  5
243
330
231
100
AcDbEntity
  8
0
  6
Continuous
 62
     0
370
    30
100
AcDbPolyline
 90
       30
 70
     0
 43
0.0
 10
71.557266
 20
474.80072
 10
71.591568
 20
474.784698
 10
71.694214
 20
474.736847
 10
71.864487
 20
474.65744
 10
72.101654
 20
474.546844
 10
72.404472
 20
474.40564
 10
72.771164
 20
474.23465
 10
73.199898
 20
474.034729
 10
73.688728
 20
473.806793
 10
74.235191
 20
473.551971
 10
74.83667
 20
473.271484
 10
75.490562
 20
472.966583
 10
76.194183
 20
472.638489
 10
76.944641
 20
472.288544
 10
77.739014
 20
471.918121
 10
78.574364
 20
471.528595
 10
79.447762
 20
471.121307
 10
80.356293
 20
470.697662
 10
81.297043
 20
470.258972
 10
82.267113
 20
469.80661
 10
83.263695
 20
469.341919
 10
84.283997
 20
468.86615
 10
85.325226
 20
468.380615
 10
86.384682
 20
467.886566
 10
87.459702
 20
467.385284
 10
88.54763
 20
466.87796
 10
89.645836
 20
466.365875
 10
90.751793
 20
465.850159
 10
91.862999
 20
465.332001
 10
93.009483
 20
464.797363
  0
LWPOLYLINE
  5
244
330
231
100
AcDbEntity
  8
0
  6
Continuous
 62
     0
370
    30
100
AcDbPolyline
 90
       18
 70
     0
 43
0.0
 10
72.399681
 20
484.347382
 10
72.399345
 20
484.308899
 10
72.398018
 20
484.194519
 10
72.39463
 20
484.008423
 10
72.387543
 20
483.757355
 10
72.375145
 20
483.449158
 10
72.356049
 20
483.095123
 10
72.328972
 20
482.707611
 10
72.293488
 20
482.299713
 10
72.25042
 20
481.885681
 10
72.201012
 20
481.479614
 10
72.147919
 20
481.094635
 10
72.094284
 20
480.7435
 10
72.043388
 20
480.437897
 10
71.998825
 20
480.187561
 10
71.964104
 20
480.001587
 10
71.941994
 20
479.88681
 10
71.934258
 20
479.847382
  0
LINE
  5
245
330
231
100
AcDbEntity
  8
0
  6
Continuous
 62
     0
370
    30
100
AcDbLine
 10
132.94712
 20
496.119066
 30
0.0
 11
100.976051
 21
490.481704
 31
0.0
  0
LWPOLYLINE
  5
246
330
231
100
AcDbEntity
  8
0
  6
Continuous
 62
     0
370
     0
100
AcDbPolyline
 90
       35
 70
     0
 43
0.0
 10
100.976051
 20
490.481689
 10
101.017029
 20
490.480591
 10
101.133377
 20
490.477325
 10
101.310028
 20
490.472137
 10
101.531281
 20
490.465271
 10
101.784714
 20
490.456879
 10
102.061516
 20
490.447052
 10
102.355606
 20
490.435913
 10
102.662811
 20
490.423462
 10
102.980194
 20
490.409729
 10
103.305649
 20
490.394745
 10
103.637619
 20
490.37854
 10
103.974937
 20
490.361053
 10
104.316711
 20
490.342377
 10
104.662254
 20
490.322479
 10
105.011002
 20
490.301331
 10
105.362511
 20
490.278961
 10
105.716415
 20
490.255371
 10
106.072411
 20
490.230591
 10
106.430244
 20
490.204559
 10
106.789703
 20
490.177338
 10
107.150612
 20
490.148865
 10
107.512794
 20
490.119202
 10
107.876129
 20
490.088348
 10
108.240486
 20
490.056244
 10
108.605751
 20
490.022949
 10
108.971848
 20
489.988464
 10
109.338669
 20
489.952759
 10
109.706146
 20
489.915894
 10
110.074211
 20
489.877777
 10
110.442787
 20
489.838501
 10
110.811821
 20
489.798035
 10
111.181252
 20
489.756409
 10
111.551025
 20
489.713562
 10
111.93219
 20
489.668243
  0
LWPOLYLINE
  5
247
330
231
100
AcDbEntity
  8
0
  6
Continuous
 62
     0
370
     0
100
AcDbPolyline
 90
        9
 70
     0
 43
0.0
 10
114.217468
 20
487.858093
 10
114.133087
 20
488.18985
 10
113.980064
 20
488.503998
 10
113.766846
 20
488.793823
 10
113.496948
 20
489.052856
 10
113.173439
 20
489.274414
 10
112.801453
 20
489.453308
 10
112.387138
 20
489.585358
 10
111.93219
 20
489.668243
  0
LWPOLYLINE
  5
248
330
231
100
AcDbEntity
  8
0
  6
Continuous
 62
     0
370
     0
100
AcDbPolyline
 90
       15
 70
     0
 43
0.0
 10
114.628929
 20
483.750244
 10
114.651787
 20
483.78476
 10
114.694572
 20
483.880859
 10
114.722046
 20
484.028381
 10
114.714569
 20
484.221069
 10
114.684456
 20
484.45694
 10
114.640511
 20
484.732758
 10
114.585609
 20
485.044281
 10
114.523705
 20
485.387238
 10
114.458839
 20
485.757263
 10
114.394516
 20
486.149994
 10
114.337349
 20
486.561096
 10
114.294006
 20
486.985596
 10
114.257599
 20
487.419006
 10
114.217468
 20
487.858093
  0
LINE
  5
249
330
231
100
AcDbEntity
  8
0
  6
Continuous
 62
     0
370
     0
100
AcDbLine
 10
112.351401
 20
487.421364
 30
0.0
 11
72.78821
 21
487.421364
 31
0.0
  0
LWPOLYLINE
  5
24A
330
231
100
AcDbEntity
  8
0
  6
Continuous
 62
     0
370
     0
100
AcDbPolyline
 90
        7
 70
     0
 43
0.0
 10
112.351402
 20
487.421356
 10
112.277962
 20
487.66333
 10
112.169487
 20
487.891113
 10
112.025467
 20
488.095428
 10
111.848663
 20
488.268311
 10
111.641121
 20
488.40332
 10
111.346588
 20
488.510254
  0
LINE
  5
24B
330
231
100
AcDbEntity
  8
0
  6
Continuous
 62
     0
370
     0
100
AcDbLine
 10
111.346588
 20
488.510242
 30
0.0
 11
73.771595
 21
488.510242
 31
0.0
  0
LWPOLYLINE
  5
24C
330
231
100
AcDbEntity
  8
0
  6
Continuous
 62
     0
370
     0
100
AcDbPolyline
 90
       34
 70
     0
 43
0.0
 10
100.447456
 20
490.459564
 10
100.490616
 20
490.454651
 10
100.612778
 20
490.440674
 10
100.797447
 20
490.419189
 10
101.027802
 20
490.391815
 10
101.290794
 20
490.359741
 10
101.577332
 20
490.323822
 10
101.881233
 20
490.284668
 10
102.198265
 20
490.242584
 10
102.525482
 20
490.197876
 10
102.860779
 20
490.150696
 10
103.202614
 20
490.101196
 10
103.549835
 20
490.0495
 10
103.901535
 20
489.995605
 10
104.25705
 20
489.939636
 10
104.615814
 20
489.881592
 10
104.977386
 20
489.821533
 10
105.341415
 20
489.759491
 10
105.707588
 20
489.695496
 10
106.075668
 20
489.629547
 10
106.445435
 20
489.561676
 10
106.816704
 20
489.491882
 10
107.189323
 20
489.420227
 10
107.563148
 20
489.34668
 10
107.938072
 20
489.27124
 10
108.313972
 20
489.19397
 10
108.690758
 20
489.114838
 10
109.068344
 20
489.033875
 10
109.446648
 20
488.95108
 10
109.8256
 20
488.866516
 10
110.205132
 20
488.780121
 10
110.585175
 20
488.691925
 10
110.965675
 20
488.601959
 10
111.346588
 20
488.510254
  0
ARC
  5
24D
330
231
100
AcDbEntity
  8
0
  6
Continuous
 62
     0
370
    30
100
AcDbCircle
 10
93.009485
 20
408.745373
 30
0.0
 40
82.0519999999998
100
AcDbArc
 50
84.799028
 51
90.0
  0
ARC
  5
24E
330
231
100
AcDbEntity
  8
0
  6
Continuous
 62
     0
370
    30
100
AcDbCircle
 10
-53.413999
 20
464.797373
 30
0.0
 40
168.1734848484853
100
AcDbArc
 50
360.0
 51
6.096932
  0
LWPOLYLINE
  5
24F
330
231
100
AcDbEntity
  8
0
  6
Continuous
 62
     0
370
     0
100
AcDbPolyline
 90
       25
 70
     0
 43
0.0
 10
113.808235
 20
482.65921
 10
113.80529
 20
482.658295
 10
113.795959
 20
482.660889
 10
113.779579
 20
482.674225
 10
113.755569
 20
482.7052
 10
113.723343
 20
482.760895
 10
113.682915
 20
482.844604
 10
113.634857
 20
482.9552
 10
113.580078
 20
483.087921
 10
113.51931
 20
483.240631
 10
113.453087
 20
483.413513
 10
113.382095
 20
483.605652
 10
113.307045
 20
483.816132
 10
113.228653
 20
484.044098
 10
113.147667
 20
484.288696
 10
113.064827
 20
484.54895
 10
112.980858
 20
484.823822
 10
112.896584
 20
485.112427
 10
112.812561
 20
485.413483
 10
112.729263
 20
485.724945
 10
112.647644
 20
486.043762
 10
112.567749
 20
486.374176
 10
112.490196
 20
486.718933
 10
112.421379
 20
487.047485
 10
112.351402
 20
487.421356
  0
ARC
  5
250
330
231
100
AcDbEntity
  8
0
  6
Continuous
 62
     0
370
    30
100
AcDbCircle
 10
114.802578
 20
482.765428
 30
0.0
 40
1.000000000000001
100
AcDbArc
 50
100.0
 51
186.096932
  0
ELLIPSE
  5
251
330
231
100
AcDbEntity
  8
0
  6
Continuous
 62
     0
370
     0
100
AcDbEllipse
 10
114.247037
 20
487.69042
 30
0.0
 11
1.972244985018197
 21
0.332038731280817
 31
0.0
210
0.0
220
0.0
230
-1.0
 40
0.08513
 41
3.435914365721545
 42
4.711729994643971
  0
ELLIPSE
  5
252
330
231
100
AcDbEntity
  8
0
  6
Continuous
 62
     0
370
     0
100
AcDbEllipse
 10
111.793551
 20
490.454494
 30
0.0
 11
-0.4722631870754961
 21
-1.943442173601592
 31
0.0
210
0.0
220
0.0
230
-1.0
 40
0.172107
 41
5.08671357908203
 42
6.211144866073072
  0
LINE
  5
253
330
231
100
AcDbEntity
  8
0
  6
Continuous
 62
     0
370
    30
100
AcDbLine
 10
114.000454
 20
483.362585
 30
0.0
 11
114.123223
 21
483.499202
 31
0.0
  0
LINE
  5
254
330
231
100
AcDbEntity
  8
0
  6
Continuous
 62
     0
370
    30
100
AcDbLine
 10
114.628931
 20
483.750235
 30
0.0
 11
114.452002
 21
483.701842
 31
0.0
  0
LINE
  5
255
330
231
100
AcDbEntity
  8
0
  6
Continuous
 62
     0
370
    30
100
AcDbLine
 10
71.557279
 20
474.801038
 30
0.0
 11
71.934258
 21
479.847373
 31
0.0
  0
LINE
  5
256
330
231
100
AcDbEntity
  8
0
  6
Continuous
 62
     0
370
    30
100
AcDbLine
 10
72.78821
 20
487.421365
 30
0.0
 11
72.399685
 21
484.347373
 31
0.0
  0
ARC
  5
257
330
231
100
AcDbEntity
  8
0
  6
Continuous
 62
     0
370
    30
100
AcDbCircle
 10
93.009868
 20
408.742156
 30
0.0
 40
82.05521722868465
100
AcDbArc
 50
90.00162
 51
103.559512
  0
ARC
  5
258
330
231
100
AcDbEntity
  8
0
  6
Continuous
 62
     0
370
    30
100
AcDbCircle
 10
74.077671
 20
487.245324
 30
0.0
 40
1.301422255541274
100
AcDbArc
 50
103.602812
 51
172.225899
  0
LINE
  5
259
330
231
100
AcDbEntity
  8
0
  6
Continuous
 62
     0
370
    30
100
AcDbLine
 10
134.509954
 20
487.255796
 30
0.0
 11
114.62893
 21
483.750235
 31
0.0
  0
ARC
  5
25A
330
231
100
AcDbEntity
  8
0
  6
Continuous
 62
     0
370
    30
100
AcDbCircle
 10
134.299374
 20
488.439543
 30
0.0
 40
1.20233093064514
100
AcDbArc
 50
280.086988
 51
356.077788
  0
ARC
  5
25B
330
231
100
AcDbEntity
  8
0
  6
Continuous
 62
     0
370
    30
100
AcDbCircle
 10
120.526329
 20
489.360279
 30
0.0
 40
15.00611556197443
100
AcDbArc
 50
356.167609
 51
9.995787
  0
LINE
  5
25C
330
231
100
AcDbEntity
  8
0
  6
Continuous
 62
     0
370
    30
100
AcDbLine
 10
135.304597
 20
491.965333
 30
0.0
 11
135.22383
 21
492.387862
 31
0.0
  0
LINE
  5
25D
330
231
100
AcDbEntity
  8
0
  6
Continuous
 62
     0
370
     0
100
AcDbLine
 10
82.930314
 20
469.497368
 30
0.0
 11
73.509487
 21
469.497368
 31
0.0
  0
LINE
  5
25E
330
231
100
AcDbEntity
  8
0
  6
Continuous
 62
     0
370
    30
100
AcDbLine
 10
75.199482
 20
469.997368
 30
0.0
 11
81.858061
 21
469.997368
 31
0.0
  0
LINE
  5
25F
330
231
100
AcDbEntity
  8
0
  6
Continuous
 62
     0
370
    30
100
AcDbLine
 10
74.009487
 20
469.997368
 30
0.0
 11
75.199482
 21
469.997368
 31
0.0
  0
LINE
  5
260
330
231
100
AcDbEntity
  8
0
  6
Continuous
 62
     0
370
    30
100
AcDbLine
 10
81.85806
 20
469.997368
 30
0.0
 11
74.009487
 21
469.997368
 31
0.0
  0
LINE
  5
261
330
231
100
AcDbEntity
  8
0
  6
Continuous
 62
     0
370
    30
100
AcDbLine
 10
73.509487
 20
411.497368
 30
0.0
 11
73.509487
 21
469.497368
 31
0.0
  0
LINE
  5
262
330
231
100
AcDbEntity
  8
0
  6
Continuous
 62
     0
370
    30
100
AcDbLine
 10
112.509487
 20
411.497368
 30
0.0
 11
112.509487
 21
464.797373
 31
0.0
  0
LWPOLYLINE
  5
263
330
231
100
AcDbEntity
  8
0
  6
Continuous
 62
     0
370
    30
100
AcDbPolyline
 90
       24
 70
     0
 43
0.0
 10
2.253096
 20
484.647339
 10
2.253096
 20
484.608154
 10
2.253096
 20
484.491852
 10
2.253096
 20
484.300262
 10
2.253096
 20
484.035797
 10
2.253096
 20
483.703369
 10
2.253096
 20
483.308563
 10
2.253096
 20
482.857117
 10
2.253096
 20
482.35675
 10
2.253096
 20
481.815826
 10
2.253096
 20
481.242737
 10
2.253096
 20
480.646942
 10
2.253096
 20
480.038177
 10
2.253096
 20
479.426361
 10
2.253096
 20
478.82132
 10
2.253096
 20
478.23288
 10
2.253096
 20
477.670898
 10
2.253096
 20
477.144348
 10
2.253096
 20
476.661499
 10
2.253096
 20
476.230408
 10
2.253096
 20
475.858185
 10
2.253096
 20
475.550964
 10
2.253096
 20
475.313507
 10
2.253096
 20
475.147919
  0
LINE
  5
264
330
231
100
AcDbEntity
  8
0
  6
Continuous
 62
     0
370
    30
100
AcDbLine
 10
2.059485
 20
475.294617
 30
0.0
 11
2.059485
 21
484.393483
 31
0.0
  0
LINE
  5
265
330
231
100
AcDbEntity
  8
0
  6
Continuous
 62
     0
370
    30
100
AcDbLine
 10
2.509485
 20
475.147905
 30
0.0
 11
2.509485
 21
484.64706
 31
0.0
  0
ARC
  5
266
330
231
100
AcDbEntity
  8
0
  6
Continuous
 62
     0
370
    30
100
AcDbCircle
 10
-17.225541
 20
479.836386
 30
0.0
 40
19.81547731267784
100
AcDbArc
 50
346.47436
 51
13.902226
  0
LWPOLYLINE
  5
267
330
231
100
AcDbEntity
  8
0
  6
Continuous
 62
     0
370
    30
100
AcDbPolyline
 90
        7
 70
     0
 43
0.0
 10
41.009483
 20
483.947357
 10
41.002098
 20
483.913971
 10
40.981468
 20
483.816589
 10
40.949875
 20
483.659515
 10
40.909599
 20
483.446991
 10
40.86293
 20
483.18335
 10
40.808189
 20
482.847412
  0
LINE
  5
268
330
231
100
AcDbEntity
  8
0
  6
Continuous
 62
     0
370
    30
100
AcDbLine
 10
2.009219
 20
450.847366
 30
0.0
 11
41.00975
 21
450.847366
 31
0.0
  0
LINE
  5
269
330
231
100
AcDbEntity
  8
0
  6
Continuous
 62
     0
370
    30
100
AcDbLine
 10
41.009484
 20
490.347366
 30
0.0
 11
40.601367
 21
490.347366
 31
0.0
  0
LINE
  5
26A
330
231
100
AcDbEntity
  8
0
  6
Continuous
 62
     0
370
    30
100
AcDbLine
 10
40.082999
 20
490.847366
 30
0.0
 11
40.509484
 21
490.847366
 31
0.0
  0
LINE
  5
26B
330
231
100
AcDbEntity
  8
0
  6
Continuous
 62
     0
370
    30
100
AcDbLine
 10
40.08366
 20
490.847366
 30
0.0
 11
2.506304
 21
490.847366
 31
0.0
  0
LWPOLYLINE
  5
26C
330
231
100
AcDbEntity
  8
0
  6
Continuous
 62
     0
370
    30
100
AcDbPolyline
 90
       48
 70
     0
 43
0.0
 10
2.009485
 20
490.347351
 10
2.040549
 20
490.347351
 10
2.136389
 20
490.347351
 10
2.300664
 20
490.347351
 10
2.53653
 20
490.347351
 10
2.846525
 20
490.347351
 10
3.232459
 20
490.347351
 10
3.695314
 20
490.347351
 10
4.235163
 20
490.347351
 10
4.851109
 20
490.347351
 10
5.54125
 20
490.347351
 10
6.302676
 20
490.347351
 10
7.131497
 20
490.347351
 10
8.022902
 20
490.347351
 10
8.971252
 20
490.347351
 10
9.970198
 20
490.347351
 10
11.012818
 20
490.347351
 10
12.091782
 20
490.347351
 10
13.199503
 20
490.347351
 10
14.328316
 20
490.347351
 10
15.470626
 20
490.347351
 10
16.619062
 20
490.347351
 10
17.766605
 20
490.347351
 10
18.906693
 20
490.347351
 10
20.033306
 20
490.347351
 10
21.141039
 20
490.347351
 10
22.236164
 20
490.347351
 10
23.350599
 20
490.347351
 10
24.482224
 20
490.347351
 10
25.625425
 20
490.347351
 10
26.774004
 20
490.347351
 10
27.921236
 20
490.347351
 10
29.059975
 20
490.347351
 10
30.182762
 20
490.347351
 10
31.281963
 20
490.347351
 10
32.349918
 20
490.347351
 10
33.379108
 20
490.347351
 10
34.36232
 20
490.347351
 10
35.292797
 20
490.347351
 10
36.16441
 20
490.347351
 10
36.971775
 20
490.347351
 10
37.710377
 20
490.347351
 10
38.376633
 20
490.347351
 10
38.967968
 20
490.347351
 10
39.482803
 20
490.347351
 10
39.920563
 20
490.347351
 10
40.281624
 20
490.347351
 10
40.571774
 20
490.347351
  0
ARC
  5
26D
330
231
100
AcDbEntity
  8
0
  6
Continuous
 62
     0
370
    30
100
AcDbCircle
 10
60.215458
 20
479.844738
 30
0.0
 40
19.63817365523393
100
AcDbArc
 50
171.20512
 51
192.042853
  0
LWPOLYLINE
  5
26E
330
231
100
AcDbEntity
  8
0
  6
Continuous
 62
     0
370
    30
100
AcDbPolyline
 90
       36
 70
     0
 43
0.0
 10
40.015984
 20
455.439758
 10
40.051891
 20
455.37384
 10
40.087406
 20
455.307953
 10
40.122429
 20
455.242065
 10
40.156868
 20
455.176117
 10
40.190636
 20
455.110107
 10
40.223648
 20
455.044006
 10
40.255905
 20
454.977875
 10
40.287437
 20
454.911804
 10
40.318268
 20
454.845917
 10
40.348423
 20
454.780304
 10
40.37793
 20
454.715057
 10
40.406799
 20
454.649902
 10
40.435043
 20
454.584503
 10
40.462666
 20
454.518463
 10
40.489681
 20
454.451416
 10
40.516087
 20
454.383118
 10
40.54184
 20
454.31424
 10
40.566864
 20
454.246155
 10
40.59108
 20
454.180298
 10
40.614407
 20
454.118011
 10
40.636784
 20
454.060486
 10
40.65834
 20
454.005554
 10
40.679379
 20
453.94812
 10
40.700207
 20
453.883057
 10
40.721127
 20
453.805206
 10
40.742424
 20
453.709747
 10
40.763721
 20
453.602875
 10
40.783894
 20
453.503082
 10
40.801777
 20
453.429565
 10
40.816204
 20
453.40152
 10
40.826023
 20
453.437836
 10
40.831108
 20
453.540192
 10
40.832855
 20
453.684326
 10
40.832802
 20
453.843842
 10
40.832478
 20
453.99472
  0
LINE
  5
26F
330
231
100
AcDbEntity
  8
0
  6
Continuous
 62
     0
370
    30
100
AcDbLine
 10
40.832477
 20
453.994724
 30
0.0
 11
40.832477
 21
456.884788
 31
0.0
  0
LWPOLYLINE
  5
270
330
231
100
AcDbEntity
  8
0
  6
Continuous
 62
     0
370
    30
100
AcDbPolyline
 90
       36
 70
     0
 43
0.0
 10
40.832478
 20
456.884796
 10
40.832794
 20
457.032745
 10
40.832867
 20
457.192291
 10
40.831165
 20
457.336975
 10
40.826157
 20
457.440338
 10
40.816429
 20
457.477966
 10
40.802078
 20
457.450928
 10
40.784248
 20
457.378052
 10
40.764107
 20
457.278595
 10
40.742817
 20
457.171661
 10
40.721512
 20
457.075897
 10
40.700588
 20
456.997742
 10
40.679764
 20
456.932495
 10
40.658733
 20
456.874969
 10
40.637188
 20
456.820038
 10
40.614826
 20
456.762604
 10
40.591515
 20
456.700378
 10
40.567314
 20
456.634583
 10
40.542305
 20
456.566559
 10
40.516567
 20
456.497681
 10
40.49017
 20
456.429321
 10
40.463169
 20
456.362274
 10
40.435555
 20
456.296234
 10
40.407326
 20
456.230804
 10
40.378464
 20
456.165649
 10
40.348969
 20
456.100403
 10
40.318829
 20
456.03479
 10
40.28801
 20
455.968903
 10
40.256493
 20
455.902863
 10
40.224247
 20
455.8367
 10
40.19125
 20
455.770599
 10
40.157497
 20
455.70459
 10
40.123066
 20
455.638672
 10
40.088055
 20
455.572754
 10
40.052547
 20
455.506897
 10
40.015984
 20
455.439758
  0
LINE
  5
271
330
231
100
AcDbEntity
  8
0
  6
Continuous
 62
     0
370
    30
100
AcDbLine
 10
40.57175
 20
454.426924
 30
0.0
 11
40.571324
 21
456.159839
 31
0.0
  0
LWPOLYLINE
  5
272
330
231
100
AcDbEntity
  8
0
  6
Continuous
 62
     0
370
    30
100
AcDbPolyline
 90
       17
 70
     0
 43
0.0
 10
40.571323
 20
456.159851
 10
40.573296
 20
456.301392
 10
40.585377
 20
456.421082
 10
40.612007
 20
456.47525
 10
40.640648
 20
456.454803
 10
40.65583
 20
456.360687
 10
40.657375
 20
456.219177
 10
40.655716
 20
456.07309
 10
40.655499
 20
455.938843
 10
40.655758
 20
455.807953
 10
40.655697
 20
455.673889
 10
40.655479
 20
455.537994
 10
40.655392
 20
455.402496
 10
40.655479
 20
455.267761
 10
40.655651
 20
455.133118
 10
40.655849
 20
454.998199
 10
40.65609
 20
454.860596
  0
LINE
  5
273
330
231
100
AcDbEntity
  8
0
  6
Continuous
 62
     0
370
    30
100
AcDbLine
 10
40.656492
 20
454.687291
 30
0.0
 11
40.57175
 21
454.426924
 31
0.0
  0
LWPOLYLINE
  5
274
330
231
100
AcDbEntity
  8
0
  6
Continuous
 62
     0
370
    30
100
AcDbPolyline
 90
       36
 70
     0
 43
0.0
 10
40.998989
 20
453.370728
 10
40.99176
 20
453.40509
 10
40.98291
 20
453.483337
 10
40.973721
 20
453.599243
 10
40.965466
 20
453.746613
 10
40.959427
 20
453.91922
 10
40.9566
 20
454.110077
 10
40.956829
 20
454.308716
 10
40.959656
 20
454.503815
 10
40.964634
 20
454.684082
 10
40.971306
 20
454.838165
 10
40.97916
 20
454.956696
 10
40.987461
 20
455.038055
 10
40.995396
 20
455.082825
 10
41.002163
 20
455.091553
 10
41.006954
 20
455.06485
 10
41.009209
 20
455.011841
 10
41.00943
 20
454.97934
 10
41.008308
 20
455.016541
 10
41.005661
 20
455.101166
 10
41.000839
 20
455.173248
 10
40.993576
 20
455.188751
 10
40.984627
 20
455.148773
 10
40.974934
 20
455.061981
 10
40.965446
 20
454.937134
 10
40.957096
 20
454.782959
 10
40.950684
 20
454.60788
 10
40.946545
 20
454.419678
 10
40.944923
 20
454.225861
 10
40.946068
 20
454.033997
 10
40.950218
 20
453.851685
 10
40.957371
 20
453.686096
 10
40.966568
 20
453.543335
 10
40.976646
 20
453.429077
 10
40.986435
 20
453.349182
 10
40.994888
 20
453.309052
  0
LWPOLYLINE
  5
275
330
231
100
AcDbEntity
  8
0
  6
Continuous
 62
     0
370
    30
100
AcDbPolyline
 90
       48
 70
     0
 43
0.0
 10
40.995983
 20
453.665802
 10
40.992603
 20
453.737122
 10
40.988728
 20
453.812622
 10
40.984779
 20
453.892426
 10
40.981171
 20
453.976715
 10
40.978329
 20
454.065582
 10
40.976662
 20
454.159149
 10
40.976589
 20
454.257538
 10
40.978188
 20
454.358429
 10
40.981087
 20
454.456299
 10
40.984894
 20
454.54538
 10
40.989201
 20
454.619965
 10
40.993614
 20
454.674286
 10
40.997726
 20
454.702576
 10
41.00119
 20
454.699982
 10
41.003906
 20
454.667084
 10
41.00589
 20
454.606537
 10
41.007149
 20
454.521088
 10
41.007774
 20
454.417908
 10
41.007999
 20
454.311798
 10
41.008064
 20
454.218201
 10
41.008183
 20
454.150909
 10
41.00832
 20
454.107056
 10
41.008301
 20
454.075073
 10
41.008083
 20
454.056183
 10
41.00803
 20
454.090851
 10
41.008282
 20
454.19397
 10
41.008389
 20
454.313538
 10
41.008022
 20
454.417999
 10
41.007034
 20
454.50293
 10
41.005283
 20
454.564911
 10
41.002705
 20
454.600891
 10
40.999508
 20
454.608948
 10
40.995975
 20
454.587494
 10
40.992386
 20
454.535187
 10
40.989143
 20
454.456116
 10
40.986755
 20
454.359619
 10
40.985744
 20
454.255219
 10
40.986454
 20
454.151703
 10
40.98856
 20
454.054443
 10
40.991581
 20
453.968109
 10
40.995029
 20
453.897003
 10
40.998299
 20
453.835968
 10
41.00066
 20
453.770691
 10
41.001461
 20
453.6875
 10
41.000916
 20
453.586731
 10
40.999821
 20
453.47818
 10
40.998989
 20
453.370728
  0
LWPOLYLINE
  5
276
330
231
100
AcDbEntity
  8
0
  6
Continuous
 62
     0
370
    30
100
AcDbPolyline
 90
       72
 70
     0
 43
0.0
 10
41.009457
 20
457.150635
 10
41.008728
 20
457.226959
 10
41.006931
 20
457.289032
 10
41.004227
 20
457.336365
 10
41.000774
 20
457.36853
 10
40.996738
 20
457.384979
 10
40.992271
 20
457.385284
 10
40.987541
 20
457.368927
 10
40.982697
 20
457.335419
 10
40.977909
 20
457.284302
 10
40.973328
 20
457.215057
 10
40.969101
 20
457.128174
 10
40.965332
 20
457.026459
 10
40.962124
 20
456.913177
 10
40.959568
 20
456.791504
 10
40.957764
 20
456.664764
 10
40.956814
 20
456.536133
 10
40.956806
 20
456.408844
 10
40.957851
 20
456.286194
 10
40.960037
 20
456.171356
 10
40.963463
 20
456.067596
 10
40.968056
 20
455.976898
 10
40.973465
 20
455.899109
 10
40.979294
 20
455.833923
 10
40.985157
 20
455.780945
 10
40.990665
 20
455.739838
 10
40.995495
 20
455.710999
 10
40.999588
 20
455.697693
 10
41.002953
 20
455.703918
 10
41.005589
 20
455.733673
 10
41.007504
 20
455.790955
 10
41.008709
 20
455.876373
 10
41.009319
 20
455.95813
 10
41.009483
 20
455.986237
 10
41.009304
 20
455.933655
 10
41.00869
 20
455.837036
 10
41.007526
 20
455.743408
 10
41.005722
 20
455.677795
 10
41.003227
 20
455.638641
 10
40.999981
 20
455.622772
 10
40.995937
 20
455.626984
 10
40.991039
 20
455.648163
 10
40.985306
 20
455.683563
 10
40.97897
 20
455.731964
 10
40.972286
 20
455.792358
 10
40.965523
 20
455.863739
 10
40.958939
 20
455.945099
 10
40.952801
 20
456.035431
 10
40.947369
 20
456.133728
 10
40.942905
 20
456.238983
 10
40.939674
 20
456.350189
 10
40.937939
 20
456.466339
 10
40.937859
 20
456.586182
 10
40.939289
 20
456.707611
 10
40.942013
 20
456.828461
 10
40.945816
 20
456.946411
 10
40.950485
 20
457.059296
 10
40.955803
 20
457.164856
 10
40.961563
 20
457.260834
 10
40.967541
 20
457.345032
 10
40.973534
 20
457.415192
 10
40.979317
 20
457.469086
 10
40.984715
 20
457.505035
 10
40.98967
 20
457.523529
 10
40.994148
 20
457.525421
 10
40.998116
 20
457.511688
 10
41.001545
 20
457.483215
 10
41.004398
 20
457.440918
 10
41.006649
 20
457.385712
 10
41.008266
 20
457.318512
 10
41.009212
 20
457.240265
 10
41.009457
 20
457.150635
  0
LWPOLYLINE
  5
277
330
231
100
AcDbEntity
  8
0
  6
Continuous
 62
     0
370
    30
100
AcDbPolyline
 90
       17
 70
     0
 43
0.0
 10
40.979897
 20
456.562744
 10
40.981461
 20
456.698547
 10
40.985516
 20
456.819824
 10
40.991096
 20
456.91214
 10
40.997223
 20
456.960999
 10
41.002934
 20
456.951935
 10
41.007294
 20
456.872406
 10
41.00993
 20
456.734558
 10
41.010838
 20
456.566986
 10
41.010014
 20
456.398743
 10
41.007462
 20
456.258728
 10
41.003181
 20
456.175781
 10
40.997524
 20
456.163483
 10
40.991398
 20
456.209839
 10
40.985771
 20
456.300354
 10
40.981617
 20
456.420563
 10
40.979897
 20
456.562744
  0
LWPOLYLINE
  5
278
330
231
100
AcDbEntity
  8
0
  6
Continuous
 62
     0
370
    30
100
AcDbPolyline
 90
       17
 70
     0
 43
0.0
 10
41.007553
 20
456.588501
 10
41.006187
 20
456.733521
 10
41.00264
 20
456.862976
 10
40.997765
 20
456.961365
 10
40.992413
 20
457.013123
 10
40.987434
 20
457.002747
 10
40.983643
 20
456.916931
 10
40.981358
 20
456.769012
 10
40.980587
 20
456.589813
 10
40.981331
 20
456.41037
 10
40.983589
 20
456.26181
 10
40.987358
 20
456.174927
 10
40.992325
 20
456.163544
 10
40.997677
 20
456.214539
 10
41.002567
 20
456.312378
 10
41.006145
 20
456.441498
 10
41.007553
 20
456.588501
  0
LINE
  5
279
330
231
100
AcDbEntity
  8
0
  6
Continuous
 62
     0
370
    30
100
AcDbLine
 10
139.009487
 20
410.497368
 30
0.0
 11
49.009483
 21
410.497368
 31
0.0
  0
LINE
  5
27A
330
231
100
AcDbEntity
  8
0
  6
Continuous
 62
     0
370
    30
100
AcDbLine
 10
49.009483
 20
410.497368
 30
0.0
 11
-40.990513
 21
410.497368
 31
0.0
  0
LWPOLYLINE
  5
27B
330
231
100
AcDbEntity
  8
0
  6
Continuous
 62
     0
370
    30
100
AcDbPolyline
 90
       54
 70
     0
 43
0.0
 10
-39.990513
 20
411.497375
 10
-39.951332
 20
411.497375
 10
-39.833942
 20
411.497375
 10
-39.638569
 20
411.497375
 10
-39.365433
 20
411.497375
 10
-39.014759
 20
411.497375
 10
-38.586773
 20
411.497375
 10
-38.081703
 20
411.497375
 10
-37.499958
 20
411.497375
 10
-36.842213
 20
411.497375
 10
-36.109146
 20
411.497375
 10
-35.301445
 20
411.497375
 10
-34.419796
 20
411.497375
 10
-33.464886
 20
411.497375
 10
-32.437424
 20
411.497375
 10
-31.338345
 20
411.497375
 10
-30.168699
 20
411.497375
 10
-28.929535
 20
411.497375
 10
-27.621904
 20
411.497375
 10
-26.246855
 20
411.497375
 10
-24.805437
 20
411.497375
 10
-23.298841
 20
411.497375
 10
-21.72864
 20
411.497375
 10
-20.096468
 20
411.497375
 10
-18.403969
 20
411.497375
 10
-16.652777
 20
411.497375
 10
-14.844528
 20
411.497375
 10
-12.980862
 20
411.497375
 10
-11.063337
 20
411.497375
 10
-9.093448
 20
411.497375
 10
-7.07268
 20
411.497375
 10
-5.002635
 20
411.497375
 10
-2.885168
 20
411.497375
 10
-0.72217
 20
411.497375
 10
1.484447
 20
411.497375
 10
3.732666
 20
411.497375
 10
6.020429
 20
411.497375
 10
8.345687
 20
411.497375
 10
10.70655
 20
411.497375
 10
13.101269
 20
411.497375
 10
15.528097
 20
411.497375
 10
17.985123
 20
411.497375
 10
20.470098
 20
411.497375
 10
22.98074
 20
411.497375
 10
25.514757
 20
411.497375
 10
28.069864
 20
411.497375
 10
30.643776
 20
411.497375
 10
33.234188
 20
411.497375
 10
35.838593
 20
411.497375
 10
38.454319
 20
411.497375
 10
41.078697
 20
411.497375
 10
43.709049
 20
411.497375
 10
46.342709
 20
411.497375
 10
49.009483
 20
411.497375
  0
LINE
  5
27C
330
231
100
AcDbEntity
  8
0
  6
Continuous
 62
     0
370
    30
100
AcDbLine
 10
49.009483
 20
411.497368
 30
0.0
 11
138.009487
 21
411.497368
 31
0.0
  0
LINE
  5
27D
330
231
100
AcDbEntity
  8
0
  6
Continuous
 62
     0
370
    30
100
AcDbLine
 10
-40.817915
 20
399.497368
 30
0.0
 11
49.009483
 21
399.497368
 31
0.0
  0
LINE
  5
27E
330
231
100
AcDbEntity
  8
0
  6
Continuous
 62
     0
370
    30
100
AcDbLine
 10
139.009487
 20
410.497368
 30
0.0
 11
49.009483
 21
410.497368
 31
0.0
  0
LINE
  5
27F
330
231
100
AcDbEntity
  8
0
  6
Continuous
 62
     0
370
    30
100
AcDbLine
 10
49.009483
 20
410.497368
 30
0.0
 11
-40.990513
 21
410.497368
 31
0.0
  0
LINE
  5
280
330
231
100
AcDbEntity
  8
0
  6
Continuous
 62
     0
370
    30
100
AcDbLine
 10
49.009483
 20
399.497368
 30
0.0
 11
139.009487
 21
399.497368
 31
0.0
  0
LINE
  5
281
330
231
100
AcDbEntity
  8
0
  6
Continuous
 62
     0
370
    30
100
AcDbLine
 10
-40.932438
 20
402.497368
 30
0.0
 11
-40.892526
 21
401.756187
 31
0.0
  0
LINE
  5
282
330
231
100
AcDbEntity
  8
0
  6
Continuous
 62
     0
370
    30
100
AcDbLine
 10
-40.892526
 20
401.756187
 30
0.0
 11
-40.872612
 21
400.238549
 31
0.0
  0
LINE
  5
283
330
231
100
AcDbEntity
  8
0
  6
Continuous
 62
     0
370
    30
100
AcDbLine
 10
-40.872612
 20
400.238549
 30
0.0
 11
-40.817915
 21
399.497368
 31
0.0
  0
LINE
  5
284
330
231
100
AcDbEntity
  8
0
  6
Continuous
 62
     0
370
    30
100
AcDbLine
 10
-40.817915
 20
399.497368
 30
0.0
 11
49.009483
 21
399.497368
 31
0.0
  0
LINE
  5
285
330
231
100
AcDbEntity
  8
0
  6
Continuous
 62
     0
370
    30
100
AcDbLine
 10
49.009483
 20
399.497368
 30
0.0
 11
139.00948
 21
399.497368
 31
0.0
  0
LINE
  5
286
330
231
100
AcDbEntity
  8
0
  6
Continuous
 62
     0
370
    30
100
AcDbLine
 10
-40.990513
 20
410.497368
 30
0.0
 11
-40.990513
 21
402.497368
 31
0.0
  0
LINE
  5
287
330
231
100
AcDbEntity
  8
0
  6
Continuous
 62
     0
370
    30
100
AcDbLine
 10
139.009487
 20
410.497368
 30
0.0
 11
139.009487
 21
399.497368
 31
0.0
  0
ARC
  5
288
330
231
100
AcDbEntity
  8
0
  6
Continuous
 62
     0
370
    30
100
AcDbCircle
 10
-39.987057
 20
410.493911
 30
0.0
 40
1.003462686664644
100
AcDbArc
 50
90.197373
 51
179.802627
  0
ARC
  5
289
330
231
100
AcDbEntity
  8
0
  6
Continuous
 62
     0
370
    30
100
AcDbCircle
 10
138.00603
 20
410.493911
 30
0.0
 40
1.003462686666177
100
AcDbArc
 50
0.197373
 51
89.802627
  0
LINE
  5
28A
330
231
100
AcDbEntity
  8
0
  6
Continuous
 62
     0
370
    30
100
AcDbLine
 10
2.009484
 20
490.347366
 30
0.0
 11
2.009484
 21
484.597366
 31
0.0
  0
LINE
  5
28B
330
231
100
AcDbEntity
  8
0
  6
Continuous
 62
     0
370
    30
100
AcDbLine
 10
41.009484
 20
490.347366
 30
0.0
 11
41.009484
 21
483.947366
 31
0.0
  0
LINE
  5
28C
330
231
100
AcDbEntity
  8
0
  6
Continuous
 62
     0
370
    30
100
AcDbLine
 10
41.009484
 20
450.847366
 30
0.0
 11
41.009484
 21
475.747366
 31
0.0
  0
LINE
  5
28D
330
231
100
AcDbEntity
  8
0
  6
Continuous
 62
     0
370
    30
100
AcDbLine
 10
2.009484
 20
450.847366
 30
0.0
 11
2.009484
 21
475.100275
 31
0.0
  0
ARC
  5
28E
330
231
100
AcDbEntity
  8
0
  6
Continuous
 62
     0
370
    30
100
AcDbCircle
 10
16.104041
 20
479.842061
 30
0.0
 40
14.7960407177257
100
AcDbArc
 50
161.660798
 51
179.979453
  0
ARC
  5
28F
330
231
100
AcDbEntity
  8
0
  6
Continuous
 62
     0
370
    30
100
AcDbCircle
 10
16.097197
 20
479.851548
 30
0.0
 40
14.78919012244582
100
AcDbArc
 50
182.624264
 51
198.343408
  0
ENDBLK
  5
291
330
231
100
AcDbEntity
  8
0
100
AcDbBlockEnd
  0
ENDSEC
  0
SECTION
  2
ENTITIES
  0
INSERT
  5
BB
330
1F
100
AcDbEntity
  8
0
  6
Continuous
 62
     7
420
 16250871
370
     0
100
AcDbBlockReference
  2
a
 10
166.418564
 20
152.01738
 30
0.0
  0
INSERT
  5
12B
330
1F
100
AcDbEntity
  8
0
  6
Continuous
 62
     7
420
 16250871
370
     0
100
AcDbBlockReference
  2
b
 10
166.418564
 20
152.01738
 30
0.0
  0
INSERT
  5
18B
330
1F
100
AcDbEntity
  8
0
  6
Continuous
 62
     7
420
 16250871
370
     0
100
AcDbBlockReference
  2
c
 10
166.418564
 20
152.01738
 30
0.0
  0
INSERT
  5
230
330
1F
100
AcDbEntity
  8
0
  6
Continuous
 62
     7
420
 16250871
370
     0
100
AcDbBlockReference
  2
d
 10
166.418564
 20
152.01738
 30
0.0
  0
INSERT
  5
292
330
1F
100
AcDbEntity
  8
0
  6
Continuous
 62
     7
420
 16250871
370
     0
100
AcDbBlockReference
  2
e
 10
173.833954
 20
0.0
 30
0.0
  0
ENDSEC
  0
SECTION
  2
OBJECTS
  0
DICTIONARY
  5
C
330
0
100
AcDbDictionary
281
     1
  3
ACAD_DETAILVIEWSTYLE
350
2CA
  3
ACAD_GROUP
350
D
  3
ACAD_LAYOUT
350
1A
  3
ACAD_MATERIAL
350
43
  3
ACAD_MLEADERSTYLE
350
6B
  3
ACAD_MLINESTYLE
350
17
  3
ACAD_PLOTSETTINGS
350
19
  3
ACAD_PLOTSTYLENAME
350
E
  3
ACAD_SCALELIST
350
47
  3
ACAD_SECTIONVIEWSTYLE
350
2CB
  3
ACAD_TABLESTYLE
350
69
  3
ACAD_VISUALSTYLE
350
2A
  3
ACDB_RECOMPOSE_DATA
350
2C7
  3
AcDbVariableDictionary
350
293
  0
SUN
  5
6D
330
29
100
AcDbSun
 90
        1
290
     0
 63
     7
421
 16777215
 40
1.0
291
     1
 91
  2455826
 92
 54000000
292
     0
 70
     2
 71
   256
280
     1
  0
DICTIONARY
  5
2CA
102
{ACAD_REACTORS
330
C
102
}
330
C
100
AcDbDictionary
281
     1
  0
DICTIONARY
  5
D
102
{ACAD_REACTORS
330
C
102
}
330
C
100
AcDbDictionary
281
     1
  0
DICTIONARY
  5
1A
102
{ACAD_REACTORS
330
C
102
}
330
C
100
AcDbDictionary
281
     1
  3
Layout1
350
1E
  3
Layout2
350
26
  3
Model
350
22
  0
DICTIONARY
  5
43
102
{ACAD_REACTORS
330
C
102
}
330
C
100
AcDbDictionary
281
     1
  3
ByBlock
350
45
  3
ByLayer
350
44
  3
Global
350
46
  0
DICTIONARY
  5
6B
102
{ACAD_REACTORS
330
C
102
}
330
C
100
AcDbDictionary
281
     1
  3
Standard
350
6C
  0
DICTIONARY
  5
17
102
{ACAD_REACTORS
330
C
102
}
330
C
100
AcDbDictionary
281
     1
  3
Standard
350
18
  0
DICTIONARY
  5
19
102
{ACAD_REACTORS
330
C
102
}
330
C
100
AcDbDictionary
281
     1
  0
ACDBDICTIONARYWDFLT
  5
E
102
{ACAD_REACTORS
330
C
102
}
330
C
100
AcDbDictionary
281
     1
  3
Normal
350
F
100
AcDbDictionaryWithDefault
340
F
  0
DICTIONARY
  5
47
102
{ACAD_REACTORS
330
C
102
}
330
C
100
AcDbDictionary
281
     1
  3
A0
350
48
  3
A1
350
49
  3
A2
350
4A
  3
A3
350
4B
  3
A4
350
4C
  3
A5
350
4D
  3
A6
350
4E
  3
A7
350
4F
  3
A8
350
50
  3
A9
350
51
  3
B0
350
52
  3
B1
350
53
  3
B2
350
54
  3
B3
350
55
  3
B4
350
56
  3
B5
350
57
  3
B6
350
58
  3
B7
350
59
  3
B8
350
5A
  3
B9
350
5B
  3
C0
350
5C
  3
C1
350
5D
  3
C2
350
5E
  3
C3
350
5F
  3
C4
350
60
  3
C5
350
61
  3
C6
350
62
  3
C7
350
63
  3
C8
350
64
  3
C9
350
65
  3
D0
350
66
  3
D1
350
67
  3
D2
350
68
  0
DICTIONARY
  5
2CB
102
{ACAD_REACTORS
330
C
102
}
330
C
100
AcDbDictionary
281
     1
  0
DICTIONARY
  5
69
102
{ACAD_REACTORS
330
C
102
}
330
C
100
AcDbDictionary
281
     1
  3
Standard
350
6A
  0
DICTIONARY
  5
2A
102
{ACAD_REACTORS
330
C
102
}
330
C
100
AcDbDictionary
281
     1
  3
2dWireframe
350
2F
  3
Basic
350
32
  3
Brighten
350
36
  3
ColorChange
350
3A
  3
Conceptual
350
34
  3
Dim
350
35
  3
EdgeColorOff
350
3D
  3
Facepattern
350
39
  3
Flat
350
2B
  3
FlatWithEdges
350
2C
  3
Gouraud
350
2D
  3
GouraudWithEdges
350
2E
  3
Hidden
350
31
  3
JitterOff
350
3B
  3
Linepattern
350
38
  3
OverhangOff
350
3C
  3
Realistic
350
33
  3
Shaded
350
42
  3
Shaded with edges
350
41
  3
Shades of Gray
350
3E
  3
Sketchy
350
3F
  3
Thicken
350
37
  3
Wireframe
350
30
  3
X-Ray
350
40
  0
XRECORD
  5
2C7
102
{ACAD_REACTORS
330
C
102
}
330
C
100
AcDbXrecord
280
     1
 90
        1
330
6A
  0
DICTIONARY
  5
293
102
{ACAD_REACTORS
330
C
102
}
330
C
100
AcDbDictionary
281
     1
  3
CANNOSCALE
350
294
  3
CMLEADERSTYLE
350
2C9
  3
CTABLESTYLE
350
2C8
  0
LAYOUT
  5
1E
102
{ACAD_REACTORS
330
1A
102
}
330
1A
100
AcDbPlotSettings
  1

  2
none_device
  4

  6

 40
0.0
 41
0.0
 42
0.0
 43
0.0
 44
0.0
 45
0.0
 46
0.0
 47
0.0
 48
0.0
 49
0.0
140
0.0
141
0.0
142
1.0
143
1.0
 70
   688
 72
     1
 73
     0
 74
     5
  7

 75
    16
 76
     0
 77
     2
 78
   300
147
1.0
148
0.0
149
0.0
100
AcDbLayout
  1
Layout1
 70
     1
 71
     1
 10
0.0
 20
0.0
 11
420.0
 21
297.0
 12
0.0
 22
0.0
 32
0.0
 14
1.000000E+20
 24
1.000000E+20
 34
1.000000E+20
 15
-1.000000E+20
 25
-1.000000E+20
 35
-1.000000E+20
146
0.0
 13
0.0
 23
0.0
 33
0.0
 16
1.0
 26
0.0
 36
0.0
 17
0.0
 27
1.0
 37
0.0
 76
     0
330
1B
  0
LAYOUT
  5
26
102
{ACAD_REACTORS
330
1A
102
}
330
1A
100
AcDbPlotSettings
  1

  2
none_device
  4

  6

 40
0.0
 41
0.0
 42
0.0
 43
0.0
 44
0.0
 45
0.0
 46
0.0
 47
0.0
 48
0.0
 49
0.0
140
0.0
141
0.0
142
1.0
143
1.0
 70
   688
 72
     1
 73
     0
 74
     5
  7

 75
    16
 76
     0
 77
     2
 78
   300
147
1.0
148
0.0
149
0.0
100
AcDbLayout
  1
Layout2
 70
     1
 71
     2
 10
0.0
 20
0.0
 11
0.0
 21
0.0
 12
0.0
 22
0.0
 32
0.0
 14
0.0
 24
0.0
 34
0.0
 15
0.0
 25
0.0
 35
0.0
146
0.0
 13
0.0
 23
0.0
 33
0.0
 16
1.0
 26
0.0
 36
0.0
 17
0.0
 27
1.0
 37
0.0
 76
     0
330
23
  0
LAYOUT
  5
22
102
{ACAD_REACTORS
330
1A
102
}
330
1A
100
AcDbPlotSettings
  1

  2
none_device
  4
Letter_(8.50_x_11.00_Inches)
  6

 40
6.35
 41
6.35
 42
6.350005
 43
6.350005
 44
215.9
 45
279.4
 46
0.0
 47
0.0
 48
0.0
 49
0.0
140
0.0
141
0.0
142
1.0
143
1.0
 70
  1712
 72
     1
 73
     0
 74
     0
  7

 75
     0
 76
     0
 77
     2
 78
   300
147
1.0
148
0.0
149
0.0
100
AcDbLayout
  1
Model
 70
     1
 71
     0
 10
0.0
 20
0.0
 11
420.0
 21
297.0
 12
0.0
 22
0.0
 32
0.0
 14
1.000000E+20
 24
1.000000E+20
 34
1.000000E+20
 15
-1.000000E+20
 25
-1.000000E+20
 35
-1.000000E+20
146
0.0
 13
0.0
 23
0.0
 33
0.0
 16
1.0
 26
0.0
 36
0.0
 17
0.0
 27
1.0
 37
0.0
 76
     0
330
1F
331
29
  0
MATERIAL
  5
45
102
{ACAD_REACTORS
330
43
102
}
330
43
100
AcDbMaterial
  1
ByBlock
 72
     1
 94
      127
  0
MATERIAL
  5
44
102
{ACAD_REACTORS
330
43
102
}
330
43
100
AcDbMaterial
  1
ByLayer
 72
     1
 94
      127
  0
MATERIAL
  5
46
102
{ACAD_REACTORS
330
43
102
}
330
43
100
AcDbMaterial
  1
Global
 72
     1
 94
      127
  0
MLEADERSTYLE
  5
6C
102
{ACAD_REACTORS
330
6B
102
}
330
6B
100
AcDbMLeaderStyle
179
     2
170
     2
171
     1
172
     0
 90
        2
 40
0.0
 41
0.0
173
     1
 91
-1056964608
340
14
 92
       -2
290
     1
 42
2.0
291
     1
 43
8.0
  3
Standard
341
0
 44
4.0
300

342
11
174
     1
178
     6
175
     1
176
     0
 93
-1056964608
 45
4.0
292
     0
297
     0
 46
4.0
343
0
 94
-1056964608
 47
1.0
 49
1.0
140
1.0
293
     1
141
0.0
294
     1
177
     0
142
1.0
295
     0
296
     0
143
3.75
271
     0
272
     9
273
     9
  0
MLINESTYLE
  5
18
102
{ACAD_REACTORS
330
17
102
}
330
17
100
AcDbMlineStyle
  2
Standard
 70
     0
  3

 62
   256
 51
90.0
 52
90.0
 71
     2
 49
0.5
 62
   256
  6
BYLAYER
 49
-0.5
 62
   256
  6
BYLAYER
  0
ACDBPLACEHOLDER
  5
F
102
{ACAD_REACTORS
330
E
102
}
330
E
  0
SCALE
  5
48
102
{ACAD_REACTORS
330
47
102
}
330
47
100
AcDbScale
 70
     0
300
1:1
140
1.0
141
1.0
290
     1
  0
SCALE
  5
49
102
{ACAD_REACTORS
330
47
102
}
330
47
100
AcDbScale
 70
     0
300
1:2
140
1.0
141
2.0
290
     0
  0
SCALE
  5
4A
102
{ACAD_REACTORS
330
47
102
}
330
47
100
AcDbScale
 70
     0
300
1:4
140
1.0
141
4.0
290
     0
  0
SCALE
  5
4B
102
{ACAD_REACTORS
330
47
102
}
330
47
100
AcDbScale
 70
     0
300
1:5
140
1.0
141
5.0
290
     0
  0
SCALE
  5
4C
102
{ACAD_REACTORS
330
47
102
}
330
47
100
AcDbScale
 70
     0
300
1:8
140
1.0
141
8.0
290
     0
  0
SCALE
  5
4D
102
{ACAD_REACTORS
330
47
102
}
330
47
100
AcDbScale
 70
     0
300
1:10
140
1.0
141
10.0
290
     0
  0
SCALE
  5
4E
102
{ACAD_REACTORS
330
47
102
}
330
47
100
AcDbScale
 70
     0
300
1:16
140
1.0
141
16.0
290
     0
  0
SCALE
  5
4F
102
{ACAD_REACTORS
330
47
102
}
330
47
100
AcDbScale
 70
     0
300
1:20
140
1.0
141
20.0
290
     0
  0
SCALE
  5
50
102
{ACAD_REACTORS
330
47
102
}
330
47
100
AcDbScale
 70
     0
300
1:30
140
1.0
141
30.0
290
     0
  0
SCALE
  5
51
102
{ACAD_REACTORS
330
47
102
}
330
47
100
AcDbScale
 70
     0
300
1:40
140
1.0
141
40.0
290
     0
  0
SCALE
  5
52
102
{ACAD_REACTORS
330
47
102
}
330
47
100
AcDbScale
 70
     0
300
1:50
140
1.0
141
50.0
290
     0
  0
SCALE
  5
53
102
{ACAD_REACTORS
330
47
102
}
330
47
100
AcDbScale
 70
     0
300
1:100
140
1.0
141
100.0
290
     0
  0
SCALE
  5
54
102
{ACAD_REACTORS
330
47
102
}
330
47
100
AcDbScale
 70
     0
300
2:1
140
2.0
141
1.0
290
     0
  0
SCALE
  5
55
102
{ACAD_REACTORS
330
47
102
}
330
47
100
AcDbScale
 70
     0
300
4:1
140
4.0
141
1.0
290
     0
  0
SCALE
  5
56
102
{ACAD_REACTORS
330
47
102
}
330
47
100
AcDbScale
 70
     0
300
8:1
140
8.0
141
1.0
290
     0
  0
SCALE
  5
57
102
{ACAD_REACTORS
330
47
102
}
330
47
100
AcDbScale
 70
     0
300
10:1
140
10.0
141
1.0
290
     0
  0
SCALE
  5
58
102
{ACAD_REACTORS
330
47
102
}
330
47
100
AcDbScale
 70
     0
300
100:1
140
100.0
141
1.0
290
     0
  0
SCALE
  5
59
102
{ACAD_REACTORS
330
47
102
}
330
47
100
AcDbScale
 70
     0
300
1/128" = 1'-0"
140
0.007812
141
12.0
290
     0
  0
SCALE
  5
5A
102
{ACAD_REACTORS
330
47
102
}
330
47
100
AcDbScale
 70
     0
300
1/64" = 1'-0"
140
0.015625
141
12.0
290
     0
  0
SCALE
  5
5B
102
{ACAD_REACTORS
330
47
102
}
330
47
100
AcDbScale
 70
     0
300
1/32" = 1'-0"
140
0.03125
141
12.0
290
     0
  0
SCALE
  5
5C
102
{ACAD_REACTORS
330
47
102
}
330
47
100
AcDbScale
 70
     0
300
1/16" = 1'-0"
140
0.0625
141
12.0
290
     0
  0
SCALE
  5
5D
102
{ACAD_REACTORS
330
47
102
}
330
47
100
AcDbScale
 70
     0
300
3/32" = 1'-0"
140
0.09375
141
12.0
290
     0
  0
SCALE
  5
5E
102
{ACAD_REACTORS
330
47
102
}
330
47
100
AcDbScale
 70
     0
300
1/8" = 1'-0"
140
0.125
141
12.0
290
     0
  0
SCALE
  5
5F
102
{ACAD_REACTORS
330
47
102
}
330
47
100
AcDbScale
 70
     0
300
3/16" = 1'-0"
140
0.1875
141
12.0
290
     0
  0
SCALE
  5
60
102
{ACAD_REACTORS
330
47
102
}
330
47
100
AcDbScale
 70
     0
300
1/4" = 1'-0"
140
0.25
141
12.0
290
     0
  0
SCALE
  5
61
102
{ACAD_REACTORS
330
47
102
}
330
47
100
AcDbScale
 70
     0
300
3/8" = 1'-0"
140
0.375
141
12.0
290
     0
  0
SCALE
  5
62
102
{ACAD_REACTORS
330
47
102
}
330
47
100
AcDbScale
 70
     0
300
1/2" = 1'-0"
140
0.5
141
12.0
290
     0
  0
SCALE
  5
63
102
{ACAD_REACTORS
330
47
102
}
330
47
100
AcDbScale
 70
     0
300
3/4" = 1'-0"
140
0.75
141
12.0
290
     0
  0
SCALE
  5
64
102
{ACAD_REACTORS
330
47
102
}
330
47
100
AcDbScale
 70
     0
300
1" = 1'-0"
140
1.0
141
12.0
290
     0
  0
SCALE
  5
65
102
{ACAD_REACTORS
330
47
102
}
330
47
100
AcDbScale
 70
     0
300
1-1/2" = 1'-0"
140
1.5
141
12.0
290
     0
  0
SCALE
  5
66
102
{ACAD_REACTORS
330
47
102
}
330
47
100
AcDbScale
 70
     0
300
3" = 1'-0"
140
3.0
141
12.0
290
     0
  0
SCALE
  5
67
102
{ACAD_REACTORS
330
47
102
}
330
47
100
AcDbScale
 70
     0
300
6" = 1'-0"
140
6.0
141
12.0
290
     0
  0
SCALE
  5
68
102
{ACAD_REACTORS
330
47
102
}
330
47
100
AcDbScale
 70
     0
300
1'-0" = 1'-0"
140
12.0
141
12.0
290
     0
  0
TABLESTYLE
  5
6A
102
{ACAD_REACTORS
330
69
102
}
102
{ACAD_XDICTIONARY
360
2C5
102
}
330
69
100
AcDbTableStyle
  3
Standard
 70
     0
 71
     0
 40
0.06
 41
0.06
280
     0
281
     0
  7
Standard
140
4.5
170
     2
 62
     0
 63
   257
283
     0
 90
        4
 91
        0
  1

274
    -2
284
     1
 64
     0
275
    -2
285
     1
 65
     0
276
    -2
286
     1
 66
     0
277
    -2
287
     1
 67
     0
278
    -2
288
     1
 68
     0
279
    -2
289
     1
 69
     0
  7
Standard
140
6.0
170
     5
 62
     0
 63
   257
283
     0
 90
        4
 91
        0
  1

274
    -2
284
     1
 64
     0
275
    -2
285
     1
 65
     0
276
    -2
286
     1
 66
     0
277
    -2
287
     1
 67
     0
278
    -2
288
     1
 68
     0
279
    -2
289
     1
 69
     0
  7
Standard
140
4.5
170
     5
 62
     0
 63
   257
283
     0
 90
        4
 91
        0
  1

274
    -2
284
     1
 64
     0
275
    -2
285
     1
 65
     0
276
    -2
286
     1
 66
     0
277
    -2
287
     1
 67
     0
278
    -2
288
     1
 68
     0
279
    -2
289
     1
 69
     0
  0
VISUALSTYLE
  5
2F
102
{ACAD_REACTORS
330
2A
102
}
102
{ACAD_XDICTIONARY
360
29D
102
}
330
2A
100
AcDbVisualStyle
  2
2dWireframe
 70
     4
177
     2
291
     0
 71
     0
176
     1
 72
     2
176
     1
 73
     0
176
     1
 90
        0
176
     1
 40
0.6
176
     1
 41
30.0
176
     1
 62
     5
 63
     7
421
 16777215
176
     1
 74
     1
176
     1
 91
        4
176
     1
 64
     7
176
     1
 65
   257
176
     1
 75
     1
176
     1
175
     1
176
     1
 42
1.0
176
     1
 92
        0
176
     1
 66
   257
176
     1
 43
1.0
176
     1
 76
     1
176
     1
 77
     6
176
     1
 78
     2
176
     1
 67
     7
176
     1
 79
     5
176
     1
170
     0
176
     1
171
     0
176
     1
290
     0
176
     1
 93
        1
176
     1
 44
0.0
176
     1
173
     0
176
     1
  0
VISUALSTYLE
  5
32
102
{ACAD_REACTORS
330
2A
102
}
102
{ACAD_XDICTIONARY
360
2A3
102
}
330
2A
100
AcDbVisualStyle
  2
Basic
 70
     7
177
     2
291
     1
 71
     1
176
     1
 72
     0
176
     1
 73
     1
176
     1
 90
        0
176
     1
 40
0.6
176
     1
 41
30.0
176
     1
 62
     5
 63
     7
421
 16777215
176
     1
 74
     0
176
     1
 91
        4
176
     1
 64
     7
176
     1
 65
   257
176
     1
 75
     1
176
     1
175
     1
176
     1
 42
1.0
176
     1
 92
        8
176
     1
 66
     7
176
     1
 43
1.0
176
     1
 76
     1
176
     1
 77
     6
176
     1
 78
     2
176
     1
 67
     7
176
     1
 79
     5
176
     1
170
     0
176
     1
171
     0
176
     1
290
     0
176
     1
 93
        1
176
     1
 44
0.0
176
     1
173
     0
176
     1
  0
VISUALSTYLE
  5
36
102
{ACAD_REACTORS
330
2A
102
}
102
{ACAD_XDICTIONARY
360
2AB
102
}
330
2A
100
AcDbVisualStyle
  2
Brighten
 70
    12
177
     2
291
     1
 71
     2
176
     1
 72
     2
176
     1
 73
     0
176
     1
 90
        0
176
     1
 40
0.6
176
     1
 41
30.0
176
     1
 62
     5
 63
     7
421
 16777215
176
     1
 74
     1
176
     1
 91
        4
176
     1
 64
     7
176
     1
 65
   257
176
     1
 75
     1
176
     1
175
     1
176
     1
 42
1.0
176
     1
 92
        8
176
     1
 66
     7
176
     1
 43
1.0
176
     1
 76
     1
176
     1
 77
     6
176
     1
 78
     2
176
     1
 67
     7
176
     1
 79
     5
176
     1
170
     0
176
     1
171
     0
176
     1
290
     0
176
     1
 93
        1
176
     1
 44
50.0
176
     1
173
     0
176
     1
  0
VISUALSTYLE
  5
3A
102
{ACAD_REACTORS
330
2A
102
}
102
{ACAD_XDICTIONARY
360
2B3
102
}
330
2A
100
AcDbVisualStyle
  2
ColorChange
 70
    16
177
     2
291
     1
 71
     2
176
     1
 72
     2
176
     1
 73
     3
176
     1
 90
        0
176
     1
 40
0.6
176
     1
 41
30.0
176
     1
 62
     5
 63
     8
421
  8421504
176
     1
 74
     1
176
     1
 91
        4
176
     1
 64
     7
176
     1
 65
   257
176
     1
 75
     1
176
     1
175
     1
176
     1
 42
1.0
176
     1
 92
        8
176
     1
 66
     8
424
  8421504
176
     1
 43
1.0
176
     1
 76
     1
176
     1
 77
     6
176
     1
 78
     2
176
     1
 67
     7
176
     1
 79
     5
176
     1
170
     0
176
     1
171
     0
176
     1
290
     0
176
     1
 93
        1
176
     1
 44
0.0
176
     1
173
     0
176
     1
  0
VISUALSTYLE
  5
34
102
{ACAD_REACTORS
330
2A
102
}
102
{ACAD_XDICTIONARY
360
2A7
102
}
330
2A
100
AcDbVisualStyle
  2
Conceptual
 70
     9
177
     2
291
     0
 71
     3
176
     1
 72
     2
176
     1
 73
     0
176
     1
 90
        0
176
     1
 40
0.6
176
     1
 41
30.0
176
     1
 62
     5
 63
     7
421
 16777215
176
     1
 74
     2
176
     1
 91
        2
176
     1
 64
     7
176
     1
 65
   257
176
     1
 75
     1
176
     1
175
     1
176
     1
 42
179.0
176
     1
 92
        8
176
     1
 66
     7
176
     1
 43
1.0
176
     1
 76
     1
176
     1
 77
     6
176
     1
 78
     2
176
     1
 67
     7
176
     1
 79
     3
176
     1
170
     0
176
     1
171
     0
176
     1
290
     0
176
     1
 93
        1
176
     1
 44
0.0
176
     1
173
     0
176
     1
  0
VISUALSTYLE
  5
35
102
{ACAD_REACTORS
330
2A
102
}
102
{ACAD_XDICTIONARY
360
2A9
102
}
330
2A
100
AcDbVisualStyle
  2
Dim
 70
    11
177
     2
291
     1
 71
     2
176
     1
 72
     2
176
     1
 73
     0
176
     1
 90
        0
176
     1
 40
0.6
176
     1
 41
30.0
176
     1
 62
     5
 63
     7
421
 16777215
176
     1
 74
     1
176
     1
 91
        4
176
     1
 64
     7
176
     1
 65
   257
176
     1
 75
     1
176
     1
175
     1
176
     1
 42
1.0
176
     1
 92
        8
176
     1
 66
     7
176
     1
 43
1.0
176
     1
 76
     1
176
     1
 77
     6
176
     1
 78
     2
176
     1
 67
     7
176
     1
 79
     5
176
     1
170
     0
176
     1
171
     0
176
     1
290
     0
176
     1
 93
        1
176
     1
 44
-50.0
176
     1
173
     0
176
     1
  0
VISUALSTYLE
  5
3D
102
{ACAD_REACTORS
330
2A
102
}
102
{ACAD_XDICTIONARY
360
2B9
102
}
330
2A
100
AcDbVisualStyle
  2
EdgeColorOff
 70
    22
177
     2
291
     1
 71
     2
176
     0
 72
     2
176
     0
 73
     0
176
     0
 90
        0
176
     0
 40
0.6
176
     0
 41
30.0
176
     0
 62
     5
 63
     7
421
 16777215
176
     0
 74
     1
176
     0
 91
        4
176
     0
 64
     7
176
     0
 65
   257
176
     0
 75
     1
176
     0
175
     1
176
     0
 42
1.0
176
     0
 92
        8
176
     2
 66
     7
176
     0
 43
1.0
176
     0
 76
     1
176
     0
 77
     6
176
     0
 78
     2
176
     0
 67
     7
176
     0
 79
     5
176
     0
170
     0
176
     0
171
     0
176
     0
290
     0
176
     0
 93
        1
176
     0
 44
0.0
176
     0
173
     0
176
     0
  0
VISUALSTYLE
  5
39
102
{ACAD_REACTORS
330
2A
102
}
102
{ACAD_XDICTIONARY
360
2B1
102
}
330
2A
100
AcDbVisualStyle
  2
Facepattern
 70
    15
177
     2
291
     1
 71
     2
176
     1
 72
     2
176
     1
 73
     0
176
     1
 90
        0
176
     1
 40
0.6
176
     1
 41
30.0
176
     1
 62
     5
 63
     7
421
 16777215
176
     1
 74
     1
176
     1
 91
        4
176
     1
 64
     7
176
     1
 65
   257
176
     1
 75
     1
176
     1
175
     1
176
     1
 42
1.0
176
     1
 92
        8
176
     1
 66
     7
176
     1
 43
1.0
176
     1
 76
     1
176
     1
 77
     6
176
     1
 78
     2
176
     1
 67
     7
176
     1
 79
     5
176
     1
170
     0
176
     1
171
     0
176
     1
290
     0
176
     1
 93
        1
176
     1
 44
0.0
176
     1
173
     0
176
     1
  0
VISUALSTYLE
  5
2B
102
{ACAD_REACTORS
330
2A
102
}
102
{ACAD_XDICTIONARY
360
295
102
}
330
2A
100
AcDbVisualStyle
  2
Flat
 70
     0
177
     2
291
     1
 71
     2
176
     1
 72
     1
176
     1
 73
     1
176
     1
 90
        2
176
     1
 40
0.6
176
     1
 41
30.0
176
     1
 62
     5
 63
     7
421
 16777215
176
     1
 74
     0
176
     1
 91
        0
176
     1
 64
     7
176
     1
 65
   257
176
     1
 75
     1
176
     1
175
     1
176
     1
 42
1.0
176
     1
 92
        8
176
     1
 66
     7
176
     1
 43
1.0
176
     1
 76
     1
176
     1
 77
     6
176
     1
 78
     2
176
     1
 67
     7
176
     1
 79
     5
176
     1
170
     0
176
     1
171
     0
176
     1
290
     0
176
     1
 93
       13
176
     1
 44
0.0
176
     1
173
     0
176
     1
  0
VISUALSTYLE
  5
2C
102
{ACAD_REACTORS
330
2A
102
}
102
{ACAD_XDICTIONARY
360
297
102
}
330
2A
100
AcDbVisualStyle
  2
FlatWithEdges
 70
     1
177
     2
291
     1
 71
     2
176
     1
 72
     1
176
     1
 73
     1
176
     1
 90
        2
176
     1
 40
0.6
176
     1
 41
30.0
176
     1
 62
     5
 63
     7
421
 16777215
176
     1
 74
     1
176
     1
 91
        0
176
     1
 64
     7
176
     1
 65
   257
176
     1
 75
     1
176
     1
175
     1
176
     1
 42
1.0
176
     1
 92
        0
176
     1
 66
   257
176
     1
 43
1.0
176
     1
 76
     1
176
     1
 77
     6
176
     1
 78
     2
176
     1
 67
     7
176
     1
 79
     5
176
     1
170
     0
176
     1
171
     0
176
     1
290
     0
176
     1
 93
       13
176
     1
 44
0.0
176
     1
173
     0
176
     1
  0
VISUALSTYLE
  5
2D
102
{ACAD_REACTORS
330
2A
102
}
102
{ACAD_XDICTIONARY
360
299
102
}
330
2A
100
AcDbVisualStyle
  2
Gouraud
 70
     2
177
     2
291
     1
 71
     2
176
     1
 72
     2
176
     1
 73
     1
176
     1
 90
        2
176
     1
 40
0.6
176
     1
 41
30.0
176
     1
 62
     5
 63
     7
421
 16777215
176
     1
 74
     0
176
     1
 91
        0
176
     1
 64
     7
176
     1
 65
   257
176
     1
 75
     1
176
     1
175
     1
176
     1
 42
1.0
176
     1
 92
        0
176
     1
 66
     7
176
     1
 43
1.0
176
     1
 76
     1
176
     1
 77
     6
176
     1
 78
     2
176
     1
 67
     7
176
     1
 79
     5
176
     1
170
     0
176
     1
171
     0
176
     1
290
     0
176
     1
 93
       13
176
     1
 44
0.0
176
     1
173
     0
176
     1
  0
VISUALSTYLE
  5
2E
102
{ACAD_REACTORS
330
2A
102
}
102
{ACAD_XDICTIONARY
360
29B
102
}
330
2A
100
AcDbVisualStyle
  2
GouraudWithEdges
 70
     3
177
     2
291
     1
 71
     2
176
     1
 72
     2
176
     1
 73
     1
176
     1
 90
        2
176
     1
 40
0.6
176
     1
 41
30.0
176
     1
 62
     5
 63
     7
421
 16777215
176
     1
 74
     1
176
     1
 91
        0
176
     1
 64
     7
176
     1
 65
   257
176
     1
 75
     1
176
     1
175
     1
176
     1
 42
1.0
176
     1
 92
        0
176
     1
 66
   257
176
     1
 43
1.0
176
     1
 76
     1
176
     1
 77
     6
176
     1
 78
     2
176
     1
 67
     7
176
     1
 79
     5
176
     1
170
     0
176
     1
171
     0
176
     1
290
     0
176
     1
 93
       13
176
     1
 44
0.0
176
     1
173
     0
176
     1
  0
VISUALSTYLE
  5
31
102
{ACAD_REACTORS
330
2A
102
}
102
{ACAD_XDICTIONARY
360
2A1
102
}
330
2A
100
AcDbVisualStyle
  2
Hidden
 70
     6
177
     2
291
     0
 71
     1
176
     1
 72
     2
176
     1
 73
     2
176
     1
 90
        0
176
     1
 40
0.6
176
     1
 41
30.0
176
     1
 62
     5
 63
     7
421
 16777215
176
     1
 74
     2
176
     1
 91
        2
176
     1
 64
     7
176
     1
 65
   257
176
     1
 75
     2
176
     1
175
     1
176
     1
 42
40.0
176
     1
 92
        0
176
     1
 66
   257
176
     1
 43
1.0
176
     1
 76
     1
176
     1
 77
     6
176
     1
 78
     2
176
     1
 67
     7
176
     1
 79
     3
176
     1
170
     0
176
     1
171
     0
176
     1
290
     0
176
     1
 93
        1
176
     1
 44
0.0
176
     1
173
     0
176
     1
  0
VISUALSTYLE
  5
3B
102
{ACAD_REACTORS
330
2A
102
}
102
{ACAD_XDICTIONARY
360
2B5
102
}
330
2A
100
AcDbVisualStyle
  2
JitterOff
 70
    20
177
     2
291
     1
 71
     2
176
     0
 72
     2
176
     0
 73
     0
176
     0
 90
        0
176
     0
 40
0.6
176
     0
 41
30.0
176
     0
 62
     5
 63
     7
421
 16777215
176
     0
 74
     1
176
     0
 91
        4
176
     0
 64
     7
176
     0
 65
   257
176
     0
 75
     1
176
     0
175
     1
176
     0
 42
1.0
176
     0
 92
       10
176
     2
 66
     7
176
     0
 43
1.0
176
     0
 76
     1
176
     0
 77
     6
176
     0
 78
     2
176
     0
 67
     7
176
     0
 79
     5
176
     0
170
     0
176
     0
171
     0
176
     0
290
     0
176
     0
 93
        1
176
     0
 44
0.0
176
     0
173
     0
176
     0
  0
VISUALSTYLE
  5
38
102
{ACAD_REACTORS
330
2A
102
}
102
{ACAD_XDICTIONARY
360
2AF
102
}
330
2A
100
AcDbVisualStyle
  2
Linepattern
 70
    14
177
     2
291
     1
 71
     2
176
     1
 72
     2
176
     1
 73
     0
176
     1
 90
        0
176
     1
 40
0.6
176
     1
 41
30.0
176
     1
 62
     5
 63
     7
421
 16777215
176
     1
 74
     1
176
     1
 91
        4
176
     1
 64
     7
176
     1
 65
   257
176
     1
 75
     7
176
     1
175
     7
176
     1
 42
1.0
176
     1
 92
        8
176
     1
 66
     7
176
     1
 43
1.0
176
     1
 76
     1
176
     1
 77
     6
176
     1
 78
     2
176
     1
 67
     7
176
     1
 79
     5
176
     1
170
     0
176
     1
171
     0
176
     1
290
     0
176
     1
 93
        1
176
     1
 44
0.0
176
     1
173
     0
176
     1
  0
VISUALSTYLE
  5
3C
102
{ACAD_REACTORS
330
2A
102
}
102
{ACAD_XDICTIONARY
360
2B7
102
}
330
2A
100
AcDbVisualStyle
  2
OverhangOff
 70
    21
177
     2
291
     1
 71
     2
176
     0
 72
     2
176
     0
 73
     0
176
     0
 90
        0
176
     0
 40
0.6
176
     0
 41
30.0
176
     0
 62
     5
 63
     7
421
 16777215
176
     0
 74
     1
176
     0
 91
        4
176
     0
 64
     7
176
     0
 65
   257
176
     0
 75
     1
176
     0
175
     1
176
     0
 42
1.0
176
     0
 92
        9
176
     2
 66
     7
176
     0
 43
1.0
176
     0
 76
     1
176
     0
 77
     6
176
     0
 78
     2
176
     0
 67
     7
176
     0
 79
     5
176
     0
170
     0
176
     0
171
     0
176
     0
290
     0
176
     0
 93
        1
176
     0
 44
0.0
176
     0
173
     0
176
     0
  0
VISUALSTYLE
  5
33
102
{ACAD_REACTORS
330
2A
102
}
102
{ACAD_XDICTIONARY
360
2A5
102
}
330
2A
100
AcDbVisualStyle
  2
Realistic
 70
     8
177
     2
291
     0
 71
     2
176
     1
 72
     3
176
     1
 73
     0
176
     1
 90
        2
176
     1
 40
0.6
176
     1
 41
30.0
176
     1
 62
     5
 63
     7
421
 16777215
176
     1
 74
     0
176
     1
 91
        0
176
     1
 64
     7
176
     1
 65
   257
176
     1
 75
     1
176
     1
175
     1
176
     1
 42
1.0
176
     1
 92
        8
176
     1
 66
   257
176
     1
 43
1.0
176
     1
 76
     1
176
     1
 77
     6
176
     1
 78
     2
176
     1
 67
     7
176
     1
 79
     3
176
     1
170
     0
176
     1
171
     0
176
     1
290
     0
176
     1
 93
       13
176
     1
 44
0.0
176
     1
173
     0
176
     1
  0
VISUALSTYLE
  5
42
102
{ACAD_REACTORS
330
2A
102
}
102
{ACAD_XDICTIONARY
360
2C3
102
}
330
2A
100
AcDbVisualStyle
  2
Shaded
 70
    27
177
     2
291
     0
 71
     2
176
     1
 72
     2
176
     1
 73
     1
176
     1
 90
        2
176
     1
 40
0.6
176
     1
 41
30.0
176
     1
 62
     5
 63
     7
421
 16777215
176
     1
 74
     0
176
     1
 91
        4
176
     1
 64
     7
176
     1
 65
   257
176
     1
 75
     1
176
     1
175
     1
176
     1
 42
1.0
176
     1
 92
        8
176
     1
 66
   257
176
     1
 43
1.0
176
     1
 76
     1
176
     1
 77
     6
176
     1
 78
     2
176
     1
 67
     8
425
  7895160
176
     1
 79
     3
176
     1
170
     0
176
     1
171
     0
176
     1
290
     0
176
     1
 93
        5
176
     1
 44
0.0
176
     1
173
     0
176
     1
  0
VISUALSTYLE
  5
41
102
{ACAD_REACTORS
330
2A
102
}
102
{ACAD_XDICTIONARY
360
2C1
102
}
330
2A
100
AcDbVisualStyle
  2
Shaded with edges
 70
    26
177
     2
291
     0
 71
     2
176
     1
 72
     2
176
     1
 73
     1
176
     1
 90
        2
176
     1
 40
0.6
176
     1
 41
30.0
176
     1
 62
     5
 63
     7
421
 16777215
176
     1
 74
     1
176
     1
 91
       10
176
     1
 64
     7
176
     1
 65
   257
176
     1
 75
     2
176
     1
175
     1
176
     1
 42
1.0
176
     1
 92
        8
176
     1
 66
   257
176
     1
 43
1.0
176
     1
 76
     1
176
     1
 77
     6
176
     1
 78
     2
176
     1
 67
     7
176
     1
 79
     3
176
     1
170
     0
176
     1
171
     0
176
     1
290
     0
176
     1
 93
        5
176
     1
 44
0.0
176
     1
173
     0
176
     1
  0
VISUALSTYLE
  5
3E
102
{ACAD_REACTORS
330
2A
102
}
102
{ACAD_XDICTIONARY
360
2BB
102
}
330
2A
100
AcDbVisualStyle
  2
Shades of Gray
 70
    23
177
     2
291
     0
 71
     2
176
     1
 72
     2
176
     1
 73
     3
176
     1
 90
        0
176
     1
 40
0.6
176
     1
 41
30.0
176
     1
 62
     5
 63
     7
421
 16777215
176
     1
 74
     2
176
     1
 91
        2
176
     1
 64
     7
176
     1
 65
     7
176
     1
 75
     1
176
     1
175
     1
176
     1
 42
40.0
176
     1
 92
        8
176
     1
 66
     7
176
     1
 43
1.0
176
     1
 76
     1
176
     1
 77
     6
176
     1
 78
     2
176
     1
 67
     7
176
     1
 79
     3
176
     1
170
     0
176
     1
171
     0
176
     1
290
     0
176
     1
 93
        1
176
     1
 44
0.0
176
     1
173
     0
176
     1
  0
VISUALSTYLE
  5
3F
102
{ACAD_REACTORS
330
2A
102
}
102
{ACAD_XDICTIONARY
360
2BD
102
}
330
2A
100
AcDbVisualStyle
  2
Sketchy
 70
    24
177
     2
291
     0
 71
     1
176
     1
 72
     2
176
     1
 73
     2
176
     1
 90
        0
176
     1
 40
0.6
176
     1
 41
30.0
176
     1
 62
     5
 63
     7
421
 16777215
176
     1
 74
     2
176
     1
 91
        2
176
     1
 64
     7
176
     1
 65
     7
176
     1
 75
     1
176
     1
175
     1
176
     1
 42
40.0
176
     1
 92
       11
176
     1
 66
     7
176
     1
 43
1.0
176
     1
 76
     1
176
     1
 77
     6
176
     1
 78
     2
176
     1
 67
     7
176
     1
 79
     6
176
     1
170
     0
176
     1
171
     0
176
     1
290
     0
176
     1
 93
        1
176
     1
 44
0.0
176
     1
173
     0
176
     1
  0
VISUALSTYLE
  5
37
102
{ACAD_REACTORS
330
2A
102
}
102
{ACAD_XDICTIONARY
360
2AD
102
}
330
2A
100
AcDbVisualStyle
  2
Thicken
 70
    13
177
     2
291
     1
 71
     2
176
     1
 72
     2
176
     1
 73
     0
176
     1
 90
        0
176
     1
 40
0.6
176
     1
 41
30.0
176
     1
 62
     5
 63
     7
421
 16777215
176
     1
 74
     1
176
     1
 91
        4
176
     1
 64
     7
176
     1
 65
   257
176
     1
 75
     1
176
     1
175
     1
176
     1
 42
1.0
176
     1
 92
       12
176
     1
 66
     7
176
     1
 43
1.0
176
     1
 76
     1
176
     1
 77
     6
176
     1
 78
     2
176
     1
 67
     7
176
     1
 79
     5
176
     1
170
     0
176
     1
171
     0
176
     1
290
     0
176
     1
 93
        1
176
     1
 44
0.0
176
     1
173
     0
176
     1
  0
VISUALSTYLE
  5
30
102
{ACAD_REACTORS
330
2A
102
}
102
{ACAD_XDICTIONARY
360
29F
102
}
330
2A
100
AcDbVisualStyle
  2
Wireframe
 70
     5
177
     2
291
     0
 71
     0
176
     1
 72
     2
176
     1
 73
     0
176
     1
 90
        0
176
     1
 40
0.6
176
     1
 41
30.0
176
     1
 62
     5
 63
     7
421
 16777215
176
     1
 74
     1
176
     1
 91
        4
176
     1
 64
     7
176
     1
 65
   257
176
     1
 75
     1
176
     1
175
     1
176
     1
 42
1.0
176
     1
 92
        0
176
     1
 66
   257
176
     1
 43
1.0
176
     1
 76
     1
176
     1
 77
     6
176
     1
 78
     2
176
     1
 67
     7
176
     1
 79
     3
176
     1
170
     0
176
     1
171
     0
176
     1
290
     0
176
     1
 93
        1
176
     1
 44
0.0
176
     1
173
     0
176
     1
  0
VISUALSTYLE
  5
40
102
{ACAD_REACTORS
330
2A
102
}
102
{ACAD_XDICTIONARY
360
2BF
102
}
330
2A
100
AcDbVisualStyle
  2
X-Ray
 70
    25
177
     2
291
     0
 71
     2
176
     1
 72
     2
176
     1
 73
     1
176
     1
 90
        1
176
     1
 40
0.5
176
     1
 41
30.0
176
     1
 62
     5
 63
     7
421
 16777215
176
     1
 74
     1
176
     1
 91
        0
176
     1
 64
     7
176
     1
 65
   257
176
     1
 75
     1
176
     1
175
     1
176
     1
 42
1.0
176
     1
 92
        8
176
     1
 66
     7
176
     1
 43
1.0
176
     1
 76
     1
176
     1
 77
     6
176
     1
 78
     2
176
     1
 67
     7
176
     1
 79
     3
176
     1
170
     0
176
     1
171
     0
176
     1
290
     0
176
     1
 93
       13
176
     1
 44
0.0
176
     1
173
     0
176
     1
  0
DICTIONARYVAR
  5
294
102
{ACAD_REACTORS
330
293
102
}
330
293
100
DictionaryVariables
280
     0
  1
1:1
  0
DICTIONARYVAR
  5
2C9
102
{ACAD_REACTORS
330
293
102
}
330
293
100
DictionaryVariables
280
     0
  1
Standard
  0
DICTIONARYVAR
  5
2C8
102
{ACAD_REACTORS
330
293
102
}
330
293
100
DictionaryVariables
280
     0
  1
Standard
  0
DICTIONARY
  5
2C5
330
6A
100
AcDbDictionary
280
     1
281
     1
  3
ACAD_ROUNDTRIP_2008_TABLESTYLE_CELLSTYLEMAP
360
2C6
  0
DICTIONARY
  5
29D
330
2F
100
AcDbDictionary
280
     1
281
     1
  3
ACAD_XREC_ROUNDTRIP
360
29E
  0
DICTIONARY
  5
2A3
330
32
100
AcDbDictionary
280
     1
281
     1
  3
ACAD_XREC_ROUNDTRIP
360
2A4
  0
DICTIONARY
  5
2AB
330
36
100
AcDbDictionary
280
     1
281
     1
  3
ACAD_XREC_ROUNDTRIP
360
2AC
  0
DICTIONARY
  5
2B3
330
3A
100
AcDbDictionary
280
     1
281
     1
  3
ACAD_XREC_ROUNDTRIP
360
2B4
  0
DICTIONARY
  5
2A7
330
34
100
AcDbDictionary
280
     1
281
     1
  3
ACAD_XREC_ROUNDTRIP
360
2A8
  0
DICTIONARY
  5
2A9
330
35
100
AcDbDictionary
280
     1
281
     1
  3
ACAD_XREC_ROUNDTRIP
360
2AA
  0
DICTIONARY
  5
2B9
330
3D
100
AcDbDictionary
280
     1
281
     1
  3
ACAD_XREC_ROUNDTRIP
360
2BA
  0
DICTIONARY
  5
2B1
330
39
100
AcDbDictionary
280
     1
281
     1
  3
ACAD_XREC_ROUNDTRIP
360
2B2
  0
DICTIONARY
  5
295
330
2B
100
AcDbDictionary
280
     1
281
     1
  3
ACAD_XREC_ROUNDTRIP
360
296
  0
DICTIONARY
  5
297
330
2C
100
AcDbDictionary
280
     1
281
     1
  3
ACAD_XREC_ROUNDTRIP
360
298
  0
DICTIONARY
  5
299
330
2D
100
AcDbDictionary
280
     1
281
     1
  3
ACAD_XREC_ROUNDTRIP
360
29A
  0
DICTIONARY
  5
29B
330
2E
100
AcDbDictionary
280
     1
281
     1
  3
ACAD_XREC_ROUNDTRIP
360
29C
  0
DICTIONARY
  5
2A1
330
31
100
AcDbDictionary
280
     1
281
     1
  3
ACAD_XREC_ROUNDTRIP
360
2A2
  0
DICTIONARY
  5
2B5
330
3B
100
AcDbDictionary
280
     1
281
     1
  3
ACAD_XREC_ROUNDTRIP
360
2B6
  0
DICTIONARY
  5
2AF
330
38
100
AcDbDictionary
280
     1
281
     1
  3
ACAD_XREC_ROUNDTRIP
360
2B0
  0
DICTIONARY
  5
2B7
330
3C
100
AcDbDictionary
280
     1
281
     1
  3
ACAD_XREC_ROUNDTRIP
360
2B8
  0
DICTIONARY
  5
2A5
330
33
100
AcDbDictionary
280
     1
281
     1
  3
ACAD_XREC_ROUNDTRIP
360
2A6
  0
DICTIONARY
  5
2C3
330
42
100
AcDbDictionary
280
     1
281
     1
  3
ACAD_XREC_ROUNDTRIP
360
2C4
  0
DICTIONARY
  5
2C1
330
41
100
AcDbDictionary
280
     1
281
     1
  3
ACAD_XREC_ROUNDTRIP
360
2C2
  0
DICTIONARY
  5
2BB
330
3E
100
AcDbDictionary
280
     1
281
     1
  3
ACAD_XREC_ROUNDTRIP
360
2BC
  0
DICTIONARY
  5
2BD
330
3F
100
AcDbDictionary
280
     1
281
     1
  3
ACAD_XREC_ROUNDTRIP
360
2BE
  0
DICTIONARY
  5
2AD
330
37
100
AcDbDictionary
280
     1
281
     1
  3
ACAD_XREC_ROUNDTRIP
360
2AE
  0
DICTIONARY
  5
29F
330
30
100
AcDbDictionary
280
     1
281
     1
  3
ACAD_XREC_ROUNDTRIP
360
2A0
  0
DICTIONARY
  5
2BF
330
40
100
AcDbDictionary
280
     1
281
     1
  3
ACAD_XREC_ROUNDTRIP
360
2C0
  0
CELLSTYLEMAP
  5
2C6
102
{ACAD_REACTORS
330
2C5
102
}
330
2C5
100
AcDbCellStyleMap
 90
        3
300
CELLSTYLE
  1
TABLEFORMAT_BEGIN
 90
        5
170
     1
 91
        0
 92
    32768
 62
   257
 93
        1
300
CONTENTFORMAT
  1
CONTENTFORMAT_BEGIN
 90
        0
 91
        0
 92
        4
 93
        0
300

 40
0.0
140
1.0
 94
        5
 62
     0
340
11
144
6.0
309
CONTENTFORMAT_END
171
     1
301
MARGIN
  1
CELLMARGIN_BEGIN
 40
1.5
 40
1.5
 40
1.5
 40
1.5
 40
1.5
 40
1.5
309
CELLMARGIN_END
 94
        6
 95
        1
302
GRIDFORMAT
  1
GRIDFORMAT_BEGIN
 90
        0
 91
        1
 62
     0
 92
       -2
340
14
 93
        0
 40
0.045
309
GRIDFORMAT_END
 95
        2
302
GRIDFORMAT
  1
GRIDFORMAT_BEGIN
 90
        0
 91
        1
 62
     0
 92
       -2
340
14
 93
        0
 40
0.045
309
GRIDFORMAT_END
 95
        4
302
GRIDFORMAT
  1
GRIDFORMAT_BEGIN
 90
        0
 91
        1
 62
     0
 92
       -2
340
14
 93
        0
 40
0.045
309
GRIDFORMAT_END
 95
        8
302
GRIDFORMAT
  1
GRIDFORMAT_BEGIN
 90
        0
 91
        1
 62
     0
 92
       -2
340
14
 93
        0
 40
0.045
309
GRIDFORMAT_END
 95
       16
302
GRIDFORMAT
  1
GRIDFORMAT_BEGIN
 90
        0
 91
        1
 62
     0
 92
       -2
340
14
 93
        0
 40
0.045
309
GRIDFORMAT_END
 95
       32
302
GRIDFORMAT
  1
GRIDFORMAT_BEGIN
 90
        0
 91
        1
 62
     0
 92
       -2
340
14
 93
        0
 40
0.045
309
GRIDFORMAT_END
309
TABLEFORMAT_END
  1
CELLSTYLE_BEGIN
 90
        1
 91
        1
300
_TITLE
309
CELLSTYLE_END
300
CELLSTYLE
  1
TABLEFORMAT_BEGIN
 90
        5
170
     1
 91
        0
 92
        0
 62
   257
 93
        1
300
CONTENTFORMAT
  1
CONTENTFORMAT_BEGIN
 90
        0
 91
        0
 92
        4
 93
        0
300

 40
0.0
140
1.0
 94
        5
 62
     0
340
11
144
4.5
309
CONTENTFORMAT_END
171
     1
301
MARGIN
  1
CELLMARGIN_BEGIN
 40
1.5
 40
1.5
 40
1.5
 40
1.5
 40
1.5
 40
1.5
309
CELLMARGIN_END
 94
        6
 95
        1
302
GRIDFORMAT
  1
GRIDFORMAT_BEGIN
 90
        0
 91
        1
 62
     0
 92
       -2
340
14
 93
        0
 40
0.045
309
GRIDFORMAT_END
 95
        2
302
GRIDFORMAT
  1
GRIDFORMAT_BEGIN
 90
        0
 91
        1
 62
     0
 92
       -2
340
14
 93
        0
 40
0.045
309
GRIDFORMAT_END
 95
        4
302
GRIDFORMAT
  1
GRIDFORMAT_BEGIN
 90
        0
 91
        1
 62
     0
 92
       -2
340
14
 93
        0
 40
0.045
309
GRIDFORMAT_END
 95
        8
302
GRIDFORMAT
  1
GRIDFORMAT_BEGIN
 90
        0
 91
        1
 62
     0
 92
       -2
340
14
 93
        0
 40
0.045
309
GRIDFORMAT_END
 95
       16
302
GRIDFORMAT
  1
GRIDFORMAT_BEGIN
 90
        0
 91
        1
 62
     0
 92
       -2
340
14
 93
        0
 40
0.045
309
GRIDFORMAT_END
 95
       32
302
GRIDFORMAT
  1
GRIDFORMAT_BEGIN
 90
        0
 91
        1
 62
     0
 92
       -2
340
14
 93
        0
 40
0.045
309
GRIDFORMAT_END
309
TABLEFORMAT_END
  1
CELLSTYLE_BEGIN
 90
        2
 91
        1
300
_HEADER
309
CELLSTYLE_END
300
CELLSTYLE
  1
TABLEFORMAT_BEGIN
 90
        5
170
     1
 91
        0
 92
        0
 62
   257
 93
        1
300
CONTENTFORMAT
  1
CONTENTFORMAT_BEGIN
 90
        0
 91
        0
 92
        4
 93
        0
300

 40
0.0
140
1.0
 94
        2
 62
     0
340
11
144
4.5
309
CONTENTFORMAT_END
171
     1
301
MARGIN
  1
CELLMARGIN_BEGIN
 40
1.5
 40
1.5
 40
1.5
 40
1.5
 40
1.5
 40
1.5
309
CELLMARGIN_END
 94
        6
 95
        1
302
GRIDFORMAT
  1
GRIDFORMAT_BEGIN
 90
        0
 91
        1
 62
     0
 92
       -2
340
14
 93
        0
 40
0.045
309
GRIDFORMAT_END
 95
        2
302
GRIDFORMAT
  1
GRIDFORMAT_BEGIN
 90
        0
 91
        1
 62
     0
 92
       -2
340
14
 93
        0
 40
0.045
309
GRIDFORMAT_END
 95
        4
302
GRIDFORMAT
  1
GRIDFORMAT_BEGIN
 90
        0
 91
        1
 62
     0
 92
       -2
340
14
 93
        0
 40
0.045
309
GRIDFORMAT_END
 95
        8
302
GRIDFORMAT
  1
GRIDFORMAT_BEGIN
 90
        0
 91
        1
 62
     0
 92
       -2
340
14
 93
        0
 40
0.045
309
GRIDFORMAT_END
 95
       16
302
GRIDFORMAT
  1
GRIDFORMAT_BEGIN
 90
        0
 91
        1
 62
     0
 92
       -2
340
14
 93
        0
 40
0.045
309
GRIDFORMAT_END
 95
       32
302
GRIDFORMAT
  1
GRIDFORMAT_BEGIN
 90
        0
 91
        1
 62
     0
 92
       -2
340
14
 93
        0
 40
0.045
309
GRIDFORMAT_END
309
TABLEFORMAT_END
  1
CELLSTYLE_BEGIN
 90
        3
 91
        2
300
_DATA
309
CELLSTYLE_END
  0
XRECORD
  5
29E
102
{ACAD_REACTORS
330
29D
102
}
330
29D
100
AcDbXrecord
280
     1
102
RTVSPost2010Prop28
280
     1
102
RTVSPost2010PropOp28
 70
     1
102
RTVSPost2010Prop29
280
     1
102
RTVSPost2010PropOp29
 70
     1
102
RTVSPost2010Prop30
280
     0
102
RTVSPost2010PropOp30
 70
     1
102
RTVSPost2010Prop31
280
     0
102
RTVSPost2010PropOp31
 70
     1
102
RTVSPost2010Prop32
280
     0
102
RTVSPost2010PropOp32
 70
     1
102
RTVSPost2010Prop33
280
     0
102
RTVSPost2010PropOp33
 70
     1
102
RTVSPost2010Prop34
280
     0
102
RTVSPost2010PropOp34
 70
     1
102
RTVSPost2010Prop35
280
     0
102
RTVSPost2010PropOp35
 70
     1
102
RTVSPost2010Prop36
280
     0
102
RTVSPost2010PropOp36
 70
     1
102
RTVSPost2010Prop37
 90
       50
102
RTVSPost2010PropOp37
 70
     1
102
RTVSPost2010Prop38
140
0.0
102
RTVSPost2010PropOp38
 70
     1
102
RTVSPost2010Prop39
140
1.0
102
RTVSPost2010PropOp39
 70
     1
102
RTVSPost2010Prop40
 90
        0
102
RTVSPost2010PropOp40
 70
     1
102
RTVSPost2010Prop41ColorIndex
 90
       18
102
RTVSPost2010Prop41ColorRGB
 90
        0
102
RTVSPost2010PropOp41
 70
     1
102
RTVSPost2010Prop42
 90
       50
102
RTVSPost2010PropOp42
 70
     1
102
RTVSPost2010Prop43
 90
        3
102
RTVSPost2010PropOp43
 70
     1
102
RTVSPost2010Prop44ColorIndex
 90
        5
102
RTVSPost2010Prop44ColorRGB
 90
      255
102
RTVSPost2010PropOp44
 70
     1
102
RTVSPost2010Prop45
280
     0
102
RTVSPost2010PropOp45
 70
     1
102
RTVSPost2010Prop46
 90
       50
102
RTVSPost2010PropOp46
 70
     1
102
RTVSPost2010Prop47
 90
       50
102
RTVSPost2010PropOp47
 70
     1
102
RTVSPost2010Prop48
 90
       50
102
RTVSPost2010PropOp48
 70
     1
102
RTVSPost2010Prop49
280
     0
102
RTVSPost2010PropOp49
 70
     1
102
RTVSPost2010Prop50
 90
       50
102
RTVSPost2010PropOp50
 70
     1
102
RTVSPost2010Prop51ColorIndex
 90
      256
102
RTVSPost2010Prop51ColorRGB
 90
-16777216
102
RTVSPost2010PropOp51
 70
     0
102
RTVSPost2010Prop52
140
1.0
102
RTVSPost2010PropOp52
 70
     0
102
RTVSPost2010Prop53
 90
        2
102
RTVSPost2010PropOp53
 70
     1
102
RTVSPost2010Prop54
  1
strokes_ogs.tif
102
RTVSPost2010PropOp54
 70
     1
102
RTVSPost2010Prop55
280
     0
102
RTVSPost2010PropOp55
 70
     1
102
RTVSPost2010Prop56
140
1.0
102
RTVSPost2010PropOp56
 70
     1
102
RTVSPost2010Prop57
140
1.0
102
RTVSPost2010PropOp57
 70
     1
  0
XRECORD
  5
2A4
102
{ACAD_REACTORS
330
2A3
102
}
330
2A3
100
AcDbXrecord
280
     1
102
RTVSPost2010Prop28
280
     0
102
RTVSPost2010PropOp28
 70
     1
102
RTVSPost2010Prop29
280
     1
102
RTVSPost2010PropOp29
 70
     1
102
RTVSPost2010Prop30
280
     1
102
RTVSPost2010PropOp30
 70
     1
102
RTVSPost2010Prop31
280
     0
102
RTVSPost2010PropOp31
 70
     1
102
RTVSPost2010Prop32
280
     0
102
RTVSPost2010PropOp32
 70
     1
102
RTVSPost2010Prop33
280
     0
102
RTVSPost2010PropOp33
 70
     1
102
RTVSPost2010Prop34
280
     0
102
RTVSPost2010PropOp34
 70
     1
102
RTVSPost2010Prop35
280
     0
102
RTVSPost2010PropOp35
 70
     1
102
RTVSPost2010Prop36
280
     0
102
RTVSPost2010PropOp36
 70
     1
102
RTVSPost2010Prop37
 90
       50
102
RTVSPost2010PropOp37
 70
     1
102
RTVSPost2010Prop38
140
0.0
102
RTVSPost2010PropOp38
 70
     1
102
RTVSPost2010Prop39
140
1.0
102
RTVSPost2010PropOp39
 70
     1
102
RTVSPost2010Prop40
 90
        0
102
RTVSPost2010PropOp40
 70
     1
102
RTVSPost2010Prop41ColorIndex
 90
       18
102
RTVSPost2010Prop41ColorRGB
 90
        0
102
RTVSPost2010PropOp41
 70
     1
102
RTVSPost2010Prop42
 90
       50
102
RTVSPost2010PropOp42
 70
     1
102
RTVSPost2010Prop43
 90
        3
102
RTVSPost2010PropOp43
 70
     1
102
RTVSPost2010Prop44ColorIndex
 90
        5
102
RTVSPost2010Prop44ColorRGB
 90
      255
102
RTVSPost2010PropOp44
 70
     1
102
RTVSPost2010Prop45
280
     0
102
RTVSPost2010PropOp45
 70
     1
102
RTVSPost2010Prop46
 90
       50
102
RTVSPost2010PropOp46
 70
     1
102
RTVSPost2010Prop47
 90
       50
102
RTVSPost2010PropOp47
 70
     1
102
RTVSPost2010Prop48
 90
       50
102
RTVSPost2010PropOp48
 70
     1
102
RTVSPost2010Prop49
280
     0
102
RTVSPost2010PropOp49
 70
     1
102
RTVSPost2010Prop50
 90
       50
102
RTVSPost2010PropOp50
 70
     1
102
RTVSPost2010Prop51ColorIndex
 90
      256
102
RTVSPost2010Prop51ColorRGB
 90
-16777216
102
RTVSPost2010PropOp51
 70
     0
102
RTVSPost2010Prop52
140
1.0
102
RTVSPost2010PropOp52
 70
     0
102
RTVSPost2010Prop53
 90
        2
102
RTVSPost2010PropOp53
 70
     1
102
RTVSPost2010Prop54
  1
strokes_ogs.tif
102
RTVSPost2010PropOp54
 70
     1
102
RTVSPost2010Prop55
280
     0
102
RTVSPost2010PropOp55
 70
     1
102
RTVSPost2010Prop56
140
1.0
102
RTVSPost2010PropOp56
 70
     1
102
RTVSPost2010Prop57
140
1.0
102
RTVSPost2010PropOp57
 70
     1
  0
XRECORD
  5
2AC
102
{ACAD_REACTORS
330
2AB
102
}
330
2AB
100
AcDbXrecord
280
     1
102
RTVSPost2010Prop28
280
     0
102
RTVSPost2010PropOp28
 70
     1
102
RTVSPost2010Prop29
280
     1
102
RTVSPost2010PropOp29
 70
     1
102
RTVSPost2010Prop30
280
     1
102
RTVSPost2010PropOp30
 70
     1
102
RTVSPost2010Prop31
280
     0
102
RTVSPost2010PropOp31
 70
     1
102
RTVSPost2010Prop32
280
     0
102
RTVSPost2010PropOp32
 70
     1
102
RTVSPost2010Prop33
280
     0
102
RTVSPost2010PropOp33
 70
     1
102
RTVSPost2010Prop34
280
     0
102
RTVSPost2010PropOp34
 70
     1
102
RTVSPost2010Prop35
280
     0
102
RTVSPost2010PropOp35
 70
     1
102
RTVSPost2010Prop36
280
     0
102
RTVSPost2010PropOp36
 70
     1
102
RTVSPost2010Prop37
 90
       50
102
RTVSPost2010PropOp37
 70
     1
102
RTVSPost2010Prop38
140
0.0
102
RTVSPost2010PropOp38
 70
     1
102
RTVSPost2010Prop39
140
1.0
102
RTVSPost2010PropOp39
 70
     1
102
RTVSPost2010Prop40
 90
        0
102
RTVSPost2010PropOp40
 70
     1
102
RTVSPost2010Prop41ColorIndex
 90
       18
102
RTVSPost2010Prop41ColorRGB
 90
        0
102
RTVSPost2010PropOp41
 70
     1
102
RTVSPost2010Prop42
 90
       50
102
RTVSPost2010PropOp42
 70
     1
102
RTVSPost2010Prop43
 90
        3
102
RTVSPost2010PropOp43
 70
     1
102
RTVSPost2010Prop44ColorIndex
 90
        5
102
RTVSPost2010Prop44ColorRGB
 90
      255
102
RTVSPost2010PropOp44
 70
     1
102
RTVSPost2010Prop45
280
     0
102
RTVSPost2010PropOp45
 70
     1
102
RTVSPost2010Prop46
 90
       50
102
RTVSPost2010PropOp46
 70
     1
102
RTVSPost2010Prop47
 90
       50
102
RTVSPost2010PropOp47
 70
     1
102
RTVSPost2010Prop48
 90
       50
102
RTVSPost2010PropOp48
 70
     1
102
RTVSPost2010Prop49
280
     0
102
RTVSPost2010PropOp49
 70
     1
102
RTVSPost2010Prop50
 90
       50
102
RTVSPost2010PropOp50
 70
     1
102
RTVSPost2010Prop51ColorIndex
 90
      256
102
RTVSPost2010Prop51ColorRGB
 90
-16777216
102
RTVSPost2010PropOp51
 70
     0
102
RTVSPost2010Prop52
140
1.0
102
RTVSPost2010PropOp52
 70
     0
102
RTVSPost2010Prop53
 90
        2
102
RTVSPost2010PropOp53
 70
     1
102
RTVSPost2010Prop54
  1
strokes_ogs.tif
102
RTVSPost2010PropOp54
 70
     1
102
RTVSPost2010Prop55
280
     0
102
RTVSPost2010PropOp55
 70
     1
102
RTVSPost2010Prop56
140
1.0
102
RTVSPost2010PropOp56
 70
     1
102
RTVSPost2010Prop57
140
1.0
102
RTVSPost2010PropOp57
 70
     1
  0
XRECORD
  5
2B4
102
{ACAD_REACTORS
330
2B3
102
}
330
2B3
100
AcDbXrecord
280
     1
102
RTVSPost2010Prop28
280
     0
102
RTVSPost2010PropOp28
 70
     1
102
RTVSPost2010Prop29
280
     1
102
RTVSPost2010PropOp29
 70
     1
102
RTVSPost2010Prop30
280
     1
102
RTVSPost2010PropOp30
 70
     1
102
RTVSPost2010Prop31
280
     0
102
RTVSPost2010PropOp31
 70
     1
102
RTVSPost2010Prop32
280
     0
102
RTVSPost2010PropOp32
 70
     1
102
RTVSPost2010Prop33
280
     0
102
RTVSPost2010PropOp33
 70
     1
102
RTVSPost2010Prop34
280
     0
102
RTVSPost2010PropOp34
 70
     1
102
RTVSPost2010Prop35
280
     0
102
RTVSPost2010PropOp35
 70
     1
102
RTVSPost2010Prop36
280
     0
102
RTVSPost2010PropOp36
 70
     1
102
RTVSPost2010Prop37
 90
       50
102
RTVSPost2010PropOp37
 70
     1
102
RTVSPost2010Prop38
140
0.0
102
RTVSPost2010PropOp38
 70
     1
102
RTVSPost2010Prop39
140
1.0
102
RTVSPost2010PropOp39
 70
     1
102
RTVSPost2010Prop40
 90
        0
102
RTVSPost2010PropOp40
 70
     1
102
RTVSPost2010Prop41ColorIndex
 90
       18
102
RTVSPost2010Prop41ColorRGB
 90
        0
102
RTVSPost2010PropOp41
 70
     1
102
RTVSPost2010Prop42
 90
       50
102
RTVSPost2010PropOp42
 70
     1
102
RTVSPost2010Prop43
 90
        3
102
RTVSPost2010PropOp43
 70
     1
102
RTVSPost2010Prop44ColorIndex
 90
        5
102
RTVSPost2010Prop44ColorRGB
 90
      255
102
RTVSPost2010PropOp44
 70
     1
102
RTVSPost2010Prop45
280
     0
102
RTVSPost2010PropOp45
 70
     1
102
RTVSPost2010Prop46
 90
       50
102
RTVSPost2010PropOp46
 70
     1
102
RTVSPost2010Prop47
 90
       50
102
RTVSPost2010PropOp47
 70
     1
102
RTVSPost2010Prop48
 90
       50
102
RTVSPost2010PropOp48
 70
     1
102
RTVSPost2010Prop49
280
     0
102
RTVSPost2010PropOp49
 70
     1
102
RTVSPost2010Prop50
 90
       50
102
RTVSPost2010PropOp50
 70
     1
102
RTVSPost2010Prop51ColorIndex
 90
      256
102
RTVSPost2010Prop51ColorRGB
 90
-16777216
102
RTVSPost2010PropOp51
 70
     0
102
RTVSPost2010Prop52
140
1.0
102
RTVSPost2010PropOp52
 70
     0
102
RTVSPost2010Prop53
 90
        2
102
RTVSPost2010PropOp53
 70
     1
102
RTVSPost2010Prop54
  1
strokes_ogs.tif
102
RTVSPost2010PropOp54
 70
     1
102
RTVSPost2010Prop55
280
     0
102
RTVSPost2010PropOp55
 70
     1
102
RTVSPost2010Prop56
140
1.0
102
RTVSPost2010PropOp56
 70
     1
102
RTVSPost2010Prop57
140
1.0
102
RTVSPost2010PropOp57
 70
     1
  0
XRECORD
  5
2A8
102
{ACAD_REACTORS
330
2A7
102
}
330
2A7
100
AcDbXrecord
280
     1
102
RTVSPost2010Prop28
280
     0
102
RTVSPost2010PropOp28
 70
     1
102
RTVSPost2010Prop29
280
     1
102
RTVSPost2010PropOp29
 70
     1
102
RTVSPost2010Prop30
280
     1
102
RTVSPost2010PropOp30
 70
     1
102
RTVSPost2010Prop31
280
     0
102
RTVSPost2010PropOp31
 70
     1
102
RTVSPost2010Prop32
280
     0
102
RTVSPost2010PropOp32
 70
     1
102
RTVSPost2010Prop33
280
     0
102
RTVSPost2010PropOp33
 70
     1
102
RTVSPost2010Prop34
280
     0
102
RTVSPost2010PropOp34
 70
     1
102
RTVSPost2010Prop35
280
     0
102
RTVSPost2010PropOp35
 70
     1
102
RTVSPost2010Prop36
280
     0
102
RTVSPost2010PropOp36
 70
     1
102
RTVSPost2010Prop37
 90
       50
102
RTVSPost2010PropOp37
 70
     1
102
RTVSPost2010Prop38
140
0.0
102
RTVSPost2010PropOp38
 70
     1
102
RTVSPost2010Prop39
140
1.0
102
RTVSPost2010PropOp39
 70
     1
102
RTVSPost2010Prop40
 90
        0
102
RTVSPost2010PropOp40
 70
     1
102
RTVSPost2010Prop41ColorIndex
 90
       18
102
RTVSPost2010Prop41ColorRGB
 90
        0
102
RTVSPost2010PropOp41
 70
     1
102
RTVSPost2010Prop42
 90
       50
102
RTVSPost2010PropOp42
 70
     1
102
RTVSPost2010Prop43
 90
        3
102
RTVSPost2010PropOp43
 70
     1
102
RTVSPost2010Prop44ColorIndex
 90
        5
102
RTVSPost2010Prop44ColorRGB
 90
      255
102
RTVSPost2010PropOp44
 70
     1
102
RTVSPost2010Prop45
280
     0
102
RTVSPost2010PropOp45
 70
     1
102
RTVSPost2010Prop46
 90
       50
102
RTVSPost2010PropOp46
 70
     1
102
RTVSPost2010Prop47
 90
       50
102
RTVSPost2010PropOp47
 70
     1
102
RTVSPost2010Prop48
 90
       50
102
RTVSPost2010PropOp48
 70
     1
102
RTVSPost2010Prop49
280
     0
102
RTVSPost2010PropOp49
 70
     1
102
RTVSPost2010Prop50
 90
       50
102
RTVSPost2010PropOp50
 70
     1
102
RTVSPost2010Prop51ColorIndex
 90
      256
102
RTVSPost2010Prop51ColorRGB
 90
-16777216
102
RTVSPost2010PropOp51
 70
     0
102
RTVSPost2010Prop52
140
1.0
102
RTVSPost2010PropOp52
 70
     0
102
RTVSPost2010Prop53
 90
        2
102
RTVSPost2010PropOp53
 70
     1
102
RTVSPost2010Prop54
  1
strokes_ogs.tif
102
RTVSPost2010PropOp54
 70
     1
102
RTVSPost2010Prop55
280
     0
102
RTVSPost2010PropOp55
 70
     1
102
RTVSPost2010Prop56
140
1.0
102
RTVSPost2010PropOp56
 70
     1
102
RTVSPost2010Prop57
140
1.0
102
RTVSPost2010PropOp57
 70
     1
  0
XRECORD
  5
2AA
102
{ACAD_REACTORS
330
2A9
102
}
330
2A9
100
AcDbXrecord
280
     1
102
RTVSPost2010Prop28
280
     0
102
RTVSPost2010PropOp28
 70
     1
102
RTVSPost2010Prop29
280
     1
102
RTVSPost2010PropOp29
 70
     1
102
RTVSPost2010Prop30
280
     1
102
RTVSPost2010PropOp30
 70
     1
102
RTVSPost2010Prop31
280
     0
102
RTVSPost2010PropOp31
 70
     1
102
RTVSPost2010Prop32
280
     0
102
RTVSPost2010PropOp32
 70
     1
102
RTVSPost2010Prop33
280
     0
102
RTVSPost2010PropOp33
 70
     1
102
RTVSPost2010Prop34
280
     0
102
RTVSPost2010PropOp34
 70
     1
102
RTVSPost2010Prop35
280
     0
102
RTVSPost2010PropOp35
 70
     1
102
RTVSPost2010Prop36
280
     0
102
RTVSPost2010PropOp36
 70
     1
102
RTVSPost2010Prop37
 90
       50
102
RTVSPost2010PropOp37
 70
     1
102
RTVSPost2010Prop38
140
0.0
102
RTVSPost2010PropOp38
 70
     1
102
RTVSPost2010Prop39
140
1.0
102
RTVSPost2010PropOp39
 70
     1
102
RTVSPost2010Prop40
 90
        0
102
RTVSPost2010PropOp40
 70
     1
102
RTVSPost2010Prop41ColorIndex
 90
       18
102
RTVSPost2010Prop41ColorRGB
 90
        0
102
RTVSPost2010PropOp41
 70
     1
102
RTVSPost2010Prop42
 90
       50
102
RTVSPost2010PropOp42
 70
     1
102
RTVSPost2010Prop43
 90
        3
102
RTVSPost2010PropOp43
 70
     1
102
RTVSPost2010Prop44ColorIndex
 90
        5
102
RTVSPost2010Prop44ColorRGB
 90
      255
102
RTVSPost2010PropOp44
 70
     1
102
RTVSPost2010Prop45
280
     0
102
RTVSPost2010PropOp45
 70
     1
102
RTVSPost2010Prop46
 90
       50
102
RTVSPost2010PropOp46
 70
     1
102
RTVSPost2010Prop47
 90
       50
102
RTVSPost2010PropOp47
 70
     1
102
RTVSPost2010Prop48
 90
       50
102
RTVSPost2010PropOp48
 70
     1
102
RTVSPost2010Prop49
280
     0
102
RTVSPost2010PropOp49
 70
     1
102
RTVSPost2010Prop50
 90
       50
102
RTVSPost2010PropOp50
 70
     1
102
RTVSPost2010Prop51ColorIndex
 90
      256
102
RTVSPost2010Prop51ColorRGB
 90
-16777216
102
RTVSPost2010PropOp51
 70
     0
102
RTVSPost2010Prop52
140
1.0
102
RTVSPost2010PropOp52
 70
     0
102
RTVSPost2010Prop53
 90
        2
102
RTVSPost2010PropOp53
 70
     1
102
RTVSPost2010Prop54
  1
strokes_ogs.tif
102
RTVSPost2010PropOp54
 70
     1
102
RTVSPost2010Prop55
280
     0
102
RTVSPost2010PropOp55
 70
     1
102
RTVSPost2010Prop56
140
1.0
102
RTVSPost2010PropOp56
 70
     1
102
RTVSPost2010Prop57
140
1.0
102
RTVSPost2010PropOp57
 70
     1
  0
XRECORD
  5
2BA
102
{ACAD_REACTORS
330
2B9
102
}
330
2B9
100
AcDbXrecord
280
     1
102
RTVSPost2010Prop28
280
     0
102
RTVSPost2010PropOp28
 70
     0
102
RTVSPost2010Prop29
280
     1
102
RTVSPost2010PropOp29
 70
     0
102
RTVSPost2010Prop30
280
     1
102
RTVSPost2010PropOp30
 70
     0
102
RTVSPost2010Prop31
280
     0
102
RTVSPost2010PropOp31
 70
     0
102
RTVSPost2010Prop32
280
     0
102
RTVSPost2010PropOp32
 70
     0
102
RTVSPost2010Prop33
280
     0
102
RTVSPost2010PropOp33
 70
     0
102
RTVSPost2010Prop34
280
     0
102
RTVSPost2010PropOp34
 70
     0
102
RTVSPost2010Prop35
280
     0
102
RTVSPost2010PropOp35
 70
     0
102
RTVSPost2010Prop36
280
     0
102
RTVSPost2010PropOp36
 70
     0
102
RTVSPost2010Prop37
 90
       50
102
RTVSPost2010PropOp37
 70
     0
102
RTVSPost2010Prop38
140
0.0
102
RTVSPost2010PropOp38
 70
     0
102
RTVSPost2010Prop39
140
1.0
102
RTVSPost2010PropOp39
 70
     0
102
RTVSPost2010Prop40
 90
        0
102
RTVSPost2010PropOp40
 70
     0
102
RTVSPost2010Prop41ColorIndex
 90
       18
102
RTVSPost2010Prop41ColorRGB
 90
        0
102
RTVSPost2010PropOp41
 70
     0
102
RTVSPost2010Prop42
 90
       50
102
RTVSPost2010PropOp42
 70
     0
102
RTVSPost2010Prop43
 90
        3
102
RTVSPost2010PropOp43
 70
     0
102
RTVSPost2010Prop44ColorIndex
 90
        5
102
RTVSPost2010Prop44ColorRGB
 90
      255
102
RTVSPost2010PropOp44
 70
     0
102
RTVSPost2010Prop45
280
     0
102
RTVSPost2010PropOp45
 70
     0
102
RTVSPost2010Prop46
 90
       50
102
RTVSPost2010PropOp46
 70
     0
102
RTVSPost2010Prop47
 90
       50
102
RTVSPost2010PropOp47
 70
     0
102
RTVSPost2010Prop48
 90
       50
102
RTVSPost2010PropOp48
 70
     0
102
RTVSPost2010Prop49
280
     0
102
RTVSPost2010PropOp49
 70
     0
102
RTVSPost2010Prop50
 90
       50
102
RTVSPost2010PropOp50
 70
     0
102
RTVSPost2010Prop51ColorIndex
 90
      256
102
RTVSPost2010Prop51ColorRGB
 90
-16777216
102
RTVSPost2010PropOp51
 70
     0
102
RTVSPost2010Prop52
140
1.0
102
RTVSPost2010PropOp52
 70
     0
102
RTVSPost2010Prop53
 90
        2
102
RTVSPost2010PropOp53
 70
     0
102
RTVSPost2010Prop54
  1
strokes_ogs.tif
102
RTVSPost2010PropOp54
 70
     0
102
RTVSPost2010Prop55
280
     0
102
RTVSPost2010PropOp55
 70
     0
102
RTVSPost2010Prop56
140
1.0
102
RTVSPost2010PropOp56
 70
     0
102
RTVSPost2010Prop57
140
1.0
102
RTVSPost2010PropOp57
 70
     0
  0
XRECORD
  5
2B2
102
{ACAD_REACTORS
330
2B1
102
}
330
2B1
100
AcDbXrecord
280
     1
102
RTVSPost2010Prop28
280
     0
102
RTVSPost2010PropOp28
 70
     1
102
RTVSPost2010Prop29
280
     1
102
RTVSPost2010PropOp29
 70
     1
102
RTVSPost2010Prop30
280
     1
102
RTVSPost2010PropOp30
 70
     1
102
RTVSPost2010Prop31
280
     0
102
RTVSPost2010PropOp31
 70
     1
102
RTVSPost2010Prop32
280
     0
102
RTVSPost2010PropOp32
 70
     1
102
RTVSPost2010Prop33
280
     0
102
RTVSPost2010PropOp33
 70
     1
102
RTVSPost2010Prop34
280
     0
102
RTVSPost2010PropOp34
 70
     1
102
RTVSPost2010Prop35
280
     0
102
RTVSPost2010PropOp35
 70
     1
102
RTVSPost2010Prop36
280
     0
102
RTVSPost2010PropOp36
 70
     1
102
RTVSPost2010Prop37
 90
       50
102
RTVSPost2010PropOp37
 70
     1
102
RTVSPost2010Prop38
140
0.0
102
RTVSPost2010PropOp38
 70
     1
102
RTVSPost2010Prop39
140
1.0
102
RTVSPost2010PropOp39
 70
     1
102
RTVSPost2010Prop40
 90
        0
102
RTVSPost2010PropOp40
 70
     1
102
RTVSPost2010Prop41ColorIndex
 90
       18
102
RTVSPost2010Prop41ColorRGB
 90
        0
102
RTVSPost2010PropOp41
 70
     1
102
RTVSPost2010Prop42
 90
       50
102
RTVSPost2010PropOp42
 70
     1
102
RTVSPost2010Prop43
 90
        3
102
RTVSPost2010PropOp43
 70
     1
102
RTVSPost2010Prop44ColorIndex
 90
        5
102
RTVSPost2010Prop44ColorRGB
 90
      255
102
RTVSPost2010PropOp44
 70
     1
102
RTVSPost2010Prop45
280
     0
102
RTVSPost2010PropOp45
 70
     1
102
RTVSPost2010Prop46
 90
       50
102
RTVSPost2010PropOp46
 70
     1
102
RTVSPost2010Prop47
 90
       50
102
RTVSPost2010PropOp47
 70
     1
102
RTVSPost2010Prop48
 90
       50
102
RTVSPost2010PropOp48
 70
     1
102
RTVSPost2010Prop49
280
     0
102
RTVSPost2010PropOp49
 70
     1
102
RTVSPost2010Prop50
 90
       50
102
RTVSPost2010PropOp50
 70
     1
102
RTVSPost2010Prop51ColorIndex
 90
      256
102
RTVSPost2010Prop51ColorRGB
 90
-16777216
102
RTVSPost2010PropOp51
 70
     0
102
RTVSPost2010Prop52
140
1.0
102
RTVSPost2010PropOp52
 70
     0
102
RTVSPost2010Prop53
 90
        2
102
RTVSPost2010PropOp53
 70
     1
102
RTVSPost2010Prop54
  1
strokes_ogs.tif
102
RTVSPost2010PropOp54
 70
     1
102
RTVSPost2010Prop55
280
     0
102
RTVSPost2010PropOp55
 70
     1
102
RTVSPost2010Prop56
140
1.0
102
RTVSPost2010PropOp56
 70
     1
102
RTVSPost2010Prop57
140
1.0
102
RTVSPost2010PropOp57
 70
     1
  0
XRECORD
  5
296
102
{ACAD_REACTORS
330
295
102
}
330
295
100
AcDbXrecord
280
     1
102
RTVSPost2010Prop28
280
     0
102
RTVSPost2010PropOp28
 70
     1
102
RTVSPost2010Prop29
280
     1
102
RTVSPost2010PropOp29
 70
     1
102
RTVSPost2010Prop30
280
     1
102
RTVSPost2010PropOp30
 70
     1
102
RTVSPost2010Prop31
280
     0
102
RTVSPost2010PropOp31
 70
     1
102
RTVSPost2010Prop32
280
     0
102
RTVSPost2010PropOp32
 70
     1
102
RTVSPost2010Prop33
280
     0
102
RTVSPost2010PropOp33
 70
     1
102
RTVSPost2010Prop34
280
     0
102
RTVSPost2010PropOp34
 70
     1
102
RTVSPost2010Prop35
280
     0
102
RTVSPost2010PropOp35
 70
     1
102
RTVSPost2010Prop36
280
     0
102
RTVSPost2010PropOp36
 70
     1
102
RTVSPost2010Prop37
 90
       50
102
RTVSPost2010PropOp37
 70
     1
102
RTVSPost2010Prop38
140
0.0
102
RTVSPost2010PropOp38
 70
     1
102
RTVSPost2010Prop39
140
1.0
102
RTVSPost2010PropOp39
 70
     1
102
RTVSPost2010Prop40
 90
        0
102
RTVSPost2010PropOp40
 70
     1
102
RTVSPost2010Prop41ColorIndex
 90
       18
102
RTVSPost2010Prop41ColorRGB
 90
        0
102
RTVSPost2010PropOp41
 70
     1
102
RTVSPost2010Prop42
 90
       50
102
RTVSPost2010PropOp42
 70
     1
102
RTVSPost2010Prop43
 90
        3
102
RTVSPost2010PropOp43
 70
     1
102
RTVSPost2010Prop44ColorIndex
 90
        5
102
RTVSPost2010Prop44ColorRGB
 90
      255
102
RTVSPost2010PropOp44
 70
     1
102
RTVSPost2010Prop45
280
     0
102
RTVSPost2010PropOp45
 70
     1
102
RTVSPost2010Prop46
 90
       50
102
RTVSPost2010PropOp46
 70
     1
102
RTVSPost2010Prop47
 90
       50
102
RTVSPost2010PropOp47
 70
     1
102
RTVSPost2010Prop48
 90
       50
102
RTVSPost2010PropOp48
 70
     1
102
RTVSPost2010Prop49
280
     0
102
RTVSPost2010PropOp49
 70
     1
102
RTVSPost2010Prop50
 90
       50
102
RTVSPost2010PropOp50
 70
     1
102
RTVSPost2010Prop51ColorIndex
 90
      256
102
RTVSPost2010Prop51ColorRGB
 90
-16777216
102
RTVSPost2010PropOp51
 70
     0
102
RTVSPost2010Prop52
140
1.0
102
RTVSPost2010PropOp52
 70
     0
102
RTVSPost2010Prop53
 90
        2
102
RTVSPost2010PropOp53
 70
     1
102
RTVSPost2010Prop54
  1
strokes_ogs.tif
102
RTVSPost2010PropOp54
 70
     1
102
RTVSPost2010Prop55
280
     0
102
RTVSPost2010PropOp55
 70
     1
102
RTVSPost2010Prop56
140
1.0
102
RTVSPost2010PropOp56
 70
     1
102
RTVSPost2010Prop57
140
1.0
102
RTVSPost2010PropOp57
 70
     1
  0
XRECORD
  5
298
102
{ACAD_REACTORS
330
297
102
}
330
297
100
AcDbXrecord
280
     1
102
RTVSPost2010Prop28
280
     0
102
RTVSPost2010PropOp28
 70
     1
102
RTVSPost2010Prop29
280
     1
102
RTVSPost2010PropOp29
 70
     1
102
RTVSPost2010Prop30
280
     1
102
RTVSPost2010PropOp30
 70
     1
102
RTVSPost2010Prop31
280
     0
102
RTVSPost2010PropOp31
 70
     1
102
RTVSPost2010Prop32
280
     0
102
RTVSPost2010PropOp32
 70
     1
102
RTVSPost2010Prop33
280
     0
102
RTVSPost2010PropOp33
 70
     1
102
RTVSPost2010Prop34
280
     0
102
RTVSPost2010PropOp34
 70
     1
102
RTVSPost2010Prop35
280
     0
102
RTVSPost2010PropOp35
 70
     1
102
RTVSPost2010Prop36
280
     0
102
RTVSPost2010PropOp36
 70
     1
102
RTVSPost2010Prop37
 90
       50
102
RTVSPost2010PropOp37
 70
     1
102
RTVSPost2010Prop38
140
0.0
102
RTVSPost2010PropOp38
 70
     1
102
RTVSPost2010Prop39
140
1.0
102
RTVSPost2010PropOp39
 70
     1
102
RTVSPost2010Prop40
 90
        0
102
RTVSPost2010PropOp40
 70
     1
102
RTVSPost2010Prop41ColorIndex
 90
       18
102
RTVSPost2010Prop41ColorRGB
 90
        0
102
RTVSPost2010PropOp41
 70
     1
102
RTVSPost2010Prop42
 90
       50
102
RTVSPost2010PropOp42
 70
     1
102
RTVSPost2010Prop43
 90
        3
102
RTVSPost2010PropOp43
 70
     1
102
RTVSPost2010Prop44ColorIndex
 90
        5
102
RTVSPost2010Prop44ColorRGB
 90
      255
102
RTVSPost2010PropOp44
 70
     1
102
RTVSPost2010Prop45
280
     0
102
RTVSPost2010PropOp45
 70
     1
102
RTVSPost2010Prop46
 90
       50
102
RTVSPost2010PropOp46
 70
     1
102
RTVSPost2010Prop47
 90
       50
102
RTVSPost2010PropOp47
 70
     1
102
RTVSPost2010Prop48
 90
       50
102
RTVSPost2010PropOp48
 70
     1
102
RTVSPost2010Prop49
280
     0
102
RTVSPost2010PropOp49
 70
     1
102
RTVSPost2010Prop50
 90
       50
102
RTVSPost2010PropOp50
 70
     1
102
RTVSPost2010Prop51ColorIndex
 90
      256
102
RTVSPost2010Prop51ColorRGB
 90
-16777216
102
RTVSPost2010PropOp51
 70
     0
102
RTVSPost2010Prop52
140
1.0
102
RTVSPost2010PropOp52
 70
     0
102
RTVSPost2010Prop53
 90
        2
102
RTVSPost2010PropOp53
 70
     1
102
RTVSPost2010Prop54
  1
strokes_ogs.tif
102
RTVSPost2010PropOp54
 70
     1
102
RTVSPost2010Prop55
280
     0
102
RTVSPost2010PropOp55
 70
     1
102
RTVSPost2010Prop56
140
1.0
102
RTVSPost2010PropOp56
 70
     1
102
RTVSPost2010Prop57
140
1.0
102
RTVSPost2010PropOp57
 70
     1
  0
XRECORD
  5
29A
102
{ACAD_REACTORS
330
299
102
}
330
299
100
AcDbXrecord
280
     1
102
RTVSPost2010Prop28
280
     0
102
RTVSPost2010PropOp28
 70
     1
102
RTVSPost2010Prop29
280
     1
102
RTVSPost2010PropOp29
 70
     1
102
RTVSPost2010Prop30
280
     1
102
RTVSPost2010PropOp30
 70
     1
102
RTVSPost2010Prop31
280
     0
102
RTVSPost2010PropOp31
 70
     1
102
RTVSPost2010Prop32
280
     0
102
RTVSPost2010PropOp32
 70
     1
102
RTVSPost2010Prop33
280
     0
102
RTVSPost2010PropOp33
 70
     1
102
RTVSPost2010Prop34
280
     0
102
RTVSPost2010PropOp34
 70
     1
102
RTVSPost2010Prop35
280
     0
102
RTVSPost2010PropOp35
 70
     1
102
RTVSPost2010Prop36
280
     0
102
RTVSPost2010PropOp36
 70
     1
102
RTVSPost2010Prop37
 90
       50
102
RTVSPost2010PropOp37
 70
     1
102
RTVSPost2010Prop38
140
0.0
102
RTVSPost2010PropOp38
 70
     1
102
RTVSPost2010Prop39
140
1.0
102
RTVSPost2010PropOp39
 70
     1
102
RTVSPost2010Prop40
 90
        0
102
RTVSPost2010PropOp40
 70
     1
102
RTVSPost2010Prop41ColorIndex
 90
       18
102
RTVSPost2010Prop41ColorRGB
 90
        0
102
RTVSPost2010PropOp41
 70
     1
102
RTVSPost2010Prop42
 90
       50
102
RTVSPost2010PropOp42
 70
     1
102
RTVSPost2010Prop43
 90
        3
102
RTVSPost2010PropOp43
 70
     1
102
RTVSPost2010Prop44ColorIndex
 90
        5
102
RTVSPost2010Prop44ColorRGB
 90
      255
102
RTVSPost2010PropOp44
 70
     1
102
RTVSPost2010Prop45
280
     0
102
RTVSPost2010PropOp45
 70
     1
102
RTVSPost2010Prop46
 90
       50
102
RTVSPost2010PropOp46
 70
     1
102
RTVSPost2010Prop47
 90
       50
102
RTVSPost2010PropOp47
 70
     1
102
RTVSPost2010Prop48
 90
       50
102
RTVSPost2010PropOp48
 70
     1
102
RTVSPost2010Prop49
280
     0
102
RTVSPost2010PropOp49
 70
     1
102
RTVSPost2010Prop50
 90
       50
102
RTVSPost2010PropOp50
 70
     1
102
RTVSPost2010Prop51ColorIndex
 90
      256
102
RTVSPost2010Prop51ColorRGB
 90
-16777216
102
RTVSPost2010PropOp51
 70
     0
102
RTVSPost2010Prop52
140
1.0
102
RTVSPost2010PropOp52
 70
     0
102
RTVSPost2010Prop53
 90
        2
102
RTVSPost2010PropOp53
 70
     1
102
RTVSPost2010Prop54
  1
strokes_ogs.tif
102
RTVSPost2010PropOp54
 70
     1
102
RTVSPost2010Prop55
280
     0
102
RTVSPost2010PropOp55
 70
     1
102
RTVSPost2010Prop56
140
1.0
102
RTVSPost2010PropOp56
 70
     1
102
RTVSPost2010Prop57
140
1.0
102
RTVSPost2010PropOp57
 70
     1
  0
XRECORD
  5
29C
102
{ACAD_REACTORS
330
29B
102
}
330
29B
100
AcDbXrecord
280
     1
102
RTVSPost2010Prop28
280
     0
102
RTVSPost2010PropOp28
 70
     1
102
RTVSPost2010Prop29
280
     1
102
RTVSPost2010PropOp29
 70
     1
102
RTVSPost2010Prop30
280
     1
102
RTVSPost2010PropOp30
 70
     1
102
RTVSPost2010Prop31
280
     0
102
RTVSPost2010PropOp31
 70
     1
102
RTVSPost2010Prop32
280
     0
102
RTVSPost2010PropOp32
 70
     1
102
RTVSPost2010Prop33
280
     0
102
RTVSPost2010PropOp33
 70
     1
102
RTVSPost2010Prop34
280
     0
102
RTVSPost2010PropOp34
 70
     1
102
RTVSPost2010Prop35
280
     0
102
RTVSPost2010PropOp35
 70
     1
102
RTVSPost2010Prop36
280
     0
102
RTVSPost2010PropOp36
 70
     1
102
RTVSPost2010Prop37
 90
       50
102
RTVSPost2010PropOp37
 70
     1
102
RTVSPost2010Prop38
140
0.0
102
RTVSPost2010PropOp38
 70
     1
102
RTVSPost2010Prop39
140
1.0
102
RTVSPost2010PropOp39
 70
     1
102
RTVSPost2010Prop40
 90
        0
102
RTVSPost2010PropOp40
 70
     1
102
RTVSPost2010Prop41ColorIndex
 90
       18
102
RTVSPost2010Prop41ColorRGB
 90
        0
102
RTVSPost2010PropOp41
 70
     1
102
RTVSPost2010Prop42
 90
       50
102
RTVSPost2010PropOp42
 70
     1
102
RTVSPost2010Prop43
 90
        3
102
RTVSPost2010PropOp43
 70
     1
102
RTVSPost2010Prop44ColorIndex
 90
        5
102
RTVSPost2010Prop44ColorRGB
 90
      255
102
RTVSPost2010PropOp44
 70
     1
102
RTVSPost2010Prop45
280
     0
102
RTVSPost2010PropOp45
 70
     1
102
RTVSPost2010Prop46
 90
       50
102
RTVSPost2010PropOp46
 70
     1
102
RTVSPost2010Prop47
 90
       50
102
RTVSPost2010PropOp47
 70
     1
102
RTVSPost2010Prop48
 90
       50
102
RTVSPost2010PropOp48
 70
     1
102
RTVSPost2010Prop49
280
     0
102
RTVSPost2010PropOp49
 70
     1
102
RTVSPost2010Prop50
 90
       50
102
RTVSPost2010PropOp50
 70
     1
102
RTVSPost2010Prop51ColorIndex
 90
      256
102
RTVSPost2010Prop51ColorRGB
 90
-16777216
102
RTVSPost2010PropOp51
 70
     0
102
RTVSPost2010Prop52
140
1.0
102
RTVSPost2010PropOp52
 70
     0
102
RTVSPost2010Prop53
 90
        2
102
RTVSPost2010PropOp53
 70
     1
102
RTVSPost2010Prop54
  1
strokes_ogs.tif
102
RTVSPost2010PropOp54
 70
     1
102
RTVSPost2010Prop55
280
     0
102
RTVSPost2010PropOp55
 70
     1
102
RTVSPost2010Prop56
140
1.0
102
RTVSPost2010PropOp56
 70
     1
102
RTVSPost2010Prop57
140
1.0
102
RTVSPost2010PropOp57
 70
     1
  0
XRECORD
  5
2A2
102
{ACAD_REACTORS
330
2A1
102
}
330
2A1
100
AcDbXrecord
280
     1
102
RTVSPost2010Prop28
280
     0
102
RTVSPost2010PropOp28
 70
     1
102
RTVSPost2010Prop29
280
     1
102
RTVSPost2010PropOp29
 70
     1
102
RTVSPost2010Prop30
280
     1
102
RTVSPost2010PropOp30
 70
     1
102
RTVSPost2010Prop31
280
     0
102
RTVSPost2010PropOp31
 70
     1
102
RTVSPost2010Prop32
280
     0
102
RTVSPost2010PropOp32
 70
     1
102
RTVSPost2010Prop33
280
     0
102
RTVSPost2010PropOp33
 70
     1
102
RTVSPost2010Prop34
280
     0
102
RTVSPost2010PropOp34
 70
     1
102
RTVSPost2010Prop35
280
     0
102
RTVSPost2010PropOp35
 70
     1
102
RTVSPost2010Prop36
280
     0
102
RTVSPost2010PropOp36
 70
     1
102
RTVSPost2010Prop37
 90
       50
102
RTVSPost2010PropOp37
 70
     1
102
RTVSPost2010Prop38
140
0.0
102
RTVSPost2010PropOp38
 70
     1
102
RTVSPost2010Prop39
140
1.0
102
RTVSPost2010PropOp39
 70
     1
102
RTVSPost2010Prop40
 90
        0
102
RTVSPost2010PropOp40
 70
     1
102
RTVSPost2010Prop41ColorIndex
 90
       18
102
RTVSPost2010Prop41ColorRGB
 90
        0
102
RTVSPost2010PropOp41
 70
     1
102
RTVSPost2010Prop42
 90
       50
102
RTVSPost2010PropOp42
 70
     1
102
RTVSPost2010Prop43
 90
        3
102
RTVSPost2010PropOp43
 70
     1
102
RTVSPost2010Prop44ColorIndex
 90
        5
102
RTVSPost2010Prop44ColorRGB
 90
      255
102
RTVSPost2010PropOp44
 70
     1
102
RTVSPost2010Prop45
280
     0
102
RTVSPost2010PropOp45
 70
     1
102
RTVSPost2010Prop46
 90
       50
102
RTVSPost2010PropOp46
 70
     1
102
RTVSPost2010Prop47
 90
       50
102
RTVSPost2010PropOp47
 70
     1
102
RTVSPost2010Prop48
 90
       50
102
RTVSPost2010PropOp48
 70
     1
102
RTVSPost2010Prop49
280
     0
102
RTVSPost2010PropOp49
 70
     1
102
RTVSPost2010Prop50
 90
       50
102
RTVSPost2010PropOp50
 70
     1
102
RTVSPost2010Prop51ColorIndex
 90
      256
102
RTVSPost2010Prop51ColorRGB
 90
-16777216
102
RTVSPost2010PropOp51
 70
     0
102
RTVSPost2010Prop52
140
1.0
102
RTVSPost2010PropOp52
 70
     0
102
RTVSPost2010Prop53
 90
        2
102
RTVSPost2010PropOp53
 70
     1
102
RTVSPost2010Prop54
  1
strokes_ogs.tif
102
RTVSPost2010PropOp54
 70
     1
102
RTVSPost2010Prop55
280
     0
102
RTVSPost2010PropOp55
 70
     1
102
RTVSPost2010Prop56
140
1.0
102
RTVSPost2010PropOp56
 70
     1
102
RTVSPost2010Prop57
140
1.0
102
RTVSPost2010PropOp57
 70
     1
  0
XRECORD
  5
2B6
102
{ACAD_REACTORS
330
2B5
102
}
330
2B5
100
AcDbXrecord
280
     1
102
RTVSPost2010Prop28
280
     0
102
RTVSPost2010PropOp28
 70
     0
102
RTVSPost2010Prop29
280
     1
102
RTVSPost2010PropOp29
 70
     0
102
RTVSPost2010Prop30
280
     1
102
RTVSPost2010PropOp30
 70
     0
102
RTVSPost2010Prop31
280
     0
102
RTVSPost2010PropOp31
 70
     0
102
RTVSPost2010Prop32
280
     0
102
RTVSPost2010PropOp32
 70
     0
102
RTVSPost2010Prop33
280
     0
102
RTVSPost2010PropOp33
 70
     0
102
RTVSPost2010Prop34
280
     0
102
RTVSPost2010PropOp34
 70
     0
102
RTVSPost2010Prop35
280
     0
102
RTVSPost2010PropOp35
 70
     0
102
RTVSPost2010Prop36
280
     0
102
RTVSPost2010PropOp36
 70
     0
102
RTVSPost2010Prop37
 90
       50
102
RTVSPost2010PropOp37
 70
     0
102
RTVSPost2010Prop38
140
0.0
102
RTVSPost2010PropOp38
 70
     0
102
RTVSPost2010Prop39
140
1.0
102
RTVSPost2010PropOp39
 70
     0
102
RTVSPost2010Prop40
 90
        0
102
RTVSPost2010PropOp40
 70
     0
102
RTVSPost2010Prop41ColorIndex
 90
       18
102
RTVSPost2010Prop41ColorRGB
 90
        0
102
RTVSPost2010PropOp41
 70
     0
102
RTVSPost2010Prop42
 90
       50
102
RTVSPost2010PropOp42
 70
     0
102
RTVSPost2010Prop43
 90
        3
102
RTVSPost2010PropOp43
 70
     0
102
RTVSPost2010Prop44ColorIndex
 90
        5
102
RTVSPost2010Prop44ColorRGB
 90
      255
102
RTVSPost2010PropOp44
 70
     0
102
RTVSPost2010Prop45
280
     0
102
RTVSPost2010PropOp45
 70
     0
102
RTVSPost2010Prop46
 90
       50
102
RTVSPost2010PropOp46
 70
     0
102
RTVSPost2010Prop47
 90
       50
102
RTVSPost2010PropOp47
 70
     0
102
RTVSPost2010Prop48
 90
       50
102
RTVSPost2010PropOp48
 70
     0
102
RTVSPost2010Prop49
280
     0
102
RTVSPost2010PropOp49
 70
     0
102
RTVSPost2010Prop50
 90
       50
102
RTVSPost2010PropOp50
 70
     0
102
RTVSPost2010Prop51ColorIndex
 90
      256
102
RTVSPost2010Prop51ColorRGB
 90
-16777216
102
RTVSPost2010PropOp51
 70
     0
102
RTVSPost2010Prop52
140
1.0
102
RTVSPost2010PropOp52
 70
     0
102
RTVSPost2010Prop53
 90
        2
102
RTVSPost2010PropOp53
 70
     0
102
RTVSPost2010Prop54
  1
strokes_ogs.tif
102
RTVSPost2010PropOp54
 70
     0
102
RTVSPost2010Prop55
280
     0
102
RTVSPost2010PropOp55
 70
     0
102
RTVSPost2010Prop56
140
1.0
102
RTVSPost2010PropOp56
 70
     0
102
RTVSPost2010Prop57
140
1.0
102
RTVSPost2010PropOp57
 70
     0
  0
XRECORD
  5
2B0
102
{ACAD_REACTORS
330
2AF
102
}
330
2AF
100
AcDbXrecord
280
     1
102
RTVSPost2010Prop28
280
     0
102
RTVSPost2010PropOp28
 70
     1
102
RTVSPost2010Prop29
280
     1
102
RTVSPost2010PropOp29
 70
     1
102
RTVSPost2010Prop30
280
     1
102
RTVSPost2010PropOp30
 70
     1
102
RTVSPost2010Prop31
280
     0
102
RTVSPost2010PropOp31
 70
     1
102
RTVSPost2010Prop32
280
     0
102
RTVSPost2010PropOp32
 70
     1
102
RTVSPost2010Prop33
280
     0
102
RTVSPost2010PropOp33
 70
     1
102
RTVSPost2010Prop34
280
     0
102
RTVSPost2010PropOp34
 70
     1
102
RTVSPost2010Prop35
280
     0
102
RTVSPost2010PropOp35
 70
     1
102
RTVSPost2010Prop36
280
     0
102
RTVSPost2010PropOp36
 70
     1
102
RTVSPost2010Prop37
 90
       50
102
RTVSPost2010PropOp37
 70
     1
102
RTVSPost2010Prop38
140
0.0
102
RTVSPost2010PropOp38
 70
     1
102
RTVSPost2010Prop39
140
1.0
102
RTVSPost2010PropOp39
 70
     1
102
RTVSPost2010Prop40
 90
        0
102
RTVSPost2010PropOp40
 70
     1
102
RTVSPost2010Prop41ColorIndex
 90
       18
102
RTVSPost2010Prop41ColorRGB
 90
        0
102
RTVSPost2010PropOp41
 70
     1
102
RTVSPost2010Prop42
 90
       50
102
RTVSPost2010PropOp42
 70
     1
102
RTVSPost2010Prop43
 90
        3
102
RTVSPost2010PropOp43
 70
     1
102
RTVSPost2010Prop44ColorIndex
 90
        5
102
RTVSPost2010Prop44ColorRGB
 90
      255
102
RTVSPost2010PropOp44
 70
     1
102
RTVSPost2010Prop45
280
     0
102
RTVSPost2010PropOp45
 70
     1
102
RTVSPost2010Prop46
 90
       50
102
RTVSPost2010PropOp46
 70
     1
102
RTVSPost2010Prop47
 90
       50
102
RTVSPost2010PropOp47
 70
     1
102
RTVSPost2010Prop48
 90
       50
102
RTVSPost2010PropOp48
 70
     1
102
RTVSPost2010Prop49
280
     0
102
RTVSPost2010PropOp49
 70
     1
102
RTVSPost2010Prop50
 90
       50
102
RTVSPost2010PropOp50
 70
     1
102
RTVSPost2010Prop51ColorIndex
 90
      256
102
RTVSPost2010Prop51ColorRGB
 90
-16777216
102
RTVSPost2010PropOp51
 70
     0
102
RTVSPost2010Prop52
140
1.0
102
RTVSPost2010PropOp52
 70
     0
102
RTVSPost2010Prop53
 90
        2
102
RTVSPost2010PropOp53
 70
     1
102
RTVSPost2010Prop54
  1
strokes_ogs.tif
102
RTVSPost2010PropOp54
 70
     1
102
RTVSPost2010Prop55
280
     0
102
RTVSPost2010PropOp55
 70
     1
102
RTVSPost2010Prop56
140
1.0
102
RTVSPost2010PropOp56
 70
     1
102
RTVSPost2010Prop57
140
1.0
102
RTVSPost2010PropOp57
 70
     1
  0
XRECORD
  5
2B8
102
{ACAD_REACTORS
330
2B7
102
}
330
2B7
100
AcDbXrecord
280
     1
102
RTVSPost2010Prop28
280
     0
102
RTVSPost2010PropOp28
 70
     0
102
RTVSPost2010Prop29
280
     1
102
RTVSPost2010PropOp29
 70
     0
102
RTVSPost2010Prop30
280
     1
102
RTVSPost2010PropOp30
 70
     0
102
RTVSPost2010Prop31
280
     0
102
RTVSPost2010PropOp31
 70
     0
102
RTVSPost2010Prop32
280
     0
102
RTVSPost2010PropOp32
 70
     0
102
RTVSPost2010Prop33
280
     0
102
RTVSPost2010PropOp33
 70
     0
102
RTVSPost2010Prop34
280
     0
102
RTVSPost2010PropOp34
 70
     0
102
RTVSPost2010Prop35
280
     0
102
RTVSPost2010PropOp35
 70
     0
102
RTVSPost2010Prop36
280
     0
102
RTVSPost2010PropOp36
 70
     0
102
RTVSPost2010Prop37
 90
       50
102
RTVSPost2010PropOp37
 70
     0
102
RTVSPost2010Prop38
140
0.0
102
RTVSPost2010PropOp38
 70
     0
102
RTVSPost2010Prop39
140
1.0
102
RTVSPost2010PropOp39
 70
     0
102
RTVSPost2010Prop40
 90
        0
102
RTVSPost2010PropOp40
 70
     0
102
RTVSPost2010Prop41ColorIndex
 90
       18
102
RTVSPost2010Prop41ColorRGB
 90
        0
102
RTVSPost2010PropOp41
 70
     0
102
RTVSPost2010Prop42
 90
       50
102
RTVSPost2010PropOp42
 70
     0
102
RTVSPost2010Prop43
 90
        3
102
RTVSPost2010PropOp43
 70
     0
102
RTVSPost2010Prop44ColorIndex
 90
        5
102
RTVSPost2010Prop44ColorRGB
 90
      255
102
RTVSPost2010PropOp44
 70
     0
102
RTVSPost2010Prop45
280
     0
102
RTVSPost2010PropOp45
 70
     0
102
RTVSPost2010Prop46
 90
       50
102
RTVSPost2010PropOp46
 70
     0
102
RTVSPost2010Prop47
 90
       50
102
RTVSPost2010PropOp47
 70
     0
102
RTVSPost2010Prop48
 90
       50
102
RTVSPost2010PropOp48
 70
     0
102
RTVSPost2010Prop49
280
     0
102
RTVSPost2010PropOp49
 70
     0
102
RTVSPost2010Prop50
 90
       50
102
RTVSPost2010PropOp50
 70
     0
102
RTVSPost2010Prop51ColorIndex
 90
      256
102
RTVSPost2010Prop51ColorRGB
 90
-16777216
102
RTVSPost2010PropOp51
 70
     0
102
RTVSPost2010Prop52
140
1.0
102
RTVSPost2010PropOp52
 70
     0
102
RTVSPost2010Prop53
 90
        2
102
RTVSPost2010PropOp53
 70
     0
102
RTVSPost2010Prop54
  1
strokes_ogs.tif
102
RTVSPost2010PropOp54
 70
     0
102
RTVSPost2010Prop55
280
     0
102
RTVSPost2010PropOp55
 70
     0
102
RTVSPost2010Prop56
140
1.0
102
RTVSPost2010PropOp56
 70
     0
102
RTVSPost2010Prop57
140
1.0
102
RTVSPost2010PropOp57
 70
     0
  0
XRECORD
  5
2A6
102
{ACAD_REACTORS
330
2A5
102
}
330
2A5
100
AcDbXrecord
280
     1
102
RTVSPost2010Prop28
280
     0
102
RTVSPost2010PropOp28
 70
     1
102
RTVSPost2010Prop29
280
     1
102
RTVSPost2010PropOp29
 70
     1
102
RTVSPost2010Prop30
280
     1
102
RTVSPost2010PropOp30
 70
     1
102
RTVSPost2010Prop31
280
     0
102
RTVSPost2010PropOp31
 70
     1
102
RTVSPost2010Prop32
280
     0
102
RTVSPost2010PropOp32
 70
     1
102
RTVSPost2010Prop33
280
     0
102
RTVSPost2010PropOp33
 70
     1
102
RTVSPost2010Prop34
280
     0
102
RTVSPost2010PropOp34
 70
     1
102
RTVSPost2010Prop35
280
     0
102
RTVSPost2010PropOp35
 70
     1
102
RTVSPost2010Prop36
280
     0
102
RTVSPost2010PropOp36
 70
     1
102
RTVSPost2010Prop37
 90
       50
102
RTVSPost2010PropOp37
 70
     1
102
RTVSPost2010Prop38
140
0.0
102
RTVSPost2010PropOp38
 70
     1
102
RTVSPost2010Prop39
140
1.0
102
RTVSPost2010PropOp39
 70
     1
102
RTVSPost2010Prop40
 90
        0
102
RTVSPost2010PropOp40
 70
     1
102
RTVSPost2010Prop41ColorIndex
 90
       18
102
RTVSPost2010Prop41ColorRGB
 90
        0
102
RTVSPost2010PropOp41
 70
     1
102
RTVSPost2010Prop42
 90
       50
102
RTVSPost2010PropOp42
 70
     1
102
RTVSPost2010Prop43
 90
        3
102
RTVSPost2010PropOp43
 70
     1
102
RTVSPost2010Prop44ColorIndex
 90
        5
102
RTVSPost2010Prop44ColorRGB
 90
      255
102
RTVSPost2010PropOp44
 70
     1
102
RTVSPost2010Prop45
280
     0
102
RTVSPost2010PropOp45
 70
     1
102
RTVSPost2010Prop46
 90
       50
102
RTVSPost2010PropOp46
 70
     1
102
RTVSPost2010Prop47
 90
       50
102
RTVSPost2010PropOp47
 70
     1
102
RTVSPost2010Prop48
 90
       50
102
RTVSPost2010PropOp48
 70
     1
102
RTVSPost2010Prop49
280
     0
102
RTVSPost2010PropOp49
 70
     1
102
RTVSPost2010Prop50
 90
       50
102
RTVSPost2010PropOp50
 70
     1
102
RTVSPost2010Prop51ColorIndex
 90
      256
102
RTVSPost2010Prop51ColorRGB
 90
-16777216
102
RTVSPost2010PropOp51
 70
     0
102
RTVSPost2010Prop52
140
1.0
102
RTVSPost2010PropOp52
 70
     0
102
RTVSPost2010Prop53
 90
        2
102
RTVSPost2010PropOp53
 70
     1
102
RTVSPost2010Prop54
  1
strokes_ogs.tif
102
RTVSPost2010PropOp54
 70
     1
102
RTVSPost2010Prop55
280
     0
102
RTVSPost2010PropOp55
 70
     1
102
RTVSPost2010Prop56
140
1.0
102
RTVSPost2010PropOp56
 70
     1
102
RTVSPost2010Prop57
140
1.0
102
RTVSPost2010PropOp57
 70
     1
  0
XRECORD
  5
2C4
102
{ACAD_REACTORS
330
2C3
102
}
330
2C3
100
AcDbXrecord
280
     1
102
RTVSPost2010Prop28
280
     0
102
RTVSPost2010PropOp28
 70
     1
102
RTVSPost2010Prop29
280
     1
102
RTVSPost2010PropOp29
 70
     1
102
RTVSPost2010Prop30
280
     1
102
RTVSPost2010PropOp30
 70
     1
102
RTVSPost2010Prop31
280
     0
102
RTVSPost2010PropOp31
 70
     1
102
RTVSPost2010Prop32
280
     0
102
RTVSPost2010PropOp32
 70
     1
102
RTVSPost2010Prop33
280
     0
102
RTVSPost2010PropOp33
 70
     1
102
RTVSPost2010Prop34
280
     0
102
RTVSPost2010PropOp34
 70
     1
102
RTVSPost2010Prop35
280
     0
102
RTVSPost2010PropOp35
 70
     1
102
RTVSPost2010Prop36
280
     0
102
RTVSPost2010PropOp36
 70
     1
102
RTVSPost2010Prop37
 90
       50
102
RTVSPost2010PropOp37
 70
     1
102
RTVSPost2010Prop38
140
0.0
102
RTVSPost2010PropOp38
 70
     1
102
RTVSPost2010Prop39
140
1.0
102
RTVSPost2010PropOp39
 70
     1
102
RTVSPost2010Prop40
 90
        0
102
RTVSPost2010PropOp40
 70
     1
102
RTVSPost2010Prop41ColorIndex
 90
       18
102
RTVSPost2010Prop41ColorRGB
 90
        0
102
RTVSPost2010PropOp41
 70
     1
102
RTVSPost2010Prop42
 90
       50
102
RTVSPost2010PropOp42
 70
     1
102
RTVSPost2010Prop43
 90
        3
102
RTVSPost2010PropOp43
 70
     1
102
RTVSPost2010Prop44ColorIndex
 90
        5
102
RTVSPost2010Prop44ColorRGB
 90
      255
102
RTVSPost2010PropOp44
 70
     1
102
RTVSPost2010Prop45
280
     0
102
RTVSPost2010PropOp45
 70
     1
102
RTVSPost2010Prop46
 90
       50
102
RTVSPost2010PropOp46
 70
     1
102
RTVSPost2010Prop47
 90
       50
102
RTVSPost2010PropOp47
 70
     1
102
RTVSPost2010Prop48
 90
       50
102
RTVSPost2010PropOp48
 70
     1
102
RTVSPost2010Prop49
280
     0
102
RTVSPost2010PropOp49
 70
     1
102
RTVSPost2010Prop50
 90
       50
102
RTVSPost2010PropOp50
 70
     1
102
RTVSPost2010Prop51ColorIndex
 90
      256
102
RTVSPost2010Prop51ColorRGB
 90
-16777216
102
RTVSPost2010PropOp51
 70
     0
102
RTVSPost2010Prop52
140
1.0
102
RTVSPost2010PropOp52
 70
     0
102
RTVSPost2010Prop53
 90
        2
102
RTVSPost2010PropOp53
 70
     1
102
RTVSPost2010Prop54
  1
strokes_ogs.tif
102
RTVSPost2010PropOp54
 70
     1
102
RTVSPost2010Prop55
280
     0
102
RTVSPost2010PropOp55
 70
     1
102
RTVSPost2010Prop56
140
1.0
102
RTVSPost2010PropOp56
 70
     1
102
RTVSPost2010Prop57
140
1.0
102
RTVSPost2010PropOp57
 70
     1
  0
XRECORD
  5
2C2
102
{ACAD_REACTORS
330
2C1
102
}
330
2C1
100
AcDbXrecord
280
     1
102
RTVSPost2010Prop28
280
     0
102
RTVSPost2010PropOp28
 70
     1
102
RTVSPost2010Prop29
280
     1
102
RTVSPost2010PropOp29
 70
     1
102
RTVSPost2010Prop30
280
     1
102
RTVSPost2010PropOp30
 70
     1
102
RTVSPost2010Prop31
280
     0
102
RTVSPost2010PropOp31
 70
     1
102
RTVSPost2010Prop32
280
     0
102
RTVSPost2010PropOp32
 70
     1
102
RTVSPost2010Prop33
280
     0
102
RTVSPost2010PropOp33
 70
     1
102
RTVSPost2010Prop34
280
     0
102
RTVSPost2010PropOp34
 70
     1
102
RTVSPost2010Prop35
280
     0
102
RTVSPost2010PropOp35
 70
     1
102
RTVSPost2010Prop36
280
     0
102
RTVSPost2010PropOp36
 70
     1
102
RTVSPost2010Prop37
 90
       50
102
RTVSPost2010PropOp37
 70
     1
102
RTVSPost2010Prop38
140
0.0
102
RTVSPost2010PropOp38
 70
     1
102
RTVSPost2010Prop39
140
1.0
102
RTVSPost2010PropOp39
 70
     1
102
RTVSPost2010Prop40
 90
        0
102
RTVSPost2010PropOp40
 70
     1
102
RTVSPost2010Prop41ColorIndex
 90
       18
102
RTVSPost2010Prop41ColorRGB
 90
        0
102
RTVSPost2010PropOp41
 70
     1
102
RTVSPost2010Prop42
 90
       50
102
RTVSPost2010PropOp42
 70
     1
102
RTVSPost2010Prop43
 90
        3
102
RTVSPost2010PropOp43
 70
     1
102
RTVSPost2010Prop44ColorIndex
 90
        5
102
RTVSPost2010Prop44ColorRGB
 90
      255
102
RTVSPost2010PropOp44
 70
     1
102
RTVSPost2010Prop45
280
     0
102
RTVSPost2010PropOp45
 70
     1
102
RTVSPost2010Prop46
 90
       50
102
RTVSPost2010PropOp46
 70
     1
102
RTVSPost2010Prop47
 90
       50
102
RTVSPost2010PropOp47
 70
     1
102
RTVSPost2010Prop48
 90
       50
102
RTVSPost2010PropOp48
 70
     1
102
RTVSPost2010Prop49
280
     0
102
RTVSPost2010PropOp49
 70
     1
102
RTVSPost2010Prop50
 90
       50
102
RTVSPost2010PropOp50
 70
     1
102
RTVSPost2010Prop51ColorIndex
 90
      256
102
RTVSPost2010Prop51ColorRGB
 90
-16777216
102
RTVSPost2010PropOp51
 70
     0
102
RTVSPost2010Prop52
140
1.0
102
RTVSPost2010PropOp52
 70
     0
102
RTVSPost2010Prop53
 90
        2
102
RTVSPost2010PropOp53
 70
     1
102
RTVSPost2010Prop54
  1
strokes_ogs.tif
102
RTVSPost2010PropOp54
 70
     1
102
RTVSPost2010Prop55
280
     0
102
RTVSPost2010PropOp55
 70
     1
102
RTVSPost2010Prop56
140
1.0
102
RTVSPost2010PropOp56
 70
     1
102
RTVSPost2010Prop57
140
1.0
102
RTVSPost2010PropOp57
 70
     1
  0
XRECORD
  5
2BC
102
{ACAD_REACTORS
330
2BB
102
}
330
2BB
100
AcDbXrecord
280
     1
102
RTVSPost2010Prop28
280
     0
102
RTVSPost2010PropOp28
 70
     1
102
RTVSPost2010Prop29
280
     1
102
RTVSPost2010PropOp29
 70
     1
102
RTVSPost2010Prop30
280
     1
102
RTVSPost2010PropOp30
 70
     1
102
RTVSPost2010Prop31
280
     0
102
RTVSPost2010PropOp31
 70
     1
102
RTVSPost2010Prop32
280
     0
102
RTVSPost2010PropOp32
 70
     1
102
RTVSPost2010Prop33
280
     0
102
RTVSPost2010PropOp33
 70
     1
102
RTVSPost2010Prop34
280
     0
102
RTVSPost2010PropOp34
 70
     1
102
RTVSPost2010Prop35
280
     0
102
RTVSPost2010PropOp35
 70
     1
102
RTVSPost2010Prop36
280
     0
102
RTVSPost2010PropOp36
 70
     1
102
RTVSPost2010Prop37
 90
       50
102
RTVSPost2010PropOp37
 70
     1
102
RTVSPost2010Prop38
140
0.0
102
RTVSPost2010PropOp38
 70
     1
102
RTVSPost2010Prop39
140
1.0
102
RTVSPost2010PropOp39
 70
     1
102
RTVSPost2010Prop40
 90
        0
102
RTVSPost2010PropOp40
 70
     1
102
RTVSPost2010Prop41ColorIndex
 90
       18
102
RTVSPost2010Prop41ColorRGB
 90
        0
102
RTVSPost2010PropOp41
 70
     1
102
RTVSPost2010Prop42
 90
       50
102
RTVSPost2010PropOp42
 70
     1
102
RTVSPost2010Prop43
 90
        3
102
RTVSPost2010PropOp43
 70
     1
102
RTVSPost2010Prop44ColorIndex
 90
        5
102
RTVSPost2010Prop44ColorRGB
 90
      255
102
RTVSPost2010PropOp44
 70
     1
102
RTVSPost2010Prop45
280
     0
102
RTVSPost2010PropOp45
 70
     1
102
RTVSPost2010Prop46
 90
       50
102
RTVSPost2010PropOp46
 70
     1
102
RTVSPost2010Prop47
 90
       50
102
RTVSPost2010PropOp47
 70
     1
102
RTVSPost2010Prop48
 90
       50
102
RTVSPost2010PropOp48
 70
     1
102
RTVSPost2010Prop49
280
     0
102
RTVSPost2010PropOp49
 70
     1
102
RTVSPost2010Prop50
 90
       50
102
RTVSPost2010PropOp50
 70
     1
102
RTVSPost2010Prop51ColorIndex
 90
      256
102
RTVSPost2010Prop51ColorRGB
 90
-16777216
102
RTVSPost2010PropOp51
 70
     0
102
RTVSPost2010Prop52
140
1.0
102
RTVSPost2010PropOp52
 70
     0
102
RTVSPost2010Prop53
 90
        2
102
RTVSPost2010PropOp53
 70
     1
102
RTVSPost2010Prop54
  1
strokes_ogs.tif
102
RTVSPost2010PropOp54
 70
     1
102
RTVSPost2010Prop55
280
     0
102
RTVSPost2010PropOp55
 70
     1
102
RTVSPost2010Prop56
140
1.0
102
RTVSPost2010PropOp56
 70
     1
102
RTVSPost2010Prop57
140
1.0
102
RTVSPost2010PropOp57
 70
     1
  0
XRECORD
  5
2BE
102
{ACAD_REACTORS
330
2BD
102
}
330
2BD
100
AcDbXrecord
280
     1
102
RTVSPost2010Prop28
280
     0
102
RTVSPost2010PropOp28
 70
     1
102
RTVSPost2010Prop29
280
     1
102
RTVSPost2010PropOp29
 70
     1
102
RTVSPost2010Prop30
280
     1
102
RTVSPost2010PropOp30
 70
     1
102
RTVSPost2010Prop31
280
     0
102
RTVSPost2010PropOp31
 70
     1
102
RTVSPost2010Prop32
280
     0
102
RTVSPost2010PropOp32
 70
     1
102
RTVSPost2010Prop33
280
     0
102
RTVSPost2010PropOp33
 70
     1
102
RTVSPost2010Prop34
280
     0
102
RTVSPost2010PropOp34
 70
     1
102
RTVSPost2010Prop35
280
     0
102
RTVSPost2010PropOp35
 70
     1
102
RTVSPost2010Prop36
280
     0
102
RTVSPost2010PropOp36
 70
     1
102
RTVSPost2010Prop37
 90
       50
102
RTVSPost2010PropOp37
 70
     1
102
RTVSPost2010Prop38
140
0.0
102
RTVSPost2010PropOp38
 70
     1
102
RTVSPost2010Prop39
140
1.0
102
RTVSPost2010PropOp39
 70
     1
102
RTVSPost2010Prop40
 90
        0
102
RTVSPost2010PropOp40
 70
     1
102
RTVSPost2010Prop41ColorIndex
 90
       18
102
RTVSPost2010Prop41ColorRGB
 90
        0
102
RTVSPost2010PropOp41
 70
     1
102
RTVSPost2010Prop42
 90
       50
102
RTVSPost2010PropOp42
 70
     1
102
RTVSPost2010Prop43
 90
        3
102
RTVSPost2010PropOp43
 70
     1
102
RTVSPost2010Prop44ColorIndex
 90
        5
102
RTVSPost2010Prop44ColorRGB
 90
      255
102
RTVSPost2010PropOp44
 70
     1
102
RTVSPost2010Prop45
280
     0
102
RTVSPost2010PropOp45
 70
     1
102
RTVSPost2010Prop46
 90
       50
102
RTVSPost2010PropOp46
 70
     1
102
RTVSPost2010Prop47
 90
       50
102
RTVSPost2010PropOp47
 70
     1
102
RTVSPost2010Prop48
 90
       50
102
RTVSPost2010PropOp48
 70
     1
102
RTVSPost2010Prop49
280
     0
102
RTVSPost2010PropOp49
 70
     1
102
RTVSPost2010Prop50
 90
       50
102
RTVSPost2010PropOp50
 70
     1
102
RTVSPost2010Prop51ColorIndex
 90
      256
102
RTVSPost2010Prop51ColorRGB
 90
-16777216
102
RTVSPost2010PropOp51
 70
     0
102
RTVSPost2010Prop52
140
1.0
102
RTVSPost2010PropOp52
 70
     0
102
RTVSPost2010Prop53
 90
        2
102
RTVSPost2010PropOp53
 70
     1
102
RTVSPost2010Prop54
  1
strokes_ogs.tif
102
RTVSPost2010PropOp54
 70
     1
102
RTVSPost2010Prop55
280
     0
102
RTVSPost2010PropOp55
 70
     1
102
RTVSPost2010Prop56
140
1.0
102
RTVSPost2010PropOp56
 70
     1
102
RTVSPost2010Prop57
140
1.0
102
RTVSPost2010PropOp57
 70
     1
  0
XRECORD
  5
2AE
102
{ACAD_REACTORS
330
2AD
102
}
330
2AD
100
AcDbXrecord
280
     1
102
RTVSPost2010Prop28
280
     0
102
RTVSPost2010PropOp28
 70
     1
102
RTVSPost2010Prop29
280
     1
102
RTVSPost2010PropOp29
 70
     1
102
RTVSPost2010Prop30
280
     1
102
RTVSPost2010PropOp30
 70
     1
102
RTVSPost2010Prop31
280
     0
102
RTVSPost2010PropOp31
 70
     1
102
RTVSPost2010Prop32
280
     0
102
RTVSPost2010PropOp32
 70
     1
102
RTVSPost2010Prop33
280
     0
102
RTVSPost2010PropOp33
 70
     1
102
RTVSPost2010Prop34
280
     0
102
RTVSPost2010PropOp34
 70
     1
102
RTVSPost2010Prop35
280
     0
102
RTVSPost2010PropOp35
 70
     1
102
RTVSPost2010Prop36
280
     0
102
RTVSPost2010PropOp36
 70
     1
102
RTVSPost2010Prop37
 90
       50
102
RTVSPost2010PropOp37
 70
     1
102
RTVSPost2010Prop38
140
0.0
102
RTVSPost2010PropOp38
 70
     1
102
RTVSPost2010Prop39
140
1.0
102
RTVSPost2010PropOp39
 70
     1
102
RTVSPost2010Prop40
 90
        0
102
RTVSPost2010PropOp40
 70
     1
102
RTVSPost2010Prop41ColorIndex
 90
       18
102
RTVSPost2010Prop41ColorRGB
 90
        0
102
RTVSPost2010PropOp41
 70
     1
102
RTVSPost2010Prop42
 90
       50
102
RTVSPost2010PropOp42
 70
     1
102
RTVSPost2010Prop43
 90
        3
102
RTVSPost2010PropOp43
 70
     1
102
RTVSPost2010Prop44ColorIndex
 90
        5
102
RTVSPost2010Prop44ColorRGB
 90
      255
102
RTVSPost2010PropOp44
 70
     1
102
RTVSPost2010Prop45
280
     0
102
RTVSPost2010PropOp45
 70
     1
102
RTVSPost2010Prop46
 90
       50
102
RTVSPost2010PropOp46
 70
     1
102
RTVSPost2010Prop47
 90
       50
102
RTVSPost2010PropOp47
 70
     1
102
RTVSPost2010Prop48
 90
       50
102
RTVSPost2010PropOp48
 70
     1
102
RTVSPost2010Prop49
280
     0
102
RTVSPost2010PropOp49
 70
     1
102
RTVSPost2010Prop50
 90
       50
102
RTVSPost2010PropOp50
 70
     1
102
RTVSPost2010Prop51ColorIndex
 90
      256
102
RTVSPost2010Prop51ColorRGB
 90
-16777216
102
RTVSPost2010PropOp51
 70
     0
102
RTVSPost2010Prop52
140
1.0
102
RTVSPost2010PropOp52
 70
     0
102
RTVSPost2010Prop53
 90
        2
102
RTVSPost2010PropOp53
 70
     1
102
RTVSPost2010Prop54
  1
strokes_ogs.tif
102
RTVSPost2010PropOp54
 70
     1
102
RTVSPost2010Prop55
280
     0
102
RTVSPost2010PropOp55
 70
     1
102
RTVSPost2010Prop56
140
1.0
102
RTVSPost2010PropOp56
 70
     1
102
RTVSPost2010Prop57
140
1.0
102
RTVSPost2010PropOp57
 70
     1
  0
XRECORD
  5
2A0
102
{ACAD_REACTORS
330
29F
102
}
330
29F
100
AcDbXrecord
280
     1
102
RTVSPost2010Prop28
280
     0
102
RTVSPost2010PropOp28
 70
     1
102
RTVSPost2010Prop29
280
     1
102
RTVSPost2010PropOp29
 70
     1
102
RTVSPost2010Prop30
280
     1
102
RTVSPost2010PropOp30
 70
     1
102
RTVSPost2010Prop31
280
     0
102
RTVSPost2010PropOp31
 70
     1
102
RTVSPost2010Prop32
280
     0
102
RTVSPost2010PropOp32
 70
     1
102
RTVSPost2010Prop33
280
     0
102
RTVSPost2010PropOp33
 70
     1
102
RTVSPost2010Prop34
280
     0
102
RTVSPost2010PropOp34
 70
     1
102
RTVSPost2010Prop35
280
     0
102
RTVSPost2010PropOp35
 70
     1
102
RTVSPost2010Prop36
280
     0
102
RTVSPost2010PropOp36
 70
     1
102
RTVSPost2010Prop37
 90
       50
102
RTVSPost2010PropOp37
 70
     1
102
RTVSPost2010Prop38
140
0.0
102
RTVSPost2010PropOp38
 70
     1
102
RTVSPost2010Prop39
140
1.0
102
RTVSPost2010PropOp39
 70
     1
102
RTVSPost2010Prop40
 90
        0
102
RTVSPost2010PropOp40
 70
     1
102
RTVSPost2010Prop41ColorIndex
 90
       18
102
RTVSPost2010Prop41ColorRGB
 90
        0
102
RTVSPost2010PropOp41
 70
     1
102
RTVSPost2010Prop42
 90
       50
102
RTVSPost2010PropOp42
 70
     1
102
RTVSPost2010Prop43
 90
        3
102
RTVSPost2010PropOp43
 70
     1
102
RTVSPost2010Prop44ColorIndex
 90
        5
102
RTVSPost2010Prop44ColorRGB
 90
      255
102
RTVSPost2010PropOp44
 70
     1
102
RTVSPost2010Prop45
280
     0
102
RTVSPost2010PropOp45
 70
     1
102
RTVSPost2010Prop46
 90
       50
102
RTVSPost2010PropOp46
 70
     1
102
RTVSPost2010Prop47
 90
       50
102
RTVSPost2010PropOp47
 70
     1
102
RTVSPost2010Prop48
 90
       50
102
RTVSPost2010PropOp48
 70
     1
102
RTVSPost2010Prop49
280
     0
102
RTVSPost2010PropOp49
 70
     1
102
RTVSPost2010Prop50
 90
       50
102
RTVSPost2010PropOp50
 70
     1
102
RTVSPost2010Prop51ColorIndex
 90
      256
102
RTVSPost2010Prop51ColorRGB
 90
-16777216
102
RTVSPost2010PropOp51
 70
     0
102
RTVSPost2010Prop52
140
1.0
102
RTVSPost2010PropOp52
 70
     0
102
RTVSPost2010Prop53
 90
        2
102
RTVSPost2010PropOp53
 70
     1
102
RTVSPost2010Prop54
  1
strokes_ogs.tif
102
RTVSPost2010PropOp54
 70
     1
102
RTVSPost2010Prop55
280
     0
102
RTVSPost2010PropOp55
 70
     1
102
RTVSPost2010Prop56
140
1.0
102
RTVSPost2010PropOp56
 70
     1
102
RTVSPost2010Prop57
140
1.0
102
RTVSPost2010PropOp57
 70
     1
  0
XRECORD
  5
2C0
102
{ACAD_REACTORS
330
2BF
102
}
330
2BF
100
AcDbXrecord
280
     1
102
RTVSPost2010Prop28
280
     0
102
RTVSPost2010PropOp28
 70
     1
102
RTVSPost2010Prop29
280
     1
102
RTVSPost2010PropOp29
 70
     1
102
RTVSPost2010Prop30
280
     1
102
RTVSPost2010PropOp30
 70
     1
102
RTVSPost2010Prop31
280
     0
102
RTVSPost2010PropOp31
 70
     1
102
RTVSPost2010Prop32
280
     0
102
RTVSPost2010PropOp32
 70
     1
102
RTVSPost2010Prop33
280
     0
102
RTVSPost2010PropOp33
 70
     1
102
RTVSPost2010Prop34
280
     0
102
RTVSPost2010PropOp34
 70
     1
102
RTVSPost2010Prop35
280
     0
102
RTVSPost2010PropOp35
 70
     1
102
RTVSPost2010Prop36
280
     0
102
RTVSPost2010PropOp36
 70
     1
102
RTVSPost2010Prop37
 90
       50
102
RTVSPost2010PropOp37
 70
     1
102
RTVSPost2010Prop38
140
0.0
102
RTVSPost2010PropOp38
 70
     1
102
RTVSPost2010Prop39
140
1.0
102
RTVSPost2010PropOp39
 70
     1
102
RTVSPost2010Prop40
 90
        0
102
RTVSPost2010PropOp40
 70
     1
102
RTVSPost2010Prop41ColorIndex
 90
       18
102
RTVSPost2010Prop41ColorRGB
 90
        0
102
RTVSPost2010PropOp41
 70
     1
102
RTVSPost2010Prop42
 90
       50
102
RTVSPost2010PropOp42
 70
     1
102
RTVSPost2010Prop43
 90
        3
102
RTVSPost2010PropOp43
 70
     1
102
RTVSPost2010Prop44ColorIndex
 90
        5
102
RTVSPost2010Prop44ColorRGB
 90
      255
102
RTVSPost2010PropOp44
 70
     1
102
RTVSPost2010Prop45
280
     0
102
RTVSPost2010PropOp45
 70
     1
102
RTVSPost2010Prop46
 90
       50
102
RTVSPost2010PropOp46
 70
     1
102
RTVSPost2010Prop47
 90
       50
102
RTVSPost2010PropOp47
 70
     1
102
RTVSPost2010Prop48
 90
       50
102
RTVSPost2010PropOp48
 70
     1
102
RTVSPost2010Prop49
280
     0
102
RTVSPost2010PropOp49
 70
     1
102
RTVSPost2010Prop50
 90
       50
102
RTVSPost2010PropOp50
 70
     1
102
RTVSPost2010Prop51ColorIndex
 90
      256
102
RTVSPost2010Prop51ColorRGB
 90
-16777216
102
RTVSPost2010PropOp51
 70
     0
102
RTVSPost2010Prop52
140
1.0
102
RTVSPost2010PropOp52
 70
     0
102
RTVSPost2010Prop53
 90
        2
102
RTVSPost2010PropOp53
 70
     1
102
RTVSPost2010Prop54
  1
strokes_ogs.tif
102
RTVSPost2010PropOp54
 70
     1
102
RTVSPost2010Prop55
280
     0
102
RTVSPost2010PropOp55
 70
     1
102
RTVSPost2010Prop56
140
1.0
102
RTVSPost2010PropOp56
 70
     1
102
RTVSPost2010Prop57
140
1.0
102
RTVSPost2010PropOp57
 70
     1
  0
ENDSEC
  0
EOF
