  0
SECTION
  2
HEADER
  9
$ACADVER
  1
AC1024
  9
$ACADMAINTVER
 70
     6
  9
$DWGCODEPAGE
  3
ANSI_1252
  9
$INSBASE
 10
0.0
 20
0.0
 30
0.0
  9
$EXTMIN
 10
1.000000E+20
 20
1.000000E+20
 30
1.000000E+20
  9
$EXTMAX
 10
-1.000000E+20
 20
-1.000000E+20
 30
-1.000000E+20
  9
$LIMMIN
 10
0.0
 20
0.0
  9
$LIMMAX
 10
420.0
 20
297.0
  9
$ORTHOMODE
 70
     0
  9
$REGENMODE
 70
     1
  9
$FILLMODE
 70
     1
  9
$QTEXTMODE
 70
     0
  9
$MIRRTEXT
 70
     1
  9
$LTSCALE
 40
1.0
  9
$ATTMODE
 70
     1
  9
$TEXTSIZE
 40
2.5
  9
$TRACEWID
 40
1.0
  9
$TEXTSTYLE
  7
Standard
  9
$CLAYER
  8
0
  9
$CELTYPE
  6
ByLayer
  9
$CECOLOR
 62
   256
  9
$CELTSCALE
 40
1.0
  9
$DISPSILH
 70
     0
  9
$DIMSCALE
 40
1.0
  9
$DIMASZ
 40
2.5
  9
$DIMEXO
 40
0.625
  9
$DIMDLI
 40
3.75
  9
$DIMRND
 40
0.0
  9
$DIMDLE
 40
0.0
  9
$DIMEXE
 40
1.25
  9
$DIMTP
 40
0.0
  9
$DIMTM
 40
0.0
  9
$DIMTXT
 40
2.5
  9
$DIMCEN
 40
2.5
  9
$DIMTSZ
 40
0.0
  9
$DIMTOL
 70
     0
  9
$DIMLIM
 70
     0
  9
$DIMTIH
 70
     0
  9
$DIMTOH
 70
     0
  9
$DIMSE1
 70
     0
  9
$DIMSE2
 70
     0
  9
$DIMTAD
 70
     1
  9
$DIMZIN
 70
     8
  9
$DIMBLK
  1

  9
$DIMASO
 70
     1
  9
$DIMSHO
 70
     1
  9
$DIMPOST
  1

  9
$DIMAPOST
  1

  9
$DIMALT
 70
     0
  9
$DIMALTD
 70
     3
  9
$DIMALTF
 40
0.03937
  9
$DIMLFAC
 40
1.0
  9
$DIMTOFL
 70
     1
  9
$DIMTVP
 40
0.0
  9
$DIMTIX
 70
     0
  9
$DIMSOXD
 70
     0
  9
$DIMSAH
 70
     0
  9
$DIMBLK1
  1

  9
$DIMBLK2
  1

  9
$DIMSTYLE
  2
ISO-25
  9
$DIMCLRD
 70
     0
  9
$DIMCLRE
 70
     0
  9
$DIMCLRT
 70
     0
  9
$DIMTFAC
 40
1.0
  9
$DIMGAP
 40
0.625
  9
$DIMJUST
 70
     0
  9
$DIMSD1
 70
     0
  9
$DIMSD2
 70
     0
  9
$DIMTOLJ
 70
     0
  9
$DIMTZIN
 70
     8
  9
$DIMALTZ
 70
     0
  9
$DIMALTTZ
 70
     0
  9
$DIMUPT
 70
     0
  9
$DIMDEC
 70
     2
  9
$DIMTDEC
 70
     2
  9
$DIMALTU
 70
     2
  9
$DIMALTTD
 70
     3
  9
$DIMTXSTY
  7
Standard
  9
$DIMAUNIT
 70
     0
  9
$DIMADEC
 70
     0
  9
$DIMALTRND
 40
0.0
  9
$DIMAZIN
 70
     0
  9
$DIMDSEP
 70
    44
  9
$DIMATFIT
 70
     3
  9
$DIMFRAC
 70
     0
  9
$DIMLDRBLK
  1

  9
$DIMLUNIT
 70
     2
  9
$DIMLWD
 70
    -2
  9
$DIMLWE
 70
    -2
  9
$DIMTMOVE
 70
     0
  9
$DIMFXL
 40
1.0
  9
$DIMFXLON
 70
     0
  9
$DIMJOGANG
 40
0.785398
  9
$DIMTFILL
 70
     0
  9
$DIMTFILLCLR
 70
     0
  9
$DIMARCSYM
 70
     0
  9
$DIMLTYPE
  6

  9
$DIMLTEX1
  6

  9
$DIMLTEX2
  6

  9
$DIMTXTDIRECTION
 70
     0
  9
$LUNITS
 70
     2
  9
$LUPREC
 70
     4
  9
$SKETCHINC
 40
1.0
  9
$FILLETRAD
 40
10.0
  9
$AUNITS
 70
     0
  9
$AUPREC
 70
     0
  9
$MENU
  1
.
  9
$ELEVATION
 40
0.0
  9
$PELEVATION
 40
0.0
  9
$THICKNESS
 40
0.0
  9
$LIMCHECK
 70
     0
  9
$CHAMFERA
 40
0.0
  9
$CHAMFERB
 40
0.0
  9
$CHAMFERC
 40
0.0
  9
$CHAMFERD
 40
0.0
  9
$SKPOLY
 70
     0
  9
$TDCREATE
 40
2457823.56794066
  9
$TDUCREATE
 40
2457823.526273993
  9
$TDUPDATE
 40
2457823.567941447
  9
$TDUUPDATE
 40
2457823.52627478
  9
$TDINDWG
 40
0.0000000116
  9
$TDUSRTIMER
 40
0.0000000116
  9
$USRTIMER
 70
     1
  9
$ANGBASE
 50
0.0
  9
$ANGDIR
 70
     0
  9
$PDMODE
 70
     0
  9
$PDSIZE
 40
0.0
  9
$PLINEWID
 40
0.0
  9
$SPLFRAME
 70
     0
  9
$SPLINETYPE
 70
     6
  9
$SPLINESEGS
 70
     8
  9
$HANDSEED
  5
372
  9
$SURFTAB1
 70
     6
  9
$SURFTAB2
 70
     6
  9
$SURFTYPE
 70
     6
  9
$SURFU
 70
     6
  9
$SURFV
 70
     6
  9
$UCSBASE
  2

  9
$UCSNAME
  2

  9
$UCSORG
 10
0.0
 20
0.0
 30
0.0
  9
$UCSXDIR
 10
1.0
 20
0.0
 30
0.0
  9
$UCSYDIR
 10
0.0
 20
1.0
 30
0.0
  9
$UCSORTHOREF
  2

  9
$UCSORTHOVIEW
 70
     0
  9
$UCSORGTOP
 10
0.0
 20
0.0
 30
0.0
  9
$UCSORGBOTTOM
 10
0.0
 20
0.0
 30
0.0
  9
$UCSORGLEFT
 10
0.0
 20
0.0
 30
0.0
  9
$UCSORGRIGHT
 10
0.0
 20
0.0
 30
0.0
  9
$UCSORGFRONT
 10
0.0
 20
0.0
 30
0.0
  9
$UCSORGBACK
 10
0.0
 20
0.0
 30
0.0
  9
$PUCSBASE
  2

  9
$PUCSNAME
  2

  9
$PUCSORG
 10
0.0
 20
0.0
 30
0.0
  9
$PUCSXDIR
 10
1.0
 20
0.0
 30
0.0
  9
$PUCSYDIR
 10
0.0
 20
1.0
 30
0.0
  9
$PUCSORTHOREF
  2

  9
$PUCSORTHOVIEW
 70
     0
  9
$PUCSORGTOP
 10
0.0
 20
0.0
 30
0.0
  9
$PUCSORGBOTTOM
 10
0.0
 20
0.0
 30
0.0
  9
$PUCSORGLEFT
 10
0.0
 20
0.0
 30
0.0
  9
$PUCSORGRIGHT
 10
0.0
 20
0.0
 30
0.0
  9
$PUCSORGFRONT
 10
0.0
 20
0.0
 30
0.0
  9
$PUCSORGBACK
 10
0.0
 20
0.0
 30
0.0
  9
$USERI1
 70
     0
  9
$USERI2
 70
     0
  9
$USERI3
 70
     0
  9
$USERI4
 70
     0
  9
$USERI5
 70
     0
  9
$USERR1
 40
0.0
  9
$USERR2
 40
0.0
  9
$USERR3
 40
0.0
  9
$USERR4
 40
0.0
  9
$USERR5
 40
0.0
  9
$WORLDVIEW
 70
     1
  9
$SHADEDGE
 70
     3
  9
$SHADEDIF
 70
    70
  9
$TILEMODE
 70
     1
  9
$MAXACTVP
 70
    64
  9
$PINSBASE
 10
0.0
 20
0.0
 30
0.0
  9
$PLIMCHECK
 70
     0
  9
$PEXTMIN
 10
1.000000E+20
 20
1.000000E+20
 30
1.000000E+20
  9
$PEXTMAX
 10
-1.000000E+20
 20
-1.000000E+20
 30
-1.000000E+20
  9
$PLIMMIN
 10
0.0
 20
0.0
  9
$PLIMMAX
 10
420.0
 20
297.0
  9
$UNITMODE
 70
     0
  9
$VISRETAIN
 70
     1
  9
$PLINEGEN
 70
     0
  9
$PSLTSCALE
 70
     1
  9
$TREEDEPTH
 70
  3020
  9
$CMLSTYLE
  2
Standard
  9
$CMLJUST
 70
     0
  9
$CMLSCALE
 40
20.0
  9
$PROXYGRAPHICS
 70
     1
  9
$MEASUREMENT
 70
     1
  9
$CELWEIGHT
370
    -1
  9
$ENDCAPS
280
     0
  9
$JOINSTYLE
280
     0
  9
$LWDISPLAY
290
     0
  9
$INSUNITS
 70
     4
  9
$HYPERLINKBASE
  1

  9
$STYLESHEET
  1

  9
$XEDIT
290
     1
  9
$CEPSNTYPE
380
     0
  9
$PSTYLEMODE
290
     1
  9
$FINGERPRINTGUID
  2
{5D62A904-2659-4ED1-A87B-8276A198DBF9}
  9
$VERSIONGUID
  2
{FAEB1C32-E019-11D5-929B-00C0DF256EC4}
  9
$EXTNAMES
290
     1
  9
$PSVPSCALE
 40
0.0
  9
$OLESTARTUP
290
     0
  9
$SORTENTS
280
   127
  9
$INDEXCTL
280
     0
  9
$HIDETEXT
280
     1
  9
$XCLIPFRAME
280
     2
  9
$HALOGAP
280
     0
  9
$OBSCOLOR
 70
   257
  9
$OBSLTYPE
280
     0
  9
$INTERSECTIONDISPLAY
280
     0
  9
$INTERSECTIONCOLOR
 70
   257
  9
$DIMASSOC
280
     2
  9
$PROJECTNAME
  1

  9
$CAMERADISPLAY
290
     0
  9
$LENSLENGTH
 40
50.0
  9
$CAMERAHEIGHT
 40
0.0
  9
$STEPSPERSEC
 40
2.0
  9
$STEPSIZE
 40
6.0
  9
$3DDWFPREC
 40
2.0
  9
$PSOLWIDTH
 40
5.0
  9
$PSOLHEIGHT
 40
80.0
  9
$LOFTANG1
 40
1.570796
  9
$LOFTANG2
 40
1.570796
  9
$LOFTMAG1
 40
0.0
  9
$LOFTMAG2
 40
0.0
  9
$LOFTPARAM
 70
     7
  9
$LOFTNORMALS
280
     1
  9
$LATITUDE
 40
37.795
  9
$LONGITUDE
 40
-122.394
  9
$NORTHDIRECTION
 40
0.0
  9
$TIMEZONE
 70
 -8000
  9
$LIGHTGLYPHDISPLAY
280
     1
  9
$TILEMODELIGHTSYNCH
280
     1
  9
$CMATERIAL
347
44
  9
$SOLIDHIST
280
     0
  9
$SHOWHIST
280
     1
  9
$DWFFRAME
280
     2
  9
$DGNFRAME
280
     2
  9
$REALWORLDSCALE
290
     1
  9
$INTERFERECOLOR
 62
   256
  9
$CSHADOW
280
     0
  9
$SHADOWPLANELOCATION
 40
0.0
  0
ENDSEC
  0
SECTION
  2
CLASSES
  0
CLASS
  1
ACDBDICTIONARYWDFLT
  2
AcDbDictionaryWithDefault
  3
ObjectDBX Classes
 90
        0
 91
        4
280
     0
281
     0
  0
CLASS
  1
VISUALSTYLE
  2
AcDbVisualStyle
  3
ObjectDBX Classes
 90
     4095
 91
        4
280
     0
281
     0
  0
CLASS
  1
MATERIAL
  2
AcDbMaterial
  3
ObjectDBX Classes
 90
     1153
 91
        4
280
     0
281
     0
  0
CLASS
  1
SCALE
  2
AcDbScale
  3
ObjectDBX Classes
 90
     1153
 91
        4
280
     0
281
     0
  0
CLASS
  1
TABLESTYLE
  2
AcDbTableStyle
  3
ObjectDBX Classes
 90
     4095
 91
        4
280
     0
281
     0
  0
CLASS
  1
MLEADERSTYLE
  2
AcDbMLeaderStyle
  3
ACDB_MLEADERSTYLE_CLASS
 90
     4095
 91
        4
280
     0
281
     0
  0
CLASS
  1
SUN
  2
AcDbSun
  3
SCENEOE
 90
     1153
 91
        4
280
     0
281
     0
  0
CLASS
  1
DICTIONARYVAR
  2
AcDbDictionaryVar
  3
ObjectDBX Classes
 90
        0
 91
        4
280
     0
281
     0
  0
CLASS
  1
CELLSTYLEMAP
  2
AcDbCellStyleMap
  3
ObjectDBX Classes
 90
     1152
 91
        4
280
     0
281
     0
  0
ENDSEC
  0
SECTION
  2
TABLES
  0
TABLE
  2
VPORT
  5
8
330
0
100
AcDbSymbolTable
 70
     1
  0
VPORT
  5
29
330
8
100
AcDbSymbolTableRecord
100
AcDbViewportTableRecord
  2
*Active
 70
     0
 10
0.0
 20
0.0
 11
1.0
 21
1.0
 12
344.186916
 22
148.5
 13
0.0
 23
0.0
 14
10.0
 24
10.0
 15
10.0
 25
10.0
 16
0.0
 26
0.0
 36
1.0
 17
0.0
 27
0.0
 37
0.0
 40
297.0
 41
1.972973
 42
50.0
 43
0.0
 44
0.0
 50
0.0
 51
0.0
 71
     0
 72
   100
 73
     1
 74
     3
 75
     0
 76
     0
 77
     0
 78
     0
281
     0
 65
     1
110
0.0
120
0.0
130
0.0
111
1.0
121
0.0
131
0.0
112
0.0
122
1.0
132
0.0
 79
     0
146
0.0
348
2F
 60
     3
 61
     5
292
     1
282
     1
141
0.0
142
0.0
 63
   250
361
6D
  0
ENDTAB
  0
TABLE
  2
LTYPE
  5
5
330
0
100
AcDbSymbolTable
 70
     1
  0
LTYPE
  5
14
330
5
100
AcDbSymbolTableRecord
100
AcDbLinetypeTableRecord
  2
ByBlock
 70
     0
  3

 72
    65
 73
     0
 40
0.0
  0
LTYPE
  5
15
330
5
100
AcDbSymbolTableRecord
100
AcDbLinetypeTableRecord
  2
ByLayer
 70
     0
  3

 72
    65
 73
     0
 40
0.0
  0
LTYPE
  5
16
330
5
100
AcDbSymbolTableRecord
100
AcDbLinetypeTableRecord
  2
Continuous
 70
     0
  3
Solid line
 72
    65
 73
     0
 40
0.0
  0
ENDTAB
  0
TABLE
  2
LAYER
  5
2
330
0
100
AcDbSymbolTable
 70
     1
  0
LAYER
  5
10
330
2
100
AcDbSymbolTableRecord
100
AcDbLayerTableRecord
  2
0
 70
     0
 62
   106
  6
Continuous
370
     0
390
F
347
46
  0
ENDTAB
  0
TABLE
  2
STYLE
  5
3
330
0
100
AcDbSymbolTable
 70
     4
  0
STYLE
  5
11
330
3
100
AcDbSymbolTableRecord
100
AcDbTextStyleTableRecord
  2
Standard
 70
     0
 40
0.0
 41
1.0
 50
0.0
 71
     0
 42
2.5
  3
txt
  4

  0
STYLE
  5
6E
330
3
100
AcDbSymbolTableRecord
100
AcDbTextStyleTableRecord
  2
Default
 70
     0
 40
0.0
 41
1.0
 50
0.0
 71
     0
 42
2.5
  3

  4

1001
ACAD
1000
txt
1071
        0
  0
STYLE
  5
6F
330
3
100
AcDbSymbolTableRecord
100
AcDbTextStyleTableRecord
  2
ISO
 70
     0
 40
0.0
 41
1.0
 50
0.0
 71
     0
 42
2.5
  3

  4

1001
ACAD
1000
txt
1071
        0
  0
STYLE
  5
70
330
3
100
AcDbSymbolTableRecord
100
AcDbTextStyleTableRecord
  2
zucchetti
 70
     0
 40
0.0
 41
1.0
 50
0.0
 71
     0
 42
2.5
  3

  4

1001
ACAD
1000
Arial
1071
        0
  0
ENDTAB
  0
TABLE
  2
VIEW
  5
6
330
0
100
AcDbSymbolTable
 70
     0
  0
ENDTAB
  0
TABLE
  2
UCS
  5
7
330
0
100
AcDbSymbolTable
 70
     0
  0
ENDTAB
  0
TABLE
  2
APPID
  5
9
330
0
100
AcDbSymbolTable
 70
     1
  0
APPID
  5
12
330
9
100
AcDbSymbolTableRecord
100
AcDbRegAppTableRecord
  2
ACAD
 70
     0
  0
ENDTAB
  0
TABLE
  2
DIMSTYLE
  5
A
330
0
100
AcDbSymbolTable
 70
     4
100
AcDbDimStyleTable
  0
DIMSTYLE
105
27
330
A
100
AcDbSymbolTableRecord
100
AcDbDimStyleTableRecord
  2
ISO-25
 70
     0
 41
2.5
 42
0.625
 43
3.75
 44
1.25
 73
     0
 74
     0
 77
     1
 78
     8
140
2.5
141
2.5
143
0.03937
147
0.625
171
     3
172
     1
178
     0
271
     2
272
     2
274
     3
278
    44
283
     0
284
     8
340
11
  0
DIMSTYLE
105
71
330
A
100
AcDbSymbolTableRecord
100
AcDbDimStyleTableRecord
  2
Default
 70
     0
  3
<>
 41
4.375
 42
1.05
 44
2.1
 49
10.01
 73
     0
 74
     0
 77
     1
 78
     8
140
3.5
146
0.4
147
1.75
172
     1
271
     2
178
     3
271
     2
272
     3
284
     8
340
6E
341
72
342
72
  0
DIMSTYLE
105
79
330
A
100
AcDbSymbolTableRecord
100
AcDbDimStyleTableRecord
  2
ISO
 70
     0
  3
<>
 41
4.375
 42
1.05
 44
2.1
 49
10.01
 73
     0
 74
     0
 77
     1
 78
     8
140
3.5
146
0.4
147
1.75
172
     1
271
     2
178
     3
271
     2
272
     3
284
     8
340
6F
341
72
342
72
  0
DIMSTYLE
105
7A
330
A
100
AcDbSymbolTableRecord
100
AcDbDimStyleTableRecord
  2
zucchetti
 70
     0
  3
<>
 41
3.0
 42
0.9
 44
1.8
 49
8.58
 73
     0
 74
     0
 77
     1
 78
     8
140
3.0
146
0.6
147
1.5
172
     1
176
     3
177
     3
271
     2
178
     3
271
     2
272
     2
284
     8
340
70
  0
ENDTAB
  0
TABLE
  2
BLOCK_RECORD
  5
1
330
0
100
AcDbSymbolTable
 70
     7
  0
BLOCK_RECORD
  5
1F
330
1
100
AcDbSymbolTableRecord
100
AcDbBlockTableRecord
  2
*Model_Space
340
22
 70
     0
280
     1
281
     0
  0
BLOCK_RECORD
  5
1B
330
1
100
AcDbSymbolTableRecord
100
AcDbBlockTableRecord
  2
*Paper_Space
340
1E
 70
     0
280
     1
281
     0
  0
BLOCK_RECORD
  5
23
330
1
100
AcDbSymbolTableRecord
100
AcDbBlockTableRecord
  2
*Paper_Space0
340
26
 70
     0
280
     1
281
     0
  0
BLOCK_RECORD
  5
72
330
1
100
AcDbSymbolTableRecord
100
AcDbBlockTableRecord
  2
_CLOSED
340
0
 70
     0
280
     1
281
     0
  0
BLOCK_RECORD
  5
7B
330
1
100
AcDbSymbolTableRecord
100
AcDbBlockTableRecord
  2
a
340
0
102
{BLKREFS
331
B1
102
}
 70
     0
280
     1
281
     0
  0
BLOCK_RECORD
  5
B2
330
1
100
AcDbSymbolTableRecord
100
AcDbBlockTableRecord
  2
b
340
0
102
{BLKREFS
331
104
102
}
 70
     0
280
     1
281
     0
  0
BLOCK_RECORD
  5
105
330
1
100
AcDbSymbolTableRecord
100
AcDbBlockTableRecord
  2
c
340
0
102
{BLKREFS
331
1B9
102
}
 70
     0
280
     1
281
     0
  0
BLOCK_RECORD
  5
1BA
330
1
100
AcDbSymbolTableRecord
100
AcDbBlockTableRecord
  2
d
340
0
102
{BLKREFS
331
2B6
102
}
 70
     0
280
     1
281
     0
  0
BLOCK_RECORD
  5
2B7
330
1
100
AcDbSymbolTableRecord
100
AcDbBlockTableRecord
  2
e
340
0
102
{BLKREFS
331
338
102
}
 70
     0
280
     1
281
     0
  0
ENDTAB
  0
ENDSEC
  0
SECTION
  2
BLOCKS
  0
BLOCK
  5
20
330
1F
100
AcDbEntity
  8
0
100
AcDbBlockBegin
  2
*Model_Space
 70
     0
 10
0.0
 20
0.0
 30
0.0
  3
*Model_Space
  1

  0
ENDBLK
  5
21
330
1F
100
AcDbEntity
  8
0
100
AcDbBlockEnd
  0
BLOCK
  5
1C
330
1B
100
AcDbEntity
 67
     1
  8
0
100
AcDbBlockBegin
  2
*Paper_Space
 70
     0
 10
0.0
 20
0.0
 30
0.0
  3
*Paper_Space
  1

  0
ENDBLK
  5
1D
330
1B
100
AcDbEntity
 67
     1
  8
0
100
AcDbBlockEnd
  0
BLOCK
  5
24
330
23
100
AcDbEntity
  8
0
100
AcDbBlockBegin
  2
*Paper_Space0
 70
     0
 10
0.0
 20
0.0
 30
0.0
  3
*Paper_Space0
  1

  0
ENDBLK
  5
25
330
23
100
AcDbEntity
  8
0
100
AcDbBlockEnd
  0
BLOCK
  5
73
330
72
100
AcDbEntity
  8
0
100
AcDbBlockBegin
  2
_CLOSED
 70
     0
 10
0.0
 20
0.0
 30
0.0
  3
_CLOSED
  1

  0
LINE
  5
75
330
72
100
AcDbEntity
  8
0
  6
ByBlock
 62
     0
370
    -2
100
AcDbLine
 10
-1.0
 20
0.166667
 30
0.0
 11
0.0
 21
0.0
 31
0.0
  0
LINE
  5
76
330
72
100
AcDbEntity
  8
0
  6
ByBlock
 62
     0
370
    -2
100
AcDbLine
 10
0.0
 20
0.0
 30
0.0
 11
-1.0
 21
-0.166667
 31
0.0
  0
LINE
  5
77
330
72
100
AcDbEntity
  8
0
  6
ByBlock
 62
     0
370
    -2
100
AcDbLine
 10
-1.0
 20
0.166667
 30
0.0
 11
-1.0
 21
-0.166667
 31
0.0
  0
LINE
  5
78
330
72
100
AcDbEntity
  8
0
  6
ByBlock
 62
     0
370
    -2
100
AcDbLine
 10
0.0
 20
0.0
 30
0.0
 11
-1.0
 21
0.0
 31
0.0
  0
ENDBLK
  5
74
330
72
100
AcDbEntity
  8
0
100
AcDbBlockEnd
  0
BLOCK
  5
AF
330
7B
100
AcDbEntity
  8
0
100
AcDbBlockBegin
  2
a
 70
     0
 10
21.257402
 20
103.131485
 30
0.0
  3
a
  1

  0
LINE
  5
7C
330
7B
100
AcDbEntity
  8
0
  6
Continuous
 62
     0
370
    30
100
AcDbLine
 10
194.503534
 20
722.552715
 30
0.0
 11
224.503534
 21
722.552715
 31
0.0
  0
LINE
  5
7D
330
7B
100
AcDbEntity
  8
0
  6
Continuous
 62
     0
370
    30
100
AcDbLine
 10
224.503534
 20
722.552715
 30
0.0
 11
254.503534
 21
722.552715
 31
0.0
  0
LINE
  5
7E
330
7B
100
AcDbEntity
  8
0
  6
Continuous
 62
     0
370
     0
100
AcDbLine
 10
194.503534
 20
731.052715
 30
0.0
 11
224.503534
 21
731.052715
 31
0.0
  0
LINE
  5
7F
330
7B
100
AcDbEntity
  8
0
  6
Continuous
 62
     0
370
     0
100
AcDbLine
 10
224.503534
 20
731.052715
 30
0.0
 11
254.503534
 21
731.052715
 31
0.0
  0
LINE
  5
80
330
7B
100
AcDbEntity
  8
0
  6
Continuous
 62
     0
370
    30
100
AcDbLine
 10
230.653534
 20
731.052715
 30
0.0
 11
230.653534
 21
731.552715
 31
0.0
  0
LINE
  5
81
330
7B
100
AcDbEntity
  8
0
  6
Continuous
 62
     0
370
    30
100
AcDbLine
 10
218.353534
 20
731.052715
 30
0.0
 11
218.353534
 21
731.552715
 31
0.0
  0
LINE
  5
82
330
7B
100
AcDbEntity
  8
0
  6
Continuous
 62
     0
370
    30
100
AcDbLine
 10
254.503534
 20
722.552715
 30
0.0
 11
254.503534
 21
731.052715
 31
0.0
  0
LINE
  5
83
330
7B
100
AcDbEntity
  8
0
  6
Continuous
 62
     0
370
    30
100
AcDbLine
 10
194.503534
 20
722.552715
 30
0.0
 11
194.503534
 21
731.052715
 31
0.0
  0
LINE
  5
84
330
7B
100
AcDbEntity
  8
0
  6
Continuous
 62
     0
370
    30
100
AcDbLine
 10
208.003534
 20
750.552715
 30
0.0
 11
210.503534
 21
750.552715
 31
0.0
  0
LINE
  5
85
330
7B
100
AcDbEntity
  8
0
  6
Continuous
 62
     0
370
    30
100
AcDbLine
 10
238.503534
 20
750.552715
 30
0.0
 11
241.003534
 21
750.552715
 31
0.0
  0
LINE
  5
86
330
7B
100
AcDbEntity
  8
0
  6
Continuous
 62
     0
370
     0
100
AcDbLine
 10
208.003534
 20
768.008259
 30
0.0
 11
208.428764
 21
768.008259
 31
0.0
  0
LINE
  5
87
330
7B
100
AcDbEntity
  8
0
  6
Continuous
 62
     0
370
     0
100
AcDbLine
 10
240.578305
 20
768.008259
 30
0.0
 11
241.003534
 21
768.008259
 31
0.0
  0
LINE
  5
88
330
7B
100
AcDbEntity
  8
0
  6
Continuous
 62
     0
370
    30
100
AcDbLine
 10
241.003534
 20
750.552715
 30
0.0
 11
241.003534
 21
768.008259
 31
0.0
  0
LINE
  5
89
330
7B
100
AcDbEntity
  8
0
  6
Continuous
 62
     0
370
    30
100
AcDbLine
 10
208.003534
 20
750.552715
 30
0.0
 11
208.003534
 21
768.008259
 31
0.0
  0
LINE
  5
8A
330
7B
100
AcDbEntity
  8
0
  6
Continuous
 62
     0
370
     0
100
AcDbLine
 10
57.957383
 20
914.67325
 30
0.0
 11
68.419006
 21
911.274066
 31
0.0
  0
LINE
  5
8B
330
7B
100
AcDbEntity
  8
0
  6
Continuous
 62
     0
370
     0
100
AcDbLine
 10
68.419006
 20
911.274066
 30
0.0
 11
78.880628
 21
907.874882
 31
0.0
  0
LINE
  5
8C
330
7B
100
AcDbEntity
  8
0
  6
Continuous
 62
     0
370
    30
100
AcDbLine
 10
51.503541
 20
894.810346
 30
0.0
 11
61.965164
 21
891.411163
 31
0.0
  0
LINE
  5
8D
330
7B
100
AcDbEntity
  8
0
  6
Continuous
 62
     0
370
    30
100
AcDbLine
 10
61.965164
 20
891.411163
 30
0.0
 11
72.426786
 21
888.011979
 31
0.0
  0
LINE
  5
8E
330
7B
100
AcDbEntity
  8
0
  6
Continuous
 62
     0
370
    30
100
AcDbLine
 10
51.503541
 20
894.810346
 30
0.0
 11
57.957383
 21
914.67325
 31
0.0
  0
LINE
  5
8F
330
7B
100
AcDbEntity
  8
0
  6
Continuous
 62
     0
370
    30
100
AcDbLine
 10
72.426786
 20
888.011979
 30
0.0
 11
78.880628
 21
907.874882
 31
0.0
  0
ARC
  5
90
330
7B
100
AcDbEntity
  8
0
  6
Continuous
 62
     0
370
    30
100
AcDbCircle
 10
144.497479
 20
886.559375
 30
0.0
 40
90.99218736333827
100
AcDbArc
 50
41.160366
 51
162.002819
  0
ARC
  5
91
330
7B
100
AcDbEntity
  8
0
  6
Continuous
 62
     0
370
    30
100
AcDbCircle
 10
144.503006
 20
886.549747
 30
0.0
 40
69.0004189167555
100
AcDbArc
 50
9.930967
 51
161.997526
  0
LINE
  5
92
330
7B
100
AcDbEntity
  8
0
  6
Continuous
 62
     0
370
    30
100
AcDbLine
 10
254.503534
 20
731.552715
 30
0.0
 11
254.503534
 21
741.552715
 31
0.0
  0
LINE
  5
93
330
7B
100
AcDbEntity
  8
0
  6
Continuous
 62
     0
370
    30
100
AcDbLine
 10
254.503534
 20
741.552715
 30
0.0
 11
194.503534
 21
741.552715
 31
0.0
  0
LINE
  5
94
330
7B
100
AcDbEntity
  8
0
  6
Continuous
 62
     0
370
    30
100
AcDbLine
 10
254.503534
 20
731.552715
 30
0.0
 11
194.503534
 21
731.552715
 31
0.0
  0
LINE
  5
95
330
7B
100
AcDbEntity
  8
0
  6
Continuous
 62
     0
370
    30
100
AcDbLine
 10
238.503534
 20
741.552715
 30
0.0
 11
238.503534
 21
753.552715
 31
0.0
  0
LINE
  5
96
330
7B
100
AcDbEntity
  8
0
  6
Continuous
 62
     0
370
    30
100
AcDbLine
 10
210.503534
 20
741.552715
 30
0.0
 11
210.503534
 21
753.552715
 31
0.0
  0
LINE
  5
97
330
7B
100
AcDbEntity
  8
0
  6
Continuous
 62
     0
370
    30
100
AcDbLine
 10
194.503534
 20
741.552715
 30
0.0
 11
194.503534
 21
731.552715
 31
0.0
  0
ARC
  5
98
330
7B
100
AcDbEntity
  8
0
  6
Continuous
 62
     0
370
    30
100
AcDbCircle
 10
340.860643
 20
921.053567
 30
0.0
 40
130.3571080835301
100
AcDbArc
 50
168.329001
 51
191.598126
  0
ARC
  5
99
330
7B
100
AcDbEntity
  8
0
  6
Continuous
 62
     0
370
    30
100
AcDbCircle
 10
210.503534
 20
884.183387
 30
0.0
 40
1.000000000000009
100
AcDbArc
 50
153.024054
 51
180.0
  0
LINE
  5
9A
330
7B
100
AcDbEntity
  8
0
  6
Continuous
 62
     0
370
     0
100
AcDbLine
 10
213.525189
 20
946.199919
 30
0.0
 11
213.257163
 21
946.195555
 31
0.0
  0
LWPOLYLINE
  5
9B
330
7B
100
AcDbEntity
  8
0
  6
Continuous
 62
     0
370
     0
100
AcDbPolyline
 90
       26
 70
     0
 43
0.0
 10
213.525192
 20
946.19989
 10
213.503616
 20
946.903748
 10
213.452103
 20
947.604675
 10
213.371674
 20
948.300293
 10
213.263962
 20
948.988403
 10
213.131104
 20
949.667053
 10
212.975433
 20
950.334473
 10
212.799423
 20
950.989319
 10
212.605743
 20
951.630188
 10
212.397186
 20
952.255676
 10
212.176651
 20
952.864441
 10
211.946915
 20
953.455078
 10
211.710724
 20
954.026306
 10
211.47084
 20
954.576355
 10
211.230164
 20
955.103455
 10
210.991684
 20
955.605286
 10
210.75853
 20
956.079041
 10
210.534012
 20
956.521606
 10
210.321686
 20
956.929565
 10
210.12532
 20
957.298462
 10
209.948898
 20
957.623657
 10
209.796646
 20
957.900146
 10
209.672623
 20
958.12262
 10
209.580521
 20
958.286316
 10
209.523468
 20
958.387024
 10
209.50354
 20
958.422119
  0
ARC
  5
9C
330
7B
100
AcDbEntity
  8
0
  6
Continuous
 62
     0
370
    30
100
AcDbCircle
 10
210.503534
 20
958.422138
 30
0.0
 40
1.0
100
AcDbArc
 50
180.0
 51
203.199904
  0
LINE
  5
9D
330
7B
100
AcDbEntity
  8
0
  6
Continuous
 62
     0
370
     0
100
AcDbLine
 10
213.257079
 20
896.552327
 30
0.0
 11
213.525189
 21
896.552327
 31
0.0
  0
LINE
  5
9E
330
7B
100
AcDbEntity
  8
0
  6
Continuous
 62
     0
370
     0
100
AcDbLine
 10
213.525189
 20
896.552327
 30
0.0
 11
213.525189
 21
946.199919
 31
0.0
  0
LINE
  5
9F
330
7B
100
AcDbEntity
  8
0
  6
Continuous
 62
     0
370
    30
100
AcDbLine
 10
209.503534
 20
958.422138
 30
0.0
 11
209.503534
 21
958.679668
 31
0.0
  0
LWPOLYLINE
  5
A0
330
7B
100
AcDbEntity
  8
0
  6
Continuous
 62
     0
370
     0
100
AcDbPolyline
 90
       26
 70
     0
 43
0.0
 10
213.525192
 20
896.552307
 10
213.509644
 20
895.842163
 10
213.463547
 20
895.13446
 10
213.387817
 20
894.431702
 10
213.283966
 20
893.736145
 10
213.154022
 20
893.049927
 10
213.000381
 20
892.374817
 10
212.82576
 20
891.71228
 10
212.632935
 20
891.063782
 10
212.424652
 20
890.430725
 10
212.20372
 20
889.814575
 10
211.972961
 20
889.216614
 10
211.735321
 20
888.638306
 10
211.493652
 20
888.081238
 10
211.250885
 20
887.547424
 10
211.010056
 20
887.039001
 10
210.774429
 20
886.55896
 10
210.547348
 20
886.110413
 10
210.332397
 20
885.696838
 10
210.133514
 20
885.322754
 10
209.954803
 20
884.992859
 10
209.800415
 20
884.712341
 10
209.674591
 20
884.486572
 10
209.581223
 20
884.320618
 10
209.523544
 20
884.218628
 10
209.50354
 20
884.183411
  0
ARC
  5
A1
330
7B
100
AcDbEntity
  8
0
  6
Continuous
 62
     0
370
    30
100
AcDbCircle
 10
185.391594
 20
898.560966
 30
0.0
 40
27.93780804584982
100
AcDbArc
 50
330.10637
 51
355.877059
  0
LINE
  5
A2
330
7B
100
AcDbEntity
  8
0
  6
Continuous
 62
     0
370
    30
100
AcDbLine
 10
213.257079
 20
896.552327
 30
0.0
 11
213.257079
 21
946.195561
 31
0.0
  0
LWPOLYLINE
  5
A3
330
7B
100
AcDbEntity
  8
0
  6
Continuous
 62
     0
370
    30
100
AcDbPolyline
 90
       26
 70
     0
 43
0.0
 10
213.257095
 20
946.195557
 10
213.236069
 20
946.879089
 10
213.186417
 20
947.560852
 10
213.110168
 20
948.238403
 10
213.009369
 20
948.90918
 10
212.886047
 20
949.570862
 10
212.742279
 20
950.220886
 10
212.580078
 20
950.856812
 10
212.401855
 20
951.477051
 10
212.210342
 20
952.080627
 10
212.008301
 20
952.666748
 10
211.798523
 20
953.234558
 10
211.583755
 20
953.783203
 10
211.366592
 20
954.31073
 10
211.149628
 20
954.815125
 10
210.935425
 20
955.29425
 10
210.726578
 20
955.745972
 10
210.526001
 20
956.16748
 10
210.337189
 20
956.554382
 10
210.163666
 20
956.902527
 10
210.008331
 20
957.208801
 10
209.873169
 20
957.471619
 10
209.76297
 20
957.683411
 10
209.684113
 20
957.832825
 10
209.638123
 20
957.919006
 10
209.584396
 20
958.028198
  0
LINE
  5
A4
330
7B
100
AcDbEntity
  8
0
  6
Continuous
 62
     0
370
    30
100
AcDbLine
 10
208.403534
 20
753.552715
 30
0.0
 11
240.603534
 21
753.552715
 31
0.0
  0
LWPOLYLINE
  5
A5
330
7B
100
AcDbEntity
  8
0
  6
Continuous
 62
     0
370
    30
100
AcDbPolyline
 90
       29
 70
     0
 43
0.0
 10
216.197769
 20
896.552734
 10
216.155548
 20
895.741333
 10
216.037369
 20
894.940369
 10
215.8517
 20
894.157654
 10
215.609085
 20
893.398254
 10
215.320862
 20
892.664307
 10
214.997498
 20
891.956177
 10
214.647354
 20
891.273254
 10
214.277298
 20
890.614502
 10
213.894012
 20
889.978821
 10
213.502335
 20
889.365662
 10
213.106003
 20
888.77478
 10
212.70874
 20
888.205872
 10
212.314163
 20
887.658875
 10
211.925171
 20
887.134155
 10
211.54451
 20
886.632751
 10
211.174942
 20
886.155945
 10
210.819275
 20
885.705017
 10
210.480286
 20
885.281433
 10
210.160843
 20
884.887329
 10
209.863815
 20
884.524841
 10
209.592117
 20
884.19635
 10
209.348785
 20
883.904358
 10
209.136765
 20
883.651611
 10
208.958588
 20
883.440308
 10
208.816788
 20
883.272888
 10
208.71373
 20
883.151611
 10
208.650986
 20
883.077881
 10
208.629547
 20
883.052734
  0
LINE
  5
A6
330
7B
100
AcDbEntity
  8
0
  6
Continuous
 62
     0
370
    30
100
AcDbLine
 10
216.363851
 20
946.052715
 30
0.0
 11
216.197769
 21
896.552715
 31
0.0
  0
LWPOLYLINE
  5
A7
330
7B
100
AcDbEntity
  8
0
  6
Continuous
 62
     0
370
    30
100
AcDbPolyline
 90
       29
 70
     0
 43
0.0
 10
216.363846
 20
946.052734
 10
216.326111
 20
946.865112
 10
216.210571
 20
947.667358
 10
216.02565
 20
948.45105
 10
215.782501
 20
949.211121
 10
215.492783
 20
949.945374
 10
215.167374
 20
950.653442
 10
214.814804
 20
951.33606
 10
214.442169
 20
951.994446
 10
214.056335
 20
952.629639
 10
213.662048
 20
953.242249
 10
213.263123
 20
953.832703
 10
212.863403
 20
954.401184
 10
212.466446
 20
954.947937
 10
212.075165
 20
955.472351
 10
211.692307
 20
955.973511
 10
211.320663
 20
956.450256
 10
210.963013
 20
956.901123
 10
210.622162
 20
957.324707
 10
210.30101
 20
957.718872
 10
210.002426
 20
958.081421
 10
209.729355
 20
958.409973
 10
209.484772
 20
958.702026
 10
209.271606
 20
958.954895
 10
209.092621
 20
959.166199
 10
208.950394
 20
959.333374
 10
208.847061
 20
959.454468
 10
208.784256
 20
959.527954
 10
208.763077
 20
959.552734
  0
LINE
  5
A8
330
7B
100
AcDbEntity
  8
0
  6
Continuous
 62
     0
370
    30
100
AcDbLine
 10
208.403534
 20
753.552715
 30
0.0
 11
208.629555
 21
883.052715
 31
0.0
  0
LINE
  5
A9
330
7B
100
AcDbEntity
  8
0
  6
Continuous
 62
     0
370
    30
100
AcDbLine
 10
208.763073
 20
959.552715
 30
0.0
 11
208.770057
 21
963.554461
 31
0.0
  0
LINE
  5
AA
330
7B
100
AcDbEntity
  8
0
  6
Continuous
 62
     0
370
     0
100
AcDbLine
 10
208.770057
 20
963.554461
 30
0.0
 11
240.237012
 21
963.554461
 31
0.0
  0
LINE
  5
AB
330
7B
100
AcDbEntity
  8
0
  6
Continuous
 62
     0
370
    30
100
AcDbLine
 10
209.770055
 20
964.552715
 30
0.0
 11
239.237013
 21
964.552715
 31
0.0
  0
ARC
  5
AC
330
7B
100
AcDbEntity
  8
0
  6
Continuous
 62
     0
370
    30
100
AcDbCircle
 10
209.770055
 20
963.552715
 30
0.0
 40
1.0
100
AcDbArc
 50
90.0
 51
179.9
  0
ARC
  5
AD
330
7B
100
AcDbEntity
  8
0
  6
Continuous
 62
     0
370
    30
100
AcDbCircle
 10
239.233564
 20
963.54926
 30
0.0
 40
1.003461100330446
100
AcDbArc
 50
0.296921
 51
89.79735
  0
LINE
  5
AE
330
7B
100
AcDbEntity
  8
0
  6
Continuous
 62
     0
370
    30
100
AcDbLine
 10
240.603534
 20
753.552715
 30
0.0
 11
240.237012
 21
963.554461
 31
0.0
  0
ENDBLK
  5
B0
330
7B
100
AcDbEntity
  8
0
100
AcDbBlockEnd
  0
BLOCK
  5
102
330
B2
100
AcDbEntity
  8
0
100
AcDbBlockBegin
  2
b
 70
     0
 10
21.257402
 20
103.131485
 30
0.0
  3
b
  1

  0
ARC
  5
B3
330
B2
100
AcDbEntity
  8
0
  6
Continuous
 62
     0
370
     0
100
AcDbCircle
 10
224.503534
 20
519.370519
 30
0.0
 40
29.5
100
AcDbArc
 50
270.0
 51
78.264743
  0
ARC
  5
B4
330
B2
100
AcDbEntity
  8
0
  6
Continuous
 62
     0
370
     0
100
AcDbCircle
 10
224.503534
 20
519.370519
 30
0.0
 40
29.5
100
AcDbArc
 50
101.735257
 51
270.0
  0
ARC
  5
B5
330
B2
100
AcDbEntity
  8
0
  6
Continuous
 62
     0
370
    30
100
AcDbCircle
 10
224.503534
 20
519.370519
 30
0.0
 40
6.15
100
AcDbArc
 50
167.319617
 51
270.0
  0
ARC
  5
B6
330
B2
100
AcDbEntity
  8
0
  6
Continuous
 62
     0
370
    30
100
AcDbCircle
 10
224.503534
 20
519.370519
 30
0.0
 40
6.15
100
AcDbArc
 50
270.0
 51
12.680383
  0
ARC
  5
B7
330
B2
100
AcDbEntity
  8
0
  6
Continuous
 62
     0
370
    30
100
AcDbCircle
 10
224.503534
 20
519.370519
 30
0.0
 40
30.0
100
AcDbArc
 50
101.536959
 51
270.0
  0
ARC
  5
B8
330
B2
100
AcDbEntity
  8
0
  6
Continuous
 62
     0
370
    30
100
AcDbCircle
 10
224.503534
 20
519.370519
 30
0.0
 40
30.0
100
AcDbArc
 50
270.0
 51
78.463041
  0
ARC
  5
B9
330
B2
100
AcDbEntity
  8
0
  6
Continuous
 62
     0
370
     0
100
AcDbCircle
 10
224.503534
 20
319.370519
 30
0.0
 40
29.5
100
AcDbArc
 50
281.735257
 51
90.0
  0
ARC
  5
BA
330
B2
100
AcDbEntity
  8
0
  6
Continuous
 62
     0
370
     0
100
AcDbCircle
 10
224.503534
 20
319.370519
 30
0.0
 40
29.5
100
AcDbArc
 50
90.0
 51
258.264743
  0
ARC
  5
BB
330
B2
100
AcDbEntity
  8
0
  6
Continuous
 62
     0
370
    30
100
AcDbCircle
 10
224.503534
 20
319.370519
 30
0.0
 40
6.15
100
AcDbArc
 50
90.0
 51
192.680383
  0
ARC
  5
BC
330
B2
100
AcDbEntity
  8
0
  6
Continuous
 62
     0
370
    30
100
AcDbCircle
 10
224.503534
 20
319.370519
 30
0.0
 40
6.15
100
AcDbArc
 50
347.319617
 51
90.0
  0
ARC
  5
BD
330
B2
100
AcDbEntity
  8
0
  6
Continuous
 62
     0
370
    30
100
AcDbCircle
 10
224.503534
 20
319.370519
 30
0.0
 40
30.0
100
AcDbArc
 50
90.0
 51
258.463041
  0
ARC
  5
BE
330
B2
100
AcDbEntity
  8
0
  6
Continuous
 62
     0
370
    30
100
AcDbCircle
 10
224.503534
 20
319.370519
 30
0.0
 40
30.0
100
AcDbArc
 50
281.536959
 51
90.0
  0
ARC
  5
BF
330
B2
100
AcDbEntity
  8
0
  6
Continuous
 62
     0
370
     0
100
AcDbCircle
 10
224.503534
 20
419.370519
 30
0.0
 40
29.5
100
AcDbArc
 50
270.0
 51
90.0
  0
ARC
  5
C0
330
B2
100
AcDbEntity
  8
0
  6
Continuous
 62
     0
370
     0
100
AcDbCircle
 10
224.503534
 20
419.370519
 30
0.0
 40
29.5
100
AcDbArc
 50
201.893428
 51
270.0
  0
ARC
  5
C1
330
B2
100
AcDbEntity
  8
0
  6
Continuous
 62
     0
370
     0
100
AcDbCircle
 10
224.503534
 20
419.370519
 30
0.0
 40
29.5
100
AcDbArc
 50
90.0
 51
158.106572
  0
ARC
  5
C2
330
B2
100
AcDbEntity
  8
0
  6
Continuous
 62
     0
370
    30
100
AcDbCircle
 10
224.503534
 20
419.370519
 30
0.0
 40
30.0
100
AcDbArc
 50
201.510188
 51
270.0
  0
ARC
  5
C3
330
B2
100
AcDbEntity
  8
0
  6
Continuous
 62
     0
370
    30
100
AcDbCircle
 10
224.503534
 20
419.370519
 30
0.0
 40
30.0
100
AcDbArc
 50
90.0
 51
158.489812
  0
ARC
  5
C4
330
B2
100
AcDbEntity
  8
0
  6
Continuous
 62
     0
370
    30
100
AcDbCircle
 10
224.503534
 20
419.370519
 30
0.0
 40
30.0
100
AcDbArc
 50
270.0
 51
90.0
  0
ARC
  5
C5
330
B2
100
AcDbEntity
  8
0
  6
Continuous
 62
     0
370
    30
100
AcDbCircle
 10
224.503534
 20
219.370517
 30
0.0
 40
16.50000000000072
100
AcDbArc
 50
90.0
 51
270.0
  0
ARC
  5
C6
330
B2
100
AcDbEntity
  8
0
  6
Continuous
 62
     0
370
    30
100
AcDbCircle
 10
224.503534
 20
219.370517
 30
0.0
 40
16.50000000000072
100
AcDbArc
 50
270.0
 51
90.0
  0
ARC
  5
C7
330
B2
100
AcDbEntity
  8
0
  6
Continuous
 62
     0
370
     0
100
AcDbCircle
 10
224.503534
 20
219.370517
 30
0.0
 40
16.05882352941243
100
AcDbArc
 50
90.0
 51
270.0
  0
ARC
  5
C8
330
B2
100
AcDbEntity
  8
0
  6
Continuous
 62
     0
370
     0
100
AcDbCircle
 10
224.503534
 20
219.370517
 30
0.0
 40
16.05882352941243
100
AcDbArc
 50
270.0
 51
90.0
  0
ARC
  5
C9
330
B2
100
AcDbEntity
  8
0
  6
Continuous
 62
     0
370
    30
100
AcDbCircle
 10
224.503534
 20
419.370512
 30
0.0
 40
11.0
100
AcDbArc
 50
270.0
 51
90.0
  0
LINE
  5
CA
330
B2
100
AcDbEntity
  8
0
  6
Continuous
 62
     0
370
    30
100
AcDbLine
 10
224.503534
 20
430.370512
 30
0.0
 11
68.419006
 21
430.370512
 31
0.0
  0
ELLIPSE
  5
CB
330
B2
100
AcDbEntity
  8
0
  6
Continuous
 62
     0
370
     0
100
AcDbEllipse
 10
68.419006
 20
419.370511
 30
0.0
 11
1.479829523470284E-6
 21
10.9999999999999
 31
0.0
210
0.0
220
0.0
230
1.0
 40
0.951057
 41
0.0000001414531541
 42
3.141592795042947
  0
LINE
  5
CC
330
B2
100
AcDbEntity
  8
0
  6
Continuous
 62
     0
370
    30
100
AcDbLine
 10
68.419006
 20
430.370511
 30
0.0
 11
61.965164
 21
430.370512
 31
0.0
  0
ELLIPSE
  5
CD
330
B2
100
AcDbEntity
  8
0
  6
Continuous
 62
     0
370
    30
100
AcDbEllipse
 10
61.965164
 20
419.370512
 30
0.0
 11
1.479829523470284E-6
 21
10.9999999999999
 31
0.0
210
0.0
220
0.0
230
1.0
 40
0.951057
 41
0.0000001414531541
 42
3.141592795042947
  0
LINE
  5
CE
330
B2
100
AcDbEntity
  8
0
  6
Continuous
 62
     0
370
    30
100
AcDbLine
 10
61.965164
 20
408.370512
 30
0.0
 11
68.419006
 21
408.370511
 31
0.0
  0
LINE
  5
CF
330
B2
100
AcDbEntity
  8
0
  6
Continuous
 62
     0
370
    30
100
AcDbLine
 10
68.419006
 20
408.370511
 30
0.0
 11
224.503534
 21
408.370512
 31
0.0
  0
ARC
  5
D0
330
B2
100
AcDbEntity
  8
0
  6
Continuous
 62
     0
370
    30
100
AcDbCircle
 10
224.503534
 20
219.370518
 30
0.0
 40
30.00068283081055
100
AcDbArc
 50
90.0
 51
270.0
  0
ARC
  5
D1
330
B2
100
AcDbEntity
  8
0
  6
Continuous
 62
     0
370
    30
100
AcDbCircle
 10
224.503534
 20
219.370518
 30
0.0
 40
30.00068283081055
100
AcDbArc
 50
270.0
 51
90.0
  0
ARC
  5
D2
330
B2
100
AcDbEntity
  8
0
  6
Continuous
 62
     0
370
     0
100
AcDbCircle
 10
224.503534
 20
219.370518
 30
0.0
 40
29.50068283081055
100
AcDbArc
 50
90.0
 51
270.0
  0
ARC
  5
D3
330
B2
100
AcDbEntity
  8
0
  6
Continuous
 62
     0
370
     0
100
AcDbCircle
 10
224.503534
 20
219.370518
 30
0.0
 40
29.50068283081055
100
AcDbArc
 50
270.0
 51
90.0
  0
ARC
  5
D4
330
B2
100
AcDbEntity
  8
0
  6
Continuous
 62
     0
370
    30
100
AcDbCircle
 10
224.503534
 20
119.370518
 30
0.0
 40
30.0
100
AcDbArc
 50
180.0
 51
0.0
  0
ARC
  5
D5
330
B2
100
AcDbEntity
  8
0
  6
Continuous
 62
     0
370
    30
100
AcDbCircle
 10
224.503534
 20
119.370518
 30
0.0
 40
30.0
100
AcDbArc
 50
0.0
 51
180.0
  0
ARC
  5
D6
330
B2
100
AcDbEntity
  8
0
  6
Continuous
 62
     0
370
    30
100
AcDbCircle
 10
224.503534
 20
119.370518
 30
0.0
 40
16.1
100
AcDbArc
 50
360.0
 51
180.0
  0
ARC
  5
D7
330
B2
100
AcDbEntity
  8
0
  6
Continuous
 62
     0
370
    30
100
AcDbCircle
 10
224.503534
 20
119.370518
 30
0.0
 40
16.1
100
AcDbArc
 50
180.0
 51
360.0
  0
LWPOLYLINE
  5
D8
330
B2
100
AcDbEntity
  8
0
  6
Continuous
 62
     0
370
    30
100
AcDbPolyline
 90
       31
 70
     0
 43
0.0
 10
216.197769
 20
132.870514
 10
216.160767
 20
132.849228
 10
216.057144
 20
132.786102
 10
215.893539
 20
132.683197
 10
215.678345
 20
132.54303
 10
215.420837
 20
132.368301
 10
215.129791
 20
132.161407
 10
214.812805
 20
131.924271
 10
214.475708
 20
131.658127
 10
214.124069
 20
131.364075
 10
213.762878
 20
131.043015
 10
213.395462
 20
130.695221
 10
213.024872
 20
130.320877
 10
212.65416
 20
129.920135
 10
212.286163
 20
129.493088
 10
211.923203
 20
129.039658
 10
211.56752
 20
128.559738
 10
211.221375
 20
128.053345
 10
210.887009
 20
127.520485
 10
210.566727
 20
126.961197
 10
210.262817
 20
126.375885
 10
209.977646
 20
125.765175
 10
209.713531
 20
125.129715
 10
209.472931
 20
124.470482
 10
209.258316
 20
123.788849
 10
209.071915
 20
123.086945
 10
208.915787
 20
122.367447
 10
208.791946
 20
121.633041
 10
208.702271
 20
120.886642
 10
208.647873
 20
120.132042
 10
208.629547
 20
119.370514
  0
LWPOLYLINE
  5
D9
330
B2
100
AcDbEntity
  8
0
  6
Continuous
 62
     0
370
    30
100
AcDbPolyline
 90
       31
 70
     0
 43
0.0
 10
216.197769
 20
105.870514
 10
216.160767
 20
105.8918
 10
216.057144
 20
105.95491
 10
215.893539
 20
106.057823
 10
215.678345
 20
106.19799
 10
215.420837
 20
106.372719
 10
215.129791
 20
106.57962
 10
214.812805
 20
106.81675
 10
214.475708
 20
107.082901
 10
214.124069
 20
107.376953
 10
213.762878
 20
107.698013
 10
213.395462
 20
108.045799
 10
213.024872
 20
108.420143
 10
212.65416
 20
108.820885
 10
212.286163
 20
109.247932
 10
211.923203
 20
109.701363
 10
211.56752
 20
110.181282
 10
211.221375
 20
110.687675
 10
210.887009
 20
111.220543
 10
210.566727
 20
111.779831
 10
210.262817
 20
112.365143
 10
209.977646
 20
112.975853
 10
209.713531
 20
113.611313
 10
209.472931
 20
114.270538
 10
209.258316
 20
114.952179
 10
209.071915
 20
115.654083
 10
208.915787
 20
116.373573
 10
208.791946
 20
117.107986
 10
208.702271
 20
117.854378
 10
208.647873
 20
118.608986
 10
208.629547
 20
119.370514
  0
ARC
  5
DA
330
B2
100
AcDbEntity
  8
0
  6
Continuous
 62
     0
370
     0
100
AcDbCircle
 10
224.503534
 20
119.370509
 30
0.0
 40
15.73347743874461
100
AcDbArc
 50
360.0
 51
180.0
  0
ARC
  5
DB
330
B2
100
AcDbEntity
  8
0
  6
Continuous
 62
     0
370
     0
100
AcDbCircle
 10
224.503534
 20
119.370509
 30
0.0
 40
15.73347743874461
100
AcDbArc
 50
180.0
 51
360.0
  0
ARC
  5
DC
330
B2
100
AcDbEntity
  8
0
  6
Continuous
 62
     0
370
     0
100
AcDbCircle
 10
224.503534
 20
119.370509
 30
0.0
 40
14.73347896183132
100
AcDbArc
 50
180.0
 51
360.0
  0
ARC
  5
DD
330
B2
100
AcDbEntity
  8
0
  6
Continuous
 62
     0
370
     0
100
AcDbCircle
 10
224.503534
 20
119.370509
 30
0.0
 40
14.73347896183132
100
AcDbArc
 50
360.0
 51
180.0
  0
ARC
  5
DE
330
B2
100
AcDbEntity
  8
0
  6
Continuous
 62
     0
370
     0
100
AcDbCircle
 10
228.503534
 20
586.370516
 30
0.0
 40
1.5
100
AcDbArc
 50
0.0
 51
90.0
  0
LINE
  5
DF
330
B2
100
AcDbEntity
  8
0
  6
Continuous
 62
     0
370
     0
100
AcDbLine
 10
228.503534
 20
587.870516
 30
0.0
 11
220.503534
 21
587.870516
 31
0.0
  0
ARC
  5
E0
330
B2
100
AcDbEntity
  8
0
  6
Continuous
 62
     0
370
     0
100
AcDbCircle
 10
220.503534
 20
586.370516
 30
0.0
 40
1.5
100
AcDbArc
 50
90.0
 51
180.0
  0
LINE
  5
E1
330
B2
100
AcDbEntity
  8
0
  6
Continuous
 62
     0
370
     0
100
AcDbLine
 10
219.003534
 20
586.370516
 30
0.0
 11
219.003534
 21
519.370516
 31
0.0
  0
ARC
  5
E2
330
B2
100
AcDbEntity
  8
0
  6
Continuous
 62
     0
370
     0
100
AcDbCircle
 10
224.503534
 20
519.370533
 30
0.0
 40
5.500000000024514
100
AcDbArc
 50
180.000171
 51
359.999829
  0
LINE
  5
E3
330
B2
100
AcDbEntity
  8
0
  6
Continuous
 62
     0
370
     0
100
AcDbLine
 10
230.003534
 20
586.370516
 30
0.0
 11
230.003534
 21
519.370516
 31
0.0
  0
ARC
  5
E4
330
B2
100
AcDbEntity
  8
0
  6
Continuous
 62
     0
370
    30
100
AcDbCircle
 10
224.503534
 20
519.370532
 30
0.0
 40
6.000000000021538
100
AcDbArc
 50
180.000154
 51
359.999846
  0
LINE
  5
E5
330
B2
100
AcDbEntity
  8
0
  6
Continuous
 62
     0
370
     0
100
AcDbLine
 10
230.503534
 20
586.370516
 30
0.0
 11
230.003534
 21
586.370516
 31
0.0
  0
LINE
  5
E6
330
B2
100
AcDbEntity
  8
0
  6
Continuous
 62
     0
370
     0
100
AcDbLine
 10
230.003534
 20
519.370516
 30
0.0
 11
230.503534
 21
519.370516
 31
0.0
  0
LINE
  5
E7
330
B2
100
AcDbEntity
  8
0
  6
Continuous
 62
     0
370
    30
100
AcDbLine
 10
230.503534
 20
586.370516
 30
0.0
 11
230.503534
 21
519.370516
 31
0.0
  0
ARC
  5
E8
330
B2
100
AcDbEntity
  8
0
  6
Continuous
 62
     0
370
    30
100
AcDbCircle
 10
228.503534
 20
586.370516
 30
0.0
 40
2.0
100
AcDbArc
 50
0.0
 51
90.0
  0
LINE
  5
E9
330
B2
100
AcDbEntity
  8
0
  6
Continuous
 62
     0
370
     0
100
AcDbLine
 10
228.503534
 20
587.870516
 30
0.0
 11
228.503534
 21
588.370516
 31
0.0
  0
LINE
  5
EA
330
B2
100
AcDbEntity
  8
0
  6
Continuous
 62
     0
370
    30
100
AcDbLine
 10
228.503534
 20
588.370516
 30
0.0
 11
220.503534
 21
588.370516
 31
0.0
  0
LINE
  5
EB
330
B2
100
AcDbEntity
  8
0
  6
Continuous
 62
     0
370
     0
100
AcDbLine
 10
220.503534
 20
587.870516
 30
0.0
 11
220.503534
 21
588.370516
 31
0.0
  0
ARC
  5
EC
330
B2
100
AcDbEntity
  8
0
  6
Continuous
 62
     0
370
    30
100
AcDbCircle
 10
220.503534
 20
586.370516
 30
0.0
 40
2.0
100
AcDbArc
 50
90.0
 51
180.0
  0
LINE
  5
ED
330
B2
100
AcDbEntity
  8
0
  6
Continuous
 62
     0
370
     0
100
AcDbLine
 10
218.503534
 20
586.370516
 30
0.0
 11
219.003534
 21
586.370516
 31
0.0
  0
LINE
  5
EE
330
B2
100
AcDbEntity
  8
0
  6
Continuous
 62
     0
370
    30
100
AcDbLine
 10
218.503534
 20
586.370516
 30
0.0
 11
218.503534
 21
519.370516
 31
0.0
  0
LINE
  5
EF
330
B2
100
AcDbEntity
  8
0
  6
Continuous
 62
     0
370
     0
100
AcDbLine
 10
218.503534
 20
519.370516
 30
0.0
 11
219.003534
 21
519.370516
 31
0.0
  0
ARC
  5
F0
330
B2
100
AcDbEntity
  8
0
  6
Continuous
 62
     0
370
     0
100
AcDbCircle
 10
220.503534
 20
252.370516
 30
0.0
 40
1.5
100
AcDbArc
 50
180.0
 51
270.0
  0
LINE
  5
F1
330
B2
100
AcDbEntity
  8
0
  6
Continuous
 62
     0
370
     0
100
AcDbLine
 10
220.503534
 20
250.870516
 30
0.0
 11
228.503534
 21
250.870516
 31
0.0
  0
ARC
  5
F2
330
B2
100
AcDbEntity
  8
0
  6
Continuous
 62
     0
370
     0
100
AcDbCircle
 10
228.503534
 20
252.370516
 30
0.0
 40
1.5
100
AcDbArc
 50
270.0
 51
0.0
  0
LINE
  5
F3
330
B2
100
AcDbEntity
  8
0
  6
Continuous
 62
     0
370
     0
100
AcDbLine
 10
230.003534
 20
252.370516
 30
0.0
 11
230.003534
 21
319.370516
 31
0.0
  0
ARC
  5
F4
330
B2
100
AcDbEntity
  8
0
  6
Continuous
 62
     0
370
     0
100
AcDbCircle
 10
224.503534
 20
319.3705
 30
0.0
 40
5.500000000024515
100
AcDbArc
 50
0.000171
 51
179.999829
  0
LINE
  5
F5
330
B2
100
AcDbEntity
  8
0
  6
Continuous
 62
     0
370
     0
100
AcDbLine
 10
219.003534
 20
252.370516
 30
0.0
 11
219.003534
 21
319.370516
 31
0.0
  0
ARC
  5
F6
330
B2
100
AcDbEntity
  8
0
  6
Continuous
 62
     0
370
    30
100
AcDbCircle
 10
224.503534
 20
319.3705
 30
0.0
 40
6.000000000021538
100
AcDbArc
 50
0.000154
 51
179.999846
  0
LINE
  5
F7
330
B2
100
AcDbEntity
  8
0
  6
Continuous
 62
     0
370
     0
100
AcDbLine
 10
218.503534
 20
252.370516
 30
0.0
 11
219.003534
 21
252.370516
 31
0.0
  0
LINE
  5
F8
330
B2
100
AcDbEntity
  8
0
  6
Continuous
 62
     0
370
     0
100
AcDbLine
 10
219.003534
 20
319.370516
 30
0.0
 11
218.503534
 21
319.370516
 31
0.0
  0
LINE
  5
F9
330
B2
100
AcDbEntity
  8
0
  6
Continuous
 62
     0
370
    30
100
AcDbLine
 10
218.503534
 20
252.370516
 30
0.0
 11
218.503534
 21
319.370516
 31
0.0
  0
ARC
  5
FA
330
B2
100
AcDbEntity
  8
0
  6
Continuous
 62
     0
370
    30
100
AcDbCircle
 10
220.503534
 20
252.370516
 30
0.0
 40
2.0
100
AcDbArc
 50
180.0
 51
270.0
  0
LINE
  5
FB
330
B2
100
AcDbEntity
  8
0
  6
Continuous
 62
     0
370
     0
100
AcDbLine
 10
220.503534
 20
250.870516
 30
0.0
 11
220.503534
 21
250.370516
 31
0.0
  0
LINE
  5
FC
330
B2
100
AcDbEntity
  8
0
  6
Continuous
 62
     0
370
    30
100
AcDbLine
 10
220.503534
 20
250.370516
 30
0.0
 11
228.503534
 21
250.370516
 31
0.0
  0
LINE
  5
FD
330
B2
100
AcDbEntity
  8
0
  6
Continuous
 62
     0
370
     0
100
AcDbLine
 10
228.503534
 20
250.870516
 30
0.0
 11
228.503534
 21
250.370516
 31
0.0
  0
ARC
  5
FE
330
B2
100
AcDbEntity
  8
0
  6
Continuous
 62
     0
370
    30
100
AcDbCircle
 10
228.503534
 20
252.370516
 30
0.0
 40
2.0
100
AcDbArc
 50
270.0
 51
0.0
  0
LINE
  5
FF
330
B2
100
AcDbEntity
  8
0
  6
Continuous
 62
     0
370
     0
100
AcDbLine
 10
230.503534
 20
252.370516
 30
0.0
 11
230.003534
 21
252.370516
 31
0.0
  0
LINE
  5
100
330
B2
100
AcDbEntity
  8
0
  6
Continuous
 62
     0
370
    30
100
AcDbLine
 10
230.503534
 20
252.370516
 30
0.0
 11
230.503534
 21
319.370516
 31
0.0
  0
LINE
  5
101
330
B2
100
AcDbEntity
  8
0
  6
Continuous
 62
     0
370
     0
100
AcDbLine
 10
230.503534
 20
319.370516
 30
0.0
 11
230.003534
 21
319.370516
 31
0.0
  0
ENDBLK
  5
103
330
B2
100
AcDbEntity
  8
0
100
AcDbBlockEnd
  0
BLOCK
  5
1B7
330
105
100
AcDbEntity
  8
0
100
AcDbBlockBegin
  2
c
 70
     0
 10
21.257402
 20
103.131485
 30
0.0
  3
c
  1

  0
LINE
  5
106
330
105
100
AcDbEntity
  8
0
  6
Continuous
 62
     0
370
    30
100
AcDbLine
 10
386.938524
 20
722.552715
 30
0.0
 11
446.938524
 21
722.552715
 31
0.0
  0
LINE
  5
107
330
105
100
AcDbEntity
  8
0
  6
Continuous
 62
     0
370
    30
100
AcDbLine
 10
387.438524
 20
731.552715
 30
0.0
 11
446.438524
 21
731.552715
 31
0.0
  0
LINE
  5
108
330
105
100
AcDbEntity
  8
0
  6
Continuous
 62
     0
370
    30
100
AcDbLine
 10
446.938524
 20
722.552715
 30
0.0
 11
446.938524
 21
731.052715
 31
0.0
  0
LINE
  5
109
330
105
100
AcDbEntity
  8
0
  6
Continuous
 62
     0
370
     0
100
AcDbLine
 10
386.938524
 20
731.052715
 30
0.0
 11
446.938524
 21
731.052715
 31
0.0
  0
ARC
  5
10A
330
105
100
AcDbEntity
  8
0
  6
Continuous
 62
     0
370
    30
100
AcDbCircle
 10
446.438524
 20
731.052715
 30
0.0
 40
0.5
100
AcDbArc
 50
0.0
 51
90.0
  0
LINE
  5
10B
330
105
100
AcDbEntity
  8
0
  6
Continuous
 62
     0
370
    30
100
AcDbLine
 10
386.938524
 20
722.552715
 30
0.0
 11
386.938524
 21
731.052715
 31
0.0
  0
LINE
  5
10C
330
105
100
AcDbEntity
  8
0
  6
Continuous
 62
     0
370
    30
100
AcDbLine
 10
586.938524
 20
722.552715
 30
0.0
 11
646.938524
 21
722.552715
 31
0.0
  0
LINE
  5
10D
330
105
100
AcDbEntity
  8
0
  6
Continuous
 62
     0
370
    30
100
AcDbLine
 10
587.438524
 20
731.552715
 30
0.0
 11
646.438524
 21
731.552715
 31
0.0
  0
LINE
  5
10E
330
105
100
AcDbEntity
  8
0
  6
Continuous
 62
     0
370
    30
100
AcDbLine
 10
646.938524
 20
722.552715
 30
0.0
 11
646.938524
 21
731.052715
 31
0.0
  0
LINE
  5
10F
330
105
100
AcDbEntity
  8
0
  6
Continuous
 62
     0
370
     0
100
AcDbLine
 10
586.938524
 20
731.052715
 30
0.0
 11
646.938524
 21
731.052715
 31
0.0
  0
ARC
  5
110
330
105
100
AcDbEntity
  8
0
  6
Continuous
 62
     0
370
    30
100
AcDbCircle
 10
646.438524
 20
731.052715
 30
0.0
 40
0.5
100
AcDbArc
 50
0.0
 51
90.0
  0
LINE
  5
111
330
105
100
AcDbEntity
  8
0
  6
Continuous
 62
     0
370
    30
100
AcDbLine
 10
586.938524
 20
722.552715
 30
0.0
 11
586.938524
 21
731.052715
 31
0.0
  0
LINE
  5
112
330
105
100
AcDbEntity
  8
0
  6
Continuous
 62
     0
370
    30
100
AcDbLine
 10
486.938524
 20
722.552715
 30
0.0
 11
546.938524
 21
722.552715
 31
0.0
  0
LINE
  5
113
330
105
100
AcDbEntity
  8
0
  6
Continuous
 62
     0
370
    30
100
AcDbLine
 10
487.438524
 20
731.552715
 30
0.0
 11
546.438524
 21
731.552715
 31
0.0
  0
LINE
  5
114
330
105
100
AcDbEntity
  8
0
  6
Continuous
 62
     0
370
    30
100
AcDbLine
 10
546.938524
 20
722.552715
 30
0.0
 11
546.938524
 21
731.052715
 31
0.0
  0
LINE
  5
115
330
105
100
AcDbEntity
  8
0
  6
Continuous
 62
     0
370
     0
100
AcDbLine
 10
486.938524
 20
731.052715
 30
0.0
 11
546.938524
 21
731.052715
 31
0.0
  0
ARC
  5
116
330
105
100
AcDbEntity
  8
0
  6
Continuous
 62
     0
370
    30
100
AcDbCircle
 10
546.438524
 20
731.052715
 30
0.0
 40
0.5
100
AcDbArc
 50
0.0
 51
90.0
  0
LINE
  5
117
330
105
100
AcDbEntity
  8
0
  6
Continuous
 62
     0
370
    30
100
AcDbLine
 10
486.938524
 20
722.552715
 30
0.0
 11
486.938524
 21
731.052715
 31
0.0
  0
LINE
  5
118
330
105
100
AcDbEntity
  8
0
  6
Continuous
 62
     0
370
    30
100
AcDbLine
 10
700.438524
 20
750.552715
 30
0.0
 11
733.438524
 21
750.552715
 31
0.0
  0
LINE
  5
119
330
105
100
AcDbEntity
  8
0
  6
Continuous
 62
     0
370
    30
100
AcDbLine
 10
733.438524
 20
750.552715
 30
0.0
 11
733.438524
 21
768.008259
 31
0.0
  0
LINE
  5
11A
330
105
100
AcDbEntity
  8
0
  6
Continuous
 62
     0
370
     0
100
AcDbLine
 10
700.438524
 20
768.008259
 30
0.0
 11
733.438524
 21
768.008259
 31
0.0
  0
ARC
  5
11B
330
105
100
AcDbEntity
  8
0
  6
Continuous
 62
     0
370
    30
100
AcDbCircle
 10
732.938524
 20
768.008259
 30
0.0
 40
0.5
100
AcDbArc
 50
0.0
 51
83.243673
  0
LINE
  5
11C
330
105
100
AcDbEntity
  8
0
  6
Continuous
 62
     0
370
     0
100
AcDbLine
 10
700.879701
 20
768.504787
 30
0.0
 11
732.997348
 21
768.504787
 31
0.0
  0
ARC
  5
11D
330
105
100
AcDbEntity
  8
0
  6
Continuous
 62
     0
370
    30
100
AcDbCircle
 10
716.938524
 20
632.952715
 30
0.0
 40
136.5
100
AcDbArc
 50
83.243673
 51
90.0
  0
ARC
  5
11E
330
105
100
AcDbEntity
  8
0
  6
Continuous
 62
     0
370
    30
100
AcDbCircle
 10
716.938605
 20
632.951356
 30
0.0
 40
136.5013589215461
100
AcDbArc
 50
90.007461
 51
96.756293
  0
LINE
  5
11F
330
105
100
AcDbEntity
  8
0
  6
Continuous
 62
     0
370
    30
100
AcDbLine
 10
700.438524
 20
750.552715
 30
0.0
 11
700.438524
 21
768.008259
 31
0.0
  0
LINE
  5
120
330
105
100
AcDbEntity
  8
0
  6
Continuous
 62
     0
370
    30
100
AcDbLine
 10
505.938524
 20
731.552715
 30
0.0
 11
505.938524
 21
886.552729
 31
0.0
  0
LINE
  5
121
330
105
100
AcDbEntity
  8
0
  6
Continuous
 62
     0
370
     0
100
AcDbLine
 10
527.938524
 20
886.552729
 30
0.0
 11
505.938524
 21
886.552729
 31
0.0
  0
LINE
  5
122
330
105
100
AcDbEntity
  8
0
  6
Continuous
 62
     0
370
    30
100
AcDbLine
 10
505.938528
 20
966.552729
 30
0.0
 11
505.938528
 21
911.274066
 31
0.0
  0
LINE
  5
123
330
105
100
AcDbEntity
  8
0
  6
Continuous
 62
     0
370
    30
100
AcDbLine
 10
505.938528
 20
886.552729
 30
0.0
 11
505.938528
 21
891.411163
 31
0.0
  0
ELLIPSE
  5
124
330
105
100
AcDbEntity
  8
0
  6
Continuous
 62
     0
370
     0
100
AcDbEllipse
 10
516.938531
 20
911.274066
 30
0.0
 11
-11.0
 21
-1.562294424551467E-7
 31
0.0
210
0.0
220
0.0
230
-1.0
 40
0.309017
 41
0.0000000459608691
 42
3.141592699550662
  0
LINE
  5
125
330
105
100
AcDbEntity
  8
0
  6
Continuous
 62
     0
370
    30
100
AcDbLine
 10
505.938531
 20
911.274066
 30
0.0
 11
505.938531
 21
891.411163
 31
0.0
  0
ELLIPSE
  5
126
330
105
100
AcDbEntity
  8
0
  6
Continuous
 62
     0
370
    30
100
AcDbEllipse
 10
516.938531
 20
891.411163
 30
0.0
 11
-11.0
 21
-1.562294424551467E-7
 31
0.0
210
0.0
220
0.0
230
-1.0
 40
0.309017
 41
0.0000000459608691
 42
3.141592699550662
  0
ELLIPSE
  5
127
330
105
100
AcDbEntity
  8
0
  6
Continuous
 62
     0
370
    30
100
AcDbEllipse
 10
516.938531
 20
891.411163
 30
0.0
 11
-11.0
 21
-1.562294424551467E-7
 31
0.0
210
0.0
220
0.0
230
-1.0
 40
0.309017
 41
3.141592699550662
 42
6.283185353140455
  0
ELLIPSE
  5
128
330
105
100
AcDbEntity
  8
0
  6
Continuous
 62
     0
370
    30
100
AcDbEllipse
 10
516.938531
 20
891.411163
 30
0.0
 11
8.5
 21
1.207227509880679E-7
 31
0.0
210
0.0
220
0.0
230
1.0
 40
0.309017
 41
3.141592607628924
 42
6.283185261218717
  0
ELLIPSE
  5
129
330
105
100
AcDbEntity
  8
0
  6
Continuous
 62
     0
370
    30
100
AcDbEllipse
 10
516.938531
 20
891.411163
 30
0.0
 11
8.5
 21
1.207227509880679E-7
 31
0.0
210
0.0
220
0.0
230
1.0
 40
0.309017
 41
-0.0000000459608689
 42
3.141592607628924
  0
LINE
  5
12A
330
105
100
AcDbEntity
  8
0
  6
Continuous
 62
     0
370
    30
100
AcDbLine
 10
527.938531
 20
891.411163
 30
0.0
 11
527.938531
 21
911.274066
 31
0.0
  0
ARC
  5
12B
330
105
100
AcDbEntity
  8
0
  6
Continuous
 62
     0
370
    30
100
AcDbCircle
 10
516.93835
 20
966.551923
 30
0.0
 40
10.99982229576803
100
AcDbArc
 50
359.951543
 51
179.963386
  0
LINE
  5
12C
330
105
100
AcDbEntity
  8
0
  6
Continuous
 62
     0
370
    30
100
AcDbLine
 10
527.938524
 20
891.411163
 30
0.0
 11
527.938524
 21
886.552729
 31
0.0
  0
LINE
  5
12D
330
105
100
AcDbEntity
  8
0
  6
Continuous
 62
     0
370
    30
100
AcDbLine
 10
527.938531
 20
911.274066
 30
0.0
 11
527.938528
 21
966.547339
 31
0.0
  0
LINE
  5
12E
330
105
100
AcDbEntity
  8
0
  6
Continuous
 62
     0
370
    30
100
AcDbLine
 10
527.938524
 20
886.552729
 30
0.0
 11
527.938524
 21
731.552715
 31
0.0
  0
LINE
  5
12F
330
105
100
AcDbEntity
  8
0
  6
Continuous
 62
     0
370
    30
100
AcDbLine
 10
686.937841
 20
731.552715
 30
0.0
 11
746.939207
 21
731.552715
 31
0.0
  0
LINE
  5
130
330
105
100
AcDbEntity
  8
0
  6
Continuous
 62
     0
370
    30
100
AcDbLine
 10
746.939207
 20
731.552715
 30
0.0
 11
746.939207
 21
741.052715
 31
0.0
  0
LINE
  5
131
330
105
100
AcDbEntity
  8
0
  6
Continuous
 62
     0
370
     0
100
AcDbLine
 10
686.937841
 20
741.052715
 30
0.0
 11
746.939207
 21
741.052715
 31
0.0
  0
ARC
  5
132
330
105
100
AcDbEntity
  8
0
  6
Continuous
 62
     0
370
    30
100
AcDbCircle
 10
746.439207
 20
741.052715
 30
0.0
 40
0.5
100
AcDbArc
 50
0.0
 51
90.0
  0
LINE
  5
133
330
105
100
AcDbEntity
  8
0
  6
Continuous
 62
     0
370
    30
100
AcDbLine
 10
687.437841
 20
741.552715
 30
0.0
 11
746.439207
 21
741.552715
 31
0.0
  0
LINE
  5
134
330
105
100
AcDbEntity
  8
0
  6
Continuous
 62
     0
370
    30
100
AcDbLine
 10
701.939154
 20
741.552715
 30
0.0
 11
687.437841
 21
741.552715
 31
0.0
  0
LINE
  5
135
330
105
100
AcDbEntity
  8
0
  6
Continuous
 62
     0
370
    30
100
AcDbLine
 10
746.439207
 20
741.552715
 30
0.0
 11
731.938105
 21
741.552715
 31
0.0
  0
ARC
  5
136
330
105
100
AcDbEntity
  8
0
  6
Continuous
 62
     0
370
    30
100
AcDbCircle
 10
731.938106
 20
743.052715
 30
0.0
 40
1.5
100
AcDbArc
 50
180.0
 51
270.0
  0
LINE
  5
137
330
105
100
AcDbEntity
  8
0
  6
Continuous
 62
     0
370
     0
100
AcDbLine
 10
703.438942
 20
743.052715
 30
0.0
 11
730.438106
 21
743.052715
 31
0.0
  0
LINE
  5
138
330
105
100
AcDbEntity
  8
0
  6
Continuous
 62
     0
370
    30
100
AcDbLine
 10
730.438106
 20
743.052715
 30
0.0
 11
730.438106
 21
750.552715
 31
0.0
  0
LINE
  5
139
330
105
100
AcDbEntity
  8
0
  6
Continuous
 62
     0
370
    30
100
AcDbLine
 10
703.438942
 20
743.052715
 30
0.0
 11
703.438942
 21
750.552715
 31
0.0
  0
ARC
  5
13A
330
105
100
AcDbEntity
  8
0
  6
Continuous
 62
     0
370
    30
100
AcDbCircle
 10
701.938553
 20
743.053105
 30
0.0
 40
1.500389978289838
100
AcDbArc
 50
270.022991
 51
359.985112
  0
LINE
  5
13B
330
105
100
AcDbEntity
  8
0
  6
Continuous
 62
     0
370
    30
100
AcDbLine
 10
686.937841
 20
731.552715
 30
0.0
 11
686.937841
 21
741.052715
 31
0.0
  0
LINE
  5
13C
330
105
100
AcDbEntity
  8
0
  6
Continuous
 62
     0
370
    30
100
AcDbLine
 10
846.938524
 20
741.552715
 30
0.0
 11
816.938526
 21
741.552715
 31
0.0
  0
LINE
  5
13D
330
105
100
AcDbEntity
  8
0
  6
Continuous
 62
     0
370
    30
100
AcDbLine
 10
816.938526
 20
741.552715
 30
0.0
 11
786.938524
 21
741.552715
 31
0.0
  0
LINE
  5
13E
330
105
100
AcDbEntity
  8
0
  6
Continuous
 62
     0
370
    30
100
AcDbLine
 10
816.938526
 20
731.552715
 30
0.0
 11
786.938524
 21
731.552715
 31
0.0
  0
LINE
  5
13F
330
105
100
AcDbEntity
  8
0
  6
Continuous
 62
     0
370
    30
100
AcDbLine
 10
846.938524
 20
731.552715
 30
0.0
 11
816.938526
 21
731.552715
 31
0.0
  0
LINE
  5
140
330
105
100
AcDbEntity
  8
0
  6
Continuous
 62
     0
370
    30
100
AcDbLine
 10
802.938524
 20
741.552715
 30
0.0
 11
802.938524
 21
753.552715
 31
0.0
  0
LINE
  5
141
330
105
100
AcDbEntity
  8
0
  6
Continuous
 62
     0
370
    30
100
AcDbLine
 10
830.938524
 20
741.552715
 30
0.0
 11
830.938524
 21
753.552715
 31
0.0
  0
LINE
  5
142
330
105
100
AcDbEntity
  8
0
  6
Continuous
 62
     0
370
    30
100
AcDbLine
 10
846.938524
 20
741.552715
 30
0.0
 11
846.938524
 21
731.552715
 31
0.0
  0
LINE
  5
143
330
105
100
AcDbEntity
  8
0
  6
Continuous
 62
     0
370
    30
100
AcDbLine
 10
786.938524
 20
741.552715
 30
0.0
 11
786.938524
 21
731.552715
 31
0.0
  0
LWPOLYLINE
  5
144
330
105
100
AcDbEntity
  8
0
  6
Continuous
 62
     0
370
     0
100
AcDbPolyline
 90
       24
 70
     0
 43
0.0
 10
808.197205
 20
896.418213
 10
808.218628
 20
895.717285
 10
808.270935
 20
895.019287
 10
808.354248
 20
894.326355
 10
808.468567
 20
893.640625
 10
808.613831
 20
892.964111
 10
808.790344
 20
892.298523
 10
808.99823
 20
891.64563
 10
809.237854
 20
891.006897
 10
809.509705
 20
890.383911
 10
809.814331
 20
889.77832
 10
810.152649
 20
889.192505
 10
810.525391
 20
888.628479
 10
810.933533
 20
888.088684
 10
811.377808
 20
887.575867
 10
811.858887
 20
887.094116
 10
812.377441
 20
886.6474
 10
812.933411
 20
886.240845
 10
813.526367
 20
885.880066
 10
814.154175
 20
885.571289
 10
814.812927
 20
885.32135
 10
815.498169
 20
885.136902
 10
816.202454
 20
885.022583
 10
816.938477
 20
884.981995
  0
LINE
  5
145
330
105
100
AcDbEntity
  8
0
  6
Continuous
 62
     0
370
     0
100
AcDbLine
 10
806.717177
 20
896.41186
 30
0.0
 11
808.197196
 21
896.418185
 31
0.0
  0
LWPOLYLINE
  5
146
330
105
100
AcDbEntity
  8
0
  6
Continuous
 62
     0
370
     0
100
AcDbPolyline
 90
       24
 70
     0
 43
0.0
 10
806.717163
 20
896.411865
 10
806.743713
 20
895.646118
 10
806.808838
 20
894.884094
 10
806.912354
 20
894.128784
 10
807.053955
 20
893.382935
 10
807.233093
 20
892.649109
 10
807.449524
 20
891.92926
 10
807.703247
 20
891.225159
 10
807.99408
 20
890.538635
 10
808.322083
 20
889.871399
 10
808.687378
 20
889.22522
 10
809.090637
 20
888.601929
 10
809.532471
 20
888.00354
 10
810.013794
 20
887.432434
 10
810.535278
 20
886.891663
 10
811.097717
 20
886.38501
 10
811.701538
 20
885.916382
 10
812.346741
 20
885.490845
 10
813.032593
 20
885.114136
 10
813.756897
 20
884.792542
 10
814.515442
 20
884.532776
 10
815.30304
 20
884.341248
 10
816.111572
 20
884.223572
 10
816.938538
 20
884.183411
  0
LINE
  5
147
330
105
100
AcDbEntity
  8
0
  6
Continuous
 62
     0
370
     0
100
AcDbLine
 10
816.938525
 20
884.183387
 30
0.0
 11
816.938492
 21
884.982023
 31
0.0
  0
LINE
  5
148
330
105
100
AcDbEntity
  8
0
  6
Continuous
 62
     0
370
     0
100
AcDbLine
 10
806.717177
 20
896.41186
 30
0.0
 11
806.717177
 21
946.053152
 31
0.0
  0
LINE
  5
149
330
105
100
AcDbEntity
  8
0
  6
Continuous
 62
     0
370
     0
100
AcDbLine
 10
808.197236
 20
896.418185
 30
0.0
 11
808.197236
 21
916.858551
 31
0.0
  0
LINE
  5
14A
330
105
100
AcDbEntity
  8
0
  6
Continuous
 62
     0
370
    30
100
AcDbLine
 10
808.197236
 20
916.858551
 30
0.0
 11
808.197236
 21
925.247777
 31
0.0
  0
LINE
  5
14B
330
105
100
AcDbEntity
  8
0
  6
Continuous
 62
     0
370
     0
100
AcDbLine
 10
808.197236
 20
925.247777
 30
0.0
 11
808.197236
 21
946.053152
 31
0.0
  0
LINE
  5
14C
330
105
100
AcDbEntity
  8
0
  6
Continuous
 62
     0
370
     0
100
AcDbLine
 10
808.197236
 20
946.053152
 30
0.0
 11
806.717177
 21
946.053152
 31
0.0
  0
LINE
  5
14D
330
105
100
AcDbEntity
  8
0
  6
Continuous
 62
     0
370
     0
100
AcDbLine
 10
827.159872
 20
946.199919
 30
0.0
 11
825.679857
 21
946.19331
 31
0.0
  0
LWPOLYLINE
  5
14E
330
105
100
AcDbEntity
  8
0
  6
Continuous
 62
     0
370
     0
100
AcDbPolyline
 90
       24
 70
     0
 43
0.0
 10
827.159851
 20
946.19989
 10
827.133057
 20
946.965332
 10
827.067688
 20
947.727051
 10
826.963867
 20
948.481995
 10
826.822083
 20
949.227539
 10
826.642761
 20
949.960999
 10
826.426147
 20
950.680481
 10
826.172363
 20
951.384216
 10
825.881409
 20
952.070435
 10
825.553345
 20
952.737305
 10
825.187988
 20
953.383118
 10
824.784729
 20
954.006104
 10
824.342896
 20
954.604187
 10
823.861572
 20
955.174927
 10
823.340149
 20
955.715393
 10
822.777832
 20
956.221802
 10
822.174133
 20
956.690125
 10
821.529114
 20
957.115479
 10
820.843384
 20
957.491943
 10
820.119324
 20
957.813293
 10
819.361023
 20
958.072937
 10
818.573669
 20
958.264343
 10
817.765503
 20
958.381958
 10
816.938538
 20
958.422119
  0
LINE
  5
14F
330
105
100
AcDbEntity
  8
0
  6
Continuous
 62
     0
370
     0
100
AcDbLine
 10
816.938561
 20
957.623503
 30
0.0
 11
816.938525
 21
958.422138
 31
0.0
  0
LWPOLYLINE
  5
150
330
105
100
AcDbEntity
  8
0
  6
Continuous
 62
     0
370
     0
100
AcDbPolyline
 90
       24
 70
     0
 43
0.0
 10
825.679871
 20
946.193298
 10
825.658203
 20
946.893921
 10
825.605591
 20
947.591675
 10
825.522095
 20
948.284241
 10
825.407654
 20
948.969666
 10
825.262207
 20
949.645874
 10
825.085571
 20
950.311096
 10
824.877563
 20
950.963684
 10
824.637817
 20
951.602051
 10
824.365967
 20
952.224731
 10
824.061279
 20
952.829956
 10
823.722961
 20
953.415527
 10
823.350159
 20
953.979187
 10
822.942078
 20
954.518677
 10
822.497864
 20
955.031189
 10
822.016846
 20
955.512695
 10
821.498413
 20
955.959106
 10
820.942505
 20
956.365479
 10
820.349731
 20
956.726013
 10
819.722107
 20
957.034546
 10
819.06366
 20
957.284363
 10
818.378601
 20
957.468689
 10
817.674622
 20
957.582947
 10
816.938538
 20
957.623474
  0
LINE
  5
151
330
105
100
AcDbEntity
  8
0
  6
Continuous
 62
     0
370
     0
100
AcDbLine
 10
825.679813
 20
896.552327
 30
0.0
 11
827.159872
 21
896.552327
 31
0.0
  0
LINE
  5
152
330
105
100
AcDbEntity
  8
0
  6
Continuous
 62
     0
370
     0
100
AcDbLine
 10
827.159872
 20
896.552327
 30
0.0
 11
827.159872
 21
946.199919
 31
0.0
  0
LINE
  5
153
330
105
100
AcDbEntity
  8
0
  6
Continuous
 62
     0
370
     0
100
AcDbLine
 10
825.679813
 20
925.247666
 30
0.0
 11
825.679813
 21
946.19331
 31
0.0
  0
LINE
  5
154
330
105
100
AcDbEntity
  8
0
  6
Continuous
 62
     0
370
    30
100
AcDbLine
 10
825.72077
 20
920.925111
 30
0.0
 11
825.679813
 21
925.247666
 31
0.0
  0
LINE
  5
155
330
105
100
AcDbEntity
  8
0
  6
Continuous
 62
     0
370
    30
100
AcDbLine
 10
825.72077
 20
920.925111
 30
0.0
 11
825.679813
 21
916.857764
 31
0.0
  0
LINE
  5
156
330
105
100
AcDbEntity
  8
0
  6
Continuous
 62
     0
370
     0
100
AcDbLine
 10
825.679813
 20
896.552327
 30
0.0
 11
825.679813
 21
916.857764
 31
0.0
  0
LWPOLYLINE
  5
157
330
105
100
AcDbEntity
  8
0
  6
Continuous
 62
     0
370
     0
100
AcDbPolyline
 90
       24
 70
     0
 43
0.0
 10
808.197266
 20
946.053162
 10
808.213013
 20
946.760376
 10
808.260254
 20
947.465149
 10
808.338989
 20
948.1651
 10
808.449219
 20
948.858032
 10
808.591003
 20
949.541931
 10
808.764465
 20
950.214966
 10
808.96991
 20
950.875366
 10
809.20752
 20
951.521545
 10
809.477905
 20
952.151855
 10
809.781616
 20
952.764465
 10
810.119446
 20
953.357361
 10
810.492188
 20
953.928467
 10
810.900757
 20
954.475342
 10
811.346069
 20
954.994751
 10
811.828918
 20
955.482849
 10
812.349792
 20
955.935486
 10
812.908813
 20
956.347656
 10
813.505432
 20
956.713562
 10
814.137634
 20
957.026733
 10
814.801392
 20
957.280212
 10
815.49231
 20
957.467163
 10
816.202576
 20
957.582886
 10
816.938538
 20
957.623474
  0
LINE
  5
158
330
105
100
AcDbEntity
  8
0
  6
Continuous
 62
     0
370
     0
100
AcDbLine
 10
808.197236
 20
946.053152
 30
0.0
 11
809.614827
 21
946.053152
 31
0.0
  0
LWPOLYLINE
  5
159
330
105
100
AcDbEntity
  8
0
  6
Continuous
 62
     0
370
    30
100
AcDbPolyline
 90
       19
 70
     0
 43
0.0
 10
809.614807
 20
946.053162
 10
809.708923
 20
946.698547
 10
809.84082
 20
947.340698
 10
810.010925
 20
947.975708
 10
810.21936
 20
948.599915
 10
810.466125
 20
949.209656
 10
810.751038
 20
949.80127
 10
811.073975
 20
950.371033
 10
811.434753
 20
950.915405
 10
811.833252
 20
951.430725
 10
812.269043
 20
951.913086
 10
812.741638
 20
952.358032
 10
813.250366
 20
952.76123
 10
813.794128
 20
953.117432
 10
814.370605
 20
953.421021
 10
814.975952
 20
953.666199
 10
815.60553
 20
953.847412
 10
816.252686
 20
953.959778
 10
816.938538
 20
953.999939
  0
LWPOLYLINE
  5
15A
330
105
100
AcDbEntity
  8
0
  6
Continuous
 62
     0
370
    30
100
AcDbPolyline
 90
       19
 70
     0
 43
0.0
 10
816.938538
 20
953.999939
 10
817.587708
 20
953.96405
 10
818.22821
 20
953.857483
 10
818.851746
 20
953.683167
 10
819.452515
 20
953.445984
 10
820.02533
 20
953.151367
 10
820.566223
 20
952.804871
 10
821.073425
 20
952.411621
 10
821.545532
 20
951.976807
 10
821.981567
 20
951.505249
 10
822.381165
 20
951.000793
 10
822.744019
 20
950.467224
 10
823.069885
 20
949.908264
 10
823.358704
 20
949.327332
 10
823.610291
 20
948.727966
 10
823.824402
 20
948.113708
 10
824.000977
 20
947.488159
 10
824.14032
 20
946.854858
 10
824.247192
 20
946.181458
  0
LINE
  5
15B
330
105
100
AcDbEntity
  8
0
  6
Continuous
 62
     0
370
     0
100
AcDbLine
 10
825.679855
 20
946.193554
 30
0.0
 11
824.247213
 21
946.181487
 31
0.0
  0
LWPOLYLINE
  5
15C
330
105
100
AcDbEntity
  8
0
  6
Continuous
 62
     0
370
     0
100
AcDbPolyline
 90
       24
 70
     0
 43
0.0
 10
806.717163
 20
946.053162
 10
806.736877
 20
946.825562
 10
806.795898
 20
947.594727
 10
806.894043
 20
948.357605
 10
807.030945
 20
949.111267
 10
807.205994
 20
949.853088
 10
807.419128
 20
950.580994
 10
807.670105
 20
951.293091
 10
807.958862
 20
951.987549
 10
808.285278
 20
952.662598
 10
808.649658
 20
953.316406
 10
809.052551
 20
953.947205
 10
809.494629
 20
954.552856
 10
809.976746
 20
955.13092
 10
810.499634
 20
955.678467
 10
811.064087
 20
956.19165
 10
811.670593
 20
956.666382
 10
812.319214
 20
957.097595
 10
813.009338
 20
957.479431
 10
813.738525
 20
957.80542
 10
814.502563
 20
958.068787
 10
815.296387
 20
958.262817
 10
816.11145
 20
958.381836
 10
816.938538
 20
958.422119
  0
LWPOLYLINE
  5
15D
330
105
100
AcDbEntity
  8
0
  6
Continuous
 62
     0
370
     0
100
AcDbPolyline
 90
       24
 70
     0
 43
0.0
 10
827.159851
 20
896.552307
 10
827.140137
 20
895.779907
 10
827.081116
 20
895.010742
 10
826.982971
 20
894.247864
 10
826.84613
 20
893.494202
 10
826.671021
 20
892.75238
 10
826.457947
 20
892.024536
 10
826.20697
 20
891.312439
 10
825.918213
 20
890.61792
 10
825.591797
 20
889.942871
 10
825.227417
 20
889.289124
 10
824.824524
 20
888.658325
 10
824.382446
 20
888.052673
 10
823.90033
 20
887.474548
 10
823.37738
 20
886.927002
 10
822.812988
 20
886.413879
 10
822.206421
 20
885.939148
 10
821.557861
 20
885.507935
 10
820.867737
 20
885.126099
 10
820.13855
 20
884.80011
 10
819.374451
 20
884.536743
 10
818.580688
 20
884.342712
 10
817.765564
 20
884.223694
 10
816.938538
 20
884.183411
  0
ARC
  5
15E
330
105
100
AcDbEntity
  8
0
  6
Continuous
 62
     0
370
    30
100
AcDbCircle
 10
1024.044266
 20
920.991844
 30
0.0
 40
215.88898338269
100
AcDbArc
 50
173.333834
 51
178.870425
  0
LINE
  5
15F
330
105
100
AcDbEntity
  8
0
  6
Continuous
 62
     0
370
     0
100
AcDbLine
 10
808.197198
 20
896.417951
 30
0.0
 11
809.571185
 21
896.429007
 31
0.0
  0
ARC
  5
160
330
105
100
AcDbEntity
  8
0
  6
Continuous
 62
     0
370
    30
100
AcDbCircle
 10
1023.962445
 20
921.10848
 30
0.0
 40
215.8070605909879
100
AcDbArc
 50
181.12841
 51
186.566644
  0
LWPOLYLINE
  5
161
330
105
100
AcDbEntity
  8
0
  6
Continuous
 62
     0
370
     0
100
AcDbPolyline
 90
       24
 70
     0
 43
0.0
 10
825.67981
 20
896.552307
 10
825.664062
 20
895.845154
 10
825.616821
 20
895.140381
 10
825.538086
 20
894.440369
 10
825.427856
 20
893.747437
 10
825.286011
 20
893.063538
 10
825.112549
 20
892.390503
 10
824.907166
 20
891.730103
 10
824.669495
 20
891.083984
 10
824.39917
 20
890.453674
 10
824.095459
 20
889.841064
 10
823.757629
 20
889.248169
 10
823.384888
 20
888.677002
 10
822.976318
 20
888.130127
 10
822.530945
 20
887.610718
 10
822.048157
 20
887.122681
 10
821.527283
 20
886.669983
 10
820.968262
 20
886.257812
 10
820.371582
 20
885.891907
 10
819.739441
 20
885.578796
 10
819.075684
 20
885.325317
 10
818.384766
 20
885.138367
 10
817.6745
 20
885.022644
 10
816.938477
 20
884.981995
  0
LINE
  5
162
330
105
100
AcDbEntity
  8
0
  6
Continuous
 62
     0
370
     0
100
AcDbLine
 10
825.679813
 20
896.552327
 30
0.0
 11
824.319996
 21
896.552327
 31
0.0
  0
LWPOLYLINE
  5
163
330
105
100
AcDbEntity
  8
0
  6
Continuous
 62
     0
370
    30
100
AcDbPolyline
 90
       19
 70
     0
 43
0.0
 10
824.320007
 20
896.552307
 10
824.226379
 20
895.900146
 10
824.094421
 20
895.251282
 10
823.923767
 20
894.609619
 10
823.714355
 20
893.979004
 10
823.466125
 20
893.363037
 10
823.17926
 20
892.765381
 10
822.853882
 20
892.189758
 10
822.490234
 20
891.639832
 10
822.08844
 20
891.119324
 10
821.648865
 20
890.632141
 10
821.171997
 20
890.182617
 10
820.658569
 20
889.775391
 10
820.109741
 20
889.415649
 10
819.52771
 20
889.10907
 10
818.916504
 20
888.861511
 10
818.280762
 20
888.678711
 10
817.627197
 20
888.565491
 10
816.938538
 20
888.52533
  0
LWPOLYLINE
  5
164
330
105
100
AcDbEntity
  8
0
  6
Continuous
 62
     0
370
    30
100
AcDbPolyline
 90
       19
 70
     0
 43
0.0
 10
816.938538
 20
888.52533
 10
816.282654
 20
888.561646
 10
815.635559
 20
888.669495
 10
815.005676
 20
888.845947
 10
814.398926
 20
889.08606
 10
813.820496
 20
889.384216
 10
813.274536
 20
889.734863
 10
812.762756
 20
890.132751
 10
812.286438
 20
890.572571
 10
811.846741
 20
891.049561
 10
811.444031
 20
891.559753
 10
811.078491
 20
892.099365
 10
810.750427
 20
892.664673
 10
810.4599
 20
893.252136
 10
810.207153
 20
893.858276
 10
809.992371
 20
894.47937
 10
809.815552
 20
895.111938
 10
809.676636
 20
895.752319
 10
809.571167
 20
896.429016
  0
ARC
  5
165
330
105
100
AcDbEntity
  8
0
  6
Continuous
 62
     0
370
    30
100
AcDbCircle
 10
609.868351
 20
920.994563
 30
0.0
 40
215.8533669695521
100
AcDbArc
 50
1.12901
 51
6.700835
  0
ARC
  5
166
330
105
100
AcDbEntity
  8
0
  6
Continuous
 62
     0
370
    30
100
AcDbCircle
 10
609.938959
 20
921.107273
 30
0.0
 40
215.782702699547
100
AcDbArc
 50
353.465885
 51
358.871575
  0
LINE
  5
167
330
105
100
AcDbEntity
  8
0
  6
Continuous
 62
     0
370
    30
100
AcDbLine
 10
800.838524
 20
753.552715
 30
0.0
 11
816.938525
 21
753.552715
 31
0.0
  0
LINE
  5
168
330
105
100
AcDbEntity
  8
0
  6
Continuous
 62
     0
370
    30
100
AcDbLine
 10
816.938525
 20
753.552715
 30
0.0
 11
833.038524
 21
753.552715
 31
0.0
  0
ARC
  5
169
330
105
100
AcDbEntity
  8
0
  6
Continuous
 62
     0
370
    30
100
AcDbCircle
 10
816.938481
 20
896.552672
 30
0.0
 40
13.49995677533293
100
AcDbArc
 50
179.999817
 51
270.000185
  0
ARC
  5
16A
330
105
100
AcDbEntity
  8
0
  6
Continuous
 62
     0
370
    30
100
AcDbCircle
 10
816.938568
 20
896.552671
 30
0.0
 40
13.49995612894018
100
AcDbArc
 50
269.999815
 51
0.000186
  0
LINE
  5
16B
330
105
100
AcDbEntity
  8
0
  6
Continuous
 62
     0
370
    30
100
AcDbLine
 10
830.438525
 20
946.052715
 30
0.0
 11
830.438525
 21
896.552715
 31
0.0
  0
ARC
  5
16C
330
105
100
AcDbEntity
  8
0
  6
Continuous
 62
     0
370
    30
100
AcDbCircle
 10
816.938589
 20
946.05278
 30
0.0
 40
13.49993511579096
100
AcDbArc
 50
359.999725
 51
90.000274
  0
ARC
  5
16D
330
105
100
AcDbEntity
  8
0
  6
Continuous
 62
     0
370
    30
100
AcDbCircle
 10
816.938406
 20
946.052834
 30
0.0
 40
13.49988093812348
100
AcDbArc
 50
89.999493
 51
180.000505
  0
LINE
  5
16E
330
105
100
AcDbEntity
  8
0
  6
Continuous
 62
     0
370
    30
100
AcDbLine
 10
803.438525
 20
896.552715
 30
0.0
 11
803.438525
 21
946.052715
 31
0.0
  0
LINE
  5
16F
330
105
100
AcDbEntity
  8
0
  6
Continuous
 62
     0
370
     0
100
AcDbLine
 10
801.205047
 20
963.554461
 30
0.0
 11
816.938525
 21
963.554461
 31
0.0
  0
LINE
  5
170
330
105
100
AcDbEntity
  8
0
  6
Continuous
 62
     0
370
     0
100
AcDbLine
 10
816.938525
 20
963.554461
 30
0.0
 11
832.672002
 21
963.554461
 31
0.0
  0
LINE
  5
171
330
105
100
AcDbEntity
  8
0
  6
Continuous
 62
     0
370
    30
100
AcDbLine
 10
816.938525
 20
964.552715
 30
0.0
 11
831.672003
 21
964.552715
 31
0.0
  0
LINE
  5
172
330
105
100
AcDbEntity
  8
0
  6
Continuous
 62
     0
370
    30
100
AcDbLine
 10
802.205045
 20
964.552715
 30
0.0
 11
816.938525
 21
964.552715
 31
0.0
  0
ARC
  5
173
330
105
100
AcDbEntity
  8
0
  6
Continuous
 62
     0
370
    30
100
AcDbCircle
 10
802.208494
 20
963.54926
 30
0.0
 40
1.003461100334798
100
AcDbArc
 50
90.20265
 51
179.703079
  0
ARC
  5
174
330
105
100
AcDbEntity
  8
0
  6
Continuous
 62
     0
370
    30
100
AcDbCircle
 10
831.668554
 20
963.54926
 30
0.0
 40
1.003461100333013
100
AcDbArc
 50
0.296921
 51
89.79735
  0
LINE
  5
175
330
105
100
AcDbEntity
  8
0
  6
Continuous
 62
     0
370
    30
100
AcDbLine
 10
833.038524
 20
753.552715
 30
0.0
 11
832.672002
 21
963.554461
 31
0.0
  0
LINE
  5
176
330
105
100
AcDbEntity
  8
0
  6
Continuous
 62
     0
370
    30
100
AcDbLine
 10
800.838524
 20
753.552715
 30
0.0
 11
801.205047
 21
963.554461
 31
0.0
  0
LINE
  5
177
330
105
100
AcDbEntity
  8
0
  6
Continuous
 62
     0
370
     0
100
AcDbLine
 10
416.938525
 20
762.552715
 30
0.0
 11
410.938524
 21
762.552715
 31
0.0
  0
LINE
  5
178
330
105
100
AcDbEntity
  8
0
  6
Continuous
 62
     0
370
     0
100
AcDbLine
 10
416.938525
 20
762.552715
 30
0.0
 11
416.938525
 21
764.552715
 31
0.0
  0
LINE
  5
179
330
105
100
AcDbEntity
  8
0
  6
Continuous
 62
     0
370
     0
100
AcDbLine
 10
410.938662
 20
764.552715
 30
0.0
 11
416.938525
 21
764.552715
 31
0.0
  0
LINE
  5
17A
330
105
100
AcDbEntity
  8
0
  6
Continuous
 62
     0
370
    30
100
AcDbLine
 10
349.938524
 20
788.552715
 30
0.0
 11
348.438524
 21
788.552715
 31
0.0
  0
LINE
  5
17B
330
105
100
AcDbEntity
  8
0
  6
Continuous
 62
     0
370
    30
100
AcDbLine
 10
349.938524
 20
788.552715
 30
0.0
 11
416.938524
 21
788.552715
 31
0.0
  0
LINE
  5
17C
330
105
100
AcDbEntity
  8
0
  6
Continuous
 62
     0
370
    30
100
AcDbLine
 10
416.938524
 20
788.552715
 30
0.0
 11
422.438508
 21
788.552715
 31
0.0
  0
LWPOLYLINE
  5
17D
330
105
100
AcDbEntity
  8
0
  6
Continuous
 62
     0
370
     0
100
AcDbPolyline
 90
       15
 70
     0
 43
0.0
 10
422.938538
 20
762.552734
 10
422.90097
 20
762.552734
 10
422.788788
 20
762.552734
 10
422.603363
 20
762.552734
 10
422.347015
 20
762.552734
 10
422.02298
 20
762.552734
 10
421.635284
 20
762.552734
 10
421.188782
 20
762.552734
 10
420.689087
 20
762.552734
 10
420.142456
 20
762.552734
 10
419.555695
 20
762.552734
 10
418.936188
 20
762.552734
 10
418.291687
 20
762.552734
 10
417.630219
 20
762.552734
 10
416.938538
 20
762.552734
  0
LINE
  5
17E
330
105
100
AcDbEntity
  8
0
  6
Continuous
 62
     0
370
     0
100
AcDbLine
 10
416.938525
 20
788.052715
 30
0.0
 11
422.938508
 21
788.052715
 31
0.0
  0
LINE
  5
17F
330
105
100
AcDbEntity
  8
0
  6
Continuous
 62
     0
370
     0
100
AcDbLine
 10
416.938525
 20
764.552715
 30
0.0
 11
416.938525
 21
788.052715
 31
0.0
  0
ARC
  5
180
330
105
100
AcDbEntity
  8
0
  6
Continuous
 62
     0
370
    30
100
AcDbCircle
 10
348.438524
 20
788.052715
 30
0.0
 40
0.5
100
AcDbArc
 50
90.0
 51
180.0
  0
LINE
  5
181
330
105
100
AcDbEntity
  8
0
  6
Continuous
 62
     0
370
     0
100
AcDbLine
 10
349.938525
 20
788.052715
 30
0.0
 11
347.938524
 21
788.052715
 31
0.0
  0
LINE
  5
182
330
105
100
AcDbEntity
  8
0
  6
Continuous
 62
     0
370
     0
100
AcDbLine
 10
349.938524
 20
788.052715
 30
0.0
 11
349.938524
 21
788.552715
 31
0.0
  0
LINE
  5
183
330
105
100
AcDbEntity
  8
0
  6
Continuous
 62
     0
370
     0
100
AcDbLine
 10
349.938525
 20
788.052715
 30
0.0
 11
416.938525
 21
788.052715
 31
0.0
  0
LINE
  5
184
330
105
100
AcDbEntity
  8
0
  6
Continuous
 62
     0
370
     0
100
AcDbLine
 10
416.938524
 20
788.052715
 30
0.0
 11
416.938524
 21
788.552715
 31
0.0
  0
LINE
  5
185
330
105
100
AcDbEntity
  8
0
  6
Continuous
 62
     0
370
    30
100
AcDbLine
 10
404.064131
 20
772.552715
 30
0.0
 11
349.938524
 21
772.552715
 31
0.0
  0
LINE
  5
186
330
105
100
AcDbEntity
  8
0
  6
Continuous
 62
     0
370
    30
100
AcDbLine
 10
349.938524
 20
772.552715
 30
0.0
 11
348.438524
 21
772.552715
 31
0.0
  0
LINE
  5
187
330
105
100
AcDbEntity
  8
0
  6
Continuous
 62
     0
370
    30
100
AcDbLine
 10
347.938524
 20
773.052715
 30
0.0
 11
347.938524
 21
788.052715
 31
0.0
  0
LINE
  5
188
330
105
100
AcDbEntity
  8
0
  6
Continuous
 62
     0
370
     0
100
AcDbLine
 10
349.938525
 20
773.052715
 30
0.0
 11
347.938524
 21
773.052715
 31
0.0
  0
LINE
  5
189
330
105
100
AcDbEntity
  8
0
  6
Continuous
 62
     0
370
     0
100
AcDbLine
 10
349.938525
 20
773.052715
 30
0.0
 11
349.938525
 21
788.052715
 31
0.0
  0
LINE
  5
18A
330
105
100
AcDbEntity
  8
0
  6
Continuous
 62
     0
370
     0
100
AcDbLine
 10
404.064131
 20
773.052715
 30
0.0
 11
349.938525
 21
773.052715
 31
0.0
  0
LWPOLYLINE
  5
18B
330
105
100
AcDbEntity
  8
0
  6
Continuous
 62
     0
370
    30
100
AcDbPolyline
 90
       25
 70
     0
 43
0.0
 10
416.938538
 20
764.552734
 10
416.905426
 20
765.286621
 10
416.806427
 20
766.01532
 10
416.642181
 20
766.731995
 10
416.414551
 20
767.430847
 10
416.125824
 20
768.10675
 10
415.778473
 20
768.754517
 10
415.375702
 20
769.369446
 10
414.921539
 20
769.94751
 10
414.42041
 20
770.485291
 10
413.876831
 20
770.980103
 10
413.29541
 20
771.429993
 10
412.680481
 20
771.832947
 10
412.035645
 20
772.185791
 10
411.364319
 20
772.485229
 10
410.669922
 20
772.726379
 10
409.956696
 20
772.904114
 10
409.229889
 20
773.013855
 10
408.495911
 20
773.052185
 10
407.76059
 20
773.052551
 10
407.025299
 20
773.052734
 10
406.290009
 20
773.052734
 10
405.554718
 20
773.052734
 10
404.819397
 20
773.052734
 10
404.064117
 20
773.052734
  0
LINE
  5
18C
330
105
100
AcDbEntity
  8
0
  6
Continuous
 62
     0
370
     0
100
AcDbLine
 10
404.064131
 20
773.052715
 30
0.0
 11
404.064131
 21
772.552715
 31
0.0
  0
LINE
  5
18D
330
105
100
AcDbEntity
  8
0
  6
Continuous
 62
     0
370
     0
100
AcDbLine
 10
349.938524
 20
773.052715
 30
0.0
 11
349.938524
 21
772.552715
 31
0.0
  0
ARC
  5
18E
330
105
100
AcDbEntity
  8
0
  6
Continuous
 62
     0
370
    30
100
AcDbCircle
 10
348.438524
 20
773.052715
 30
0.0
 40
0.5
100
AcDbArc
 50
180.0
 51
270.0
  0
LINE
  5
18F
330
105
100
AcDbEntity
  8
0
  6
Continuous
 62
     0
370
     0
100
AcDbLine
 10
416.938525
 20
762.552715
 30
0.0
 11
416.938525
 21
731.552715
 31
0.0
  0
LINE
  5
190
330
105
100
AcDbEntity
  8
0
  6
Continuous
 62
     0
370
    30
100
AcDbLine
 10
407.324724
 20
772.552715
 30
0.0
 11
404.064131
 21
772.552715
 31
0.0
  0
LWPOLYLINE
  5
191
330
105
100
AcDbEntity
  8
0
  6
Continuous
 62
     0
370
    30
100
AcDbPolyline
 90
       21
 70
     0
 43
0.0
 10
416.938538
 20
764.552734
 10
416.905426
 20
765.271545
 10
416.806641
 20
765.984131
 10
416.642944
 20
766.684204
 10
416.415649
 20
767.365601
 10
416.126953
 20
768.022217
 10
415.779053
 20
768.648071
 10
415.374969
 20
769.237366
 10
414.918549
 20
769.784668
 10
414.414032
 20
770.28479
 10
413.866913
 20
770.733826
 10
413.284058
 20
771.129883
 10
412.673309
 20
771.473511
 10
412.042847
 20
771.76825
 10
411.399628
 20
772.017639
 10
410.747192
 20
772.222534
 10
410.088013
 20
772.382324
 10
409.422699
 20
772.49231
 10
408.753845
 20
772.546753
 10
408.053253
 20
772.552734
 10
407.324738
 20
772.552734
  0
LINE
  5
192
330
105
100
AcDbEntity
  8
0
  6
Continuous
 62
     0
370
    30
100
AcDbLine
 10
410.938524
 20
762.552715
 30
0.0
 11
410.938524
 21
731.552715
 31
0.0
  0
LINE
  5
193
330
105
100
AcDbEntity
  8
0
  6
Continuous
 62
     0
370
    30
100
AcDbLine
 10
422.938524
 20
762.552715
 30
0.0
 11
422.938524
 21
731.552715
 31
0.0
  0
LWPOLYLINE
  5
194
330
105
100
AcDbEntity
  8
0
  6
Continuous
 62
     0
370
    30
100
AcDbPolyline
 90
       21
 70
     0
 43
0.0
 10
410.938995
 20
764.552734
 10
410.934387
 20
765.017395
 10
410.91983
 20
765.4823
 10
410.894226
 20
765.946838
 10
410.856415
 20
766.410461
 10
410.805298
 20
766.872742
 10
410.739746
 20
767.333191
 10
410.658691
 20
767.791138
 10
410.560699
 20
768.245911
 10
410.443817
 20
768.696045
 10
410.306183
 20
769.140198
 10
410.145813
 20
769.577087
 10
409.960449
 20
770.004272
 10
409.747253
 20
770.417725
 10
409.503296
 20
770.813416
 10
409.2258
 20
771.18689
 10
408.913239
 20
771.531555
 10
408.56485
 20
771.8396
 10
408.180084
 20
772.102966
 10
407.763
 20
772.311829
 10
407.303375
 20
772.458862
  0
LINE
  5
195
330
105
100
AcDbEntity
  8
0
  6
Continuous
 62
     0
370
    30
100
AcDbLine
 10
422.938524
 20
788.052715
 30
0.0
 11
422.938524
 21
762.552715
 31
0.0
  0
LINE
  5
196
330
105
100
AcDbEntity
  8
0
  6
Continuous
 62
     0
370
    30
100
AcDbLine
 10
410.938662
 20
764.552715
 30
0.0
 11
410.938524
 21
762.552715
 31
0.0
  0
LINE
  5
197
330
105
100
AcDbEntity
  8
0
  6
Continuous
 62
     0
370
    30
100
AcDbLine
 10
629.812918
 20
772.552715
 30
0.0
 11
626.552325
 21
772.552715
 31
0.0
  0
LWPOLYLINE
  5
198
330
105
100
AcDbEntity
  8
0
  6
Continuous
 62
     0
370
    30
100
AcDbPolyline
 90
       21
 70
     0
 43
0.0
 10
626.552307
 20
772.552734
 10
625.832397
 20
772.552734
 10
625.131226
 20
772.547058
 10
624.462341
 20
772.493286
 10
623.796936
 20
772.383911
 10
623.137695
 20
772.224731
 10
622.485168
 20
772.020386
 10
621.841797
 20
771.771545
 10
621.211182
 20
771.477295
 10
620.600159
 20
771.134277
 10
620.016907
 20
770.738831
 10
619.469299
 20
770.290466
 10
618.964233
 20
769.790955
 10
618.507263
 20
769.244202
 10
618.102539
 20
768.655334
 10
617.753906
 20
768.029907
 10
617.464478
 20
767.373596
 10
617.23645
 20
766.692444
 10
617.07196
 20
765.992615
 10
616.972412
 20
765.280151
 10
616.938538
 20
764.552734
  0
LINE
  5
199
330
105
100
AcDbEntity
  8
0
  6
Continuous
 62
     0
370
     0
100
AcDbLine
 10
616.938525
 20
764.552715
 30
0.0
 11
616.938525
 21
762.552715
 31
0.0
  0
LWPOLYLINE
  5
19A
330
105
100
AcDbEntity
  8
0
  6
Continuous
 62
     0
370
     0
100
AcDbPolyline
 90
       15
 70
     0
 43
0.0
 10
622.938538
 20
762.552734
 10
622.90094
 20
762.552734
 10
622.788757
 20
762.552734
 10
622.603333
 20
762.552734
 10
622.346985
 20
762.552734
 10
622.022949
 20
762.552734
 10
621.635254
 20
762.552734
 10
621.188782
 20
762.552734
 10
620.689087
 20
762.552734
 10
620.142456
 20
762.552734
 10
619.555725
 20
762.552734
 10
618.936218
 20
762.552734
 10
618.291687
 20
762.552734
 10
617.630249
 20
762.552734
 10
616.938538
 20
762.552734
  0
LINE
  5
19B
330
105
100
AcDbEntity
  8
0
  6
Continuous
 62
     0
370
     0
100
AcDbLine
 10
616.938525
 20
764.552715
 30
0.0
 11
622.938387
 21
764.552715
 31
0.0
  0
LINE
  5
19C
330
105
100
AcDbEntity
  8
0
  6
Continuous
 62
     0
370
    30
100
AcDbLine
 10
683.938524
 20
788.552715
 30
0.0
 11
685.438524
 21
788.552715
 31
0.0
  0
LINE
  5
19D
330
105
100
AcDbEntity
  8
0
  6
Continuous
 62
     0
370
    30
100
AcDbLine
 10
611.438541
 20
788.552715
 30
0.0
 11
616.938524
 21
788.552715
 31
0.0
  0
LINE
  5
19E
330
105
100
AcDbEntity
  8
0
  6
Continuous
 62
     0
370
    30
100
AcDbLine
 10
683.938524
 20
788.552715
 30
0.0
 11
616.938524
 21
788.552715
 31
0.0
  0
LINE
  5
19F
330
105
100
AcDbEntity
  8
0
  6
Continuous
 62
     0
370
     0
100
AcDbLine
 10
616.938525
 20
762.552715
 30
0.0
 11
610.938524
 21
762.552715
 31
0.0
  0
LINE
  5
1A0
330
105
100
AcDbEntity
  8
0
  6
Continuous
 62
     0
370
     0
100
AcDbLine
 10
616.938525
 20
788.052715
 30
0.0
 11
616.938525
 21
764.552715
 31
0.0
  0
LINE
  5
1A1
330
105
100
AcDbEntity
  8
0
  6
Continuous
 62
     0
370
     0
100
AcDbLine
 10
610.93854
 20
788.052715
 30
0.0
 11
616.938525
 21
788.052715
 31
0.0
  0
LINE
  5
1A2
330
105
100
AcDbEntity
  8
0
  6
Continuous
 62
     0
370
     0
100
AcDbLine
 10
683.938524
 20
788.052715
 30
0.0
 11
683.938524
 21
788.552715
 31
0.0
  0
LINE
  5
1A3
330
105
100
AcDbEntity
  8
0
  6
Continuous
 62
     0
370
     0
100
AcDbLine
 10
616.938524
 20
788.552715
 30
0.0
 11
616.938524
 21
788.052715
 31
0.0
  0
LINE
  5
1A4
330
105
100
AcDbEntity
  8
0
  6
Continuous
 62
     0
370
     0
100
AcDbLine
 10
683.938525
 20
788.052715
 30
0.0
 11
616.938525
 21
788.052715
 31
0.0
  0
LINE
  5
1A5
330
105
100
AcDbEntity
  8
0
  6
Continuous
 62
     0
370
     0
100
AcDbLine
 10
683.938525
 20
788.052715
 30
0.0
 11
685.938524
 21
788.052715
 31
0.0
  0
ARC
  5
1A6
330
105
100
AcDbEntity
  8
0
  6
Continuous
 62
     0
370
    30
100
AcDbCircle
 10
685.438524
 20
788.052715
 30
0.0
 40
0.5
100
AcDbArc
 50
0.0
 51
90.0
  0
LWPOLYLINE
  5
1A7
330
105
100
AcDbEntity
  8
0
  6
Continuous
 62
     0
370
    30
100
AcDbPolyline
 90
       25
 70
     0
 43
0.0
 10
629.812927
 20
773.052734
 10
629.077637
 20
773.052734
 10
628.342346
 20
773.052734
 10
627.607056
 20
773.052734
 10
626.871704
 20
773.052734
 10
626.136414
 20
773.052551
 10
625.401123
 20
773.052368
 10
624.667053
 20
773.015869
 10
623.939941
 20
772.90802
 10
623.226257
 20
772.732056
 10
622.531311
 20
772.492554
 10
621.859314
 20
772.194641
 10
621.213684
 20
771.843201
 10
620.5979
 20
771.441589
 10
620.015503
 20
770.99292
 10
619.470886
 20
770.499268
 10
618.968506
 20
769.962646
 10
618.513062
 20
769.385681
 10
618.108826
 20
768.771667
 10
617.759888
 20
768.124756
 10
617.469543
 20
767.449585
 10
617.240234
 20
766.751221
 10
617.074219
 20
766.034973
 10
616.97345
 20
765.306519
 10
616.938538
 20
764.552734
  0
LINE
  5
1A8
330
105
100
AcDbEntity
  8
0
  6
Continuous
 62
     0
370
     0
100
AcDbLine
 10
629.812918
 20
773.052715
 30
0.0
 11
683.938525
 21
773.052715
 31
0.0
  0
LINE
  5
1A9
330
105
100
AcDbEntity
  8
0
  6
Continuous
 62
     0
370
     0
100
AcDbLine
 10
683.938525
 20
773.052715
 30
0.0
 11
683.938525
 21
788.052715
 31
0.0
  0
LINE
  5
1AA
330
105
100
AcDbEntity
  8
0
  6
Continuous
 62
     0
370
    30
100
AcDbLine
 10
683.938524
 20
772.552715
 30
0.0
 11
685.438524
 21
772.552715
 31
0.0
  0
LINE
  5
1AB
330
105
100
AcDbEntity
  8
0
  6
Continuous
 62
     0
370
    30
100
AcDbLine
 10
629.812918
 20
772.552715
 30
0.0
 11
683.938524
 21
772.552715
 31
0.0
  0
LINE
  5
1AC
330
105
100
AcDbEntity
  8
0
  6
Continuous
 62
     0
370
     0
100
AcDbLine
 10
683.938525
 20
773.052715
 30
0.0
 11
685.938524
 21
773.052715
 31
0.0
  0
LINE
  5
1AD
330
105
100
AcDbEntity
  8
0
  6
Continuous
 62
     0
370
    30
100
AcDbLine
 10
685.938524
 20
773.052715
 30
0.0
 11
685.938524
 21
788.052715
 31
0.0
  0
ARC
  5
1AE
330
105
100
AcDbEntity
  8
0
  6
Continuous
 62
     0
370
    30
100
AcDbCircle
 10
685.438524
 20
773.052715
 30
0.0
 40
0.5
100
AcDbArc
 50
270.0
 51
0.0
  0
LINE
  5
1AF
330
105
100
AcDbEntity
  8
0
  6
Continuous
 62
     0
370
     0
100
AcDbLine
 10
683.938524
 20
773.052715
 30
0.0
 11
683.938524
 21
772.552715
 31
0.0
  0
LINE
  5
1B0
330
105
100
AcDbEntity
  8
0
  6
Continuous
 62
     0
370
     0
100
AcDbLine
 10
629.812918
 20
772.552715
 30
0.0
 11
629.812918
 21
773.052715
 31
0.0
  0
LINE
  5
1B1
330
105
100
AcDbEntity
  8
0
  6
Continuous
 62
     0
370
     0
100
AcDbLine
 10
616.938525
 20
762.552715
 30
0.0
 11
616.938525
 21
731.552715
 31
0.0
  0
LINE
  5
1B2
330
105
100
AcDbEntity
  8
0
  6
Continuous
 62
     0
370
    30
100
AcDbLine
 10
622.938524
 20
762.552715
 30
0.0
 11
622.938524
 21
731.552715
 31
0.0
  0
LINE
  5
1B3
330
105
100
AcDbEntity
  8
0
  6
Continuous
 62
     0
370
    30
100
AcDbLine
 10
610.938524
 20
762.552715
 30
0.0
 11
610.938524
 21
731.552715
 31
0.0
  0
LWPOLYLINE
  5
1B4
330
105
100
AcDbEntity
  8
0
  6
Continuous
 62
     0
370
    30
100
AcDbPolyline
 90
       21
 70
     0
 43
0.0
 10
622.938049
 20
764.552734
 10
622.942627
 20
765.017395
 10
622.957214
 20
765.4823
 10
622.982849
 20
765.946838
 10
623.02063
 20
766.410461
 10
623.071777
 20
766.872742
 10
623.137268
 20
767.333191
 10
623.218323
 20
767.791138
 10
623.316345
 20
768.245911
 10
623.433228
 20
768.696045
 10
623.570862
 20
769.140198
 10
623.731262
 20
769.577087
 10
623.916565
 20
770.004272
 10
624.129822
 20
770.417725
 10
624.373779
 20
770.813416
 10
624.651245
 20
771.18689
 10
624.963806
 20
771.531555
 10
625.312195
 20
771.8396
 10
625.69696
 20
772.102966
 10
626.114014
 20
772.311829
 10
626.573669
 20
772.458862
  0
LINE
  5
1B5
330
105
100
AcDbEntity
  8
0
  6
Continuous
 62
     0
370
    30
100
AcDbLine
 10
610.938524
 20
788.052715
 30
0.0
 11
610.938524
 21
762.552715
 31
0.0
  0
LINE
  5
1B6
330
105
100
AcDbEntity
  8
0
  6
Continuous
 62
     0
370
    30
100
AcDbLine
 10
622.938387
 20
764.552715
 30
0.0
 11
622.938524
 21
762.552715
 31
0.0
  0
ENDBLK
  5
1B8
330
105
100
AcDbEntity
  8
0
100
AcDbBlockEnd
  0
BLOCK
  5
2B4
330
1BA
100
AcDbEntity
  8
0
100
AcDbBlockBegin
  2
d
 70
     0
 10
21.257402
 20
103.131485
 30
0.0
  3
d
  1

  0
ELLIPSE
  5
1BB
330
1BA
100
AcDbEntity
  8
0
  6
Continuous
 62
     0
370
    30
100
AcDbEllipse
 10
405.134935
 20
298.383502
 30
0.0
 11
-30.0
 21
0.0
 31
0.0
210
0.0
220
0.0
230
1.0
 40
0.57735
 41
-0.0000000086396863
 42
2.356194490192345
  0
ELLIPSE
  5
1BC
330
1BA
100
AcDbEntity
  8
0
  6
Continuous
 62
     0
370
    30
100
AcDbEllipse
 10
405.134935
 20
298.383502
 30
0.0
 11
-30.0
 21
0.0
 31
0.0
210
0.0
220
0.0
230
1.0
 40
0.57735
 41
2.356194490192345
 42
3.141592644950108
  0
ELLIPSE
  5
1BD
330
1BA
100
AcDbEntity
  8
0
  6
Continuous
 62
     0
370
     0
100
AcDbEllipse
 10
405.134935
 20
305.731972
 30
0.0
 11
-29.5
 21
0.0
 31
0.0
210
0.0
220
0.0
230
1.0
 40
0.57735
 41
4.917207853243522
 42
5.497787143782138
  0
ELLIPSE
  5
1BE
330
1BA
100
AcDbEntity
  8
0
  6
Continuous
 62
     0
370
     0
100
AcDbEllipse
 10
405.134935
 20
305.731972
 30
0.0
 11
-29.5
 21
0.0
 31
0.0
210
0.0
220
0.0
230
1.0
 40
0.57735
 41
2.356194490192345
 42
4.507570090246482
  0
ELLIPSE
  5
1BF
330
1BA
100
AcDbEntity
  8
0
  6
Continuous
 62
     0
370
     0
100
AcDbEllipse
 10
405.134935
 20
305.731972
 30
0.0
 11
-29.5
 21
0.0
 31
0.0
210
0.0
220
0.0
230
1.0
 40
0.57735
 41
5.497787143782139
 42
8.63937979737193
  0
ELLIPSE
  5
1C0
330
1BA
100
AcDbEntity
  8
0
  6
Continuous
 62
     0
370
    30
100
AcDbEllipse
 10
405.134935
 20
305.731972
 30
0.0
 11
-6.15
 21
0.0
 31
0.0
210
0.0
220
0.0
230
1.0
 40
0.57735
 41
6.061870856192067
 42
8.639379797371927
  0
ELLIPSE
  5
1C1
330
1BA
100
AcDbEntity
  8
0
  6
Continuous
 62
     0
370
    30
100
AcDbEllipse
 10
405.134935
 20
305.731972
 30
0.0
 11
-6.15
 21
0.0
 31
0.0
210
0.0
220
0.0
230
1.0
 40
0.57735
 41
2.356194490192345
 42
3.362907087297859
  0
ELLIPSE
  5
1C2
330
1BA
100
AcDbEntity
  8
0
  6
Continuous
 62
     0
370
     0
100
AcDbEllipse
 10
405.134935
 20
305.323723
 30
0.0
 11
-30.0
 21
0.0
 31
0.0
210
0.0
220
0.0
230
1.0
 40
0.57735
 41
5.497787143782138
 42
8.63937979737193
  0
ELLIPSE
  5
1C3
330
1BA
100
AcDbEntity
  8
0
  6
Continuous
 62
     0
370
     0
100
AcDbEllipse
 10
405.134935
 20
305.323723
 30
0.0
 11
-30.0
 21
0.0
 31
0.0
210
0.0
220
0.0
230
1.0
 40
0.57735
 41
2.356194490192345
 42
3.935359308027953
  0
ELLIPSE
  5
1C4
330
1BA
100
AcDbEntity
  8
0
  6
Continuous
 62
     0
370
    30
100
AcDbEllipse
 10
405.134935
 20
304.098979
 30
0.0
 11
-6.15
 21
0.0
 31
0.0
210
0.0
220
0.0
230
1.0
 40
0.57735
 41
5.996953153717351
 42
6.051155486520441
  0
ELLIPSE
  5
1C5
330
1BA
100
AcDbEntity
  8
0
  6
Continuous
 62
     0
370
    30
100
AcDbEllipse
 10
405.134935
 20
304.098979
 30
0.0
 11
-6.15
 21
0.0
 31
0.0
210
0.0
220
0.0
230
1.0
 40
0.57735
 41
3.373622456969586
 42
3.427824789772654
  0
LINE
  5
1C6
330
1BA
100
AcDbEntity
  8
0
  6
Continuous
 62
     0
370
    30
100
AcDbLine
 10
375.134935
 20
305.323886
 30
0.0
 11
375.15407
 21
305.951732
 31
0.0
  0
LINE
  5
1C7
330
1BA
100
AcDbEntity
  8
0
  6
Continuous
 62
     0
370
    30
100
AcDbLine
 10
435.134935
 20
305.322585
 30
0.0
 11
435.115813
 21
305.950205
 31
0.0
  0
LINE
  5
1C8
330
1BA
100
AcDbEntity
  8
0
  6
Continuous
 62
     0
370
    30
100
AcDbLine
 10
435.134935
 20
298.383502
 30
0.0
 11
435.134935
 21
305.323723
 31
0.0
  0
LINE
  5
1C9
330
1BA
100
AcDbEntity
  8
0
  6
Continuous
 62
     0
370
    30
100
AcDbLine
 10
375.134935
 20
298.383503
 30
0.0
 11
375.134935
 21
305.323724
 31
0.0
  0
ELLIPSE
  5
1CA
330
1BA
100
AcDbEntity
  8
0
  6
Continuous
 62
     0
370
    30
100
AcDbEllipse
 10
546.556292
 20
216.733844
 30
0.0
 11
-30.0
 21
0.0
 31
0.0
210
0.0
220
0.0
230
1.0
 40
0.57735
 41
-0.0000000086396872
 42
2.356194490192344
  0
ELLIPSE
  5
1CB
330
1BA
100
AcDbEntity
  8
0
  6
Continuous
 62
     0
370
    30
100
AcDbEllipse
 10
546.556292
 20
216.733844
 30
0.0
 11
-30.0
 21
0.0
 31
0.0
210
0.0
220
0.0
230
1.0
 40
0.57735
 41
2.356194490192345
 42
3.141592644950106
  0
ELLIPSE
  5
1CC
330
1BA
100
AcDbEntity
  8
0
  6
Continuous
 62
     0
370
     0
100
AcDbEllipse
 10
546.556292
 20
224.082314
 30
0.0
 11
-29.5
 21
0.0
 31
0.0
210
0.0
220
0.0
230
1.0
 40
0.57735
 41
4.917207853243523
 42
5.497787143782137
  0
ELLIPSE
  5
1CD
330
1BA
100
AcDbEntity
  8
0
  6
Continuous
 62
     0
370
     0
100
AcDbEllipse
 10
546.556292
 20
224.082314
 30
0.0
 11
-29.5
 21
0.0
 31
0.0
210
0.0
220
0.0
230
1.0
 40
0.57735
 41
2.356194490192345
 42
4.507570090246483
  0
ELLIPSE
  5
1CE
330
1BA
100
AcDbEntity
  8
0
  6
Continuous
 62
     0
370
     0
100
AcDbEllipse
 10
546.556292
 20
224.082314
 30
0.0
 11
-29.5
 21
0.0
 31
0.0
210
0.0
220
0.0
230
1.0
 40
0.57735
 41
5.497787143782137
 42
8.63937979737193
  0
ELLIPSE
  5
1CF
330
1BA
100
AcDbEntity
  8
0
  6
Continuous
 62
     0
370
    30
100
AcDbEllipse
 10
546.556292
 20
224.082314
 30
0.0
 11
-6.15
 21
0.0
 31
0.0
210
0.0
220
0.0
230
1.0
 40
0.57735
 41
6.06187085619209
 42
8.639379797371928
  0
ELLIPSE
  5
1D0
330
1BA
100
AcDbEntity
  8
0
  6
Continuous
 62
     0
370
    30
100
AcDbEllipse
 10
546.556292
 20
224.082314
 30
0.0
 11
-6.15
 21
0.0
 31
0.0
210
0.0
220
0.0
230
1.0
 40
0.57735
 41
2.356194490192345
 42
3.362907087297876
  0
ELLIPSE
  5
1D1
330
1BA
100
AcDbEntity
  8
0
  6
Continuous
 62
     0
370
     0
100
AcDbEllipse
 10
546.556292
 20
223.674065
 30
0.0
 11
-30.0
 21
0.0
 31
0.0
210
0.0
220
0.0
230
1.0
 40
0.57735
 41
5.497787143782138
 42
8.63937979737193
  0
ELLIPSE
  5
1D2
330
1BA
100
AcDbEntity
  8
0
  6
Continuous
 62
     0
370
     0
100
AcDbEllipse
 10
546.556292
 20
223.674065
 30
0.0
 11
-30.0
 21
0.0
 31
0.0
210
0.0
220
0.0
230
1.0
 40
0.57735
 41
2.356194490192345
 42
3.935359308027969
  0
ELLIPSE
  5
1D3
330
1BA
100
AcDbEntity
  8
0
  6
Continuous
 62
     0
370
    30
100
AcDbEllipse
 10
546.556292
 20
222.44932
 30
0.0
 11
-6.15
 21
0.0
 31
0.0
210
0.0
220
0.0
230
1.0
 40
0.57735
 41
5.996953153717336
 42
6.051155486520432
  0
ELLIPSE
  5
1D4
330
1BA
100
AcDbEntity
  8
0
  6
Continuous
 62
     0
370
    30
100
AcDbEllipse
 10
546.556292
 20
222.44932
 30
0.0
 11
-6.15
 21
0.0
 31
0.0
210
0.0
220
0.0
230
1.0
 40
0.57735
 41
3.373622456969579
 42
3.427824789772657
  0
LINE
  5
1D5
330
1BA
100
AcDbEntity
  8
0
  6
Continuous
 62
     0
370
    30
100
AcDbLine
 10
516.556292
 20
223.674228
 30
0.0
 11
516.575427
 21
224.302074
 31
0.0
  0
LINE
  5
1D6
330
1BA
100
AcDbEntity
  8
0
  6
Continuous
 62
     0
370
    30
100
AcDbLine
 10
576.556292
 20
223.672927
 30
0.0
 11
576.537169
 21
224.300547
 31
0.0
  0
LINE
  5
1D7
330
1BA
100
AcDbEntity
  8
0
  6
Continuous
 62
     0
370
    30
100
AcDbLine
 10
576.556292
 20
216.733844
 30
0.0
 11
576.556292
 21
223.674065
 31
0.0
  0
LINE
  5
1D8
330
1BA
100
AcDbEntity
  8
0
  6
Continuous
 62
     0
370
    30
100
AcDbLine
 10
516.556292
 20
216.733845
 30
0.0
 11
516.556292
 21
223.674065
 31
0.0
  0
ELLIPSE
  5
1D9
330
1BA
100
AcDbEntity
  8
0
  6
Continuous
 62
     0
370
    30
100
AcDbEllipse
 10
475.845613
 20
257.558673
 30
0.0
 11
-30.0
 21
0.0
 31
0.0
210
0.0
220
0.0
230
1.0
 40
0.57735
 41
-0.0000000086396872
 42
2.356194490192345
  0
ELLIPSE
  5
1DA
330
1BA
100
AcDbEntity
  8
0
  6
Continuous
 62
     0
370
    30
100
AcDbEllipse
 10
475.845613
 20
257.558673
 30
0.0
 11
-30.0
 21
0.0
 31
0.0
210
0.0
220
0.0
230
1.0
 40
0.57735
 41
2.356194490192345
 42
3.141592644950106
  0
ELLIPSE
  5
1DB
330
1BA
100
AcDbEntity
  8
0
  6
Continuous
 62
     0
370
     0
100
AcDbEllipse
 10
475.845613
 20
264.907143
 30
0.0
 11
-29.5
 21
0.0
 31
0.0
210
0.0
220
0.0
230
1.0
 40
0.57735
 41
5.094501376453135
 42
5.497787143782138
  0
ELLIPSE
  5
1DC
330
1BA
100
AcDbEntity
  8
0
  6
Continuous
 62
     0
370
     0
100
AcDbEllipse
 10
475.845613
 20
264.907143
 30
0.0
 11
-29.5
 21
0.0
 31
0.0
210
0.0
220
0.0
230
1.0
 40
0.57735
 41
2.356194490192345
 42
4.330276567036871
  0
ELLIPSE
  5
1DD
330
1BA
100
AcDbEntity
  8
0
  6
Continuous
 62
     0
370
     0
100
AcDbEllipse
 10
475.845613
 20
264.907143
 30
0.0
 11
-29.5
 21
0.0
 31
0.0
210
0.0
220
0.0
230
1.0
 40
0.57735
 41
5.497787143782138
 42
8.63937979737193
  0
ELLIPSE
  5
1DE
330
1BA
100
AcDbEntity
  8
0
  6
Continuous
 62
     0
370
     0
100
AcDbEllipse
 10
475.845613
 20
264.498894
 30
0.0
 11
-30.0
 21
0.0
 31
0.0
210
0.0
220
0.0
230
1.0
 40
0.57735
 41
5.497787143782138
 42
8.63937979737193
  0
ELLIPSE
  5
1DF
330
1BA
100
AcDbEntity
  8
0
  6
Continuous
 62
     0
370
     0
100
AcDbEllipse
 10
475.845613
 20
264.498894
 30
0.0
 11
-30.0
 21
0.0
 31
0.0
210
0.0
220
0.0
230
1.0
 40
0.57735
 41
2.356194490192345
 42
3.935359308027981
  0
LINE
  5
1E0
330
1BA
100
AcDbEntity
  8
0
  6
Continuous
 62
     0
370
    30
100
AcDbLine
 10
445.845613
 20
264.499057
 30
0.0
 11
445.864749
 21
265.126903
 31
0.0
  0
LINE
  5
1E1
330
1BA
100
AcDbEntity
  8
0
  6
Continuous
 62
     0
370
    30
100
AcDbLine
 10
505.845613
 20
264.497756
 30
0.0
 11
505.826491
 21
265.125376
 31
0.0
  0
LINE
  5
1E2
330
1BA
100
AcDbEntity
  8
0
  6
Continuous
 62
     0
370
    30
100
AcDbLine
 10
505.845613
 20
257.558673
 30
0.0
 11
505.845613
 21
264.498894
 31
0.0
  0
LINE
  5
1E3
330
1BA
100
AcDbEntity
  8
0
  6
Continuous
 62
     0
370
    30
100
AcDbLine
 10
445.845613
 20
257.558674
 30
0.0
 11
445.845613
 21
264.498895
 31
0.0
  0
ELLIPSE
  5
1E4
330
1BA
100
AcDbEntity
  8
0
  6
Continuous
 62
     0
370
    30
100
AcDbEllipse
 10
617.26697
 20
198.77092
 30
0.0
 11
-16.50000000000017
 21
0.0
 31
0.0
210
0.0
220
0.0
230
1.0
 40
0.57735
 41
-0.0000000086396872
 42
2.356194490192344
  0
ELLIPSE
  5
1E5
330
1BA
100
AcDbEntity
  8
0
  6
Continuous
 62
     0
370
    30
100
AcDbEllipse
 10
617.26697
 20
198.77092
 30
0.0
 11
-16.50000000000017
 21
0.0
 31
0.0
210
0.0
220
0.0
230
1.0
 40
0.57735
 41
2.356194490192345
 42
3.141592644950106
  0
ELLIPSE
  5
1E6
330
1BA
100
AcDbEntity
  8
0
  6
Continuous
 62
     0
370
     0
100
AcDbEllipse
 10
617.26697
 20
213.023312
 30
0.0
 11
-16.50000000000072
 21
0.0
 31
0.0
210
0.0
220
0.0
230
1.0
 40
0.57735
 41
5.587176281498329
 42
8.63937979737193
  0
ELLIPSE
  5
1E7
330
1BA
100
AcDbEntity
  8
0
  6
Continuous
 62
     0
370
     0
100
AcDbEllipse
 10
617.26697
 20
213.023312
 30
0.0
 11
-16.50000000000072
 21
0.0
 31
0.0
210
0.0
220
0.0
230
1.0
 40
0.57735
 41
2.356194490192345
 42
3.837601661991653
  0
ELLIPSE
  5
1E8
330
1BA
100
AcDbEntity
  8
0
  6
Continuous
 62
     0
370
     0
100
AcDbEllipse
 10
617.26697
 20
213.428725
 30
0.0
 11
-16.05882352941243
 21
0.0
 31
0.0
210
0.0
220
0.0
230
1.0
 40
0.57735
 41
5.497787143782138
 42
8.63937979737193
  0
ELLIPSE
  5
1E9
330
1BA
100
AcDbEntity
  8
0
  6
Continuous
 62
     0
370
     0
100
AcDbEllipse
 10
617.26697
 20
213.428725
 30
0.0
 11
-16.05882352941243
 21
0.0
 31
0.0
210
0.0
220
0.0
230
1.0
 40
0.57735
 41
2.356194490192345
 42
5.497787143782137
  0
LWPOLYLINE
  5
1EA
330
1BA
100
AcDbEntity
  8
0
  6
Continuous
 62
     0
370
    30
100
AcDbPolyline
 90
       47
 70
     0
 43
0.0
 10
633.766968
 20
213.023315
 10
633.726501
 20
213.704147
 10
633.60614
 20
214.382141
 10
633.407715
 20
215.052948
 10
633.132874
 20
215.712265
 10
632.783264
 20
216.355759
 10
632.361023
 20
216.97966
 10
631.868958
 20
217.581726
 10
631.309875
 20
218.159912
 10
630.68689
 20
218.712204
 10
630.002869
 20
219.236557
 10
629.260742
 20
219.730942
 10
628.463501
 20
220.193344
 10
627.614746
 20
220.622025
 10
626.718811
 20
221.015579
 10
625.780212
 20
221.372635
 10
624.803284
 20
221.691803
 10
623.792419
 20
221.97168
 10
622.752075
 20
222.210892
 10
621.686646
 20
222.408066
 10
620.600525
 20
222.561874
 10
619.498718
 20
222.671799
 10
618.386414
 20
222.737808
 10
617.268799
 20
222.759888
 10
616.151062
 20
222.737991
 10
615.038452
 20
222.672119
 10
613.936218
 20
222.562225
 10
612.849426
 20
222.408508
 10
611.782898
 20
222.211853
 10
610.741516
 20
221.973404
 10
609.729919
 20
221.694244
 10
608.75293
 20
221.375519
 10
607.815308
 20
221.018341
 10
606.921326
 20
220.6241
 10
606.074402
 20
220.194626
 10
605.278076
 20
219.731766
 10
604.535706
 20
219.23735
 10
603.850769
 20
218.713226
 10
603.226807
 20
218.16124
 10
602.667114
 20
217.583252
 10
602.174805
 20
216.981461
 10
601.752258
 20
216.358398
 10
601.401978
 20
215.71666
 10
601.126465
 20
215.058823
 10
600.927856
 20
214.388062
 10
600.807617
 20
213.709
 10
600.766968
 20
213.023315
  0
LINE
  5
1EB
330
1BA
100
AcDbEntity
  8
0
  6
Continuous
 62
     0
370
    30
100
AcDbLine
 10
633.76697
 20
198.77092
 30
0.0
 11
633.76697
 21
213.023312
 31
0.0
  0
LINE
  5
1EC
330
1BA
100
AcDbEntity
  8
0
  6
Continuous
 62
     0
370
    30
100
AcDbLine
 10
600.76697
 20
198.77092
 30
0.0
 11
600.76697
 21
213.023312
 31
0.0
  0
ELLIPSE
  5
1ED
330
1BA
100
AcDbEntity
  8
0
  6
Continuous
 62
     0
370
    30
100
AcDbEllipse
 10
475.845613
 20
264.907143
 30
0.0
 11
11.0
 21
0.0
 31
0.0
210
0.0
220
0.0
230
-1.0
 40
0.57735
 41
0.000000008639686
 42
0.7853981633974484
  0
ELLIPSE
  5
1EE
330
1BA
100
AcDbEntity
  8
0
  6
Continuous
 62
     0
370
    30
100
AcDbEllipse
 10
475.845613
 20
264.907143
 30
0.0
 11
11.0
 21
0.0
 31
0.0
210
0.0
220
0.0
230
-1.0
 40
0.57735
 41
0.7853981633974484
 42
3.141592662229478
  0
ELLIPSE
  5
1EF
330
1BA
100
AcDbEntity
  8
0
  6
Continuous
 62
     0
370
     0
100
AcDbEllipse
 10
475.845613
 20
391.464124
 30
0.0
 11
11.0
 21
0.0
 31
0.0
210
0.0
220
0.0
230
-1.0
 40
0.57735
 41
0.0000000086015205
 42
0.7853981633974484
  0
ELLIPSE
  5
1F0
330
1BA
100
AcDbEntity
  8
0
  6
Continuous
 62
     0
370
     0
100
AcDbEllipse
 10
475.845613
 20
391.464124
 30
0.0
 11
11.0
 21
0.0
 31
0.0
210
0.0
220
0.0
230
-1.0
 40
0.57735
 41
0.7853981633974484
 42
3.141593310275746
  0
ELLIPSE
  5
1F1
330
1BA
100
AcDbEntity
  8
0
  6
Continuous
 62
     0
370
     0
100
AcDbEllipse
 10
365.477185
 20
347.927769
 30
0.0
 11
-10.69123495457137
 21
2.587951921143688
 31
0.0
210
0.0
220
0.0
230
1.0
 40
0.370682
 41
6.283179500136775
 42
8.753948827957348
  0
ELLIPSE
  5
1F2
330
1BA
100
AcDbEntity
  8
0
  6
Continuous
 62
     0
370
     0
100
AcDbEllipse
 10
365.477185
 20
347.927769
 30
0.0
 11
-10.69123495457137
 21
2.587951921143688
 31
0.0
210
0.0
220
0.0
230
1.0
 40
0.370682
 41
2.470763520777762
 42
3.141592639718683
  0
ELLIPSE
  5
1F3
330
1BA
100
AcDbEntity
  8
0
  6
Continuous
 62
     0
370
    30
100
AcDbEllipse
 10
360.913629
 20
329.075006
 30
0.0
 11
-10.69123495457137
 21
2.587951921143688
 31
0.0
210
0.0
220
0.0
230
1.0
 40
0.370682
 41
-0.0000000138711034
 42
2.470763520777762
  0
ELLIPSE
  5
1F4
330
1BA
100
AcDbEntity
  8
0
  6
Continuous
 62
     0
370
    30
100
AcDbEllipse
 10
360.913629
 20
329.075006
 30
0.0
 11
-10.69123495457137
 21
2.587951921143688
 31
0.0
210
0.0
220
0.0
230
1.0
 40
0.370682
 41
2.470763520777762
 42
3.141592639718687
  0
LINE
  5
1F5
330
1BA
100
AcDbEntity
  8
0
  6
Continuous
 62
     0
370
    30
100
AcDbLine
 10
350.222394
 20
331.662958
 30
0.0
 11
354.78595
 21
350.515721
 31
0.0
  0
LINE
  5
1F6
330
1BA
100
AcDbEntity
  8
0
  6
Continuous
 62
     0
370
    30
100
AcDbLine
 10
371.604864
 20
326.487054
 30
0.0
 11
376.16842
 21
345.339817
 31
0.0
  0
LWPOLYLINE
  5
1F7
330
1BA
100
AcDbEntity
  8
0
  6
Continuous
 62
     0
370
    30
100
AcDbPolyline
 90
      103
 70
     0
 43
0.0
 10
354.78595
 20
350.515717
 10
355.352051
 20
352.76123
 10
355.964569
 20
355.012909
 10
356.622955
 20
357.268951
 10
357.326508
 20
359.527435
 10
358.074615
 20
361.78656
 10
358.866638
 20
364.044403
 10
359.701965
 20
366.299133
 10
360.579987
 20
368.548889
 10
361.5
 20
370.791779
 10
362.461334
 20
373.026093
 10
363.463165
 20
375.250275
 10
364.504608
 20
377.462769
 10
365.584778
 20
379.662048
 10
366.70285
 20
381.846619
 10
367.857971
 20
384.014893
 10
369.049255
 20
386.165405
 10
370.275848
 20
388.296539
 10
371.536926
 20
390.40683
 10
372.831573
 20
392.49472
 10
374.158936
 20
394.558685
 10
375.518188
 20
396.597198
 10
376.908478
 20
398.608704
 10
378.328796
 20
400.591736
 10
379.778137
 20
402.544891
 10
381.255371
 20
404.466797
 10
382.75946
 20
406.355988
 10
384.289276
 20
408.211151
 10
385.843781
 20
410.030823
 10
387.421844
 20
411.813599
 10
389.02243
 20
413.558136
 10
390.64444
 20
415.263062
 10
392.286804
 20
416.927185
 10
393.948517
 20
418.549438
 10
395.62851
 20
420.128723
 10
397.325775
 20
421.66394
 10
399.039215
 20
423.153961
 10
400.767853
 20
424.597687
 10
402.51059
 20
425.994049
 10
404.266418
 20
427.341919
 10
406.034271
 20
428.640228
 10
407.813171
 20
429.887909
 10
409.602203
 20
431.084076
 10
411.400421
 20
432.227844
 10
413.20694
 20
433.318359
 10
415.020844
 20
434.354675
 10
416.841217
 20
435.335968
 10
418.667145
 20
436.261322
 10
420.497681
 20
437.129852
 10
422.33197
 20
437.940643
 10
424.169189
 20
438.692841
 10
426.008484
 20
439.385559
 10
427.84903
 20
440.017853
 10
429.690002
 20
440.588837
 10
431.530579
 20
441.097595
 10
433.369751
 20
441.543213
 10
435.206299
 20
441.924652
 10
437.039032
 20
442.240845
 10
438.86676
 20
442.490814
 10
440.688293
 20
442.673523
 10
442.502411
 20
442.787933
 10
444.307953
 20
442.833069
 10
446.103271
 20
442.807983
 10
447.886322
 20
442.711975
 10
449.654938
 20
442.544373
 10
451.406982
 20
442.304443
 10
453.14035
 20
441.991486
 10
454.852844
 20
441.604828
 10
456.542053
 20
441.144287
 10
458.205109
 20
440.61026
 10
459.839172
 20
440.003113
 10
461.441437
 20
439.323303
 10
463.009064
 20
438.571228
 10
464.539429
 20
437.747711
 10
466.030182
 20
436.854553
 10
467.479095
 20
435.893524
 10
468.883942
 20
434.866516
 10
470.242401
 20
433.77536
 10
471.552277
 20
432.621887
 10
472.811523
 20
431.40799
 10
474.019012
 20
430.136017
 10
475.173798
 20
428.808228
 10
476.274994
 20
427.427002
 10
477.321686
 20
425.99469
 10
478.313293
 20
424.513519
 10
479.249695
 20
422.985565
 10
480.130707
 20
421.412903
 10
480.956238
 20
419.797638
 10
481.726196
 20
418.141724
 10
482.440826
 20
416.446686
 10
483.100464
 20
414.713898
 10
483.705414
 20
412.944672
 10
484.256012
 20
411.140381
 10
484.752594
 20
409.302368
 10
485.195465
 20
407.431976
 10
485.584991
 20
405.530518
 10
485.921478
 20
403.599365
 10
486.205292
 20
401.639862
 10
486.436707
 20
399.653381
 10
486.616119
 20
397.641235
 10
486.743835
 20
395.604767
 10
486.820221
 20
393.545349
 10
486.845612
 20
391.464111
  0
LWPOLYLINE
  5
1F8
330
1BA
100
AcDbEntity
  8
0
  6
Continuous
 62
     0
370
    30
100
AcDbPolyline
 90
       85
 70
     0
 43
0.0
 10
376.168427
 20
345.339813
 10
376.71756
 20
347.50293
 10
377.321564
 20
349.681854
 10
377.979553
 20
351.873169
 10
378.690643
 20
354.073578
 10
379.45401
 20
356.279724
 10
380.268768
 20
358.488251
 10
381.134064
 20
360.695801
 10
382.049011
 20
362.899078
 10
383.012482
 20
365.095123
 10
384.023041
 20
367.281403
 10
385.079315
 20
369.455353
 10
386.17984
 20
371.61441
 10
387.323273
 20
373.756042
 10
388.508148
 20
375.877686
 10
389.733093
 20
377.976807
 10
390.996674
 20
380.050842
 10
392.297516
 20
382.09726
 10
393.634155
 20
384.113464
 10
395.005219
 20
386.096954
 10
396.409302
 20
388.045135
 10
397.844757
 20
389.955627
 10
399.30954
 20
391.826294
 10
400.801392
 20
393.655029
 10
402.318207
 20
395.439789
 10
403.857727
 20
397.178528
 10
405.417786
 20
398.86911
 10
406.996185
 20
400.509521
 10
408.590759
 20
402.097687
 10
410.19931
 20
403.6315
 10
411.819672
 20
405.108948
 10
413.449615
 20
406.527893
 10
415.086975
 20
407.886292
 10
416.729553
 20
409.182098
 10
418.374817
 20
410.413727
 10
420.019775
 20
411.580139
 10
421.661499
 20
412.680359
 10
423.296997
 20
413.713409
 10
424.923279
 20
414.678284
 10
426.537384
 20
415.574036
 10
428.136292
 20
416.399658
 10
429.717072
 20
417.154175
 10
431.276703
 20
417.836609
 10
432.812195
 20
418.446655
 10
434.320557
 20
418.985046
 10
435.798737
 20
419.452576
 10
437.243713
 20
419.850037
 10
438.652435
 20
420.178314
 10
440.021912
 20
420.438141
 10
441.349548
 20
420.630859
 10
442.633636
 20
420.758636
 10
443.872528
 20
420.823822
 10
445.06488
 20
420.828796
 10
446.2099
 20
420.776337
 10
447.30722
 20
420.669098
 10
448.358185
 20
420.509338
 10
449.364746
 20
420.299011
 10
450.328888
 20
420.040039
 10
451.252563
 20
419.734436
 10
452.138428
 20
419.383026
 10
452.98996
 20
418.98526
 10
453.810669
 20
418.540558
 10
454.603882
 20
418.047882
 10
455.372101
 20
417.504944
 10
456.117615
 20
416.909149
 10
456.842499
 20
416.257843
 10
457.546906
 20
415.548035
 10
458.230377
 20
414.77655
 10
458.892395
 20
413.940186
 10
459.53241
 20
413.03598
 10
460.14859
 20
412.062653
 10
460.73822
 20
411.020172
 10
461.298645
 20
409.908539
 10
461.827179
 20
408.727722
 10
462.321075
 20
407.477753
 10
462.777679
 20
406.1586
 10
463.194366
 20
404.770538
 10
463.568878
 20
403.315491
 10
463.899139
 20
401.796021
 10
464.183014
 20
400.214569
 10
464.418427
 20
398.573639
 10
464.603485
 20
396.875946
 10
464.737091
 20
395.124725
 10
464.818146
 20
393.323273
 10
464.845612
 20
391.464111
  0
LINE
  5
1F9
330
1BA
100
AcDbEntity
  8
0
  6
Continuous
 62
     0
370
    30
100
AcDbLine
 10
486.845613
 20
391.464124
 30
0.0
 11
486.845613
 21
264.907143
 31
0.0
  0
LINE
  5
1FA
330
1BA
100
AcDbEntity
  8
0
  6
Continuous
 62
     0
370
    30
100
AcDbLine
 10
464.845613
 20
391.464124
 30
0.0
 11
464.845613
 21
264.907143
 31
0.0
  0
ELLIPSE
  5
1FB
330
1BA
100
AcDbEntity
  8
0
  6
Continuous
 62
     0
370
    30
100
AcDbEllipse
 10
617.26697
 20
183.257485
 30
0.0
 11
-30.00068283081055
 21
0.0
 31
0.0
210
0.0
220
0.0
230
1.0
 40
0.57735
 41
-0.0000000086396863
 42
2.356194490192345
  0
ELLIPSE
  5
1FC
330
1BA
100
AcDbEntity
  8
0
  6
Continuous
 62
     0
370
    30
100
AcDbEllipse
 10
617.26697
 20
183.257485
 30
0.0
 11
-30.00068283081055
 21
0.0
 31
0.0
210
0.0
220
0.0
230
1.0
 40
0.57735
 41
2.356194490192345
 42
3.141592644950106
  0
ELLIPSE
  5
1FD
330
1BA
100
AcDbEntity
  8
0
  6
Continuous
 62
     0
370
     0
100
AcDbEllipse
 10
617.26697
 20
191.014202
 30
0.0
 11
-30.00068283081055
 21
0.0
 31
0.0
210
0.0
220
0.0
230
1.0
 40
0.57735
 41
5.497787143782138
 42
8.63937979737193
  0
ELLIPSE
  5
1FE
330
1BA
100
AcDbEntity
  8
0
  6
Continuous
 62
     0
370
     0
100
AcDbEllipse
 10
617.26697
 20
191.014202
 30
0.0
 11
-30.00068283081055
 21
0.0
 31
0.0
210
0.0
220
0.0
230
1.0
 40
0.57735
 41
2.356194490192345
 42
3.935359116749741
  0
ELLIPSE
  5
1FF
330
1BA
100
AcDbEntity
  8
0
  6
Continuous
 62
     0
370
     0
100
AcDbEllipse
 10
617.26697
 20
191.42245
 30
0.0
 11
-29.50068283081055
 21
0.0
 31
0.0
210
0.0
220
0.0
230
1.0
 40
0.57735
 41
5.497787143782138
 42
8.63937979737193
  0
ELLIPSE
  5
200
330
1BA
100
AcDbEntity
  8
0
  6
Continuous
 62
     0
370
     0
100
AcDbEllipse
 10
617.26697
 20
191.42245
 30
0.0
 11
-29.50068283081055
 21
0.0
 31
0.0
210
0.0
220
0.0
230
1.0
 40
0.57735
 41
5.305941067524899
 42
5.497787143782138
  0
ELLIPSE
  5
201
330
1BA
100
AcDbEntity
  8
0
  6
Continuous
 62
     0
370
     0
100
AcDbEllipse
 10
617.26697
 20
191.42245
 30
0.0
 11
-29.50068283081055
 21
0.0
 31
0.0
210
0.0
220
0.0
230
1.0
 40
0.57735
 41
2.356194490192345
 42
4.118836875965107
  0
ELLIPSE
  5
202
330
1BA
100
AcDbEntity
  8
0
  6
Continuous
 62
     0
370
     0
100
AcDbEllipse
 10
617.26697
 20
191.42245
 30
0.0
 11
-14.99958176025393
 21
0.0
 31
0.0
210
0.0
220
0.0
230
1.0
 40
0.57735
 41
5.977972787656897
 42
8.63937979737193
  0
ELLIPSE
  5
203
330
1BA
100
AcDbEntity
  8
0
  6
Continuous
 62
     0
370
     0
100
AcDbEllipse
 10
617.26697
 20
191.42245
 30
0.0
 11
-14.99958176025393
 21
0.0
 31
0.0
210
0.0
220
0.0
230
1.0
 40
0.57735
 41
2.356194490192345
 42
3.446805155833108
  0
ELLIPSE
  5
204
330
1BA
100
AcDbEntity
  8
0
  6
Continuous
 62
     0
370
     0
100
AcDbEllipse
 10
617.26697
 20
192.647195
 30
0.0
 11
-13.49958176025393
 21
0.0
 31
0.0
210
0.0
220
0.0
230
1.0
 40
0.57735
 41
6.283184418913278
 42
8.63937979737193
  0
ELLIPSE
  5
205
330
1BA
100
AcDbEntity
  8
0
  6
Continuous
 62
     0
370
     0
100
AcDbEllipse
 10
617.26697
 20
192.647195
 30
0.0
 11
-13.49958176025393
 21
0.0
 31
0.0
210
0.0
220
0.0
230
1.0
 40
0.57735
 41
2.356194490192345
 42
3.141593464994136
  0
LINE
  5
206
330
1BA
100
AcDbEntity
  8
0
  6
Continuous
 62
     0
370
    30
100
AcDbLine
 10
630.766551
 20
192.647195
 30
0.0
 11
630.766551
 21
193.29335
 31
0.0
  0
LINE
  5
207
330
1BA
100
AcDbEntity
  8
0
  6
Continuous
 62
     0
370
    30
100
AcDbLine
 10
603.767388
 20
192.647195
 30
0.0
 11
603.767388
 21
193.29335
 31
0.0
  0
LWPOLYLINE
  5
208
330
1BA
100
AcDbEntity
  8
0
  6
Continuous
 62
     0
370
    30
100
AcDbPolyline
 90
       21
 70
     0
 43
0.0
 10
600.766968
 20
205.667343
 10
599.559204
 20
205.178864
 10
598.393433
 20
204.656509
 10
597.272522
 20
204.10144
 10
596.199402
 20
203.514755
 10
595.17688
 20
202.897614
 10
594.207764
 20
202.251205
 10
593.294189
 20
201.576981
 10
592.437866
 20
200.876572
 10
591.640747
 20
200.15155
 10
590.904541
 20
199.403549
 10
590.23114
 20
198.634155
 10
589.622375
 20
197.844955
 10
589.080017
 20
197.037582
 10
588.605896
 20
196.213623
 10
588.201904
 20
195.374695
 10
587.869202
 20
194.523041
 10
587.608521
 20
193.661469
 10
587.420715
 20
192.792816
 10
587.306396
 20
191.919907
 10
587.266296
 20
191.014206
  0
LWPOLYLINE
  5
209
330
1BA
100
AcDbEntity
  8
0
  6
Continuous
 62
     0
370
    30
100
AcDbPolyline
 90
       21
 70
     0
 43
0.0
 10
647.267639
 20
191.014206
 10
647.230225
 20
191.888519
 10
647.118408
 20
192.76152
 10
646.933105
 20
193.630386
 10
646.674988
 20
194.492325
 10
646.344971
 20
195.344482
 10
645.943787
 20
196.184082
 10
645.472717
 20
197.008835
 10
644.93335
 20
197.817062
 10
644.327454
 20
198.607117
 10
643.656677
 20
199.37735
 10
642.922729
 20
200.126099
 10
642.12738
 20
200.851746
 10
641.272217
 20
201.552612
 10
640.359131
 20
202.227127
 10
639.390625
 20
202.873978
 10
638.369324
 20
203.491913
 10
637.297974
 20
204.079742
 10
636.179199
 20
204.6362
 10
635.015686
 20
205.160095
 10
633.766968
 20
205.666824
  0
LINE
  5
20A
330
1BA
100
AcDbEntity
  8
0
  6
Continuous
 62
     0
370
    30
100
AcDbLine
 10
647.267652
 20
183.257484
 30
0.0
 11
647.267652
 21
191.014202
 31
0.0
  0
LINE
  5
20B
330
1BA
100
AcDbEntity
  8
0
  6
Continuous
 62
     0
370
    30
100
AcDbLine
 10
587.266287
 20
183.257485
 30
0.0
 11
587.266287
 21
191.014202
 31
0.0
  0
ELLIPSE
  5
20C
330
1BA
100
AcDbEntity
  8
0
  6
Continuous
 62
     0
370
    30
100
AcDbEllipse
 10
687.977648
 20
150.597621
 30
0.0
 11
30.0
 21
0.0
 31
0.0
210
0.0
220
0.0
230
-1.0
 40
0.57735
 41
5.497787143782138
 42
8.63937979737193
  0
ELLIPSE
  5
20D
330
1BA
100
AcDbEntity
  8
0
  6
Continuous
 62
     0
370
    30
100
AcDbEllipse
 10
687.977648
 20
150.597621
 30
0.0
 11
30.0
 21
0.0
 31
0.0
210
0.0
220
0.0
230
-1.0
 40
0.57735
 41
5.278464157976863
 42
5.497787143782138
  0
ELLIPSE
  5
20E
330
1BA
100
AcDbEntity
  8
0
  6
Continuous
 62
     0
370
    30
100
AcDbEllipse
 10
687.977648
 20
150.597621
 30
0.0
 11
30.0
 21
0.0
 31
0.0
210
0.0
220
0.0
230
-1.0
 40
0.57735
 41
2.356194490192345
 42
4.146313820071892
  0
ELLIPSE
  5
20F
330
1BA
100
AcDbEntity
  8
0
  6
Continuous
 62
     0
370
    30
100
AcDbEllipse
 10
687.977648
 20
142.432656
 30
0.0
 11
30.0
 21
0.0
 31
0.0
210
0.0
220
0.0
230
-1.0
 40
0.57735
 41
2.356194490192345
 42
3.141592662229479
  0
ELLIPSE
  5
210
330
1BA
100
AcDbEntity
  8
0
  6
Continuous
 62
     0
370
    30
100
AcDbEllipse
 10
687.977648
 20
142.432656
 30
0.0
 11
30.0
 21
0.0
 31
0.0
210
0.0
220
0.0
230
-1.0
 40
0.57735
 41
0.0000000086396863
 42
2.356194490192345
  0
ELLIPSE
  5
211
330
1BA
100
AcDbEntity
  8
0
  6
Continuous
 62
     0
370
    30
100
AcDbEllipse
 10
687.977648
 20
150.597621
 30
0.0
 11
-14.0
 21
0.0
 31
0.0
210
0.0
220
0.0
230
1.0
 40
0.57735
 41
0.7853981633974483
 42
3.141592644950107
  0
ELLIPSE
  5
212
330
1BA
100
AcDbEntity
  8
0
  6
Continuous
 62
     0
370
    30
100
AcDbEllipse
 10
687.977648
 20
150.597621
 30
0.0
 11
-14.0
 21
0.0
 31
0.0
210
0.0
220
0.0
230
1.0
 40
0.57735
 41
-0.0000000086396863
 42
0.7853981633974483
  0
LINE
  5
213
330
1BA
100
AcDbEntity
  8
0
  6
Continuous
 62
     0
370
    30
100
AcDbLine
 10
673.977648
 20
150.597621
 30
0.0
 11
673.977648
 21
155.805373
 31
0.0
  0
LINE
  5
214
330
1BA
100
AcDbEntity
  8
0
  6
Continuous
 62
     0
370
    30
100
AcDbLine
 10
701.977648
 20
150.597621
 30
0.0
 11
701.977648
 21
155.805373
 31
0.0
  0
LINE
  5
215
330
1BA
100
AcDbEntity
  8
0
  6
Continuous
 62
     0
370
    30
100
AcDbLine
 10
717.977648
 20
150.597621
 30
0.0
 11
717.977648
 21
142.432655
 31
0.0
  0
LINE
  5
216
330
1BA
100
AcDbEntity
  8
0
  6
Continuous
 62
     0
370
    30
100
AcDbLine
 10
657.977648
 20
150.597621
 30
0.0
 11
657.977648
 21
142.432656
 31
0.0
  0
ARC
  5
217
330
1BA
100
AcDbEntity
  8
0
  6
Continuous
 62
     0
370
    30
100
AcDbCircle
 10
766.332993
 20
297.328662
 30
0.0
 40
92.360828877182
100
AcDbArc
 50
190.202225
 51
194.900763
  0
LWPOLYLINE
  5
218
330
1BA
100
AcDbEntity
  8
0
  6
Continuous
 62
     0
370
     0
100
AcDbPolyline
 90
       25
 70
     0
 43
0.0
 10
674.125671
 20
276.18457
 10
674.124451
 20
275.61908
 10
674.122009
 20
275.031647
 10
674.119019
 20
274.424438
 10
674.116821
 20
273.799622
 10
674.116943
 20
273.159576
 10
674.121277
 20
272.506592
 10
674.131958
 20
271.842926
 10
674.151184
 20
271.170776
 10
674.181274
 20
270.492249
 10
674.224609
 20
269.80954
 10
674.283813
 20
269.125031
 10
674.36145
 20
268.441284
 10
674.460144
 20
267.760773
 10
674.582642
 20
267.086151
 10
674.731628
 20
266.421021
 10
674.910034
 20
265.76947
 10
675.120728
 20
265.135773
 10
675.366272
 20
264.525574
 10
675.64917
 20
263.944885
 10
675.970886
 20
263.401154
 10
676.33197
 20
262.902466
 10
676.732605
 20
262.456909
 10
677.1698
 20
262.071655
 10
677.652588
 20
261.746002
  0
ARC
  5
219
330
1BA
100
AcDbEntity
  8
0
  6
Continuous
 62
     0
370
     0
100
AcDbCircle
 10
673.879196
 20
277.130582
 30
0.0
 40
0.9775926908324346
100
AcDbArc
 50
204.155304
 51
284.603452
  0
LWPOLYLINE
  5
21A
330
1BA
100
AcDbEntity
  8
0
  6
Continuous
 62
     0
370
     0
100
AcDbPolyline
 90
       26
 70
     0
 43
0.0
 10
672.987183
 20
276.73053
 10
672.988342
 20
276.138
 10
672.991394
 20
275.522308
 10
672.996948
 20
274.885834
 10
673.005981
 20
274.231171
 10
673.019775
 20
273.561005
 10
673.039673
 20
272.877747
 10
673.067444
 20
272.183594
 10
673.104919
 20
271.480804
 10
673.154053
 20
270.771637
 10
673.216858
 20
270.058441
 10
673.295471
 20
269.343323
 10
673.392151
 20
268.628357
 10
673.509338
 20
267.915741
 10
673.649353
 20
267.207947
 10
673.81488
 20
266.507751
 10
674.008423
 20
265.818604
 10
674.232727
 20
265.144104
 10
674.490356
 20
264.488464
 10
674.783752
 20
263.856964
 10
675.115112
 20
263.255371
 10
675.485535
 20
262.690582
 10
675.895508
 20
262.169861
 10
676.344482
 20
261.700623
 10
676.829956
 20
261.290192
 10
677.371033
 20
260.931366
  0
ELLIPSE
  5
21B
330
1BA
100
AcDbEntity
  8
0
  6
Continuous
 62
     0
370
     0
100
AcDbEllipse
 10
678.078153
 20
261.339601
 30
0.0
 11
-0.4999687070349809
 21
-0.8660434700324154
 31
0.0
210
0.0
220
0.0
230
-1.0
 40
0.577374
 41
0.7854190255917368
 42
1.710443529148735
  0
LINE
  5
21C
330
1BA
100
AcDbEntity
  8
0
  6
Continuous
 62
     0
370
     0
100
AcDbLine
 10
672.987202
 20
276.73054
 30
0.0
 11
672.987202
 21
317.262486
 31
0.0
  0
LINE
  5
21D
330
1BA
100
AcDbEntity
  8
0
  6
Continuous
 62
     0
370
     0
100
AcDbLine
 10
674.125738
 20
276.184576
 30
0.0
 11
674.125738
 21
292.874065
 31
0.0
  0
LINE
  5
21E
330
1BA
100
AcDbEntity
  8
0
  6
Continuous
 62
     0
370
    30
100
AcDbLine
 10
674.125738
 20
292.874065
 30
0.0
 11
674.125738
 21
299.72384
 31
0.0
  0
LINE
  5
21F
330
1BA
100
AcDbEntity
  8
0
  6
Continuous
 62
     0
370
     0
100
AcDbLine
 10
674.125738
 20
299.72384
 30
0.0
 11
674.125738
 21
316.711357
 31
0.0
  0
ELLIPSE
  5
220
330
1BA
100
AcDbEntity
  8
0
  6
Continuous
 62
     0
370
     0
100
AcDbEllipse
 10
673.986565
 20
317.283088
 30
0.0
 11
1.000000000000001
 21
0.0
 31
0.0
210
0.0
220
0.0
230
-1.0
 40
0.57735
 41
1.431169986637274
 42
3.105899872108308
  0
ARC
  5
221
330
1BA
100
AcDbEntity
  8
0
  6
Continuous
 62
     0
370
     0
100
AcDbCircle
 10
687.257944
 20
309.791431
 30
0.0
 40
0.7770103114787191
100
AcDbArc
 50
187.610687
 51
283.730374
  0
LWPOLYLINE
  5
222
330
1BA
100
AcDbEntity
  8
0
  6
Continuous
 62
     0
370
     0
100
AcDbPolyline
 90
       20
 70
     0
 43
0.0
 10
687.442383
 20
309.036621
 10
687.391479
 20
309.793549
 10
687.264343
 20
310.547333
 10
687.063477
 20
311.2948
 10
686.792664
 20
312.033691
 10
686.456116
 20
312.762817
 10
686.057983
 20
313.481964
 10
685.602844
 20
314.191071
 10
685.095337
 20
314.890228
 10
684.539307
 20
315.579834
 10
683.938354
 20
316.260101
 10
683.296204
 20
316.930725
 10
682.616638
 20
317.590485
 10
681.904236
 20
318.237335
 10
681.164429
 20
318.868134
 10
680.404053
 20
319.477753
 10
679.632874
 20
320.059204
 10
678.862793
 20
320.603546
 10
678.107788
 20
321.100586
 10
677.371033
 20
321.547028
  0
ELLIPSE
  5
223
330
1BA
100
AcDbEntity
  8
0
  6
Continuous
 62
     0
370
     0
100
AcDbEllipse
 10
678.078153
 20
321.955288
 30
0.0
 11
-0.4999658371254505
 21
-0.8660451268308412
 31
0.0
210
0.0
220
0.0
230
-1.0
 40
0.577377
 41
6.143581742529119
 42
7.068606246086089
  0
ELLIPSE
  5
224
330
1BA
100
AcDbEntity
  8
0
  6
Continuous
 62
     0
370
     0
100
AcDbEllipse
 10
687.478055
 20
269.076518
 30
0.0
 11
-0.9999999999999989
 21
0.0
 31
0.0
210
0.0
220
0.0
230
1.0
 40
0.57735
 41
6.143558967020022
 42
7.818288852493118
  0
LINE
  5
225
330
1BA
100
AcDbEntity
  8
0
  6
Continuous
 62
     0
370
     0
100
AcDbLine
 10
687.44237
 20
268.499536
 30
0.0
 11
687.44237
 21
309.036625
 31
0.0
  0
LWPOLYLINE
  5
226
330
1BA
100
AcDbEntity
  8
0
  6
Continuous
 62
     0
370
     0
100
AcDbPolyline
 90
       19
 70
     0
 43
0.0
 10
674.125732
 20
316.711365
 10
674.124634
 20
317.318329
 10
674.121826
 20
317.891968
 10
674.11853
 20
318.43045
 10
674.116577
 20
318.932739
 10
674.118408
 20
319.398071
 10
674.127014
 20
319.826172
 10
674.145447
 20
320.216766
 10
674.177063
 20
320.569824
 10
674.225464
 20
320.88501
 10
674.294312
 20
321.161682
 10
674.387268
 20
321.399109
 10
674.508362
 20
321.596161
 10
674.661499
 20
321.751038
 10
674.850952
 20
321.86142
 10
675.080688
 20
321.924927
 10
675.354797
 20
321.938477
 10
675.67688
 20
321.898895
 10
676.058716
 20
321.800293
  0
LINE
  5
227
330
1BA
100
AcDbEntity
  8
0
  6
Continuous
 62
     0
370
     0
100
AcDbLine
 10
674.125738
 20
316.711357
 30
0.0
 11
676.458341
 21
316.900627
 31
0.0
  0
LWPOLYLINE
  5
228
330
1BA
100
AcDbEntity
  8
0
  6
Continuous
 62
     0
370
    30
100
AcDbPolyline
 90
       10
 70
     0
 43
0.0
 10
676.458313
 20
316.900635
 10
676.610962
 20
317.519562
 10
676.77417
 20
318.096405
 10
676.948181
 20
318.62561
 10
677.134277
 20
319.102936
 10
677.334656
 20
319.524628
 10
677.552307
 20
319.887756
 10
677.79126
 20
320.18985
 10
678.055908
 20
320.428741
 10
678.360046
 20
320.606049
  0
LWPOLYLINE
  5
229
330
1BA
100
AcDbEntity
  8
0
  6
Continuous
 62
     0
370
     0
100
AcDbPolyline
 90
       23
 70
     0
 43
0.0
 10
672.987183
 20
317.262482
 10
672.98822
 20
317.90451
 10
672.991821
 20
318.509979
 10
672.99884
 20
319.076691
 10
673.010742
 20
319.603271
 10
673.029419
 20
320.088745
 10
673.057495
 20
320.53299
 10
673.097717
 20
320.935974
 10
673.152832
 20
321.297699
 10
673.225708
 20
321.618134
 10
673.319763
 20
321.897156
 10
673.438416
 20
322.134521
 10
673.585327
 20
322.329407
 10
673.764221
 20
322.480743
 10
673.979065
 20
322.586884
 10
674.233765
 20
322.645782
 10
674.532349
 20
322.655212
 10
674.878479
 20
322.612335
 10
675.275085
 20
322.514679
 10
675.723267
 20
322.360229
 10
676.223389
 20
322.147491
 10
676.772522
 20
321.876801
 10
677.371033
 20
321.547028
  0
LWPOLYLINE
  5
22A
330
1BA
100
AcDbEntity
  8
0
  6
Continuous
 62
     0
370
     0
100
AcDbPolyline
 90
       26
 70
     0
 43
0.0
 10
687.442383
 20
268.499542
 10
687.419617
 20
267.920258
 10
687.351746
 20
267.344086
 10
687.239563
 20
266.773376
 10
687.08429
 20
266.21048
 10
686.887634
 20
265.657776
 10
686.651489
 20
265.117584
 10
686.377869
 20
264.592224
 10
686.068787
 20
264.083893
 10
685.726196
 20
263.594879
 10
685.352173
 20
263.127441
 10
684.948486
 20
262.684021
 10
684.516846
 20
262.26709
 10
684.05896
 20
261.879425
 10
683.576355
 20
261.524017
 10
683.070801
 20
261.204193
 10
682.54425
 20
260.92392
 10
681.998657
 20
260.687225
 10
681.436401
 20
260.498596
 10
680.860535
 20
260.363159
 10
680.274475
 20
260.286102
 10
679.683228
 20
260.272186
 10
679.092041
 20
260.326141
 10
678.507019
 20
260.451813
 10
677.935242
 20
260.651184
 10
677.371033
 20
260.931366
  0
ARC
  5
22B
330
1BA
100
AcDbEntity
  8
0
  6
Continuous
 62
     0
370
    30
100
AcDbCircle
 10
766.488939
 20
295.92772
 30
0.0
 40
92.44117875638631
100
AcDbArc
 50
166.88664
 51
177.646473
  0
LINE
  5
22C
330
1BA
100
AcDbEntity
  8
0
  6
Continuous
 62
     0
370
     0
100
AcDbLine
 10
674.125675
 20
276.18438
 30
0.0
 11
676.386529
 21
276.376856
 31
0.0
  0
ARC
  5
22D
330
1BA
100
AcDbEntity
  8
0
  6
Continuous
 62
     0
370
    30
100
AcDbCircle
 10
760.598413
 20
296.320866
 30
0.0
 40
86.54134312572182
100
AcDbArc
 50
182.282601
 51
193.323928
  0
LWPOLYLINE
  5
22E
330
1BA
100
AcDbEntity
  8
0
  6
Continuous
 62
     0
370
     0
100
AcDbPolyline
 90
       25
 70
     0
 43
0.0
 10
686.487793
 20
269.15686
 10
686.466431
 20
268.60257
 10
686.402649
 20
268.049225
 10
686.297241
 20
267.498962
 10
686.151428
 20
266.954041
 10
685.966675
 20
266.41687
 10
685.744751
 20
265.889954
 10
685.487549
 20
265.375702
 10
685.196899
 20
264.876678
 10
684.874695
 20
264.395386
 10
684.522705
 20
263.934448
 10
684.142578
 20
263.496857
 10
683.736084
 20
263.085541
 10
683.304688
 20
262.703705
 10
682.850037
 20
262.35498
 10
682.374084
 20
262.043579
 10
681.878845
 20
261.774048
 10
681.366577
 20
261.551178
 10
680.840332
 20
261.380432
 10
680.303467
 20
261.267578
 10
679.760864
 20
261.218231
 10
679.218262
 20
261.237885
 10
678.681702
 20
261.331329
 10
678.158264
 20
261.5
 10
677.652588
 20
261.746002
  0
ARC
  5
22F
330
1BA
100
AcDbEntity
  8
0
  6
Continuous
 62
     0
370
    30
100
AcDbCircle
 10
682.833483
 20
269.966472
 30
0.0
 40
3.880364578179163
100
AcDbArc
 50
241.425823
 51
337.178895
  0
LWPOLYLINE
  5
230
330
1BA
100
AcDbEntity
  8
0
  6
Continuous
 62
     0
370
    30
100
AcDbPolyline
 90
       18
 70
     0
 43
0.0
 10
680.977539
 20
266.558746
 10
680.4953
 20
266.882111
 10
680.039917
 20
267.278015
 10
679.616333
 20
267.738342
 10
679.226257
 20
268.253418
 10
678.870483
 20
268.813263
 10
678.547974
 20
269.408691
 10
678.256104
 20
270.031555
 10
677.992004
 20
270.673859
 10
677.752502
 20
271.328888
 10
677.534485
 20
271.990753
 10
677.334595
 20
272.653656
 10
677.149902
 20
273.312256
 10
676.977844
 20
273.961456
 10
676.81665
 20
274.596527
 10
676.664856
 20
275.212952
 10
676.521729
 20
275.807068
 10
676.386536
 20
276.376892
  0
LINE
  5
231
330
1BA
100
AcDbEntity
  8
0
  6
Continuous
 62
     0
370
    30
100
AcDbLine
 10
676.058731
 20
321.800247
 30
0.0
 11
676.195223
 21
321.754537
 31
0.0
  0
LINE
  5
232
330
1BA
100
AcDbEntity
  8
0
  6
Continuous
 62
     0
370
    30
100
AcDbLine
 10
677.578224
 20
321.089239
 30
0.0
 11
676.058726
 21
321.800248
 31
0.0
  0
LINE
  5
233
330
1BA
100
AcDbEntity
  8
0
  6
Continuous
 62
     0
370
    30
100
AcDbLine
 10
686.478187
 20
269.077371
 30
0.0
 11
686.309836
 21
267.554577
 31
0.0
  0
LINE
  5
234
330
1BA
100
AcDbEntity
  8
0
  6
Continuous
 62
     0
370
    30
100
AcDbLine
 10
686.478055
 20
269.076518
 30
0.0
 11
686.478746
 21
288.998271
 31
0.0
  0
LWPOLYLINE
  5
235
330
1BA
100
AcDbEntity
  8
0
  6
Continuous
 62
     0
370
    30
100
AcDbPolyline
 90
       20
 70
     0
 43
0.0
 10
686.47821
 20
309.603699
 10
686.433167
 20
310.285126
 10
686.321411
 20
310.967346
 10
686.145569
 20
311.648163
 10
685.908142
 20
312.325378
 10
685.611816
 20
312.996918
 10
685.259827
 20
313.661621
 10
684.856323
 20
314.319366
 10
684.405334
 20
314.970032
 10
683.910767
 20
315.613342
 10
683.37616
 20
316.24823
 10
682.80481
 20
316.873596
 10
682.200256
 20
317.48819
 10
681.566956
 20
318.089294
 10
680.910095
 20
318.673096
 10
680.236084
 20
319.234436
 10
679.553406
 20
319.766052
 10
678.872131
 20
320.259644
 10
678.208801
 20
320.704071
 10
677.578064
 20
321.089325
  0
ELLIPSE
  5
236
330
1BA
100
AcDbEntity
  8
0
  6
Continuous
 62
     0
370
    30
100
AcDbEllipse
 10
687.977648
 20
160.39558
 30
0.0
 11
-16.1
 21
0.0
 31
0.0
210
0.0
220
0.0
230
1.0
 40
0.57735
 41
6.281951162756931
 42
7.068583470577035
  0
ELLIPSE
  5
237
330
1BA
100
AcDbEntity
  8
0
  6
Continuous
 62
     0
370
    30
100
AcDbEllipse
 10
687.977648
 20
160.39558
 30
0.0
 11
-16.1
 21
0.0
 31
0.0
210
0.0
220
0.0
230
1.0
 40
0.57735
 41
0.7853981633974483
 42
3.142826780733069
  0
LWPOLYLINE
  5
238
330
1BA
100
AcDbEntity
  8
0
  6
Continuous
 62
     0
370
    30
100
AcDbPolyline
 90
       27
 70
     0
 43
0.0
 10
672.558655
 20
279.275116
 10
672.54425
 20
278.531342
 10
672.507141
 20
277.739868
 10
672.452759
 20
276.914215
 10
672.387634
 20
276.06601
 10
672.31897
 20
275.204132
 10
672.253113
 20
274.334961
 10
672.195251
 20
273.462219
 10
672.150208
 20
272.588959
 10
672.122253
 20
271.717804
 10
672.114441
 20
270.850525
 10
672.130066
 20
269.988892
 10
672.172119
 20
269.134644
 10
672.243225
 20
268.289673
 10
672.346008
 20
267.456268
 10
672.48291
 20
266.637115
 10
672.65625
 20
265.835022
 10
672.868469
 20
265.053101
 10
673.121399
 20
264.295288
 10
673.416992
 20
263.565735
 10
673.756775
 20
262.868988
 10
674.141968
 20
262.210083
 10
674.572632
 20
261.59436
 10
675.047913
 20
261.027069
 10
675.5672
 20
260.51355
 10
676.128235
 20
260.058502
 10
676.753052
 20
259.651367
  0
LWPOLYLINE
  5
239
330
1BA
100
AcDbEntity
  8
0
  6
Continuous
 62
     0
370
    30
100
AcDbPolyline
 90
       31
 70
     0
 43
0.0
 10
691.650513
 20
268.252411
 10
691.609314
 20
267.627563
 10
691.491516
 20
266.999542
 10
691.303223
 20
266.375671
 10
691.052185
 20
265.762024
 10
690.746765
 20
265.163055
 10
690.394897
 20
264.581909
 10
690.003357
 20
264.020721
 10
689.577087
 20
263.480682
 10
689.12085
 20
262.96286
 10
688.638733
 20
262.468384
 10
688.133301
 20
261.998199
 10
687.606873
 20
261.553345
 10
687.061707
 20
261.134796
 10
686.499878
 20
260.743622
 10
685.922974
 20
260.381226
 10
685.332458
 20
260.049103
 10
684.729919
 20
259.749084
 10
684.117065
 20
259.482971
 10
683.495422
 20
259.252594
 10
682.867004
 20
259.059998
 10
682.233826
 20
258.907349
 10
681.598022
 20
258.796906
 10
680.961975
 20
258.730835
 10
680.328491
 20
258.711395
 10
679.700562
 20
258.740234
 10
679.081543
 20
258.818695
 10
678.474792
 20
258.948059
 10
677.883606
 20
259.129303
 10
677.311584
 20
259.362244
 10
676.753052
 20
259.651367
  0
LWPOLYLINE
  5
23A
330
1BA
100
AcDbEntity
  8
0
  6
Continuous
 62
     0
370
    30
100
AcDbPolyline
 90
       28
 70
     0
 43
0.0
 10
686.14624
 20
260.516937
 10
685.432007
 20
260.159058
 10
684.704956
 20
259.846405
 10
683.967407
 20
259.582275
 10
683.22229
 20
259.370239
 10
682.472717
 20
259.213928
 10
681.722534
 20
259.117035
 10
680.97583
 20
259.08313
 10
680.237427
 20
259.115631
 10
679.512573
 20
259.217285
 10
678.807129
 20
259.389496
 10
678.126831
 20
259.633301
 10
677.477295
 20
259.948425
 10
676.863647
 20
260.332367
 10
676.290771
 20
260.782257
 10
675.762207
 20
261.293854
 10
675.280457
 20
261.861786
 10
674.84729
 20
262.480499
 10
674.46283
 20
263.144135
 10
674.12677
 20
263.846832
 10
673.838257
 20
264.583252
 10
673.59552
 20
265.34845
 10
673.396606
 20
266.137695
 10
673.239319
 20
266.947174
 10
673.121216
 20
267.773254
 10
673.039978
 20
268.612885
 10
672.992981
 20
269.463806
 10
672.977661
 20
270.33551
  0
LINE
  5
23B
330
1BA
100
AcDbEntity
  8
0
  6
Continuous
 62
     0
370
     0
100
AcDbLine
 10
672.558643
 20
279.275129
 30
0.0
 11
672.977648
 21
279.517041
 31
0.0
  0
LINE
  5
23C
330
1BA
100
AcDbEntity
  8
0
  6
Continuous
 62
     0
370
    30
100
AcDbLine
 10
691.767964
 20
308.736808
 30
0.0
 11
691.650526
 21
268.252425
 31
0.0
  0
LWPOLYLINE
  5
23D
330
1BA
100
AcDbEntity
  8
0
  6
Continuous
 62
     0
370
    30
100
AcDbPolyline
 90
       32
 70
     0
 43
0.0
 10
691.767944
 20
308.736816
 10
691.732239
 20
309.331268
 10
691.623657
 20
309.909637
 10
691.44751
 20
310.468018
 10
691.210999
 20
311.00528
 10
690.922058
 20
311.522034
 10
690.588074
 20
312.020233
 10
690.215759
 20
312.502197
 10
689.809814
 20
312.970367
 10
689.374634
 20
313.427155
 10
688.914429
 20
313.874817
 10
688.431702
 20
314.314911
 10
687.928589
 20
314.748718
 10
687.407166
 20
315.177521
 10
686.869446
 20
315.602509
 10
686.317017
 20
316.024445
 10
685.751221
 20
316.443756
 10
685.173401
 20
316.860565
 10
684.585144
 20
317.274963
 10
683.987793
 20
317.686981
 10
683.382874
 20
318.096436
 10
682.772339
 20
318.502747
 10
682.157959
 20
318.905212
 10
681.541687
 20
319.303101
 10
680.925903
 20
319.695282
 10
680.31311
 20
320.080566
 10
679.706116
 20
320.457458
 10
679.107849
 20
320.824402
 10
678.521484
 20
321.179688
 10
677.950134
 20
321.521515
 10
677.396912
 20
321.848114
 10
676.847473
 20
322.167847
  0
LWPOLYLINE
  5
23E
330
1BA
100
AcDbEntity
  8
0
  6
Continuous
 62
     0
370
    30
100
AcDbPolyline
 90
       27
 70
     0
 43
0.0
 10
676.847473
 20
322.167847
 10
676.246033
 20
322.511749
 10
675.683105
 20
322.826721
 10
675.162109
 20
323.110748
 10
674.685059
 20
323.362579
 10
674.252991
 20
323.581482
 10
673.86676
 20
323.766785
 10
673.526184
 20
323.918335
 10
673.229919
 20
324.036469
 10
672.976685
 20
324.121521
 10
672.764526
 20
324.173859
 10
672.59137
 20
324.193817
 10
672.454895
 20
324.181702
 10
672.352783
 20
324.137543
 10
672.282532
 20
324.060944
 10
672.241516
 20
323.951477
 10
672.227051
 20
323.808136
 10
672.236206
 20
323.629242
 10
672.265686
 20
323.412231
 10
672.312134
 20
323.154297
 10
672.371399
 20
322.851379
 10
672.438782
 20
322.498291
 10
672.508606
 20
322.088959
 10
672.57428
 20
321.616852
 10
672.62854
 20
321.076111
 10
672.664368
 20
320.463837
 10
672.676086
 20
319.759521
  0
LINE
  5
23F
330
1BA
100
AcDbEntity
  8
0
  6
Continuous
 62
     0
370
     0
100
AcDbLine
 10
672.676081
 20
319.759512
 30
0.0
 11
672.977648
 21
319.933622
 31
0.0
  0
LINE
  5
240
330
1BA
100
AcDbEntity
  8
0
  6
Continuous
 62
     0
370
    30
100
AcDbLine
 10
672.558643
 20
279.275129
 30
0.0
 11
672.676081
 21
319.759512
 31
0.0
  0
ELLIPSE
  5
241
330
1BA
100
AcDbEntity
  8
0
  6
Continuous
 62
     0
370
     0
100
AcDbEllipse
 10
687.977648
 20
331.861287
 30
0.0
 11
-15.73347743874461
 21
0.0
 31
0.0
210
0.0
220
0.0
230
1.0
 40
0.57735
 41
6.264374653198004
 42
7.068583470577035
  0
ELLIPSE
  5
242
330
1BA
100
AcDbEntity
  8
0
  6
Continuous
 62
     0
370
     0
100
AcDbEllipse
 10
687.977648
 20
331.861287
 30
0.0
 11
-15.73347743874461
 21
0.0
 31
0.0
210
0.0
220
0.0
230
1.0
 40
0.57735
 41
0.7853981633974483
 42
3.160403236235934
  0
ELLIPSE
  5
243
330
1BA
100
AcDbEntity
  8
0
  6
Continuous
 62
     0
370
     0
100
AcDbEllipse
 10
687.977648
 20
332.676359
 30
0.0
 11
-14.73347896183132
 21
0.0
 31
0.0
210
0.0
220
0.0
230
1.0
 40
0.57735
 41
0.78539816339745
 42
3.92699081698724
  0
ELLIPSE
  5
244
330
1BA
100
AcDbEntity
  8
0
  6
Continuous
 62
     0
370
     0
100
AcDbEllipse
 10
687.977648
 20
332.676359
 30
0.0
 11
-14.73347896183132
 21
0.0
 31
0.0
210
0.0
220
0.0
230
1.0
 40
0.57735
 41
3.926990816987239
 42
7.068583470577036
  0
LINE
  5
245
330
1BA
100
AcDbEntity
  8
0
  6
Continuous
 62
     0
370
    30
100
AcDbLine
 10
703.711113
 20
331.872462
 30
0.0
 11
703.699437
 21
332.230799
 31
0.0
  0
LINE
  5
246
330
1BA
100
AcDbEntity
  8
0
  6
Continuous
 62
     0
370
    30
100
AcDbLine
 10
672.244182
 20
331.872411
 30
0.0
 11
672.25586
 21
332.230776
 31
0.0
  0
LINE
  5
247
330
1BA
100
AcDbEntity
  8
0
  6
Continuous
 62
     0
370
    30
100
AcDbLine
 10
704.077636
 20
160.407052
 30
0.0
 11
703.711113
 21
331.872498
 31
0.0
  0
LINE
  5
248
330
1BA
100
AcDbEntity
  8
0
  6
Continuous
 62
     0
370
    30
100
AcDbLine
 10
671.87766
 20
160.407052
 30
0.0
 11
672.114167
 21
271.049093
 31
0.0
  0
LINE
  5
249
330
1BA
100
AcDbEntity
  8
0
  6
Continuous
 62
     0
370
    30
100
AcDbLine
 10
672.244182
 20
331.872498
 30
0.0
 11
672.226917
 21
323.795439
 31
0.0
  0
ARC
  5
24A
330
1BA
100
AcDbEntity
  8
0
  6
Continuous
 62
     0
370
     0
100
AcDbCircle
 10
401.811878
 20
331.060292
 30
0.0
 40
2.632269570676404
100
AcDbArc
 50
162.316468
 51
249.55244
  0
LINE
  5
24B
330
1BA
100
AcDbEntity
  8
0
  6
Continuous
 62
     0
370
     0
100
AcDbLine
 10
400.892295
 20
328.593876
 30
0.0
 11
400.892295
 21
330.226869
 31
0.0
  0
ARC
  5
24C
330
1BA
100
AcDbEntity
  8
0
  6
Continuous
 62
     0
370
     0
100
AcDbCircle
 10
402.12122
 20
332.963667
 30
0.0
 40
3.000053256111839
100
AcDbArc
 50
185.496304
 51
245.81812
  0
ELLIPSE
  5
24D
330
1BA
100
AcDbEntity
  8
0
  6
Continuous
 62
     0
370
     0
100
AcDbEllipse
 10
360.587208
 20
381.257905
 30
0.0
 11
-1.5
 21
0.0
 31
0.0
210
0.0
220
0.0
230
1.0
 40
0.57735
 41
3.92699081698726
 42
5.497787143782137
  0
LINE
  5
24E
330
1BA
100
AcDbEntity
  8
0
  6
Continuous
 62
     0
370
     0
100
AcDbLine
 10
359.526548
 20
381.870278
 30
0.0
 11
353.869694
 21
378.604292
 31
0.0
  0
ELLIPSE
  5
24F
330
1BA
100
AcDbEntity
  8
0
  6
Continuous
 62
     0
370
     0
100
AcDbEllipse
 10
354.930354
 20
377.991919
 30
0.0
 11
1.5
 21
0.0
 31
0.0
210
0.0
220
0.0
230
-1.0
 40
0.57735
 41
2.356194490192364
 42
3.926990816987241
  0
LINE
  5
250
330
1BA
100
AcDbEntity
  8
0
  6
Continuous
 62
     0
370
     0
100
AcDbLine
 10
381.445107
 20
361.458874
 30
0.0
 11
401.245848
 21
350.026911
 31
0.0
  0
LINE
  5
251
330
1BA
100
AcDbEntity
  8
0
  6
Continuous
 62
     0
370
     0
100
AcDbLine
 10
353.869694
 20
377.379547
 30
0.0
 11
362.249109
 21
372.541689
 31
0.0
  0
LWPOLYLINE
  5
252
330
1BA
100
AcDbEntity
  8
0
  6
Continuous
 62
     0
370
     0
100
AcDbPolyline
 90
       28
 70
     0
 43
0.0
 10
401.24585
 20
350.026917
 10
401.722809
 20
349.781799
 10
402.246124
 20
349.57019
 10
402.808228
 20
349.395111
 10
403.40152
 20
349.258698
 10
404.01828
 20
349.162964
 10
404.650146
 20
349.109253
 10
405.288544
 20
349.098175
 10
405.924866
 20
349.129761
 10
406.550537
 20
349.203827
 10
407.157104
 20
349.319275
 10
407.73642
 20
349.474518
 10
408.28064
 20
349.667511
 10
408.782471
 20
349.89563
 10
409.235077
 20
350.155792
 10
409.632416
 20
350.444489
 10
409.969086
 20
350.757843
 10
410.240601
 20
351.091583
 10
410.443268
 20
351.441284
 10
410.57428
 20
351.802185
 10
410.631958
 20
352.169403
 10
410.615631
 20
352.538055
 10
410.525269
 20
352.903076
 10
410.362305
 20
353.259613
 10
410.128784
 20
353.602753
 10
409.828003
 20
353.92807
 10
409.463715
 20
354.23114
 10
409.024017
 20
354.517639
  0
LINE
  5
253
330
1BA
100
AcDbEntity
  8
0
  6
Continuous
 62
     0
370
     0
100
AcDbLine
 10
384.652083
 20
368.588788
 30
0.0
 11
409.024023
 21
354.517642
 31
0.0
  0
LINE
  5
254
330
1BA
100
AcDbEntity
  8
0
  6
Continuous
 62
     0
370
     0
100
AcDbLine
 10
361.647868
 20
381.870278
 30
0.0
 11
365.559611
 21
379.611832
 31
0.0
  0
LWPOLYLINE
  5
255
330
1BA
100
AcDbEntity
  8
0
  6
Continuous
 62
     0
370
     0
100
AcDbPolyline
 90
       22
 70
     0
 43
0.0
 10
411.134918
 20
331.049042
 10
411.098358
 20
330.661438
 10
410.986908
 20
330.278656
 10
410.801971
 20
329.905457
 10
410.545898
 20
329.546539
 10
410.221863
 20
329.206421
 10
409.833984
 20
328.889374
 10
409.387085
 20
328.599365
 10
408.88678
 20
328.340057
 10
408.339386
 20
328.114685
 10
407.75177
 20
327.926086
 10
407.131256
 20
327.776642
 10
406.485718
 20
327.668182
 10
405.823181
 20
327.602142
 10
405.152039
 20
327.579285
 10
404.480652
 20
327.599915
 10
403.817505
 20
327.663788
 10
403.170898
 20
327.770111
 10
402.54892
 20
327.917542
 10
401.959442
 20
328.104187
 10
401.409821
 20
328.327759
 10
400.892303
 20
328.593872
  0
LWPOLYLINE
  5
256
330
1BA
100
AcDbEntity
  8
0
  6
Continuous
 62
     0
370
     0
100
AcDbPolyline
 90
       29
 70
     0
 43
0.0
 10
400.892303
 20
349.414551
 10
401.393463
 20
349.155975
 10
401.941498
 20
348.931335
 10
402.529694
 20
348.743561
 10
403.150543
 20
348.594879
 10
403.796265
 20
348.487244
 10
404.458832
 20
348.421997
 10
405.129852
 20
348.399963
 10
405.800934
 20
348.421326
 10
406.463654
 20
348.485962
 10
407.109741
 20
348.592926
 10
407.731018
 20
348.740997
 10
408.319702
 20
348.928223
 10
408.868469
 20
349.152283
 10
409.370331
 20
349.41037
 10
409.819092
 20
349.69928
 10
410.209015
 20
350.01532
 10
410.535339
 20
350.354584
 10
410.793854
 20
350.712769
 10
410.981415
 20
351.085419
 10
411.09549
 20
351.467804
 10
411.134888
 20
351.855194
 10
411.098938
 20
352.242676
 10
410.988129
 20
352.625427
 10
410.803986
 20
352.998627
 10
410.548584
 20
353.357574
 10
410.225311
 20
353.697784
 10
409.838104
 20
354.014954
 10
409.377563
 20
354.313507
  0
LINE
  5
257
330
1BA
100
AcDbEntity
  8
0
  6
Continuous
 62
     0
370
     0
100
AcDbLine
 10
400.892295
 20
330.226869
 30
0.0
 11
400.892295
 21
349.414539
 31
0.0
  0
ELLIPSE
  5
258
330
1BA
100
AcDbEntity
  8
0
  6
Continuous
 62
     0
370
     0
100
AcDbEllipse
 10
361.647868
 20
381.46203
 30
0.0
 11
0.2500000000000006
 21
0.4330127018922202
 31
0.0
210
0.0
220
0.0
230
1.0
 40
0.57735
 41
-0.0000000228500152
 42
0.785398163397562
  0
ELLIPSE
  5
259
330
1BA
100
AcDbEntity
  8
0
  6
Continuous
 62
     0
370
     0
100
AcDbEllipse
 10
409.024023
 20
354.109394
 30
0.0
 11
-0.2500000000000011
 21
-0.4330127018922211
 31
0.0
210
0.0
220
0.0
230
-1.0
 40
0.57735
 41
2.356194490192402
 42
3.926990816987241
  0
ELLIPSE
  5
25A
330
1BA
100
AcDbEntity
  8
0
  6
Continuous
 62
     0
370
     0
100
AcDbEllipse
 10
359.526548
 20
381.46203
 30
0.0
 11
0.2500000000000001
 21
-0.4330127018922194
 31
0.0
210
0.0
220
0.0
230
1.0
 40
0.57735
 41
2.356194490192345
 42
3.141592685079789
  0
ELLIPSE
  5
25B
330
1BA
100
AcDbEntity
  8
0
  6
Continuous
 62
     0
370
     0
100
AcDbEllipse
 10
353.869694
 20
378.196043
 30
0.0
 11
0.2500000000000001
 21
-0.4330127018922194
 31
0.0
210
0.0
220
0.0
230
1.0
 40
0.57735
 41
2.356194490192288
 42
3.926990816987241
  0
ELLIPSE
  5
25C
330
1BA
100
AcDbEntity
  8
0
  6
Continuous
 62
     0
370
     0
100
AcDbEllipse
 10
354.930354
 20
377.583671
 30
0.0
 11
2.0
 21
0.0
 31
0.0
210
0.0
220
0.0
230
-1.0
 40
0.57735
 41
2.356194490192331
 42
3.262023162571155
  0
ELLIPSE
  5
25D
330
1BA
100
AcDbEntity
  8
0
  6
Continuous
 62
     0
370
     0
100
AcDbEllipse
 10
353.869694
 20
376.971298
 30
0.0
 11
-0.2500000000000001
 21
-0.4330127018922194
 31
0.0
210
0.0
220
0.0
230
-1.0
 40
0.57735
 41
0.7853981633973915
 42
2.356194490192459
  0
LINE
  5
25E
330
1BA
100
AcDbEntity
  8
0
  6
Continuous
 62
     0
370
     0
100
AcDbLine
 10
381.175404
 20
360.798091
 30
0.0
 11
400.892295
 21
349.414539
 31
0.0
  0
LINE
  5
25F
330
1BA
100
AcDbEntity
  8
0
  6
Continuous
 62
     0
370
     0
100
AcDbLine
 10
353.51614
 20
376.767174
 30
0.0
 11
361.966265
 21
371.888493
 31
0.0
  0
ELLIPSE
  5
260
330
1BA
100
AcDbEntity
  8
0
  6
Continuous
 62
     0
370
     0
100
AcDbEllipse
 10
401.245848
 20
349.618663
 30
0.0
 11
-0.2500000000000001
 21
-0.4330127018922194
 31
0.0
210
0.0
220
0.0
230
-1.0
 40
0.57735
 41
0.7853981633975053
 42
2.356194490192203
  0
ELLIPSE
  5
261
330
1BA
100
AcDbEntity
  8
0
  6
Continuous
 62
     0
370
     0
100
AcDbEllipse
 10
354.930354
 20
365.336222
 30
0.0
 11
2.0
 21
0.0
 31
0.0
210
0.0
220
0.0
230
-1.0
 40
0.57735
 41
2.356194490192331
 42
3.141592662229451
  0
LINE
  5
262
330
1BA
100
AcDbEntity
  8
0
  6
Continuous
 62
     0
370
     0
100
AcDbLine
 10
353.51614
 20
364.519726
 30
0.0
 11
353.51614
 21
376.767174
 31
0.0
  0
LINE
  5
263
330
1BA
100
AcDbEntity
  8
0
  6
Continuous
 62
     0
370
     0
100
AcDbLine
 10
358.103509
 20
361.871207
 30
0.0
 11
353.51614
 21
364.519726
 31
0.0
  0
LINE
  5
264
330
1BA
100
AcDbEntity
  8
0
  6
Continuous
 62
     0
370
     0
100
AcDbLine
 10
391.788724
 20
342.423039
 30
0.0
 11
377.596225
 21
350.617082
 31
0.0
  0
LWPOLYLINE
  5
265
330
1BA
100
AcDbEntity
  8
0
  6
Continuous
 62
     0
370
    30
100
AcDbPolyline
 90
       22
 70
     0
 43
0.0
 10
400.892303
 20
330.226868
 10
400.861694
 20
330.929504
 10
400.770264
 20
331.660614
 10
400.618896
 20
332.411621
 10
400.409851
 20
333.174561
 10
400.145599
 20
333.941681
 10
399.829163
 20
334.7052
 10
399.464752
 20
335.457672
 10
399.056885
 20
336.19223
 10
398.610443
 20
336.902863
 10
398.130188
 20
337.584534
 10
397.620453
 20
338.23172
 10
397.0849
 20
338.838287
 10
396.52713
 20
339.397125
 10
395.951385
 20
339.899323
 10
395.36319
 20
340.336182
 10
394.769226
 20
340.702301
 10
394.174744
 20
341.045441
 10
393.580231
 20
341.388702
 10
392.985748
 20
341.731934
 10
392.391235
 20
342.075165
 10
391.788727
 20
342.423035
  0
ELLIPSE
  5
266
330
1BA
100
AcDbEntity
  8
0
  6
Continuous
 62
     0
370
     0
100
AcDbEllipse
 10
392.142277
 20
342.627163
 30
0.0
 11
0.2499999999999991
 21
0.4330127018922177
 31
0.0
210
0.0
220
0.0
230
1.0
 40
0.57735
 41
2.356194490192288
 42
3.926990816987298
  0
ELLIPSE
  5
267
330
1BA
100
AcDbEntity
  8
0
  6
Continuous
 62
     0
370
     0
100
AcDbEllipse
 10
353.869694
 20
364.72385
 30
0.0
 11
0.2500000000000001
 21
0.4330127018922194
 31
0.0
210
0.0
220
0.0
230
1.0
 40
0.57735
 41
2.356194490192345
 42
3.141592630937856
  0
LINE
  5
268
330
1BA
100
AcDbEntity
  8
0
  6
Continuous
 62
     0
370
     0
100
AcDbLine
 10
400.892295
 20
328.593876
 30
0.0
 11
400.892295
 21
303.282482
 31
0.0
  0
ELLIPSE
  5
269
330
1BA
100
AcDbEntity
  8
0
  6
Continuous
 62
     0
370
    30
100
AcDbEllipse
 10
405.134935
 20
305.731972
 30
0.0
 11
-6.0
 21
0.0
 31
0.0
210
0.0
220
0.0
230
1.0
 40
0.57735
 41
0.7853981633974483
 42
3.141592644950101
  0
ELLIPSE
  5
26A
330
1BA
100
AcDbEntity
  8
0
  6
Continuous
 62
     0
370
    30
100
AcDbEllipse
 10
405.134935
 20
305.731972
 30
0.0
 11
-6.0
 21
0.0
 31
0.0
210
0.0
220
0.0
230
1.0
 40
0.57735
 41
-0.0000000086396987
 42
0.7853981633974483
  0
LINE
  5
26B
330
1BA
100
AcDbEntity
  8
0
  6
Continuous
 62
     0
370
    30
100
AcDbLine
 10
399.134935
 20
331.043366
 30
0.0
 11
399.134935
 21
305.731972
 31
0.0
  0
LINE
  5
26C
330
1BA
100
AcDbEntity
  8
0
  6
Continuous
 62
     0
370
    30
100
AcDbLine
 10
411.134935
 20
331.043366
 30
0.0
 11
411.134935
 21
305.731972
 31
0.0
  0
ARC
  5
26D
330
1BA
100
AcDbEntity
  8
0
  6
Continuous
 62
     0
370
    30
100
AcDbCircle
 10
354.155442
 20
365.394088
 30
0.0
 40
1.226453969799637
100
AcDbArc
 50
182.704312
 51
244.098391
  0
LINE
  5
26E
330
1BA
100
AcDbEntity
  8
0
  6
Continuous
 62
     0
370
    30
100
AcDbLine
 10
358.055319
 20
361.729927
 30
0.0
 11
353.619694
 21
364.290837
 31
0.0
  0
LINE
  5
26F
330
1BA
100
AcDbEntity
  8
0
  6
Continuous
 62
     0
370
    30
100
AcDbLine
 10
391.892277
 20
342.194151
 30
0.0
 11
377.55325
 21
350.472792
 31
0.0
  0
LWPOLYLINE
  5
270
330
1BA
100
AcDbEntity
  8
0
  6
Continuous
 62
     0
370
    30
100
AcDbPolyline
 90
       12
 70
     0
 43
0.0
 10
391.892273
 20
342.194153
 10
392.473633
 20
341.858612
 10
393.054962
 20
341.523102
 10
393.636536
 20
341.187195
 10
394.218292
 20
340.850952
 10
394.797699
 20
340.516541
 10
395.372223
 20
340.163544
 10
395.940155
 20
339.756317
 10
396.498718
 20
339.275299
 10
397.043121
 20
338.732574
 10
397.568115
 20
338.143341
 10
398.066711
 20
337.511322
  0
LINE
  5
271
330
1BA
100
AcDbEntity
  8
0
  6
Continuous
 62
     0
370
    30
100
AcDbLine
 10
352.930354
 20
377.583671
 30
0.0
 11
352.930354
 21
365.336222
 31
0.0
  0
ARC
  5
272
330
1BA
100
AcDbEntity
  8
0
  6
Continuous
 62
     0
370
    30
100
AcDbCircle
 10
389.910029
 20
333.174111
 30
0.0
 40
9.238079664292439
100
AcDbArc
 50
356.911104
 51
28.003478
  0
LINE
  5
273
330
1BA
100
AcDbEntity
  8
0
  6
Continuous
 62
     0
370
    30
100
AcDbLine
 10
411.1349
 20
351.862189
 30
0.0
 11
411.130987
 21
351.996247
 31
0.0
  0
ARC
  5
274
330
1BA
100
AcDbEntity
  8
0
  6
Continuous
 62
     0
370
    30
100
AcDbCircle
 10
407.911366
 20
351.6102
 30
0.0
 40
3.233368026145042
100
AcDbArc
 50
4.469889
 51
65.074744
  0
LINE
  5
275
330
1BA
100
AcDbEntity
  8
0
  6
Continuous
 62
     0
370
    30
100
AcDbLine
 10
352.930354
 20
377.583671
 30
0.0
 11
352.943701
 21
377.746122
 31
0.0
  0
ARC
  5
276
330
1BA
100
AcDbEntity
  8
0
  6
Continuous
 62
     0
370
    30
100
AcDbCircle
 10
354.155442
 20
377.525805
 30
0.0
 40
1.226453976757002
100
AcDbArc
 50
115.90161
 51
177.295686
  0
LINE
  5
277
330
1BA
100
AcDbEntity
  8
0
  6
Continuous
 62
     0
370
    30
100
AcDbLine
 10
353.619694
 20
378.629056
 30
0.0
 11
359.276548
 21
381.895042
 31
0.0
  0
ARC
  5
278
330
1BA
100
AcDbEntity
  8
0
  6
Continuous
 62
     0
370
    30
100
AcDbCircle
 10
360.587208
 20
379.374415
 30
0.0
 40
2.841019608612851
100
AcDbArc
 50
62.52675
 51
117.47325
  0
LINE
  5
279
330
1BA
100
AcDbEntity
  8
0
  6
Continuous
 62
     0
370
    30
100
AcDbLine
 10
384.716567
 20
368.720661
 30
0.0
 11
409.274023
 21
354.542407
 31
0.0
  0
LINE
  5
27A
330
1BA
100
AcDbEntity
  8
0
  6
Continuous
 62
     0
370
    30
100
AcDbLine
 10
361.897868
 20
381.895042
 30
0.0
 11
365.625384
 21
379.74296
 31
0.0
  0
LINE
  5
27B
330
1BA
100
AcDbEntity
  8
0
  6
Continuous
 62
     0
370
    30
100
AcDbLine
 10
411.134935
 20
351.864028
 30
0.0
 11
411.134935
 21
331.043366
 31
0.0
  0
LINE
  5
27C
330
1BA
100
AcDbEntity
  8
0
  6
Continuous
 62
     0
370
    30
100
AcDbLine
 10
399.13496
 20
332.676317
 30
0.0
 11
399.134935
 21
331.0434
 31
0.0
  0
LWPOLYLINE
  5
27D
330
1BA
100
AcDbEntity
  8
0
  6
Continuous
 62
     0
370
    30
100
AcDbPolyline
 90
       15
 70
     0
 43
0.0
 10
546.697571
 20
252.466568
 10
546.169617
 20
252.522827
 10
545.655762
 20
252.538483
 10
545.163635
 20
252.511566
 10
544.700378
 20
252.43515
 10
544.270874
 20
252.302979
 10
543.878296
 20
252.110794
 10
543.525085
 20
251.857559
 10
543.213318
 20
251.544571
 10
542.945068
 20
251.174454
 10
542.722229
 20
250.750473
 10
542.546387
 20
250.276886
 10
542.419067
 20
249.758148
 10
542.341309
 20
249.199127
 10
542.31366
 20
248.577209
  0
LINE
  5
27E
330
1BA
100
AcDbEntity
  8
0
  6
Continuous
 62
     0
370
     0
100
AcDbLine
 10
542.313651
 20
248.577211
 30
0.0
 11
542.313651
 21
246.944218
 31
0.0
  0
LWPOLYLINE
  5
27F
330
1BA
100
AcDbEntity
  8
0
  6
Continuous
 62
     0
370
     0
100
AcDbPolyline
 90
       22
 70
     0
 43
0.0
 10
552.556274
 20
249.388077
 10
552.517639
 20
249.001114
 10
552.404358
 20
248.61908
 10
552.217834
 20
248.246719
 10
551.960449
 20
247.888733
 10
551.635437
 20
247.549591
 10
551.246826
 20
247.233536
 10
550.799438
 20
246.944519
 10
550.299011
 20
246.686172
 10
549.751648
 20
246.461731
 10
549.164307
 20
246.273972
 10
548.544373
 20
246.12529
 10
547.899475
 20
246.017517
 10
547.237793
 20
245.952026
 10
546.567566
 20
245.929611
 10
545.897217
 20
245.950577
 10
545.235107
 20
246.014633
 10
544.589539
 20
246.121002
 10
543.968567
 20
246.268341
 10
543.380005
 20
246.454819
 10
542.831238
 20
246.678085
 10
542.31366
 20
246.944214
  0
LWPOLYLINE
  5
280
330
1BA
100
AcDbEntity
  8
0
  6
Continuous
 62
     0
370
     0
100
AcDbPolyline
 90
       18
 70
     0
 43
0.0
 10
542.31366
 20
248.577209
 10
542.829529
 20
248.311859
 10
543.394775
 20
248.082504
 10
544.001953
 20
247.892197
 10
544.643005
 20
247.743439
 10
545.309448
 20
247.638229
 10
545.992371
 20
247.577942
 10
546.6828
 20
247.563385
 10
547.371521
 20
247.594757
 10
548.0495
 20
247.671631
 10
548.707581
 20
247.792984
 10
549.337219
 20
247.957214
 10
549.929932
 20
248.162155
 10
550.477966
 20
248.40506
 10
550.973999
 20
248.682739
 10
551.411438
 20
248.991486
 10
551.784485
 20
249.327225
 10
552.098145
 20
249.699234
  0
ELLIPSE
  5
281
330
1BA
100
AcDbEntity
  8
0
  6
Continuous
 62
     0
370
     0
100
AcDbEllipse
 10
591.104019
 20
241.63699
 30
0.0
 11
-1.5
 21
0.0
 31
0.0
210
0.0
220
0.0
230
1.0
 40
0.57735
 41
0.7853981633974483
 42
2.356194490192345
  0
LINE
  5
282
330
1BA
100
AcDbEntity
  8
0
  6
Continuous
 62
     0
370
     0
100
AcDbLine
 10
592.164679
 20
241.024618
 30
0.0
 11
597.821533
 21
244.290604
 31
0.0
  0
ELLIPSE
  5
283
330
1BA
100
AcDbEntity
  8
0
  6
Continuous
 62
     0
370
     0
100
AcDbEllipse
 10
596.760873
 20
244.902976
 30
0.0
 11
1.5
 21
0.0
 31
0.0
210
0.0
220
0.0
230
-1.0
 40
0.57735
 41
5.497787143782138
 42
7.068583470577035
  0
LINE
  5
284
330
1BA
100
AcDbEntity
  8
0
  6
Continuous
 62
     0
370
     0
100
AcDbLine
 10
597.821533
 20
245.515349
 30
0.0
 11
550.445379
 21
272.867984
 31
0.0
  0
LWPOLYLINE
  5
285
330
1BA
100
AcDbEntity
  8
0
  6
Continuous
 62
     0
370
     0
100
AcDbPolyline
 90
       28
 70
     0
 43
0.0
 10
550.445374
 20
272.867981
 10
549.968445
 20
273.113098
 10
549.445129
 20
273.324707
 10
548.882996
 20
273.499786
 10
548.289734
 20
273.6362
 10
547.672974
 20
273.731934
 10
547.041077
 20
273.785645
 10
546.402649
 20
273.796722
 10
545.766357
 20
273.765137
 10
545.140686
 20
273.691071
 10
544.534119
 20
273.575623
 10
543.954834
 20
273.42038
 10
543.410583
 20
273.227386
 10
542.908752
 20
272.999268
 10
542.456177
 20
272.739105
 10
542.058838
 20
272.450409
 10
541.722168
 20
272.137054
 10
541.450623
 20
271.803314
 10
541.247986
 20
271.453613
 10
541.116943
 20
271.092712
 10
541.059265
 20
270.725494
 10
541.075562
 20
270.356842
 10
541.165955
 20
269.991791
 10
541.328918
 20
269.635284
 10
541.562439
 20
269.292145
 10
541.86322
 20
268.966827
 10
542.227539
 20
268.663757
 10
542.667175
 20
268.377258
  0
LINE
  5
286
330
1BA
100
AcDbEntity
  8
0
  6
Continuous
 62
     0
370
     0
100
AcDbLine
 10
590.043359
 20
241.024618
 30
0.0
 11
542.667204
 21
268.377253
 31
0.0
  0
ARC
  5
287
330
1BA
100
AcDbEntity
  8
0
  6
Continuous
 62
     0
370
     0
100
AcDbCircle
 10
543.540045
 20
249.678562
 30
0.0
 40
2.996778102369841
100
AcDbArc
 50
185.345581
 51
245.843062
  0
LINE
  5
288
330
1BA
100
AcDbEntity
  8
0
  6
Continuous
 62
     0
370
     0
100
AcDbLine
 10
542.313651
 20
267.764881
 30
0.0
 11
542.313651
 21
248.577211
 31
0.0
  0
LWPOLYLINE
  5
289
330
1BA
100
AcDbEntity
  8
0
  6
Continuous
 62
     0
370
     0
100
AcDbPolyline
 90
        9
 70
     0
 43
0.0
 10
540.576416
 20
270.497223
 10
540.558289
 20
270.125427
 10
540.609375
 20
269.7547
 10
540.729065
 20
269.389221
 10
540.915833
 20
269.033264
 10
541.167664
 20
268.690948
 10
541.481628
 20
268.36618
 10
541.854126
 20
268.062714
 10
542.31366
 20
267.764893
  0
ELLIPSE
  5
28A
330
1BA
100
AcDbEntity
  8
0
  6
Continuous
 62
     0
370
     0
100
AcDbEllipse
 10
590.043359
 20
240.616369
 30
0.0
 11
-0.2500000000000006
 21
-0.4330127018922202
 31
0.0
210
0.0
220
0.0
230
-1.0
 40
0.57735
 41
0.7853981633974485
 42
2.356194490192331
  0
ELLIPSE
  5
28B
330
1BA
100
AcDbEntity
  8
0
  6
Continuous
 62
     0
370
     0
100
AcDbEllipse
 10
542.667204
 20
267.969005
 30
0.0
 11
0.2500000000000011
 21
0.4330127018922211
 31
0.0
210
0.0
220
0.0
230
1.0
 40
0.57735
 41
0.7853981633974341
 42
2.356194490192345
  0
LINE
  5
28C
330
1BA
100
AcDbEntity
  8
0
  6
Continuous
 62
     0
370
     0
100
AcDbLine
 10
589.689805
 20
240.412245
 30
0.0
 11
542.313651
 21
267.764881
 31
0.0
  0
ELLIPSE
  5
28D
330
1BA
100
AcDbEntity
  8
0
  6
Continuous
 62
     0
370
     0
100
AcDbEllipse
 10
591.104019
 20
241.228742
 30
0.0
 11
-2.0
 21
0.0
 31
0.0
210
0.0
220
0.0
230
1.0
 40
0.57735
 41
0.7853981633974483
 42
2.356194490192345
  0
ELLIPSE
  5
28E
330
1BA
100
AcDbEntity
  8
0
  6
Continuous
 62
     0
370
     0
100
AcDbEllipse
 10
592.164679
 20
240.616369
 30
0.0
 11
-0.2500000000000001
 21
0.4330127018922194
 31
0.0
210
0.0
220
0.0
230
-1.0
 40
0.57735
 41
0.7853981633974341
 42
2.356194490192359
  0
LINE
  5
28F
330
1BA
100
AcDbEntity
  8
0
  6
Continuous
 62
     0
370
     0
100
AcDbLine
 10
592.518232
 20
240.412245
 30
0.0
 11
598.175087
 21
243.678232
 31
0.0
  0
ELLIPSE
  5
290
330
1BA
100
AcDbEntity
  8
0
  6
Continuous
 62
     0
370
     0
100
AcDbEllipse
 10
597.821533
 20
243.882356
 30
0.0
 11
-0.2500000000000001
 21
0.4330127018922194
 31
0.0
210
0.0
220
0.0
230
-1.0
 40
0.57735
 41
0.7853981633974625
 42
2.356194490192331
  0
ELLIPSE
  5
291
330
1BA
100
AcDbEntity
  8
0
  6
Continuous
 62
     0
370
     0
100
AcDbEllipse
 10
596.760873
 20
244.494728
 30
0.0
 11
2.0
 21
0.0
 31
0.0
210
0.0
220
0.0
230
-1.0
 40
0.57735
 41
5.497787143782145
 42
7.068583470577038
  0
ELLIPSE
  5
292
330
1BA
100
AcDbEntity
  8
0
  6
Continuous
 62
     0
370
     0
100
AcDbEllipse
 10
597.821533
 20
245.107101
 30
0.0
 11
0.2500000000000001
 21
0.4330127018922194
 31
0.0
210
0.0
220
0.0
230
1.0
 40
0.57735
 41
5.497787143782166
 42
7.068583470577035
  0
ELLIPSE
  5
293
330
1BA
100
AcDbEntity
  8
0
  6
Continuous
 62
     0
370
     0
100
AcDbEllipse
 10
550.445379
 20
272.459736
 30
0.0
 11
0.2500000000000001
 21
0.4330127018922194
 31
0.0
210
0.0
220
0.0
230
1.0
 40
0.57735
 41
-0.0000000228501555
 42
0.7853981633973346
  0
LWPOLYLINE
  5
294
330
1BA
100
AcDbEntity
  8
0
  6
Continuous
 62
     0
370
    30
100
AcDbPolyline
 90
       23
 70
     0
 43
0.0
 10
551.417236
 20
250.26149
 10
550.849976
 20
250.588974
 10
550.282776
 20
250.916473
 10
549.715515
 20
251.243958
 10
549.148254
 20
251.571472
 10
548.581055
 20
251.898849
 10
548.013916
 20
252.217072
 10
547.450256
 20
252.472198
 10
546.895935
 20
252.654449
 10
546.356262
 20
252.765167
 10
545.835327
 20
252.807388
 10
545.336304
 20
252.784485
 10
544.862427
 20
252.698349
 10
544.416992
 20
252.550308
 10
544.003967
 20
252.340164
 10
543.627625
 20
252.067673
 10
543.292114
 20
251.733521
 10
543.001282
 20
251.339355
 10
542.758667
 20
250.887756
 10
542.56665
 20
250.382614
 10
542.427368
 20
249.828232
 10
542.342834
 20
249.229324
 10
542.31366
 20
248.577209
  0
LINE
  5
295
330
1BA
100
AcDbEntity
  8
0
  6
Continuous
 62
     0
370
     0
100
AcDbLine
 10
551.417222
 20
250.261483
 30
0.0
 11
589.689805
 21
228.164797
 31
0.0
  0
LINE
  5
296
330
1BA
100
AcDbEntity
  8
0
  6
Continuous
 62
     0
370
     0
100
AcDbLine
 10
589.689805
 20
228.164797
 30
0.0
 11
589.689805
 21
240.412245
 31
0.0
  0
ELLIPSE
  5
297
330
1BA
100
AcDbEntity
  8
0
  6
Continuous
 62
     0
370
     0
100
AcDbEllipse
 10
591.104019
 20
228.981293
 30
0.0
 11
-2.0
 21
0.0
 31
0.0
210
0.0
220
0.0
230
1.0
 40
0.57735
 41
0.7853981633974483
 42
2.356194490192345
  0
LINE
  5
298
330
1BA
100
AcDbEntity
  8
0
  6
Continuous
 62
     0
370
     0
100
AcDbLine
 10
592.518232
 20
228.164797
 30
0.0
 11
592.518232
 21
240.412245
 31
0.0
  0
LINE
  5
299
330
1BA
100
AcDbEntity
  8
0
  6
Continuous
 62
     0
370
     0
100
AcDbLine
 10
598.175087
 20
231.430783
 30
0.0
 11
592.518232
 21
228.164797
 31
0.0
  0
LINE
  5
29A
330
1BA
100
AcDbEntity
  8
0
  6
Continuous
 62
     0
370
     0
100
AcDbLine
 10
598.175087
 20
231.430783
 30
0.0
 11
598.175087
 21
243.678232
 31
0.0
  0
ELLIPSE
  5
29B
330
1BA
100
AcDbEntity
  8
0
  6
Continuous
 62
     0
370
     0
100
AcDbEllipse
 10
596.760873
 20
232.247279
 30
0.0
 11
2.0
 21
0.0
 31
0.0
210
0.0
220
0.0
230
-1.0
 40
0.57735
 41
0.0000000086396837
 42
0.7853981633974484
  0
ELLIPSE
  5
29C
330
1BA
100
AcDbEntity
  8
0
  6
Continuous
 62
     0
370
     0
100
AcDbEllipse
 10
597.821533
 20
231.634907
 30
0.0
 11
0.2500000000000001
 21
-0.4330127018922194
 31
0.0
210
0.0
220
0.0
230
1.0
 40
0.57735
 41
0.0000000314898445
 42
0.7853981633974341
  0
ELLIPSE
  5
29D
330
1BA
100
AcDbEntity
  8
0
  6
Continuous
 62
     0
370
     0
100
AcDbEllipse
 10
592.164679
 20
228.368921
 30
0.0
 11
-0.2500000000000001
 21
0.4330127018922194
 31
0.0
210
0.0
220
0.0
230
-1.0
 40
0.57735
 41
2.356194490192359
 42
3.92699081698727
  0
ELLIPSE
  5
29E
330
1BA
100
AcDbEntity
  8
0
  6
Continuous
 62
     0
370
     0
100
AcDbEllipse
 10
590.043359
 20
228.368921
 30
0.0
 11
0.2500000000000001
 21
0.4330127018922194
 31
0.0
210
0.0
220
0.0
230
1.0
 40
0.57735
 41
2.356194490192345
 42
3.926990816987256
  0
ELLIPSE
  5
29F
330
1BA
100
AcDbEntity
  8
0
  6
Continuous
 62
     0
370
     0
100
AcDbEllipse
 10
551.770775
 20
250.465607
 30
0.0
 11
-0.2500000000000001
 21
-0.4330127018922194
 31
0.0
210
0.0
220
0.0
230
-1.0
 40
0.57735
 41
0.000000022850176
 42
0.78539816339742
  0
ELLIPSE
  5
2A0
330
1BA
100
AcDbEntity
  8
0
  6
Continuous
 62
     0
370
    30
100
AcDbEllipse
 10
546.556292
 20
224.082314
 30
0.0
 11
-6.0
 21
0.0
 31
0.0
210
0.0
220
0.0
230
1.0
 40
0.57735
 41
-0.000000008639689
 42
0.7853981633974483
  0
LINE
  5
2A1
330
1BA
100
AcDbEntity
  8
0
  6
Continuous
 62
     0
370
     0
100
AcDbLine
 10
542.313651
 20
246.944218
 30
0.0
 11
542.313651
 21
221.632824
 31
0.0
  0
ELLIPSE
  5
2A2
330
1BA
100
AcDbEntity
  8
0
  6
Continuous
 62
     0
370
    30
100
AcDbEllipse
 10
546.556292
 20
224.082314
 30
0.0
 11
-6.0
 21
0.0
 31
0.0
210
0.0
220
0.0
230
1.0
 40
0.57735
 41
0.7853981633974483
 42
3.141592644950108
  0
LINE
  5
2A3
330
1BA
100
AcDbEntity
  8
0
  6
Continuous
 62
     0
370
    30
100
AcDbLine
 10
552.556292
 20
249.393708
 30
0.0
 11
552.556292
 21
224.082314
 31
0.0
  0
LINE
  5
2A4
330
1BA
100
AcDbEntity
  8
0
  6
Continuous
 62
     0
370
    30
100
AcDbLine
 10
540.556292
 20
249.393708
 30
0.0
 11
540.556292
 21
224.082314
 31
0.0
  0
LINE
  5
2A5
330
1BA
100
AcDbEntity
  8
0
  6
Continuous
 62
     0
370
    30
100
AcDbLine
 10
546.573991
 20
252.48335
 30
0.0
 11
546.697453
 21
252.465718
 31
0.0
  0
ARC
  5
2A6
330
1BA
100
AcDbEntity
  8
0
  6
Continuous
 62
     0
370
    30
100
AcDbCircle
 10
540.059787
 20
233.116752
 30
0.0
 40
20.43281591293953
100
AcDbArc
 50
55.881187
 51
71.408974
  0
LINE
  5
2A7
330
1BA
100
AcDbEntity
  8
0
  6
Continuous
 62
     0
370
    30
100
AcDbLine
 10
589.793359
 20
227.935908
 30
0.0
 11
551.520775
 21
250.032594
 31
0.0
  0
ARC
  5
2A8
330
1BA
100
AcDbEntity
  8
0
  6
Continuous
 62
     0
370
    30
100
AcDbCircle
 10
591.104019
 20
230.456535
 30
0.0
 40
2.841019608622174
100
AcDbArc
 50
242.52675
 51
297.47325
  0
LINE
  5
2A9
330
1BA
100
AcDbEntity
  8
0
  6
Continuous
 62
     0
370
    30
100
AcDbLine
 10
598.071533
 20
231.201894
 30
0.0
 11
592.414679
 21
227.935908
 31
0.0
  0
LINE
  5
2AA
330
1BA
100
AcDbEntity
  8
0
  6
Continuous
 62
     0
370
    30
100
AcDbLine
 10
598.760873
 20
232.247279
 30
0.0
 11
598.747526
 21
232.084829
 31
0.0
  0
ARC
  5
2AB
330
1BA
100
AcDbEntity
  8
0
  6
Continuous
 62
     0
370
    30
100
AcDbCircle
 10
597.509064
 20
232.325044
 30
0.0
 40
1.256119749596303
100
AcDbArc
 50
296.601554
 51
350.075637
  0
LINE
  5
2AC
330
1BA
100
AcDbEntity
  8
0
  6
Continuous
 62
     0
370
    30
100
AcDbLine
 10
598.760873
 20
244.494728
 30
0.0
 11
598.760873
 21
232.247279
 31
0.0
  0
LINE
  5
2AD
330
1BA
100
AcDbEntity
  8
0
  6
Continuous
 62
     0
370
    30
100
AcDbLine
 10
546.741946
 20
252.460021
 30
0.0
 11
546.575773
 21
252.482831
 31
0.0
  0
LINE
  5
2AE
330
1BA
100
AcDbEntity
  8
0
  6
Continuous
 62
     0
370
    30
100
AcDbLine
 10
540.556327
 20
270.216342
 30
0.0
 11
540.56024
 21
270.350375
 31
0.0
  0
LWPOLYLINE
  5
2AF
330
1BA
100
AcDbEntity
  8
0
  6
Continuous
 62
     0
370
    30
100
AcDbPolyline
 90
       22
 70
     0
 43
0.0
 10
550.695374
 20
272.892761
 10
550.196777
 20
273.14975
 10
549.65271
 20
273.372437
 10
549.070862
 20
273.558167
 10
548.459045
 20
273.704254
 10
547.824951
 20
273.808105
 10
547.176208
 20
273.8685
 10
546.520447
 20
273.885956
 10
545.865234
 20
273.861145
 10
545.218079
 20
273.794739
 10
544.586609
 20
273.687378
 10
543.978455
 20
273.539764
 10
543.401001
 20
273.352539
 10
542.860962
 20
273.127075
 10
542.364014
 20
272.865234
 10
541.915955
 20
272.568939
 10
541.5224
 20
272.240112
 10
541.189209
 20
271.880646
 10
540.921997
 20
271.492706
 10
540.725159
 20
271.081451
 10
540.602173
 20
270.654663
 10
540.556335
 20
270.216339
  0
LINE
  5
2B0
330
1BA
100
AcDbEntity
  8
0
  6
Continuous
 62
     0
370
    30
100
AcDbLine
 10
550.695379
 20
272.892749
 30
0.0
 11
598.071533
 21
245.540113
 31
0.0
  0
LINE
  5
2B1
330
1BA
100
AcDbEntity
  8
0
  6
Continuous
 62
     0
370
    30
100
AcDbLine
 10
598.760873
 20
244.494728
 30
0.0
 11
598.747526
 21
244.657179
 31
0.0
  0
ARC
  5
2B2
330
1BA
100
AcDbEntity
  8
0
  6
Continuous
 62
     0
370
    30
100
AcDbCircle
 10
597.535785
 20
244.436862
 30
0.0
 40
1.226453969825752
100
AcDbArc
 50
2.704312
 51
64.098391
  0
LINE
  5
2B3
330
1BA
100
AcDbEntity
  8
0
  6
Continuous
 62
     0
370
    30
100
AcDbLine
 10
540.556292
 20
270.21437
 30
0.0
 11
540.556292
 21
249.393708
 31
0.0
  0
ENDBLK
  5
2B5
330
1BA
100
AcDbEntity
  8
0
100
AcDbBlockEnd
  0
BLOCK
  5
336
330
2B7
100
AcDbEntity
  8
0
100
AcDbBlockBegin
  2
e
 70
     0
 10
-13.888733
 20
0.0
 30
0.0
  3
e
  1

  0
LINE
  5
2B8
330
2B7
100
AcDbEntity
  8
0
  6
Continuous
 62
     0
370
    30
100
AcDbLine
 10
-163.718246
 20
722.5527
 30
0.0
 11
-103.718246
 21
722.5527
 31
0.0
  0
LINE
  5
2B9
330
2B7
100
AcDbEntity
  8
0
  6
Continuous
 62
     0
370
    30
100
AcDbLine
 10
-163.218246
 20
731.5527
 30
0.0
 11
-104.218246
 21
731.5527
 31
0.0
  0
LINE
  5
2BA
330
2B7
100
AcDbEntity
  8
0
  6
Continuous
 62
     0
370
    30
100
AcDbLine
 10
-163.718246
 20
722.5527
 30
0.0
 11
-163.718246
 21
731.0527
 31
0.0
  0
LINE
  5
2BB
330
2B7
100
AcDbEntity
  8
0
  6
Continuous
 62
     0
370
     0
100
AcDbLine
 10
-163.718246
 20
731.0527
 30
0.0
 11
-103.718246
 21
731.0527
 31
0.0
  0
ARC
  5
2BC
330
2B7
100
AcDbEntity
  8
0
  6
Continuous
 62
     0
370
    30
100
AcDbCircle
 10
-163.218246
 20
731.0527
 30
0.0
 40
0.5
100
AcDbArc
 50
90.0
 51
180.0
  0
LINE
  5
2BD
330
2B7
100
AcDbEntity
  8
0
  6
Continuous
 62
     0
370
    30
100
AcDbLine
 10
-103.718246
 20
722.5527
 30
0.0
 11
-103.718246
 21
731.0527
 31
0.0
  0
LINE
  5
2BE
330
2B7
100
AcDbEntity
  8
0
  6
Continuous
 62
     0
370
    30
100
AcDbLine
 10
-363.718246
 20
722.5527
 30
0.0
 11
-303.718246
 21
722.5527
 31
0.0
  0
LINE
  5
2BF
330
2B7
100
AcDbEntity
  8
0
  6
Continuous
 62
     0
370
    30
100
AcDbLine
 10
-363.218246
 20
731.5527
 30
0.0
 11
-304.218246
 21
731.5527
 31
0.0
  0
LINE
  5
2C0
330
2B7
100
AcDbEntity
  8
0
  6
Continuous
 62
     0
370
    30
100
AcDbLine
 10
-363.718246
 20
722.5527
 30
0.0
 11
-363.718246
 21
731.0527
 31
0.0
  0
LINE
  5
2C1
330
2B7
100
AcDbEntity
  8
0
  6
Continuous
 62
     0
370
     0
100
AcDbLine
 10
-363.718246
 20
731.0527
 30
0.0
 11
-303.718246
 21
731.0527
 31
0.0
  0
ARC
  5
2C2
330
2B7
100
AcDbEntity
  8
0
  6
Continuous
 62
     0
370
    30
100
AcDbCircle
 10
-363.218246
 20
731.0527
 30
0.0
 40
0.5
100
AcDbArc
 50
90.0
 51
180.0
  0
LINE
  5
2C3
330
2B7
100
AcDbEntity
  8
0
  6
Continuous
 62
     0
370
    30
100
AcDbLine
 10
-303.718246
 20
722.5527
 30
0.0
 11
-303.718246
 21
731.0527
 31
0.0
  0
LINE
  5
2C4
330
2B7
100
AcDbEntity
  8
0
  6
Continuous
 62
     0
370
    30
100
AcDbLine
 10
-263.718246
 20
722.5527
 30
0.0
 11
-203.718246
 21
722.5527
 31
0.0
  0
LINE
  5
2C5
330
2B7
100
AcDbEntity
  8
0
  6
Continuous
 62
     0
370
    30
100
AcDbLine
 10
-263.218246
 20
731.5527
 30
0.0
 11
-204.218246
 21
731.5527
 31
0.0
  0
LINE
  5
2C6
330
2B7
100
AcDbEntity
  8
0
  6
Continuous
 62
     0
370
    30
100
AcDbLine
 10
-263.718246
 20
722.5527
 30
0.0
 11
-263.718246
 21
731.0527
 31
0.0
  0
LINE
  5
2C7
330
2B7
100
AcDbEntity
  8
0
  6
Continuous
 62
     0
370
     0
100
AcDbLine
 10
-263.718246
 20
731.0527
 30
0.0
 11
-203.718246
 21
731.0527
 31
0.0
  0
ARC
  5
2C8
330
2B7
100
AcDbEntity
  8
0
  6
Continuous
 62
     0
370
    30
100
AcDbCircle
 10
-263.218246
 20
731.0527
 30
0.0
 40
0.5
100
AcDbArc
 50
90.0
 51
180.0
  0
LINE
  5
2C9
330
2B7
100
AcDbEntity
  8
0
  6
Continuous
 62
     0
370
    30
100
AcDbLine
 10
-203.718246
 20
722.5527
 30
0.0
 11
-203.718246
 21
731.0527
 31
0.0
  0
LINE
  5
2CA
330
2B7
100
AcDbEntity
  8
0
  6
Continuous
 62
     0
370
    30
100
AcDbLine
 10
-450.218246
 20
750.5527
 30
0.0
 11
-417.218246
 21
750.5527
 31
0.0
  0
LINE
  5
2CB
330
2B7
100
AcDbEntity
  8
0
  6
Continuous
 62
     0
370
    30
100
AcDbLine
 10
-450.218246
 20
750.5527
 30
0.0
 11
-450.218246
 21
768.008244
 31
0.0
  0
LINE
  5
2CC
330
2B7
100
AcDbEntity
  8
0
  6
Continuous
 62
     0
370
     0
100
AcDbLine
 10
-450.218246
 20
768.008244
 30
0.0
 11
-417.218246
 21
768.008244
 31
0.0
  0
ARC
  5
2CD
330
2B7
100
AcDbEntity
  8
0
  6
Continuous
 62
     0
370
    30
100
AcDbCircle
 10
-449.718246
 20
768.008244
 30
0.0
 40
0.5
100
AcDbArc
 50
96.756327
 51
180.0
  0
LINE
  5
2CE
330
2B7
100
AcDbEntity
  8
0
  6
Continuous
 62
     0
370
     0
100
AcDbLine
 10
-449.77707
 20
768.504772
 30
0.0
 11
-417.659423
 21
768.504772
 31
0.0
  0
ARC
  5
2CF
330
2B7
100
AcDbEntity
  8
0
  6
Continuous
 62
     0
370
    30
100
AcDbCircle
 10
-433.718246
 20
632.9527
 30
0.0
 40
136.5
100
AcDbArc
 50
90.0
 51
96.756327
  0
ARC
  5
2D0
330
2B7
100
AcDbEntity
  8
0
  6
Continuous
 62
     0
370
    30
100
AcDbCircle
 10
-433.718327
 20
632.951341
 30
0.0
 40
136.5013589215461
100
AcDbArc
 50
83.243707
 51
89.992539
  0
LINE
  5
2D1
330
2B7
100
AcDbEntity
  8
0
  6
Continuous
 62
     0
370
    30
100
AcDbLine
 10
-417.218246
 20
750.5527
 30
0.0
 11
-417.218246
 21
768.008244
 31
0.0
  0
LINE
  5
2D2
330
2B7
100
AcDbEntity
  8
0
  6
Continuous
 62
     0
370
    30
100
AcDbLine
 10
-222.718246
 20
731.5527
 30
0.0
 11
-222.718246
 21
886.552714
 31
0.0
  0
LINE
  5
2D3
330
2B7
100
AcDbEntity
  8
0
  6
Continuous
 62
     0
370
     0
100
AcDbLine
 10
-222.718246
 20
886.552714
 30
0.0
 11
-244.718246
 21
886.552714
 31
0.0
  0
LINE
  5
2D4
330
2B7
100
AcDbEntity
  8
0
  6
Continuous
 62
     0
370
    30
100
AcDbLine
 10
-222.718243
 20
886.552714
 30
0.0
 11
-222.718243
 21
966.552714
 31
0.0
  0
ARC
  5
2D5
330
2B7
100
AcDbEntity
  8
0
  6
Continuous
 62
     0
370
    30
100
AcDbCircle
 10
-233.718063
 20
966.551906
 30
0.0
 40
10.99982040044637
100
AcDbArc
 50
0.036626
 51
180.023866
  0
LWPOLYLINE
  5
2D6
330
2B7
100
AcDbEntity
  8
0
  6
Continuous
 62
     0
370
    30
100
AcDbPolyline
 90
       51
 70
     0
 43
0.0
 10
-244.718246
 20
966.547302
 10
-244.718246
 20
966.508118
 10
-244.718246
 20
966.390381
 10
-244.718246
 20
966.194092
 10
-244.718246
 20
965.919067
 10
-244.718246
 20
965.565308
 10
-244.718246
 20
965.132812
 10
-244.718246
 20
964.622314
 10
-244.718246
 20
964.034546
 10
-244.718246
 20
963.370422
 10
-244.718246
 20
962.630737
 10
-244.718246
 20
961.816406
 10
-244.718246
 20
960.928162
 10
-244.718246
 20
959.96698
 10
-244.718246
 20
958.933594
 10
-244.718246
 20
957.828857
 10
-244.718246
 20
956.653687
 10
-244.718246
 20
955.408813
 10
-244.718246
 20
954.095276
 10
-244.718246
 20
952.714539
 10
-244.718246
 20
951.26825
 10
-244.718246
 20
949.758179
 10
-244.718246
 20
948.185974
 10
-244.718246
 20
946.553406
 10
-244.718246
 20
944.862122
 10
-244.718246
 20
943.113831
 10
-244.718246
 20
941.310364
 10
-244.718246
 20
939.453247
 10
-244.718246
 20
937.544312
 10
-244.718246
 20
935.585205
 10
-244.718246
 20
933.577698
 10
-244.718246
 20
931.523438
 10
-244.718246
 20
929.424438
 10
-244.718246
 20
927.282837
 10
-244.718246
 20
925.100952
 10
-244.718246
 20
922.880981
 10
-244.718246
 20
920.625061
 10
-244.718246
 20
918.335571
 10
-244.718246
 20
916.014587
 10
-244.718246
 20
913.664368
 10
-244.718246
 20
911.28717
 10
-244.718246
 20
908.885254
 10
-244.718246
 20
906.460754
 10
-244.718246
 20
904.01593
 10
-244.718246
 20
901.553528
 10
-244.718246
 20
899.076416
 10
-244.718246
 20
896.587402
 10
-244.718246
 20
894.089539
 10
-244.718246
 20
891.585571
 10
-244.718246
 20
889.078552
 10
-244.718246
 20
886.552734
  0
LINE
  5
2D7
330
2B7
100
AcDbEntity
  8
0
  6
Continuous
 62
     0
370
    30
100
AcDbLine
 10
-244.718246
 20
886.552714
 30
0.0
 11
-244.718246
 21
731.5527
 31
0.0
  0
LINE
  5
2D8
330
2B7
100
AcDbEntity
  8
0
  6
Continuous
 62
     0
370
    30
100
AcDbLine
 10
-463.718929
 20
731.5527
 30
0.0
 11
-403.717564
 21
731.5527
 31
0.0
  0
LINE
  5
2D9
330
2B7
100
AcDbEntity
  8
0
  6
Continuous
 62
     0
370
    30
100
AcDbLine
 10
-463.718929
 20
731.5527
 30
0.0
 11
-463.718929
 21
741.0527
 31
0.0
  0
LINE
  5
2DA
330
2B7
100
AcDbEntity
  8
0
  6
Continuous
 62
     0
370
     0
100
AcDbLine
 10
-463.718929
 20
741.0527
 30
0.0
 11
-403.717564
 21
741.0527
 31
0.0
  0
ARC
  5
2DB
330
2B7
100
AcDbEntity
  8
0
  6
Continuous
 62
     0
370
    30
100
AcDbCircle
 10
-463.218929
 20
741.0527
 30
0.0
 40
0.5
100
AcDbArc
 50
90.0
 51
180.0
  0
LINE
  5
2DC
330
2B7
100
AcDbEntity
  8
0
  6
Continuous
 62
     0
370
    30
100
AcDbLine
 10
-448.717827
 20
741.5527
 30
0.0
 11
-463.218929
 21
741.5527
 31
0.0
  0
LINE
  5
2DD
330
2B7
100
AcDbEntity
  8
0
  6
Continuous
 62
     0
370
    30
100
AcDbLine
 10
-404.217564
 20
741.5527
 30
0.0
 11
-418.718876
 21
741.5527
 31
0.0
  0
LINE
  5
2DE
330
2B7
100
AcDbEntity
  8
0
  6
Continuous
 62
     0
370
    30
100
AcDbLine
 10
-463.218929
 20
741.5527
 30
0.0
 11
-404.217564
 21
741.5527
 31
0.0
  0
ARC
  5
2DF
330
2B7
100
AcDbEntity
  8
0
  6
Continuous
 62
     0
370
    30
100
AcDbCircle
 10
-448.717828
 20
743.0527
 30
0.0
 40
1.5
100
AcDbArc
 50
270.0
 51
360.0
  0
LINE
  5
2E0
330
2B7
100
AcDbEntity
  8
0
  6
Continuous
 62
     0
370
     0
100
AcDbLine
 10
-447.217828
 20
743.0527
 30
0.0
 11
-420.218665
 21
743.0527
 31
0.0
  0
LINE
  5
2E1
330
2B7
100
AcDbEntity
  8
0
  6
Continuous
 62
     0
370
    30
100
AcDbLine
 10
-447.217828
 20
743.0527
 30
0.0
 11
-447.217828
 21
750.5527
 31
0.0
  0
LINE
  5
2E2
330
2B7
100
AcDbEntity
  8
0
  6
Continuous
 62
     0
370
    30
100
AcDbLine
 10
-420.218665
 20
743.0527
 30
0.0
 11
-420.218665
 21
750.5527
 31
0.0
  0
ARC
  5
2E3
330
2B7
100
AcDbEntity
  8
0
  6
Continuous
 62
     0
370
    30
100
AcDbCircle
 10
-418.718275
 20
743.05309
 30
0.0
 40
1.500389978289838
100
AcDbArc
 50
180.014888
 51
269.977009
  0
LINE
  5
2E4
330
2B7
100
AcDbEntity
  8
0
  6
Continuous
 62
     0
370
    30
100
AcDbLine
 10
-403.717564
 20
731.5527
 30
0.0
 11
-403.717564
 21
741.0527
 31
0.0
  0
LINE
  5
2E5
330
2B7
100
AcDbEntity
  8
0
  6
Continuous
 62
     0
370
    30
100
AcDbLine
 10
-533.718248
 20
741.5527
 30
0.0
 11
-563.718246
 21
741.5527
 31
0.0
  0
LINE
  5
2E6
330
2B7
100
AcDbEntity
  8
0
  6
Continuous
 62
     0
370
    30
100
AcDbLine
 10
-503.718246
 20
741.5527
 30
0.0
 11
-533.718248
 21
741.5527
 31
0.0
  0
LINE
  5
2E7
330
2B7
100
AcDbEntity
  8
0
  6
Continuous
 62
     0
370
    30
100
AcDbLine
 10
-503.718246
 20
731.5527
 30
0.0
 11
-533.718248
 21
731.5527
 31
0.0
  0
LINE
  5
2E8
330
2B7
100
AcDbEntity
  8
0
  6
Continuous
 62
     0
370
    30
100
AcDbLine
 10
-533.718248
 20
731.5527
 30
0.0
 11
-563.718246
 21
731.5527
 31
0.0
  0
LINE
  5
2E9
330
2B7
100
AcDbEntity
  8
0
  6
Continuous
 62
     0
370
    30
100
AcDbLine
 10
-519.718246
 20
741.5527
 30
0.0
 11
-519.718246
 21
753.5527
 31
0.0
  0
LINE
  5
2EA
330
2B7
100
AcDbEntity
  8
0
  6
Continuous
 62
     0
370
    30
100
AcDbLine
 10
-547.718246
 20
741.5527
 30
0.0
 11
-547.718246
 21
753.5527
 31
0.0
  0
LINE
  5
2EB
330
2B7
100
AcDbEntity
  8
0
  6
Continuous
 62
     0
370
    30
100
AcDbLine
 10
-563.718246
 20
741.5527
 30
0.0
 11
-563.718246
 21
731.5527
 31
0.0
  0
LINE
  5
2EC
330
2B7
100
AcDbEntity
  8
0
  6
Continuous
 62
     0
370
    30
100
AcDbLine
 10
-503.718246
 20
741.5527
 30
0.0
 11
-503.718246
 21
731.5527
 31
0.0
  0
LINE
  5
2ED
330
2B7
100
AcDbEntity
  8
0
  6
Continuous
 62
     0
370
    30
100
AcDbLine
 10
-533.718247
 20
753.5527
 30
0.0
 11
-517.618246
 21
753.5527
 31
0.0
  0
LINE
  5
2EE
330
2B7
100
AcDbEntity
  8
0
  6
Continuous
 62
     0
370
    30
100
AcDbLine
 10
-549.818246
 20
753.5527
 30
0.0
 11
-533.718247
 21
753.5527
 31
0.0
  0
LINE
  5
2EF
330
2B7
100
AcDbEntity
  8
0
  6
Continuous
 62
     0
370
     0
100
AcDbLine
 10
-533.718247
 20
963.554445
 30
0.0
 11
-517.984769
 21
963.554445
 31
0.0
  0
LINE
  5
2F0
330
2B7
100
AcDbEntity
  8
0
  6
Continuous
 62
     0
370
     0
100
AcDbLine
 10
-549.451724
 20
963.554445
 30
0.0
 11
-533.718247
 21
963.554445
 31
0.0
  0
LINE
  5
2F1
330
2B7
100
AcDbEntity
  8
0
  6
Continuous
 62
     0
370
    30
100
AcDbLine
 10
-548.451725
 20
964.5527
 30
0.0
 11
-533.718247
 21
964.5527
 31
0.0
  0
LINE
  5
2F2
330
2B7
100
AcDbEntity
  8
0
  6
Continuous
 62
     0
370
    30
100
AcDbLine
 10
-533.718247
 20
964.5527
 30
0.0
 11
-518.984767
 21
964.5527
 31
0.0
  0
ARC
  5
2F3
330
2B7
100
AcDbEntity
  8
0
  6
Continuous
 62
     0
370
    30
100
AcDbCircle
 10
-518.988217
 20
963.549245
 30
0.0
 40
1.003461100337268
100
AcDbArc
 50
0.296921
 51
89.79735
  0
ARC
  5
2F4
330
2B7
100
AcDbEntity
  8
0
  6
Continuous
 62
     0
370
    30
100
AcDbCircle
 10
-548.448276
 20
963.549245
 30
0.0
 40
1.00346110033604
100
AcDbArc
 50
90.20265
 51
179.703079
  0
LINE
  5
2F5
330
2B7
100
AcDbEntity
  8
0
  6
Continuous
 62
     0
370
    30
100
AcDbLine
 10
-549.818246
 20
753.5527
 30
0.0
 11
-549.451724
 21
963.554445
 31
0.0
  0
LINE
  5
2F6
330
2B7
100
AcDbEntity
  8
0
  6
Continuous
 62
     0
370
    30
100
AcDbLine
 10
-517.618246
 20
753.5527
 30
0.0
 11
-517.984769
 21
963.554445
 31
0.0
  0
LINE
  5
2F7
330
2B7
100
AcDbEntity
  8
0
  6
Continuous
 62
     0
370
     0
100
AcDbLine
 10
-133.718247
 20
764.5527
 30
0.0
 11
-133.718247
 21
762.5527
 31
0.0
  0
LINE
  5
2F8
330
2B7
100
AcDbEntity
  8
0
  6
Continuous
 62
     0
370
     0
100
AcDbLine
 10
-127.718246
 20
762.5527
 30
0.0
 11
-133.718247
 21
762.5527
 31
0.0
  0
LINE
  5
2F9
330
2B7
100
AcDbEntity
  8
0
  6
Continuous
 62
     0
370
     0
100
AcDbLine
 10
-133.718247
 20
764.5527
 30
0.0
 11
-127.718384
 21
764.5527
 31
0.0
  0
LINE
  5
2FA
330
2B7
100
AcDbEntity
  8
0
  6
Continuous
 62
     0
370
    30
100
AcDbLine
 10
-66.718247
 20
788.5527
 30
0.0
 11
-65.218247
 21
788.5527
 31
0.0
  0
LINE
  5
2FB
330
2B7
100
AcDbEntity
  8
0
  6
Continuous
 62
     0
370
    30
100
AcDbLine
 10
-139.21823
 20
788.5527
 30
0.0
 11
-133.718247
 21
788.5527
 31
0.0
  0
LINE
  5
2FC
330
2B7
100
AcDbEntity
  8
0
  6
Continuous
 62
     0
370
    30
100
AcDbLine
 10
-66.718247
 20
788.5527
 30
0.0
 11
-133.718247
 21
788.5527
 31
0.0
  0
LINE
  5
2FD
330
2B7
100
AcDbEntity
  8
0
  6
Continuous
 62
     0
370
     0
100
AcDbLine
 10
-133.718247
 20
762.5527
 30
0.0
 11
-139.718246
 21
762.5527
 31
0.0
  0
LINE
  5
2FE
330
2B7
100
AcDbEntity
  8
0
  6
Continuous
 62
     0
370
     0
100
AcDbLine
 10
-133.718247
 20
788.0527
 30
0.0
 11
-133.718247
 21
764.5527
 31
0.0
  0
LINE
  5
2FF
330
2B7
100
AcDbEntity
  8
0
  6
Continuous
 62
     0
370
     0
100
AcDbLine
 10
-139.71823
 20
788.0527
 30
0.0
 11
-133.718247
 21
788.0527
 31
0.0
  0
LINE
  5
300
330
2B7
100
AcDbEntity
  8
0
  6
Continuous
 62
     0
370
     0
100
AcDbLine
 10
-66.718247
 20
788.0527
 30
0.0
 11
-66.718247
 21
788.5527
 31
0.0
  0
LINE
  5
301
330
2B7
100
AcDbEntity
  8
0
  6
Continuous
 62
     0
370
     0
100
AcDbLine
 10
-133.718247
 20
788.5527
 30
0.0
 11
-133.718247
 21
788.0527
 31
0.0
  0
LINE
  5
302
330
2B7
100
AcDbEntity
  8
0
  6
Continuous
 62
     0
370
     0
100
AcDbLine
 10
-66.718247
 20
788.0527
 30
0.0
 11
-133.718247
 21
788.0527
 31
0.0
  0
LINE
  5
303
330
2B7
100
AcDbEntity
  8
0
  6
Continuous
 62
     0
370
     0
100
AcDbLine
 10
-66.718247
 20
788.0527
 30
0.0
 11
-64.718247
 21
788.0527
 31
0.0
  0
ARC
  5
304
330
2B7
100
AcDbEntity
  8
0
  6
Continuous
 62
     0
370
    30
100
AcDbCircle
 10
-65.218247
 20
788.0527
 30
0.0
 40
0.5
100
AcDbArc
 50
0.0
 51
90.0
  0
LWPOLYLINE
  5
305
330
2B7
100
AcDbEntity
  8
0
  6
Continuous
 62
     0
370
    30
100
AcDbPolyline
 90
       25
 70
     0
 43
0.0
 10
-120.843857
 20
773.052673
 10
-121.579147
 20
773.052673
 10
-122.314445
 20
773.052673
 10
-123.049744
 20
773.052673
 10
-123.785042
 20
773.052734
 10
-124.520332
 20
773.052551
 10
-125.255646
 20
773.052368
 10
-125.989746
 20
773.015869
 10
-126.71682
 20
772.90802
 10
-127.430489
 20
772.732056
 10
-128.125443
 20
772.492554
 10
-128.797455
 20
772.194641
 10
-129.443069
 20
771.843201
 10
-130.058853
 20
771.441528
 10
-130.641235
 20
770.992859
 10
-131.185913
 20
770.499268
 10
-131.688248
 20
769.962646
 10
-132.143738
 20
769.38562
 10
-132.547958
 20
768.771667
 10
-132.896881
 20
768.124756
 10
-133.187225
 20
767.449524
 10
-133.416565
 20
766.751221
 10
-133.582565
 20
766.034973
 10
-133.683334
 20
765.306519
 10
-133.718246
 20
764.552673
  0
LINE
  5
306
330
2B7
100
AcDbEntity
  8
0
  6
Continuous
 62
     0
370
     0
100
AcDbLine
 10
-120.843854
 20
773.0527
 30
0.0
 11
-66.718247
 21
773.0527
 31
0.0
  0
LINE
  5
307
330
2B7
100
AcDbEntity
  8
0
  6
Continuous
 62
     0
370
     0
100
AcDbLine
 10
-66.718247
 20
773.0527
 30
0.0
 11
-66.718247
 21
788.0527
 31
0.0
  0
LINE
  5
308
330
2B7
100
AcDbEntity
  8
0
  6
Continuous
 62
     0
370
    30
100
AcDbLine
 10
-66.718247
 20
772.5527
 30
0.0
 11
-65.218247
 21
772.5527
 31
0.0
  0
LINE
  5
309
330
2B7
100
AcDbEntity
  8
0
  6
Continuous
 62
     0
370
    30
100
AcDbLine
 10
-120.843854
 20
772.5527
 30
0.0
 11
-66.718247
 21
772.5527
 31
0.0
  0
LINE
  5
30A
330
2B7
100
AcDbEntity
  8
0
  6
Continuous
 62
     0
370
     0
100
AcDbLine
 10
-66.718247
 20
773.0527
 30
0.0
 11
-64.718247
 21
773.0527
 31
0.0
  0
LINE
  5
30B
330
2B7
100
AcDbEntity
  8
0
  6
Continuous
 62
     0
370
    30
100
AcDbLine
 10
-64.718247
 20
773.0527
 30
0.0
 11
-64.718247
 21
788.0527
 31
0.0
  0
ARC
  5
30C
330
2B7
100
AcDbEntity
  8
0
  6
Continuous
 62
     0
370
    30
100
AcDbCircle
 10
-65.218247
 20
773.0527
 30
0.0
 40
0.5
100
AcDbArc
 50
270.0
 51
0.0
  0
LINE
  5
30D
330
2B7
100
AcDbEntity
  8
0
  6
Continuous
 62
     0
370
     0
100
AcDbLine
 10
-66.718247
 20
773.0527
 30
0.0
 11
-66.718247
 21
772.5527
 31
0.0
  0
LINE
  5
30E
330
2B7
100
AcDbEntity
  8
0
  6
Continuous
 62
     0
370
     0
100
AcDbLine
 10
-120.843854
 20
772.5527
 30
0.0
 11
-120.843854
 21
773.0527
 31
0.0
  0
LINE
  5
30F
330
2B7
100
AcDbEntity
  8
0
  6
Continuous
 62
     0
370
     0
100
AcDbLine
 10
-133.718247
 20
762.5527
 30
0.0
 11
-133.718247
 21
731.5527
 31
0.0
  0
LINE
  5
310
330
2B7
100
AcDbEntity
  8
0
  6
Continuous
 62
     0
370
    30
100
AcDbLine
 10
-120.843854
 20
772.5527
 30
0.0
 11
-124.104446
 21
772.5527
 31
0.0
  0
LWPOLYLINE
  5
311
330
2B7
100
AcDbEntity
  8
0
  6
Continuous
 62
     0
370
    30
100
AcDbPolyline
 90
       21
 70
     0
 43
0.0
 10
-124.104446
 20
772.552673
 10
-124.824371
 20
772.552673
 10
-125.525551
 20
772.547058
 10
-126.194435
 20
772.493286
 10
-126.859825
 20
772.383911
 10
-127.519081
 20
772.224731
 10
-128.1716
 20
772.020325
 10
-128.814957
 20
771.771484
 10
-129.445587
 20
771.477295
 10
-130.056625
 20
771.134277
 10
-130.639877
 20
770.738831
 10
-131.187454
 20
770.290466
 10
-131.69252
 20
769.790894
 10
-132.149536
 20
769.244141
 10
-132.55426
 20
768.655334
 10
-132.902847
 20
768.029846
 10
-133.192276
 20
767.373535
 10
-133.420319
 20
766.692444
 10
-133.584793
 20
765.992554
 10
-133.684357
 20
765.28009
 10
-133.718246
 20
764.552673
  0
LINE
  5
312
330
2B7
100
AcDbEntity
  8
0
  6
Continuous
 62
     0
370
    30
100
AcDbLine
 10
-127.718246
 20
762.5527
 30
0.0
 11
-127.718246
 21
731.5527
 31
0.0
  0
LINE
  5
313
330
2B7
100
AcDbEntity
  8
0
  6
Continuous
 62
     0
370
    30
100
AcDbLine
 10
-139.718246
 20
762.5527
 30
0.0
 11
-139.718246
 21
731.5527
 31
0.0
  0
LWPOLYLINE
  5
314
330
2B7
100
AcDbEntity
  8
0
  6
Continuous
 62
     0
370
    30
100
AcDbPolyline
 90
       21
 70
     0
 43
0.0
 10
-127.718704
 20
764.552673
 10
-127.714119
 20
765.017395
 10
-127.69957
 20
765.4823
 10
-127.673943
 20
765.946777
 10
-127.636124
 20
766.410461
 10
-127.585007
 20
766.872742
 10
-127.519478
 20
767.33313
 10
-127.438423
 20
767.791138
 10
-127.340416
 20
768.24585
 10
-127.223549
 20
768.695984
 10
-127.085907
 20
769.140198
 10
-126.925537
 20
769.577026
 10
-126.740173
 20
770.004211
 10
-126.526978
 20
770.417725
 10
-126.28302
 20
770.813416
 10
-126.005531
 20
771.18689
 10
-125.69297
 20
771.531555
 10
-125.344566
 20
771.8396
 10
-124.959801
 20
772.102966
 10
-124.54274
 20
772.311829
 10
-124.083084
 20
772.458862
  0
LINE
  5
315
330
2B7
100
AcDbEntity
  8
0
  6
Continuous
 62
     0
370
    30
100
AcDbLine
 10
-139.718246
 20
788.0527
 30
0.0
 11
-139.718246
 21
762.5527
 31
0.0
  0
LINE
  5
316
330
2B7
100
AcDbEntity
  8
0
  6
Continuous
 62
     0
370
    30
100
AcDbLine
 10
-127.718384
 20
764.5527
 30
0.0
 11
-127.718246
 21
762.5527
 31
0.0
  0
LINE
  5
317
330
2B7
100
AcDbEntity
  8
0
  6
Continuous
 62
     0
370
     0
100
AcDbLine
 10
-333.718247
 20
762.5527
 30
0.0
 11
-339.718246
 21
762.5527
 31
0.0
  0
LINE
  5
318
330
2B7
100
AcDbEntity
  8
0
  6
Continuous
 62
     0
370
     0
100
AcDbLine
 10
-333.718247
 20
762.5527
 30
0.0
 11
-333.718247
 21
764.5527
 31
0.0
  0
LWPOLYLINE
  5
319
330
2B7
100
AcDbEntity
  8
0
  6
Continuous
 62
     0
370
     0
100
AcDbPolyline
 90
       15
 70
     0
 43
0.0
 10
-339.718109
 20
764.552673
 10
-339.680573
 20
764.552673
 10
-339.56839
 20
764.552673
 10
-339.382965
 20
764.552673
 10
-339.126648
 20
764.552673
 10
-338.802612
 20
764.552673
 10
-338.414948
 20
764.552673
 10
-337.968475
 20
764.552673
 10
-337.468811
 20
764.552673
 10
-336.92218
 20
764.552673
 10
-336.335449
 20
764.552673
 10
-335.715942
 20
764.552673
 10
-335.071442
 20
764.552673
 10
-334.409973
 20
764.552673
 10
-333.718262
 20
764.552673
  0
LINE
  5
31A
330
2B7
100
AcDbEntity
  8
0
  6
Continuous
 62
     0
370
    30
100
AcDbLine
 10
-400.718247
 20
788.5527
 30
0.0
 11
-402.218247
 21
788.5527
 31
0.0
  0
LINE
  5
31B
330
2B7
100
AcDbEntity
  8
0
  6
Continuous
 62
     0
370
    30
100
AcDbLine
 10
-400.718247
 20
788.5527
 30
0.0
 11
-333.718247
 21
788.5527
 31
0.0
  0
LINE
  5
31C
330
2B7
100
AcDbEntity
  8
0
  6
Continuous
 62
     0
370
    30
100
AcDbLine
 10
-333.718247
 20
788.5527
 30
0.0
 11
-328.218263
 21
788.5527
 31
0.0
  0
LINE
  5
31D
330
2B7
100
AcDbEntity
  8
0
  6
Continuous
 62
     0
370
     0
100
AcDbLine
 10
-327.718246
 20
762.5527
 30
0.0
 11
-333.718247
 21
762.5527
 31
0.0
  0
LINE
  5
31E
330
2B7
100
AcDbEntity
  8
0
  6
Continuous
 62
     0
370
     0
100
AcDbLine
 10
-333.718247
 20
788.0527
 30
0.0
 11
-327.718263
 21
788.0527
 31
0.0
  0
LINE
  5
31F
330
2B7
100
AcDbEntity
  8
0
  6
Continuous
 62
     0
370
     0
100
AcDbLine
 10
-333.718247
 20
764.5527
 30
0.0
 11
-333.718247
 21
788.0527
 31
0.0
  0
ARC
  5
320
330
2B7
100
AcDbEntity
  8
0
  6
Continuous
 62
     0
370
    30
100
AcDbCircle
 10
-402.218247
 20
788.0527
 30
0.0
 40
0.5
100
AcDbArc
 50
90.0
 51
180.0
  0
LINE
  5
321
330
2B7
100
AcDbEntity
  8
0
  6
Continuous
 62
     0
370
     0
100
AcDbLine
 10
-400.718247
 20
788.0527
 30
0.0
 11
-402.718247
 21
788.0527
 31
0.0
  0
LINE
  5
322
330
2B7
100
AcDbEntity
  8
0
  6
Continuous
 62
     0
370
     0
100
AcDbLine
 10
-400.718247
 20
788.0527
 30
0.0
 11
-400.718247
 21
788.5527
 31
0.0
  0
LINE
  5
323
330
2B7
100
AcDbEntity
  8
0
  6
Continuous
 62
     0
370
     0
100
AcDbLine
 10
-400.718247
 20
788.0527
 30
0.0
 11
-333.718247
 21
788.0527
 31
0.0
  0
LINE
  5
324
330
2B7
100
AcDbEntity
  8
0
  6
Continuous
 62
     0
370
     0
100
AcDbLine
 10
-333.718247
 20
788.0527
 30
0.0
 11
-333.718247
 21
788.5527
 31
0.0
  0
LWPOLYLINE
  5
325
330
2B7
100
AcDbEntity
  8
0
  6
Continuous
 62
     0
370
    30
100
AcDbPolyline
 90
       27
 70
     0
 43
0.0
 10
-333.718262
 20
764.552673
 10
-333.747742
 20
765.231201
 10
-333.835754
 20
765.90448
 10
-333.981689
 20
766.5672
 10
-334.18454
 20
767.214172
 10
-334.442535
 20
767.840332
 10
-334.753815
 20
768.440613
 10
-335.116211
 20
769.01001
 10
-335.52655
 20
769.543884
 10
-335.981598
 20
770.03772
 10
-336.477142
 20
770.487671
 10
-337.008209
 20
770.890991
 10
-337.568481
 20
771.247131
 10
-338.151215
 20
771.557312
 10
-338.749573
 20
771.824951
 10
-339.358459
 20
772.052551
 10
-339.975098
 20
772.24054
 10
-340.597626
 20
772.388184
 10
-341.225586
 20
772.491211
 10
-341.856812
 20
772.544983
 10
-342.513367
 20
772.552673
 10
-343.19281
 20
772.552673
 10
-343.872192
 20
772.552673
 10
-344.551575
 20
772.552673
 10
-345.230988
 20
772.552673
 10
-345.91037
 20
772.552673
 10
-346.592651
 20
772.552673
  0
LINE
  5
326
330
2B7
100
AcDbEntity
  8
0
  6
Continuous
 62
     0
370
    30
100
AcDbLine
 10
-346.59264
 20
772.5527
 30
0.0
 11
-400.718247
 21
772.5527
 31
0.0
  0
LINE
  5
327
330
2B7
100
AcDbEntity
  8
0
  6
Continuous
 62
     0
370
    30
100
AcDbLine
 10
-400.718247
 20
772.5527
 30
0.0
 11
-402.218247
 21
772.5527
 31
0.0
  0
LINE
  5
328
330
2B7
100
AcDbEntity
  8
0
  6
Continuous
 62
     0
370
    30
100
AcDbLine
 10
-402.718247
 20
773.0527
 30
0.0
 11
-402.718247
 21
788.0527
 31
0.0
  0
LINE
  5
329
330
2B7
100
AcDbEntity
  8
0
  6
Continuous
 62
     0
370
     0
100
AcDbLine
 10
-400.718247
 20
773.0527
 30
0.0
 11
-402.718247
 21
773.0527
 31
0.0
  0
LINE
  5
32A
330
2B7
100
AcDbEntity
  8
0
  6
Continuous
 62
     0
370
     0
100
AcDbLine
 10
-400.718247
 20
773.0527
 30
0.0
 11
-400.718247
 21
788.0527
 31
0.0
  0
LINE
  5
32B
330
2B7
100
AcDbEntity
  8
0
  6
Continuous
 62
     0
370
     0
100
AcDbLine
 10
-346.59264
 20
773.0527
 30
0.0
 11
-400.718247
 21
773.0527
 31
0.0
  0
LWPOLYLINE
  5
32C
330
2B7
100
AcDbEntity
  8
0
  6
Continuous
 62
     0
370
    30
100
AcDbPolyline
 90
       25
 70
     0
 43
0.0
 10
-333.718262
 20
764.552673
 10
-333.751343
 20
765.286621
 10
-333.850342
 20
766.01532
 10
-334.014587
 20
766.731995
 10
-334.242218
 20
767.430847
 10
-334.530945
 20
768.10675
 10
-334.878296
 20
768.754517
 10
-335.281097
 20
769.369446
 10
-335.735229
 20
769.947449
 10
-336.236359
 20
770.485229
 10
-336.779938
 20
770.980042
 10
-337.361359
 20
771.429993
 10
-337.976288
 20
771.832886
 10
-338.621124
 20
772.185791
 10
-339.29248
 20
772.485168
 10
-339.986847
 20
772.726379
 10
-340.700073
 20
772.904114
 10
-341.42688
 20
773.013855
 10
-342.160858
 20
773.052185
 10
-342.896179
 20
773.052551
 10
-343.63147
 20
773.052734
 10
-344.36676
 20
773.052673
 10
-345.102081
 20
773.052673
 10
-345.837372
 20
773.052673
 10
-346.592651
 20
773.052673
  0
LINE
  5
32D
330
2B7
100
AcDbEntity
  8
0
  6
Continuous
 62
     0
370
     0
100
AcDbLine
 10
-346.59264
 20
773.0527
 30
0.0
 11
-346.59264
 21
772.5527
 31
0.0
  0
LINE
  5
32E
330
2B7
100
AcDbEntity
  8
0
  6
Continuous
 62
     0
370
     0
100
AcDbLine
 10
-400.718247
 20
773.0527
 30
0.0
 11
-400.718247
 21
772.5527
 31
0.0
  0
ARC
  5
32F
330
2B7
100
AcDbEntity
  8
0
  6
Continuous
 62
     0
370
    30
100
AcDbCircle
 10
-402.218247
 20
773.0527
 30
0.0
 40
0.5
100
AcDbArc
 50
180.0
 51
270.0
  0
LINE
  5
330
330
2B7
100
AcDbEntity
  8
0
  6
Continuous
 62
     0
370
     0
100
AcDbLine
 10
-333.718247
 20
762.5527
 30
0.0
 11
-333.718247
 21
731.5527
 31
0.0
  0
LINE
  5
331
330
2B7
100
AcDbEntity
  8
0
  6
Continuous
 62
     0
370
    30
100
AcDbLine
 10
-339.718246
 20
762.5527
 30
0.0
 11
-339.718246
 21
731.5527
 31
0.0
  0
LINE
  5
332
330
2B7
100
AcDbEntity
  8
0
  6
Continuous
 62
     0
370
    30
100
AcDbLine
 10
-327.718246
 20
762.5527
 30
0.0
 11
-327.718246
 21
731.5527
 31
0.0
  0
LWPOLYLINE
  5
333
330
2B7
100
AcDbEntity
  8
0
  6
Continuous
 62
     0
370
    30
100
AcDbPolyline
 90
       22
 70
     0
 43
0.0
 10
-339.717773
 20
764.552673
 10
-339.722168
 20
765.006653
 10
-339.736023
 20
765.460815
 10
-339.760406
 20
765.914673
 10
-339.796326
 20
766.367676
 10
-339.844879
 20
766.819458
 10
-339.907043
 20
767.269531
 10
-339.983856
 20
767.717285
 10
-340.07663
 20
768.16217
 10
-340.187012
 20
768.602905
 10
-340.316864
 20
769.038269
 10
-340.467957
 20
769.466919
 10
-340.642303
 20
769.887085
 10
-340.842438
 20
770.295349
 10
-341.071075
 20
770.687744
 10
-341.330933
 20
771.060425
 10
-341.623932
 20
771.408081
 10
-341.950867
 20
771.723572
 10
-342.312469
 20
771.999512
 10
-342.707367
 20
772.227661
 10
-343.128815
 20
772.397644
 10
-343.584412
 20
772.50177
  0
LINE
  5
334
330
2B7
100
AcDbEntity
  8
0
  6
Continuous
 62
     0
370
    30
100
AcDbLine
 10
-327.718246
 20
788.0527
 30
0.0
 11
-327.718246
 21
762.5527
 31
0.0
  0
LINE
  5
335
330
2B7
100
AcDbEntity
  8
0
  6
Continuous
 62
     0
370
    30
100
AcDbLine
 10
-339.718109
 20
764.5527
 30
0.0
 11
-339.718246
 21
762.5527
 31
0.0
  0
ENDBLK
  5
337
330
2B7
100
AcDbEntity
  8
0
100
AcDbBlockEnd
  0
ENDSEC
  0
SECTION
  2
ENTITIES
  0
INSERT
  5
B1
330
1F
100
AcDbEntity
  8
0
  6
Continuous
 62
     7
420
 16250871
370
     0
100
AcDbBlockReference
  2
a
 10
21.257402
 20
103.131485
 30
0.0
  0
INSERT
  5
104
330
1F
100
AcDbEntity
  8
0
  6
Continuous
 62
     7
420
 16250871
370
     0
100
AcDbBlockReference
  2
b
 10
21.257402
 20
103.131485
 30
0.0
  0
INSERT
  5
1B9
330
1F
100
AcDbEntity
  8
0
  6
Continuous
 62
     7
420
 16250871
370
     0
100
AcDbBlockReference
  2
c
 10
21.257402
 20
103.131485
 30
0.0
  0
INSERT
  5
2B6
330
1F
100
AcDbEntity
  8
0
  6
Continuous
 62
     7
420
 16250871
370
     0
100
AcDbBlockReference
  2
d
 10
21.257402
 20
103.131485
 30
0.0
  0
INSERT
  5
338
330
1F
100
AcDbEntity
  8
0
  6
Continuous
 62
     7
420
 16250871
370
     0
100
AcDbBlockReference
  2
e
 10
-13.888733
 20
0.0
 30
0.0
  0
ENDSEC
  0
SECTION
  2
OBJECTS
  0
DICTIONARY
  5
C
330
0
100
AcDbDictionary
281
     1
  3
ACAD_DETAILVIEWSTYLE
350
370
  3
ACAD_GROUP
350
D
  3
ACAD_LAYOUT
350
1A
  3
ACAD_MATERIAL
350
43
  3
ACAD_MLEADERSTYLE
350
6B
  3
ACAD_MLINESTYLE
350
17
  3
ACAD_PLOTSETTINGS
350
19
  3
ACAD_PLOTSTYLENAME
350
E
  3
ACAD_SCALELIST
350
47
  3
ACAD_SECTIONVIEWSTYLE
350
371
  3
ACAD_TABLESTYLE
350
69
  3
ACAD_VISUALSTYLE
350
2A
  3
ACDB_RECOMPOSE_DATA
350
36D
  3
AcDbVariableDictionary
350
339
  0
SUN
  5
6D
330
29
100
AcDbSun
 90
        1
290
     0
 63
     7
421
 16777215
 40
1.0
291
     1
 91
  2455826
 92
 54000000
292
     0
 70
     2
 71
   256
280
     1
  0
DICTIONARY
  5
370
102
{ACAD_REACTORS
330
C
102
}
330
C
100
AcDbDictionary
281
     1
  0
DICTIONARY
  5
D
102
{ACAD_REACTORS
330
C
102
}
330
C
100
AcDbDictionary
281
     1
  0
DICTIONARY
  5
1A
102
{ACAD_REACTORS
330
C
102
}
330
C
100
AcDbDictionary
281
     1
  3
Layout1
350
1E
  3
Layout2
350
26
  3
Model
350
22
  0
DICTIONARY
  5
43
102
{ACAD_REACTORS
330
C
102
}
330
C
100
AcDbDictionary
281
     1
  3
ByBlock
350
45
  3
ByLayer
350
44
  3
Global
350
46
  0
DICTIONARY
  5
6B
102
{ACAD_REACTORS
330
C
102
}
330
C
100
AcDbDictionary
281
     1
  3
Standard
350
6C
  0
DICTIONARY
  5
17
102
{ACAD_REACTORS
330
C
102
}
330
C
100
AcDbDictionary
281
     1
  3
Standard
350
18
  0
DICTIONARY
  5
19
102
{ACAD_REACTORS
330
C
102
}
330
C
100
AcDbDictionary
281
     1
  0
ACDBDICTIONARYWDFLT
  5
E
102
{ACAD_REACTORS
330
C
102
}
330
C
100
AcDbDictionary
281
     1
  3
Normal
350
F
100
AcDbDictionaryWithDefault
340
F
  0
DICTIONARY
  5
47
102
{ACAD_REACTORS
330
C
102
}
330
C
100
AcDbDictionary
281
     1
  3
A0
350
48
  3
A1
350
49
  3
A2
350
4A
  3
A3
350
4B
  3
A4
350
4C
  3
A5
350
4D
  3
A6
350
4E
  3
A7
350
4F
  3
A8
350
50
  3
A9
350
51
  3
B0
350
52
  3
B1
350
53
  3
B2
350
54
  3
B3
350
55
  3
B4
350
56
  3
B5
350
57
  3
B6
350
58
  3
B7
350
59
  3
B8
350
5A
  3
B9
350
5B
  3
C0
350
5C
  3
C1
350
5D
  3
C2
350
5E
  3
C3
350
5F
  3
C4
350
60
  3
C5
350
61
  3
C6
350
62
  3
C7
350
63
  3
C8
350
64
  3
C9
350
65
  3
D0
350
66
  3
D1
350
67
  3
D2
350
68
  0
DICTIONARY
  5
371
102
{ACAD_REACTORS
330
C
102
}
330
C
100
AcDbDictionary
281
     1
  0
DICTIONARY
  5
69
102
{ACAD_REACTORS
330
C
102
}
330
C
100
AcDbDictionary
281
     1
  3
Standard
350
6A
  0
DICTIONARY
  5
2A
102
{ACAD_REACTORS
330
C
102
}
330
C
100
AcDbDictionary
281
     1
  3
2dWireframe
350
2F
  3
Basic
350
32
  3
Brighten
350
36
  3
ColorChange
350
3A
  3
Conceptual
350
34
  3
Dim
350
35
  3
EdgeColorOff
350
3D
  3
Facepattern
350
39
  3
Flat
350
2B
  3
FlatWithEdges
350
2C
  3
Gouraud
350
2D
  3
GouraudWithEdges
350
2E
  3
Hidden
350
31
  3
JitterOff
350
3B
  3
Linepattern
350
38
  3
OverhangOff
350
3C
  3
Realistic
350
33
  3
Shaded
350
42
  3
Shaded with edges
350
41
  3
Shades of Gray
350
3E
  3
Sketchy
350
3F
  3
Thicken
350
37
  3
Wireframe
350
30
  3
X-Ray
350
40
  0
XRECORD
  5
36D
102
{ACAD_REACTORS
330
C
102
}
330
C
100
AcDbXrecord
280
     1
 90
        1
330
6A
  0
DICTIONARY
  5
339
102
{ACAD_REACTORS
330
C
102
}
330
C
100
AcDbDictionary
281
     1
  3
CANNOSCALE
350
33A
  3
CMLEADERSTYLE
350
36F
  3
CTABLESTYLE
350
36E
  0
LAYOUT
  5
1E
102
{ACAD_REACTORS
330
1A
102
}
330
1A
100
AcDbPlotSettings
  1

  2
none_device
  4

  6

 40
0.0
 41
0.0
 42
0.0
 43
0.0
 44
0.0
 45
0.0
 46
0.0
 47
0.0
 48
0.0
 49
0.0
140
0.0
141
0.0
142
1.0
143
1.0
 70
   688
 72
     1
 73
     0
 74
     5
  7

 75
    16
 76
     0
 77
     2
 78
   300
147
1.0
148
0.0
149
0.0
100
AcDbLayout
  1
Layout1
 70
     1
 71
     1
 10
0.0
 20
0.0
 11
420.0
 21
297.0
 12
0.0
 22
0.0
 32
0.0
 14
1.000000E+20
 24
1.000000E+20
 34
1.000000E+20
 15
-1.000000E+20
 25
-1.000000E+20
 35
-1.000000E+20
146
0.0
 13
0.0
 23
0.0
 33
0.0
 16
1.0
 26
0.0
 36
0.0
 17
0.0
 27
1.0
 37
0.0
 76
     0
330
1B
  0
LAYOUT
  5
26
102
{ACAD_REACTORS
330
1A
102
}
330
1A
100
AcDbPlotSettings
  1

  2
none_device
  4

  6

 40
0.0
 41
0.0
 42
0.0
 43
0.0
 44
0.0
 45
0.0
 46
0.0
 47
0.0
 48
0.0
 49
0.0
140
0.0
141
0.0
142
1.0
143
1.0
 70
   688
 72
     1
 73
     0
 74
     5
  7

 75
    16
 76
     0
 77
     2
 78
   300
147
1.0
148
0.0
149
0.0
100
AcDbLayout
  1
Layout2
 70
     1
 71
     2
 10
0.0
 20
0.0
 11
0.0
 21
0.0
 12
0.0
 22
0.0
 32
0.0
 14
0.0
 24
0.0
 34
0.0
 15
0.0
 25
0.0
 35
0.0
146
0.0
 13
0.0
 23
0.0
 33
0.0
 16
1.0
 26
0.0
 36
0.0
 17
0.0
 27
1.0
 37
0.0
 76
     0
330
23
  0
LAYOUT
  5
22
102
{ACAD_REACTORS
330
1A
102
}
330
1A
100
AcDbPlotSettings
  1

  2
none_device
  4
Letter_(8.50_x_11.00_Inches)
  6

 40
6.35
 41
6.35
 42
6.350005
 43
6.350005
 44
215.9
 45
279.4
 46
0.0
 47
0.0
 48
0.0
 49
0.0
140
0.0
141
0.0
142
1.0
143
1.0
 70
  1712
 72
     1
 73
     0
 74
     0
  7

 75
     0
 76
     0
 77
     2
 78
   300
147
1.0
148
0.0
149
0.0
100
AcDbLayout
  1
Model
 70
     1
 71
     0
 10
0.0
 20
0.0
 11
420.0
 21
297.0
 12
0.0
 22
0.0
 32
0.0
 14
1.000000E+20
 24
1.000000E+20
 34
1.000000E+20
 15
-1.000000E+20
 25
-1.000000E+20
 35
-1.000000E+20
146
0.0
 13
0.0
 23
0.0
 33
0.0
 16
1.0
 26
0.0
 36
0.0
 17
0.0
 27
1.0
 37
0.0
 76
     0
330
1F
331
29
  0
MATERIAL
  5
45
102
{ACAD_REACTORS
330
43
102
}
330
43
100
AcDbMaterial
  1
ByBlock
 72
     1
 94
      127
  0
MATERIAL
  5
44
102
{ACAD_REACTORS
330
43
102
}
330
43
100
AcDbMaterial
  1
ByLayer
 72
     1
 94
      127
  0
MATERIAL
  5
46
102
{ACAD_REACTORS
330
43
102
}
330
43
100
AcDbMaterial
  1
Global
 72
     1
 94
      127
  0
MLEADERSTYLE
  5
6C
102
{ACAD_REACTORS
330
6B
102
}
330
6B
100
AcDbMLeaderStyle
179
     2
170
     2
171
     1
172
     0
 90
        2
 40
0.0
 41
0.0
173
     1
 91
-1056964608
340
14
 92
       -2
290
     1
 42
2.0
291
     1
 43
8.0
  3
Standard
341
0
 44
4.0
300

342
11
174
     1
178
     6
175
     1
176
     0
 93
-1056964608
 45
4.0
292
     0
297
     0
 46
4.0
343
0
 94
-1056964608
 47
1.0
 49
1.0
140
1.0
293
     1
141
0.0
294
     1
177
     0
142
1.0
295
     0
296
     0
143
3.75
271
     0
272
     9
273
     9
  0
MLINESTYLE
  5
18
102
{ACAD_REACTORS
330
17
102
}
330
17
100
AcDbMlineStyle
  2
Standard
 70
     0
  3

 62
   256
 51
90.0
 52
90.0
 71
     2
 49
0.5
 62
   256
  6
BYLAYER
 49
-0.5
 62
   256
  6
BYLAYER
  0
ACDBPLACEHOLDER
  5
F
102
{ACAD_REACTORS
330
E
102
}
330
E
  0
SCALE
  5
48
102
{ACAD_REACTORS
330
47
102
}
330
47
100
AcDbScale
 70
     0
300
1:1
140
1.0
141
1.0
290
     1
  0
SCALE
  5
49
102
{ACAD_REACTORS
330
47
102
}
330
47
100
AcDbScale
 70
     0
300
1:2
140
1.0
141
2.0
290
     0
  0
SCALE
  5
4A
102
{ACAD_REACTORS
330
47
102
}
330
47
100
AcDbScale
 70
     0
300
1:4
140
1.0
141
4.0
290
     0
  0
SCALE
  5
4B
102
{ACAD_REACTORS
330
47
102
}
330
47
100
AcDbScale
 70
     0
300
1:5
140
1.0
141
5.0
290
     0
  0
SCALE
  5
4C
102
{ACAD_REACTORS
330
47
102
}
330
47
100
AcDbScale
 70
     0
300
1:8
140
1.0
141
8.0
290
     0
  0
SCALE
  5
4D
102
{ACAD_REACTORS
330
47
102
}
330
47
100
AcDbScale
 70
     0
300
1:10
140
1.0
141
10.0
290
     0
  0
SCALE
  5
4E
102
{ACAD_REACTORS
330
47
102
}
330
47
100
AcDbScale
 70
     0
300
1:16
140
1.0
141
16.0
290
     0
  0
SCALE
  5
4F
102
{ACAD_REACTORS
330
47
102
}
330
47
100
AcDbScale
 70
     0
300
1:20
140
1.0
141
20.0
290
     0
  0
SCALE
  5
50
102
{ACAD_REACTORS
330
47
102
}
330
47
100
AcDbScale
 70
     0
300
1:30
140
1.0
141
30.0
290
     0
  0
SCALE
  5
51
102
{ACAD_REACTORS
330
47
102
}
330
47
100
AcDbScale
 70
     0
300
1:40
140
1.0
141
40.0
290
     0
  0
SCALE
  5
52
102
{ACAD_REACTORS
330
47
102
}
330
47
100
AcDbScale
 70
     0
300
1:50
140
1.0
141
50.0
290
     0
  0
SCALE
  5
53
102
{ACAD_REACTORS
330
47
102
}
330
47
100
AcDbScale
 70
     0
300
1:100
140
1.0
141
100.0
290
     0
  0
SCALE
  5
54
102
{ACAD_REACTORS
330
47
102
}
330
47
100
AcDbScale
 70
     0
300
2:1
140
2.0
141
1.0
290
     0
  0
SCALE
  5
55
102
{ACAD_REACTORS
330
47
102
}
330
47
100
AcDbScale
 70
     0
300
4:1
140
4.0
141
1.0
290
     0
  0
SCALE
  5
56
102
{ACAD_REACTORS
330
47
102
}
330
47
100
AcDbScale
 70
     0
300
8:1
140
8.0
141
1.0
290
     0
  0
SCALE
  5
57
102
{ACAD_REACTORS
330
47
102
}
330
47
100
AcDbScale
 70
     0
300
10:1
140
10.0
141
1.0
290
     0
  0
SCALE
  5
58
102
{ACAD_REACTORS
330
47
102
}
330
47
100
AcDbScale
 70
     0
300
100:1
140
100.0
141
1.0
290
     0
  0
SCALE
  5
59
102
{ACAD_REACTORS
330
47
102
}
330
47
100
AcDbScale
 70
     0
300
1/128" = 1'-0"
140
0.007812
141
12.0
290
     0
  0
SCALE
  5
5A
102
{ACAD_REACTORS
330
47
102
}
330
47
100
AcDbScale
 70
     0
300
1/64" = 1'-0"
140
0.015625
141
12.0
290
     0
  0
SCALE
  5
5B
102
{ACAD_REACTORS
330
47
102
}
330
47
100
AcDbScale
 70
     0
300
1/32" = 1'-0"
140
0.03125
141
12.0
290
     0
  0
SCALE
  5
5C
102
{ACAD_REACTORS
330
47
102
}
330
47
100
AcDbScale
 70
     0
300
1/16" = 1'-0"
140
0.0625
141
12.0
290
     0
  0
SCALE
  5
5D
102
{ACAD_REACTORS
330
47
102
}
330
47
100
AcDbScale
 70
     0
300
3/32" = 1'-0"
140
0.09375
141
12.0
290
     0
  0
SCALE
  5
5E
102
{ACAD_REACTORS
330
47
102
}
330
47
100
AcDbScale
 70
     0
300
1/8" = 1'-0"
140
0.125
141
12.0
290
     0
  0
SCALE
  5
5F
102
{ACAD_REACTORS
330
47
102
}
330
47
100
AcDbScale
 70
     0
300
3/16" = 1'-0"
140
0.1875
141
12.0
290
     0
  0
SCALE
  5
60
102
{ACAD_REACTORS
330
47
102
}
330
47
100
AcDbScale
 70
     0
300
1/4" = 1'-0"
140
0.25
141
12.0
290
     0
  0
SCALE
  5
61
102
{ACAD_REACTORS
330
47
102
}
330
47
100
AcDbScale
 70
     0
300
3/8" = 1'-0"
140
0.375
141
12.0
290
     0
  0
SCALE
  5
62
102
{ACAD_REACTORS
330
47
102
}
330
47
100
AcDbScale
 70
     0
300
1/2" = 1'-0"
140
0.5
141
12.0
290
     0
  0
SCALE
  5
63
102
{ACAD_REACTORS
330
47
102
}
330
47
100
AcDbScale
 70
     0
300
3/4" = 1'-0"
140
0.75
141
12.0
290
     0
  0
SCALE
  5
64
102
{ACAD_REACTORS
330
47
102
}
330
47
100
AcDbScale
 70
     0
300
1" = 1'-0"
140
1.0
141
12.0
290
     0
  0
SCALE
  5
65
102
{ACAD_REACTORS
330
47
102
}
330
47
100
AcDbScale
 70
     0
300
1-1/2" = 1'-0"
140
1.5
141
12.0
290
     0
  0
SCALE
  5
66
102
{ACAD_REACTORS
330
47
102
}
330
47
100
AcDbScale
 70
     0
300
3" = 1'-0"
140
3.0
141
12.0
290
     0
  0
SCALE
  5
67
102
{ACAD_REACTORS
330
47
102
}
330
47
100
AcDbScale
 70
     0
300
6" = 1'-0"
140
6.0
141
12.0
290
     0
  0
SCALE
  5
68
102
{ACAD_REACTORS
330
47
102
}
330
47
100
AcDbScale
 70
     0
300
1'-0" = 1'-0"
140
12.0
141
12.0
290
     0
  0
TABLESTYLE
  5
6A
102
{ACAD_REACTORS
330
69
102
}
102
{ACAD_XDICTIONARY
360
36B
102
}
330
69
100
AcDbTableStyle
  3
Standard
 70
     0
 71
     0
 40
0.06
 41
0.06
280
     0
281
     0
  7
Standard
140
4.5
170
     2
 62
     0
 63
   257
283
     0
 90
        4
 91
        0
  1

274
    -2
284
     1
 64
     0
275
    -2
285
     1
 65
     0
276
    -2
286
     1
 66
     0
277
    -2
287
     1
 67
     0
278
    -2
288
     1
 68
     0
279
    -2
289
     1
 69
     0
  7
Standard
140
6.0
170
     5
 62
     0
 63
   257
283
     0
 90
        4
 91
        0
  1

274
    -2
284
     1
 64
     0
275
    -2
285
     1
 65
     0
276
    -2
286
     1
 66
     0
277
    -2
287
     1
 67
     0
278
    -2
288
     1
 68
     0
279
    -2
289
     1
 69
     0
  7
Standard
140
4.5
170
     5
 62
     0
 63
   257
283
     0
 90
        4
 91
        0
  1

274
    -2
284
     1
 64
     0
275
    -2
285
     1
 65
     0
276
    -2
286
     1
 66
     0
277
    -2
287
     1
 67
     0
278
    -2
288
     1
 68
     0
279
    -2
289
     1
 69
     0
  0
VISUALSTYLE
  5
2F
102
{ACAD_REACTORS
330
2A
102
}
102
{ACAD_XDICTIONARY
360
343
102
}
330
2A
100
AcDbVisualStyle
  2
2dWireframe
 70
     4
177
     2
291
     0
 71
     0
176
     1
 72
     2
176
     1
 73
     0
176
     1
 90
        0
176
     1
 40
0.6
176
     1
 41
30.0
176
     1
 62
     5
 63
     7
421
 16777215
176
     1
 74
     1
176
     1
 91
        4
176
     1
 64
     7
176
     1
 65
   257
176
     1
 75
     1
176
     1
175
     1
176
     1
 42
1.0
176
     1
 92
        0
176
     1
 66
   257
176
     1
 43
1.0
176
     1
 76
     1
176
     1
 77
     6
176
     1
 78
     2
176
     1
 67
     7
176
     1
 79
     5
176
     1
170
     0
176
     1
171
     0
176
     1
290
     0
176
     1
 93
        1
176
     1
 44
0.0
176
     1
173
     0
176
     1
  0
VISUALSTYLE
  5
32
102
{ACAD_REACTORS
330
2A
102
}
102
{ACAD_XDICTIONARY
360
349
102
}
330
2A
100
AcDbVisualStyle
  2
Basic
 70
     7
177
     2
291
     1
 71
     1
176
     1
 72
     0
176
     1
 73
     1
176
     1
 90
        0
176
     1
 40
0.6
176
     1
 41
30.0
176
     1
 62
     5
 63
     7
421
 16777215
176
     1
 74
     0
176
     1
 91
        4
176
     1
 64
     7
176
     1
 65
   257
176
     1
 75
     1
176
     1
175
     1
176
     1
 42
1.0
176
     1
 92
        8
176
     1
 66
     7
176
     1
 43
1.0
176
     1
 76
     1
176
     1
 77
     6
176
     1
 78
     2
176
     1
 67
     7
176
     1
 79
     5
176
     1
170
     0
176
     1
171
     0
176
     1
290
     0
176
     1
 93
        1
176
     1
 44
0.0
176
     1
173
     0
176
     1
  0
VISUALSTYLE
  5
36
102
{ACAD_REACTORS
330
2A
102
}
102
{ACAD_XDICTIONARY
360
351
102
}
330
2A
100
AcDbVisualStyle
  2
Brighten
 70
    12
177
     2
291
     1
 71
     2
176
     1
 72
     2
176
     1
 73
     0
176
     1
 90
        0
176
     1
 40
0.6
176
     1
 41
30.0
176
     1
 62
     5
 63
     7
421
 16777215
176
     1
 74
     1
176
     1
 91
        4
176
     1
 64
     7
176
     1
 65
   257
176
     1
 75
     1
176
     1
175
     1
176
     1
 42
1.0
176
     1
 92
        8
176
     1
 66
     7
176
     1
 43
1.0
176
     1
 76
     1
176
     1
 77
     6
176
     1
 78
     2
176
     1
 67
     7
176
     1
 79
     5
176
     1
170
     0
176
     1
171
     0
176
     1
290
     0
176
     1
 93
        1
176
     1
 44
50.0
176
     1
173
     0
176
     1
  0
VISUALSTYLE
  5
3A
102
{ACAD_REACTORS
330
2A
102
}
102
{ACAD_XDICTIONARY
360
359
102
}
330
2A
100
AcDbVisualStyle
  2
ColorChange
 70
    16
177
     2
291
     1
 71
     2
176
     1
 72
     2
176
     1
 73
     3
176
     1
 90
        0
176
     1
 40
0.6
176
     1
 41
30.0
176
     1
 62
     5
 63
     8
421
  8421504
176
     1
 74
     1
176
     1
 91
        4
176
     1
 64
     7
176
     1
 65
   257
176
     1
 75
     1
176
     1
175
     1
176
     1
 42
1.0
176
     1
 92
        8
176
     1
 66
     8
424
  8421504
176
     1
 43
1.0
176
     1
 76
     1
176
     1
 77
     6
176
     1
 78
     2
176
     1
 67
     7
176
     1
 79
     5
176
     1
170
     0
176
     1
171
     0
176
     1
290
     0
176
     1
 93
        1
176
     1
 44
0.0
176
     1
173
     0
176
     1
  0
VISUALSTYLE
  5
34
102
{ACAD_REACTORS
330
2A
102
}
102
{ACAD_XDICTIONARY
360
34D
102
}
330
2A
100
AcDbVisualStyle
  2
Conceptual
 70
     9
177
     2
291
     0
 71
     3
176
     1
 72
     2
176
     1
 73
     0
176
     1
 90
        0
176
     1
 40
0.6
176
     1
 41
30.0
176
     1
 62
     5
 63
     7
421
 16777215
176
     1
 74
     2
176
     1
 91
        2
176
     1
 64
     7
176
     1
 65
   257
176
     1
 75
     1
176
     1
175
     1
176
     1
 42
179.0
176
     1
 92
        8
176
     1
 66
     7
176
     1
 43
1.0
176
     1
 76
     1
176
     1
 77
     6
176
     1
 78
     2
176
     1
 67
     7
176
     1
 79
     3
176
     1
170
     0
176
     1
171
     0
176
     1
290
     0
176
     1
 93
        1
176
     1
 44
0.0
176
     1
173
     0
176
     1
  0
VISUALSTYLE
  5
35
102
{ACAD_REACTORS
330
2A
102
}
102
{ACAD_XDICTIONARY
360
34F
102
}
330
2A
100
AcDbVisualStyle
  2
Dim
 70
    11
177
     2
291
     1
 71
     2
176
     1
 72
     2
176
     1
 73
     0
176
     1
 90
        0
176
     1
 40
0.6
176
     1
 41
30.0
176
     1
 62
     5
 63
     7
421
 16777215
176
     1
 74
     1
176
     1
 91
        4
176
     1
 64
     7
176
     1
 65
   257
176
     1
 75
     1
176
     1
175
     1
176
     1
 42
1.0
176
     1
 92
        8
176
     1
 66
     7
176
     1
 43
1.0
176
     1
 76
     1
176
     1
 77
     6
176
     1
 78
     2
176
     1
 67
     7
176
     1
 79
     5
176
     1
170
     0
176
     1
171
     0
176
     1
290
     0
176
     1
 93
        1
176
     1
 44
-50.0
176
     1
173
     0
176
     1
  0
VISUALSTYLE
  5
3D
102
{ACAD_REACTORS
330
2A
102
}
102
{ACAD_XDICTIONARY
360
35F
102
}
330
2A
100
AcDbVisualStyle
  2
EdgeColorOff
 70
    22
177
     2
291
     1
 71
     2
176
     0
 72
     2
176
     0
 73
     0
176
     0
 90
        0
176
     0
 40
0.6
176
     0
 41
30.0
176
     0
 62
     5
 63
     7
421
 16777215
176
     0
 74
     1
176
     0
 91
        4
176
     0
 64
     7
176
     0
 65
   257
176
     0
 75
     1
176
     0
175
     1
176
     0
 42
1.0
176
     0
 92
        8
176
     2
 66
     7
176
     0
 43
1.0
176
     0
 76
     1
176
     0
 77
     6
176
     0
 78
     2
176
     0
 67
     7
176
     0
 79
     5
176
     0
170
     0
176
     0
171
     0
176
     0
290
     0
176
     0
 93
        1
176
     0
 44
0.0
176
     0
173
     0
176
     0
  0
VISUALSTYLE
  5
39
102
{ACAD_REACTORS
330
2A
102
}
102
{ACAD_XDICTIONARY
360
357
102
}
330
2A
100
AcDbVisualStyle
  2
Facepattern
 70
    15
177
     2
291
     1
 71
     2
176
     1
 72
     2
176
     1
 73
     0
176
     1
 90
        0
176
     1
 40
0.6
176
     1
 41
30.0
176
     1
 62
     5
 63
     7
421
 16777215
176
     1
 74
     1
176
     1
 91
        4
176
     1
 64
     7
176
     1
 65
   257
176
     1
 75
     1
176
     1
175
     1
176
     1
 42
1.0
176
     1
 92
        8
176
     1
 66
     7
176
     1
 43
1.0
176
     1
 76
     1
176
     1
 77
     6
176
     1
 78
     2
176
     1
 67
     7
176
     1
 79
     5
176
     1
170
     0
176
     1
171
     0
176
     1
290
     0
176
     1
 93
        1
176
     1
 44
0.0
176
     1
173
     0
176
     1
  0
VISUALSTYLE
  5
2B
102
{ACAD_REACTORS
330
2A
102
}
102
{ACAD_XDICTIONARY
360
33B
102
}
330
2A
100
AcDbVisualStyle
  2
Flat
 70
     0
177
     2
291
     1
 71
     2
176
     1
 72
     1
176
     1
 73
     1
176
     1
 90
        2
176
     1
 40
0.6
176
     1
 41
30.0
176
     1
 62
     5
 63
     7
421
 16777215
176
     1
 74
     0
176
     1
 91
        0
176
     1
 64
     7
176
     1
 65
   257
176
     1
 75
     1
176
     1
175
     1
176
     1
 42
1.0
176
     1
 92
        8
176
     1
 66
     7
176
     1
 43
1.0
176
     1
 76
     1
176
     1
 77
     6
176
     1
 78
     2
176
     1
 67
     7
176
     1
 79
     5
176
     1
170
     0
176
     1
171
     0
176
     1
290
     0
176
     1
 93
       13
176
     1
 44
0.0
176
     1
173
     0
176
     1
  0
VISUALSTYLE
  5
2C
102
{ACAD_REACTORS
330
2A
102
}
102
{ACAD_XDICTIONARY
360
33D
102
}
330
2A
100
AcDbVisualStyle
  2
FlatWithEdges
 70
     1
177
     2
291
     1
 71
     2
176
     1
 72
     1
176
     1
 73
     1
176
     1
 90
        2
176
     1
 40
0.6
176
     1
 41
30.0
176
     1
 62
     5
 63
     7
421
 16777215
176
     1
 74
     1
176
     1
 91
        0
176
     1
 64
     7
176
     1
 65
   257
176
     1
 75
     1
176
     1
175
     1
176
     1
 42
1.0
176
     1
 92
        0
176
     1
 66
   257
176
     1
 43
1.0
176
     1
 76
     1
176
     1
 77
     6
176
     1
 78
     2
176
     1
 67
     7
176
     1
 79
     5
176
     1
170
     0
176
     1
171
     0
176
     1
290
     0
176
     1
 93
       13
176
     1
 44
0.0
176
     1
173
     0
176
     1
  0
VISUALSTYLE
  5
2D
102
{ACAD_REACTORS
330
2A
102
}
102
{ACAD_XDICTIONARY
360
33F
102
}
330
2A
100
AcDbVisualStyle
  2
Gouraud
 70
     2
177
     2
291
     1
 71
     2
176
     1
 72
     2
176
     1
 73
     1
176
     1
 90
        2
176
     1
 40
0.6
176
     1
 41
30.0
176
     1
 62
     5
 63
     7
421
 16777215
176
     1
 74
     0
176
     1
 91
        0
176
     1
 64
     7
176
     1
 65
   257
176
     1
 75
     1
176
     1
175
     1
176
     1
 42
1.0
176
     1
 92
        0
176
     1
 66
     7
176
     1
 43
1.0
176
     1
 76
     1
176
     1
 77
     6
176
     1
 78
     2
176
     1
 67
     7
176
     1
 79
     5
176
     1
170
     0
176
     1
171
     0
176
     1
290
     0
176
     1
 93
       13
176
     1
 44
0.0
176
     1
173
     0
176
     1
  0
VISUALSTYLE
  5
2E
102
{ACAD_REACTORS
330
2A
102
}
102
{ACAD_XDICTIONARY
360
341
102
}
330
2A
100
AcDbVisualStyle
  2
GouraudWithEdges
 70
     3
177
     2
291
     1
 71
     2
176
     1
 72
     2
176
     1
 73
     1
176
     1
 90
        2
176
     1
 40
0.6
176
     1
 41
30.0
176
     1
 62
     5
 63
     7
421
 16777215
176
     1
 74
     1
176
     1
 91
        0
176
     1
 64
     7
176
     1
 65
   257
176
     1
 75
     1
176
     1
175
     1
176
     1
 42
1.0
176
     1
 92
        0
176
     1
 66
   257
176
     1
 43
1.0
176
     1
 76
     1
176
     1
 77
     6
176
     1
 78
     2
176
     1
 67
     7
176
     1
 79
     5
176
     1
170
     0
176
     1
171
     0
176
     1
290
     0
176
     1
 93
       13
176
     1
 44
0.0
176
     1
173
     0
176
     1
  0
VISUALSTYLE
  5
31
102
{ACAD_REACTORS
330
2A
102
}
102
{ACAD_XDICTIONARY
360
347
102
}
330
2A
100
AcDbVisualStyle
  2
Hidden
 70
     6
177
     2
291
     0
 71
     1
176
     1
 72
     2
176
     1
 73
     2
176
     1
 90
        0
176
     1
 40
0.6
176
     1
 41
30.0
176
     1
 62
     5
 63
     7
421
 16777215
176
     1
 74
     2
176
     1
 91
        2
176
     1
 64
     7
176
     1
 65
   257
176
     1
 75
     2
176
     1
175
     1
176
     1
 42
40.0
176
     1
 92
        0
176
     1
 66
   257
176
     1
 43
1.0
176
     1
 76
     1
176
     1
 77
     6
176
     1
 78
     2
176
     1
 67
     7
176
     1
 79
     3
176
     1
170
     0
176
     1
171
     0
176
     1
290
     0
176
     1
 93
        1
176
     1
 44
0.0
176
     1
173
     0
176
     1
  0
VISUALSTYLE
  5
3B
102
{ACAD_REACTORS
330
2A
102
}
102
{ACAD_XDICTIONARY
360
35B
102
}
330
2A
100
AcDbVisualStyle
  2
JitterOff
 70
    20
177
     2
291
     1
 71
     2
176
     0
 72
     2
176
     0
 73
     0
176
     0
 90
        0
176
     0
 40
0.6
176
     0
 41
30.0
176
     0
 62
     5
 63
     7
421
 16777215
176
     0
 74
     1
176
     0
 91
        4
176
     0
 64
     7
176
     0
 65
   257
176
     0
 75
     1
176
     0
175
     1
176
     0
 42
1.0
176
     0
 92
       10
176
     2
 66
     7
176
     0
 43
1.0
176
     0
 76
     1
176
     0
 77
     6
176
     0
 78
     2
176
     0
 67
     7
176
     0
 79
     5
176
     0
170
     0
176
     0
171
     0
176
     0
290
     0
176
     0
 93
        1
176
     0
 44
0.0
176
     0
173
     0
176
     0
  0
VISUALSTYLE
  5
38
102
{ACAD_REACTORS
330
2A
102
}
102
{ACAD_XDICTIONARY
360
355
102
}
330
2A
100
AcDbVisualStyle
  2
Linepattern
 70
    14
177
     2
291
     1
 71
     2
176
     1
 72
     2
176
     1
 73
     0
176
     1
 90
        0
176
     1
 40
0.6
176
     1
 41
30.0
176
     1
 62
     5
 63
     7
421
 16777215
176
     1
 74
     1
176
     1
 91
        4
176
     1
 64
     7
176
     1
 65
   257
176
     1
 75
     7
176
     1
175
     7
176
     1
 42
1.0
176
     1
 92
        8
176
     1
 66
     7
176
     1
 43
1.0
176
     1
 76
     1
176
     1
 77
     6
176
     1
 78
     2
176
     1
 67
     7
176
     1
 79
     5
176
     1
170
     0
176
     1
171
     0
176
     1
290
     0
176
     1
 93
        1
176
     1
 44
0.0
176
     1
173
     0
176
     1
  0
VISUALSTYLE
  5
3C
102
{ACAD_REACTORS
330
2A
102
}
102
{ACAD_XDICTIONARY
360
35D
102
}
330
2A
100
AcDbVisualStyle
  2
OverhangOff
 70
    21
177
     2
291
     1
 71
     2
176
     0
 72
     2
176
     0
 73
     0
176
     0
 90
        0
176
     0
 40
0.6
176
     0
 41
30.0
176
     0
 62
     5
 63
     7
421
 16777215
176
     0
 74
     1
176
     0
 91
        4
176
     0
 64
     7
176
     0
 65
   257
176
     0
 75
     1
176
     0
175
     1
176
     0
 42
1.0
176
     0
 92
        9
176
     2
 66
     7
176
     0
 43
1.0
176
     0
 76
     1
176
     0
 77
     6
176
     0
 78
     2
176
     0
 67
     7
176
     0
 79
     5
176
     0
170
     0
176
     0
171
     0
176
     0
290
     0
176
     0
 93
        1
176
     0
 44
0.0
176
     0
173
     0
176
     0
  0
VISUALSTYLE
  5
33
102
{ACAD_REACTORS
330
2A
102
}
102
{ACAD_XDICTIONARY
360
34B
102
}
330
2A
100
AcDbVisualStyle
  2
Realistic
 70
     8
177
     2
291
     0
 71
     2
176
     1
 72
     3
176
     1
 73
     0
176
     1
 90
        2
176
     1
 40
0.6
176
     1
 41
30.0
176
     1
 62
     5
 63
     7
421
 16777215
176
     1
 74
     0
176
     1
 91
        0
176
     1
 64
     7
176
     1
 65
   257
176
     1
 75
     1
176
     1
175
     1
176
     1
 42
1.0
176
     1
 92
        8
176
     1
 66
   257
176
     1
 43
1.0
176
     1
 76
     1
176
     1
 77
     6
176
     1
 78
     2
176
     1
 67
     7
176
     1
 79
     3
176
     1
170
     0
176
     1
171
     0
176
     1
290
     0
176
     1
 93
       13
176
     1
 44
0.0
176
     1
173
     0
176
     1
  0
VISUALSTYLE
  5
42
102
{ACAD_REACTORS
330
2A
102
}
102
{ACAD_XDICTIONARY
360
369
102
}
330
2A
100
AcDbVisualStyle
  2
Shaded
 70
    27
177
     2
291
     0
 71
     2
176
     1
 72
     2
176
     1
 73
     1
176
     1
 90
        2
176
     1
 40
0.6
176
     1
 41
30.0
176
     1
 62
     5
 63
     7
421
 16777215
176
     1
 74
     0
176
     1
 91
        4
176
     1
 64
     7
176
     1
 65
   257
176
     1
 75
     1
176
     1
175
     1
176
     1
 42
1.0
176
     1
 92
        8
176
     1
 66
   257
176
     1
 43
1.0
176
     1
 76
     1
176
     1
 77
     6
176
     1
 78
     2
176
     1
 67
     8
425
  7895160
176
     1
 79
     3
176
     1
170
     0
176
     1
171
     0
176
     1
290
     0
176
     1
 93
        5
176
     1
 44
0.0
176
     1
173
     0
176
     1
  0
VISUALSTYLE
  5
41
102
{ACAD_REACTORS
330
2A
102
}
102
{ACAD_XDICTIONARY
360
367
102
}
330
2A
100
AcDbVisualStyle
  2
Shaded with edges
 70
    26
177
     2
291
     0
 71
     2
176
     1
 72
     2
176
     1
 73
     1
176
     1
 90
        2
176
     1
 40
0.6
176
     1
 41
30.0
176
     1
 62
     5
 63
     7
421
 16777215
176
     1
 74
     1
176
     1
 91
       10
176
     1
 64
     7
176
     1
 65
   257
176
     1
 75
     2
176
     1
175
     1
176
     1
 42
1.0
176
     1
 92
        8
176
     1
 66
   257
176
     1
 43
1.0
176
     1
 76
     1
176
     1
 77
     6
176
     1
 78
     2
176
     1
 67
     7
176
     1
 79
     3
176
     1
170
     0
176
     1
171
     0
176
     1
290
     0
176
     1
 93
        5
176
     1
 44
0.0
176
     1
173
     0
176
     1
  0
VISUALSTYLE
  5
3E
102
{ACAD_REACTORS
330
2A
102
}
102
{ACAD_XDICTIONARY
360
361
102
}
330
2A
100
AcDbVisualStyle
  2
Shades of Gray
 70
    23
177
     2
291
     0
 71
     2
176
     1
 72
     2
176
     1
 73
     3
176
     1
 90
        0
176
     1
 40
0.6
176
     1
 41
30.0
176
     1
 62
     5
 63
     7
421
 16777215
176
     1
 74
     2
176
     1
 91
        2
176
     1
 64
     7
176
     1
 65
     7
176
     1
 75
     1
176
     1
175
     1
176
     1
 42
40.0
176
     1
 92
        8
176
     1
 66
     7
176
     1
 43
1.0
176
     1
 76
     1
176
     1
 77
     6
176
     1
 78
     2
176
     1
 67
     7
176
     1
 79
     3
176
     1
170
     0
176
     1
171
     0
176
     1
290
     0
176
     1
 93
        1
176
     1
 44
0.0
176
     1
173
     0
176
     1
  0
VISUALSTYLE
  5
3F
102
{ACAD_REACTORS
330
2A
102
}
102
{ACAD_XDICTIONARY
360
363
102
}
330
2A
100
AcDbVisualStyle
  2
Sketchy
 70
    24
177
     2
291
     0
 71
     1
176
     1
 72
     2
176
     1
 73
     2
176
     1
 90
        0
176
     1
 40
0.6
176
     1
 41
30.0
176
     1
 62
     5
 63
     7
421
 16777215
176
     1
 74
     2
176
     1
 91
        2
176
     1
 64
     7
176
     1
 65
     7
176
     1
 75
     1
176
     1
175
     1
176
     1
 42
40.0
176
     1
 92
       11
176
     1
 66
     7
176
     1
 43
1.0
176
     1
 76
     1
176
     1
 77
     6
176
     1
 78
     2
176
     1
 67
     7
176
     1
 79
     6
176
     1
170
     0
176
     1
171
     0
176
     1
290
     0
176
     1
 93
        1
176
     1
 44
0.0
176
     1
173
     0
176
     1
  0
VISUALSTYLE
  5
37
102
{ACAD_REACTORS
330
2A
102
}
102
{ACAD_XDICTIONARY
360
353
102
}
330
2A
100
AcDbVisualStyle
  2
Thicken
 70
    13
177
     2
291
     1
 71
     2
176
     1
 72
     2
176
     1
 73
     0
176
     1
 90
        0
176
     1
 40
0.6
176
     1
 41
30.0
176
     1
 62
     5
 63
     7
421
 16777215
176
     1
 74
     1
176
     1
 91
        4
176
     1
 64
     7
176
     1
 65
   257
176
     1
 75
     1
176
     1
175
     1
176
     1
 42
1.0
176
     1
 92
       12
176
     1
 66
     7
176
     1
 43
1.0
176
     1
 76
     1
176
     1
 77
     6
176
     1
 78
     2
176
     1
 67
     7
176
     1
 79
     5
176
     1
170
     0
176
     1
171
     0
176
     1
290
     0
176
     1
 93
        1
176
     1
 44
0.0
176
     1
173
     0
176
     1
  0
VISUALSTYLE
  5
30
102
{ACAD_REACTORS
330
2A
102
}
102
{ACAD_XDICTIONARY
360
345
102
}
330
2A
100
AcDbVisualStyle
  2
Wireframe
 70
     5
177
     2
291
     0
 71
     0
176
     1
 72
     2
176
     1
 73
     0
176
     1
 90
        0
176
     1
 40
0.6
176
     1
 41
30.0
176
     1
 62
     5
 63
     7
421
 16777215
176
     1
 74
     1
176
     1
 91
        4
176
     1
 64
     7
176
     1
 65
   257
176
     1
 75
     1
176
     1
175
     1
176
     1
 42
1.0
176
     1
 92
        0
176
     1
 66
   257
176
     1
 43
1.0
176
     1
 76
     1
176
     1
 77
     6
176
     1
 78
     2
176
     1
 67
     7
176
     1
 79
     3
176
     1
170
     0
176
     1
171
     0
176
     1
290
     0
176
     1
 93
        1
176
     1
 44
0.0
176
     1
173
     0
176
     1
  0
VISUALSTYLE
  5
40
102
{ACAD_REACTORS
330
2A
102
}
102
{ACAD_XDICTIONARY
360
365
102
}
330
2A
100
AcDbVisualStyle
  2
X-Ray
 70
    25
177
     2
291
     0
 71
     2
176
     1
 72
     2
176
     1
 73
     1
176
     1
 90
        1
176
     1
 40
0.5
176
     1
 41
30.0
176
     1
 62
     5
 63
     7
421
 16777215
176
     1
 74
     1
176
     1
 91
        0
176
     1
 64
     7
176
     1
 65
   257
176
     1
 75
     1
176
     1
175
     1
176
     1
 42
1.0
176
     1
 92
        8
176
     1
 66
     7
176
     1
 43
1.0
176
     1
 76
     1
176
     1
 77
     6
176
     1
 78
     2
176
     1
 67
     7
176
     1
 79
     3
176
     1
170
     0
176
     1
171
     0
176
     1
290
     0
176
     1
 93
       13
176
     1
 44
0.0
176
     1
173
     0
176
     1
  0
DICTIONARYVAR
  5
33A
102
{ACAD_REACTORS
330
339
102
}
330
339
100
DictionaryVariables
280
     0
  1
1:1
  0
DICTIONARYVAR
  5
36F
102
{ACAD_REACTORS
330
339
102
}
330
339
100
DictionaryVariables
280
     0
  1
Standard
  0
DICTIONARYVAR
  5
36E
102
{ACAD_REACTORS
330
339
102
}
330
339
100
DictionaryVariables
280
     0
  1
Standard
  0
DICTIONARY
  5
36B
330
6A
100
AcDbDictionary
280
     1
281
     1
  3
ACAD_ROUNDTRIP_2008_TABLESTYLE_CELLSTYLEMAP
360
36C
  0
DICTIONARY
  5
343
330
2F
100
AcDbDictionary
280
     1
281
     1
  3
ACAD_XREC_ROUNDTRIP
360
344
  0
DICTIONARY
  5
349
330
32
100
AcDbDictionary
280
     1
281
     1
  3
ACAD_XREC_ROUNDTRIP
360
34A
  0
DICTIONARY
  5
351
330
36
100
AcDbDictionary
280
     1
281
     1
  3
ACAD_XREC_ROUNDTRIP
360
352
  0
DICTIONARY
  5
359
330
3A
100
AcDbDictionary
280
     1
281
     1
  3
ACAD_XREC_ROUNDTRIP
360
35A
  0
DICTIONARY
  5
34D
330
34
100
AcDbDictionary
280
     1
281
     1
  3
ACAD_XREC_ROUNDTRIP
360
34E
  0
DICTIONARY
  5
34F
330
35
100
AcDbDictionary
280
     1
281
     1
  3
ACAD_XREC_ROUNDTRIP
360
350
  0
DICTIONARY
  5
35F
330
3D
100
AcDbDictionary
280
     1
281
     1
  3
ACAD_XREC_ROUNDTRIP
360
360
  0
DICTIONARY
  5
357
330
39
100
AcDbDictionary
280
     1
281
     1
  3
ACAD_XREC_ROUNDTRIP
360
358
  0
DICTIONARY
  5
33B
330
2B
100
AcDbDictionary
280
     1
281
     1
  3
ACAD_XREC_ROUNDTRIP
360
33C
  0
DICTIONARY
  5
33D
330
2C
100
AcDbDictionary
280
     1
281
     1
  3
ACAD_XREC_ROUNDTRIP
360
33E
  0
DICTIONARY
  5
33F
330
2D
100
AcDbDictionary
280
     1
281
     1
  3
ACAD_XREC_ROUNDTRIP
360
340
  0
DICTIONARY
  5
341
330
2E
100
AcDbDictionary
280
     1
281
     1
  3
ACAD_XREC_ROUNDTRIP
360
342
  0
DICTIONARY
  5
347
330
31
100
AcDbDictionary
280
     1
281
     1
  3
ACAD_XREC_ROUNDTRIP
360
348
  0
DICTIONARY
  5
35B
330
3B
100
AcDbDictionary
280
     1
281
     1
  3
ACAD_XREC_ROUNDTRIP
360
35C
  0
DICTIONARY
  5
355
330
38
100
AcDbDictionary
280
     1
281
     1
  3
ACAD_XREC_ROUNDTRIP
360
356
  0
DICTIONARY
  5
35D
330
3C
100
AcDbDictionary
280
     1
281
     1
  3
ACAD_XREC_ROUNDTRIP
360
35E
  0
DICTIONARY
  5
34B
330
33
100
AcDbDictionary
280
     1
281
     1
  3
ACAD_XREC_ROUNDTRIP
360
34C
  0
DICTIONARY
  5
369
330
42
100
AcDbDictionary
280
     1
281
     1
  3
ACAD_XREC_ROUNDTRIP
360
36A
  0
DICTIONARY
  5
367
330
41
100
AcDbDictionary
280
     1
281
     1
  3
ACAD_XREC_ROUNDTRIP
360
368
  0
DICTIONARY
  5
361
330
3E
100
AcDbDictionary
280
     1
281
     1
  3
ACAD_XREC_ROUNDTRIP
360
362
  0
DICTIONARY
  5
363
330
3F
100
AcDbDictionary
280
     1
281
     1
  3
ACAD_XREC_ROUNDTRIP
360
364
  0
DICTIONARY
  5
353
330
37
100
AcDbDictionary
280
     1
281
     1
  3
ACAD_XREC_ROUNDTRIP
360
354
  0
DICTIONARY
  5
345
330
30
100
AcDbDictionary
280
     1
281
     1
  3
ACAD_XREC_ROUNDTRIP
360
346
  0
DICTIONARY
  5
365
330
40
100
AcDbDictionary
280
     1
281
     1
  3
ACAD_XREC_ROUNDTRIP
360
366
  0
CELLSTYLEMAP
  5
36C
102
{ACAD_REACTORS
330
36B
102
}
330
36B
100
AcDbCellStyleMap
 90
        3
300
CELLSTYLE
  1
TABLEFORMAT_BEGIN
 90
        5
170
     1
 91
        0
 92
    32768
 62
   257
 93
        1
300
CONTENTFORMAT
  1
CONTENTFORMAT_BEGIN
 90
        0
 91
        0
 92
        4
 93
        0
300

 40
0.0
140
1.0
 94
        5
 62
     0
340
11
144
6.0
309
CONTENTFORMAT_END
171
     1
301
MARGIN
  1
CELLMARGIN_BEGIN
 40
1.5
 40
1.5
 40
1.5
 40
1.5
 40
1.5
 40
1.5
309
CELLMARGIN_END
 94
        6
 95
        1
302
GRIDFORMAT
  1
GRIDFORMAT_BEGIN
 90
        0
 91
        1
 62
     0
 92
       -2
340
14
 93
        0
 40
0.045
309
GRIDFORMAT_END
 95
        2
302
GRIDFORMAT
  1
GRIDFORMAT_BEGIN
 90
        0
 91
        1
 62
     0
 92
       -2
340
14
 93
        0
 40
0.045
309
GRIDFORMAT_END
 95
        4
302
GRIDFORMAT
  1
GRIDFORMAT_BEGIN
 90
        0
 91
        1
 62
     0
 92
       -2
340
14
 93
        0
 40
0.045
309
GRIDFORMAT_END
 95
        8
302
GRIDFORMAT
  1
GRIDFORMAT_BEGIN
 90
        0
 91
        1
 62
     0
 92
       -2
340
14
 93
        0
 40
0.045
309
GRIDFORMAT_END
 95
       16
302
GRIDFORMAT
  1
GRIDFORMAT_BEGIN
 90
        0
 91
        1
 62
     0
 92
       -2
340
14
 93
        0
 40
0.045
309
GRIDFORMAT_END
 95
       32
302
GRIDFORMAT
  1
GRIDFORMAT_BEGIN
 90
        0
 91
        1
 62
     0
 92
       -2
340
14
 93
        0
 40
0.045
309
GRIDFORMAT_END
309
TABLEFORMAT_END
  1
CELLSTYLE_BEGIN
 90
        1
 91
        1
300
_TITLE
309
CELLSTYLE_END
300
CELLSTYLE
  1
TABLEFORMAT_BEGIN
 90
        5
170
     1
 91
        0
 92
        0
 62
   257
 93
        1
300
CONTENTFORMAT
  1
CONTENTFORMAT_BEGIN
 90
        0
 91
        0
 92
        4
 93
        0
300

 40
0.0
140
1.0
 94
        5
 62
     0
340
11
144
4.5
309
CONTENTFORMAT_END
171
     1
301
MARGIN
  1
CELLMARGIN_BEGIN
 40
1.5
 40
1.5
 40
1.5
 40
1.5
 40
1.5
 40
1.5
309
CELLMARGIN_END
 94
        6
 95
        1
302
GRIDFORMAT
  1
GRIDFORMAT_BEGIN
 90
        0
 91
        1
 62
     0
 92
       -2
340
14
 93
        0
 40
0.045
309
GRIDFORMAT_END
 95
        2
302
GRIDFORMAT
  1
GRIDFORMAT_BEGIN
 90
        0
 91
        1
 62
     0
 92
       -2
340
14
 93
        0
 40
0.045
309
GRIDFORMAT_END
 95
        4
302
GRIDFORMAT
  1
GRIDFORMAT_BEGIN
 90
        0
 91
        1
 62
     0
 92
       -2
340
14
 93
        0
 40
0.045
309
GRIDFORMAT_END
 95
        8
302
GRIDFORMAT
  1
GRIDFORMAT_BEGIN
 90
        0
 91
        1
 62
     0
 92
       -2
340
14
 93
        0
 40
0.045
309
GRIDFORMAT_END
 95
       16
302
GRIDFORMAT
  1
GRIDFORMAT_BEGIN
 90
        0
 91
        1
 62
     0
 92
       -2
340
14
 93
        0
 40
0.045
309
GRIDFORMAT_END
 95
       32
302
GRIDFORMAT
  1
GRIDFORMAT_BEGIN
 90
        0
 91
        1
 62
     0
 92
       -2
340
14
 93
        0
 40
0.045
309
GRIDFORMAT_END
309
TABLEFORMAT_END
  1
CELLSTYLE_BEGIN
 90
        2
 91
        1
300
_HEADER
309
CELLSTYLE_END
300
CELLSTYLE
  1
TABLEFORMAT_BEGIN
 90
        5
170
     1
 91
        0
 92
        0
 62
   257
 93
        1
300
CONTENTFORMAT
  1
CONTENTFORMAT_BEGIN
 90
        0
 91
        0
 92
        4
 93
        0
300

 40
0.0
140
1.0
 94
        2
 62
     0
340
11
144
4.5
309
CONTENTFORMAT_END
171
     1
301
MARGIN
  1
CELLMARGIN_BEGIN
 40
1.5
 40
1.5
 40
1.5
 40
1.5
 40
1.5
 40
1.5
309
CELLMARGIN_END
 94
        6
 95
        1
302
GRIDFORMAT
  1
GRIDFORMAT_BEGIN
 90
        0
 91
        1
 62
     0
 92
       -2
340
14
 93
        0
 40
0.045
309
GRIDFORMAT_END
 95
        2
302
GRIDFORMAT
  1
GRIDFORMAT_BEGIN
 90
        0
 91
        1
 62
     0
 92
       -2
340
14
 93
        0
 40
0.045
309
GRIDFORMAT_END
 95
        4
302
GRIDFORMAT
  1
GRIDFORMAT_BEGIN
 90
        0
 91
        1
 62
     0
 92
       -2
340
14
 93
        0
 40
0.045
309
GRIDFORMAT_END
 95
        8
302
GRIDFORMAT
  1
GRIDFORMAT_BEGIN
 90
        0
 91
        1
 62
     0
 92
       -2
340
14
 93
        0
 40
0.045
309
GRIDFORMAT_END
 95
       16
302
GRIDFORMAT
  1
GRIDFORMAT_BEGIN
 90
        0
 91
        1
 62
     0
 92
       -2
340
14
 93
        0
 40
0.045
309
GRIDFORMAT_END
 95
       32
302
GRIDFORMAT
  1
GRIDFORMAT_BEGIN
 90
        0
 91
        1
 62
     0
 92
       -2
340
14
 93
        0
 40
0.045
309
GRIDFORMAT_END
309
TABLEFORMAT_END
  1
CELLSTYLE_BEGIN
 90
        3
 91
        2
300
_DATA
309
CELLSTYLE_END
  0
XRECORD
  5
344
102
{ACAD_REACTORS
330
343
102
}
330
343
100
AcDbXrecord
280
     1
102
RTVSPost2010Prop28
280
     1
102
RTVSPost2010PropOp28
 70
     1
102
RTVSPost2010Prop29
280
     1
102
RTVSPost2010PropOp29
 70
     1
102
RTVSPost2010Prop30
280
     0
102
RTVSPost2010PropOp30
 70
     1
102
RTVSPost2010Prop31
280
     0
102
RTVSPost2010PropOp31
 70
     1
102
RTVSPost2010Prop32
280
     0
102
RTVSPost2010PropOp32
 70
     1
102
RTVSPost2010Prop33
280
     0
102
RTVSPost2010PropOp33
 70
     1
102
RTVSPost2010Prop34
280
     0
102
RTVSPost2010PropOp34
 70
     1
102
RTVSPost2010Prop35
280
     0
102
RTVSPost2010PropOp35
 70
     1
102
RTVSPost2010Prop36
280
     0
102
RTVSPost2010PropOp36
 70
     1
102
RTVSPost2010Prop37
 90
       50
102
RTVSPost2010PropOp37
 70
     1
102
RTVSPost2010Prop38
140
0.0
102
RTVSPost2010PropOp38
 70
     1
102
RTVSPost2010Prop39
140
1.0
102
RTVSPost2010PropOp39
 70
     1
102
RTVSPost2010Prop40
 90
        0
102
RTVSPost2010PropOp40
 70
     1
102
RTVSPost2010Prop41ColorIndex
 90
       18
102
RTVSPost2010Prop41ColorRGB
 90
        0
102
RTVSPost2010PropOp41
 70
     1
102
RTVSPost2010Prop42
 90
       50
102
RTVSPost2010PropOp42
 70
     1
102
RTVSPost2010Prop43
 90
        3
102
RTVSPost2010PropOp43
 70
     1
102
RTVSPost2010Prop44ColorIndex
 90
        5
102
RTVSPost2010Prop44ColorRGB
 90
      255
102
RTVSPost2010PropOp44
 70
     1
102
RTVSPost2010Prop45
280
     0
102
RTVSPost2010PropOp45
 70
     1
102
RTVSPost2010Prop46
 90
       50
102
RTVSPost2010PropOp46
 70
     1
102
RTVSPost2010Prop47
 90
       50
102
RTVSPost2010PropOp47
 70
     1
102
RTVSPost2010Prop48
 90
       50
102
RTVSPost2010PropOp48
 70
     1
102
RTVSPost2010Prop49
280
     0
102
RTVSPost2010PropOp49
 70
     1
102
RTVSPost2010Prop50
 90
       50
102
RTVSPost2010PropOp50
 70
     1
102
RTVSPost2010Prop51ColorIndex
 90
      256
102
RTVSPost2010Prop51ColorRGB
 90
-16777216
102
RTVSPost2010PropOp51
 70
     0
102
RTVSPost2010Prop52
140
1.0
102
RTVSPost2010PropOp52
 70
     0
102
RTVSPost2010Prop53
 90
        2
102
RTVSPost2010PropOp53
 70
     1
102
RTVSPost2010Prop54
  1
strokes_ogs.tif
102
RTVSPost2010PropOp54
 70
     1
102
RTVSPost2010Prop55
280
     0
102
RTVSPost2010PropOp55
 70
     1
102
RTVSPost2010Prop56
140
1.0
102
RTVSPost2010PropOp56
 70
     1
102
RTVSPost2010Prop57
140
1.0
102
RTVSPost2010PropOp57
 70
     1
  0
XRECORD
  5
34A
102
{ACAD_REACTORS
330
349
102
}
330
349
100
AcDbXrecord
280
     1
102
RTVSPost2010Prop28
280
     0
102
RTVSPost2010PropOp28
 70
     1
102
RTVSPost2010Prop29
280
     1
102
RTVSPost2010PropOp29
 70
     1
102
RTVSPost2010Prop30
280
     1
102
RTVSPost2010PropOp30
 70
     1
102
RTVSPost2010Prop31
280
     0
102
RTVSPost2010PropOp31
 70
     1
102
RTVSPost2010Prop32
280
     0
102
RTVSPost2010PropOp32
 70
     1
102
RTVSPost2010Prop33
280
     0
102
RTVSPost2010PropOp33
 70
     1
102
RTVSPost2010Prop34
280
     0
102
RTVSPost2010PropOp34
 70
     1
102
RTVSPost2010Prop35
280
     0
102
RTVSPost2010PropOp35
 70
     1
102
RTVSPost2010Prop36
280
     0
102
RTVSPost2010PropOp36
 70
     1
102
RTVSPost2010Prop37
 90
       50
102
RTVSPost2010PropOp37
 70
     1
102
RTVSPost2010Prop38
140
0.0
102
RTVSPost2010PropOp38
 70
     1
102
RTVSPost2010Prop39
140
1.0
102
RTVSPost2010PropOp39
 70
     1
102
RTVSPost2010Prop40
 90
        0
102
RTVSPost2010PropOp40
 70
     1
102
RTVSPost2010Prop41ColorIndex
 90
       18
102
RTVSPost2010Prop41ColorRGB
 90
        0
102
RTVSPost2010PropOp41
 70
     1
102
RTVSPost2010Prop42
 90
       50
102
RTVSPost2010PropOp42
 70
     1
102
RTVSPost2010Prop43
 90
        3
102
RTVSPost2010PropOp43
 70
     1
102
RTVSPost2010Prop44ColorIndex
 90
        5
102
RTVSPost2010Prop44ColorRGB
 90
      255
102
RTVSPost2010PropOp44
 70
     1
102
RTVSPost2010Prop45
280
     0
102
RTVSPost2010PropOp45
 70
     1
102
RTVSPost2010Prop46
 90
       50
102
RTVSPost2010PropOp46
 70
     1
102
RTVSPost2010Prop47
 90
       50
102
RTVSPost2010PropOp47
 70
     1
102
RTVSPost2010Prop48
 90
       50
102
RTVSPost2010PropOp48
 70
     1
102
RTVSPost2010Prop49
280
     0
102
RTVSPost2010PropOp49
 70
     1
102
RTVSPost2010Prop50
 90
       50
102
RTVSPost2010PropOp50
 70
     1
102
RTVSPost2010Prop51ColorIndex
 90
      256
102
RTVSPost2010Prop51ColorRGB
 90
-16777216
102
RTVSPost2010PropOp51
 70
     0
102
RTVSPost2010Prop52
140
1.0
102
RTVSPost2010PropOp52
 70
     0
102
RTVSPost2010Prop53
 90
        2
102
RTVSPost2010PropOp53
 70
     1
102
RTVSPost2010Prop54
  1
strokes_ogs.tif
102
RTVSPost2010PropOp54
 70
     1
102
RTVSPost2010Prop55
280
     0
102
RTVSPost2010PropOp55
 70
     1
102
RTVSPost2010Prop56
140
1.0
102
RTVSPost2010PropOp56
 70
     1
102
RTVSPost2010Prop57
140
1.0
102
RTVSPost2010PropOp57
 70
     1
  0
XRECORD
  5
352
102
{ACAD_REACTORS
330
351
102
}
330
351
100
AcDbXrecord
280
     1
102
RTVSPost2010Prop28
280
     0
102
RTVSPost2010PropOp28
 70
     1
102
RTVSPost2010Prop29
280
     1
102
RTVSPost2010PropOp29
 70
     1
102
RTVSPost2010Prop30
280
     1
102
RTVSPost2010PropOp30
 70
     1
102
RTVSPost2010Prop31
280
     0
102
RTVSPost2010PropOp31
 70
     1
102
RTVSPost2010Prop32
280
     0
102
RTVSPost2010PropOp32
 70
     1
102
RTVSPost2010Prop33
280
     0
102
RTVSPost2010PropOp33
 70
     1
102
RTVSPost2010Prop34
280
     0
102
RTVSPost2010PropOp34
 70
     1
102
RTVSPost2010Prop35
280
     0
102
RTVSPost2010PropOp35
 70
     1
102
RTVSPost2010Prop36
280
     0
102
RTVSPost2010PropOp36
 70
     1
102
RTVSPost2010Prop37
 90
       50
102
RTVSPost2010PropOp37
 70
     1
102
RTVSPost2010Prop38
140
0.0
102
RTVSPost2010PropOp38
 70
     1
102
RTVSPost2010Prop39
140
1.0
102
RTVSPost2010PropOp39
 70
     1
102
RTVSPost2010Prop40
 90
        0
102
RTVSPost2010PropOp40
 70
     1
102
RTVSPost2010Prop41ColorIndex
 90
       18
102
RTVSPost2010Prop41ColorRGB
 90
        0
102
RTVSPost2010PropOp41
 70
     1
102
RTVSPost2010Prop42
 90
       50
102
RTVSPost2010PropOp42
 70
     1
102
RTVSPost2010Prop43
 90
        3
102
RTVSPost2010PropOp43
 70
     1
102
RTVSPost2010Prop44ColorIndex
 90
        5
102
RTVSPost2010Prop44ColorRGB
 90
      255
102
RTVSPost2010PropOp44
 70
     1
102
RTVSPost2010Prop45
280
     0
102
RTVSPost2010PropOp45
 70
     1
102
RTVSPost2010Prop46
 90
       50
102
RTVSPost2010PropOp46
 70
     1
102
RTVSPost2010Prop47
 90
       50
102
RTVSPost2010PropOp47
 70
     1
102
RTVSPost2010Prop48
 90
       50
102
RTVSPost2010PropOp48
 70
     1
102
RTVSPost2010Prop49
280
     0
102
RTVSPost2010PropOp49
 70
     1
102
RTVSPost2010Prop50
 90
       50
102
RTVSPost2010PropOp50
 70
     1
102
RTVSPost2010Prop51ColorIndex
 90
      256
102
RTVSPost2010Prop51ColorRGB
 90
-16777216
102
RTVSPost2010PropOp51
 70
     0
102
RTVSPost2010Prop52
140
1.0
102
RTVSPost2010PropOp52
 70
     0
102
RTVSPost2010Prop53
 90
        2
102
RTVSPost2010PropOp53
 70
     1
102
RTVSPost2010Prop54
  1
strokes_ogs.tif
102
RTVSPost2010PropOp54
 70
     1
102
RTVSPost2010Prop55
280
     0
102
RTVSPost2010PropOp55
 70
     1
102
RTVSPost2010Prop56
140
1.0
102
RTVSPost2010PropOp56
 70
     1
102
RTVSPost2010Prop57
140
1.0
102
RTVSPost2010PropOp57
 70
     1
  0
XRECORD
  5
35A
102
{ACAD_REACTORS
330
359
102
}
330
359
100
AcDbXrecord
280
     1
102
RTVSPost2010Prop28
280
     0
102
RTVSPost2010PropOp28
 70
     1
102
RTVSPost2010Prop29
280
     1
102
RTVSPost2010PropOp29
 70
     1
102
RTVSPost2010Prop30
280
     1
102
RTVSPost2010PropOp30
 70
     1
102
RTVSPost2010Prop31
280
     0
102
RTVSPost2010PropOp31
 70
     1
102
RTVSPost2010Prop32
280
     0
102
RTVSPost2010PropOp32
 70
     1
102
RTVSPost2010Prop33
280
     0
102
RTVSPost2010PropOp33
 70
     1
102
RTVSPost2010Prop34
280
     0
102
RTVSPost2010PropOp34
 70
     1
102
RTVSPost2010Prop35
280
     0
102
RTVSPost2010PropOp35
 70
     1
102
RTVSPost2010Prop36
280
     0
102
RTVSPost2010PropOp36
 70
     1
102
RTVSPost2010Prop37
 90
       50
102
RTVSPost2010PropOp37
 70
     1
102
RTVSPost2010Prop38
140
0.0
102
RTVSPost2010PropOp38
 70
     1
102
RTVSPost2010Prop39
140
1.0
102
RTVSPost2010PropOp39
 70
     1
102
RTVSPost2010Prop40
 90
        0
102
RTVSPost2010PropOp40
 70
     1
102
RTVSPost2010Prop41ColorIndex
 90
       18
102
RTVSPost2010Prop41ColorRGB
 90
        0
102
RTVSPost2010PropOp41
 70
     1
102
RTVSPost2010Prop42
 90
       50
102
RTVSPost2010PropOp42
 70
     1
102
RTVSPost2010Prop43
 90
        3
102
RTVSPost2010PropOp43
 70
     1
102
RTVSPost2010Prop44ColorIndex
 90
        5
102
RTVSPost2010Prop44ColorRGB
 90
      255
102
RTVSPost2010PropOp44
 70
     1
102
RTVSPost2010Prop45
280
     0
102
RTVSPost2010PropOp45
 70
     1
102
RTVSPost2010Prop46
 90
       50
102
RTVSPost2010PropOp46
 70
     1
102
RTVSPost2010Prop47
 90
       50
102
RTVSPost2010PropOp47
 70
     1
102
RTVSPost2010Prop48
 90
       50
102
RTVSPost2010PropOp48
 70
     1
102
RTVSPost2010Prop49
280
     0
102
RTVSPost2010PropOp49
 70
     1
102
RTVSPost2010Prop50
 90
       50
102
RTVSPost2010PropOp50
 70
     1
102
RTVSPost2010Prop51ColorIndex
 90
      256
102
RTVSPost2010Prop51ColorRGB
 90
-16777216
102
RTVSPost2010PropOp51
 70
     0
102
RTVSPost2010Prop52
140
1.0
102
RTVSPost2010PropOp52
 70
     0
102
RTVSPost2010Prop53
 90
        2
102
RTVSPost2010PropOp53
 70
     1
102
RTVSPost2010Prop54
  1
strokes_ogs.tif
102
RTVSPost2010PropOp54
 70
     1
102
RTVSPost2010Prop55
280
     0
102
RTVSPost2010PropOp55
 70
     1
102
RTVSPost2010Prop56
140
1.0
102
RTVSPost2010PropOp56
 70
     1
102
RTVSPost2010Prop57
140
1.0
102
RTVSPost2010PropOp57
 70
     1
  0
XRECORD
  5
34E
102
{ACAD_REACTORS
330
34D
102
}
330
34D
100
AcDbXrecord
280
     1
102
RTVSPost2010Prop28
280
     0
102
RTVSPost2010PropOp28
 70
     1
102
RTVSPost2010Prop29
280
     1
102
RTVSPost2010PropOp29
 70
     1
102
RTVSPost2010Prop30
280
     1
102
RTVSPost2010PropOp30
 70
     1
102
RTVSPost2010Prop31
280
     0
102
RTVSPost2010PropOp31
 70
     1
102
RTVSPost2010Prop32
280
     0
102
RTVSPost2010PropOp32
 70
     1
102
RTVSPost2010Prop33
280
     0
102
RTVSPost2010PropOp33
 70
     1
102
RTVSPost2010Prop34
280
     0
102
RTVSPost2010PropOp34
 70
     1
102
RTVSPost2010Prop35
280
     0
102
RTVSPost2010PropOp35
 70
     1
102
RTVSPost2010Prop36
280
     0
102
RTVSPost2010PropOp36
 70
     1
102
RTVSPost2010Prop37
 90
       50
102
RTVSPost2010PropOp37
 70
     1
102
RTVSPost2010Prop38
140
0.0
102
RTVSPost2010PropOp38
 70
     1
102
RTVSPost2010Prop39
140
1.0
102
RTVSPost2010PropOp39
 70
     1
102
RTVSPost2010Prop40
 90
        0
102
RTVSPost2010PropOp40
 70
     1
102
RTVSPost2010Prop41ColorIndex
 90
       18
102
RTVSPost2010Prop41ColorRGB
 90
        0
102
RTVSPost2010PropOp41
 70
     1
102
RTVSPost2010Prop42
 90
       50
102
RTVSPost2010PropOp42
 70
     1
102
RTVSPost2010Prop43
 90
        3
102
RTVSPost2010PropOp43
 70
     1
102
RTVSPost2010Prop44ColorIndex
 90
        5
102
RTVSPost2010Prop44ColorRGB
 90
      255
102
RTVSPost2010PropOp44
 70
     1
102
RTVSPost2010Prop45
280
     0
102
RTVSPost2010PropOp45
 70
     1
102
RTVSPost2010Prop46
 90
       50
102
RTVSPost2010PropOp46
 70
     1
102
RTVSPost2010Prop47
 90
       50
102
RTVSPost2010PropOp47
 70
     1
102
RTVSPost2010Prop48
 90
       50
102
RTVSPost2010PropOp48
 70
     1
102
RTVSPost2010Prop49
280
     0
102
RTVSPost2010PropOp49
 70
     1
102
RTVSPost2010Prop50
 90
       50
102
RTVSPost2010PropOp50
 70
     1
102
RTVSPost2010Prop51ColorIndex
 90
      256
102
RTVSPost2010Prop51ColorRGB
 90
-16777216
102
RTVSPost2010PropOp51
 70
     0
102
RTVSPost2010Prop52
140
1.0
102
RTVSPost2010PropOp52
 70
     0
102
RTVSPost2010Prop53
 90
        2
102
RTVSPost2010PropOp53
 70
     1
102
RTVSPost2010Prop54
  1
strokes_ogs.tif
102
RTVSPost2010PropOp54
 70
     1
102
RTVSPost2010Prop55
280
     0
102
RTVSPost2010PropOp55
 70
     1
102
RTVSPost2010Prop56
140
1.0
102
RTVSPost2010PropOp56
 70
     1
102
RTVSPost2010Prop57
140
1.0
102
RTVSPost2010PropOp57
 70
     1
  0
XRECORD
  5
350
102
{ACAD_REACTORS
330
34F
102
}
330
34F
100
AcDbXrecord
280
     1
102
RTVSPost2010Prop28
280
     0
102
RTVSPost2010PropOp28
 70
     1
102
RTVSPost2010Prop29
280
     1
102
RTVSPost2010PropOp29
 70
     1
102
RTVSPost2010Prop30
280
     1
102
RTVSPost2010PropOp30
 70
     1
102
RTVSPost2010Prop31
280
     0
102
RTVSPost2010PropOp31
 70
     1
102
RTVSPost2010Prop32
280
     0
102
RTVSPost2010PropOp32
 70
     1
102
RTVSPost2010Prop33
280
     0
102
RTVSPost2010PropOp33
 70
     1
102
RTVSPost2010Prop34
280
     0
102
RTVSPost2010PropOp34
 70
     1
102
RTVSPost2010Prop35
280
     0
102
RTVSPost2010PropOp35
 70
     1
102
RTVSPost2010Prop36
280
     0
102
RTVSPost2010PropOp36
 70
     1
102
RTVSPost2010Prop37
 90
       50
102
RTVSPost2010PropOp37
 70
     1
102
RTVSPost2010Prop38
140
0.0
102
RTVSPost2010PropOp38
 70
     1
102
RTVSPost2010Prop39
140
1.0
102
RTVSPost2010PropOp39
 70
     1
102
RTVSPost2010Prop40
 90
        0
102
RTVSPost2010PropOp40
 70
     1
102
RTVSPost2010Prop41ColorIndex
 90
       18
102
RTVSPost2010Prop41ColorRGB
 90
        0
102
RTVSPost2010PropOp41
 70
     1
102
RTVSPost2010Prop42
 90
       50
102
RTVSPost2010PropOp42
 70
     1
102
RTVSPost2010Prop43
 90
        3
102
RTVSPost2010PropOp43
 70
     1
102
RTVSPost2010Prop44ColorIndex
 90
        5
102
RTVSPost2010Prop44ColorRGB
 90
      255
102
RTVSPost2010PropOp44
 70
     1
102
RTVSPost2010Prop45
280
     0
102
RTVSPost2010PropOp45
 70
     1
102
RTVSPost2010Prop46
 90
       50
102
RTVSPost2010PropOp46
 70
     1
102
RTVSPost2010Prop47
 90
       50
102
RTVSPost2010PropOp47
 70
     1
102
RTVSPost2010Prop48
 90
       50
102
RTVSPost2010PropOp48
 70
     1
102
RTVSPost2010Prop49
280
     0
102
RTVSPost2010PropOp49
 70
     1
102
RTVSPost2010Prop50
 90
       50
102
RTVSPost2010PropOp50
 70
     1
102
RTVSPost2010Prop51ColorIndex
 90
      256
102
RTVSPost2010Prop51ColorRGB
 90
-16777216
102
RTVSPost2010PropOp51
 70
     0
102
RTVSPost2010Prop52
140
1.0
102
RTVSPost2010PropOp52
 70
     0
102
RTVSPost2010Prop53
 90
        2
102
RTVSPost2010PropOp53
 70
     1
102
RTVSPost2010Prop54
  1
strokes_ogs.tif
102
RTVSPost2010PropOp54
 70
     1
102
RTVSPost2010Prop55
280
     0
102
RTVSPost2010PropOp55
 70
     1
102
RTVSPost2010Prop56
140
1.0
102
RTVSPost2010PropOp56
 70
     1
102
RTVSPost2010Prop57
140
1.0
102
RTVSPost2010PropOp57
 70
     1
  0
XRECORD
  5
360
102
{ACAD_REACTORS
330
35F
102
}
330
35F
100
AcDbXrecord
280
     1
102
RTVSPost2010Prop28
280
     0
102
RTVSPost2010PropOp28
 70
     0
102
RTVSPost2010Prop29
280
     1
102
RTVSPost2010PropOp29
 70
     0
102
RTVSPost2010Prop30
280
     1
102
RTVSPost2010PropOp30
 70
     0
102
RTVSPost2010Prop31
280
     0
102
RTVSPost2010PropOp31
 70
     0
102
RTVSPost2010Prop32
280
     0
102
RTVSPost2010PropOp32
 70
     0
102
RTVSPost2010Prop33
280
     0
102
RTVSPost2010PropOp33
 70
     0
102
RTVSPost2010Prop34
280
     0
102
RTVSPost2010PropOp34
 70
     0
102
RTVSPost2010Prop35
280
     0
102
RTVSPost2010PropOp35
 70
     0
102
RTVSPost2010Prop36
280
     0
102
RTVSPost2010PropOp36
 70
     0
102
RTVSPost2010Prop37
 90
       50
102
RTVSPost2010PropOp37
 70
     0
102
RTVSPost2010Prop38
140
0.0
102
RTVSPost2010PropOp38
 70
     0
102
RTVSPost2010Prop39
140
1.0
102
RTVSPost2010PropOp39
 70
     0
102
RTVSPost2010Prop40
 90
        0
102
RTVSPost2010PropOp40
 70
     0
102
RTVSPost2010Prop41ColorIndex
 90
       18
102
RTVSPost2010Prop41ColorRGB
 90
        0
102
RTVSPost2010PropOp41
 70
     0
102
RTVSPost2010Prop42
 90
       50
102
RTVSPost2010PropOp42
 70
     0
102
RTVSPost2010Prop43
 90
        3
102
RTVSPost2010PropOp43
 70
     0
102
RTVSPost2010Prop44ColorIndex
 90
        5
102
RTVSPost2010Prop44ColorRGB
 90
      255
102
RTVSPost2010PropOp44
 70
     0
102
RTVSPost2010Prop45
280
     0
102
RTVSPost2010PropOp45
 70
     0
102
RTVSPost2010Prop46
 90
       50
102
RTVSPost2010PropOp46
 70
     0
102
RTVSPost2010Prop47
 90
       50
102
RTVSPost2010PropOp47
 70
     0
102
RTVSPost2010Prop48
 90
       50
102
RTVSPost2010PropOp48
 70
     0
102
RTVSPost2010Prop49
280
     0
102
RTVSPost2010PropOp49
 70
     0
102
RTVSPost2010Prop50
 90
       50
102
RTVSPost2010PropOp50
 70
     0
102
RTVSPost2010Prop51ColorIndex
 90
      256
102
RTVSPost2010Prop51ColorRGB
 90
-16777216
102
RTVSPost2010PropOp51
 70
     0
102
RTVSPost2010Prop52
140
1.0
102
RTVSPost2010PropOp52
 70
     0
102
RTVSPost2010Prop53
 90
        2
102
RTVSPost2010PropOp53
 70
     0
102
RTVSPost2010Prop54
  1
strokes_ogs.tif
102
RTVSPost2010PropOp54
 70
     0
102
RTVSPost2010Prop55
280
     0
102
RTVSPost2010PropOp55
 70
     0
102
RTVSPost2010Prop56
140
1.0
102
RTVSPost2010PropOp56
 70
     0
102
RTVSPost2010Prop57
140
1.0
102
RTVSPost2010PropOp57
 70
     0
  0
XRECORD
  5
358
102
{ACAD_REACTORS
330
357
102
}
330
357
100
AcDbXrecord
280
     1
102
RTVSPost2010Prop28
280
     0
102
RTVSPost2010PropOp28
 70
     1
102
RTVSPost2010Prop29
280
     1
102
RTVSPost2010PropOp29
 70
     1
102
RTVSPost2010Prop30
280
     1
102
RTVSPost2010PropOp30
 70
     1
102
RTVSPost2010Prop31
280
     0
102
RTVSPost2010PropOp31
 70
     1
102
RTVSPost2010Prop32
280
     0
102
RTVSPost2010PropOp32
 70
     1
102
RTVSPost2010Prop33
280
     0
102
RTVSPost2010PropOp33
 70
     1
102
RTVSPost2010Prop34
280
     0
102
RTVSPost2010PropOp34
 70
     1
102
RTVSPost2010Prop35
280
     0
102
RTVSPost2010PropOp35
 70
     1
102
RTVSPost2010Prop36
280
     0
102
RTVSPost2010PropOp36
 70
     1
102
RTVSPost2010Prop37
 90
       50
102
RTVSPost2010PropOp37
 70
     1
102
RTVSPost2010Prop38
140
0.0
102
RTVSPost2010PropOp38
 70
     1
102
RTVSPost2010Prop39
140
1.0
102
RTVSPost2010PropOp39
 70
     1
102
RTVSPost2010Prop40
 90
        0
102
RTVSPost2010PropOp40
 70
     1
102
RTVSPost2010Prop41ColorIndex
 90
       18
102
RTVSPost2010Prop41ColorRGB
 90
        0
102
RTVSPost2010PropOp41
 70
     1
102
RTVSPost2010Prop42
 90
       50
102
RTVSPost2010PropOp42
 70
     1
102
RTVSPost2010Prop43
 90
        3
102
RTVSPost2010PropOp43
 70
     1
102
RTVSPost2010Prop44ColorIndex
 90
        5
102
RTVSPost2010Prop44ColorRGB
 90
      255
102
RTVSPost2010PropOp44
 70
     1
102
RTVSPost2010Prop45
280
     0
102
RTVSPost2010PropOp45
 70
     1
102
RTVSPost2010Prop46
 90
       50
102
RTVSPost2010PropOp46
 70
     1
102
RTVSPost2010Prop47
 90
       50
102
RTVSPost2010PropOp47
 70
     1
102
RTVSPost2010Prop48
 90
       50
102
RTVSPost2010PropOp48
 70
     1
102
RTVSPost2010Prop49
280
     0
102
RTVSPost2010PropOp49
 70
     1
102
RTVSPost2010Prop50
 90
       50
102
RTVSPost2010PropOp50
 70
     1
102
RTVSPost2010Prop51ColorIndex
 90
      256
102
RTVSPost2010Prop51ColorRGB
 90
-16777216
102
RTVSPost2010PropOp51
 70
     0
102
RTVSPost2010Prop52
140
1.0
102
RTVSPost2010PropOp52
 70
     0
102
RTVSPost2010Prop53
 90
        2
102
RTVSPost2010PropOp53
 70
     1
102
RTVSPost2010Prop54
  1
strokes_ogs.tif
102
RTVSPost2010PropOp54
 70
     1
102
RTVSPost2010Prop55
280
     0
102
RTVSPost2010PropOp55
 70
     1
102
RTVSPost2010Prop56
140
1.0
102
RTVSPost2010PropOp56
 70
     1
102
RTVSPost2010Prop57
140
1.0
102
RTVSPost2010PropOp57
 70
     1
  0
XRECORD
  5
33C
102
{ACAD_REACTORS
330
33B
102
}
330
33B
100
AcDbXrecord
280
     1
102
RTVSPost2010Prop28
280
     0
102
RTVSPost2010PropOp28
 70
     1
102
RTVSPost2010Prop29
280
     1
102
RTVSPost2010PropOp29
 70
     1
102
RTVSPost2010Prop30
280
     1
102
RTVSPost2010PropOp30
 70
     1
102
RTVSPost2010Prop31
280
     0
102
RTVSPost2010PropOp31
 70
     1
102
RTVSPost2010Prop32
280
     0
102
RTVSPost2010PropOp32
 70
     1
102
RTVSPost2010Prop33
280
     0
102
RTVSPost2010PropOp33
 70
     1
102
RTVSPost2010Prop34
280
     0
102
RTVSPost2010PropOp34
 70
     1
102
RTVSPost2010Prop35
280
     0
102
RTVSPost2010PropOp35
 70
     1
102
RTVSPost2010Prop36
280
     0
102
RTVSPost2010PropOp36
 70
     1
102
RTVSPost2010Prop37
 90
       50
102
RTVSPost2010PropOp37
 70
     1
102
RTVSPost2010Prop38
140
0.0
102
RTVSPost2010PropOp38
 70
     1
102
RTVSPost2010Prop39
140
1.0
102
RTVSPost2010PropOp39
 70
     1
102
RTVSPost2010Prop40
 90
        0
102
RTVSPost2010PropOp40
 70
     1
102
RTVSPost2010Prop41ColorIndex
 90
       18
102
RTVSPost2010Prop41ColorRGB
 90
        0
102
RTVSPost2010PropOp41
 70
     1
102
RTVSPost2010Prop42
 90
       50
102
RTVSPost2010PropOp42
 70
     1
102
RTVSPost2010Prop43
 90
        3
102
RTVSPost2010PropOp43
 70
     1
102
RTVSPost2010Prop44ColorIndex
 90
        5
102
RTVSPost2010Prop44ColorRGB
 90
      255
102
RTVSPost2010PropOp44
 70
     1
102
RTVSPost2010Prop45
280
     0
102
RTVSPost2010PropOp45
 70
     1
102
RTVSPost2010Prop46
 90
       50
102
RTVSPost2010PropOp46
 70
     1
102
RTVSPost2010Prop47
 90
       50
102
RTVSPost2010PropOp47
 70
     1
102
RTVSPost2010Prop48
 90
       50
102
RTVSPost2010PropOp48
 70
     1
102
RTVSPost2010Prop49
280
     0
102
RTVSPost2010PropOp49
 70
     1
102
RTVSPost2010Prop50
 90
       50
102
RTVSPost2010PropOp50
 70
     1
102
RTVSPost2010Prop51ColorIndex
 90
      256
102
RTVSPost2010Prop51ColorRGB
 90
-16777216
102
RTVSPost2010PropOp51
 70
     0
102
RTVSPost2010Prop52
140
1.0
102
RTVSPost2010PropOp52
 70
     0
102
RTVSPost2010Prop53
 90
        2
102
RTVSPost2010PropOp53
 70
     1
102
RTVSPost2010Prop54
  1
strokes_ogs.tif
102
RTVSPost2010PropOp54
 70
     1
102
RTVSPost2010Prop55
280
     0
102
RTVSPost2010PropOp55
 70
     1
102
RTVSPost2010Prop56
140
1.0
102
RTVSPost2010PropOp56
 70
     1
102
RTVSPost2010Prop57
140
1.0
102
RTVSPost2010PropOp57
 70
     1
  0
XRECORD
  5
33E
102
{ACAD_REACTORS
330
33D
102
}
330
33D
100
AcDbXrecord
280
     1
102
RTVSPost2010Prop28
280
     0
102
RTVSPost2010PropOp28
 70
     1
102
RTVSPost2010Prop29
280
     1
102
RTVSPost2010PropOp29
 70
     1
102
RTVSPost2010Prop30
280
     1
102
RTVSPost2010PropOp30
 70
     1
102
RTVSPost2010Prop31
280
     0
102
RTVSPost2010PropOp31
 70
     1
102
RTVSPost2010Prop32
280
     0
102
RTVSPost2010PropOp32
 70
     1
102
RTVSPost2010Prop33
280
     0
102
RTVSPost2010PropOp33
 70
     1
102
RTVSPost2010Prop34
280
     0
102
RTVSPost2010PropOp34
 70
     1
102
RTVSPost2010Prop35
280
     0
102
RTVSPost2010PropOp35
 70
     1
102
RTVSPost2010Prop36
280
     0
102
RTVSPost2010PropOp36
 70
     1
102
RTVSPost2010Prop37
 90
       50
102
RTVSPost2010PropOp37
 70
     1
102
RTVSPost2010Prop38
140
0.0
102
RTVSPost2010PropOp38
 70
     1
102
RTVSPost2010Prop39
140
1.0
102
RTVSPost2010PropOp39
 70
     1
102
RTVSPost2010Prop40
 90
        0
102
RTVSPost2010PropOp40
 70
     1
102
RTVSPost2010Prop41ColorIndex
 90
       18
102
RTVSPost2010Prop41ColorRGB
 90
        0
102
RTVSPost2010PropOp41
 70
     1
102
RTVSPost2010Prop42
 90
       50
102
RTVSPost2010PropOp42
 70
     1
102
RTVSPost2010Prop43
 90
        3
102
RTVSPost2010PropOp43
 70
     1
102
RTVSPost2010Prop44ColorIndex
 90
        5
102
RTVSPost2010Prop44ColorRGB
 90
      255
102
RTVSPost2010PropOp44
 70
     1
102
RTVSPost2010Prop45
280
     0
102
RTVSPost2010PropOp45
 70
     1
102
RTVSPost2010Prop46
 90
       50
102
RTVSPost2010PropOp46
 70
     1
102
RTVSPost2010Prop47
 90
       50
102
RTVSPost2010PropOp47
 70
     1
102
RTVSPost2010Prop48
 90
       50
102
RTVSPost2010PropOp48
 70
     1
102
RTVSPost2010Prop49
280
     0
102
RTVSPost2010PropOp49
 70
     1
102
RTVSPost2010Prop50
 90
       50
102
RTVSPost2010PropOp50
 70
     1
102
RTVSPost2010Prop51ColorIndex
 90
      256
102
RTVSPost2010Prop51ColorRGB
 90
-16777216
102
RTVSPost2010PropOp51
 70
     0
102
RTVSPost2010Prop52
140
1.0
102
RTVSPost2010PropOp52
 70
     0
102
RTVSPost2010Prop53
 90
        2
102
RTVSPost2010PropOp53
 70
     1
102
RTVSPost2010Prop54
  1
strokes_ogs.tif
102
RTVSPost2010PropOp54
 70
     1
102
RTVSPost2010Prop55
280
     0
102
RTVSPost2010PropOp55
 70
     1
102
RTVSPost2010Prop56
140
1.0
102
RTVSPost2010PropOp56
 70
     1
102
RTVSPost2010Prop57
140
1.0
102
RTVSPost2010PropOp57
 70
     1
  0
XRECORD
  5
340
102
{ACAD_REACTORS
330
33F
102
}
330
33F
100
AcDbXrecord
280
     1
102
RTVSPost2010Prop28
280
     0
102
RTVSPost2010PropOp28
 70
     1
102
RTVSPost2010Prop29
280
     1
102
RTVSPost2010PropOp29
 70
     1
102
RTVSPost2010Prop30
280
     1
102
RTVSPost2010PropOp30
 70
     1
102
RTVSPost2010Prop31
280
     0
102
RTVSPost2010PropOp31
 70
     1
102
RTVSPost2010Prop32
280
     0
102
RTVSPost2010PropOp32
 70
     1
102
RTVSPost2010Prop33
280
     0
102
RTVSPost2010PropOp33
 70
     1
102
RTVSPost2010Prop34
280
     0
102
RTVSPost2010PropOp34
 70
     1
102
RTVSPost2010Prop35
280
     0
102
RTVSPost2010PropOp35
 70
     1
102
RTVSPost2010Prop36
280
     0
102
RTVSPost2010PropOp36
 70
     1
102
RTVSPost2010Prop37
 90
       50
102
RTVSPost2010PropOp37
 70
     1
102
RTVSPost2010Prop38
140
0.0
102
RTVSPost2010PropOp38
 70
     1
102
RTVSPost2010Prop39
140
1.0
102
RTVSPost2010PropOp39
 70
     1
102
RTVSPost2010Prop40
 90
        0
102
RTVSPost2010PropOp40
 70
     1
102
RTVSPost2010Prop41ColorIndex
 90
       18
102
RTVSPost2010Prop41ColorRGB
 90
        0
102
RTVSPost2010PropOp41
 70
     1
102
RTVSPost2010Prop42
 90
       50
102
RTVSPost2010PropOp42
 70
     1
102
RTVSPost2010Prop43
 90
        3
102
RTVSPost2010PropOp43
 70
     1
102
RTVSPost2010Prop44ColorIndex
 90
        5
102
RTVSPost2010Prop44ColorRGB
 90
      255
102
RTVSPost2010PropOp44
 70
     1
102
RTVSPost2010Prop45
280
     0
102
RTVSPost2010PropOp45
 70
     1
102
RTVSPost2010Prop46
 90
       50
102
RTVSPost2010PropOp46
 70
     1
102
RTVSPost2010Prop47
 90
       50
102
RTVSPost2010PropOp47
 70
     1
102
RTVSPost2010Prop48
 90
       50
102
RTVSPost2010PropOp48
 70
     1
102
RTVSPost2010Prop49
280
     0
102
RTVSPost2010PropOp49
 70
     1
102
RTVSPost2010Prop50
 90
       50
102
RTVSPost2010PropOp50
 70
     1
102
RTVSPost2010Prop51ColorIndex
 90
      256
102
RTVSPost2010Prop51ColorRGB
 90
-16777216
102
RTVSPost2010PropOp51
 70
     0
102
RTVSPost2010Prop52
140
1.0
102
RTVSPost2010PropOp52
 70
     0
102
RTVSPost2010Prop53
 90
        2
102
RTVSPost2010PropOp53
 70
     1
102
RTVSPost2010Prop54
  1
strokes_ogs.tif
102
RTVSPost2010PropOp54
 70
     1
102
RTVSPost2010Prop55
280
     0
102
RTVSPost2010PropOp55
 70
     1
102
RTVSPost2010Prop56
140
1.0
102
RTVSPost2010PropOp56
 70
     1
102
RTVSPost2010Prop57
140
1.0
102
RTVSPost2010PropOp57
 70
     1
  0
XRECORD
  5
342
102
{ACAD_REACTORS
330
341
102
}
330
341
100
AcDbXrecord
280
     1
102
RTVSPost2010Prop28
280
     0
102
RTVSPost2010PropOp28
 70
     1
102
RTVSPost2010Prop29
280
     1
102
RTVSPost2010PropOp29
 70
     1
102
RTVSPost2010Prop30
280
     1
102
RTVSPost2010PropOp30
 70
     1
102
RTVSPost2010Prop31
280
     0
102
RTVSPost2010PropOp31
 70
     1
102
RTVSPost2010Prop32
280
     0
102
RTVSPost2010PropOp32
 70
     1
102
RTVSPost2010Prop33
280
     0
102
RTVSPost2010PropOp33
 70
     1
102
RTVSPost2010Prop34
280
     0
102
RTVSPost2010PropOp34
 70
     1
102
RTVSPost2010Prop35
280
     0
102
RTVSPost2010PropOp35
 70
     1
102
RTVSPost2010Prop36
280
     0
102
RTVSPost2010PropOp36
 70
     1
102
RTVSPost2010Prop37
 90
       50
102
RTVSPost2010PropOp37
 70
     1
102
RTVSPost2010Prop38
140
0.0
102
RTVSPost2010PropOp38
 70
     1
102
RTVSPost2010Prop39
140
1.0
102
RTVSPost2010PropOp39
 70
     1
102
RTVSPost2010Prop40
 90
        0
102
RTVSPost2010PropOp40
 70
     1
102
RTVSPost2010Prop41ColorIndex
 90
       18
102
RTVSPost2010Prop41ColorRGB
 90
        0
102
RTVSPost2010PropOp41
 70
     1
102
RTVSPost2010Prop42
 90
       50
102
RTVSPost2010PropOp42
 70
     1
102
RTVSPost2010Prop43
 90
        3
102
RTVSPost2010PropOp43
 70
     1
102
RTVSPost2010Prop44ColorIndex
 90
        5
102
RTVSPost2010Prop44ColorRGB
 90
      255
102
RTVSPost2010PropOp44
 70
     1
102
RTVSPost2010Prop45
280
     0
102
RTVSPost2010PropOp45
 70
     1
102
RTVSPost2010Prop46
 90
       50
102
RTVSPost2010PropOp46
 70
     1
102
RTVSPost2010Prop47
 90
       50
102
RTVSPost2010PropOp47
 70
     1
102
RTVSPost2010Prop48
 90
       50
102
RTVSPost2010PropOp48
 70
     1
102
RTVSPost2010Prop49
280
     0
102
RTVSPost2010PropOp49
 70
     1
102
RTVSPost2010Prop50
 90
       50
102
RTVSPost2010PropOp50
 70
     1
102
RTVSPost2010Prop51ColorIndex
 90
      256
102
RTVSPost2010Prop51ColorRGB
 90
-16777216
102
RTVSPost2010PropOp51
 70
     0
102
RTVSPost2010Prop52
140
1.0
102
RTVSPost2010PropOp52
 70
     0
102
RTVSPost2010Prop53
 90
        2
102
RTVSPost2010PropOp53
 70
     1
102
RTVSPost2010Prop54
  1
strokes_ogs.tif
102
RTVSPost2010PropOp54
 70
     1
102
RTVSPost2010Prop55
280
     0
102
RTVSPost2010PropOp55
 70
     1
102
RTVSPost2010Prop56
140
1.0
102
RTVSPost2010PropOp56
 70
     1
102
RTVSPost2010Prop57
140
1.0
102
RTVSPost2010PropOp57
 70
     1
  0
XRECORD
  5
348
102
{ACAD_REACTORS
330
347
102
}
330
347
100
AcDbXrecord
280
     1
102
RTVSPost2010Prop28
280
     0
102
RTVSPost2010PropOp28
 70
     1
102
RTVSPost2010Prop29
280
     1
102
RTVSPost2010PropOp29
 70
     1
102
RTVSPost2010Prop30
280
     1
102
RTVSPost2010PropOp30
 70
     1
102
RTVSPost2010Prop31
280
     0
102
RTVSPost2010PropOp31
 70
     1
102
RTVSPost2010Prop32
280
     0
102
RTVSPost2010PropOp32
 70
     1
102
RTVSPost2010Prop33
280
     0
102
RTVSPost2010PropOp33
 70
     1
102
RTVSPost2010Prop34
280
     0
102
RTVSPost2010PropOp34
 70
     1
102
RTVSPost2010Prop35
280
     0
102
RTVSPost2010PropOp35
 70
     1
102
RTVSPost2010Prop36
280
     0
102
RTVSPost2010PropOp36
 70
     1
102
RTVSPost2010Prop37
 90
       50
102
RTVSPost2010PropOp37
 70
     1
102
RTVSPost2010Prop38
140
0.0
102
RTVSPost2010PropOp38
 70
     1
102
RTVSPost2010Prop39
140
1.0
102
RTVSPost2010PropOp39
 70
     1
102
RTVSPost2010Prop40
 90
        0
102
RTVSPost2010PropOp40
 70
     1
102
RTVSPost2010Prop41ColorIndex
 90
       18
102
RTVSPost2010Prop41ColorRGB
 90
        0
102
RTVSPost2010PropOp41
 70
     1
102
RTVSPost2010Prop42
 90
       50
102
RTVSPost2010PropOp42
 70
     1
102
RTVSPost2010Prop43
 90
        3
102
RTVSPost2010PropOp43
 70
     1
102
RTVSPost2010Prop44ColorIndex
 90
        5
102
RTVSPost2010Prop44ColorRGB
 90
      255
102
RTVSPost2010PropOp44
 70
     1
102
RTVSPost2010Prop45
280
     0
102
RTVSPost2010PropOp45
 70
     1
102
RTVSPost2010Prop46
 90
       50
102
RTVSPost2010PropOp46
 70
     1
102
RTVSPost2010Prop47
 90
       50
102
RTVSPost2010PropOp47
 70
     1
102
RTVSPost2010Prop48
 90
       50
102
RTVSPost2010PropOp48
 70
     1
102
RTVSPost2010Prop49
280
     0
102
RTVSPost2010PropOp49
 70
     1
102
RTVSPost2010Prop50
 90
       50
102
RTVSPost2010PropOp50
 70
     1
102
RTVSPost2010Prop51ColorIndex
 90
      256
102
RTVSPost2010Prop51ColorRGB
 90
-16777216
102
RTVSPost2010PropOp51
 70
     0
102
RTVSPost2010Prop52
140
1.0
102
RTVSPost2010PropOp52
 70
     0
102
RTVSPost2010Prop53
 90
        2
102
RTVSPost2010PropOp53
 70
     1
102
RTVSPost2010Prop54
  1
strokes_ogs.tif
102
RTVSPost2010PropOp54
 70
     1
102
RTVSPost2010Prop55
280
     0
102
RTVSPost2010PropOp55
 70
     1
102
RTVSPost2010Prop56
140
1.0
102
RTVSPost2010PropOp56
 70
     1
102
RTVSPost2010Prop57
140
1.0
102
RTVSPost2010PropOp57
 70
     1
  0
XRECORD
  5
35C
102
{ACAD_REACTORS
330
35B
102
}
330
35B
100
AcDbXrecord
280
     1
102
RTVSPost2010Prop28
280
     0
102
RTVSPost2010PropOp28
 70
     0
102
RTVSPost2010Prop29
280
     1
102
RTVSPost2010PropOp29
 70
     0
102
RTVSPost2010Prop30
280
     1
102
RTVSPost2010PropOp30
 70
     0
102
RTVSPost2010Prop31
280
     0
102
RTVSPost2010PropOp31
 70
     0
102
RTVSPost2010Prop32
280
     0
102
RTVSPost2010PropOp32
 70
     0
102
RTVSPost2010Prop33
280
     0
102
RTVSPost2010PropOp33
 70
     0
102
RTVSPost2010Prop34
280
     0
102
RTVSPost2010PropOp34
 70
     0
102
RTVSPost2010Prop35
280
     0
102
RTVSPost2010PropOp35
 70
     0
102
RTVSPost2010Prop36
280
     0
102
RTVSPost2010PropOp36
 70
     0
102
RTVSPost2010Prop37
 90
       50
102
RTVSPost2010PropOp37
 70
     0
102
RTVSPost2010Prop38
140
0.0
102
RTVSPost2010PropOp38
 70
     0
102
RTVSPost2010Prop39
140
1.0
102
RTVSPost2010PropOp39
 70
     0
102
RTVSPost2010Prop40
 90
        0
102
RTVSPost2010PropOp40
 70
     0
102
RTVSPost2010Prop41ColorIndex
 90
       18
102
RTVSPost2010Prop41ColorRGB
 90
        0
102
RTVSPost2010PropOp41
 70
     0
102
RTVSPost2010Prop42
 90
       50
102
RTVSPost2010PropOp42
 70
     0
102
RTVSPost2010Prop43
 90
        3
102
RTVSPost2010PropOp43
 70
     0
102
RTVSPost2010Prop44ColorIndex
 90
        5
102
RTVSPost2010Prop44ColorRGB
 90
      255
102
RTVSPost2010PropOp44
 70
     0
102
RTVSPost2010Prop45
280
     0
102
RTVSPost2010PropOp45
 70
     0
102
RTVSPost2010Prop46
 90
       50
102
RTVSPost2010PropOp46
 70
     0
102
RTVSPost2010Prop47
 90
       50
102
RTVSPost2010PropOp47
 70
     0
102
RTVSPost2010Prop48
 90
       50
102
RTVSPost2010PropOp48
 70
     0
102
RTVSPost2010Prop49
280
     0
102
RTVSPost2010PropOp49
 70
     0
102
RTVSPost2010Prop50
 90
       50
102
RTVSPost2010PropOp50
 70
     0
102
RTVSPost2010Prop51ColorIndex
 90
      256
102
RTVSPost2010Prop51ColorRGB
 90
-16777216
102
RTVSPost2010PropOp51
 70
     0
102
RTVSPost2010Prop52
140
1.0
102
RTVSPost2010PropOp52
 70
     0
102
RTVSPost2010Prop53
 90
        2
102
RTVSPost2010PropOp53
 70
     0
102
RTVSPost2010Prop54
  1
strokes_ogs.tif
102
RTVSPost2010PropOp54
 70
     0
102
RTVSPost2010Prop55
280
     0
102
RTVSPost2010PropOp55
 70
     0
102
RTVSPost2010Prop56
140
1.0
102
RTVSPost2010PropOp56
 70
     0
102
RTVSPost2010Prop57
140
1.0
102
RTVSPost2010PropOp57
 70
     0
  0
XRECORD
  5
356
102
{ACAD_REACTORS
330
355
102
}
330
355
100
AcDbXrecord
280
     1
102
RTVSPost2010Prop28
280
     0
102
RTVSPost2010PropOp28
 70
     1
102
RTVSPost2010Prop29
280
     1
102
RTVSPost2010PropOp29
 70
     1
102
RTVSPost2010Prop30
280
     1
102
RTVSPost2010PropOp30
 70
     1
102
RTVSPost2010Prop31
280
     0
102
RTVSPost2010PropOp31
 70
     1
102
RTVSPost2010Prop32
280
     0
102
RTVSPost2010PropOp32
 70
     1
102
RTVSPost2010Prop33
280
     0
102
RTVSPost2010PropOp33
 70
     1
102
RTVSPost2010Prop34
280
     0
102
RTVSPost2010PropOp34
 70
     1
102
RTVSPost2010Prop35
280
     0
102
RTVSPost2010PropOp35
 70
     1
102
RTVSPost2010Prop36
280
     0
102
RTVSPost2010PropOp36
 70
     1
102
RTVSPost2010Prop37
 90
       50
102
RTVSPost2010PropOp37
 70
     1
102
RTVSPost2010Prop38
140
0.0
102
RTVSPost2010PropOp38
 70
     1
102
RTVSPost2010Prop39
140
1.0
102
RTVSPost2010PropOp39
 70
     1
102
RTVSPost2010Prop40
 90
        0
102
RTVSPost2010PropOp40
 70
     1
102
RTVSPost2010Prop41ColorIndex
 90
       18
102
RTVSPost2010Prop41ColorRGB
 90
        0
102
RTVSPost2010PropOp41
 70
     1
102
RTVSPost2010Prop42
 90
       50
102
RTVSPost2010PropOp42
 70
     1
102
RTVSPost2010Prop43
 90
        3
102
RTVSPost2010PropOp43
 70
     1
102
RTVSPost2010Prop44ColorIndex
 90
        5
102
RTVSPost2010Prop44ColorRGB
 90
      255
102
RTVSPost2010PropOp44
 70
     1
102
RTVSPost2010Prop45
280
     0
102
RTVSPost2010PropOp45
 70
     1
102
RTVSPost2010Prop46
 90
       50
102
RTVSPost2010PropOp46
 70
     1
102
RTVSPost2010Prop47
 90
       50
102
RTVSPost2010PropOp47
 70
     1
102
RTVSPost2010Prop48
 90
       50
102
RTVSPost2010PropOp48
 70
     1
102
RTVSPost2010Prop49
280
     0
102
RTVSPost2010PropOp49
 70
     1
102
RTVSPost2010Prop50
 90
       50
102
RTVSPost2010PropOp50
 70
     1
102
RTVSPost2010Prop51ColorIndex
 90
      256
102
RTVSPost2010Prop51ColorRGB
 90
-16777216
102
RTVSPost2010PropOp51
 70
     0
102
RTVSPost2010Prop52
140
1.0
102
RTVSPost2010PropOp52
 70
     0
102
RTVSPost2010Prop53
 90
        2
102
RTVSPost2010PropOp53
 70
     1
102
RTVSPost2010Prop54
  1
strokes_ogs.tif
102
RTVSPost2010PropOp54
 70
     1
102
RTVSPost2010Prop55
280
     0
102
RTVSPost2010PropOp55
 70
     1
102
RTVSPost2010Prop56
140
1.0
102
RTVSPost2010PropOp56
 70
     1
102
RTVSPost2010Prop57
140
1.0
102
RTVSPost2010PropOp57
 70
     1
  0
XRECORD
  5
35E
102
{ACAD_REACTORS
330
35D
102
}
330
35D
100
AcDbXrecord
280
     1
102
RTVSPost2010Prop28
280
     0
102
RTVSPost2010PropOp28
 70
     0
102
RTVSPost2010Prop29
280
     1
102
RTVSPost2010PropOp29
 70
     0
102
RTVSPost2010Prop30
280
     1
102
RTVSPost2010PropOp30
 70
     0
102
RTVSPost2010Prop31
280
     0
102
RTVSPost2010PropOp31
 70
     0
102
RTVSPost2010Prop32
280
     0
102
RTVSPost2010PropOp32
 70
     0
102
RTVSPost2010Prop33
280
     0
102
RTVSPost2010PropOp33
 70
     0
102
RTVSPost2010Prop34
280
     0
102
RTVSPost2010PropOp34
 70
     0
102
RTVSPost2010Prop35
280
     0
102
RTVSPost2010PropOp35
 70
     0
102
RTVSPost2010Prop36
280
     0
102
RTVSPost2010PropOp36
 70
     0
102
RTVSPost2010Prop37
 90
       50
102
RTVSPost2010PropOp37
 70
     0
102
RTVSPost2010Prop38
140
0.0
102
RTVSPost2010PropOp38
 70
     0
102
RTVSPost2010Prop39
140
1.0
102
RTVSPost2010PropOp39
 70
     0
102
RTVSPost2010Prop40
 90
        0
102
RTVSPost2010PropOp40
 70
     0
102
RTVSPost2010Prop41ColorIndex
 90
       18
102
RTVSPost2010Prop41ColorRGB
 90
        0
102
RTVSPost2010PropOp41
 70
     0
102
RTVSPost2010Prop42
 90
       50
102
RTVSPost2010PropOp42
 70
     0
102
RTVSPost2010Prop43
 90
        3
102
RTVSPost2010PropOp43
 70
     0
102
RTVSPost2010Prop44ColorIndex
 90
        5
102
RTVSPost2010Prop44ColorRGB
 90
      255
102
RTVSPost2010PropOp44
 70
     0
102
RTVSPost2010Prop45
280
     0
102
RTVSPost2010PropOp45
 70
     0
102
RTVSPost2010Prop46
 90
       50
102
RTVSPost2010PropOp46
 70
     0
102
RTVSPost2010Prop47
 90
       50
102
RTVSPost2010PropOp47
 70
     0
102
RTVSPost2010Prop48
 90
       50
102
RTVSPost2010PropOp48
 70
     0
102
RTVSPost2010Prop49
280
     0
102
RTVSPost2010PropOp49
 70
     0
102
RTVSPost2010Prop50
 90
       50
102
RTVSPost2010PropOp50
 70
     0
102
RTVSPost2010Prop51ColorIndex
 90
      256
102
RTVSPost2010Prop51ColorRGB
 90
-16777216
102
RTVSPost2010PropOp51
 70
     0
102
RTVSPost2010Prop52
140
1.0
102
RTVSPost2010PropOp52
 70
     0
102
RTVSPost2010Prop53
 90
        2
102
RTVSPost2010PropOp53
 70
     0
102
RTVSPost2010Prop54
  1
strokes_ogs.tif
102
RTVSPost2010PropOp54
 70
     0
102
RTVSPost2010Prop55
280
     0
102
RTVSPost2010PropOp55
 70
     0
102
RTVSPost2010Prop56
140
1.0
102
RTVSPost2010PropOp56
 70
     0
102
RTVSPost2010Prop57
140
1.0
102
RTVSPost2010PropOp57
 70
     0
  0
XRECORD
  5
34C
102
{ACAD_REACTORS
330
34B
102
}
330
34B
100
AcDbXrecord
280
     1
102
RTVSPost2010Prop28
280
     0
102
RTVSPost2010PropOp28
 70
     1
102
RTVSPost2010Prop29
280
     1
102
RTVSPost2010PropOp29
 70
     1
102
RTVSPost2010Prop30
280
     1
102
RTVSPost2010PropOp30
 70
     1
102
RTVSPost2010Prop31
280
     0
102
RTVSPost2010PropOp31
 70
     1
102
RTVSPost2010Prop32
280
     0
102
RTVSPost2010PropOp32
 70
     1
102
RTVSPost2010Prop33
280
     0
102
RTVSPost2010PropOp33
 70
     1
102
RTVSPost2010Prop34
280
     0
102
RTVSPost2010PropOp34
 70
     1
102
RTVSPost2010Prop35
280
     0
102
RTVSPost2010PropOp35
 70
     1
102
RTVSPost2010Prop36
280
     0
102
RTVSPost2010PropOp36
 70
     1
102
RTVSPost2010Prop37
 90
       50
102
RTVSPost2010PropOp37
 70
     1
102
RTVSPost2010Prop38
140
0.0
102
RTVSPost2010PropOp38
 70
     1
102
RTVSPost2010Prop39
140
1.0
102
RTVSPost2010PropOp39
 70
     1
102
RTVSPost2010Prop40
 90
        0
102
RTVSPost2010PropOp40
 70
     1
102
RTVSPost2010Prop41ColorIndex
 90
       18
102
RTVSPost2010Prop41ColorRGB
 90
        0
102
RTVSPost2010PropOp41
 70
     1
102
RTVSPost2010Prop42
 90
       50
102
RTVSPost2010PropOp42
 70
     1
102
RTVSPost2010Prop43
 90
        3
102
RTVSPost2010PropOp43
 70
     1
102
RTVSPost2010Prop44ColorIndex
 90
        5
102
RTVSPost2010Prop44ColorRGB
 90
      255
102
RTVSPost2010PropOp44
 70
     1
102
RTVSPost2010Prop45
280
     0
102
RTVSPost2010PropOp45
 70
     1
102
RTVSPost2010Prop46
 90
       50
102
RTVSPost2010PropOp46
 70
     1
102
RTVSPost2010Prop47
 90
       50
102
RTVSPost2010PropOp47
 70
     1
102
RTVSPost2010Prop48
 90
       50
102
RTVSPost2010PropOp48
 70
     1
102
RTVSPost2010Prop49
280
     0
102
RTVSPost2010PropOp49
 70
     1
102
RTVSPost2010Prop50
 90
       50
102
RTVSPost2010PropOp50
 70
     1
102
RTVSPost2010Prop51ColorIndex
 90
      256
102
RTVSPost2010Prop51ColorRGB
 90
-16777216
102
RTVSPost2010PropOp51
 70
     0
102
RTVSPost2010Prop52
140
1.0
102
RTVSPost2010PropOp52
 70
     0
102
RTVSPost2010Prop53
 90
        2
102
RTVSPost2010PropOp53
 70
     1
102
RTVSPost2010Prop54
  1
strokes_ogs.tif
102
RTVSPost2010PropOp54
 70
     1
102
RTVSPost2010Prop55
280
     0
102
RTVSPost2010PropOp55
 70
     1
102
RTVSPost2010Prop56
140
1.0
102
RTVSPost2010PropOp56
 70
     1
102
RTVSPost2010Prop57
140
1.0
102
RTVSPost2010PropOp57
 70
     1
  0
XRECORD
  5
36A
102
{ACAD_REACTORS
330
369
102
}
330
369
100
AcDbXrecord
280
     1
102
RTVSPost2010Prop28
280
     0
102
RTVSPost2010PropOp28
 70
     1
102
RTVSPost2010Prop29
280
     1
102
RTVSPost2010PropOp29
 70
     1
102
RTVSPost2010Prop30
280
     1
102
RTVSPost2010PropOp30
 70
     1
102
RTVSPost2010Prop31
280
     0
102
RTVSPost2010PropOp31
 70
     1
102
RTVSPost2010Prop32
280
     0
102
RTVSPost2010PropOp32
 70
     1
102
RTVSPost2010Prop33
280
     0
102
RTVSPost2010PropOp33
 70
     1
102
RTVSPost2010Prop34
280
     0
102
RTVSPost2010PropOp34
 70
     1
102
RTVSPost2010Prop35
280
     0
102
RTVSPost2010PropOp35
 70
     1
102
RTVSPost2010Prop36
280
     0
102
RTVSPost2010PropOp36
 70
     1
102
RTVSPost2010Prop37
 90
       50
102
RTVSPost2010PropOp37
 70
     1
102
RTVSPost2010Prop38
140
0.0
102
RTVSPost2010PropOp38
 70
     1
102
RTVSPost2010Prop39
140
1.0
102
RTVSPost2010PropOp39
 70
     1
102
RTVSPost2010Prop40
 90
        0
102
RTVSPost2010PropOp40
 70
     1
102
RTVSPost2010Prop41ColorIndex
 90
       18
102
RTVSPost2010Prop41ColorRGB
 90
        0
102
RTVSPost2010PropOp41
 70
     1
102
RTVSPost2010Prop42
 90
       50
102
RTVSPost2010PropOp42
 70
     1
102
RTVSPost2010Prop43
 90
        3
102
RTVSPost2010PropOp43
 70
     1
102
RTVSPost2010Prop44ColorIndex
 90
        5
102
RTVSPost2010Prop44ColorRGB
 90
      255
102
RTVSPost2010PropOp44
 70
     1
102
RTVSPost2010Prop45
280
     0
102
RTVSPost2010PropOp45
 70
     1
102
RTVSPost2010Prop46
 90
       50
102
RTVSPost2010PropOp46
 70
     1
102
RTVSPost2010Prop47
 90
       50
102
RTVSPost2010PropOp47
 70
     1
102
RTVSPost2010Prop48
 90
       50
102
RTVSPost2010PropOp48
 70
     1
102
RTVSPost2010Prop49
280
     0
102
RTVSPost2010PropOp49
 70
     1
102
RTVSPost2010Prop50
 90
       50
102
RTVSPost2010PropOp50
 70
     1
102
RTVSPost2010Prop51ColorIndex
 90
      256
102
RTVSPost2010Prop51ColorRGB
 90
-16777216
102
RTVSPost2010PropOp51
 70
     0
102
RTVSPost2010Prop52
140
1.0
102
RTVSPost2010PropOp52
 70
     0
102
RTVSPost2010Prop53
 90
        2
102
RTVSPost2010PropOp53
 70
     1
102
RTVSPost2010Prop54
  1
strokes_ogs.tif
102
RTVSPost2010PropOp54
 70
     1
102
RTVSPost2010Prop55
280
     0
102
RTVSPost2010PropOp55
 70
     1
102
RTVSPost2010Prop56
140
1.0
102
RTVSPost2010PropOp56
 70
     1
102
RTVSPost2010Prop57
140
1.0
102
RTVSPost2010PropOp57
 70
     1
  0
XRECORD
  5
368
102
{ACAD_REACTORS
330
367
102
}
330
367
100
AcDbXrecord
280
     1
102
RTVSPost2010Prop28
280
     0
102
RTVSPost2010PropOp28
 70
     1
102
RTVSPost2010Prop29
280
     1
102
RTVSPost2010PropOp29
 70
     1
102
RTVSPost2010Prop30
280
     1
102
RTVSPost2010PropOp30
 70
     1
102
RTVSPost2010Prop31
280
     0
102
RTVSPost2010PropOp31
 70
     1
102
RTVSPost2010Prop32
280
     0
102
RTVSPost2010PropOp32
 70
     1
102
RTVSPost2010Prop33
280
     0
102
RTVSPost2010PropOp33
 70
     1
102
RTVSPost2010Prop34
280
     0
102
RTVSPost2010PropOp34
 70
     1
102
RTVSPost2010Prop35
280
     0
102
RTVSPost2010PropOp35
 70
     1
102
RTVSPost2010Prop36
280
     0
102
RTVSPost2010PropOp36
 70
     1
102
RTVSPost2010Prop37
 90
       50
102
RTVSPost2010PropOp37
 70
     1
102
RTVSPost2010Prop38
140
0.0
102
RTVSPost2010PropOp38
 70
     1
102
RTVSPost2010Prop39
140
1.0
102
RTVSPost2010PropOp39
 70
     1
102
RTVSPost2010Prop40
 90
        0
102
RTVSPost2010PropOp40
 70
     1
102
RTVSPost2010Prop41ColorIndex
 90
       18
102
RTVSPost2010Prop41ColorRGB
 90
        0
102
RTVSPost2010PropOp41
 70
     1
102
RTVSPost2010Prop42
 90
       50
102
RTVSPost2010PropOp42
 70
     1
102
RTVSPost2010Prop43
 90
        3
102
RTVSPost2010PropOp43
 70
     1
102
RTVSPost2010Prop44ColorIndex
 90
        5
102
RTVSPost2010Prop44ColorRGB
 90
      255
102
RTVSPost2010PropOp44
 70
     1
102
RTVSPost2010Prop45
280
     0
102
RTVSPost2010PropOp45
 70
     1
102
RTVSPost2010Prop46
 90
       50
102
RTVSPost2010PropOp46
 70
     1
102
RTVSPost2010Prop47
 90
       50
102
RTVSPost2010PropOp47
 70
     1
102
RTVSPost2010Prop48
 90
       50
102
RTVSPost2010PropOp48
 70
     1
102
RTVSPost2010Prop49
280
     0
102
RTVSPost2010PropOp49
 70
     1
102
RTVSPost2010Prop50
 90
       50
102
RTVSPost2010PropOp50
 70
     1
102
RTVSPost2010Prop51ColorIndex
 90
      256
102
RTVSPost2010Prop51ColorRGB
 90
-16777216
102
RTVSPost2010PropOp51
 70
     0
102
RTVSPost2010Prop52
140
1.0
102
RTVSPost2010PropOp52
 70
     0
102
RTVSPost2010Prop53
 90
        2
102
RTVSPost2010PropOp53
 70
     1
102
RTVSPost2010Prop54
  1
strokes_ogs.tif
102
RTVSPost2010PropOp54
 70
     1
102
RTVSPost2010Prop55
280
     0
102
RTVSPost2010PropOp55
 70
     1
102
RTVSPost2010Prop56
140
1.0
102
RTVSPost2010PropOp56
 70
     1
102
RTVSPost2010Prop57
140
1.0
102
RTVSPost2010PropOp57
 70
     1
  0
XRECORD
  5
362
102
{ACAD_REACTORS
330
361
102
}
330
361
100
AcDbXrecord
280
     1
102
RTVSPost2010Prop28
280
     0
102
RTVSPost2010PropOp28
 70
     1
102
RTVSPost2010Prop29
280
     1
102
RTVSPost2010PropOp29
 70
     1
102
RTVSPost2010Prop30
280
     1
102
RTVSPost2010PropOp30
 70
     1
102
RTVSPost2010Prop31
280
     0
102
RTVSPost2010PropOp31
 70
     1
102
RTVSPost2010Prop32
280
     0
102
RTVSPost2010PropOp32
 70
     1
102
RTVSPost2010Prop33
280
     0
102
RTVSPost2010PropOp33
 70
     1
102
RTVSPost2010Prop34
280
     0
102
RTVSPost2010PropOp34
 70
     1
102
RTVSPost2010Prop35
280
     0
102
RTVSPost2010PropOp35
 70
     1
102
RTVSPost2010Prop36
280
     0
102
RTVSPost2010PropOp36
 70
     1
102
RTVSPost2010Prop37
 90
       50
102
RTVSPost2010PropOp37
 70
     1
102
RTVSPost2010Prop38
140
0.0
102
RTVSPost2010PropOp38
 70
     1
102
RTVSPost2010Prop39
140
1.0
102
RTVSPost2010PropOp39
 70
     1
102
RTVSPost2010Prop40
 90
        0
102
RTVSPost2010PropOp40
 70
     1
102
RTVSPost2010Prop41ColorIndex
 90
       18
102
RTVSPost2010Prop41ColorRGB
 90
        0
102
RTVSPost2010PropOp41
 70
     1
102
RTVSPost2010Prop42
 90
       50
102
RTVSPost2010PropOp42
 70
     1
102
RTVSPost2010Prop43
 90
        3
102
RTVSPost2010PropOp43
 70
     1
102
RTVSPost2010Prop44ColorIndex
 90
        5
102
RTVSPost2010Prop44ColorRGB
 90
      255
102
RTVSPost2010PropOp44
 70
     1
102
RTVSPost2010Prop45
280
     0
102
RTVSPost2010PropOp45
 70
     1
102
RTVSPost2010Prop46
 90
       50
102
RTVSPost2010PropOp46
 70
     1
102
RTVSPost2010Prop47
 90
       50
102
RTVSPost2010PropOp47
 70
     1
102
RTVSPost2010Prop48
 90
       50
102
RTVSPost2010PropOp48
 70
     1
102
RTVSPost2010Prop49
280
     0
102
RTVSPost2010PropOp49
 70
     1
102
RTVSPost2010Prop50
 90
       50
102
RTVSPost2010PropOp50
 70
     1
102
RTVSPost2010Prop51ColorIndex
 90
      256
102
RTVSPost2010Prop51ColorRGB
 90
-16777216
102
RTVSPost2010PropOp51
 70
     0
102
RTVSPost2010Prop52
140
1.0
102
RTVSPost2010PropOp52
 70
     0
102
RTVSPost2010Prop53
 90
        2
102
RTVSPost2010PropOp53
 70
     1
102
RTVSPost2010Prop54
  1
strokes_ogs.tif
102
RTVSPost2010PropOp54
 70
     1
102
RTVSPost2010Prop55
280
     0
102
RTVSPost2010PropOp55
 70
     1
102
RTVSPost2010Prop56
140
1.0
102
RTVSPost2010PropOp56
 70
     1
102
RTVSPost2010Prop57
140
1.0
102
RTVSPost2010PropOp57
 70
     1
  0
XRECORD
  5
364
102
{ACAD_REACTORS
330
363
102
}
330
363
100
AcDbXrecord
280
     1
102
RTVSPost2010Prop28
280
     0
102
RTVSPost2010PropOp28
 70
     1
102
RTVSPost2010Prop29
280
     1
102
RTVSPost2010PropOp29
 70
     1
102
RTVSPost2010Prop30
280
     1
102
RTVSPost2010PropOp30
 70
     1
102
RTVSPost2010Prop31
280
     0
102
RTVSPost2010PropOp31
 70
     1
102
RTVSPost2010Prop32
280
     0
102
RTVSPost2010PropOp32
 70
     1
102
RTVSPost2010Prop33
280
     0
102
RTVSPost2010PropOp33
 70
     1
102
RTVSPost2010Prop34
280
     0
102
RTVSPost2010PropOp34
 70
     1
102
RTVSPost2010Prop35
280
     0
102
RTVSPost2010PropOp35
 70
     1
102
RTVSPost2010Prop36
280
     0
102
RTVSPost2010PropOp36
 70
     1
102
RTVSPost2010Prop37
 90
       50
102
RTVSPost2010PropOp37
 70
     1
102
RTVSPost2010Prop38
140
0.0
102
RTVSPost2010PropOp38
 70
     1
102
RTVSPost2010Prop39
140
1.0
102
RTVSPost2010PropOp39
 70
     1
102
RTVSPost2010Prop40
 90
        0
102
RTVSPost2010PropOp40
 70
     1
102
RTVSPost2010Prop41ColorIndex
 90
       18
102
RTVSPost2010Prop41ColorRGB
 90
        0
102
RTVSPost2010PropOp41
 70
     1
102
RTVSPost2010Prop42
 90
       50
102
RTVSPost2010PropOp42
 70
     1
102
RTVSPost2010Prop43
 90
        3
102
RTVSPost2010PropOp43
 70
     1
102
RTVSPost2010Prop44ColorIndex
 90
        5
102
RTVSPost2010Prop44ColorRGB
 90
      255
102
RTVSPost2010PropOp44
 70
     1
102
RTVSPost2010Prop45
280
     0
102
RTVSPost2010PropOp45
 70
     1
102
RTVSPost2010Prop46
 90
       50
102
RTVSPost2010PropOp46
 70
     1
102
RTVSPost2010Prop47
 90
       50
102
RTVSPost2010PropOp47
 70
     1
102
RTVSPost2010Prop48
 90
       50
102
RTVSPost2010PropOp48
 70
     1
102
RTVSPost2010Prop49
280
     0
102
RTVSPost2010PropOp49
 70
     1
102
RTVSPost2010Prop50
 90
       50
102
RTVSPost2010PropOp50
 70
     1
102
RTVSPost2010Prop51ColorIndex
 90
      256
102
RTVSPost2010Prop51ColorRGB
 90
-16777216
102
RTVSPost2010PropOp51
 70
     0
102
RTVSPost2010Prop52
140
1.0
102
RTVSPost2010PropOp52
 70
     0
102
RTVSPost2010Prop53
 90
        2
102
RTVSPost2010PropOp53
 70
     1
102
RTVSPost2010Prop54
  1
strokes_ogs.tif
102
RTVSPost2010PropOp54
 70
     1
102
RTVSPost2010Prop55
280
     0
102
RTVSPost2010PropOp55
 70
     1
102
RTVSPost2010Prop56
140
1.0
102
RTVSPost2010PropOp56
 70
     1
102
RTVSPost2010Prop57
140
1.0
102
RTVSPost2010PropOp57
 70
     1
  0
XRECORD
  5
354
102
{ACAD_REACTORS
330
353
102
}
330
353
100
AcDbXrecord
280
     1
102
RTVSPost2010Prop28
280
     0
102
RTVSPost2010PropOp28
 70
     1
102
RTVSPost2010Prop29
280
     1
102
RTVSPost2010PropOp29
 70
     1
102
RTVSPost2010Prop30
280
     1
102
RTVSPost2010PropOp30
 70
     1
102
RTVSPost2010Prop31
280
     0
102
RTVSPost2010PropOp31
 70
     1
102
RTVSPost2010Prop32
280
     0
102
RTVSPost2010PropOp32
 70
     1
102
RTVSPost2010Prop33
280
     0
102
RTVSPost2010PropOp33
 70
     1
102
RTVSPost2010Prop34
280
     0
102
RTVSPost2010PropOp34
 70
     1
102
RTVSPost2010Prop35
280
     0
102
RTVSPost2010PropOp35
 70
     1
102
RTVSPost2010Prop36
280
     0
102
RTVSPost2010PropOp36
 70
     1
102
RTVSPost2010Prop37
 90
       50
102
RTVSPost2010PropOp37
 70
     1
102
RTVSPost2010Prop38
140
0.0
102
RTVSPost2010PropOp38
 70
     1
102
RTVSPost2010Prop39
140
1.0
102
RTVSPost2010PropOp39
 70
     1
102
RTVSPost2010Prop40
 90
        0
102
RTVSPost2010PropOp40
 70
     1
102
RTVSPost2010Prop41ColorIndex
 90
       18
102
RTVSPost2010Prop41ColorRGB
 90
        0
102
RTVSPost2010PropOp41
 70
     1
102
RTVSPost2010Prop42
 90
       50
102
RTVSPost2010PropOp42
 70
     1
102
RTVSPost2010Prop43
 90
        3
102
RTVSPost2010PropOp43
 70
     1
102
RTVSPost2010Prop44ColorIndex
 90
        5
102
RTVSPost2010Prop44ColorRGB
 90
      255
102
RTVSPost2010PropOp44
 70
     1
102
RTVSPost2010Prop45
280
     0
102
RTVSPost2010PropOp45
 70
     1
102
RTVSPost2010Prop46
 90
       50
102
RTVSPost2010PropOp46
 70
     1
102
RTVSPost2010Prop47
 90
       50
102
RTVSPost2010PropOp47
 70
     1
102
RTVSPost2010Prop48
 90
       50
102
RTVSPost2010PropOp48
 70
     1
102
RTVSPost2010Prop49
280
     0
102
RTVSPost2010PropOp49
 70
     1
102
RTVSPost2010Prop50
 90
       50
102
RTVSPost2010PropOp50
 70
     1
102
RTVSPost2010Prop51ColorIndex
 90
      256
102
RTVSPost2010Prop51ColorRGB
 90
-16777216
102
RTVSPost2010PropOp51
 70
     0
102
RTVSPost2010Prop52
140
1.0
102
RTVSPost2010PropOp52
 70
     0
102
RTVSPost2010Prop53
 90
        2
102
RTVSPost2010PropOp53
 70
     1
102
RTVSPost2010Prop54
  1
strokes_ogs.tif
102
RTVSPost2010PropOp54
 70
     1
102
RTVSPost2010Prop55
280
     0
102
RTVSPost2010PropOp55
 70
     1
102
RTVSPost2010Prop56
140
1.0
102
RTVSPost2010PropOp56
 70
     1
102
RTVSPost2010Prop57
140
1.0
102
RTVSPost2010PropOp57
 70
     1
  0
XRECORD
  5
346
102
{ACAD_REACTORS
330
345
102
}
330
345
100
AcDbXrecord
280
     1
102
RTVSPost2010Prop28
280
     0
102
RTVSPost2010PropOp28
 70
     1
102
RTVSPost2010Prop29
280
     1
102
RTVSPost2010PropOp29
 70
     1
102
RTVSPost2010Prop30
280
     1
102
RTVSPost2010PropOp30
 70
     1
102
RTVSPost2010Prop31
280
     0
102
RTVSPost2010PropOp31
 70
     1
102
RTVSPost2010Prop32
280
     0
102
RTVSPost2010PropOp32
 70
     1
102
RTVSPost2010Prop33
280
     0
102
RTVSPost2010PropOp33
 70
     1
102
RTVSPost2010Prop34
280
     0
102
RTVSPost2010PropOp34
 70
     1
102
RTVSPost2010Prop35
280
     0
102
RTVSPost2010PropOp35
 70
     1
102
RTVSPost2010Prop36
280
     0
102
RTVSPost2010PropOp36
 70
     1
102
RTVSPost2010Prop37
 90
       50
102
RTVSPost2010PropOp37
 70
     1
102
RTVSPost2010Prop38
140
0.0
102
RTVSPost2010PropOp38
 70
     1
102
RTVSPost2010Prop39
140
1.0
102
RTVSPost2010PropOp39
 70
     1
102
RTVSPost2010Prop40
 90
        0
102
RTVSPost2010PropOp40
 70
     1
102
RTVSPost2010Prop41ColorIndex
 90
       18
102
RTVSPost2010Prop41ColorRGB
 90
        0
102
RTVSPost2010PropOp41
 70
     1
102
RTVSPost2010Prop42
 90
       50
102
RTVSPost2010PropOp42
 70
     1
102
RTVSPost2010Prop43
 90
        3
102
RTVSPost2010PropOp43
 70
     1
102
RTVSPost2010Prop44ColorIndex
 90
        5
102
RTVSPost2010Prop44ColorRGB
 90
      255
102
RTVSPost2010PropOp44
 70
     1
102
RTVSPost2010Prop45
280
     0
102
RTVSPost2010PropOp45
 70
     1
102
RTVSPost2010Prop46
 90
       50
102
RTVSPost2010PropOp46
 70
     1
102
RTVSPost2010Prop47
 90
       50
102
RTVSPost2010PropOp47
 70
     1
102
RTVSPost2010Prop48
 90
       50
102
RTVSPost2010PropOp48
 70
     1
102
RTVSPost2010Prop49
280
     0
102
RTVSPost2010PropOp49
 70
     1
102
RTVSPost2010Prop50
 90
       50
102
RTVSPost2010PropOp50
 70
     1
102
RTVSPost2010Prop51ColorIndex
 90
      256
102
RTVSPost2010Prop51ColorRGB
 90
-16777216
102
RTVSPost2010PropOp51
 70
     0
102
RTVSPost2010Prop52
140
1.0
102
RTVSPost2010PropOp52
 70
     0
102
RTVSPost2010Prop53
 90
        2
102
RTVSPost2010PropOp53
 70
     1
102
RTVSPost2010Prop54
  1
strokes_ogs.tif
102
RTVSPost2010PropOp54
 70
     1
102
RTVSPost2010Prop55
280
     0
102
RTVSPost2010PropOp55
 70
     1
102
RTVSPost2010Prop56
140
1.0
102
RTVSPost2010PropOp56
 70
     1
102
RTVSPost2010Prop57
140
1.0
102
RTVSPost2010PropOp57
 70
     1
  0
XRECORD
  5
366
102
{ACAD_REACTORS
330
365
102
}
330
365
100
AcDbXrecord
280
     1
102
RTVSPost2010Prop28
280
     0
102
RTVSPost2010PropOp28
 70
     1
102
RTVSPost2010Prop29
280
     1
102
RTVSPost2010PropOp29
 70
     1
102
RTVSPost2010Prop30
280
     1
102
RTVSPost2010PropOp30
 70
     1
102
RTVSPost2010Prop31
280
     0
102
RTVSPost2010PropOp31
 70
     1
102
RTVSPost2010Prop32
280
     0
102
RTVSPost2010PropOp32
 70
     1
102
RTVSPost2010Prop33
280
     0
102
RTVSPost2010PropOp33
 70
     1
102
RTVSPost2010Prop34
280
     0
102
RTVSPost2010PropOp34
 70
     1
102
RTVSPost2010Prop35
280
     0
102
RTVSPost2010PropOp35
 70
     1
102
RTVSPost2010Prop36
280
     0
102
RTVSPost2010PropOp36
 70
     1
102
RTVSPost2010Prop37
 90
       50
102
RTVSPost2010PropOp37
 70
     1
102
RTVSPost2010Prop38
140
0.0
102
RTVSPost2010PropOp38
 70
     1
102
RTVSPost2010Prop39
140
1.0
102
RTVSPost2010PropOp39
 70
     1
102
RTVSPost2010Prop40
 90
        0
102
RTVSPost2010PropOp40
 70
     1
102
RTVSPost2010Prop41ColorIndex
 90
       18
102
RTVSPost2010Prop41ColorRGB
 90
        0
102
RTVSPost2010PropOp41
 70
     1
102
RTVSPost2010Prop42
 90
       50
102
RTVSPost2010PropOp42
 70
     1
102
RTVSPost2010Prop43
 90
        3
102
RTVSPost2010PropOp43
 70
     1
102
RTVSPost2010Prop44ColorIndex
 90
        5
102
RTVSPost2010Prop44ColorRGB
 90
      255
102
RTVSPost2010PropOp44
 70
     1
102
RTVSPost2010Prop45
280
     0
102
RTVSPost2010PropOp45
 70
     1
102
RTVSPost2010Prop46
 90
       50
102
RTVSPost2010PropOp46
 70
     1
102
RTVSPost2010Prop47
 90
       50
102
RTVSPost2010PropOp47
 70
     1
102
RTVSPost2010Prop48
 90
       50
102
RTVSPost2010PropOp48
 70
     1
102
RTVSPost2010Prop49
280
     0
102
RTVSPost2010PropOp49
 70
     1
102
RTVSPost2010Prop50
 90
       50
102
RTVSPost2010PropOp50
 70
     1
102
RTVSPost2010Prop51ColorIndex
 90
      256
102
RTVSPost2010Prop51ColorRGB
 90
-16777216
102
RTVSPost2010PropOp51
 70
     0
102
RTVSPost2010Prop52
140
1.0
102
RTVSPost2010PropOp52
 70
     0
102
RTVSPost2010Prop53
 90
        2
102
RTVSPost2010PropOp53
 70
     1
102
RTVSPost2010Prop54
  1
strokes_ogs.tif
102
RTVSPost2010PropOp54
 70
     1
102
RTVSPost2010Prop55
280
     0
102
RTVSPost2010PropOp55
 70
     1
102
RTVSPost2010Prop56
140
1.0
102
RTVSPost2010PropOp56
 70
     1
102
RTVSPost2010Prop57
140
1.0
102
RTVSPost2010PropOp57
 70
     1
  0
ENDSEC
  0
EOF
