  0
SECTION
  2
HEADER
  9
$ACADVER
  1
AC1015
  9
$ACADMAINTVER
 70
    13
  9
$DWGCODEPAGE
  3
ANSI_1252
  9
$INSBASE
 10
0.0
 20
0.0
 30
0.0
  9
$EXTMIN
 10
-114.481148806082
 20
139.6437181757807
 30
0.0
  9
$EXTMAX
 10
962.3830805687774
 20
781.4841227479093
 30
0.0
  9
$LIMMIN
 10
-114.4811477661132
 20
128.5400085449218
  9
$LIMMAX
 10
962.3830566406249
 20
768.5402832031249
  9
$ORTHOMODE
 70
     0
  9
$REGENMODE
 70
     1
  9
$FILLMODE
 70
     1
  9
$QTEXTMODE
 70
     0
  9
$MIRRTEXT
 70
     1
  9
$LTSCALE
 40
1.0
  9
$ATTMODE
 70
     1
  9
$TEXTSIZE
 40
2.5
  9
$TRACEWID
 40
1.0
  9
$TEXTSTYLE
  7
Standard
  9
$CLAYER
  8
0
  9
$CELTYPE
  6
ByLayer
  9
$CECOLOR
 62
   256
  9
$CELTSCALE
 40
1.0
  9
$DISPSILH
 70
     0
  9
$DIMSCALE
 40
1.0
  9
$DIMASZ
 40
2.5
  9
$DIMEXO
 40
0.625
  9
$DIMDLI
 40
3.75
  9
$DIMRND
 40
0.0
  9
$DIMDLE
 40
0.0
  9
$DIMEXE
 40
1.25
  9
$DIMTP
 40
0.0
  9
$DIMTM
 40
0.0
  9
$DIMTXT
 40
2.5
  9
$DIMCEN
 40
2.5
  9
$DIMTSZ
 40
0.0
  9
$DIMTOL
 70
     0
  9
$DIMLIM
 70
     0
  9
$DIMTIH
 70
     0
  9
$DIMTOH
 70
     0
  9
$DIMSE1
 70
     0
  9
$DIMSE2
 70
     0
  9
$DIMTAD
 70
     1
  9
$DIMZIN
 70
     8
  9
$DIMBLK
  1

  9
$DIMASO
 70
     1
  9
$DIMSHO
 70
     1
  9
$DIMPOST
  1

  9
$DIMAPOST
  1

  9
$DIMALT
 70
     0
  9
$DIMALTD
 70
     3
  9
$DIMALTF
 40
0.03937007874016
  9
$DIMLFAC
 40
1.0
  9
$DIMTOFL
 70
     1
  9
$DIMTVP
 40
0.0
  9
$DIMTIX
 70
     0
  9
$DIMSOXD
 70
     0
  9
$DIMSAH
 70
     0
  9
$DIMBLK1
  1

  9
$DIMBLK2
  1

  9
$DIMSTYLE
  2
ISO-25
  9
$DIMCLRD
 70
     0
  9
$DIMCLRE
 70
     0
  9
$DIMCLRT
 70
     0
  9
$DIMTFAC
 40
1.0
  9
$DIMGAP
 40
0.625
  9
$DIMJUST
 70
     0
  9
$DIMSD1
 70
     0
  9
$DIMSD2
 70
     0
  9
$DIMTOLJ
 70
     0
  9
$DIMTZIN
 70
     8
  9
$DIMALTZ
 70
     0
  9
$DIMALTTZ
 70
     0
  9
$DIMUPT
 70
     0
  9
$DIMDEC
 70
     2
  9
$DIMTDEC
 70
     2
  9
$DIMALTU
 70
     2
  9
$DIMALTTD
 70
     3
  9
$DIMTXSTY
  7
Standard
  9
$DIMAUNIT
 70
     0
  9
$DIMADEC
 70
     0
  9
$DIMALTRND
 40
0.0
  9
$DIMAZIN
 70
     0
  9
$DIMDSEP
 70
    44
  9
$DIMATFIT
 70
     3
  9
$DIMFRAC
 70
     0
  9
$DIMLDRBLK
  1

  9
$DIMLUNIT
 70
     2
  9
$DIMLWD
 70
    -2
  9
$DIMLWE
 70
    -2
  9
$DIMTMOVE
 70
     0
  9
$LUNITS
 70
     2
  9
$LUPREC
 70
     4
  9
$SKETCHINC
 40
1.0
  9
$FILLETRAD
 40
10.0
  9
$AUNITS
 70
     0
  9
$AUPREC
 70
     0
  9
$MENU
  1
.
  9
$ELEVATION
 40
0.0
  9
$PELEVATION
 40
0.0
  9
$THICKNESS
 40
0.0
  9
$LIMCHECK
 70
     0
  9
$CHAMFERA
 40
10.0
  9
$CHAMFERB
 40
10.0
  9
$CHAMFERC
 40
20.0
  9
$CHAMFERD
 40
0.0
  9
$SKPOLY
 70
     0
  9
$TDCREATE
 40
2455525.409908680
  9
$TDUCREATE
 40
2455525.368242013
  9
$TDUPDATE
 40
2455525.452524479
  9
$TDUUPDATE
 40
2455525.410857812
  9
$TDINDWG
 40
0.0001703704
  9
$TDUSRTIMER
 40
0.0001703704
  9
$USRTIMER
 70
     1
  9
$ANGBASE
 50
0.0
  9
$ANGDIR
 70
     0
  9
$PDMODE
 70
     0
  9
$PDSIZE
 40
0.0
  9
$PLINEWID
 40
0.0
  9
$SPLFRAME
 70
     0
  9
$SPLINETYPE
 70
     6
  9
$SPLINESEGS
 70
     8
  9
$HANDSEED
  5
1B0
  9
$SURFTAB1
 70
     6
  9
$SURFTAB2
 70
     6
  9
$SURFTYPE
 70
     6
  9
$SURFU
 70
     6
  9
$SURFV
 70
     6
  9
$UCSBASE
  2

  9
$UCSNAME
  2

  9
$UCSORG
 10
0.0
 20
0.0
 30
0.0
  9
$UCSXDIR
 10
1.0
 20
0.0
 30
0.0
  9
$UCSYDIR
 10
0.0
 20
1.0
 30
0.0
  9
$UCSORTHOREF
  2

  9
$UCSORTHOVIEW
 70
     0
  9
$UCSORGTOP
 10
0.0
 20
0.0
 30
0.0
  9
$UCSORGBOTTOM
 10
0.0
 20
0.0
 30
0.0
  9
$UCSORGLEFT
 10
0.0
 20
0.0
 30
0.0
  9
$UCSORGRIGHT
 10
0.0
 20
0.0
 30
0.0
  9
$UCSORGFRONT
 10
0.0
 20
0.0
 30
0.0
  9
$UCSORGBACK
 10
0.0
 20
0.0
 30
0.0
  9
$PUCSBASE
  2

  9
$PUCSNAME
  2

  9
$PUCSORG
 10
0.0
 20
0.0
 30
0.0
  9
$PUCSXDIR
 10
1.0
 20
0.0
 30
0.0
  9
$PUCSYDIR
 10
0.0
 20
1.0
 30
0.0
  9
$PUCSORTHOREF
  2

  9
$PUCSORTHOVIEW
 70
     0
  9
$PUCSORGTOP
 10
0.0
 20
0.0
 30
0.0
  9
$PUCSORGBOTTOM
 10
0.0
 20
0.0
 30
0.0
  9
$PUCSORGLEFT
 10
0.0
 20
0.0
 30
0.0
  9
$PUCSORGRIGHT
 10
0.0
 20
0.0
 30
0.0
  9
$PUCSORGFRONT
 10
0.0
 20
0.0
 30
0.0
  9
$PUCSORGBACK
 10
0.0
 20
0.0
 30
0.0
  9
$USERI1
 70
     0
  9
$USERI2
 70
     0
  9
$USERI3
 70
     0
  9
$USERI4
 70
     0
  9
$USERI5
 70
     0
  9
$USERR1
 40
0.0
  9
$USERR2
 40
0.0
  9
$USERR3
 40
0.0
  9
$USERR4
 40
0.0
  9
$USERR5
 40
0.0
  9
$WORLDVIEW
 70
     1
  9
$SHADEDGE
 70
     3
  9
$SHADEDIF
 70
    70
  9
$TILEMODE
 70
     1
  9
$MAXACTVP
 70
    64
  9
$PINSBASE
 10
0.0
 20
0.0
 30
0.0
  9
$PLIMCHECK
 70
     0
  9
$PEXTMIN
 10
1.000000000000000E+20
 20
1.000000000000000E+20
 30
1.000000000000000E+20
  9
$PEXTMAX
 10
-1.000000000000000E+20
 20
-1.000000000000000E+20
 30
-1.000000000000000E+20
  9
$PLIMMIN
 10
0.0
 20
0.0
  9
$PLIMMAX
 10
420.0
 20
297.0
  9
$UNITMODE
 70
     0
  9
$VISRETAIN
 70
     1
  9
$PLINEGEN
 70
     0
  9
$PSLTSCALE
 70
     1
  9
$TREEDEPTH
 70
  3020
  9
$CMLSTYLE
  2
Standard
  9
$CMLJUST
 70
     0
  9
$CMLSCALE
 40
20.0
  9
$PROXYGRAPHICS
 70
     1
  9
$MEASUREMENT
 70
     1
  9
$CELWEIGHT
370
    -1
  9
$ENDCAPS
280
     0
  9
$JOINSTYLE
280
     0
  9
$LWDISPLAY
290
     0
  9
$INSUNITS
 70
     4
  9
$HYPERLINKBASE
  1

  9
$STYLESHEET
  1

  9
$XEDIT
290
     1
  9
$CEPSNTYPE
380
     0
  9
$PSTYLEMODE
290
     1
  9
$FINGERPRINTGUID
  2
{20459A10-E601-4B18-8847-6FA6D3664C3D}
  9
$VERSIONGUID
  2
{CCDEF2D8-EA5D-4272-B030-8E5EFFD1250F}
  9
$EXTNAMES
290
     1
  9
$PSVPSCALE
 40
0.0
  9
$OLESTARTUP
290
     0
  0
ENDSEC
  0
SECTION
  2
CLASSES
  0
CLASS
  1
ACDBDICTIONARYWDFLT
  2
AcDbDictionaryWithDefault
  3
AutoCAD 2000
 90
        0
280
     0
281
     0
  0
CLASS
  1
VISUALSTYLE
  2
AcDbVisualStyle
  3
ObjectDBX Classes
 90
     4095
280
     0
281
     0
  0
CLASS
  1
DICTIONARYVAR
  2
AcDbDictionaryVar
  3
AutoCAD 2000
 90
        0
280
     0
281
     0
  0
CLASS
  1
ACDBPLACEHOLDER
  2
AcDbPlaceHolder
  3
AutoCAD 2000
 90
        0
280
     0
281
     0
  0
CLASS
  1
LAYOUT
  2
AcDbLayout
  3
AutoCAD 2000
 90
        0
280
     0
281
     0
  0
ENDSEC
  0
SECTION
  2
TABLES
  0
TABLE
  2
VPORT
  5
8
330
0
100
AcDbSymbolTable
 70
     2
  0
VPORT
  5
1AF
330
8
100
AcDbSymbolTableRecord
100
AcDbViewportTableRecord
  2
*Active
 70
     0
 10
0.0
 20
0.0
 11
1.0
 21
1.0
 12
423.9509569445258
 22
460.5518712829939
 13
0.0
 23
0.0
 14
10.0
 24
10.0
 15
10.0
 25
10.0
 16
0.0
 26
0.0
 36
1.0
 17
0.0
 27
0.0
 37
0.0
 40
645.877608006122
 41
1.906832298136645
 42
50.0
 43
0.0
 44
0.0
 50
0.0
 51
0.0
 71
     0
 72
   100
 73
     1
 74
     3
 75
     0
 76
     0
 77
     0
 78
     0
281
     0
 65
     1
110
0.0
120
0.0
130
0.0
111
1.0
121
0.0
131
0.0
112
0.0
122
1.0
132
0.0
 79
     0
146
0.0
  0
ENDTAB
  0
TABLE
  2
LTYPE
  5
5
330
0
100
AcDbSymbolTable
 70
     1
  0
LTYPE
  5
14
330
5
100
AcDbSymbolTableRecord
100
AcDbLinetypeTableRecord
  2
ByBlock
 70
     0
  3

 72
    65
 73
     0
 40
0.0
  0
LTYPE
  5
15
330
5
100
AcDbSymbolTableRecord
100
AcDbLinetypeTableRecord
  2
ByLayer
 70
     0
  3

 72
    65
 73
     0
 40
0.0
  0
LTYPE
  5
16
330
5
100
AcDbSymbolTableRecord
100
AcDbLinetypeTableRecord
  2
Continuous
 70
     0
  3
Solid line
 72
    65
 73
     0
 40
0.0
  0
ENDTAB
  0
TABLE
  2
LAYER
  5
2
330
0
100
AcDbSymbolTable
 70
     1
  0
LAYER
  5
10
330
2
100
AcDbSymbolTableRecord
100
AcDbLayerTableRecord
  2
0
 70
     0
 62
   106
  6
Continuous
370
     0
390
F
  0
ENDTAB
  0
TABLE
  2
STYLE
  5
3
330
0
100
AcDbSymbolTable
 70
     4
  0
STYLE
  5
11
330
3
100
AcDbSymbolTableRecord
100
AcDbTextStyleTableRecord
  2
Standard
 70
     0
 40
0.0
 41
1.0
 50
0.0
 71
     0
 42
2.5
  3
txt
  4

  0
STYLE
  5
3B
330
3
100
AcDbSymbolTableRecord
100
AcDbTextStyleTableRecord
  2
Default
 70
     0
 40
0.0
 41
1.0
 50
0.0
 71
     0
 42
0.2
  3
txt_____.ttf
  4

1001
ACAD
1000
txt
1071
        0
  0
STYLE
  5
3C
330
3
100
AcDbSymbolTableRecord
100
AcDbTextStyleTableRecord
  2
ISO
 70
     0
 40
0.0
 41
1.0
 50
0.0
 71
     0
 42
0.2
  3
txt_____.ttf
  4

1001
ACAD
1000
txt
1071
        0
  0
STYLE
  5
3D
330
3
100
AcDbSymbolTableRecord
100
AcDbTextStyleTableRecord
  2
GIANLU
 70
     0
 40
0.0
 41
1.0
 50
0.0
 71
     0
 42
0.2
  3
ARIAL.TTF
  4

1001
ACAD
1000
Arial
1071
        0
  0
ENDTAB
  0
TABLE
  2
VIEW
  5
6
330
0
100
AcDbSymbolTable
 70
     0
  0
ENDTAB
  0
TABLE
  2
UCS
  5
7
330
0
100
AcDbSymbolTable
 70
     0
  0
ENDTAB
  0
TABLE
  2
APPID
  5
9
330
0
100
AcDbSymbolTable
 70
     1
  0
APPID
  5
12
330
9
100
AcDbSymbolTableRecord
100
AcDbRegAppTableRecord
  2
ACAD
 70
     0
  0
ENDTAB
  0
TABLE
  2
DIMSTYLE
  5
A
330
0
100
AcDbSymbolTable
 70
     4
100
AcDbDimStyleTable
 71
     0
  0
DIMSTYLE
105
27
330
A
100
AcDbSymbolTableRecord
100
AcDbDimStyleTableRecord
  2
ISO-25
 70
     0
 41
2.5
 42
0.625
 43
3.75
 44
1.25
 73
     0
 74
     0
 77
     1
 78
     8
140
2.5
141
2.5
143
0.03937007874016
147
0.625
171
     3
172
     1
271
     2
272
     2
274
     3
278
    44
283
     0
284
     8
340
11
  0
DIMSTYLE
105
3E
330
A
100
AcDbSymbolTableRecord
100
AcDbDimStyleTableRecord
  2
Default
 70
     0
  3
<>
 41
4.375
 42
1.05
 44
2.1
 73
     0
 74
     0
 77
     1
 78
     8
140
3.5
146
0.4
147
1.75
178
     3
271
     2
272
     3
284
     8
340
3B
341
3F
342
3F
  0
DIMSTYLE
105
46
330
A
100
AcDbSymbolTableRecord
100
AcDbDimStyleTableRecord
  2
ISO
 70
     0
  3
<>
 41
4.375
 42
1.05
 44
2.1
 73
     0
 74
     0
 77
     1
 78
     8
140
3.5
146
0.4
147
1.75
178
     3
271
     2
272
     3
284
     8
340
3C
341
3F
342
3F
  0
DIMSTYLE
105
47
330
A
100
AcDbSymbolTableRecord
100
AcDbDimStyleTableRecord
  2
zucchetti_unico
 70
     0
  3
<>
 41
3.0
 42
0.9
 44
1.799999999999999
 73
     0
 74
     0
 77
     1
 78
     8
140
3.0
146
0.6
147
1.5
176
   104
177
     3
178
     3
271
     2
272
     2
284
     8
340
3D
  0
ENDTAB
  0
TABLE
  2
BLOCK_RECORD
  5
1
330
0
100
AcDbSymbolTable
 70
     6
  0
BLOCK_RECORD
  5
1F
330
1
100
AcDbSymbolTableRecord
100
AcDbBlockTableRecord
  2
*Model_Space
340
22
  0
BLOCK_RECORD
  5
1B
330
1
100
AcDbSymbolTableRecord
100
AcDbBlockTableRecord
  2
*Paper_Space
340
1E
  0
BLOCK_RECORD
  5
23
330
1
100
AcDbSymbolTableRecord
100
AcDbBlockTableRecord
  2
*Paper_Space0
340
26
  0
BLOCK_RECORD
  5
3F
330
1
100
AcDbSymbolTableRecord
100
AcDbBlockTableRecord
  2
_CLOSED
340
0
  0
BLOCK_RECORD
  5
48
330
1
100
AcDbSymbolTableRecord
100
AcDbBlockTableRecord
  2
a
340
0
102
{BLKREFS
331
B1
102
}
  0
BLOCK_RECORD
  5
B2
330
1
100
AcDbSymbolTableRecord
100
AcDbBlockTableRecord
  2
b
340
0
102
{BLKREFS
331
101
102
}
  0
BLOCK_RECORD
  5
102
330
1
100
AcDbSymbolTableRecord
100
AcDbBlockTableRecord
  2
c
340
0
102
{BLKREFS
331
14F
102
}
  0
BLOCK_RECORD
  5
150
330
1
100
AcDbSymbolTableRecord
100
AcDbBlockTableRecord
  2
d
340
0
102
{BLKREFS
331
19D
102
}
  0
ENDTAB
  0
ENDSEC
  0
SECTION
  2
BLOCKS
  0
BLOCK
  5
20
330
1F
100
AcDbEntity
  8
0
100
AcDbBlockBegin
  2
*Model_Space
 70
     0
 10
0.0
 20
0.0
 30
0.0
  3
*Model_Space
  1

  0
ENDBLK
  5
21
330
1F
100
AcDbEntity
  8
0
100
AcDbBlockEnd
  0
BLOCK
  5
1C
330
1B
100
AcDbEntity
 67
     1
  8
0
100
AcDbBlockBegin
  2
*Paper_Space
 70
     0
 10
0.0
 20
0.0
 30
0.0
  3
*Paper_Space
  1

  0
ENDBLK
  5
1D
330
1B
100
AcDbEntity
 67
     1
  8
0
100
AcDbBlockEnd
  0
BLOCK
  5
24
330
23
100
AcDbEntity
  8
0
100
AcDbBlockBegin
  2
*Paper_Space0
 70
     0
 10
0.0
 20
0.0
 30
0.0
  3
*Paper_Space0
  1

  0
ENDBLK
  5
25
330
23
100
AcDbEntity
  8
0
100
AcDbBlockEnd
  0
BLOCK
  5
40
330
3F
100
AcDbEntity
  8
0
100
AcDbBlockBegin
  2
_CLOSED
 70
     0
 10
0.0
 20
0.0
 30
0.0
  3
_CLOSED
  1

  0
LINE
  5
42
330
3F
100
AcDbEntity
  8
0
  6
ByBlock
 62
     0
370
    -2
100
AcDbLine
 10
-1.0
 20
0.166667
 30
0.0
 11
0.0
 21
0.0
 31
0.0
  0
LINE
  5
43
330
3F
100
AcDbEntity
  8
0
  6
ByBlock
 62
     0
370
    -2
100
AcDbLine
 10
0.0
 20
0.0
 30
0.0
 11
-1.0
 21
-0.166667
 31
0.0
  0
LINE
  5
44
330
3F
100
AcDbEntity
  8
0
  6
ByBlock
 62
     0
370
    -2
100
AcDbLine
 10
-1.0
 20
0.166667
 30
0.0
 11
-1.0
 21
-0.166667
 31
0.0
  0
LINE
  5
45
330
3F
100
AcDbEntity
  8
0
  6
ByBlock
 62
     0
370
    -2
100
AcDbLine
 10
0.0
 20
0.0
 30
0.0
 11
-1.0
 21
0.0
 31
0.0
  0
ENDBLK
  5
41
330
3F
100
AcDbEntity
  8
0
100
AcDbBlockEnd
  0
BLOCK
  5
AF
330
48
100
AcDbEntity
  8
0
100
AcDbBlockBegin
  2
a
 70
     0
 10
230.5855102539062
 20
135.7793426513671
 30
0.0
  3
a
  1

  0
LINE
  5
49
330
48
100
AcDbEntity
  8
0
  6
Continuous
 62
     0
370
    30
100
AcDbLine
 10
302.3257217407226
 20
513.5442085266113
 30
0.0
 11
362.3257217407226
 21
513.5442085266113
 31
0.0
  0
LINE
  5
4A
330
48
100
AcDbEntity
  8
0
  6
Continuous
 62
     0
370
    30
100
AcDbLine
 10
302.8257217407226
 20
522.5442085266113
 30
0.0
 11
361.8257217407226
 21
522.5442085266113
 31
0.0
  0
LINE
  5
4B
330
48
100
AcDbEntity
  8
0
  6
Continuous
 62
     0
370
    30
100
AcDbLine
 10
362.3257217407226
 20
513.5442085266113
 30
0.0
 11
362.3257217407226
 21
522.0442085266113
 31
0.0
  0
LINE
  5
4C
330
48
100
AcDbEntity
  8
0
  6
Continuous
 62
     0
370
     0
100
AcDbLine
 10
302.3257217407226
 20
522.0442085266113
 30
0.0
 11
362.3257217407226
 21
522.0442085266113
 31
0.0
  0
ARC
  5
4D
330
48
100
AcDbEntity
  8
0
  6
Continuous
 62
     0
370
    30
100
AcDbCircle
 10
361.8257217407226
 20
522.0442085266113
 30
0.0
 40
0.5
100
AcDbArc
 50
0.0
 51
89.99999999977674
  0
ARC
  5
4E
330
48
100
AcDbEntity
  8
0
  6
Continuous
 62
     0
370
    30
100
AcDbCircle
 10
302.8257244415062
 20
522.0442058258275
 30
0.0
 40
0.5000027007909783
100
AcDbArc
 50
90.000309485561
 51
179.999690514652
  0
LINE
  5
4F
330
48
100
AcDbEntity
  8
0
  6
Continuous
 62
     0
370
    30
100
AcDbLine
 10
302.3257217407226
 20
513.5442085166113
 30
0.0
 11
302.3257217407226
 21
522.0442085266113
 31
0.0
  0
LINE
  5
50
330
48
100
AcDbEntity
  8
0
  6
Continuous
 62
     0
370
    30
100
AcDbLine
 10
421.3257217407226
 20
522.5442085266113
 30
0.0
 11
421.3257217407226
 21
677.5442225322392
 31
0.0
  0
LINE
  5
51
330
48
100
AcDbEntity
  8
0
  6
Continuous
 62
     0
370
     0
100
AcDbLine
 10
443.3257217407226
 20
677.5442225322392
 30
0.0
 11
421.3257217407226
 21
677.5442225322392
 31
0.0
  0
LINE
  5
52
330
48
100
AcDbEntity
  8
0
  6
Continuous
 62
     0
370
    30
100
AcDbLine
 10
421.3257217407226
 20
757.5442225322392
 30
0.0
 11
421.3257217407226
 21
702.2655593838075
 31
0.0
  0
LINE
  5
53
330
48
100
AcDbEntity
  8
0
  6
Continuous
 62
     0
370
    30
100
AcDbLine
 10
421.3257217407226
 20
677.5442225322392
 30
0.0
 11
421.3257217407226
 21
682.4026558370746
 31
0.0
  0
ELLIPSE
  5
54
330
48
100
AcDbEntity
  8
0
  6
Continuous
 62
     0
370
     0
100
AcDbEllipse
 10
432.3257217407226
 20
702.2655593838075
 30
0.0
 11
-11.0
 21
0.0
 31
0.0
210
0.0
220
0.0
230
-1.0
 40
0.309016710644604
 41
0.0
 42
3.141592653589793
  0
LINE
  5
55
330
48
100
AcDbEntity
  8
0
  6
Continuous
 62
     0
370
    30
100
AcDbLine
 10
421.3257217407226
 20
702.2655593838075
 30
0.0
 11
421.3257217407226
 21
682.4026558370746
 31
0.0
  0
ELLIPSE
  5
56
330
48
100
AcDbEntity
  8
0
  6
Continuous
 62
     0
370
    30
100
AcDbEllipse
 10
432.3257217407226
 20
682.4026558370746
 30
0.0
 11
-11.0
 21
0.0
 31
0.0
210
0.0
220
0.0
230
-1.0
 40
0.309016710644604
 41
0.0000000000000084
 42
3.141592653589793
  0
ELLIPSE
  5
57
330
48
100
AcDbEntity
  8
0
  6
Continuous
 62
     0
370
    30
100
AcDbEllipse
 10
432.3257217407226
 20
682.4026558370746
 30
0.0
 11
-11.0
 21
0.0
 31
0.0
210
0.0
220
0.0
230
-1.0
 40
0.309016710644604
 41
3.141592653589793
 42
6.283185307179586
  0
ELLIPSE
  5
58
330
48
100
AcDbEntity
  8
0
  6
Continuous
 62
     0
370
    30
100
AcDbEllipse
 10
432.3257217407226
 20
682.4026558370746
 30
0.0
 11
8.5
 21
0.0
 31
0.0
210
0.0
220
0.0
230
1.0
 40
0.309016710644604
 41
3.141592653589793
 42
6.283185307179586
  0
ELLIPSE
  5
59
330
48
100
AcDbEntity
  8
0
  6
Continuous
 62
     0
370
    30
100
AcDbEllipse
 10
432.3257217407226
 20
682.4026558370746
 30
0.0
 11
8.5
 21
0.0
 31
0.0
210
0.0
220
0.0
230
1.0
 40
0.309016710644604
 41
6.283185307179586
 42
9.424777960769368
  0
LINE
  5
5A
330
48
100
AcDbEntity
  8
0
  6
Continuous
 62
     0
370
    30
100
AcDbLine
 10
443.3257217407226
 20
682.402655827564
 30
0.0
 11
443.3257217407226
 21
702.2655593838075
 31
0.0
  0
ARC
  5
5B
330
48
100
AcDbEntity
  8
0
  6
Continuous
 62
     0
370
    30
100
AcDbCircle
 10
432.3257097838081
 20
757.5442347824783
 30
0.0
 40
10.99998803616347
100
AcDbArc
 50
359.9999302292717
 51
179.967648588541
  0
LINE
  5
5C
330
48
100
AcDbEntity
  8
0
  6
Continuous
 62
     0
370
    30
100
AcDbLine
 10
443.3257217407226
 20
682.4026558265249
 30
0.0
 11
443.3257217407226
 21
677.5442225322393
 31
0.0
  0
LINE
  5
5D
330
48
100
AcDbEntity
  8
0
  6
Continuous
 62
     0
370
    30
100
AcDbLine
 10
443.3257217407226
 20
702.2655593838075
 30
0.0
 11
443.3257217407226
 21
757.5442213884953
 31
0.0
  0
LINE
  5
5E
330
48
100
AcDbEntity
  8
0
  6
Continuous
 62
     0
370
    30
100
AcDbLine
 10
443.3257217407226
 20
677.5442225422393
 30
0.0
 11
443.3257217407226
 21
522.5442085266113
 31
0.0
  0
LINE
  5
5F
330
48
100
AcDbEntity
  8
0
  6
Continuous
 62
     0
370
    30
100
AcDbLine
 10
402.3257217407226
 20
513.5442085266113
 30
0.0
 11
462.3257217407227
 21
513.5442085266113
 31
0.0
  0
LINE
  5
60
330
48
100
AcDbEntity
  8
0
  6
Continuous
 62
     0
370
    30
100
AcDbLine
 10
402.8257217407226
 20
522.5442085266113
 30
0.0
 11
461.8257217407226
 21
522.5442085266113
 31
0.0
  0
LINE
  5
61
330
48
100
AcDbEntity
  8
0
  6
Continuous
 62
     0
370
    30
100
AcDbLine
 10
462.3257217407227
 20
513.5442085266113
 30
0.0
 11
462.3257217407227
 21
522.0442085266113
 31
0.0
  0
LINE
  5
62
330
48
100
AcDbEntity
  8
0
  6
Continuous
 62
     0
370
     0
100
AcDbLine
 10
402.3257217407226
 20
522.0442085266113
 30
0.0
 11
462.3257217407227
 21
522.0442085266113
 31
0.0
  0
ARC
  5
63
330
48
100
AcDbEntity
  8
0
  6
Continuous
 62
     0
370
    30
100
AcDbCircle
 10
461.8257217407226
 20
522.0442085266113
 30
0.0
 40
0.5
100
AcDbArc
 50
0.0
 51
89.99999999977674
  0
ARC
  5
64
330
48
100
AcDbEntity
  8
0
  6
Continuous
 62
     0
370
    30
100
AcDbCircle
 10
402.8257244415052
 20
522.0442058258287
 30
0.0
 40
0.5000027007898989
100
AcDbArc
 50
90.0003094854409
 51
179.9996905147825
  0
LINE
  5
65
330
48
100
AcDbEntity
  8
0
  6
Continuous
 62
     0
370
    30
100
AcDbLine
 10
402.3257217407226
 20
513.5442085166113
 30
0.0
 11
402.3257217407226
 21
522.0442085266113
 31
0.0
  0
LINE
  5
66
330
48
100
AcDbEntity
  8
0
  6
Continuous
 62
     0
370
     0
100
AcDbLine
 10
332.3257217407226
 20
553.5442085266113
 30
0.0
 11
326.3257217407226
 21
553.5442085266113
 31
0.0
  0
LINE
  5
67
330
48
100
AcDbEntity
  8
0
  6
Continuous
 62
     0
370
     0
100
AcDbLine
 10
332.3257217407226
 20
553.5442085266113
 30
0.0
 11
332.3257217407226
 21
555.5442085266113
 31
0.0
  0
LINE
  5
68
330
48
100
AcDbEntity
  8
0
  6
Continuous
 62
     0
370
     0
100
AcDbLine
 10
326.325859381578
 20
555.5442085266113
 30
0.0
 11
332.3257217407226
 21
555.5442085266113
 31
0.0
  0
LINE
  5
69
330
48
100
AcDbEntity
  8
0
  6
Continuous
 62
     0
370
    30
100
AcDbLine
 10
265.3257217407226
 20
579.5442085266113
 30
0.0
 11
263.8257217407226
 21
579.5442085266113
 31
0.0
  0
LINE
  5
6A
330
48
100
AcDbEntity
  8
0
  6
Continuous
 62
     0
370
    30
100
AcDbLine
 10
265.3257217407226
 20
579.5442085266113
 30
0.0
 11
332.3257217407226
 21
579.5442085266113
 31
0.0
  0
LINE
  5
6B
330
48
100
AcDbEntity
  8
0
  6
Continuous
 62
     0
370
    30
100
AcDbLine
 10
332.3257217407226
 20
579.5442085266113
 30
0.0
 11
337.8257053194602
 21
579.5442085266113
 31
0.0
  0
LINE
  5
6C
330
48
100
AcDbEntity
  8
0
  6
Continuous
 62
     0
370
     0
100
AcDbLine
 10
338.3257217407226
 20
553.5442085266113
 30
0.0
 11
332.3257217407226
 21
553.5442085266113
 31
0.0
  0
LINE
  5
6D
330
48
100
AcDbEntity
  8
0
  6
Continuous
 62
     0
370
     0
100
AcDbLine
 10
332.3257217407226
 20
579.0442085266113
 30
0.0
 11
338.3257056645168
 21
579.0442085266113
 31
0.0
  0
LINE
  5
6E
330
48
100
AcDbEntity
  8
0
  6
Continuous
 62
     0
370
     0
100
AcDbLine
 10
332.3257217407226
 20
555.5442085266113
 30
0.0
 11
332.3257217407226
 21
579.0442085266113
 31
0.0
  0
ARC
  5
6F
330
48
100
AcDbEntity
  8
0
  6
Continuous
 62
     0
370
    30
100
AcDbCircle
 10
263.8257217407226
 20
579.0442085266113
 30
0.0
 40
0.5
100
AcDbArc
 50
89.99999999933026
 51
179.9999999991069
  0
LINE
  5
70
330
48
100
AcDbEntity
  8
0
  6
Continuous
 62
     0
370
     0
100
AcDbLine
 10
265.3257217407226
 20
579.0442085266113
 30
0.0
 11
263.3257217407226
 21
579.0442085266113
 31
0.0
  0
LINE
  5
71
330
48
100
AcDbEntity
  8
0
  6
Continuous
 62
     0
370
     0
100
AcDbLine
 10
265.3257217407226
 20
579.0442085266113
 30
0.0
 11
265.3257217407226
 21
579.5442085266113
 31
0.0
  0
LINE
  5
72
330
48
100
AcDbEntity
  8
0
  6
Continuous
 62
     0
370
     0
100
AcDbLine
 10
265.3257217407226
 20
579.0442085266113
 30
0.0
 11
332.3257217407226
 21
579.0442085266113
 31
0.0
  0
LINE
  5
73
330
48
100
AcDbEntity
  8
0
  6
Continuous
 62
     0
370
     0
100
AcDbLine
 10
332.3257217407226
 20
579.0442085266113
 30
0.0
 11
332.3257217407226
 21
579.5442085266113
 31
0.0
  0
LINE
  5
74
330
48
100
AcDbEntity
  8
0
  6
Continuous
 62
     0
370
    30
100
AcDbLine
 10
319.4513285492293
 20
563.5442085266113
 30
0.0
 11
265.3257217407226
 21
563.5442085266113
 31
0.0
  0
LINE
  5
75
330
48
100
AcDbEntity
  8
0
  6
Continuous
 62
     0
370
    30
100
AcDbLine
 10
265.3257217407226
 20
563.5442085266113
 30
0.0
 11
263.8257217407226
 21
563.5442085266113
 31
0.0
  0
LINE
  5
76
330
48
100
AcDbEntity
  8
0
  6
Continuous
 62
     0
370
    30
100
AcDbLine
 10
263.3257217407226
 20
564.0442085266113
 30
0.0
 11
263.3257217407226
 21
579.0442085266113
 31
0.0
  0
LINE
  5
77
330
48
100
AcDbEntity
  8
0
  6
Continuous
 62
     0
370
     0
100
AcDbLine
 10
265.3257217407226
 20
564.0442085266113
 30
0.0
 11
263.3257217407226
 21
564.0442085266113
 31
0.0
  0
LINE
  5
78
330
48
100
AcDbEntity
  8
0
  6
Continuous
 62
     0
370
     0
100
AcDbLine
 10
265.3257217407226
 20
564.0442085266113
 30
0.0
 11
265.3257217407226
 21
579.0442085266113
 31
0.0
  0
LINE
  5
79
330
48
100
AcDbEntity
  8
0
  6
Continuous
 62
     0
370
     0
100
AcDbLine
 10
319.4513285492293
 20
564.0442085266113
 30
0.0
 11
265.3257217407226
 21
564.0442085266113
 31
0.0
  0
LWPOLYLINE
  5
7A
330
48
100
AcDbEntity
  8
0
  6
Continuous
 62
     0
370
    30
100
AcDbPolyline
 90
       18
 70
     0
 43
0.0
 10
332.3257141113281
 20
555.544189453125
 10
332.2596740722656
 20
556.5803833007812
 10
332.0624694824218
 20
557.6004028320312
 10
331.7379150390625
 20
558.5869140625
 10
331.2925109863281
 20
559.5250244140625
 10
330.7341003417968
 20
560.4007568359374
 10
330.0736999511718
 20
561.202392578125
 10
329.3237915039062
 20
561.9210205078124
 10
328.4972839355468
 20
562.55029296875
 10
327.6060485839843
 20
563.0838012695313
 10
326.6599731445312
 20
563.512451171875
 10
325.6690063476562
 20
563.8233032226562
 10
324.6460876464843
 20
564.0023193359374
 10
323.6083068847656
 20
564.044189453125
 10
322.5690612792968
 20
564.0442504882812
 10
321.5298156738281
 20
564.044189453125
 10
320.4905700683593
 20
564.044189453125
 10
319.4513244628906
 20
564.044189453125
  0
LINE
  5
7B
330
48
100
AcDbEntity
  8
0
  6
Continuous
 62
     0
370
     0
100
AcDbLine
 10
319.4513285492293
 20
564.0442085266113
 30
0.0
 11
319.4513285492293
 21
563.5442085266113
 31
0.0
  0
LINE
  5
7C
330
48
100
AcDbEntity
  8
0
  6
Continuous
 62
     0
370
     0
100
AcDbLine
 10
265.3257217407226
 20
564.0442085266113
 30
0.0
 11
265.3257217407226
 21
563.5442085266113
 31
0.0
  0
ARC
  5
7D
330
48
100
AcDbEntity
  8
0
  6
Continuous
 62
     0
370
    30
100
AcDbCircle
 10
263.8257217407226
 20
564.0442085266113
 30
0.0
 40
0.5
100
AcDbArc
 50
180.0000000002232
 51
270.0
  0
LINE
  5
7E
330
48
100
AcDbEntity
  8
0
  6
Continuous
 62
     0
370
     0
100
AcDbLine
 10
332.3257217407226
 20
553.5442085266113
 30
0.0
 11
332.3257217407226
 21
522.5442085266113
 31
0.0
  0
LINE
  5
7F
330
48
100
AcDbEntity
  8
0
  6
Continuous
 62
     0
370
    30
100
AcDbLine
 10
322.7119207996818
 20
563.5442085266049
 30
0.0
 11
319.4513285492293
 21
563.5442085266113
 31
0.0
  0
LWPOLYLINE
  5
80
330
48
100
AcDbEntity
  8
0
  6
Continuous
 62
     0
370
    30
100
AcDbPolyline
 90
       15
 70
     0
 43
0.0
 10
332.3257141113281
 20
555.544189453125
 10
332.2582092285156
 20
556.5701904296875
 10
332.0571289062499
 20
557.5778808593749
 10
331.7258300781249
 20
558.5491333007812
 10
331.2702941894531
 20
559.4663696289062
 10
330.6982116699218
 20
560.3121337890625
 10
330.0204162597656
 20
561.070556640625
 10
329.250732421875
 20
561.7278442382812
 10
328.4082641601562
 20
562.2772827148437
 10
327.5161437988281
 20
562.7225952148437
 10
326.5956726074218
 20
563.0740356445312
 10
325.6580200195312
 20
563.3344116210937
 10
324.7074890136719
 20
563.4959106445312
 10
323.7402954101562
 20
563.5441284179687
 10
322.7119140625
 20
563.544189453125
  0
LINE
  5
81
330
48
100
AcDbEntity
  8
0
  6
Continuous
 62
     0
370
    30
100
AcDbLine
 10
326.3257217407226
 20
553.5442085366113
 30
0.0
 11
326.3257217407226
 21
522.5442085266113
 31
0.0
  0
LINE
  5
82
330
48
100
AcDbEntity
  8
0
  6
Continuous
 62
     0
370
    30
100
AcDbLine
 10
338.3257217407226
 20
553.5442085366113
 30
0.0
 11
338.3257217407226
 21
522.5442085266113
 31
0.0
  0
LWPOLYLINE
  5
83
330
48
100
AcDbEntity
  8
0
  6
Continuous
 62
     0
370
    30
100
AcDbPolyline
 90
       16
 70
     0
 43
0.0
 10
326.3261718749999
 20
555.544189453125
 10
326.3154907226562
 20
556.243896484375
 10
326.2809448242187
 20
556.9432373046875
 10
326.2187805175781
 20
557.6405639648437
 10
326.1253051757812
 20
558.3342895507812
 10
325.9965515136718
 20
559.0223999023437
 10
325.8269653320312
 20
559.7014160156249
 10
325.6103515625
 20
560.3670043945312
 10
325.3392944335937
 20
561.01220703125
 10
325.0051574707031
 20
561.6270141601562
 10
324.5987548828125
 20
562.1964721679687
 10
324.1125488281249
 20
562.6990356445312
 10
323.5447082519531
 20
563.1067504882812
 10
322.9059753417968
 20
563.3899536132812
 10
322.2212219238281
 20
563.5291137695312
 10
321.5216064453124
 20
563.5442504882812
  0
ARC
  5
84
330
48
100
AcDbEntity
  8
0
  6
Continuous
 62
     0
370
    30
100
AcDbCircle
 10
337.8257022160149
 20
579.0442048839858
 30
0.0
 40
0.5000036430904088
100
AcDbArc
 50
0.0004174110847983
 51
89.98029570718586
  0
LINE
  5
85
330
48
100
AcDbEntity
  8
0
  6
Continuous
 62
     0
370
    30
100
AcDbLine
 10
338.3257217407226
 20
579.0442085266113
 30
0.0
 11
338.3257217407226
 21
553.5442085266113
 31
0.0
  0
LINE
  5
86
330
48
100
AcDbEntity
  8
0
  6
Continuous
 62
     0
370
    30
100
AcDbLine
 10
326.325859381578
 20
555.5442085266113
 30
0.0
 11
326.3257217407226
 21
553.5442085266113
 31
0.0
  0
LINE
  5
87
330
48
100
AcDbEntity
  8
0
  6
Continuous
 62
     0
370
    30
100
AcDbLine
 10
502.3257217407226
 20
513.5442085266113
 30
0.0
 11
562.3257217407227
 21
513.5442085266113
 31
0.0
  0
LINE
  5
88
330
48
100
AcDbEntity
  8
0
  6
Continuous
 62
     0
370
    30
100
AcDbLine
 10
502.8257217407226
 20
522.5442085266113
 30
0.0
 11
561.8257217407226
 21
522.5442085266113
 31
0.0
  0
LINE
  5
89
330
48
100
AcDbEntity
  8
0
  6
Continuous
 62
     0
370
    30
100
AcDbLine
 10
562.3257217407227
 20
513.5442085266113
 30
0.0
 11
562.3257217407227
 21
522.0442085266113
 31
0.0
  0
LINE
  5
8A
330
48
100
AcDbEntity
  8
0
  6
Continuous
 62
     0
370
     0
100
AcDbLine
 10
502.3257217407226
 20
522.0442085266113
 30
0.0
 11
562.3257217407227
 21
522.0442085266113
 31
0.0
  0
ARC
  5
8B
330
48
100
AcDbEntity
  8
0
  6
Continuous
 62
     0
370
    30
100
AcDbCircle
 10
561.8257217407226
 20
522.0442085266113
 30
0.0
 40
0.5
100
AcDbArc
 50
0.0
 51
89.99999999977674
  0
ARC
  5
8C
330
48
100
AcDbEntity
  8
0
  6
Continuous
 62
     0
370
    30
100
AcDbCircle
 10
502.8257244415057
 20
522.0442058258277
 30
0.0
 40
0.5000027007906729
100
AcDbArc
 50
90.00030948549422
 51
179.9996905146633
  0
LINE
  5
8D
330
48
100
AcDbEntity
  8
0
  6
Continuous
 62
     0
370
    30
100
AcDbLine
 10
502.3257217407226
 20
513.5442085166113
 30
0.0
 11
502.3257217407226
 21
522.0442085266113
 31
0.0
  0
LINE
  5
8E
330
48
100
AcDbEntity
  8
0
  6
Continuous
 62
     0
370
    30
100
AcDbLine
 10
545.2001149322159
 20
563.5442085266113
 30
0.0
 11
541.9395226817634
 21
563.5442085266049
 31
0.0
  0
LINE
  5
8F
330
48
100
AcDbEntity
  8
0
  6
Continuous
 62
     0
370
     0
100
AcDbLine
 10
532.3257217407226
 20
555.5442085266113
 30
0.0
 11
532.3257217407226
 21
553.5442085266113
 31
0.0
  0
LINE
  5
90
330
48
100
AcDbEntity
  8
0
  6
Continuous
 62
     0
370
     0
100
AcDbLine
 10
538.3257217407226
 20
553.5442085266113
 30
0.0
 11
532.3257217407226
 21
553.5442085266113
 31
0.0
  0
LINE
  5
91
330
48
100
AcDbEntity
  8
0
  6
Continuous
 62
     0
370
     0
100
AcDbLine
 10
532.3257217407226
 20
555.5442085266113
 30
0.0
 11
538.3255840998672
 21
555.5442085266113
 31
0.0
  0
LINE
  5
92
330
48
100
AcDbEntity
  8
0
  6
Continuous
 62
     0
370
    30
100
AcDbLine
 10
599.3257217407226
 20
579.5442085266113
 30
0.0
 11
600.8257217407226
 21
579.5442085266113
 31
0.0
  0
LINE
  5
93
330
48
100
AcDbEntity
  8
0
  6
Continuous
 62
     0
370
    30
100
AcDbLine
 10
526.8257381619851
 20
579.5442085266113
 30
0.0
 11
532.3257217407226
 21
579.5442085266113
 31
0.0
  0
LINE
  5
94
330
48
100
AcDbEntity
  8
0
  6
Continuous
 62
     0
370
    30
100
AcDbLine
 10
599.3257217407226
 20
579.5442085266113
 30
0.0
 11
532.3257217407226
 21
579.5442085266113
 31
0.0
  0
LINE
  5
95
330
48
100
AcDbEntity
  8
0
  6
Continuous
 62
     0
370
     0
100
AcDbLine
 10
532.3257217407226
 20
553.5442085266113
 30
0.0
 11
526.3257217407226
 21
553.5442085266113
 31
0.0
  0
LINE
  5
96
330
48
100
AcDbEntity
  8
0
  6
Continuous
 62
     0
370
     0
100
AcDbLine
 10
532.3257217407226
 20
579.0442085266113
 30
0.0
 11
532.3257217407226
 21
555.5442085266113
 31
0.0
  0
LINE
  5
97
330
48
100
AcDbEntity
  8
0
  6
Continuous
 62
     0
370
     0
100
AcDbLine
 10
526.3257378169284
 20
579.0442085266113
 30
0.0
 11
532.3257217407226
 21
579.0442085266113
 31
0.0
  0
LINE
  5
98
330
48
100
AcDbEntity
  8
0
  6
Continuous
 62
     0
370
     0
100
AcDbLine
 10
599.3257217407226
 20
579.0442085266113
 30
0.0
 11
599.3257217407226
 21
579.5442085266113
 31
0.0
  0
LINE
  5
99
330
48
100
AcDbEntity
  8
0
  6
Continuous
 62
     0
370
     0
100
AcDbLine
 10
532.3257217407226
 20
579.5442085266113
 30
0.0
 11
532.3257217407226
 21
579.0442085266113
 31
0.0
  0
LINE
  5
9A
330
48
100
AcDbEntity
  8
0
  6
Continuous
 62
     0
370
     0
100
AcDbLine
 10
599.3257217407226
 20
579.0442085266113
 30
0.0
 11
532.3257217407226
 21
579.0442085266113
 31
0.0
  0
LINE
  5
9B
330
48
100
AcDbEntity
  8
0
  6
Continuous
 62
     0
370
     0
100
AcDbLine
 10
599.3257217407226
 20
579.0442085266113
 30
0.0
 11
601.3257217407226
 21
579.0442085266113
 31
0.0
  0
ARC
  5
9C
330
48
100
AcDbEntity
  8
0
  6
Continuous
 62
     0
370
    30
100
AcDbCircle
 10
600.8257217407226
 20
579.0442085266113
 30
0.0
 40
0.5
100
AcDbArc
 50
0.000000000892998
 51
90.00000000066973
  0
LWPOLYLINE
  5
9D
330
48
100
AcDbEntity
  8
0
  6
Continuous
 62
     0
370
    30
100
AcDbPolyline
 90
       18
 70
     0
 43
0.0
 10
545.2001342773437
 20
564.044189453125
 10
544.160888671875
 20
564.044189453125
 10
543.1216430664062
 20
564.044189453125
 10
542.0823974609374
 20
564.0442504882812
 10
541.0431518554687
 20
564.044189453125
 10
540.0053710937499
 20
564.0023193359374
 10
538.982421875
 20
563.8233032226562
 10
537.991455078125
 20
563.512451171875
 10
537.04541015625
 20
563.0838012695313
 10
536.1541748046875
 20
562.55029296875
 10
535.32763671875
 20
561.9210205078124
 10
534.5777587890625
 20
561.202392578125
 10
533.9173583984375
 20
560.4007568359374
 10
533.3589477539062
 20
559.5250244140625
 10
532.9135131835937
 20
558.5869140625
 10
532.5889892578125
 20
557.6004028320312
 10
532.3917846679687
 20
556.5803833007812
 10
532.3257446289062
 20
555.544189453125
  0
LINE
  5
9E
330
48
100
AcDbEntity
  8
0
  6
Continuous
 62
     0
370
     0
100
AcDbLine
 10
545.2001149303064
 20
564.0442085266113
 30
0.0
 11
599.3257217407226
 21
564.0442085266113
 31
0.0
  0
LINE
  5
9F
330
48
100
AcDbEntity
  8
0
  6
Continuous
 62
     0
370
     0
100
AcDbLine
 10
599.3257217407226
 20
564.0442085266113
 30
0.0
 11
599.3257217407226
 21
579.0442085266113
 31
0.0
  0
LINE
  5
A0
330
48
100
AcDbEntity
  8
0
  6
Continuous
 62
     0
370
    30
100
AcDbLine
 10
599.3257217407226
 20
563.5442085266113
 30
0.0
 11
600.8257217407226
 21
563.5442085266113
 31
0.0
  0
LINE
  5
A1
330
48
100
AcDbEntity
  8
0
  6
Continuous
 62
     0
370
    30
100
AcDbLine
 10
545.2001149303064
 20
563.5442085266113
 30
0.0
 11
599.3257217407226
 21
563.5442085266113
 31
0.0
  0
LINE
  5
A2
330
48
100
AcDbEntity
  8
0
  6
Continuous
 62
     0
370
     0
100
AcDbLine
 10
599.3257217407226
 20
564.0442085266113
 30
0.0
 11
601.3257217407226
 21
564.0442085266113
 31
0.0
  0
LINE
  5
A3
330
48
100
AcDbEntity
  8
0
  6
Continuous
 62
     0
370
    30
100
AcDbLine
 10
601.3257217407226
 20
564.0442085266113
 30
0.0
 11
601.3257217407226
 21
579.0442085266113
 31
0.0
  0
ARC
  5
A4
330
48
100
AcDbEntity
  8
0
  6
Continuous
 62
     0
370
    30
100
AcDbCircle
 10
600.8257217407226
 20
564.0442085266113
 30
0.0
 40
0.5
100
AcDbArc
 50
270.000000000893
 51
0.0000000006697485
  0
LINE
  5
A5
330
48
100
AcDbEntity
  8
0
  6
Continuous
 62
     0
370
     0
100
AcDbLine
 10
599.3257217407226
 20
564.0442085266113
 30
0.0
 11
599.3257217407226
 21
563.5442085266113
 31
0.0
  0
LINE
  5
A6
330
48
100
AcDbEntity
  8
0
  6
Continuous
 62
     0
370
     0
100
AcDbLine
 10
545.2001149322159
 20
563.5442085266113
 30
0.0
 11
545.2001149322159
 21
564.0442085266113
 31
0.0
  0
LINE
  5
A7
330
48
100
AcDbEntity
  8
0
  6
Continuous
 62
     0
370
     0
100
AcDbLine
 10
532.3257217407226
 20
553.5442085266113
 30
0.0
 11
532.3257217407226
 21
522.5442085266113
 31
0.0
  0
LWPOLYLINE
  5
A8
330
48
100
AcDbEntity
  8
0
  6
Continuous
 62
     0
370
    30
100
AcDbPolyline
 90
       15
 70
     0
 43
0.0
 10
541.9395141601562
 20
563.544189453125
 10
540.9111328125
 20
563.5441284179687
 10
539.9439697265624
 20
563.4959106445312
 10
538.993408203125
 20
563.3344116210937
 10
538.0557861328124
 20
563.0740356445312
 10
537.1353149414062
 20
562.7225952148437
 10
536.2431640625
 20
562.2772827148437
 10
535.4006958007812
 20
561.7278442382812
 10
534.6310424804687
 20
561.070556640625
 10
533.9532470703125
 20
560.3121337890625
 10
533.3811645507812
 20
559.4663696289062
 10
532.9255981445312
 20
558.5491333007812
 10
532.5942993164062
 20
557.5778808593749
 10
532.3932495117187
 20
556.5701904296875
 10
532.3257446289062
 20
555.544189453125
  0
LINE
  5
A9
330
48
100
AcDbEntity
  8
0
  6
Continuous
 62
     0
370
    30
100
AcDbLine
 10
538.3257217407226
 20
553.5442085366113
 30
0.0
 11
538.3257217407226
 21
522.5442085266113
 31
0.0
  0
LINE
  5
AA
330
48
100
AcDbEntity
  8
0
  6
Continuous
 62
     0
370
    30
100
AcDbLine
 10
526.3257217407226
 20
553.5442085366113
 30
0.0
 11
526.3257217407226
 21
522.5442085266113
 31
0.0
  0
LWPOLYLINE
  5
AB
330
48
100
AcDbEntity
  8
0
  6
Continuous
 62
     0
370
    30
100
AcDbPolyline
 90
       16
 70
     0
 43
0.0
 10
538.3252563476562
 20
555.544189453125
 10
538.3359375
 20
556.243896484375
 10
538.3704833984374
 20
556.9432373046875
 10
538.4326782226562
 20
557.6405639648437
 10
538.5261230468749
 20
558.3342895507812
 10
538.6549072265625
 20
559.0223999023437
 10
538.824462890625
 20
559.7014160156249
 10
539.0410766601562
 20
560.3670043945312
 10
539.3121337890625
 20
561.01220703125
 10
539.6463012695313
 20
561.6270141601562
 10
540.0526733398437
 20
562.1964721679687
 10
540.5388793945312
 20
562.6990356445312
 10
541.1067504882812
 20
563.1067504882812
 10
541.7454833984375
 20
563.3899536132812
 10
542.4302368164062
 20
563.5291137695312
 10
543.1298217773437
 20
563.5442504882812
  0
ARC
  5
AC
330
48
100
AcDbEntity
  8
0
  6
Continuous
 62
     0
370
    30
100
AcDbCircle
 10
526.8257412654311
 20
579.0442048839862
 30
0.0
 40
0.5000036430906256
100
AcDbArc
 50
90.01970429290372
 51
179.9995825889583
  0
LINE
  5
AD
330
48
100
AcDbEntity
  8
0
  6
Continuous
 62
     0
370
    30
100
AcDbLine
 10
526.3257217407226
 20
579.0442085266113
 30
0.0
 11
526.3257217407226
 21
553.5442085266113
 31
0.0
  0
LINE
  5
AE
330
48
100
AcDbEntity
  8
0
  6
Continuous
 62
     0
370
    30
100
AcDbLine
 10
538.3255840998672
 20
555.5442085266113
 30
0.0
 11
538.3257217407226
 21
553.5442085266113
 31
0.0
  0
ENDBLK
  5
B0
330
48
100
AcDbEntity
  8
0
100
AcDbBlockEnd
  0
BLOCK
  5
FF
330
B2
100
AcDbEntity
  8
0
100
AcDbBlockBegin
  2
b
 70
     0
 10
230.5855102539062
 20
150.9810371398925
 30
0.0
  3
b
  1

  0
ARC
  5
B3
330
B2
100
AcDbEntity
  8
0
  6
Continuous
 62
     0
370
     0
100
AcDbCircle
 10
332.3257255554199
 20
312.6437187194824
 30
0.0
 40
29.5
100
AcDbArc
 50
0.0
 51
168.2647425251272
  0
ARC
  5
B4
330
B2
100
AcDbEntity
  8
0
  6
Continuous
 62
     0
370
     0
100
AcDbCircle
 10
332.3257255554199
 20
312.6437187194824
 30
0.0
 40
29.5
100
AcDbArc
 50
191.7352574739797
 51
359.9999999991069
  0
ARC
  5
B5
330
B2
100
AcDbEntity
  8
0
  6
Continuous
 62
     0
370
    30
100
AcDbCircle
 10
332.3257255554199
 20
312.6437187194824
 30
0.0
 40
6.15
100
AcDbArc
 50
257.319616507541
 51
359.9999999991069
  0
ARC
  5
B6
330
B2
100
AcDbEntity
  8
0
  6
Continuous
 62
     0
370
    30
100
AcDbCircle
 10
332.3257255554199
 20
312.6437187194824
 30
0.0
 40
6.15
100
AcDbArc
 50
0.0
 51
102.6803834915658
  0
ARC
  5
B7
330
B2
100
AcDbEntity
  8
0
  6
Continuous
 62
     0
370
    30
100
AcDbCircle
 10
332.3257255554199
 20
312.6437187413381
 30
0.0
 40
30.0
100
AcDbArc
 50
191.5369590323403
 51
359.9999999991069
  0
ARC
  5
B8
330
B2
100
AcDbEntity
  8
0
  6
Continuous
 62
     0
370
    30
100
AcDbCircle
 10
332.3257255554199
 20
312.6437187413381
 30
0.0
 40
30.0
100
AcDbArc
 50
0.0
 51
168.4630409667666
  0
ARC
  5
B9
330
B2
100
AcDbEntity
  8
0
  6
Continuous
 62
     0
370
    30
100
AcDbCircle
 10
432.3257255554199
 20
312.6437119442166
 30
0.0
 40
11.0
100
AcDbArc
 50
0.000000000446499
 51
180.0
  0
LINE
  5
BA
330
B2
100
AcDbEntity
  8
0
  6
Continuous
 62
     0
370
    30
100
AcDbLine
 10
421.3257255554199
 20
312.6437119442166
 30
0.0
 11
421.3257255554199
 21
156.5591821848381
 31
0.0
  0
ELLIPSE
  5
BB
330
B2
100
AcDbEntity
  8
0
  6
Continuous
 62
     0
370
     0
100
AcDbEllipse
 10
432.3257255554199
 20
156.5591821848381
 30
0.0
 11
-11.0
 21
0.0
 31
0.0
210
0.0
220
0.0
230
1.0
 40
0.9510566219922324
 41
6.283185307179586
 42
9.424777960769379
  0
LINE
  5
BC
330
B2
100
AcDbEntity
  8
0
  6
Continuous
 62
     0
370
    30
100
AcDbLine
 10
421.3257255554199
 20
156.5591821848381
 30
0.0
 11
421.3257255554199
 21
150.1053410176952
 31
0.0
  0
ELLIPSE
  5
BD
330
B2
100
AcDbEntity
  8
0
  6
Continuous
 62
     0
370
    30
100
AcDbEllipse
 10
432.3257255554199
 20
150.1053410176953
 30
0.0
 11
-11.0
 21
0.0
 31
0.0
210
0.0
220
0.0
230
1.0
 40
0.9510566219922324
 41
0.0000000000000053
 42
3.141592653589793
  0
LINE
  5
BE
330
B2
100
AcDbEntity
  8
0
  6
Continuous
 62
     0
370
    30
100
AcDbLine
 10
443.3257255554199
 20
150.1053410146051
 30
0.0
 11
443.3257255554199
 21
156.5591821848381
 31
0.0
  0
LINE
  5
BF
330
B2
100
AcDbEntity
  8
0
  6
Continuous
 62
     0
370
    30
100
AcDbLine
 10
443.3257255554199
 20
156.5591821848381
 30
0.0
 11
443.3257255554199
 21
312.6437119442166
 31
0.0
  0
ARC
  5
C0
330
B2
100
AcDbEntity
  8
0
  6
Continuous
 62
     0
370
     0
100
AcDbCircle
 10
432.3257255554199
 20
312.6437187194824
 30
0.0
 40
29.5
100
AcDbArc
 50
93.8874415419224
 51
179.9999999995534
  0
ARC
  5
C1
330
B2
100
AcDbEntity
  8
0
  6
Continuous
 62
     0
370
     0
100
AcDbCircle
 10
432.3257255554199
 20
312.6437187194824
 30
0.0
 40
29.5
100
AcDbArc
 50
0.0
 51
86.11255845763109
  0
ARC
  5
C2
330
B2
100
AcDbEntity
  8
0
  6
Continuous
 62
     0
370
     0
100
AcDbCircle
 10
432.3257255554199
 20
312.6437187194824
 30
0.0
 40
29.5
100
AcDbArc
 50
291.8934280886467
 51
359.9999999991069
  0
ARC
  5
C3
330
B2
100
AcDbEntity
  8
0
  6
Continuous
 62
     0
370
     0
100
AcDbCircle
 10
432.3257255554199
 20
312.6437187194824
 30
0.0
 40
29.5
100
AcDbArc
 50
179.9999999995534
 51
248.1065719100137
  0
ARC
  5
C4
330
B2
100
AcDbEntity
  8
0
  6
Continuous
 62
     0
370
    30
100
AcDbCircle
 10
432.3257255554199
 20
327.3937187194824
 30
0.0
 40
2.25
100
AcDbArc
 50
179.9999999995534
 51
359.9999999991069
  0
ARC
  5
C5
330
B2
100
AcDbEntity
  8
0
  6
Continuous
 62
     0
370
    30
100
AcDbCircle
 10
432.3257255554199
 20
327.3937187194824
 30
0.0
 40
2.25
100
AcDbArc
 50
152.7339555488883
 51
179.9999999995534
  0
ARC
  5
C6
330
B2
100
AcDbEntity
  8
0
  6
Continuous
 62
     0
370
    30
100
AcDbCircle
 10
432.3257255554199
 20
327.3937187194824
 30
0.0
 40
2.25
100
AcDbArc
 50
0.0
 51
27.2660444506652
  0
ARC
  5
C7
330
B2
100
AcDbEntity
  8
0
  6
Continuous
 62
     0
370
    30
100
AcDbCircle
 10
432.3257255554199
 20
312.6437187413381
 30
0.0
 40
30.0
100
AcDbArc
 50
291.5101882661643
 51
359.9999999991069
  0
ARC
  5
C8
330
B2
100
AcDbEntity
  8
0
  6
Continuous
 62
     0
370
    30
100
AcDbCircle
 10
432.3257255554199
 20
312.6437187413381
 30
0.0
 40
30.0
100
AcDbArc
 50
179.9999999995534
 51
248.4898117324961
  0
ARC
  5
C9
330
B2
100
AcDbEntity
  8
0
  6
Continuous
 62
     0
370
    30
100
AcDbCircle
 10
432.3257255554199
 20
312.6437187413381
 30
0.0
 40
30.0
100
AcDbArc
 50
93.82255372904161
 51
179.9999999995534
  0
ARC
  5
CA
330
B2
100
AcDbEntity
  8
0
  6
Continuous
 62
     0
370
    30
100
AcDbCircle
 10
432.3257255554199
 20
312.6437187413381
 30
0.0
 40
30.0
100
AcDbArc
 50
0.0
 51
86.17744627051187
  0
ARC
  5
CB
330
B2
100
AcDbEntity
  8
0
  6
Continuous
 62
     0
370
    30
100
AcDbCircle
 10
432.3257255554199
 20
327.3937185883482
 30
0.0
 40
2.0
100
AcDbArc
 50
180.000000000893
 51
0.000000000446499
  0
LINE
  5
CC
330
B2
100
AcDbEntity
  8
0
  6
Continuous
 62
     0
370
    30
100
AcDbLine
 10
430.3257255554199
 20
327.3937185883482
 30
0.0
 11
430.3257255554199
 21
333.9735167443389
 31
0.0
  0
ELLIPSE
  5
CD
330
B2
100
AcDbEntity
  8
0
  6
Continuous
 62
     0
370
     0
100
AcDbEllipse
 10
432.3257255554199
 20
333.9735167443389
 30
0.0
 11
2.0
 21
0.0
 31
0.0
210
0.0
220
0.0
230
-1.0
 40
0.3420201844009378
 41
0.0
 42
3.141592653589793
  0
ELLIPSE
  5
CE
330
B2
100
AcDbEntity
  8
0
  6
Continuous
 62
     0
370
     0
100
AcDbEllipse
 10
432.3257255554199
 20
348.0689058318749
 30
0.0
 11
0.100000023841858
 21
0.0
 31
0.0
210
0.0
220
0.0
230
-1.0
 40
0.3420201844009378
 41
0.0
 42
3.141592653589793
  0
ELLIPSE
  5
CF
330
B2
100
AcDbEntity
  8
0
  6
Continuous
 62
     0
370
     0
100
AcDbEllipse
 10
432.3257255554199
 20
348.0689058318749
 30
0.0
 11
0.100000023841858
 21
0.0
 31
0.0
210
0.0
220
0.0
230
-1.0
 40
0.3420201844009378
 41
3.141592653589793
 42
6.283185307179586
  0
LINE
  5
D0
330
B2
100
AcDbEntity
  8
0
  6
Continuous
 62
     0
370
    30
100
AcDbLine
 10
430.3257255554199
 20
333.9735167443389
 30
0.0
 11
430.3257255554199
 21
346.283489903191
 31
0.0
  0
ELLIPSE
  5
D1
330
B2
100
AcDbEntity
  8
0
  6
Continuous
 62
     0
370
     0
100
AcDbEllipse
 10
432.3257255554199
 20
346.283489903191
 30
0.0
 11
2.0
 21
0.0
 31
0.0
210
0.0
220
0.0
230
-1.0
 40
0.3420201844009378
 41
0.0
 42
3.141592653589793
  0
LWPOLYLINE
  5
D2
330
B2
100
AcDbEntity
  8
0
  6
Continuous
 62
     0
370
    30
100
AcDbPolyline
 90
       13
 70
     0
 43
0.0
 10
434.3257141113281
 20
346.2834777832031
 10
434.2561645507812
 20
346.7934570312499
 10
434.0536499023437
 20
347.2665405273437
 10
433.732421875
 20
347.6686706542968
 10
433.3165588378906
 20
347.9715881347656
 10
432.8367614746094
 20
348.1565551757812
 10
432.3257446289062
 20
348.2176208496093
 10
431.8147277832031
 20
348.1565551757812
 10
431.3348693847656
 20
347.9716186523437
 10
430.9190979003906
 20
347.6686401367187
 10
430.5979614257812
 20
347.2665405273437
 10
430.3953857421874
 20
346.7934875488281
 10
430.3257141113281
 20
346.2834777832031
  0
LINE
  5
D3
330
B2
100
AcDbEntity
  8
0
  6
Continuous
 62
     0
370
    30
100
AcDbLine
 10
434.3257255554199
 20
346.2834899125879
 30
0.0
 11
434.3257255554199
 21
333.9735167443389
 31
0.0
  0
LINE
  5
D4
330
B2
100
AcDbEntity
  8
0
  6
Continuous
 62
     0
370
    30
100
AcDbLine
 10
434.3257255554199
 20
333.9735167443389
 30
0.0
 11
434.3257255554199
 21
327.3937185883482
 31
0.0
  0
ARC
  5
D5
330
B2
100
AcDbEntity
  8
0
  6
Continuous
 62
     0
370
     0
100
AcDbCircle
 10
265.3257255554199
 20
316.6437162279332
 30
0.0
 40
1.5
100
AcDbArc
 50
90.0
 51
179.9999999997767
  0
LINE
  5
D6
330
B2
100
AcDbEntity
  8
0
  6
Continuous
 62
     0
370
     0
100
AcDbLine
 10
263.8257255554199
 20
316.6437162279332
 30
0.0
 11
263.8257255554199
 21
308.6437162279332
 31
0.0
  0
ARC
  5
D7
330
B2
100
AcDbEntity
  8
0
  6
Continuous
 62
     0
370
     0
100
AcDbCircle
 10
265.3257255554199
 20
308.6437162279332
 30
0.0
 40
1.5
100
AcDbArc
 50
180.0000000002232
 51
270.0
  0
LINE
  5
D8
330
B2
100
AcDbEntity
  8
0
  6
Continuous
 62
     0
370
     0
100
AcDbLine
 10
265.3257255554199
 20
307.1437162279333
 30
0.0
 11
332.3257255554199
 21
307.1437162279333
 31
0.0
  0
ARC
  5
D9
330
B2
100
AcDbEntity
  8
0
  6
Continuous
 62
     0
370
     0
100
AcDbCircle
 10
332.3257091341425
 20
312.6437162279332
 30
0.0
 40
5.500000000024514
100
AcDbArc
 50
270.0001710672525
 51
89.99982893230097
  0
LINE
  5
DA
330
B2
100
AcDbEntity
  8
0
  6
Continuous
 62
     0
370
     0
100
AcDbLine
 10
265.3257255554199
 20
318.1437162279332
 30
0.0
 11
332.3257255554199
 21
318.1437162279332
 31
0.0
  0
ARC
  5
DB
330
B2
100
AcDbEntity
  8
0
  6
Continuous
 62
     0
370
    30
100
AcDbCircle
 10
332.3257094792071
 20
312.6437162497889
 30
0.0
 40
6.000000000021535
100
AcDbArc
 50
270.0001535165237
 51
89.99984648302975
  0
LINE
  5
DC
330
B2
100
AcDbEntity
  8
0
  6
Continuous
 62
     0
370
     0
100
AcDbLine
 10
265.3257255554199
 20
318.6437162497889
 30
0.0
 11
265.3257255554199
 21
318.1437162279333
 31
0.0
  0
LINE
  5
DD
330
B2
100
AcDbEntity
  8
0
  6
Continuous
 62
     0
370
     0
100
AcDbLine
 10
332.3257255554199
 20
318.1437162279333
 30
0.0
 11
332.3257255554199
 21
318.6437162497889
 31
0.0
  0
LINE
  5
DE
330
B2
100
AcDbEntity
  8
0
  6
Continuous
 62
     0
370
    30
100
AcDbLine
 10
265.3257255554199
 20
318.6437162497889
 30
0.0
 11
332.3257255554199
 21
318.6437162497889
 31
0.0
  0
ARC
  5
DF
330
B2
100
AcDbEntity
  8
0
  6
Continuous
 62
     0
370
    30
100
AcDbCircle
 10
265.3257255554199
 20
316.6437162497889
 30
0.0
 40
2.0
100
AcDbArc
 50
90.0
 51
179.9999999997767
  0
LINE
  5
E0
330
B2
100
AcDbEntity
  8
0
  6
Continuous
 62
     0
370
     0
100
AcDbLine
 10
263.8257255554199
 20
316.6437162497889
 30
0.0
 11
263.3257255554199
 21
316.6437162497889
 31
0.0
  0
LINE
  5
E1
330
B2
100
AcDbEntity
  8
0
  6
Continuous
 62
     0
370
    30
100
AcDbLine
 10
263.3257255554199
 20
316.6437162497889
 30
0.0
 11
263.3257255554199
 21
308.643716249789
 31
0.0
  0
LINE
  5
E2
330
B2
100
AcDbEntity
  8
0
  6
Continuous
 62
     0
370
     0
100
AcDbLine
 10
263.8257255554199
 20
308.643716249789
 30
0.0
 11
263.3257255554199
 21
308.643716249789
 31
0.0
  0
ARC
  5
E3
330
B2
100
AcDbEntity
  8
0
  6
Continuous
 62
     0
370
    30
100
AcDbCircle
 10
265.3257255554199
 20
308.643716249789
 30
0.0
 40
2.0
100
AcDbArc
 50
180.0000000002232
 51
270.0
  0
LINE
  5
E4
330
B2
100
AcDbEntity
  8
0
  6
Continuous
 62
     0
370
     0
100
AcDbLine
 10
265.3257255554199
 20
306.643716249789
 30
0.0
 11
265.3257255554199
 21
307.1437162279333
 31
0.0
  0
LINE
  5
E5
330
B2
100
AcDbEntity
  8
0
  6
Continuous
 62
     0
370
    30
100
AcDbLine
 10
265.3257255554199
 20
306.643716249789
 30
0.0
 11
332.3257255554199
 21
306.643716249789
 31
0.0
  0
LINE
  5
E6
330
B2
100
AcDbEntity
  8
0
  6
Continuous
 62
     0
370
     0
100
AcDbLine
 10
332.3257255554199
 20
306.643716249789
 30
0.0
 11
332.3257255554199
 21
307.1437162279333
 31
0.0
  0
ARC
  5
E7
330
B2
100
AcDbEntity
  8
0
  6
Continuous
 62
     0
370
     0
100
AcDbCircle
 10
532.3257255554199
 20
312.6437187194824
 30
0.0
 40
29.5
100
AcDbArc
 50
11.73525747442621
 51
179.9999999995534
  0
ARC
  5
E8
330
B2
100
AcDbEntity
  8
0
  6
Continuous
 62
     0
370
     0
100
AcDbCircle
 10
532.3257255554199
 20
312.6437187194824
 30
0.0
 40
29.5
100
AcDbArc
 50
179.9999999995534
 51
348.2647425246806
  0
ARC
  5
E9
330
B2
100
AcDbEntity
  8
0
  6
Continuous
 62
     0
370
    30
100
AcDbCircle
 10
532.3257255554199
 20
312.6437187194824
 30
0.0
 40
6.15
100
AcDbArc
 50
179.9999999995534
 51
282.6803834911192
  0
ARC
  5
EA
330
B2
100
AcDbEntity
  8
0
  6
Continuous
 62
     0
370
    30
100
AcDbCircle
 10
532.3257255554199
 20
312.6437187194824
 30
0.0
 40
6.15
100
AcDbArc
 50
77.31961650798765
 51
179.9999999995534
  0
ARC
  5
EB
330
B2
100
AcDbEntity
  8
0
  6
Continuous
 62
     0
370
    30
100
AcDbCircle
 10
532.3257255554199
 20
312.6437187413381
 30
0.0
 40
30.0
100
AcDbArc
 50
179.9999999995534
 51
348.46304096632
  0
ARC
  5
EC
330
B2
100
AcDbEntity
  8
0
  6
Continuous
 62
     0
370
    30
100
AcDbCircle
 10
532.3257255554199
 20
312.6437187413381
 30
0.0
 40
30.0
100
AcDbArc
 50
11.53695903278683
 51
179.9999999995534
  0
ARC
  5
ED
330
B2
100
AcDbEntity
  8
0
  6
Continuous
 62
     0
370
     0
100
AcDbCircle
 10
599.3257255554198
 20
308.6437162279332
 30
0.0
 40
1.5
100
AcDbArc
 50
270.0
 51
359.9999999997767
  0
LINE
  5
EE
330
B2
100
AcDbEntity
  8
0
  6
Continuous
 62
     0
370
     0
100
AcDbLine
 10
600.8257255554199
 20
308.6437162279332
 30
0.0
 11
600.8257255554199
 21
316.6437162279332
 31
0.0
  0
ARC
  5
EF
330
B2
100
AcDbEntity
  8
0
  6
Continuous
 62
     0
370
     0
100
AcDbCircle
 10
599.3257255554198
 20
316.6437162279332
 30
0.0
 40
1.5
100
AcDbArc
 50
0.0000000002232495
 51
90.0
  0
LINE
  5
F0
330
B2
100
AcDbEntity
  8
0
  6
Continuous
 62
     0
370
     0
100
AcDbLine
 10
599.3257255554198
 20
318.1437162279332
 30
0.0
 11
532.3257255554199
 21
318.1437162279332
 31
0.0
  0
ARC
  5
F1
330
B2
100
AcDbEntity
  8
0
  6
Continuous
 62
     0
370
     0
100
AcDbCircle
 10
532.3257419766973
 20
312.6437162279332
 30
0.0
 40
5.50000000002451
100
AcDbArc
 50
90.00017106725223
 51
269.9998289323013
  0
LINE
  5
F2
330
B2
100
AcDbEntity
  8
0
  6
Continuous
 62
     0
370
     0
100
AcDbLine
 10
599.3257255554198
 20
307.1437162279333
 30
0.0
 11
532.3257255554199
 21
307.1437162279333
 31
0.0
  0
ARC
  5
F3
330
B2
100
AcDbEntity
  8
0
  6
Continuous
 62
     0
370
    30
100
AcDbCircle
 10
532.3257416316327
 20
312.6437162497889
 30
0.0
 40
6.000000000021535
100
AcDbArc
 50
90.00015351652416
 51
269.9998464830293
  0
LINE
  5
F4
330
B2
100
AcDbEntity
  8
0
  6
Continuous
 62
     0
370
     0
100
AcDbLine
 10
599.3257255554198
 20
306.643716249789
 30
0.0
 11
599.3257255554198
 21
307.1437162279333
 31
0.0
  0
LINE
  5
F5
330
B2
100
AcDbEntity
  8
0
  6
Continuous
 62
     0
370
     0
100
AcDbLine
 10
532.3257255554199
 20
307.1437162279333
 30
0.0
 11
532.3257255554199
 21
306.643716249789
 31
0.0
  0
LINE
  5
F6
330
B2
100
AcDbEntity
  8
0
  6
Continuous
 62
     0
370
    30
100
AcDbLine
 10
599.3257255554198
 20
306.643716249789
 30
0.0
 11
532.3257255554199
 21
306.643716249789
 31
0.0
  0
ARC
  5
F7
330
B2
100
AcDbEntity
  8
0
  6
Continuous
 62
     0
370
    30
100
AcDbCircle
 10
599.3257255554198
 20
308.643716249789
 30
0.0
 40
2.0
100
AcDbArc
 50
270.0
 51
359.9999999997767
  0
LINE
  5
F8
330
B2
100
AcDbEntity
  8
0
  6
Continuous
 62
     0
370
     0
100
AcDbLine
 10
600.8257255554199
 20
308.643716249789
 30
0.0
 11
601.3257255554199
 21
308.643716249789
 31
0.0
  0
LINE
  5
F9
330
B2
100
AcDbEntity
  8
0
  6
Continuous
 62
     0
370
    30
100
AcDbLine
 10
601.3257255554199
 20
308.643716249789
 30
0.0
 11
601.3257255554199
 21
316.6437162497889
 31
0.0
  0
LINE
  5
FA
330
B2
100
AcDbEntity
  8
0
  6
Continuous
 62
     0
370
     0
100
AcDbLine
 10
600.8257255554199
 20
316.6437162497889
 30
0.0
 11
601.3257255554199
 21
316.6437162497889
 31
0.0
  0
ARC
  5
FB
330
B2
100
AcDbEntity
  8
0
  6
Continuous
 62
     0
370
    30
100
AcDbCircle
 10
599.3257255554198
 20
316.6437162497889
 30
0.0
 40
2.0
100
AcDbArc
 50
0.0000000002232495
 51
90.0
  0
LINE
  5
FC
330
B2
100
AcDbEntity
  8
0
  6
Continuous
 62
     0
370
     0
100
AcDbLine
 10
599.3257255554198
 20
318.6437162497889
 30
0.0
 11
599.3257255554198
 21
318.1437162279333
 31
0.0
  0
LINE
  5
FD
330
B2
100
AcDbEntity
  8
0
  6
Continuous
 62
     0
370
    30
100
AcDbLine
 10
599.3257255554198
 20
318.6437162497889
 30
0.0
 11
532.3257255554199
 21
318.6437162497889
 31
0.0
  0
LINE
  5
FE
330
B2
100
AcDbEntity
  8
0
  6
Continuous
 62
     0
370
     0
100
AcDbLine
 10
532.3257255554199
 20
318.6437162497889
 30
0.0
 11
532.3257255554199
 21
318.1437162279333
 31
0.0
  0
ENDBLK
  5
100
330
B2
100
AcDbEntity
  8
0
100
AcDbBlockEnd
  0
BLOCK
  5
14D
330
102
100
AcDbEntity
  8
0
100
AcDbBlockBegin
  2
c
 70
     0
 10
310.0227661132812
 20
135.7793426513671
 30
0.0
  3
c
  1

  0
LINE
  5
103
330
102
100
AcDbEntity
  8
0
  6
Continuous
 62
     0
370
    30
100
AcDbLine
 10
789.3830928406836
 20
513.5441780090332
 30
0.0
 11
819.3830915293419
 21
513.5441780090332
 31
0.0
  0
LINE
  5
104
330
102
100
AcDbEntity
  8
0
  6
Continuous
 62
     0
370
    30
100
AcDbLine
 10
759.383091529342
 20
513.5441780090332
 30
0.0
 11
789.3830928406836
 21
513.5441780090332
 31
0.0
  0
LINE
  5
105
330
102
100
AcDbEntity
  8
0
  6
Continuous
 62
     0
370
    30
100
AcDbLine
 10
759.883091529342
 20
522.5441780090331
 30
0.0
 11
789.3830928188279
 21
522.5441780090331
 31
0.0
  0
LINE
  5
106
330
102
100
AcDbEntity
  8
0
  6
Continuous
 62
     0
370
    30
100
AcDbLine
 10
789.3830928188279
 20
522.5441780090331
 30
0.0
 11
818.8830915293419
 21
522.5441780090331
 31
0.0
  0
LINE
  5
107
330
102
100
AcDbEntity
  8
0
  6
Continuous
 62
     0
370
     0
100
AcDbLine
 10
789.3830928406836
 20
522.0441780090331
 30
0.0
 11
819.3830915293419
 21
522.0441780090331
 31
0.0
  0
LINE
  5
108
330
102
100
AcDbEntity
  8
0
  6
Continuous
 62
     0
370
     0
100
AcDbLine
 10
759.383091529342
 20
522.0441780090331
 30
0.0
 11
789.3830928406836
 21
522.0441780090331
 31
0.0
  0
ARC
  5
109
330
102
100
AcDbEntity
  8
0
  6
Continuous
 62
     0
370
    30
100
AcDbCircle
 10
818.8830890188265
 20
522.0441754483061
 30
0.0
 40
0.500002560946522
100
AcDbArc
 50
0.0002934362060826
 51
89.99298069717573
  0
ARC
  5
10A
330
102
100
AcDbEntity
  8
0
  6
Continuous
 62
     0
370
    30
100
AcDbCircle
 10
759.8830940400083
 20
522.0441754483069
 30
0.0
 40
0.5000025609457135
100
AcDbArc
 50
90.00701930301929
 51
179.9997065638839
  0
LINE
  5
10B
330
102
100
AcDbEntity
  8
0
  6
Continuous
 62
     0
370
    30
100
AcDbLine
 10
759.383091529342
 20
513.5441779990332
 30
0.0
 11
759.383091529342
 21
522.0441780090331
 31
0.0
  0
LINE
  5
10C
330
102
100
AcDbEntity
  8
0
  6
Continuous
 62
     0
370
    30
100
AcDbLine
 10
819.3830915293419
 20
513.5441779990332
 30
0.0
 11
819.3830915293419
 21
522.0441780090331
 31
0.0
  0
LINE
  5
10D
330
102
100
AcDbEntity
  8
0
  6
Continuous
 62
     0
370
     0
100
AcDbLine
 10
789.3830876390284
 20
677.5441920146611
 30
0.0
 11
778.3830871582031
 21
677.5441920146611
 31
0.0
  0
LINE
  5
10E
330
102
100
AcDbEntity
  8
0
  6
Continuous
 62
     0
370
     0
100
AcDbLine
 10
800.3830871582032
 20
677.5441920146611
 30
0.0
 11
789.3830876390284
 21
677.5441920146611
 31
0.0
  0
LINE
  5
10F
330
102
100
AcDbEntity
  8
0
  6
Continuous
 62
     0
370
     0
100
AcDbLine
 10
945.4676162718882
 20
702.2655290075404
 30
0.0
 11
955.9292385303091
 21
705.66471268332
 31
0.0
  0
LINE
  5
110
330
102
100
AcDbEntity
  8
0
  6
Continuous
 62
     0
370
     0
100
AcDbLine
 10
935.0059931436462
 20
698.8663450491388
 30
0.0
 11
945.4676162718882
 21
702.2655290075404
 31
0.0
  0
LINE
  5
111
330
102
100
AcDbEntity
  8
0
  6
Continuous
 62
     0
370
    30
100
AcDbLine
 10
951.9214583072663
 20
682.4026254608074
 30
0.0
 11
962.383080565687
 21
685.8018091365871
 31
0.0
  0
LINE
  5
112
330
102
100
AcDbEntity
  8
0
  6
Continuous
 62
     0
370
    30
100
AcDbLine
 10
941.4598351790241
 20
679.0034415024059
 30
0.0
 11
951.9214583072661
 21
682.4026254608074
 31
0.0
  0
LINE
  5
113
330
102
100
AcDbEntity
  8
0
  6
Continuous
 62
     0
370
    30
100
AcDbLine
 10
962.3830805687774
 20
685.8018091270765
 30
0.0
 11
955.9292385303093
 21
705.6647126833202
 31
0.0
  0
LINE
  5
114
330
102
100
AcDbEntity
  8
0
  6
Continuous
 62
     0
370
    30
100
AcDbLine
 10
941.4598351821142
 20
679.0034414928952
 30
0.0
 11
935.0059931436462
 21
698.8663450491388
 31
0.0
  0
ARC
  5
115
330
102
100
AcDbEntity
  8
0
  6
Continuous
 62
     0
370
    30
100
AcDbCircle
 10
869.383093120121
 20
677.5441543725556
 30
0.0
 40
91.00000596192575
100
AcDbArc
 50
18.00000660722097
 51
179.9999762992285
  0
ARC
  5
116
330
102
100
AcDbEntity
  8
0
  6
Continuous
 62
     0
370
    30
100
AcDbCircle
 10
869.3831061239134
 20
677.5440722697634
 30
0.0
 40
69.00001896581416
100
AcDbArc
 50
18.00008233982778
 51
179.9999005666216
  0
LINE
  5
117
330
102
100
AcDbEntity
  8
0
  6
Continuous
 62
     0
370
    30
100
AcDbLine
 10
778.3830871582031
 20
677.5441920246612
 30
0.0
 11
778.3830871582031
 21
522.5441780090331
 31
0.0
  0
LINE
  5
118
330
102
100
AcDbEntity
  8
0
  6
Continuous
 62
     0
370
    30
100
AcDbLine
 10
800.3830871582032
 20
677.5441920246612
 30
0.0
 11
800.3830871582032
 21
522.5441780090331
 31
0.0
  0
LINE
  5
119
330
102
100
AcDbEntity
  8
0
  6
Continuous
 62
     0
370
     0
100
AcDbLine
 10
774.6330872456259
 20
525.5441780090332
 30
0.0
 11
772.6330871582031
 21
525.5441780090332
 31
0.0
  0
LINE
  5
11A
330
102
100
AcDbEntity
  8
0
  6
Continuous
 62
     0
370
     0
100
AcDbLine
 10
776.6330871582031
 20
525.5441780090332
 30
0.0
 11
774.6330872456259
 21
525.5441780090332
 31
0.0
  0
LINE
  5
11B
330
102
100
AcDbEntity
  8
0
  6
Continuous
 62
     0
370
     0
100
AcDbLine
 10
768.0532886016862
 20
534.9411042449893
 30
0.0
 11
767.3692483048085
 21
533.0617189753203
 31
0.0
  0
LINE
  5
11C
330
102
100
AcDbEntity
  8
0
  6
Continuous
 62
     0
370
     0
100
AcDbLine
 10
768.7373288781111
 20
536.820489458464
 30
0.0
 11
768.0532886016862
 21
534.9411042449893
 31
0.0
  0
LINE
  5
11D
330
102
100
AcDbEntity
  8
0
  6
Continuous
 62
     0
370
    30
100
AcDbLine
 10
753.992101302158
 20
540.1653756512598
 30
0.0
 11
753.9578992801824
 21
540.0714063681821
 31
0.0
  0
LINE
  5
11E
330
102
100
AcDbEntity
  8
0
  6
Continuous
 62
     0
370
    30
100
AcDbLine
 10
753.9578992801824
 20
540.0714063681821
 30
0.0
 11
753.9236972571841
 21
539.9774370822947
 31
0.0
  0
LINE
  5
11F
330
102
100
AcDbEntity
  8
0
  6
Continuous
 62
     0
370
     0
100
AcDbLine
 10
755.7433152469867
 20
539.42156813071
 30
0.0
 11
755.0592749501089
 21
537.542182861041
 31
0.0
  0
LINE
  5
120
330
102
100
AcDbEntity
  8
0
  6
Continuous
 62
     0
370
     0
100
AcDbLine
 10
756.4273555234116
 20
541.3009533441847
 30
0.0
 11
755.7433152469867
 21
539.42156813071
 31
0.0
  0
ARC
  5
121
330
102
100
AcDbEntity
  8
0
  6
Continuous
 62
     0
370
    30
100
AcDbCircle
 10
755.7776294642045
 20
539.5152967645209
 30
0.0
 40
1.900187721369748
100
AcDbArc
 50
70.0056607442749
 51
159.9943392850891
  0
ARC
  5
122
330
102
100
AcDbEntity
  8
0
  6
Continuous
 62
     0
370
    30
100
AcDbCircle
 10
755.7093538374663
 20
539.3277110217614
 30
0.0
 40
1.900187721368741
100
AcDbArc
 50
160.005660714936
 51
249.9943392557551
  0
LINE
  5
123
330
102
100
AcDbEntity
  8
0
  6
Continuous
 62
     0
370
    30
100
AcDbLine
 10
755.0592749407122
 20
537.5421828644613
 30
0.0
 11
767.3692483048085
 21
533.0617189753204
 31
0.0
  0
LINE
  5
124
330
102
100
AcDbEntity
  8
0
  6
Continuous
 62
     0
370
    30
100
AcDbLine
 10
756.4273555140148
 20
541.3009533476049
 30
0.0
 11
768.7373288781112
 21
536.820489458464
 31
0.0
  0
ARC
  5
125
330
102
100
AcDbEntity
  8
0
  6
Continuous
 62
     0
370
    30
100
AcDbCircle
 10
764.6330859152974
 20
525.5441771387412
 30
0.0
 40
8.000001242905696
100
AcDbArc
 50
0.000006233179286
 51
69.99999376699431
  0
ARC
  5
126
330
102
100
AcDbEntity
  8
0
  6
Continuous
 62
     0
370
    30
100
AcDbCircle
 10
764.6330852938445
 20
525.5441767035952
 30
0.0
 40
12.00000186435855
100
AcDbArc
 50
0.0000062331793369
 51
69.99999376699424
  0
LINE
  5
127
330
102
100
AcDbEntity
  8
0
  6
Continuous
 62
     0
370
    30
100
AcDbLine
 10
772.6330871582031
 20
525.5441780190331
 30
0.0
 11
772.6330871582031
 21
522.5441780090331
 31
0.0
  0
LINE
  5
128
330
102
100
AcDbEntity
  8
0
  6
Continuous
 62
     0
370
    30
100
AcDbLine
 10
776.6330871582031
 20
525.5441780190331
 30
0.0
 11
776.6330871582031
 21
522.5441780090331
 31
0.0
  0
LINE
  5
129
330
102
100
AcDbEntity
  8
0
  6
Continuous
 62
     0
370
    30
100
AcDbLine
 10
783.3830915293419
 20
555.5441780090331
 30
0.0
 11
783.3830915293419
 21
553.5441780090332
 31
0.0
  0
LWPOLYLINE
  5
12A
330
102
100
AcDbEntity
  8
0
  6
Continuous
 62
     0
370
     0
100
AcDbPolyline
 90
       21
 70
     0
 43
0.0
 10
795.3831176757812
 20
553.544189453125
 10
795.3092041015625
 20
553.544189453125
 10
795.0894165039062
 20
553.544189453125
 10
794.7291259765624
 20
553.544189453125
 10
794.2371826171875
 20
553.544189453125
 10
793.6257324218749
 20
553.544189453125
 10
792.9097900390624
 20
553.544189453125
 10
792.1070556640625
 20
553.544189453125
 10
791.2371826171875
 20
553.544189453125
 10
790.3217163085937
 20
553.544189453125
 10
789.3831176757812
 20
553.544189453125
 10
788.4444580078125
 20
553.544189453125
 10
787.5289916992187
 20
553.544189453125
 10
786.6591186523437
 20
553.544189453125
 10
785.8563842773437
 20
553.544189453125
 10
785.1404418945312
 20
553.544189453125
 10
784.5289916992187
 20
553.544189453125
 10
784.0370483398437
 20
553.544189453125
 10
783.6767578125
 20
553.544189453125
 10
783.4569702148437
 20
553.544189453125
 10
783.3831176757812
 20
553.544189453125
  0
LINE
  5
12B
330
102
100
AcDbEntity
  8
0
  6
Continuous
 62
     0
370
    30
100
AcDbLine
 10
795.3830915293419
 20
553.5441780090332
 30
0.0
 11
795.3830915293419
 21
555.5441780090331
 31
0.0
  0
LINE
  5
12C
330
102
100
AcDbEntity
  8
0
  6
Continuous
 62
     0
370
     0
100
AcDbLine
 10
783.3830915293419
 20
555.5441780090331
 30
0.0
 11
795.3830915293419
 21
555.5441780090331
 31
0.0
  0
LINE
  5
12D
330
102
100
AcDbEntity
  8
0
  6
Continuous
 62
     0
370
    30
100
AcDbLine
 10
783.8830944580049
 20
579.5441780090332
 30
0.0
 11
785.383094523572
 21
579.5441780090332
 31
0.0
  0
LINE
  5
12E
330
102
100
AcDbEntity
  8
0
  6
Continuous
 62
     0
370
    30
100
AcDbLine
 10
785.383094523572
 20
579.5441780090332
 30
0.0
 11
793.383094523572
 21
579.5441780090332
 31
0.0
  0
LINE
  5
12F
330
102
100
AcDbEntity
  8
0
  6
Continuous
 62
     0
370
    30
100
AcDbLine
 10
794.8830944580049
 20
579.5441780090332
 30
0.0
 11
793.383094523572
 21
579.5441780090332
 31
0.0
  0
ARC
  5
130
330
102
100
AcDbEntity
  8
0
  6
Continuous
 62
     0
370
    30
100
AcDbCircle
 10
783.8830944580049
 20
579.0441780090332
 30
0.0
 40
0.500000000000001
100
AcDbArc
 50
90.00000000022325
 51
180.0
  0
LINE
  5
131
330
102
100
AcDbEntity
  8
0
  6
Continuous
 62
     0
370
     0
100
AcDbLine
 10
783.3830944580049
 20
579.0441780090332
 30
0.0
 11
785.3830945454277
 21
579.0441780090332
 31
0.0
  0
LINE
  5
132
330
102
100
AcDbEntity
  8
0
  6
Continuous
 62
     0
370
     0
100
AcDbLine
 10
785.383094523572
 20
579.5441780090332
 30
0.0
 11
785.383094523572
 21
579.0441780090332
 31
0.0
  0
LINE
  5
133
330
102
100
AcDbEntity
  8
0
  6
Continuous
 62
     0
370
     0
100
AcDbLine
 10
785.3830945454277
 20
579.0441780090332
 30
0.0
 11
793.3830945454277
 21
579.0441780090332
 31
0.0
  0
LINE
  5
134
330
102
100
AcDbEntity
  8
0
  6
Continuous
 62
     0
370
     0
100
AcDbLine
 10
793.383094523572
 20
579.5441780090332
 30
0.0
 11
793.383094523572
 21
579.0441780090332
 31
0.0
  0
LINE
  5
135
330
102
100
AcDbEntity
  8
0
  6
Continuous
 62
     0
370
     0
100
AcDbLine
 10
795.3830944580049
 20
579.0441780090332
 30
0.0
 11
793.3830945454277
 21
579.0441780090332
 31
0.0
  0
ARC
  5
136
330
102
100
AcDbEntity
  8
0
  6
Continuous
 62
     0
370
    30
100
AcDbCircle
 10
794.8830944580049
 20
579.0441780090332
 30
0.0
 40
0.5
100
AcDbArc
 50
0.0
 51
89.99999999977674
  0
LWPOLYLINE
  5
137
330
102
100
AcDbEntity
  8
0
  6
Continuous
 62
     0
370
    30
100
AcDbPolyline
 90
       15
 70
     0
 43
0.0
 10
783.3831176757812
 20
564.0440063476562
 10
783.3831176757812
 20
564.0386352539062
 10
783.3831176757812
 20
563.936279296875
 10
783.3831176757812
 20
563.7062988281249
 10
783.3831176757812
 20
563.3596801757812
 10
783.3831176757812
 20
562.909423828125
 10
783.3831176757812
 20
562.3652954101562
 10
783.3831176757812
 20
561.7349853515625
 10
783.3831176757812
 20
561.0233764648437
 10
783.3831176757812
 20
560.2367553710937
 10
783.3831176757812
 20
559.3836059570312
 10
783.3831176757812
 20
558.4746093749999
 10
783.3831176757812
 20
557.5224609374999
 10
783.3831176757812
 20
556.5404052734375
 10
783.3831176757812
 20
555.544189453125
  0
LINE
  5
138
330
102
100
AcDbEntity
  8
0
  6
Continuous
 62
     0
370
    30
100
AcDbLine
 10
783.3830944580049
 20
564.0441780090331
 30
0.0
 11
783.3830944580049
 21
579.0441780090332
 31
0.0
  0
LINE
  5
139
330
102
100
AcDbEntity
  8
0
  6
Continuous
 62
     0
370
    30
100
AcDbLine
 10
794.8830944580049
 20
563.5441780090332
 30
0.0
 11
793.383094523572
 21
563.5441780090332
 31
0.0
  0
LINE
  5
13A
330
102
100
AcDbEntity
  8
0
  6
Continuous
 62
     0
370
    30
100
AcDbLine
 10
793.383094523572
 20
563.5441780090332
 30
0.0
 11
785.383094523572
 21
563.5441780090332
 31
0.0
  0
LINE
  5
13B
330
102
100
AcDbEntity
  8
0
  6
Continuous
 62
     0
370
    30
100
AcDbLine
 10
783.8830944580049
 20
563.5441780090332
 30
0.0
 11
785.383094523572
 21
563.5441780090332
 31
0.0
  0
LINE
  5
13C
330
102
100
AcDbEntity
  8
0
  6
Continuous
 62
     0
370
     0
100
AcDbLine
 10
783.3830944580049
 20
564.0441780090331
 30
0.0
 11
785.3830945454277
 21
564.0441780090331
 31
0.0
  0
LINE
  5
13D
330
102
100
AcDbEntity
  8
0
  6
Continuous
 62
     0
370
     0
100
AcDbLine
 10
785.3830945454277
 20
564.0441780090331
 30
0.0
 11
785.3830945454277
 21
579.0441780090332
 31
0.0
  0
LINE
  5
13E
330
102
100
AcDbEntity
  8
0
  6
Continuous
 62
     0
370
     0
100
AcDbLine
 10
793.3830945454277
 20
564.0441780090331
 30
0.0
 11
785.3830945454277
 21
564.0441780090331
 31
0.0
  0
LINE
  5
13F
330
102
100
AcDbEntity
  8
0
  6
Continuous
 62
     0
370
     0
100
AcDbLine
 10
793.3830945454277
 20
564.0441780090331
 30
0.0
 11
793.3830945454277
 21
579.0441780090332
 31
0.0
  0
LINE
  5
140
330
102
100
AcDbEntity
  8
0
  6
Continuous
 62
     0
370
     0
100
AcDbLine
 10
795.3830944580049
 20
564.0441780090331
 30
0.0
 11
793.3830945454277
 21
564.0441780090331
 31
0.0
  0
LINE
  5
141
330
102
100
AcDbEntity
  8
0
  6
Continuous
 62
     0
370
    30
100
AcDbLine
 10
795.3830944580049
 20
564.0441780090331
 30
0.0
 11
795.3830944580049
 21
579.0441780090332
 31
0.0
  0
LWPOLYLINE
  5
142
330
102
100
AcDbEntity
  8
0
  6
Continuous
 62
     0
370
    30
100
AcDbPolyline
 90
       15
 70
     0
 43
0.0
 10
795.3831176757812
 20
555.544189453125
 10
795.3831176757812
 20
556.5404052734375
 10
795.3831176757812
 20
557.5224609374999
 10
795.3831176757812
 20
558.4746093749999
 10
795.3831176757812
 20
559.3836059570312
 10
795.3831176757812
 20
560.2367553710937
 10
795.3831176757812
 20
561.0233764648437
 10
795.3831176757812
 20
561.7349853515625
 10
795.3831176757812
 20
562.3652954101562
 10
795.3831176757812
 20
562.909423828125
 10
795.3831176757812
 20
563.3596801757812
 10
795.3831176757812
 20
563.7062988281249
 10
795.3831176757812
 20
563.936279296875
 10
795.3831176757812
 20
564.0386352539062
 10
795.3831176757812
 20
564.0440063476562
  0
ARC
  5
143
330
102
100
AcDbEntity
  8
0
  6
Continuous
 62
     0
370
    30
100
AcDbCircle
 10
794.8830944580049
 20
564.0441780090331
 30
0.0
 40
0.5
100
AcDbArc
 50
270.000000000893
 51
0.0000000006697485
  0
LINE
  5
144
330
102
100
AcDbEntity
  8
0
  6
Continuous
 62
     0
370
     0
100
AcDbLine
 10
793.383094523572
 20
563.5441780090332
 30
0.0
 11
793.383094523572
 21
564.0441780090331
 31
0.0
  0
LINE
  5
145
330
102
100
AcDbEntity
  8
0
  6
Continuous
 62
     0
370
     0
100
AcDbLine
 10
785.383094523572
 20
564.0441780090331
 30
0.0
 11
785.383094523572
 21
563.5441780090332
 31
0.0
  0
ARC
  5
146
330
102
100
AcDbEntity
  8
0
  6
Continuous
 62
     0
370
    30
100
AcDbCircle
 10
783.8830944580049
 20
564.0441780090331
 30
0.0
 40
0.5
100
AcDbArc
 50
179.9999999993302
 51
269.9999999991069
  0
LINE
  5
147
330
102
100
AcDbEntity
  8
0
  6
Continuous
 62
     0
370
    30
100
AcDbLine
 10
795.3830915293419
 20
553.5441780090332
 30
0.0
 11
795.3830915293419
 21
522.5441780090331
 31
0.0
  0
LINE
  5
148
330
102
100
AcDbEntity
  8
0
  6
Continuous
 62
     0
370
    30
100
AcDbLine
 10
783.3830915293419
 20
553.5441780090332
 30
0.0
 11
783.3830915293419
 21
522.5441780090331
 31
0.0
  0
LWPOLYLINE
  5
149
330
102
100
AcDbEntity
  8
0
  6
Continuous
 62
     0
370
    30
100
AcDbPolyline
 90
       14
 70
     0
 43
0.0
 10
783.8831176757812
 20
563.544189453125
 10
783.8507690429687
 20
563.5283203124999
 10
783.7658081054687
 20
563.4033813476562
 10
783.6640625
 20
563.1674194335937
 10
783.5626220703125
 20
562.8333129882812
 10
783.4815673828125
 20
562.4009399414062
 10
783.4298706054688
 20
561.8604736328125
 10
783.4030151367187
 20
561.2050781249999
 10
783.3907470703125
 20
560.4399414062499
 10
783.3856811523437
 20
559.5791015625
 10
783.3838500976562
 20
558.6399536132812
 10
783.3832397460938
 20
557.641357421875
 10
783.3831176757812
 20
556.6028442382812
 10
783.3831176757812
 20
555.544189453125
  0
LWPOLYLINE
  5
14A
330
102
100
AcDbEntity
  8
0
  6
Continuous
 62
     0
370
    30
100
AcDbPolyline
 90
       14
 70
     0
 43
0.0
 10
795.3831176757812
 20
555.544189453125
 10
795.3830566406249
 20
556.6028442382812
 10
795.3829345703125
 20
557.641357421875
 10
795.3823852539062
 20
558.6399536132812
 10
795.3804931640624
 20
559.5791015625
 10
795.3754272460937
 20
560.4399414062499
 10
795.3631591796875
 20
561.2050781249999
 10
795.3363037109375
 20
561.8604736328125
 10
795.2846069335937
 20
562.4009399414062
 10
795.20361328125
 20
562.8333129882812
 10
795.1021118164062
 20
563.1674194335937
 10
795.0003662109375
 20
563.4033813476562
 10
794.9154663085937
 20
563.5283203124999
 10
794.8831176757813
 20
563.544189453125
  0
LINE
  5
14B
330
102
100
AcDbEntity
  8
0
  6
Continuous
 62
     0
370
    30
100
AcDbLine
 10
783.3830907099889
 20
556.4465170318274
 30
0.0
 11
783.3830907718676
 21
556.4483424782891
 31
0.0
  0
LINE
  5
14C
330
102
100
AcDbEntity
  8
0
  6
Continuous
 62
     0
370
    30
100
AcDbLine
 10
795.3830923538703
 20
556.446501335241
 30
0.0
 11
795.3830922922167
 21
556.4483143017128
 31
0.0
  0
ENDBLK
  5
14E
330
102
100
AcDbEntity
  8
0
100
AcDbBlockEnd
  0
BLOCK
  5
19B
330
150
100
AcDbEntity
  8
0
100
AcDbBlockBegin
  2
d
 70
     0
 10
141.9236145019531
 20
0.0000457763671875
 30
0.0
  3
d
  1

  0
LINE
  5
151
330
150
100
AcDbEntity
  8
0
  6
Continuous
 62
     0
370
     0
100
AcDbLine
 10
69.51884460449218
 20
677.5442530498174
 30
0.0
 11
58.51884412366693
 21
677.5442530498174
 31
0.0
  0
LINE
  5
152
330
150
100
AcDbEntity
  8
0
  6
Continuous
 62
     0
370
     0
100
AcDbLine
 10
58.51884412366693
 20
677.5442530498174
 30
0.0
 11
47.51884460449221
 21
677.5442530498174
 31
0.0
  0
LINE
  5
153
330
150
100
AcDbEntity
  8
0
  6
Continuous
 62
     0
370
     0
100
AcDbLine
 10
-108.0273067676138
 20
705.6647737184763
 30
0.0
 11
-97.56568450919299
 21
702.2655900426967
 31
0.0
  0
LINE
  5
154
330
150
100
AcDbEntity
  8
0
  6
Continuous
 62
     0
370
     0
100
AcDbLine
 10
-97.56568450919299
 20
702.2655900426967
 30
0.0
 11
-87.10406138095084
 21
698.8664060842951
 31
0.0
  0
LINE
  5
155
330
150
100
AcDbEntity
  8
0
  6
Continuous
 62
     0
370
    30
100
AcDbLine
 10
-114.4811488029917
 20
685.8018701717433
 30
0.0
 11
-104.0195265445708
 21
682.4026864959637
 31
0.0
  0
LINE
  5
156
330
150
100
AcDbEntity
  8
0
  6
Continuous
 62
     0
370
    30
100
AcDbLine
 10
-104.0195265445708
 20
682.4026864959637
 30
0.0
 11
-93.55790341632875
 21
679.0035025375622
 31
0.0
  0
LINE
  5
157
330
150
100
AcDbEntity
  8
0
  6
Continuous
 62
     0
370
    30
100
AcDbLine
 10
-114.481148806082
 20
685.8018701622328
 30
0.0
 11
-108.0273067676138
 21
705.6647737184764
 31
0.0
  0
LINE
  5
158
330
150
100
AcDbEntity
  8
0
  6
Continuous
 62
     0
370
    30
100
AcDbLine
 10
-93.55790341941897
 20
679.0035025280515
 30
0.0
 11
-87.10406138095084
 21
698.866406084295
 31
0.0
  0
ARC
  5
159
330
150
100
AcDbEntity
  8
0
  6
Continuous
 62
     0
370
    30
100
AcDbCircle
 10
-21.48116135742577
 20
677.5442154077119
 30
0.0
 40
91.00000596192575
100
AcDbArc
 50
0.0000237007715004
 51
161.999993392779
  0
ARC
  5
15A
330
150
100
AcDbEntity
  8
0
  6
Continuous
 62
     0
370
    30
100
AcDbCircle
 10
-21.48117436121805
 20
677.5441333049196
 30
0.0
 40
69.00001896581416
100
AcDbArc
 50
0.0000994333783196
 51
161.9999176601722
  0
LINE
  5
15B
330
150
100
AcDbEntity
  8
0
  6
Continuous
 62
     0
370
    30
100
AcDbLine
 10
69.5188446044922
 20
677.5442530598175
 30
0.0
 11
69.5188446044922
 21
522.5442390441894
 31
0.0
  0
LINE
  5
15C
330
150
100
AcDbEntity
  8
0
  6
Continuous
 62
     0
370
    30
100
AcDbLine
 10
47.51884460449221
 20
677.5442530598175
 30
0.0
 11
47.51884460449221
 21
522.5442390441894
 31
0.0
  0
LINE
  5
15D
330
150
100
AcDbEntity
  8
0
  6
Continuous
 62
     0
370
     0
100
AcDbLine
 10
75.26884460449219
 20
525.5442390441893
 30
0.0
 11
73.26884451706941
 21
525.5442390441893
 31
0.0
  0
LINE
  5
15E
330
150
100
AcDbEntity
  8
0
  6
Continuous
 62
     0
370
     0
100
AcDbLine
 10
73.26884451706941
 20
525.5442390441893
 30
0.0
 11
71.26884460449218
 21
525.5442390441893
 31
0.0
  0
LINE
  5
15F
330
150
100
AcDbEntity
  8
0
  6
Continuous
 62
     0
370
     0
100
AcDbLine
 10
80.53268345788684
 20
533.0617800104765
 30
0.0
 11
79.84864316100896
 21
534.9411652801456
 31
0.0
  0
LINE
  5
160
330
150
100
AcDbEntity
  8
0
  6
Continuous
 62
     0
370
     0
100
AcDbLine
 10
79.84864316100896
 20
534.9411652801456
 30
0.0
 11
79.16460288458416
 21
536.8205504936203
 31
0.0
  0
LINE
  5
161
330
150
100
AcDbEntity
  8
0
  6
Continuous
 62
     0
370
    30
100
AcDbLine
 10
93.94403248251288
 20
540.0714674033383
 30
0.0
 11
93.90983046053724
 21
540.1654366864161
 31
0.0
  0
LINE
  5
162
330
150
100
AcDbEntity
  8
0
  6
Continuous
 62
     0
370
    30
100
AcDbLine
 10
93.97823450551117
 20
539.9774981174509
 30
0.0
 11
93.94403248251288
 21
540.0714674033383
 31
0.0
  0
LINE
  5
163
330
150
100
AcDbEntity
  8
0
  6
Continuous
 62
     0
370
     0
100
AcDbLine
 10
92.84265681258629
 20
537.5422438961972
 30
0.0
 11
92.15861651570843
 21
539.4216291658663
 31
0.0
  0
LINE
  5
164
330
150
100
AcDbEntity
  8
0
  6
Continuous
 62
     0
370
     0
100
AcDbLine
 10
92.15861651570843
 20
539.4216291658663
 30
0.0
 11
91.47457623928362
 21
541.301014379341
 31
0.0
  0
ARC
  5
165
330
150
100
AcDbEntity
  8
0
  6
Continuous
 62
     0
370
    30
100
AcDbCircle
 10
92.1243022984958
 20
539.5153577996844
 30
0.0
 40
1.900187721362766
100
AcDbArc
 50
20.00566071475482
 51
109.9943392557847
  0
ARC
  5
166
330
150
100
AcDbEntity
  8
0
  6
Continuous
 62
     0
370
    30
100
AcDbCircle
 10
92.19257792523634
 20
539.3277720569129
 30
0.0
 40
1.900187721363724
100
AcDbArc
 50
290.0056607442439
 51
19.9943392852699
  0
LINE
  5
167
330
150
100
AcDbEntity
  8
0
  6
Continuous
 62
     0
370
    30
100
AcDbLine
 10
92.84265682198322
 20
537.5422438996175
 30
0.0
 11
80.53268345788684
 21
533.0617800104767
 31
0.0
  0
LINE
  5
168
330
150
100
AcDbEntity
  8
0
  6
Continuous
 62
     0
370
    30
100
AcDbLine
 10
91.47457624868055
 20
541.3010143827611
 30
0.0
 11
79.16460288458416
 21
536.8205504936203
 31
0.0
  0
ARC
  5
169
330
150
100
AcDbEntity
  8
0
  6
Continuous
 62
     0
370
    30
100
AcDbCircle
 10
83.26884584739785
 20
525.5442381738975
 30
0.0
 40
8.000001242905696
100
AcDbArc
 50
110.0000062330056
 51
179.9999937668207
  0
ARC
  5
16A
330
150
100
AcDbEntity
  8
0
  6
Continuous
 62
     0
370
    30
100
AcDbCircle
 10
83.26884646885067
 20
525.5442377387516
 30
0.0
 40
12.00000186435855
100
AcDbArc
 50
110.0000062330057
 51
179.9999937668206
  0
LINE
  5
16B
330
150
100
AcDbEntity
  8
0
  6
Continuous
 62
     0
370
    30
100
AcDbLine
 10
75.26884460449213
 20
525.5442390541893
 30
0.0
 11
75.26884460449213
 21
522.5442390441894
 31
0.0
  0
LINE
  5
16C
330
150
100
AcDbEntity
  8
0
  6
Continuous
 62
     0
370
    30
100
AcDbLine
 10
71.26884460449215
 20
525.5442390541893
 30
0.0
 11
71.26884460449215
 21
522.5442390441894
 31
0.0
  0
LINE
  5
16D
330
150
100
AcDbEntity
  8
0
  6
Continuous
 62
     0
370
    30
100
AcDbLine
 10
28.5188402333534
 20
513.5442390441894
 30
0.0
 11
58.51883892201172
 21
513.5442390441894
 31
0.0
  0
LINE
  5
16E
330
150
100
AcDbEntity
  8
0
  6
Continuous
 62
     0
370
    30
100
AcDbLine
 10
58.51883892201172
 20
513.5442390441894
 30
0.0
 11
88.51884023335335
 21
513.5442390441894
 31
0.0
  0
LINE
  5
16F
330
150
100
AcDbEntity
  8
0
  6
Continuous
 62
     0
370
    30
100
AcDbLine
 10
58.51883894386742
 20
522.5442390441894
 30
0.0
 11
88.01884023335334
 21
522.5442390441894
 31
0.0
  0
LINE
  5
170
330
150
100
AcDbEntity
  8
0
  6
Continuous
 62
     0
370
    30
100
AcDbLine
 10
29.01884023335339
 20
522.5442390441894
 30
0.0
 11
58.51883894386741
 21
522.5442390441894
 31
0.0
  0
LINE
  5
171
330
150
100
AcDbEntity
  8
0
  6
Continuous
 62
     0
370
     0
100
AcDbLine
 10
28.5188402333534
 20
522.0442390441895
 30
0.0
 11
58.51883892201172
 21
522.0442390441895
 31
0.0
  0
LINE
  5
172
330
150
100
AcDbEntity
  8
0
  6
Continuous
 62
     0
370
     0
100
AcDbLine
 10
58.51883892201172
 20
522.0442390441895
 30
0.0
 11
88.51884023335335
 21
522.0442390441895
 31
0.0
  0
ARC
  5
173
330
150
100
AcDbEntity
  8
0
  6
Continuous
 62
     0
370
    30
100
AcDbCircle
 10
29.01884274402007
 20
522.044236483463
 30
0.0
 40
0.5000025609459358
100
AcDbArc
 50
90.00701930304899
 51
179.9997065638631
  0
ARC
  5
174
330
150
100
AcDbEntity
  8
0
  6
Continuous
 62
     0
370
    30
100
AcDbCircle
 10
88.01883772283744
 20
522.0442364834618
 30
0.0
 40
0.5000025609469472
100
AcDbArc
 50
0.0002934362567165
 51
89.99298069712851
  0
LINE
  5
175
330
150
100
AcDbEntity
  8
0
  6
Continuous
 62
     0
370
    30
100
AcDbLine
 10
88.51884023335335
 20
513.5442390341894
 30
0.0
 11
88.51884023335335
 21
522.0442390441895
 31
0.0
  0
LINE
  5
176
330
150
100
AcDbEntity
  8
0
  6
Continuous
 62
     0
370
    30
100
AcDbLine
 10
28.51884023335341
 20
513.5442390341894
 30
0.0
 11
28.51884023335341
 21
522.0442390441895
 31
0.0
  0
LINE
  5
177
330
150
100
AcDbEntity
  8
0
  6
Continuous
 62
     0
370
    30
100
AcDbLine
 10
52.51884023335337
 20
555.5442390441895
 30
0.0
 11
52.51884023335337
 21
553.5442390441894
 31
0.0
  0
LINE
  5
178
330
150
100
AcDbEntity
  8
0
  6
Continuous
 62
     0
370
     0
100
AcDbLine
 10
64.51884023335337
 20
553.5442390441894
 30
0.0
 11
52.51884023335337
 21
553.5442390441894
 31
0.0
  0
LINE
  5
179
330
150
100
AcDbEntity
  8
0
  6
Continuous
 62
     0
370
    30
100
AcDbLine
 10
64.51884023335337
 20
553.5442390441894
 30
0.0
 11
64.51884023335337
 21
555.5442390441895
 31
0.0
  0
LWPOLYLINE
  5
17A
330
150
100
AcDbEntity
  8
0
  6
Continuous
 62
     0
370
     0
100
AcDbPolyline
 90
       21
 70
     0
 43
0.0
 10
52.51884078979492
 20
555.5442504882812
 10
52.59270858764648
 20
555.5442504882812
 10
52.8125
 20
555.5442504882812
 10
53.17280197143555
 20
555.5442504882812
 10
53.66473770141602
 20
555.5442504882812
 10
54.27620315551758
 20
555.5442504882812
 10
54.99213027954102
 20
555.5442504882812
 10
55.7948989868164
 20
555.5442504882812
 10
56.66474151611328
 20
555.5442504882812
 10
57.58023452758789
 20
555.5442504882812
 10
58.51884078979492
 20
555.5442504882812
 10
59.45744323730469
 20
555.5442504882812
 10
60.37294006347656
 20
555.5442504882812
 10
61.24277877807617
 20
555.5442504882812
 10
62.04554748535156
 20
555.5442504882812
 10
62.76147842407226
 20
555.5442504882812
 10
63.37294006347656
 20
555.5442504882812
 10
63.86487960815429
 20
555.5442504882812
 10
64.22518157958984
 20
555.5442504882812
 10
64.4449691772461
 20
555.5442504882812
 10
64.51883697509765
 20
555.5442504882812
  0
LINE
  5
17B
330
150
100
AcDbEntity
  8
0
  6
Continuous
 62
     0
370
    30
100
AcDbLine
 10
53.01883730469035
 20
579.5442390441894
 30
0.0
 11
54.51883723912327
 21
579.5442390441894
 31
0.0
  0
LINE
  5
17C
330
150
100
AcDbEntity
  8
0
  6
Continuous
 62
     0
370
    30
100
AcDbLine
 10
54.51883723912327
 20
579.5442390441894
 30
0.0
 11
62.51883723912325
 21
579.5442390441894
 31
0.0
  0
LINE
  5
17D
330
150
100
AcDbEntity
  8
0
  6
Continuous
 62
     0
370
    30
100
AcDbLine
 10
64.01883730469034
 20
579.5442390441894
 30
0.0
 11
62.51883723912325
 21
579.5442390441894
 31
0.0
  0
ARC
  5
17E
330
150
100
AcDbEntity
  8
0
  6
Continuous
 62
     0
370
    30
100
AcDbCircle
 10
53.01883730469035
 20
579.0442390441894
 30
0.0
 40
0.500000000000001
100
AcDbArc
 50
90.00000000022325
 51
180.0
  0
LINE
  5
17F
330
150
100
AcDbEntity
  8
0
  6
Continuous
 62
     0
370
     0
100
AcDbLine
 10
52.51883730469035
 20
579.0442390441894
 30
0.0
 11
54.51883721726757
 21
579.0442390441894
 31
0.0
  0
LINE
  5
180
330
150
100
AcDbEntity
  8
0
  6
Continuous
 62
     0
370
     0
100
AcDbLine
 10
54.51883723912327
 20
579.5442390441894
 30
0.0
 11
54.51883723912327
 21
579.0442390441894
 31
0.0
  0
LINE
  5
181
330
150
100
AcDbEntity
  8
0
  6
Continuous
 62
     0
370
     0
100
AcDbLine
 10
54.51883721726757
 20
579.0442390441894
 30
0.0
 11
62.51883721726755
 21
579.0442390441894
 31
0.0
  0
LINE
  5
182
330
150
100
AcDbEntity
  8
0
  6
Continuous
 62
     0
370
     0
100
AcDbLine
 10
62.51883723912325
 20
579.5442390441894
 30
0.0
 11
62.51883723912325
 21
579.0442390441894
 31
0.0
  0
LINE
  5
183
330
150
100
AcDbEntity
  8
0
  6
Continuous
 62
     0
370
     0
100
AcDbLine
 10
64.51883730469034
 20
579.0442390441894
 30
0.0
 11
62.51883721726755
 21
579.0442390441894
 31
0.0
  0
ARC
  5
184
330
150
100
AcDbEntity
  8
0
  6
Continuous
 62
     0
370
    30
100
AcDbCircle
 10
64.01883730469034
 20
579.0442390441894
 30
0.0
 40
0.5
100
AcDbArc
 50
0.0
 51
89.99999999977674
  0
LWPOLYLINE
  5
185
330
150
100
AcDbEntity
  8
0
  6
Continuous
 62
     0
370
    30
100
AcDbPolyline
 90
       15
 70
     0
 43
0.0
 10
52.51884078979492
 20
564.0440673828124
 10
52.51884078979492
 20
564.0386962890625
 10
52.51884078979492
 20
563.9363403320312
 10
52.51884078979492
 20
563.7063598632813
 10
52.51884078979492
 20
563.3597412109375
 10
52.51884078979492
 20
562.9094848632812
 10
52.51884078979492
 20
562.3653564453125
 10
52.51884078979492
 20
561.7350463867187
 10
52.51884078979492
 20
561.0234375
 10
52.51884078979492
 20
560.2368164062499
 10
52.51884078979492
 20
559.3836669921874
 10
52.51884078979492
 20
558.4746704101562
 10
52.51884078979492
 20
557.5225219726562
 10
52.51884078979492
 20
556.5404663085937
 10
52.51884078979492
 20
555.5442504882812
  0
LINE
  5
186
330
150
100
AcDbEntity
  8
0
  6
Continuous
 62
     0
370
    30
100
AcDbLine
 10
52.51883730469035
 20
564.0442390441894
 30
0.0
 11
52.51883730469035
 21
579.0442390441894
 31
0.0
  0
LWPOLYLINE
  5
187
330
150
100
AcDbEntity
  8
0
  6
Continuous
 62
     0
370
    30
100
AcDbPolyline
 90
       16
 70
     0
 43
0.0
 10
64.51883697509765
 20
555.5442504882812
 10
64.51883697509765
 20
556.4743652343749
 10
64.51876068115234
 20
557.3909301757812
 10
64.5184326171875
 20
558.2803344726563
 10
64.51736450195312
 20
559.1293945312499
 10
64.51483917236328
 20
559.9251098632812
 10
64.50881958007812
 20
560.6550903320312
 10
64.49613952636719
 20
561.307861328125
 10
64.47116088867187
 20
561.8747558593749
 10
64.42678833007812
 20
562.3529052734375
 10
64.35953521728515
 20
562.7467651367187
 10
64.27369689941406
 20
563.0640258789062
 10
64.18209075927734
 20
563.306640625
 10
64.09834289550781
 20
563.4696044921875
 10
64.03034210205078
 20
563.5410156249999
 10
64.01885986328125
 20
563.5442504882812
  0
LINE
  5
188
330
150
100
AcDbEntity
  8
0
  6
Continuous
 62
     0
370
    30
100
AcDbLine
 10
64.01883730469034
 20
563.5442390441894
 30
0.0
 11
62.51883723912325
 21
563.5442390441894
 31
0.0
  0
LINE
  5
189
330
150
100
AcDbEntity
  8
0
  6
Continuous
 62
     0
370
    30
100
AcDbLine
 10
62.51883723912325
 20
563.5442390441894
 30
0.0
 11
54.51883723912327
 21
563.5442390441894
 31
0.0
  0
LINE
  5
18A
330
150
100
AcDbEntity
  8
0
  6
Continuous
 62
     0
370
    30
100
AcDbLine
 10
53.01883730469035
 20
563.5442390441894
 30
0.0
 11
54.51883723912327
 21
563.5442390441894
 31
0.0
  0
LINE
  5
18B
330
150
100
AcDbEntity
  8
0
  6
Continuous
 62
     0
370
     0
100
AcDbLine
 10
52.51883730469035
 20
564.0442390441894
 30
0.0
 11
54.51883721726757
 21
564.0442390441894
 31
0.0
  0
LINE
  5
18C
330
150
100
AcDbEntity
  8
0
  6
Continuous
 62
     0
370
     0
100
AcDbLine
 10
54.51883721726757
 20
564.0442390441894
 30
0.0
 11
54.51883721726757
 21
579.0442390441894
 31
0.0
  0
LINE
  5
18D
330
150
100
AcDbEntity
  8
0
  6
Continuous
 62
     0
370
     0
100
AcDbLine
 10
62.51883721726755
 20
564.0442390441894
 30
0.0
 11
54.51883721726757
 21
564.0442390441894
 31
0.0
  0
LINE
  5
18E
330
150
100
AcDbEntity
  8
0
  6
Continuous
 62
     0
370
     0
100
AcDbLine
 10
62.51883721726755
 20
564.0442390441894
 30
0.0
 11
62.51883721726755
 21
579.0442390441894
 31
0.0
  0
LINE
  5
18F
330
150
100
AcDbEntity
  8
0
  6
Continuous
 62
     0
370
     0
100
AcDbLine
 10
64.51883730469034
 20
564.0442390441894
 30
0.0
 11
62.51883721726755
 21
564.0442390441894
 31
0.0
  0
LINE
  5
190
330
150
100
AcDbEntity
  8
0
  6
Continuous
 62
     0
370
    30
100
AcDbLine
 10
64.51883730469034
 20
564.0442390441894
 30
0.0
 11
64.51883730469034
 21
579.0442390441894
 31
0.0
  0
LWPOLYLINE
  5
191
330
150
100
AcDbEntity
  8
0
  6
Continuous
 62
     0
370
    30
100
AcDbPolyline
 90
       15
 70
     0
 43
0.0
 10
64.51883697509765
 20
555.5442504882812
 10
64.51883697509765
 20
556.5404663085937
 10
64.51883697509765
 20
557.5225219726562
 10
64.51883697509765
 20
558.4746704101562
 10
64.51883697509765
 20
559.3836669921874
 10
64.51883697509765
 20
560.2368164062499
 10
64.51883697509765
 20
561.0234375
 10
64.51883697509765
 20
561.7350463867187
 10
64.51883697509765
 20
562.3653564453125
 10
64.51883697509765
 20
562.9094848632812
 10
64.51883697509765
 20
563.3597412109375
 10
64.51883697509765
 20
563.7063598632813
 10
64.51883697509765
 20
563.9363403320312
 10
64.51883697509765
 20
564.0386962890625
 10
64.51883697509765
 20
564.0440673828124
  0
ARC
  5
192
330
150
100
AcDbEntity
  8
0
  6
Continuous
 62
     0
370
    30
100
AcDbCircle
 10
64.01883730469034
 20
564.0442390441894
 30
0.0
 40
0.5
100
AcDbArc
 50
270.000000000893
 51
0.0000000006697485
  0
LINE
  5
193
330
150
100
AcDbEntity
  8
0
  6
Continuous
 62
     0
370
     0
100
AcDbLine
 10
62.51883723912325
 20
563.5442390441894
 30
0.0
 11
62.51883723912325
 21
564.0442390441894
 31
0.0
  0
LINE
  5
194
330
150
100
AcDbEntity
  8
0
  6
Continuous
 62
     0
370
     0
100
AcDbLine
 10
54.51883723912327
 20
564.0442390441894
 30
0.0
 11
54.51883723912327
 21
563.5442390441894
 31
0.0
  0
ARC
  5
195
330
150
100
AcDbEntity
  8
0
  6
Continuous
 62
     0
370
    30
100
AcDbCircle
 10
53.01883730469035
 20
564.0442390441894
 30
0.0
 40
0.5
100
AcDbArc
 50
179.9999999993302
 51
269.9999999991069
  0
LINE
  5
196
330
150
100
AcDbEntity
  8
0
  6
Continuous
 62
     0
370
    30
100
AcDbLine
 10
64.51884023335337
 20
553.5442390441894
 30
0.0
 11
64.51884023335337
 21
522.5442390441894
 31
0.0
  0
LINE
  5
197
330
150
100
AcDbEntity
  8
0
  6
Continuous
 62
     0
370
    30
100
AcDbLine
 10
52.51884023335337
 20
553.5442390441894
 30
0.0
 11
52.51884023335337
 21
522.5442390441894
 31
0.0
  0
LWPOLYLINE
  5
198
330
150
100
AcDbEntity
  8
0
  6
Continuous
 62
     0
370
    30
100
AcDbPolyline
 90
       14
 70
     0
 43
0.0
 10
53.01884078979492
 20
563.5442504882812
 10
52.98649597167969
 20
563.5283813476562
 10
52.90155029296875
 20
563.4034423828125
 10
52.79979705810546
 20
563.16748046875
 10
52.69834518432617
 20
562.8333740234374
 10
52.6172981262207
 20
562.4010009765624
 10
52.56561660766601
 20
561.8605346679687
 10
52.53876113891601
 20
561.2051391601562
 10
52.52648544311523
 20
560.4400024414062
 10
52.52145004272461
 20
559.5791625976562
 10
52.51956939697265
 20
558.6400146484375
 10
52.51897048950195
 20
557.6414184570312
 10
52.51884841918945
 20
556.6029052734375
 10
52.51884078979492
 20
555.5442504882812
  0
LINE
  5
199
330
150
100
AcDbEntity
  8
0
  6
Continuous
 62
     0
370
    30
100
AcDbLine
 10
52.51883940943841
 20
556.4465780678838
 30
0.0
 11
52.51883947132185
 21
556.4484035135477
 31
0.0
  0
LINE
  5
19A
330
150
100
AcDbEntity
  8
0
  6
Continuous
 62
     0
370
    30
100
AcDbLine
 10
64.51884105233067
 20
556.4466500280292
 30
0.0
 11
64.5188409920755
 21
556.448424083901
 31
0.0
  0
ENDBLK
  5
19C
330
150
100
AcDbEntity
  8
0
100
AcDbBlockEnd
  0
ENDSEC
  0
SECTION
  2
ENTITIES
  0
INSERT
  5
B1
330
1F
100
AcDbEntity
  8
0
  6
Continuous
 62
   250
370
     0
100
AcDbBlockReference
  2
a
 10
230.5855102539062
 20
135.7793426513671
 30
0.0
  0
INSERT
  5
101
330
1F
100
AcDbEntity
  8
0
  6
Continuous
 62
   250
370
     0
100
AcDbBlockReference
  2
b
 10
230.5855102539062
 20
150.9810371398925
 30
0.0
  0
INSERT
  5
14F
330
1F
100
AcDbEntity
  8
0
  6
Continuous
 62
   250
370
     0
100
AcDbBlockReference
  2
c
 10
310.0227661132812
 20
135.7793426513671
 30
0.0
  0
INSERT
  5
19D
330
1F
100
AcDbEntity
  8
0
  6
Continuous
 62
   250
370
     0
100
AcDbBlockReference
  2
d
 10
141.9236145019531
 20
0.0000457763671875
 30
0.0
  0
ENDSEC
  0
SECTION
  2
OBJECTS
  0
DICTIONARY
  5
C
330
0
100
AcDbDictionary
281
     1
  3
ACAD_GROUP
350
D
  3
ACAD_LAYOUT
350
1A
  3
ACAD_MLEADERSTYLE
350
1A0
  3
ACAD_MLINESTYLE
350
17
  3
ACAD_PLOTSETTINGS
350
19
  3
ACAD_PLOTSTYLENAME
350
E
  3
ACAD_VISUALSTYLE
350
2A
  3
AcDbVariableDictionary
350
19E
  0
DICTIONARY
  5
D
102
{ACAD_REACTORS
330
C
102
}
330
C
100
AcDbDictionary
281
     1
  0
DICTIONARY
  5
1A
102
{ACAD_REACTORS
330
C
102
}
330
C
100
AcDbDictionary
281
     1
  3
Layout1
350
1E
  3
Layout2
350
26
  3
Model
350
22
  0
DICTIONARY
  5
1A0
102
{ACAD_REACTORS
330
C
102
}
330
C
100
AcDbDictionary
281
     1
  0
DICTIONARY
  5
17
102
{ACAD_REACTORS
330
C
102
}
330
C
100
AcDbDictionary
281
     1
  3
Standard
350
18
  0
DICTIONARY
  5
19
102
{ACAD_REACTORS
330
C
102
}
330
C
100
AcDbDictionary
281
     1
  0
ACDBDICTIONARYWDFLT
  5
E
102
{ACAD_REACTORS
330
C
102
}
330
C
100
AcDbDictionary
281
     1
  3
Normal
350
F
100
AcDbDictionaryWithDefault
340
F
  0
DICTIONARY
  5
2A
102
{ACAD_REACTORS
330
C
102
}
330
C
100
AcDbDictionary
281
     1
  3
2dWireframe
350
2F
  3
3D Hidden
350
31
  3
3dWireframe
350
30
  3
Basic
350
32
  3
Brighten
350
36
  3
ColorChange
350
3A
  3
Conceptual
350
34
  3
Dim
350
35
  3
Facepattern
350
39
  3
Flat
350
2B
  3
FlatWithEdges
350
2C
  3
Gouraud
350
2D
  3
GouraudWithEdges
350
2E
  3
Linepattern
350
38
  3
Realistic
350
33
  3
Thicken
350
37
  0
DICTIONARY
  5
19E
102
{ACAD_REACTORS
330
C
102
}
330
C
100
AcDbDictionary
281
     1
  3
DIMASSOC
350
1A9
  3
PSOLHEIGHT
350
1A2
  3
PSOLWIDTH
350
1A1
  0
LAYOUT
  5
1E
102
{ACAD_REACTORS
330
1A
102
}
330
1A
100
AcDbPlotSettings
  1

  2
none_device
  4

  6

 40
0.0
 41
0.0
 42
0.0
 43
0.0
 44
0.0
 45
0.0
 46
0.0
 47
0.0
 48
0.0
 49
0.0
140
0.0
141
0.0
142
1.0
143
1.0
 70
   688
 72
     0
 73
     0
 74
     5
  7

 75
    16
147
1.0
148
0.0
149
0.0
100
AcDbLayout
  1
Layout1
 70
     1
 71
     1
 10
0.0
 20
0.0
 11
420.0
 21
297.0
 12
0.0
 22
0.0
 32
0.0
 14
1.000000000000000E+20
 24
1.000000000000000E+20
 34
1.000000000000000E+20
 15
-1.000000000000000E+20
 25
-1.000000000000000E+20
 35
-1.000000000000000E+20
146
0.0
 13
0.0
 23
0.0
 33
0.0
 16
1.0
 26
0.0
 36
0.0
 17
0.0
 27
1.0
 37
0.0
 76
     0
330
1B
  0
LAYOUT
  5
26
102
{ACAD_REACTORS
330
1A
102
}
330
1A
100
AcDbPlotSettings
  1

  2
none_device
  4

  6

 40
0.0
 41
0.0
 42
0.0
 43
0.0
 44
0.0
 45
0.0
 46
0.0
 47
0.0
 48
0.0
 49
0.0
140
0.0
141
0.0
142
1.0
143
1.0
 70
   688
 72
     0
 73
     0
 74
     5
  7

 75
    16
147
1.0
148
0.0
149
0.0
100
AcDbLayout
  1
Layout2
 70
     1
 71
     2
 10
0.0
 20
0.0
 11
0.0
 21
0.0
 12
0.0
 22
0.0
 32
0.0
 14
0.0
 24
0.0
 34
0.0
 15
0.0
 25
0.0
 35
0.0
146
0.0
 13
0.0
 23
0.0
 33
0.0
 16
1.0
 26
0.0
 36
0.0
 17
0.0
 27
1.0
 37
0.0
 76
     0
330
23
  0
LAYOUT
  5
22
102
{ACAD_REACTORS
330
1A
102
}
330
1A
100
AcDbPlotSettings
  1

  2
none_device
  4

  6

 40
0.0
 41
0.0
 42
0.0
 43
0.0
 44
0.0
 45
0.0
 46
0.0
 47
0.0
 48
0.0
 49
0.0
140
0.0
141
0.0
142
1.0
143
1.0
 70
  1712
 72
     0
 73
     0
 74
     0
  7

 75
     0
147
1.0
148
0.0
149
0.0
100
AcDbLayout
  1
Model
 70
     1
 71
     0
 10
-114.4811477661132
 20
128.5400085449218
 11
962.3830566406249
 21
768.5402832031249
 12
0.0
 22
0.0
 32
0.0
 14
-114.4811477661132
 24
128.5400085449218
 34
0.0
 15
962.3830566406249
 25
768.5402832031249
 35
0.0
146
0.0
 13
0.0
 23
0.0
 33
0.0
 16
1.0
 26
0.0
 36
0.0
 17
0.0
 27
1.0
 37
0.0
 76
     0
330
1F
  0
MLINESTYLE
  5
18
102
{ACAD_REACTORS
330
17
102
}
330
17
100
AcDbMlineStyle
  2
STANDARD
 70
     0
  3

 62
   256
 51
90.0
 52
90.0
 71
     2
 49
0.5
 62
   256
  6
BYLAYER
 49
-0.5
 62
   256
  6
BYLAYER
  0
ACDBPLACEHOLDER
  5
F
102
{ACAD_REACTORS
330
E
102
}
330
E
  0
ACAD_PROXY_OBJECT
  5
2F
102
{ACAD_REACTORS
330
2A
102
}
330
2A
100
AcDbProxyObject
 90
      499
 91
      501
 95
   851991
 70
     0
 93
      436
310
42CC9915DA5C99599C985B595049028333333333333E3BF0000000000000FB0107901411070040501600405405064090741402480A0340
 94
        0
1001
ACAD
1000
AcDbSavedByObjectVersion
1070
     0
  0
ACAD_PROXY_OBJECT
  5
31
102
{ACAD_REACTORS
330
2A
102
}
330
2A
100
AcDbProxyObject
 90
      499
 91
      501
 95
   851991
 70
     0
 93
      500
310
424CD108121A5919195B90640502408333333333333E3BF0000000000000FB01079024090700405020000000000001110200405405064090740C02480A034D
 94
        0
1001
ACAD
1000
AcDbSavedByObjectVersion
1070
     0
  0
ACAD_PROXY_OBJECT
  5
30
102
{ACAD_REACTORS
330
2A
102
}
330
2A
100
AcDbProxyObject
 90
      499
 91
      501
 95
   851991
 70
     0
 93
      436
310
42CCD915DA5C99599C985B595059028333333333333E3BF0000000000000FB0107901411070040501600405405064090741402480A0340
 94
        0
1001
ACAD
1000
AcDbSavedByObjectVersion
1070
     0
  0
ACAD_PROXY_OBJECT
  5
32
102
{ACAD_REACTORS
330
2A
102
}
330
2A
100
AcDbProxyObject
 90
      499
 91
      501
 95
   851991
 70
     0
 93
      388
310
4150985CDA58D07406404333333333333E3BF0000000000000FB0107A41107004050150841D405064090741402480A0352
 94
        0
1001
ACAD
1000
AcDbSavedByObjectVersion
1070
     0
  0
ACAD_PROXY_OBJECT
  5
36
102
{ACAD_REACTORS
330
2A
102
}
330
2A
100
AcDbProxyObject
 90
      499
 91
      501
 95
   851991
 70
     0
 93
      428
310
42109C9A59DA1D195B90C409028333333333333E3BF0000000000000FB010790141107004050150841D405064090741402480A029956
 94
        0
1001
ACAD
1000
AcDbSavedByObjectVersion
1070
     0
  0
ACAD_PROXY_OBJECT
  5
3A
102
{ACAD_REACTORS
330
2A
102
}
330
2A
100
AcDbProxyObject
 90
      499
 91
      501
 95
   851991
 70
     0
 93
      452
310
42D0DBDB1BDC90DA185B99D95104090240C333333333333E3BF0000000000000FB0108901411070040501508421405064090741402480A0354
 94
        0
1001
ACAD
1000
AcDbSavedByObjectVersion
1070
     0
  0
ACAD_PROXY_OBJECT
  5
34
102
{ACAD_REACTORS
330
2A
102
}
330
2A
100
AcDbProxyObject
 90
      499
 91
      501
 95
   851991
 70
     0
 93
      500
310
4290DBDB98D95C1D1D585B10940D028333333333333E3BF0000000000000FB0107902409070040501000000000000111010841D405064090740C02480A034D
 94
        0
1001
ACAD
1000
AcDbSavedByObjectVersion
1070
     0
  0
ACAD_PROXY_OBJECT
  5
35
102
{ACAD_REACTORS
330
2A
102
}
330
2A
100
AcDbProxyObject
 90
      499
 91
      501
 95
   851991
 70
     0
 93
      412
310
40D11A5B50B409028333333333333E3BF0000000000000FB010790141107004050150841D405064090741402480A02677FFFFFD4
 94
        0
1001
ACAD
1000
AcDbSavedByObjectVersion
1070
     0
  0
ACAD_PROXY_OBJECT
  5
39
102
{ACAD_REACTORS
330
2A
102
}
330
2A
100
AcDbProxyObject
 90
      499
 91
      501
 95
   851991
 70
     0
 93
      444
310
42D19858D95C185D1D195C9B90F409028333333333333E3BF0000000000000FB010790141107004050150841D405064090741402480A0350
 94
        0
1001
ACAD
1000
AcDbSavedByObjectVersion
1070
     0
  0
ACAD_PROXY_OBJECT
  5
2B
102
{ACAD_REACTORS
330
2A
102
}
330
2A
100
AcDbProxyObject
 90
      499
 91
      501
 95
   851991
 70
     0
 93
      388
310
41119B185D240901404333333333333E3BF0000000000000F9010740A41107004050150841D405064090741402480A1B5D
 94
        0
1001
ACAD
1000
AcDbSavedByObjectVersion
1070
     0
  0
ACAD_PROXY_OBJECT
  5
2C
102
{ACAD_REACTORS
330
2A
102
}
330
2A
100
AcDbProxyObject
 90
      499
 91
      501
 95
   851991
 70
     0
 93
      476
310
43519B185D15DA5D1A115919D95CD0140901404333333333333E3BF0000000000000F9010740901411070040501600405405064090741402480A1B50
 94
        0
1001
ACAD
1000
AcDbSavedByObjectVersion
1070
     0
  0
ACAD_PROXY_OBJECT
  5
2D
102
{ACAD_REACTORS
330
2A
102
}
330
2A
100
AcDbProxyObject
 90
      499
 91
      501
 95
   851991
 70
     0
 93
      412
310
41D1DBDD5C985D5910240902404333333333333E3BF0000000000000F9010740A411070040501641D405064090741402480A1B50
 94
        0
1001
ACAD
1000
AcDbSavedByObjectVersion
1070
     0
  0
ACAD_PROXY_OBJECT
  5
2E
102
{ACAD_REACTORS
330
2A
102
}
330
2A
100
AcDbProxyObject
 90
      499
 91
      501
 95
   851991
 70
     0
 93
      500
310
4411DBDD5C985D5915DA5D1A115919D95CD0340902404333333333333E3BF0000000000000F9010740901411070040501600405405064090741402480A1B5D
 94
        0
1001
ACAD
1000
AcDbSavedByObjectVersion
1070
     0
  0
ACAD_PROXY_OBJECT
  5
38
102
{ACAD_REACTORS
330
2A
102
}
330
2A
100
AcDbProxyObject
 90
      499
 91
      501
 95
   851991
 70
     0
 93
      444
310
42D31A5B995C185D1D195C9B90E409028333333333333E3BF0000000000000FB010790141107004050750841D405064090741402483A0350
 94
        0
1001
ACAD
1000
AcDbSavedByObjectVersion
1070
     0
  0
ACAD_PROXY_OBJECT
  5
33
102
{ACAD_REACTORS
330
2A
102
}
330
2A
100
AcDbProxyObject
 90
      499
 91
      501
 95
   851991
 70
     0
 93
      420
310
425499585B1A5CDD1A58D08409028333333333333E3BF0000000000000FB01079019070040501508421405064090741402480A1B45
 94
        0
1001
ACAD
1000
AcDbSavedByObjectVersion
1070
     0
  0
ACAD_PROXY_OBJECT
  5
37
102
{ACAD_REACTORS
330
2A
102
}
330
2A
100
AcDbProxyObject
 90
      499
 91
      501
 95
   851991
 70
     0
 93
      412
310
41D51A1A58DAD95B90D409028333333333333E3BF0000000000000FB010790141107004050150C41D405064090741402480A0352
 94
        0
1001
ACAD
1000
AcDbSavedByObjectVersion
1070
     0
  0
DICTIONARYVAR
  5
1A9
102
{ACAD_REACTORS
330
19E
102
}
330
19E
100
DictionaryVariables
280
     0
  1
1
  0
DICTIONARYVAR
  5
1A2
102
{ACAD_REACTORS
330
19E
102
}
330
19E
100
DictionaryVariables
280
     0
  1
80.000000
  0
DICTIONARYVAR
  5
1A1
102
{ACAD_REACTORS
330
19E
102
}
330
19E
100
DictionaryVariables
280
     0
  1
5.000000
  0
ENDSEC
  0
EOF
