  0
SECTION
  2
HEADER
  9
$ACADVER
  1
AC1015
  9
$ACADMAINTVER
 70
    13
  9
$DWGCODEPAGE
  3
ANSI_1252
  9
$INSBASE
 10
0.0
 20
0.0
 30
0.0
  9
$EXTMIN
 10
-87.94335095956261
 20
64.65374321871832
 30
0.0
  9
$EXTMAX
 10
635.8158315575111
 20
585.8969649798665
 30
0.0
  9
$LIMMIN
 10
-87.94335174560547
 20
49.89370346069335
  9
$LIMMAX
 10
635.8158569335937
 20
566.1904907226563
  9
$ORTHOMODE
 70
     0
  9
$REGENMODE
 70
     1
  9
$FILLMODE
 70
     1
  9
$QTEXTMODE
 70
     0
  9
$MIRRTEXT
 70
     1
  9
$LTSCALE
 40
1.0
  9
$ATTMODE
 70
     1
  9
$TEXTSIZE
 40
2.5
  9
$TRACEWID
 40
1.0
  9
$TEXTSTYLE
  7
Standard
  9
$CLAYER
  8
0
  9
$CELTYPE
  6
ByLayer
  9
$CECOLOR
 62
   256
  9
$CELTSCALE
 40
1.0
  9
$DISPSILH
 70
     0
  9
$DIMSCALE
 40
1.0
  9
$DIMASZ
 40
2.5
  9
$DIMEXO
 40
0.625
  9
$DIMDLI
 40
3.75
  9
$DIMRND
 40
0.0
  9
$DIMDLE
 40
0.0
  9
$DIMEXE
 40
1.25
  9
$DIMTP
 40
0.0
  9
$DIMTM
 40
0.0
  9
$DIMTXT
 40
2.5
  9
$DIMCEN
 40
2.5
  9
$DIMTSZ
 40
0.0
  9
$DIMTOL
 70
     0
  9
$DIMLIM
 70
     0
  9
$DIMTIH
 70
     0
  9
$DIMTOH
 70
     0
  9
$DIMSE1
 70
     0
  9
$DIMSE2
 70
     0
  9
$DIMTAD
 70
     1
  9
$DIMZIN
 70
     8
  9
$DIMBLK
  1

  9
$DIMASO
 70
     1
  9
$DIMSHO
 70
     1
  9
$DIMPOST
  1

  9
$DIMAPOST
  1

  9
$DIMALT
 70
     0
  9
$DIMALTD
 70
     3
  9
$DIMALTF
 40
0.03937007874016
  9
$DIMLFAC
 40
1.0
  9
$DIMTOFL
 70
     1
  9
$DIMTVP
 40
0.0
  9
$DIMTIX
 70
     0
  9
$DIMSOXD
 70
     0
  9
$DIMSAH
 70
     0
  9
$DIMBLK1
  1

  9
$DIMBLK2
  1

  9
$DIMSTYLE
  2
ISO-25
  9
$DIMCLRD
 70
     0
  9
$DIMCLRE
 70
     0
  9
$DIMCLRT
 70
     0
  9
$DIMTFAC
 40
1.0
  9
$DIMGAP
 40
0.625
  9
$DIMJUST
 70
     0
  9
$DIMSD1
 70
     0
  9
$DIMSD2
 70
     0
  9
$DIMTOLJ
 70
     0
  9
$DIMTZIN
 70
     8
  9
$DIMALTZ
 70
     0
  9
$DIMALTTZ
 70
     0
  9
$DIMUPT
 70
     0
  9
$DIMDEC
 70
     2
  9
$DIMTDEC
 70
     2
  9
$DIMALTU
 70
     2
  9
$DIMALTTD
 70
     3
  9
$DIMTXSTY
  7
Standard
  9
$DIMAUNIT
 70
     0
  9
$DIMADEC
 70
     0
  9
$DIMALTRND
 40
0.0
  9
$DIMAZIN
 70
     0
  9
$DIMDSEP
 70
    44
  9
$DIMATFIT
 70
     3
  9
$DIMFRAC
 70
     0
  9
$DIMLDRBLK
  1

  9
$DIMLUNIT
 70
     2
  9
$DIMLWD
 70
    -2
  9
$DIMLWE
 70
    -2
  9
$DIMTMOVE
 70
     0
  9
$LUNITS
 70
     2
  9
$LUPREC
 70
     4
  9
$SKETCHINC
 40
1.0
  9
$FILLETRAD
 40
10.0
  9
$AUNITS
 70
     0
  9
$AUPREC
 70
     0
  9
$MENU
  1
.
  9
$ELEVATION
 40
0.0
  9
$PELEVATION
 40
0.0
  9
$THICKNESS
 40
0.0
  9
$LIMCHECK
 70
     0
  9
$CHAMFERA
 40
10.0
  9
$CHAMFERB
 40
10.0
  9
$CHAMFERC
 40
20.0
  9
$CHAMFERD
 40
0.0
  9
$SKPOLY
 70
     0
  9
$TDCREATE
 40
2455525.409782800
  9
$TDUCREATE
 40
2455525.368116134
  9
$TDUPDATE
 40
2455525.452236030
  9
$TDUUPDATE
 40
2455525.410569363
  9
$TDINDWG
 40
0.0002123148
  9
$TDUSRTIMER
 40
0.0002123148
  9
$USRTIMER
 70
     1
  9
$ANGBASE
 50
0.0
  9
$ANGDIR
 70
     0
  9
$PDMODE
 70
     0
  9
$PDSIZE
 40
0.0
  9
$PLINEWID
 40
0.0
  9
$SPLFRAME
 70
     0
  9
$SPLINETYPE
 70
     6
  9
$SPLINESEGS
 70
     8
  9
$HANDSEED
  5
25A
  9
$SURFTAB1
 70
     6
  9
$SURFTAB2
 70
     6
  9
$SURFTYPE
 70
     6
  9
$SURFU
 70
     6
  9
$SURFV
 70
     6
  9
$UCSBASE
  2

  9
$UCSNAME
  2

  9
$UCSORG
 10
0.0
 20
0.0
 30
0.0
  9
$UCSXDIR
 10
1.0
 20
0.0
 30
0.0
  9
$UCSYDIR
 10
0.0
 20
1.0
 30
0.0
  9
$UCSORTHOREF
  2

  9
$UCSORTHOVIEW
 70
     0
  9
$UCSORGTOP
 10
0.0
 20
0.0
 30
0.0
  9
$UCSORGBOTTOM
 10
0.0
 20
0.0
 30
0.0
  9
$UCSORGLEFT
 10
0.0
 20
0.0
 30
0.0
  9
$UCSORGRIGHT
 10
0.0
 20
0.0
 30
0.0
  9
$UCSORGFRONT
 10
0.0
 20
0.0
 30
0.0
  9
$UCSORGBACK
 10
0.0
 20
0.0
 30
0.0
  9
$PUCSBASE
  2

  9
$PUCSNAME
  2

  9
$PUCSORG
 10
0.0
 20
0.0
 30
0.0
  9
$PUCSXDIR
 10
1.0
 20
0.0
 30
0.0
  9
$PUCSYDIR
 10
0.0
 20
1.0
 30
0.0
  9
$PUCSORTHOREF
  2

  9
$PUCSORTHOVIEW
 70
     0
  9
$PUCSORGTOP
 10
0.0
 20
0.0
 30
0.0
  9
$PUCSORGBOTTOM
 10
0.0
 20
0.0
 30
0.0
  9
$PUCSORGLEFT
 10
0.0
 20
0.0
 30
0.0
  9
$PUCSORGRIGHT
 10
0.0
 20
0.0
 30
0.0
  9
$PUCSORGFRONT
 10
0.0
 20
0.0
 30
0.0
  9
$PUCSORGBACK
 10
0.0
 20
0.0
 30
0.0
  9
$USERI1
 70
     0
  9
$USERI2
 70
     0
  9
$USERI3
 70
     0
  9
$USERI4
 70
     0
  9
$USERI5
 70
     0
  9
$USERR1
 40
0.0
  9
$USERR2
 40
0.0
  9
$USERR3
 40
0.0
  9
$USERR4
 40
0.0
  9
$USERR5
 40
0.0
  9
$WORLDVIEW
 70
     1
  9
$SHADEDGE
 70
     3
  9
$SHADEDIF
 70
    70
  9
$TILEMODE
 70
     1
  9
$MAXACTVP
 70
    64
  9
$PINSBASE
 10
0.0
 20
0.0
 30
0.0
  9
$PLIMCHECK
 70
     0
  9
$PEXTMIN
 10
1.000000000000000E+20
 20
1.000000000000000E+20
 30
1.000000000000000E+20
  9
$PEXTMAX
 10
-1.000000000000000E+20
 20
-1.000000000000000E+20
 30
-1.000000000000000E+20
  9
$PLIMMIN
 10
0.0
 20
0.0
  9
$PLIMMAX
 10
420.0
 20
297.0
  9
$UNITMODE
 70
     0
  9
$VISRETAIN
 70
     1
  9
$PLINEGEN
 70
     0
  9
$PSLTSCALE
 70
     1
  9
$TREEDEPTH
 70
  3020
  9
$CMLSTYLE
  2
Standard
  9
$CMLJUST
 70
     0
  9
$CMLSCALE
 40
20.0
  9
$PROXYGRAPHICS
 70
     1
  9
$MEASUREMENT
 70
     1
  9
$CELWEIGHT
370
    -1
  9
$ENDCAPS
280
     0
  9
$JOINSTYLE
280
     0
  9
$LWDISPLAY
290
     0
  9
$INSUNITS
 70
     4
  9
$HYPERLINKBASE
  1

  9
$STYLESHEET
  1

  9
$XEDIT
290
     1
  9
$CEPSNTYPE
380
     0
  9
$PSTYLEMODE
290
     1
  9
$FINGERPRINTGUID
  2
{00A99E25-230C-4C2E-9CC5-5BD8ED7BFB9B}
  9
$VERSIONGUID
  2
{D6E575C5-396A-462A-B2C0-4C0D7AE2757F}
  9
$EXTNAMES
290
     1
  9
$PSVPSCALE
 40
0.0
  9
$OLESTARTUP
290
     0
  0
ENDSEC
  0
SECTION
  2
CLASSES
  0
CLASS
  1
ACDBDICTIONARYWDFLT
  2
AcDbDictionaryWithDefault
  3
AutoCAD 2000
 90
        0
280
     0
281
     0
  0
CLASS
  1
VISUALSTYLE
  2
AcDbVisualStyle
  3
ObjectDBX Classes
 90
     4095
280
     0
281
     0
  0
CLASS
  1
DICTIONARYVAR
  2
AcDbDictionaryVar
  3
AutoCAD 2000
 90
        0
280
     0
281
     0
  0
CLASS
  1
ACDBPLACEHOLDER
  2
AcDbPlaceHolder
  3
AutoCAD 2000
 90
        0
280
     0
281
     0
  0
CLASS
  1
LAYOUT
  2
AcDbLayout
  3
AutoCAD 2000
 90
        0
280
     0
281
     0
  0
ENDSEC
  0
SECTION
  2
TABLES
  0
TABLE
  2
VPORT
  5
8
330
0
100
AcDbSymbolTable
 70
     2
  0
VPORT
  5
259
330
8
100
AcDbSymbolTableRecord
100
AcDbViewportTableRecord
  2
*Active
 70
     0
 10
0.0
 20
0.0
 11
1.0
 21
1.0
 12
273.9362542791274
 22
325.275362811752
 13
0.0
 23
0.0
 14
10.0
 24
10.0
 15
10.0
 25
10.0
 16
0.0
 26
0.0
 36
1.0
 17
0.0
 27
0.0
 37
0.0
 40
524.4863319194609
 41
1.906832298136645
 42
50.0
 43
0.0
 44
0.0
 50
0.0
 51
0.0
 71
     0
 72
   100
 73
     1
 74
     3
 75
     0
 76
     0
 77
     0
 78
     0
281
     0
 65
     1
110
0.0
120
0.0
130
0.0
111
1.0
121
0.0
131
0.0
112
0.0
122
1.0
132
0.0
 79
     0
146
0.0
  0
ENDTAB
  0
TABLE
  2
LTYPE
  5
5
330
0
100
AcDbSymbolTable
 70
     1
  0
LTYPE
  5
14
330
5
100
AcDbSymbolTableRecord
100
AcDbLinetypeTableRecord
  2
ByBlock
 70
     0
  3

 72
    65
 73
     0
 40
0.0
  0
LTYPE
  5
15
330
5
100
AcDbSymbolTableRecord
100
AcDbLinetypeTableRecord
  2
ByLayer
 70
     0
  3

 72
    65
 73
     0
 40
0.0
  0
LTYPE
  5
16
330
5
100
AcDbSymbolTableRecord
100
AcDbLinetypeTableRecord
  2
Continuous
 70
     0
  3
Solid line
 72
    65
 73
     0
 40
0.0
  0
ENDTAB
  0
TABLE
  2
LAYER
  5
2
330
0
100
AcDbSymbolTable
 70
     1
  0
LAYER
  5
10
330
2
100
AcDbSymbolTableRecord
100
AcDbLayerTableRecord
  2
0
 70
     0
 62
   106
  6
Continuous
370
     0
390
F
  0
ENDTAB
  0
TABLE
  2
STYLE
  5
3
330
0
100
AcDbSymbolTable
 70
     4
  0
STYLE
  5
11
330
3
100
AcDbSymbolTableRecord
100
AcDbTextStyleTableRecord
  2
Standard
 70
     0
 40
0.0
 41
1.0
 50
0.0
 71
     0
 42
2.5
  3
txt
  4

  0
STYLE
  5
3B
330
3
100
AcDbSymbolTableRecord
100
AcDbTextStyleTableRecord
  2
Default
 70
     0
 40
0.0
 41
1.0
 50
0.0
 71
     0
 42
0.2
  3
txt_____.ttf
  4

1001
ACAD
1000
txt
1071
        0
  0
STYLE
  5
3C
330
3
100
AcDbSymbolTableRecord
100
AcDbTextStyleTableRecord
  2
ISO
 70
     0
 40
0.0
 41
1.0
 50
0.0
 71
     0
 42
0.2
  3
txt_____.ttf
  4

1001
ACAD
1000
txt
1071
        0
  0
STYLE
  5
3D
330
3
100
AcDbSymbolTableRecord
100
AcDbTextStyleTableRecord
  2
GIANLU
 70
     0
 40
0.0
 41
1.0
 50
0.0
 71
     0
 42
0.2
  3
ARIAL.TTF
  4

1001
ACAD
1000
Arial
1071
        0
  0
ENDTAB
  0
TABLE
  2
VIEW
  5
6
330
0
100
AcDbSymbolTable
 70
     0
  0
ENDTAB
  0
TABLE
  2
UCS
  5
7
330
0
100
AcDbSymbolTable
 70
     0
  0
ENDTAB
  0
TABLE
  2
APPID
  5
9
330
0
100
AcDbSymbolTable
 70
     1
  0
APPID
  5
12
330
9
100
AcDbSymbolTableRecord
100
AcDbRegAppTableRecord
  2
ACAD
 70
     0
  0
ENDTAB
  0
TABLE
  2
DIMSTYLE
  5
A
330
0
100
AcDbSymbolTable
 70
     4
100
AcDbDimStyleTable
 71
     0
  0
DIMSTYLE
105
27
330
A
100
AcDbSymbolTableRecord
100
AcDbDimStyleTableRecord
  2
ISO-25
 70
     0
 41
2.5
 42
0.625
 43
3.75
 44
1.25
 73
     0
 74
     0
 77
     1
 78
     8
140
2.5
141
2.5
143
0.03937007874016
147
0.625
171
     3
172
     1
271
     2
272
     2
274
     3
278
    44
283
     0
284
     8
340
11
  0
DIMSTYLE
105
3E
330
A
100
AcDbSymbolTableRecord
100
AcDbDimStyleTableRecord
  2
Default
 70
     0
  3
<>
 41
4.375
 42
1.05
 44
2.1
 73
     0
 74
     0
 77
     1
 78
     8
140
3.5
146
0.4
147
1.75
178
     3
271
     2
272
     3
284
     8
340
3B
341
3F
342
3F
  0
DIMSTYLE
105
46
330
A
100
AcDbSymbolTableRecord
100
AcDbDimStyleTableRecord
  2
ISO
 70
     0
  3
<>
 41
4.375
 42
1.05
 44
2.1
 73
     0
 74
     0
 77
     1
 78
     8
140
3.5
146
0.4
147
1.75
178
     3
271
     2
272
     3
284
     8
340
3C
341
3F
342
3F
  0
DIMSTYLE
105
47
330
A
100
AcDbSymbolTableRecord
100
AcDbDimStyleTableRecord
  2
zucchetti_unico
 70
     0
  3
<>
 41
3.0
 42
0.9
 44
1.799999999999999
 73
     0
 74
     0
 77
     1
 78
     8
140
3.0
146
0.6
147
1.5
176
   104
177
     3
178
     3
271
     2
272
     2
284
     8
340
3D
  0
ENDTAB
  0
TABLE
  2
BLOCK_RECORD
  5
1
330
0
100
AcDbSymbolTable
 70
     6
  0
BLOCK_RECORD
  5
1F
330
1
100
AcDbSymbolTableRecord
100
AcDbBlockTableRecord
  2
*Model_Space
340
22
  0
BLOCK_RECORD
  5
1B
330
1
100
AcDbSymbolTableRecord
100
AcDbBlockTableRecord
  2
*Paper_Space
340
1E
  0
BLOCK_RECORD
  5
23
330
1
100
AcDbSymbolTableRecord
100
AcDbBlockTableRecord
  2
*Paper_Space0
340
26
  0
BLOCK_RECORD
  5
3F
330
1
100
AcDbSymbolTableRecord
100
AcDbBlockTableRecord
  2
_CLOSED
340
0
  0
BLOCK_RECORD
  5
48
330
1
100
AcDbSymbolTableRecord
100
AcDbBlockTableRecord
  2
a
340
0
102
{BLKREFS
331
D0
102
}
  0
BLOCK_RECORD
  5
D1
330
1
100
AcDbSymbolTableRecord
100
AcDbBlockTableRecord
  2
b
340
0
102
{BLKREFS
331
152
102
}
  0
BLOCK_RECORD
  5
153
330
1
100
AcDbSymbolTableRecord
100
AcDbBlockTableRecord
  2
c
340
0
102
{BLKREFS
331
1BF
102
}
  0
BLOCK_RECORD
  5
1C0
330
1
100
AcDbSymbolTableRecord
100
AcDbBlockTableRecord
  2
d
340
0
102
{BLKREFS
331
247
102
}
  0
ENDTAB
  0
ENDSEC
  0
SECTION
  2
BLOCKS
  0
BLOCK
  5
20
330
1F
100
AcDbEntity
  8
0
100
AcDbBlockBegin
  2
*Model_Space
 70
     0
 10
0.0
 20
0.0
 30
0.0
  3
*Model_Space
  1

  0
ENDBLK
  5
21
330
1F
100
AcDbEntity
  8
0
100
AcDbBlockEnd
  0
BLOCK
  5
1C
330
1B
100
AcDbEntity
 67
     1
  8
0
100
AcDbBlockBegin
  2
*Paper_Space
 70
     0
 10
0.0
 20
0.0
 30
0.0
  3
*Paper_Space
  1

  0
ENDBLK
  5
1D
330
1B
100
AcDbEntity
 67
     1
  8
0
100
AcDbBlockEnd
  0
BLOCK
  5
24
330
23
100
AcDbEntity
  8
0
100
AcDbBlockBegin
  2
*Paper_Space0
 70
     0
 10
0.0
 20
0.0
 30
0.0
  3
*Paper_Space0
  1

  0
ENDBLK
  5
25
330
23
100
AcDbEntity
  8
0
100
AcDbBlockEnd
  0
BLOCK
  5
40
330
3F
100
AcDbEntity
  8
0
100
AcDbBlockBegin
  2
_CLOSED
 70
     0
 10
0.0
 20
0.0
 30
0.0
  3
_CLOSED
  1

  0
LINE
  5
42
330
3F
100
AcDbEntity
  8
0
  6
ByBlock
 62
     0
370
    -2
100
AcDbLine
 10
-1.0
 20
0.166667
 30
0.0
 11
0.0
 21
0.0
 31
0.0
  0
LINE
  5
43
330
3F
100
AcDbEntity
  8
0
  6
ByBlock
 62
     0
370
    -2
100
AcDbLine
 10
0.0
 20
0.0
 30
0.0
 11
-1.0
 21
-0.166667
 31
0.0
  0
LINE
  5
44
330
3F
100
AcDbEntity
  8
0
  6
ByBlock
 62
     0
370
    -2
100
AcDbLine
 10
-1.0
 20
0.166667
 30
0.0
 11
-1.0
 21
-0.166667
 31
0.0
  0
LINE
  5
45
330
3F
100
AcDbEntity
  8
0
  6
ByBlock
 62
     0
370
    -2
100
AcDbLine
 10
0.0
 20
0.0
 30
0.0
 11
-1.0
 21
0.0
 31
0.0
  0
ENDBLK
  5
41
330
3F
100
AcDbEntity
  8
0
100
AcDbBlockEnd
  0
BLOCK
  5
CE
330
48
100
AcDbEntity
  8
0
100
AcDbBlockBegin
  2
a
 70
     0
 10
209.1382141113281
 20
78.72364807128906
 30
0.0
  3
a
  1

  0
LINE
  5
49
330
48
100
AcDbEntity
  8
0
  6
Continuous
 62
     0
370
    30
100
AcDbLine
 10
259.6230411350954
 20
470.1991998448827
 30
0.0
 11
270.926090272719
 21
470.1991994462873
 31
0.0
  0
LINE
  5
4A
330
48
100
AcDbEntity
  8
0
  6
Continuous
 62
     0
370
    30
100
AcDbLine
 10
248.3230572696214
 20
470.1991998448648
 30
0.0
 11
259.622978479818
 21
470.1991998448638
 31
0.0
  0
LWPOLYLINE
  5
4B
330
48
100
AcDbEntity
  8
0
  6
Continuous
 62
     0
370
    30
100
AcDbPolyline
 90
       22
 70
     0
 43
0.0
 10
293.9640502929687
 20
406.0093994140625
 10
292.7897949218749
 20
405.7882995605468
 10
291.6249084472656
 20
405.5217895507812
 10
290.4564514160156
 20
405.2716064453124
 10
289.2830505371093
 20
405.0453186035156
 10
288.1231689453125
 20
404.7594909667968
 10
286.9977416992187
 20
404.3596191406249
 10
285.9281005859374
 20
403.8291625976562
 10
284.9324340820312
 20
403.1703796386718
 10
284.0223693847656
 20
402.3969421386718
 10
283.2115478515624
 20
401.52001953125
 10
282.5151977539062
 20
400.5498352050781
 10
281.9425048828124
 20
399.5018920898437
 10
281.4997558593749
 20
398.3927307128906
 10
281.1925659179687
 20
397.2383422851562
 10
281.0213317871093
 20
396.05615234375
 10
280.9575500488281
 20
394.8630676269531
 10
280.935546875
 20
393.6684570312499
 10
280.9077148437499
 20
392.4747009277343
 10
280.8507690429687
 20
391.28125
 10
280.7862854003906
 20
390.0868225097656
 10
280.7717285156249
 20
388.891845703125
  0
LWPOLYLINE
  5
4C
330
48
100
AcDbEntity
  8
0
  6
Continuous
 62
     0
370
     0
100
AcDbPolyline
 90
        6
 70
     0
 43
0.0
 10
280.7718200683593
 20
388.8784790039062
 10
280.9131469726562
 20
388.884521484375
 10
281.0173034667968
 20
388.8887939453125
 10
281.0869140624999
 20
388.8875122070312
 10
281.123046875
 20
388.8778991699219
 10
281.123046875
 20
388.8778991699219
  0
LINE
  5
4D
330
48
100
AcDbEntity
  8
0
  6
Continuous
 62
     0
370
    30
100
AcDbLine
 10
294.0096028386048
 20
405.7465990678277
 30
0.0
 11
293.9640364923698
 21
406.0094105885481
 31
0.0
  0
LINE
  5
4E
330
48
100
AcDbEntity
  8
0
  6
Continuous
 62
     0
370
     0
100
AcDbLine
 10
259.6230582765609
 20
421.8703895331119
 30
0.0
 11
259.6230595712436
 21
388.8778925316202
 31
0.0
  0
LWPOLYLINE
  5
4F
330
48
100
AcDbEntity
  8
0
  6
Continuous
 62
     0
370
     0
100
AcDbPolyline
 90
       19
 70
     0
 43
0.0
 10
259.6230468749999
 20
388.8778991699219
 10
261.0938110351562
 20
388.8955993652343
 10
262.5988464355468
 20
388.8856811523437
 10
264.1216735839843
 20
388.8741149902343
 10
265.650146484375
 20
388.8728942871093
 10
267.1705932617187
 20
388.8775329589843
 10
268.6699523925781
 20
388.8792419433593
 10
270.1351013183593
 20
388.8783874511718
 10
271.5532836914062
 20
388.8778076171874
 10
272.9121704101562
 20
388.8788146972656
 10
274.1999816894531
 20
388.8782348632812
 10
275.4054870605468
 20
388.8752746582031
 10
276.51806640625
 20
388.874267578125
 10
277.5281677246093
 20
388.8796081542968
 10
278.4273986816406
 20
388.8881530761718
 10
279.2070617675781
 20
388.8826904296875
 10
279.8602600097656
 20
388.8551025390625
 10
280.3844604492187
 20
388.8480529785156
 10
280.7717285156249
 20
388.891845703125
  0
LWPOLYLINE
  5
50
330
48
100
AcDbEntity
  8
0
  6
Continuous
 62
     0
370
     0
100
AcDbPolyline
 90
       18
 70
     0
 43
0.0
 10
293.9640502929687
 20
406.0093994140625
 10
293.9058837890625
 20
406.3625793457031
 10
293.8146667480468
 20
406.859619140625
 10
293.7015075683593
 20
407.4983825683593
 10
293.5661621093749
 20
408.2742919921875
 10
293.4071044921875
 20
409.1814575195312
 10
293.2247924804687
 20
410.2136230468749
 10
293.0218505859375
 20
411.3646850585937
 10
292.7999572753906
 20
412.6258239746094
 10
292.5604858398437
 20
413.9873046875
 10
292.3047180175781
 20
415.4393920898437
 10
292.0340270996094
 20
416.9721984863281
 10
291.7507019042968
 20
418.5752563476562
 10
291.4580993652343
 20
420.2373962402344
 10
291.158447265625
 20
421.9485778808594
 10
290.8485412597656
 20
423.6983947753905
 10
290.5279235839843
 20
425.4747619628906
 10
290.2201538085937
 20
427.2654724121093
  0
LWPOLYLINE
  5
51
330
48
100
AcDbEntity
  8
0
  6
Continuous
 62
     0
370
     0
100
AcDbPolyline
 90
        7
 70
     0
 43
0.0
 10
290.2201538085937
 20
427.2654724121093
 10
285.0015258789062
 20
426.3446655273437
 10
279.8064575195312
 20
425.4293212890624
 10
274.6534423828125
 20
424.5205993652343
 10
269.5596923828125
 20
423.6226806640624
 10
264.5439758300781
 20
422.7373352050781
 10
259.6230468749999
 20
421.870391845703
  0
LINE
  5
52
330
48
100
AcDbEntity
  8
0
  6
Continuous
 62
     0
370
     0
100
AcDbLine
 10
248.323057520809
 20
382.4051542311918
 30
0.0
 11
248.323057521076
 21
388.8776732727425
 31
0.0
  0
LINE
  5
53
330
48
100
AcDbEntity
  8
0
  6
Continuous
 62
     0
370
     0
100
AcDbLine
 10
248.3230560555473
 20
358.593920769152
 30
0.0
 11
248.3230575147992
 21
378.0919011478671
 31
0.0
  0
LWPOLYLINE
  5
54
330
48
100
AcDbEntity
  8
0
  6
Continuous
 62
     0
370
     0
100
AcDbPolyline
 90
       12
 70
     0
 43
0.0
 10
259.6229553222656
 20
460.4201049804687
 10
259.6231079101562
 20
456.8890380859374
 10
259.6229248046875
 20
453.3628845214844
 10
259.6229858398437
 20
449.8468627929687
 10
259.6233215332031
 20
446.345947265625
 10
259.6226806640625
 20
442.8663635253906
 10
259.6234130859375
 20
439.3947448730468
 10
259.6227416992187
 20
435.9098205566406
 10
259.62353515625
 20
432.4135742187499
 10
259.6216735839843
 20
428.9068298339843
 10
259.6249999999999
 20
425.3921508789062
 10
259.6230468749999
 20
421.870391845703
  0
LWPOLYLINE
  5
55
330
48
100
AcDbEntity
  8
0
  6
Continuous
 62
     0
370
     0
100
AcDbPolyline
 90
       23
 70
     0
 43
0.0
 10
290.2201538085937
 20
427.2654724121093
 10
289.9549255371093
 20
428.7986755371093
 10
289.6800842285156
 20
430.3296813964843
 10
289.4090270996093
 20
431.84814453125
 10
289.1477966308593
 20
433.3326110839843
 10
288.89208984375
 20
434.7829284667969
 10
288.6409912109375
 20
436.2041625976562
 10
288.3975524902343
 20
437.5838012695312
 10
288.1639709472656
 20
438.9061889648437
 10
287.9411010742187
 20
440.1663818359375
 10
287.7297973632812
 20
441.3625488281249
 10
287.53076171875
 20
442.4889221191405
 10
287.3454589843749
 20
443.5377197265625
 10
287.1763000488281
 20
444.5010681152344
 10
287.0229187011718
 20
445.3755493164062
 10
286.8838500976562
 20
446.1597595214843
 10
286.7593383789062
 20
446.8508911132812
 10
286.6547241210937
 20
447.439697265625
 10
286.5776062011718
 20
447.9139099121093
 10
286.5162658691406
 20
448.2854614257812
 10
286.4548950195312
 20
448.5734863281249
 10
286.4151611328125
 20
448.746337890625
 10
286.4211730957031
 20
448.7826843261719
  0
LWPOLYLINE
  5
56
330
48
100
AcDbEntity
  8
0
  6
Continuous
 62
     0
370
    30
100
AcDbPolyline
 90
       23
 70
     0
 43
0.0
 10
285.55810546875
 20
448.6305541992187
 10
284.4786376953125
 20
448.4405517578125
 10
283.399169921875
 20
448.2505493164062
 10
282.3201599121093
 20
448.0581359863281
 10
281.2422790527343
 20
447.8595886230468
 10
280.1617126464843
 20
447.6765441894531
 10
279.0699768066406
 20
447.5853881835937
 10
277.9755554199218
 20
447.6409912109375
 10
276.8984985351562
 20
447.8447265625
 10
275.8586120605468
 20
448.1941833496093
 10
274.8768005371093
 20
448.6827697753906
 10
273.9710693359374
 20
449.3009338378906
 10
273.1584472656249
 20
450.037109375
 10
272.4538269042968
 20
450.8772888183593
 10
271.8705139160156
 20
451.8058471679687
 10
271.4206237792968
 20
452.8062133789062
 10
271.1121215820312
 20
453.8577880859374
 10
270.9528503417968
 20
454.9417724609375
 10
270.9119262695312
 20
456.0369262695312
 10
270.9213256835937
 20
457.1328430175781
 10
270.9267578124999
 20
458.2288208007812
 10
270.9243164062499
 20
459.3248901367187
 10
270.9230651855468
 20
460.4208984375
  0
LINE
  5
57
330
48
100
AcDbEntity
  8
0
  6
Continuous
 62
     0
370
    30
100
AcDbLine
 10
286.4211859231208
 20
448.7826993641448
 30
0.0
 11
286.4200659334116
 21
448.7825018800577
 31
0.0
  0
LWPOLYLINE
  5
58
330
48
100
AcDbEntity
  8
0
  6
Continuous
 62
     0
370
     0
100
AcDbPolyline
 90
       17
 70
     0
 43
0.0
 10
270.9230651855468
 20
460.4208984375
 10
270.9057312011718
 20
460.3675537109374
 10
270.7879333496093
 20
460.3727416992187
 10
270.5214843749999
 20
460.40869140625
 10
270.1214904785156
 20
460.4427795410156
 10
269.621826171875
 20
460.4561462402343
 10
269.0420837402343
 20
460.4485473632812
 10
268.3856201171875
 20
460.4296875
 10
267.650390625
 20
460.4125671386718
 10
266.8363037109374
 20
460.4051208496094
 10
265.9461975097656
 20
460.4079284667968
 10
264.9896545410156
 20
460.4171752929687
 10
263.9783935546875
 20
460.4280700683593
 10
262.9242553710937
 20
460.4370727539062
 10
261.8388366699218
 20
460.4398803710937
 10
260.7342529296875
 20
460.4334716796874
 10
259.6230468749999
 20
460.420196533203
  0
LINE
  5
59
330
48
100
AcDbEntity
  8
0
  6
Continuous
 62
     0
370
    30
100
AcDbLine
 10
248.3230575210765
 20
389.8843463330606
 30
0.0
 11
248.3230568562506
 21
419.8778951038915
 31
0.0
  0
LINE
  5
5A
330
48
100
AcDbEntity
  8
0
  6
Continuous
 62
     0
370
    30
100
AcDbLine
 10
248.323057521076
 20
388.8776732727425
 30
0.0
 11
248.3230575210763
 21
389.5338797250667
 31
0.0
  0
LINE
  5
5B
330
48
100
AcDbEntity
  8
0
  6
Continuous
 62
     0
370
    30
100
AcDbLine
 10
270.9230575338195
 20
460.4208897374888
 30
0.0
 11
270.9230601235043
 21
460.4517046125756
 31
0.0
  0
LINE
  5
5C
330
48
100
AcDbEntity
  8
0
  6
Continuous
 62
     0
370
    30
100
AcDbLine
 10
248.3230575210762
 20
460.3990266965356
 30
0.0
 11
248.3230572696214
 21
470.1991998448638
 31
0.0
  0
ARC
  5
5D
330
48
100
AcDbEntity
  8
0
  6
Continuous
 62
     0
370
     0
100
AcDbCircle
 10
24021.07458977785
 20
465.2861073235582
 30
0.0
 40
23761.4521192316
100
AcDbArc
 50
179.9881531033364
 51
180.011733110488
  0
LWPOLYLINE
  5
5E
330
48
100
AcDbEntity
  8
0
  6
Continuous
 62
     0
370
     0
100
AcDbPolyline
 90
       15
 70
     0
 43
0.0
 10
259.6229553222656
 20
460.4201049804687
 10
258.3577880859375
 20
460.4196472167968
 10
257.1084899902343
 20
460.4190368652344
 10
255.8908386230468
 20
460.4178466796875
 10
254.7201080322265
 20
460.416259765625
 10
253.6110382080078
 20
460.4144592285156
 10
252.5775756835937
 20
460.4127197265625
 10
251.6327056884765
 20
460.4110717773437
 10
250.788330078125
 20
460.4095764160156
 10
250.0550537109375
 20
460.4080505371094
 10
249.4420928955078
 20
460.4064025878906
 10
248.9571533203124
 20
460.4045715332031
 10
248.6063690185547
 20
460.4026489257812
 10
248.3941040039062
 20
460.4007568359374
 10
248.3230590820312
 20
460.3990173339844
  0
LINE
  5
5F
330
48
100
AcDbEntity
  8
0
  6
Continuous
 62
     0
370
    30
100
AcDbLine
 10
248.3230568562506
 20
419.8778951038534
 30
0.0
 11
248.3230569829311
 21
420.8646744691659
 31
0.0
  0
LINE
  5
60
330
48
100
AcDbEntity
  8
0
  6
Continuous
 62
     0
370
     0
100
AcDbLine
 10
259.6230582410353
 20
421.870389754908
 30
0.0
 11
248.3230568562506
 21
419.8778951038534
 31
0.0
  0
LINE
  5
61
330
48
100
AcDbEntity
  8
0
  6
Continuous
 62
     0
370
     0
100
AcDbLine
 10
259.6230516469893
 20
388.877893847952
 30
0.0
 11
248.3230575210758
 21
388.8776732726851
 31
0.0
  0
LINE
  5
62
330
48
100
AcDbEntity
  8
0
  6
Continuous
 62
     0
370
     0
100
AcDbLine
 10
311.901154935996
 20
431.1101328693466
 30
0.0
 11
311.9049342902373
 21
431.08911700117
 31
0.0
  0
LWPOLYLINE
  5
63
330
48
100
AcDbEntity
  8
0
  6
Continuous
 62
     0
370
     0
100
AcDbPolyline
 90
       22
 70
     0
 43
0.0
 10
308.1123657226562
 20
452.6132202148438
 10
308.1301879882812
 20
452.5556030273437
 10
308.1684265136718
 20
452.3778991699218
 10
308.2269592285156
 20
452.0578002929688
 10
308.3050842285156
 20
451.6094665527344
 10
308.4024353027343
 20
451.0450744628906
 10
308.5185546875
 20
450.3719177246093
 10
308.65283203125
 20
449.5955505371093
 10
308.8046569824218
 20
448.7211303710937
 10
308.9732666015625
 20
447.7535400390625
 10
309.1577453613281
 20
446.6976928710937
 10
309.3572387695312
 20
445.5586547851562
 10
309.5705261230468
 20
444.3424682617187
 10
309.7964477539062
 20
443.0553894042969
 10
310.0337524414062
 20
441.7041931152343
 10
310.2812194824218
 20
440.2961120605469
 10
310.5375671386718
 20
438.8403625488281
 10
310.801513671875
 20
437.3429260253906
 10
311.0718383789062
 20
435.8060302734375
 10
311.3461303710937
 20
434.2449645996094
 10
311.6219482421874
 20
432.6780090332031
 10
311.9010925292968
 20
431.110107421875
  0
ELLIPSE
  5
64
330
48
100
AcDbEntity
  8
0
  6
Continuous
 62
     0
370
     0
100
AcDbEllipse
 10
311.9048806806995
 20
431.0890848429515
 30
0.0
 11
-0.9848725352393444
 21
-0.1732803778020254
 31
0.0
210
0.0
220
0.0
230
-1.0
 40
0.021374973173122
 41
1.570707790088083
 42
3.124135360303496
  0
LWPOLYLINE
  5
65
330
48
100
AcDbEntity
  8
0
  6
Continuous
 62
     0
370
    30
100
AcDbPolyline
 90
       21
 70
     0
 43
0.0
 10
312.8895263671874
 20
431.2626953125
 10
312.6054687499999
 20
432.875732421875
 10
312.3226318359375
 20
434.4797973632812
 10
312.0429992675781
 20
436.0651550292969
 10
311.7690124511718
 20
437.6191711425781
 10
311.5020141601562
 20
439.1336364746093
 10
311.2432250976562
 20
440.6011047363281
 10
310.9943542480468
 20
442.011962890625
 10
310.7571105957031
 20
443.3569946289062
 10
310.5328369140625
 20
444.6283264160156
 10
310.3228149414062
 20
445.8185424804687
 10
310.1282958984374
 20
446.9207153320312
 10
309.9504089355468
 20
447.9282836914062
 10
309.7902526855468
 20
448.835205078125
 10
309.6488037109375
 20
449.6359252929687
 10
309.5270996093749
 20
450.3245849609375
 10
309.4261779785156
 20
450.8955383300781
 10
309.3480529785156
 20
451.3380737304687
 10
309.2958068847656
 20
451.6361083984374
 10
309.2692565917968
 20
451.7904357910156
 10
309.2660217285156
 20
451.8128662109375
  0
LINE
  5
66
330
48
100
AcDbEntity
  8
0
  6
Continuous
 62
     0
370
     0
100
AcDbLine
 10
290.2201455150209
 20
427.2654802523377
 30
0.0
 11
311.9047003853506
 21
431.0890512885562
 31
0.0
  0
LWPOLYLINE
  5
67
330
48
100
AcDbEntity
  8
0
  6
Continuous
 62
     0
370
    30
100
AcDbPolyline
 90
        3
 70
     0
 43
0.0
 10
287.9646911621093
 20
449.0467834472656
 10
287.1938781738281
 20
448.9080810546875
 10
286.4211730957031
 20
448.7826843261719
  0
LWPOLYLINE
  5
68
330
48
100
AcDbEntity
  8
0
  6
Continuous
 62
     0
370
     0
100
AcDbPolyline
 90
       20
 70
     0
 43
0.0
 10
315.6991271972656
 20
409.5710449218749
 10
315.6863403320312
 20
409.6441955566406
 10
315.6477966308593
 20
409.8639221191406
 10
315.5838928222656
 20
410.2283020019531
 10
315.4950561523437
 20
410.7345581054687
 10
315.3819580078125
 20
411.3789367675781
 10
315.2453308105468
 20
412.1574401855468
 10
315.0860290527343
 20
413.0649108886719
 10
314.9051818847656
 20
414.0951538085937
 10
314.703857421875
 20
415.2417297363281
 10
314.4834289550781
 20
416.4969177246093
 10
314.2453918457031
 20
417.8524780273437
 10
313.9912719726562
 20
419.299560546875
 10
313.7227783203125
 20
420.8278198242187
 10
313.4417419433593
 20
422.4266967773437
 10
313.1497497558593
 20
424.0856628417969
 10
312.8482055664062
 20
425.7942810058593
 10
312.5385742187499
 20
427.5416564941406
 10
312.2231750488281
 20
429.3122253417968
 10
311.9046936035156
 20
431.0890502929687
  0
ARC
  5
69
330
48
100
AcDbEntity
  8
0
  6
Continuous
 62
     0
370
    30
100
AcDbCircle
 10
315.5254687345414
 20
410.5558471923167
 30
0.0
 40
1.000000000000009
100
AcDbArc
 50
279.9999842689304
 51
8.999984277118421
  0
ARC
  5
6A
330
48
100
AcDbEntity
  8
0
  6
Continuous
 62
     0
370
    30
100
AcDbCircle
 10
64124.81296205815
 20
11672.55064664608
 30
0.0
 40
64794.50692275117
100
AcDbArc
 50
189.9908955030558
 51
190.0093297057643
  0
LINE
  5
6B
330
48
100
AcDbEntity
  8
0
  6
Continuous
 62
     0
370
     0
100
AcDbLine
 10
259.6230591643057
 20
388.8778925316202
 30
0.0
 11
259.6230610699616
 21
358.4785736083984
 31
0.0
  0
LINE
  5
6C
330
48
100
AcDbEntity
  8
0
  6
Continuous
 62
     0
370
    30
100
AcDbLine
 10
248.3230575590289
 20
378.091901147867
 30
0.0
 11
248.3188714834211
 21
388.8776766324314
 31
0.0
  0
LINE
  5
6D
330
48
100
AcDbEntity
  8
0
  6
Continuous
 62
     0
370
    30
100
AcDbLine
 10
281.1230588724849
 20
358.4785745706718
 30
0.0
 11
281.123075425036
 21
388.8781155056302
 31
0.0
  0
LINE
  5
6E
330
48
100
AcDbEntity
  8
0
  6
Continuous
 62
     0
370
    30
100
AcDbLine
 10
316.5131571173843
 20
410.7122813859184
 30
0.0
 11
316.5134599248178
 21
410.7103571031975
 31
0.0
  0
LINE
  5
6F
330
48
100
AcDbEntity
  8
0
  6
Continuous
 62
     0
370
    30
100
AcDbLine
 10
315.6991168233642
 20
409.5710390270572
 30
0.0
 11
294.0096083977424
 21
405.7465917839088
 31
0.0
  0
LWPOLYLINE
  5
70
330
48
100
AcDbEntity
  8
0
  6
Continuous
 62
     0
370
    30
100
AcDbPolyline
 90
       15
 70
     0
 43
0.0
 10
308.1123962402343
 20
452.6133422851562
 10
306.6575622558593
 20
452.3617248535156
 10
305.2036437988281
 20
452.1119995117187
 10
303.7496337890625
 20
451.8638916015625
 10
302.2944641113281
 20
451.6167602539062
 10
300.8370971679687
 20
451.3694763183593
 10
299.3769836425781
 20
451.1207580566406
 10
297.9144592285156
 20
450.8692626953124
 10
296.4505310058593
 20
450.6137695312499
 10
294.9866027832031
 20
450.3533325195312
 10
293.5253295898437
 20
450.0877685546875
 10
292.0713806152343
 20
449.8181762695312
 10
290.6363525390625
 20
449.5483093261718
 10
289.24755859375
 20
449.2860107421875
 10
287.9646911621093
 20
449.0467834472656
  0
LWPOLYLINE
  5
71
330
48
100
AcDbEntity
  8
0
  6
Continuous
 62
     0
370
    30
100
AcDbPolyline
 90
       12
 70
     0
 43
0.0
 10
309.2660217285156
 20
451.8129272460937
 10
309.2635498046874
 20
451.8252868652344
 10
309.2572021484375
 20
451.8545227050781
 10
309.2218933105468
 20
451.9722290039062
 10
309.1490783691406
 20
452.1280517578125
 10
309.0494995117187
 20
452.2703857421874
 10
308.9266357421875
 20
452.3934020996093
 10
308.7842407226562
 20
452.4932556152343
 10
308.6267700195312
 20
452.5670471191406
 10
308.4588928222656
 20
452.6123046875
 10
308.28564453125
 20
452.6278076171875
 10
308.1123657226562
 20
452.6132202148438
  0
LWPOLYLINE
  5
72
330
48
100
AcDbEntity
  8
0
  6
Continuous
 62
     0
370
    30
100
AcDbPolyline
 90
        3
 70
     0
 43
0.0
 10
270.9230651855468
 20
460.4207153320312
 10
270.9354553222656
 20
465.3059692382812
 10
270.927490234375
 20
470.1991882324218
  0
LINE
  5
73
330
48
100
AcDbEntity
  8
0
  6
Continuous
 62
     0
370
    30
100
AcDbLine
 10
248.3230575155973
 20
389.8843463330606
 30
0.0
 11
248.3188714848764
 21
388.8776766324298
 31
0.0
  0
LINE
  5
74
330
48
100
AcDbEntity
  8
0
  6
Continuous
 62
     0
370
    30
100
AcDbLine
 10
248.3230575210398
 20
460.3990267342655
 30
0.0
 11
248.3230569829311
 21
420.8646744691593
 31
0.0
  0
ARC
  5
75
330
48
100
AcDbEntity
  8
0
  6
Continuous
 62
     0
370
    30
100
AcDbCircle
 10
58827.24557208945
 20
388.0148197575686
 30
0.0
 40
58578.92670695944
100
AcDbArc
 50
179.9809630667367
 51
179.9991560432488
  0
LWPOLYLINE
  5
76
330
48
100
AcDbEntity
  8
0
  6
Continuous
 62
     0
370
    30
100
AcDbPolyline
 90
       21
 70
     0
 43
0.0
 10
271.1515808105468
 20
453.6870727539062
 10
271.1751098632812
 20
453.5929565429687
 10
271.2028503417968
 20
453.4862670898437
 10
271.2262268066406
 20
453.4023742675781
 10
271.2519226074218
 20
453.3133544921875
 10
271.2783203124999
 20
453.2257995605468
 10
271.2942810058593
 20
453.1742248535156
 10
271.3142395019531
 20
453.1123352050781
 10
271.3438110351562
 20
453.0229492187499
 10
271.3741455078125
 20
452.9348449707031
 10
271.4057006835937
 20
452.8466186523437
 10
271.4380798339843
 20
452.7588806152343
 10
271.4714660644531
 20
452.6714172363281
 10
271.5064086914062
 20
452.5844116210937
 10
271.5429382324218
 20
452.4979858398437
 10
271.5791625976562
 20
452.4116210937499
 10
271.6136169433593
 20
452.3249511718749
 10
271.6508789062499
 20
452.2391662597656
 10
271.6987915039062
 20
452.1562194824219
 10
271.7503967285156
 20
452.074462890625
 10
271.7767333984375
 20
451.9865417480469
  0
LWPOLYLINE
  5
77
330
48
100
AcDbEntity
  8
0
  6
Continuous
 62
     0
370
    30
100
AcDbPolyline
 90
        3
 70
     0
 43
0.0
 10
270.9232177734374
 20
459.9483032226562
 10
270.9231872558593
 20
459.962890625
 10
270.9232482910156
 20
459.919677734375
  0
LINE
  5
78
330
48
100
AcDbEntity
  8
0
  6
Continuous
 62
     0
370
    30
100
AcDbLine
 10
286.4200566275852
 20
448.7825546561067
 30
0.0
 11
285.5580567381912
 21
448.6308242372818
 31
0.0
  0
LWPOLYLINE
  5
79
330
48
100
AcDbEntity
  8
0
  6
Continuous
 62
     0
370
    30
100
AcDbPolyline
 90
       19
 70
     0
 43
0.0
 10
271.0636291503906
 20
454.0993041992187
 10
271.0331726074219
 20
454.2753601074219
 10
271.0067138671874
 20
454.4522094726562
 10
270.9841003417968
 20
454.6296997070312
 10
270.9650573730468
 20
454.8075561523437
 10
270.9494323730468
 20
454.9857177734375
 10
270.9369506835937
 20
455.1641540527343
 10
270.9274291992187
 20
455.3426818847656
 10
270.9205017089843
 20
455.5211791992187
 10
270.9158325195312
 20
455.6996459960937
 10
270.9133911132812
 20
455.8627319335937
 10
270.9126586914062
 20
455.9420166015625
 10
270.9132080078124
 20
455.8802795410156
 10
270.9153747558593
 20
455.7239990234375
 10
270.9197387695312
 20
455.5455932617187
 10
270.9263305664062
 20
455.3670959472656
 10
270.9354858398437
 20
455.1885681152343
 10
270.9475402832031
 20
455.0101013183593
 10
270.9627075195312
 20
454.8318786621093
  0
LWPOLYLINE
  5
7A
330
48
100
AcDbEntity
  8
0
  6
Continuous
 62
     0
370
    30
100
AcDbPolyline
 90
       16
 70
     0
 43
0.0
 10
270.9627380371093
 20
454.8319091796875
 10
271.0008239746093
 20
454.4955444335937
 10
271.0524291992187
 20
454.1611938476562
 10
271.1185302734374
 20
453.8295288085937
 10
271.1990356445312
 20
453.5010681152344
 10
271.2870178222656
 20
453.1974487304687
 10
271.39111328125
 20
452.8869323730468
 10
271.5116577148437
 20
452.5712280273437
 10
271.6454467773437
 20
452.2605590820312
 10
271.7923278808593
 20
451.9556274414062
 10
271.9521179199218
 20
451.6571960449218
 10
272.1244506835937
 20
451.365966796875
 10
272.3091430664062
 20
451.0823669433594
 10
272.5057678222656
 20
450.8068237304687
 10
272.7137451171874
 20
450.5398254394531
 10
272.9262084960937
 20
450.2891540527343
  0
LWPOLYLINE
  5
7B
330
48
100
AcDbEntity
  8
0
  6
Continuous
 62
     0
370
    30
100
AcDbPolyline
 90
       32
 70
     0
 43
0.0
 10
270.9232482910156
 20
459.919677734375
 10
270.9233703613281
 20
459.8223876953125
 10
270.9236755371093
 20
459.6557922363281
 10
270.9240112304687
 20
459.4893188476562
 10
270.9244079589843
 20
459.32275390625
 10
270.9248352050781
 20
459.1562805175781
 10
270.92529296875
 20
458.9897155761718
 10
270.9257507324218
 20
458.8231506347656
 10
270.9261779785156
 20
458.6565856933593
 10
270.9265136718749
 20
458.4900207519531
 10
270.9267272949218
 20
458.3234252929687
 10
270.9268188476562
 20
458.1567993164062
 10
270.9266967773437
 20
457.9901428222656
 10
270.9263916015625
 20
457.8234558105468
 10
270.92578125
 20
457.6567687988281
 10
270.9248962402343
 20
457.4901733398437
 10
270.9237060546874
 20
457.3236694335937
 10
270.9221191406249
 20
457.1573181152343
 10
270.9201660156249
 20
456.9911499023437
 10
270.9179992675781
 20
456.8251037597656
 10
270.9158325195312
 20
456.6591796875
 10
270.9139404296875
 20
456.4932861328125
 10
270.9125671386718
 20
456.3274230957031
 10
270.9118957519531
 20
456.1614685058593
 10
270.9121704101562
 20
455.9954223632812
 10
270.9136657714843
 20
455.8292236328124
 10
270.9166259765625
 20
455.6629943847656
 10
270.9213562011718
 20
455.4967956542968
 10
270.9279174804687
 20
455.3305358886718
 10
270.9368286132812
 20
455.1642150878906
 10
270.9488830566406
 20
454.998046875
 10
270.9627075195312
 20
454.83203125
  0
LINE
  5
7C
330
48
100
AcDbEntity
  8
0
  6
Continuous
 62
     0
370
    30
100
AcDbLine
 10
248.3221051786375
 20
366.5847698353328
 30
0.0
 11
248.3188926760443
 21
388.6647299161251
 31
0.0
  0
LINE
  5
7D
330
48
100
AcDbEntity
  8
0
  6
Continuous
 62
     0
370
    30
100
AcDbLine
 10
248.3228535247744
 20
358.4785724149114
 30
0.0
 11
248.3227964103543
 21
359.4918645491409
 31
0.0
  0
LWPOLYLINE
  5
7E
330
48
100
AcDbEntity
  8
0
  6
Continuous
 62
     0
370
    30
100
AcDbPolyline
 90
       22
 70
     0
 43
0.0
 10
294.0096130371093
 20
405.74658203125
 10
292.8489685058593
 20
405.5376892089843
 10
291.6974182128906
 20
405.2832946777344
 10
290.5424194335937
 20
405.0453186035156
 10
289.3826904296874
 20
404.8308715820312
 10
288.2361145019531
 20
404.556396484375
 10
287.1234436035156
 20
404.1667785644531
 10
286.0662231445312
 20
403.6464233398437
 10
285.0828857421875
 20
402.9964294433593
 10
284.1861877441406
 20
402.2314453125
 10
283.3897094726562
 20
401.3626708984374
 10
282.7087097167968
 20
400.4007568359375
 10
282.1524353027344
 20
399.3616333007812
 10
281.7270812988281
 20
398.262451171875
 10
281.4379272460937
 20
397.119873046875
 10
281.2843322753906
 20
395.9511718749999
 10
281.2365112304687
 20
394.77294921875
 10
281.2289733886718
 20
393.5935668945312
 10
281.2153015136718
 20
392.414306640625
 10
281.1722717285156
 20
391.2357482910156
 10
281.1227722167968
 20
390.0574340820312
 10
281.1230773925781
 20
388.8781433105468
  0
LINE
  5
7F
330
48
100
AcDbEntity
  8
0
  6
Continuous
 62
     0
370
    30
100
AcDbLine
 10
291.7230567932128
 20
354.2785736083984
 30
0.0
 11
264.7230567932128
 21
354.2785736083984
 31
0.0
  0
LINE
  5
80
330
48
100
AcDbEntity
  8
0
  6
Continuous
 62
     0
370
    30
100
AcDbLine
 10
264.7230567932128
 20
354.2785736083984
 30
0.0
 11
237.7230567932128
 21
354.2785736083984
 31
0.0
  0
LINE
  5
81
330
48
100
AcDbEntity
  8
0
  6
Continuous
 62
     0
370
     0
100
AcDbLine
 10
292.2230567932128
 20
357.9785736083984
 30
0.0
 11
264.7230567932128
 21
357.9785736083984
 31
0.0
  0
LINE
  5
82
330
48
100
AcDbEntity
  8
0
  6
Continuous
 62
     0
370
     0
100
AcDbLine
 10
264.7230567932128
 20
357.9785736083984
 30
0.0
 11
237.2230567932128
 21
357.9785736083984
 31
0.0
  0
LINE
  5
83
330
48
100
AcDbEntity
  8
0
  6
Continuous
 62
     0
370
     0
100
AcDbLine
 10
264.7230567932128
 20
354.7785736083984
 30
0.0
 11
237.2230567932128
 21
354.7785736083984
 31
0.0
  0
LINE
  5
84
330
48
100
AcDbEntity
  8
0
  6
Continuous
 62
     0
370
     0
100
AcDbLine
 10
292.2230567932128
 20
354.7785736083984
 30
0.0
 11
264.7230567932128
 21
354.7785736083984
 31
0.0
  0
LINE
  5
85
330
48
100
AcDbEntity
  8
0
  6
Continuous
 62
     0
370
    30
100
AcDbLine
 10
264.7230567932128
 20
358.4785736083984
 30
0.0
 11
237.7230567932128
 21
358.4785736083984
 31
0.0
  0
LINE
  5
86
330
48
100
AcDbEntity
  8
0
  6
Continuous
 62
     0
370
    30
100
AcDbLine
 10
291.7230567932128
 20
358.4785736083984
 30
0.0
 11
264.7230567932128
 21
358.4785736083984
 31
0.0
  0
ARC
  5
87
330
48
100
AcDbEntity
  8
0
  6
Continuous
 62
     0
370
    30
100
AcDbCircle
 10
237.7230593558766
 20
354.7785761708646
 30
0.0
 40
0.5000025626704201
100
AcDbArc
 50
180.0002936354839
 51
269.9937419571012
  0
ARC
  5
88
330
48
100
AcDbEntity
  8
0
  6
Continuous
 62
     0
370
    30
100
AcDbCircle
 10
291.7230542305487
 20
354.7785761708648
 30
0.0
 40
0.5000025626707803
100
AcDbArc
 50
270.006258042971
 51
359.9997063644867
  0
ARC
  5
89
330
48
100
AcDbEntity
  8
0
  6
Continuous
 62
     0
370
    30
100
AcDbCircle
 10
237.7230593558766
 20
357.9785710459328
 30
0.0
 40
0.5000025626701945
100
AcDbArc
 50
90.00625804290855
 51
179.9997063645754
  0
ARC
  5
8A
330
48
100
AcDbEntity
  8
0
  6
Continuous
 62
     0
370
    30
100
AcDbCircle
 10
291.7230542305487
 20
357.978571045932
 30
0.0
 40
0.5000025626707816
100
AcDbArc
 50
0.000293635513521
 51
89.99374195702896
  0
LINE
  5
8B
330
48
100
AcDbEntity
  8
0
  6
Continuous
 62
     0
370
    30
100
AcDbLine
 10
292.2230567932128
 20
357.9785736183984
 30
0.0
 11
292.2230567932128
 21
354.7785736083984
 31
0.0
  0
LINE
  5
8C
330
48
100
AcDbEntity
  8
0
  6
Continuous
 62
     0
370
    30
100
AcDbLine
 10
237.2230567932128
 20
357.9785736183984
 30
0.0
 11
237.2230567932128
 21
354.7785736083984
 31
0.0
  0
LINE
  5
8D
330
48
100
AcDbEntity
  8
0
  6
Continuous
 62
     0
370
    30
100
AcDbLine
 10
314.8686106205353
 20
420.0388961098214
 30
0.0
 11
313.6477817693406
 21
426.9625765419684
 31
0.0
  0
LINE
  5
8E
330
48
100
AcDbEntity
  8
0
  6
Continuous
 62
     0
370
    30
100
AcDbLine
 10
309.741836001805
 20
449.1143468357718
 30
0.0
 11
309.3767663676495
 21
451.1847643884862
 31
0.0
  0
LINE
  5
8F
330
48
100
AcDbEntity
  8
0
  6
Continuous
 62
     0
370
    30
100
AcDbLine
 10
312.8931341023851
 20
431.2424060035281
 30
0.0
 11
312.8895541337626
 21
431.2627090613033
 31
0.0
  0
LINE
  5
90
330
48
100
AcDbEntity
  8
0
  6
Continuous
 62
     0
370
    30
100
AcDbLine
 10
325.926114436749
 20
416.6439997717498
 30
0.0
 11
325.92220226169
 21
416.6661868701924
 31
0.0
  0
ARC
  5
91
330
48
100
AcDbEntity
  8
0
  6
Continuous
 62
     0
370
    30
100
AcDbCircle
 10
311.4926211676313
 20
431.2017824161554
 30
0.0
 40
20.50011618190059
100
AcDbArc
 50
283.8774795639489
 51
314.7543670374822
  0
ARC
  5
92
330
48
100
AcDbEntity
  8
0
  6
Continuous
 62
     0
370
    30
100
AcDbCircle
 10
311.5635640919455
 20
430.7940987474145
 30
0.0
 40
20.50759199840324
100
AcDbArc
 50
89.34253169920387
 51
96.12129162608848
  0
LINE
  5
93
330
48
100
AcDbEntity
  8
0
  6
Continuous
 62
     0
370
    30
100
AcDbLine
 10
315.2075173125201
 20
431.9689717453019
 30
0.0
 11
311.4309771585504
 21
453.3868446434301
 31
0.0
  0
ARC
  5
94
330
48
100
AcDbEntity
  8
0
  6
Continuous
 62
     0
370
    30
100
AcDbCircle
 10
334.6185725454173
 20
450.8527037860352
 30
0.0
 40
15.00000002593424
100
AcDbArc
 50
76.16475401663307
 51
78.30752746034711
  0
LINE
  5
95
330
48
100
AcDbEntity
  8
0
  6
Continuous
 62
     0
370
     0
100
AcDbLine
 10
338.2055347600699
 20
465.4175142118159
 30
0.0
 11
331.0316217954643
 21
465.4175170442504
 31
0.0
  0
LINE
  5
96
330
48
100
AcDbEntity
  8
0
  6
Continuous
 62
     0
370
     0
100
AcDbLine
 10
339.1185778177233
 20
464.2523288634053
 30
0.0
 11
330.118577817724
 21
464.2523324168232
 31
0.0
  0
ARC
  5
97
330
48
100
AcDbEntity
  8
0
  6
Continuous
 62
     0
370
    30
100
AcDbCircle
 10
337.9185777697273
 20
464.2523293407375
 30
0.0
 40
1.200000047683726
100
AcDbArc
 50
359.9999774397563
 51
76.16475398066393
  0
LINE
  5
98
330
48
100
AcDbEntity
  8
0
  6
Continuous
 62
     0
370
    30
100
AcDbLine
 10
328.7843064484304
 20
412.5780213573947
 30
0.0
 11
315.20751731252
 21
431.9689717453019
 31
0.0
  0
LWPOLYLINE
  5
99
330
48
100
AcDbEntity
  8
0
  6
Continuous
 62
     0
370
    30
100
AcDbPolyline
 90
       13
 70
     0
 43
0.0
 10
334.3670349121093
 20
414.0105590820312
 10
334.4403076171875
 20
414.0391845703125
 10
334.6547546386718
 20
414.1213684082031
 10
334.9949951171875
 20
414.2472839355468
 10
335.438232421875
 20
414.4029541015624
 10
335.9559020996093
 20
414.5733337402344
 10
336.5149230957031
 20
414.7430114746093
 10
337.0782775878906
 20
414.8993225097656
 10
337.6071777343749
 20
415.0323181152343
 10
338.0643005371093
 20
415.1370544433594
 10
338.4162292480468
 20
415.2110290527343
 10
338.6387329101562
 20
415.2547302246094
 10
338.7145385742187
 20
415.2691040039062
  0
LINE
  5
9A
330
48
100
AcDbEntity
  8
0
  6
Continuous
 62
     0
370
    30
100
AcDbLine
 10
339.1185778172974
 20
464.2523288682368
 30
0.0
 11
339.1185699289106
 21
444.2728377574706
 31
0.0
  0
LWPOLYLINE
  5
9B
330
48
100
AcDbEntity
  8
0
  6
Continuous
 62
     0
370
     0
100
AcDbPolyline
 90
       11
 70
     0
 43
0.0
 10
330.1185607910156
 20
456.5494079589844
 10
330.1769104003906
 20
456.5999450683594
 10
330.3441467285156
 20
456.6809997558594
 10
330.6115112304687
 20
456.7184448242187
 10
330.9680786132812
 20
456.7305603027343
 10
331.4009704589843
 20
456.7316894531249
 10
331.8969116210937
 20
456.7300415039063
 10
332.4422912597656
 20
456.734130859375
 10
333.0227661132812
 20
456.7557067871093
 10
333.6233825683593
 20
456.8052368164062
 10
334.2354125976562
 20
456.8578491210937
  0
LWPOLYLINE
  5
9C
330
48
100
AcDbEntity
  8
0
  6
Continuous
 62
     0
370
     0
100
AcDbPolyline
 90
        7
 70
     0
 43
0.0
 10
336.4148864746093
 20
454.9216003417968
 10
336.1936950683593
 20
455.4844055175781
 10
335.89794921875
 20
455.9668579101562
 10
335.5390625
 20
456.3540649414062
 10
335.1309509277343
 20
456.6357116699219
 10
334.6904602050781
 20
456.8076477050781
 10
334.2354125976562
 20
456.8578491210937
  0
LWPOLYLINE
  5
9D
330
48
100
AcDbEntity
  8
0
  6
Continuous
 62
     0
370
     0
100
AcDbPolyline
 90
       25
 70
     0
 43
0.0
 10
339.1185607910156
 20
444.2728271484375
 10
339.1022644042968
 20
444.3524475097656
 10
339.0577392578125
 20
444.568359375
 10
338.9932861328125
 20
444.8772583007812
 10
338.9154052734375
 20
445.2448425292969
 10
338.8281555175781
 20
445.6500549316406
 10
338.7337951660156
 20
446.080322265625
 10
338.6337890625
 20
446.5281677246093
 10
338.5289611816406
 20
446.9887084960937
 10
338.4199829101562
 20
447.4588317871093
 10
338.3071594238281
 20
447.9362487792968
 10
338.1908569335937
 20
448.4194641113281
 10
338.0712280273437
 20
448.9072875976562
 10
337.9484558105468
 20
449.3988037109375
 10
337.8226623535156
 20
449.8933715820312
 10
337.6939392089843
 20
450.3904113769531
 10
337.5624084472656
 20
450.8895263671875
 10
337.4280700683593
 20
451.3902893066406
 10
337.2910766601562
 20
451.8924255371094
 10
337.1513977050781
 20
452.3956909179687
 10
337.0091247558594
 20
452.8998107910156
 10
336.8643188476562
 20
453.4046630859375
 10
336.7169494628906
 20
453.9100036621094
 10
336.567138671875
 20
454.4156799316406
 10
336.4148864746093
 20
454.9216003417968
  0
LINE
  5
9E
330
48
100
AcDbEntity
  8
0
  6
Continuous
 62
     0
370
     0
100
AcDbLine
 10
340.9994798268423
 20
415.9818106887879
 30
0.0
 11
334.129338055015
 21
454.944410651204
 31
0.0
  0
LINE
  5
9F
330
48
100
AcDbEntity
  8
0
  6
Continuous
 62
     0
370
     0
100
AcDbLine
 10
341.9010522956471
 20
417.1393371994434
 30
0.0
 11
335.3761577584082
 21
454.1439382826282
 31
0.0
  0
LWPOLYLINE
  5
A0
330
48
100
AcDbEntity
  8
0
  6
Continuous
 62
     0
370
     0
100
AcDbPolyline
 90
        5
 70
     0
 43
0.0
 10
335.3761596679687
 20
454.1439514160156
 10
335.1687927246093
 20
454.4780578613281
 10
334.874755859375
 20
454.7255249023437
 10
334.5177612304687
 20
454.8813171386719
 10
334.1293334960937
 20
454.9443969726562
  0
ARC
  5
A1
330
48
100
AcDbEntity
  8
0
  6
Continuous
 62
     0
370
    30
100
AcDbCircle
 10
260.0073690732812
 20
422.2339687256014
 30
0.0
 40
82.05199948670351
100
AcDbArc
 50
9.999977409036404
 51
15.20094905292995
  0
LWPOLYLINE
  5
A2
330
48
100
AcDbEntity
  8
0
  6
Continuous
 62
     0
370
     0
100
AcDbPolyline
 90
       25
 70
     0
 43
0.0
 10
339.1885375976562
 20
443.7484130859375
 10
339.1655578613281
 20
443.8261718749999
 10
339.1027526855468
 20
444.0369262695312
 10
339.0118713378906
 20
444.3385009765624
 10
338.902099609375
 20
444.6973571777343
 10
338.7790222167968
 20
445.0929260253906
 10
338.64599609375
 20
445.5129699707031
 10
338.5049438476562
 20
445.9501647949219
 10
338.357177734375
 20
446.3997497558593
 10
338.2034606933594
 20
446.8586730957031
 10
338.0444030761718
 20
447.3247680664062
 10
337.8803710937499
 20
447.7964782714844
 10
337.7117004394531
 20
448.272705078125
 10
337.5385742187499
 20
448.7525329589844
 10
337.3612060546875
 20
449.2353210449218
 10
337.1797180175781
 20
449.7205505371093
 10
336.9942321777343
 20
450.207763671875
 10
336.8048400878906
 20
450.6966247558593
 10
336.6116333007812
 20
451.1868286132812
 10
336.4147033691406
 20
451.6781005859375
 10
336.2140808105468
 20
452.1702575683593
 10
336.0098571777343
 20
452.6630859375
 10
335.8020935058593
 20
453.1564025878906
 10
335.5908508300781
 20
453.6500854492187
 10
335.3761596679687
 20
454.1439514160156
  0
ARC
  5
A3
330
48
100
AcDbEntity
  8
0
  6
Continuous
 62
     0
370
    30
100
AcDbCircle
 10
340.6339311358209
 20
287.7682808172208
 30
0.0
 40
168.173485371177
100
AcDbArc
 50
93.90304589764676
 51
99.99997740903891
  0
LWPOLYLINE
  5
A4
330
48
100
AcDbEntity
  8
0
  6
Continuous
 62
     0
370
     0
100
AcDbPolyline
 90
       18
 70
     0
 43
0.0
 10
329.1866455078125
 20
455.5517272949218
 10
329.1869506835937
 20
455.5457458496094
 10
329.2024230957031
 20
455.5289306640625
 10
329.2528076171874
 20
455.5030212402344
 10
329.3562927246093
 20
455.4698486328125
 10
329.5162658691406
 20
455.4307250976562
 10
329.7221374511718
 20
455.3861389160156
 10
329.969482421875
 20
455.3372802734375
 10
330.2566223144531
 20
455.2855834960937
 10
330.5806274414062
 20
455.2325744628906
 10
330.9387512207031
 20
455.179931640625
 10
331.3279418945312
 20
455.129150390625
 10
331.7451782226562
 20
455.0819396972656
 10
332.1868896484375
 20
455.0394592285156
 10
332.6463012695312
 20
455.0022888183593
 10
333.1257019042968
 20
454.9721679687499
 10
333.6172790527343
 20
454.9519348144531
 10
334.1293334960937
 20
454.9443969726562
  0
ARC
  5
A5
330
48
100
AcDbEntity
  8
0
  6
Continuous
 62
     0
370
    30
100
AcDbCircle
 10
329.1185747769387
 20
456.5493956361176
 30
0.0
 40
0.9999999999999939
100
AcDbArc
 50
273.9030459086519
 51
359.9999774388635
  0
ELLIPSE
  5
A6
330
48
100
AcDbEntity
  8
0
  6
Continuous
 62
     0
370
     0
100
AcDbEllipse
 10
334.0651248516143
 20
456.8580143643051
 30
0.0
 11
-0.0154950022545246
 21
1.999939975325542
 31
0.0
210
0.0
220
0.0
230
1.0
 40
0.085143026083415
 41
3.435835900458831
 42
4.7116515293812
  0
ARC
  5
A7
330
48
100
AcDbEntity
  8
0
  6
Continuous
 62
     0
370
    30
100
AcDbCircle
 10
341.1185699287211
 20
444.2728369699696
 30
0.0
 40
1.999999999999989
100
AcDbArc
 50
179.9999773919054
 51
195.20094901952
  0
ELLIPSE
  5
A8
330
48
100
AcDbEntity
  8
0
  6
Continuous
 62
     0
370
     0
100
AcDbEllipse
 10
337.213255920321
 20
454.9217369870137
 30
0.0
 11
-1.831912219087175
 21
-0.8025569273011928
 31
0.0
210
0.0
220
0.0
230
1.0
 40
0.1720312083223209
 41
5.086732583045565
 42
6.211163870036584
  0
LINE
  5
A9
330
48
100
AcDbEntity
  8
0
  6
Continuous
 62
     0
370
    30
100
AcDbLine
 10
339.1855867265886
 20
443.7594405710708
 30
0.0
 11
339.1885454659387
 21
443.7484272405582
 31
0.0
  0
ARC
  5
AA
330
48
100
AcDbEntity
  8
0
  6
Continuous
 62
     0
370
    30
100
AcDbCircle
 10
329.1181374707572
 20
456.5495758859562
 30
0.0
 40
1.000437219361059
100
AcDbArc
 50
315.711382408397
 51
359.9897172915447
  0
ARC
  5
AB
330
48
100
AcDbEntity
  8
0
  6
Continuous
 62
     0
370
    30
100
AcDbCircle
 10
289.7617826094158
 20
576.243894049213
 30
0.0
 40
168.2536144900551
100
AcDbArc
 50
283.4106510814966
 51
285.3733407570126
  0
ARC
  5
AC
330
48
100
AcDbEntity
  8
0
  6
Continuous
 62
     0
370
    30
100
AcDbCircle
 10
289.7825657210383
 20
576.1634989627906
 30
0.0
 40
168.170584671729
100
AcDbArc
 50
286.9157984482131
 51
287.7312944431519
  0
ARC
  5
AD
330
48
100
AcDbEntity
  8
0
  6
Continuous
 62
     0
370
    30
100
AcDbCircle
 10
260.0073640188277
 20
422.2339683806328
 30
0.0
 40
82.05200452428456
100
AcDbArc
 50
356.4401990409273
 51
9.998624216880465
  0
LINE
  5
AE
330
48
100
AcDbEntity
  8
0
  6
Continuous
 62
     0
370
    30
100
AcDbLine
 10
340.812483498783
 20
436.4840249517203
 30
0.0
 11
340.8121361324428
 21
436.4859945563601
 31
0.0
  0
ARC
  5
AF
330
48
100
AcDbEntity
  8
0
  6
Continuous
 62
     0
370
    30
100
AcDbCircle
 10
340.603544978786
 20
417.2200667590994
 30
0.0
 40
1.300016345719032
100
AcDbArc
 50
287.7317809357876
 51
356.4394621206584
  0
LINE
  5
B0
330
48
100
AcDbEntity
  8
0
  6
Continuous
 62
     0
370
    30
100
AcDbLine
 10
330.1185747764181
 20
456.5493956331273
 30
0.0
 11
330.1185778178306
 21
464.2523324144073
 31
0.0
  0
ARC
  5
B1
330
48
100
AcDbEntity
  8
0
  6
Continuous
 62
     0
370
    30
100
AcDbCircle
 10
331.3185997519744
 20
464.252314832754
 30
0.0
 40
1.20002193437337
100
AcDbArc
 50
103.8360545550311
 51
179.9991604408866
  0
ARC
  5
B2
330
48
100
AcDbEntity
  8
0
  6
Continuous
 62
     0
370
    30
100
AcDbCircle
 10
334.6185725001796
 20
450.8527052835892
 30
0.0
 40
14.99999860910893
100
AcDbArc
 50
78.30752613194525
 51
103.8352013317645
  0
LINE
  5
B3
330
48
100
AcDbEntity
  8
0
  6
Continuous
 62
     0
370
    30
100
AcDbLine
 10
270.554971950389
 20
470.1991996442772
 30
0.0
 11
270.554971950389
 21
495.1991996442771
 31
0.0
  0
LINE
  5
B4
330
48
100
AcDbEntity
  8
0
  6
Continuous
 62
     0
370
     0
100
AcDbLine
 10
270.554971950389
 20
495.1991996442771
 30
0.0
 11
248.554971950389
 21
495.1991996442771
 31
0.0
  0
LINE
  5
B5
330
48
100
AcDbEntity
  8
0
  6
Continuous
 62
     0
370
    30
100
AcDbLine
 10
270.554971950389
 20
555.1991996442771
 30
0.0
 11
270.554971950389
 21
537.6256065154698
 31
0.0
  0
LINE
  5
B6
330
48
100
AcDbEntity
  8
0
  6
Continuous
 62
     0
370
    30
100
AcDbLine
 10
270.554971950389
 20
526.8650623358443
 30
0.0
 11
270.554971950389
 21
529.1403251412312
 31
0.0
  0
LINE
  5
B7
330
48
100
AcDbEntity
  8
0
  6
Continuous
 62
     0
370
    30
100
AcDbLine
 10
270.554971950389
 20
495.1991996442772
 30
0.0
 11
270.554971950389
 21
507.3489151680243
 31
0.0
  0
ELLIPSE
  5
B8
330
48
100
AcDbEntity
  8
0
  6
Continuous
 62
     0
370
     0
100
AcDbEllipse
 10
259.554971950389
 20
537.6256065154698
 30
0.0
 11
-11.0
 21
0.0
 31
0.0
210
0.0
220
0.0
230
-1.0
 40
0.7071067811865461
 41
0.0
 42
3.141592653589793
  0
LINE
  5
B9
330
48
100
AcDbEntity
  8
0
  6
Continuous
 62
     0
370
    30
100
AcDbLine
 10
270.554971950389
 20
537.6256065154698
 30
0.0
 11
270.554971950389
 21
529.1403251412312
 31
0.0
  0
ELLIPSE
  5
BA
330
48
100
AcDbEntity
  8
0
  6
Continuous
 62
     0
370
    30
100
AcDbEllipse
 10
259.554971950389
 20
529.1403251412312
 30
0.0
 11
-11.0
 21
0.0
 31
0.0
210
0.0
220
0.0
230
-1.0
 40
0.7071067811865461
 41
6.136399330234826
 42
6.283185307179586
  0
ELLIPSE
  5
BB
330
48
100
AcDbEntity
  8
0
  6
Continuous
 62
     0
370
    30
100
AcDbEllipse
 10
259.554971950389
 20
529.1403251412312
 30
0.0
 11
-11.0
 21
0.0
 31
0.0
210
0.0
220
0.0
230
-1.0
 40
0.7071067811865461
 41
3.141592653589793
 42
3.288378630534597
  0
ELLIPSE
  5
BC
330
48
100
AcDbEntity
  8
0
  6
Continuous
 62
     0
370
    30
100
AcDbEllipse
 10
259.554971950389
 20
529.1403251412312
 30
0.0
 11
-11.0
 21
0.0
 31
0.0
210
0.0
220
0.0
230
-1.0
 40
0.7071067811865461
 41
0.0
 42
3.141592653589793
  0
LINE
  5
BD
330
48
100
AcDbEntity
  8
0
  6
Continuous
 62
     0
370
    30
100
AcDbLine
 10
248.554971950389
 20
529.14032513416
 30
0.0
 11
248.554971950389
 21
537.6256065154697
 31
0.0
  0
ARC
  5
BE
330
48
100
AcDbEntity
  8
0
  6
Continuous
 62
     0
370
    30
100
AcDbCircle
 10
259.5549839109005
 20
555.1991672921822
 30
0.0
 40
10.99998803953601
100
AcDbArc
 50
0.0001685132205909
 51
179.9998537583351
  0
LINE
  5
BF
330
48
100
AcDbEntity
  8
0
  6
Continuous
 62
     0
370
    30
100
AcDbLine
 10
248.554971950389
 20
507.3489297004226
 30
0.0
 11
248.554971950389
 21
495.1991996442771
 31
0.0
  0
LINE
  5
C0
330
48
100
AcDbEntity
  8
0
  6
Continuous
 62
     0
370
    30
100
AcDbLine
 10
248.554971950389
 20
529.1403251413253
 30
0.0
 11
248.554971950389
 21
526.8650699158886
 31
0.0
  0
LINE
  5
C1
330
48
100
AcDbEntity
  8
0
  6
Continuous
 62
     0
370
    30
100
AcDbLine
 10
248.554971950389
 20
537.6256065154698
 30
0.0
 11
248.554971950389
 21
555.199195367448
 31
0.0
  0
LINE
  5
C2
330
48
100
AcDbEntity
  8
0
  6
Continuous
 62
     0
370
    30
100
AcDbLine
 10
248.554971950389
 20
495.1991996542771
 30
0.0
 11
248.554971950389
 21
470.1991996442772
 31
0.0
  0
ELLIPSE
  5
C3
330
48
100
AcDbEntity
  8
0
  6
Continuous
 62
     0
370
    30
100
AcDbEllipse
 10
259.5549719503889
 20
507.3489151680243
 30
0.0
 11
11.0
 21
0.0000000000000013
 31
0.0
210
0.0
220
0.0
230
1.0
 40
0.7071067811865461
 41
0.6635346593126368
 42
3.805127312902433
  0
ELLIPSE
  5
C4
330
48
100
AcDbEntity
  8
0
  6
Continuous
 62
     0
370
    30
100
AcDbEllipse
 10
259.5549719503889
 20
507.3489151680243
 30
0.0
 11
11.0
 21
0.0000000000000013
 31
0.0
210
0.0
220
0.0
230
1.0
 40
0.7071067811865461
 41
3.805127312902438
 42
6.946719966492223
  0
LINE
  5
C5
330
48
100
AcDbEntity
  8
0
  6
Continuous
 62
     0
370
    30
100
AcDbLine
 10
270.5549719503888
 20
523.3295284299114
 30
0.0
 11
270.5549719503888
 21
507.3489151680242
 31
0.0
  0
LINE
  5
C6
330
48
100
AcDbEntity
  8
0
  6
Continuous
 62
     0
370
    30
100
AcDbLine
 10
248.5549719503888
 20
523.3295284299114
 30
0.0
 11
248.5549719503888
 21
507.3489151680242
 31
0.0
  0
ELLIPSE
  5
C7
330
48
100
AcDbEntity
  8
0
  6
Continuous
 62
     0
370
    30
100
AcDbEllipse
 10
259.5549719503889
 20
526.8650623287732
 30
0.0
 11
11.0
 21
-0.0000000000000004
 31
0.0
210
0.0
220
0.0
230
1.0
 40
0.7071067811865461
 41
6.283185307179586
 42
6.946719966492226
  0
ELLIPSE
  5
C8
330
48
100
AcDbEntity
  8
0
  6
Continuous
 62
     0
370
    30
100
AcDbEllipse
 10
259.5549719503889
 20
526.8650623287732
 30
0.0
 11
11.0
 21
-0.0000000000000004
 31
0.0
210
0.0
220
0.0
230
1.0
 40
0.7071067811865461
 41
0.6635346593126404
 42
3.141592653589793
  0
ELLIPSE
  5
C9
330
48
100
AcDbEntity
  8
0
  6
Continuous
 62
     0
370
    30
100
AcDbEllipse
 10
259.5549719503889
 20
523.3295284228404
 30
0.0
 11
11.0
 21
-0.0000000000000004
 31
0.0
210
0.0
220
0.0
230
1.0
 40
0.7071067811865461
 41
0.6635346593126413
 42
3.141592653589793
  0
ELLIPSE
  5
CA
330
48
100
AcDbEntity
  8
0
  6
Continuous
 62
     0
370
    30
100
AcDbEllipse
 10
259.5549719503889
 20
523.3295284228404
 30
0.0
 11
11.0
 21
-0.0000000000000004
 31
0.0
210
0.0
220
0.0
230
1.0
 40
0.7071067811865461
 41
6.283185307179586
 42
6.946719966492227
  0
ELLIPSE
  5
CB
330
48
100
AcDbEntity
  8
0
  6
Continuous
 62
     0
370
    30
100
AcDbEllipse
 10
259.5549719503889
 20
528.9863810835794
 30
0.0
 11
-8.5
 21
-0.0000000000000047
 31
0.0
210
0.0
220
0.0
230
-1.0
 40
0.707106781186546
 41
0.8937277166999834
 42
2.247864936889844
  0
LINE
  5
CC
330
48
100
AcDbEntity
  8
0
  6
Continuous
 62
     0
370
    30
100
AcDbLine
 10
270.5549719503889
 20
526.8650623358443
 30
0.0
 11
270.5549719503889
 21
523.3295284228404
 31
0.0
  0
LINE
  5
CD
330
48
100
AcDbEntity
  8
0
  6
Continuous
 62
     0
370
    30
100
AcDbLine
 10
248.5549719503889
 20
526.8650623358443
 30
0.0
 11
248.5549719503889
 21
523.3295284228404
 31
0.0
  0
ENDBLK
  5
CF
330
48
100
AcDbEntity
  8
0
100
AcDbBlockEnd
  0
BLOCK
  5
150
330
D1
100
AcDbEntity
  8
0
100
AcDbBlockBegin
  2
b
 70
     0
 10
209.1382141113281
 20
62.5649528503418
 30
0.0
  3
b
  1

  0
LWPOLYLINE
  5
D2
330
D1
100
AcDbEntity
  8
0
  6
Continuous
 62
     0
370
    30
100
AcDbPolyline
 90
        4
 70
     0
 43
0.0
 10
270.5549621582031
 20
201.9808959960937
 10
270.7828674316406
 20
202.966812133789
 10
270.9014282226562
 20
203.9718170166015
 10
270.9260864257812
 20
204.9836730957031
  0
LWPOLYLINE
  5
D3
330
D1
100
AcDbEntity
  8
0
  6
Continuous
 62
     0
370
    30
100
AcDbPolyline
 90
        5
 70
     0
 43
0.0
 10
264.02294921875
 20
215.1785736083984
 10
262.967041015625
 20
215.6089477539062
 10
261.8746948242187
 20
215.9359588623046
 10
260.7566833496093
 20
216.1609497070312
 10
259.6229858398437
 20
216.283706665039
  0
LWPOLYLINE
  5
D4
330
D1
100
AcDbEntity
  8
0
  6
Continuous
 62
     0
370
    30
100
AcDbPolyline
 90
        9
 70
     0
 43
0.0
 10
270.9260864257812
 20
204.9836883544922
 10
270.8369140624999
 20
206.0757598876953
 10
270.6380004882812
 20
207.1534729003906
 10
270.3323364257812
 20
208.2057800292968
 10
269.9192810058594
 20
209.2208251953124
 10
269.4150695800781
 20
210.1939544677734
 10
268.8305358886718
 20
211.1210479736328
 10
268.1688537597656
 20
211.9948272705078
 10
267.4314575195312
 20
212.805435180664
  0
LWPOLYLINE
  5
D5
330
D1
100
AcDbEntity
  8
0
  6
Continuous
 62
     0
370
    30
100
AcDbPolyline
 90
       16
 70
     0
 43
0.0
 10
259.6229858398437
 20
216.283706665039
 10
258.4361572265625
 20
216.2698211669921
 10
257.2593994140624
 20
216.1129760742187
 10
256.1092529296875
 20
215.8188934326171
 10
255.0004425048828
 20
215.3949737548828
 10
253.9458312988281
 20
214.8499145507812
 10
252.9564208984374
 20
214.1937255859375
 10
252.0420532226562
 20
213.4364929199218
 10
251.2113342285156
 20
212.5882873535156
 10
250.4722747802734
 20
211.6591491699218
 10
249.8323974609375
 20
210.6591339111328
 10
249.2985687255859
 20
209.5986938476562
 10
248.8766326904296
 20
208.4889221191406
 10
248.5711822509765
 20
207.341552734375
 10
248.3855743408203
 20
206.1689453125
 10
248.3230590820312
 20
204.9835205078125
  0
LWPOLYLINE
  5
D6
330
D1
100
AcDbEntity
  8
0
  6
Continuous
 62
     0
370
    30
100
AcDbPolyline
 90
        3
 70
     0
 43
0.0
 10
248.3230590820312
 20
204.9835205078125
 10
248.3814239501953
 20
203.8372344970702
 10
248.5549774169921
 20
202.7025909423828
  0
ARC
  5
D7
330
D1
100
AcDbEntity
  8
0
  6
Continuous
 62
     0
370
    30
100
AcDbCircle
 10
264.7230606079101
 20
204.9836160588319
 30
0.0
 40
16.40003545232156
100
AcDbArc
 50
0.0001329194377119
 51
0.0250125035181866
  0
LINE
  5
D8
330
D1
100
AcDbEntity
  8
0
  6
Continuous
 62
     0
370
     0
100
AcDbLine
 10
281.1230615117821
 20
204.9836185937059
 30
0.0
 11
281.1230710959469
 21
204.9907742278271
 31
0.0
  0
LWPOLYLINE
  5
D9
330
D1
100
AcDbEntity
  8
0
  6
Continuous
 62
     0
370
     0
100
AcDbPolyline
 90
       12
 70
     0
 43
0.0
 10
290.2201538085937
 20
226.8184204101562
 10
287.3714599609375
 20
226.7225036621093
 10
284.5280151367187
 20
226.5233612060546
 10
281.6913757324218
 20
226.242446899414
 10
278.8660278320312
 20
225.8627624511718
 10
276.0537414550781
 20
225.3931579589843
 10
273.2575378417968
 20
224.8319702148437
 10
270.4805603027343
 20
224.1795806884765
 10
267.7258911132812
 20
223.4367065429687
 10
264.9963073730468
 20
222.6048431396484
 10
262.2943420410156
 20
221.6832733154296
 10
259.6230773925781
 20
220.6750183105468
  0
LWPOLYLINE
  5
DA
330
D1
100
AcDbEntity
  8
0
  6
Continuous
 62
     0
370
     0
100
AcDbPolyline
 90
        2
 70
     0
 43
0.0
 10
290.3343811035156
 20
226.8364105224609
 10
290.2201538085937
 20
226.8184204101562
  0
LWPOLYLINE
  5
DB
330
D1
100
AcDbEntity
  8
0
  6
Continuous
 62
     0
370
     0
100
AcDbPolyline
 90
        2
 70
     0
 43
0.0
 10
290.3343811035156
 20
183.1306762695312
 10
290.2201538085937
 20
183.1486663818359
  0
LWPOLYLINE
  5
DC
330
D1
100
AcDbEntity
  8
0
  6
Continuous
 62
     0
370
     0
100
AcDbPolyline
 90
        8
 70
     0
 43
0.0
 10
290.2201538085937
 20
183.1486663818359
 10
287.3823852539062
 20
183.2439727783203
 10
284.5498352050781
 20
183.4419250488281
 10
281.7240295410156
 20
183.7208251953125
 10
278.9093627929687
 20
184.0978088378906
 10
276.1076354980468
 20
184.5640563964843
 10
273.3218078613281
 20
185.1211547851562
 10
270.5549621582031
 20
185.7687835693359
  0
ARC
  5
DD
330
D1
100
AcDbEntity
  8
0
  6
Continuous
 62
     0
370
    30
100
AcDbCircle
 10
264.2198409356121
 20
205.3484563211068
 30
0.0
 40
15.90096563769847
100
AcDbArc
 50
179.5287018386308
 51
181.2174918583854
  0
LWPOLYLINE
  5
DE
330
D1
100
AcDbEntity
  8
0
  6
Continuous
 62
     0
370
     0
100
AcDbPolyline
 90
       25
 70
     0
 43
0.0
 10
290.2201538085937
 20
183.1486663818359
 10
289.9775695800781
 20
183.2500915527343
 10
289.7260131835937
 20
183.3551177978515
 10
289.4758911132812
 20
183.5343933105468
 10
289.2339782714843
 20
183.8594512939453
 10
288.9982604980468
 20
184.2992401123046
 10
288.7657470703124
 20
184.8090667724609
 10
288.5384521484374
 20
185.3879394531249
 10
288.3185424804687
 20
186.053466796875
 10
288.1072082519531
 20
186.8089141845702
 10
287.9050903320312
 20
187.6449890136718
 10
287.7127380371094
 20
188.5524139404297
 10
287.5307922363281
 20
189.5283508300781
 10
287.3603210449218
 20
190.5708770751953
 10
287.203369140625
 20
191.6771087646484
 10
287.0599060058593
 20
192.8414001464843
 10
286.9286499023437
 20
194.0564422607421
 10
286.8093566894531
 20
195.316909790039
 10
286.7039184570312
 20
196.61865234375
 10
286.6193542480468
 20
197.9587097167968
 10
286.5565795898437
 20
199.3310394287109
 10
286.5008850097656
 20
200.7241516113281
 10
286.4456176757812
 20
202.1315612792968
 10
286.4138793945312
 20
203.5539398193359
 10
286.4212036132812
 20
204.9835205078125
  0
LWPOLYLINE
  5
DF
330
D1
100
AcDbEntity
  8
0
  6
Continuous
 62
     0
370
     0
100
AcDbPolyline
 90
       19
 70
     0
 43
0.0
 10
286.4212036132812
 20
204.9835205078125
 10
285.3396301269531
 20
204.990966796875
 10
284.2579345703125
 20
204.9869995117187
 10
283.1763305664062
 20
204.9834899902343
 10
282.0953063964843
 20
204.9863128662109
 10
281.0153503417968
 20
204.9909515380859
 10
279.9306335449218
 20
204.9847564697265
 10
278.8345947265625
 20
204.984634399414
 10
277.7401123046875
 20
204.9867248535156
 10
276.6671447753906
 20
204.9858093261718
 10
275.6362304687499
 20
204.9827728271484
 10
274.6678466796875
 20
204.9805145263671
 10
273.7796936035156
 20
204.9801788330078
 10
272.9886474609374
 20
204.9836120605468
 10
272.3091430664062
 20
204.9905853271484
 10
271.7544555664062
 20
204.9944152832031
 10
271.3358154296875
 20
204.987060546875
 10
271.0614929199218
 20
204.9713134765625
 10
270.9346008300781
 20
204.964599609375
  0
LWPOLYLINE
  5
E0
330
D1
100
AcDbEntity
  8
0
  6
Continuous
 62
     0
370
     0
100
AcDbPolyline
 90
        3
 70
     0
 43
0.0
 10
270.8916625976562
 20
203.6336059570312
 10
270.7769165039062
 20
202.7029418945312
 10
270.5549621582031
 20
201.7926635742187
  0
LWPOLYLINE
  5
E1
330
D1
100
AcDbEntity
  8
0
  6
Continuous
 62
     0
370
     0
100
AcDbPolyline
 90
       17
 70
     0
 43
0.0
 10
270.9203796386718
 20
205.584487915039
 10
270.8631286621093
 20
206.6571655273437
 10
270.6812744140624
 20
207.7154998779296
 10
270.3609619140625
 20
208.7403869628906
 10
269.9308471679687
 20
209.724380493164
 10
269.4176940917968
 20
210.6680603027343
 10
268.832275390625
 20
211.5685729980468
 10
268.1747741699218
 20
212.4178771972656
 10
267.4436340332031
 20
213.2045135498046
 10
266.6392822265625
 20
213.9168701171874
 10
265.7655639648437
 20
214.545425415039
 10
264.8320617675781
 20
215.0812530517578
 10
263.8493347167969
 20
215.51611328125
 10
262.8280029296874
 20
215.8476867675781
 10
261.7784423828124
 20
216.0797729492187
 10
260.7117309570312
 20
216.2209320068359
 10
259.6390991210937
 20
216.2829437255859
  0
LWPOLYLINE
  5
E2
330
D1
100
AcDbEntity
  8
0
  6
Continuous
 62
     0
370
     0
100
AcDbPolyline
 90
       25
 70
     0
 43
0.0
 10
290.2201538085937
 20
226.8184204101562
 10
289.9775695800781
 20
226.7169952392578
 10
289.7260131835937
 20
226.6119689941406
 10
289.4758911132812
 20
226.4326934814453
 10
289.2339782714843
 20
226.1076354980468
 10
288.9982604980468
 20
225.6678314208984
 10
288.7657470703124
 20
225.1580047607422
 10
288.5384521484374
 20
224.5791320800781
 10
288.3185424804687
 20
223.9136199951171
 10
288.1072082519531
 20
223.1581573486328
 10
287.9050903320312
 20
222.3220825195312
 10
287.7127380371094
 20
221.4146575927734
 10
287.5307922363281
 20
220.438720703125
 10
287.3603210449218
 20
219.3961791992187
 10
287.203369140625
 20
218.2899627685547
 10
287.0599060058593
 20
217.1256713867187
 10
286.9286499023437
 20
215.9106140136718
 10
286.8093566894531
 20
214.6501464843749
 10
286.7039184570312
 20
213.3484191894531
 10
286.6193542480468
 20
212.0083465576171
 10
286.5565795898437
 20
210.6360168457031
 10
286.5008850097656
 20
209.2429046630859
 10
286.4456176757812
 20
207.8354949951171
 10
286.4138793945312
 20
206.4131164550781
 10
286.4212036132812
 20
204.9835510253906
  0
LWPOLYLINE
  5
E3
330
D1
100
AcDbEntity
  8
0
  6
Continuous
 62
     0
370
     0
100
AcDbPolyline
 90
       13
 70
     0
 43
0.0
 10
259.6229858398437
 20
216.2833404541015
 10
259.6232299804687
 20
216.3318939208984
 10
259.6228332519531
 20
216.4934539794921
 10
259.6230773925781
 20
216.77099609375
 10
259.6232299804687
 20
217.1599426269531
 10
259.6229553222656
 20
217.6640167236328
 10
259.6229248046875
 20
218.2633514404296
 10
259.6230163574218
 20
218.828140258789
 10
259.6233825683593
 20
219.3272094726562
 10
259.6228332519531
 20
219.7616271972656
 10
259.6231384277343
 20
220.1314086914062
 10
259.623291015625
 20
220.4358978271484
 10
259.6230773925781
 20
220.6750183105468
  0
LWPOLYLINE
  5
E4
330
D1
100
AcDbEntity
  8
0
  6
Continuous
 62
     0
370
     0
100
AcDbPolyline
 90
       14
 70
     0
 43
0.0
 10
248.3246612548828
 20
205.2142791748047
 10
248.4214172363281
 20
206.7909088134765
 10
248.6670837402343
 20
208.3507537841796
 10
249.0594329833984
 20
209.8794403076171
 10
249.5948791503906
 20
211.3627471923828
 10
250.2684326171875
 20
212.7868347167968
 10
251.0737762451171
 20
214.1383972167968
 10
252.0033569335937
 20
215.4049377441406
 10
253.0484924316406
 20
216.5749359130859
 10
254.1995239257812
 20
217.6377258300781
 10
255.4461212158203
 20
218.5831146240234
 10
256.7774047851562
 20
219.4005279541015
 10
258.1804809570312
 20
220.0823211669921
 10
259.6230468749999
 20
220.6750183105468
  0
LINE
  5
E5
330
D1
100
AcDbEntity
  8
0
  6
Continuous
 62
     0
370
     0
100
AcDbLine
 10
270.9317333850032
 20
204.9857295841938
 30
0.0
 11
270.9327942582906
 21
204.9855897231261
 31
0.0
  0
ARC
  5
E6
330
D1
100
AcDbEntity
  8
0
  6
Continuous
 62
     0
370
     0
100
AcDbCircle
 10
264.972693286409
 20
204.9833032728071
 30
0.0
 40
16.64963233031854
100
AcDbArc
 50
180.0777581865158
 51
189.5742541428966
  0
ARC
  5
E7
330
D1
100
AcDbEntity
  8
0
  6
Continuous
 62
     0
370
    30
100
AcDbCircle
 10
264.2198296720223
 20
204.6186783341692
 30
0.0
 40
15.90095437752416
100
AcDbArc
 50
178.7674308152699
 51
189.8858337752051
  0
LWPOLYLINE
  5
E8
330
D1
100
AcDbEntity
  8
0
  6
Continuous
 62
     0
370
     0
100
AcDbPolyline
 90
       20
 70
     0
 43
0.0
 10
308.1106872558593
 20
204.9835510253906
 10
308.1250915527343
 20
206.7930755615234
 10
308.1649780273437
 20
208.5950469970703
 10
308.2304382324218
 20
210.3845977783203
 10
308.3205566406249
 20
212.1197814941406
 10
308.4348449707031
 20
213.7999114990234
 10
308.5725708007812
 20
215.4160766601562
 10
308.7328491210937
 20
216.9593505859375
 10
308.9147644042968
 20
218.421142578125
 10
309.1170959472656
 20
219.7919921875
 10
309.3385314941406
 20
221.0624084472656
 10
309.5775451660156
 20
222.2239990234375
 10
309.8323974609375
 20
223.2689514160156
 10
310.1013793945312
 20
224.1894989013672
 10
310.3827819824218
 20
224.9794158935547
 10
310.6747131347656
 20
225.6347961425781
 10
310.9754638671875
 20
226.1528167724609
 10
311.2824401855468
 20
226.5201873779296
 10
311.5917358398437
 20
226.7393646240234
 10
311.9049377441406
 20
226.8335723876953
  0
LINE
  5
E9
330
D1
100
AcDbEntity
  8
0
  6
Continuous
 62
     0
370
     0
100
AcDbLine
 10
309.266036694253
 20
204.9835261473289
 30
0.0
 11
308.1107019867488
 21
204.9835128709518
 31
0.0
  0
LWPOLYLINE
  5
EA
330
D1
100
AcDbEntity
  8
0
  6
Continuous
 62
     0
370
     0
100
AcDbPolyline
 90
       20
 70
     0
 43
0.0
 10
312.8931884765624
 20
225.8512420654296
 10
312.5939331054687
 20
225.7618408203124
 10
312.2961120605468
 20
225.5506439208984
 10
312.0023498535156
 20
225.1988067626953
 10
311.7149353027343
 20
224.7047119140625
 10
311.4354858398437
 20
224.076416015625
 10
311.1657104492187
 20
223.3202514648437
 10
310.9075012207031
 20
222.4400329589844
 10
310.6626892089843
 20
221.4405517578124
 10
310.4329223632812
 20
220.3289031982421
 10
310.2196044921875
 20
219.1132507324218
 10
310.0241088867187
 20
217.8019256591797
 10
309.8477478027343
 20
216.4032592773437
 10
309.6918640136718
 20
214.92626953125
 10
309.5575561523437
 20
213.3806915283203
 10
309.4460449218749
 20
211.7763977050781
 10
309.3589172363281
 20
210.1230926513671
 10
309.3001403808593
 20
208.429458618164
 10
309.2705078125
 20
206.7108459472656
 10
309.2660217285156
 20
204.9835205078125
  0
ELLIPSE
  5
EB
330
D1
100
AcDbEntity
  8
0
  6
Continuous
 62
     0
370
     0
100
AcDbEllipse
 10
311.9085163513692
 20
225.8337823681007
 30
0.0
 11
-0.1181201364731763
 21
0.9929993118625766
 31
0.0
210
0.0
220
0.0
230
-1.0
 40
0.9846640558588321
 41
0.116589781329631
 42
1.669936721002951
  0
LWPOLYLINE
  5
EC
330
D1
100
AcDbEntity
  8
0
  6
Continuous
 62
     0
370
     0
100
AcDbPolyline
 90
       20
 70
     0
 43
0.0
 10
308.1106872558593
 20
204.9835052490234
 10
308.125
 20
203.1751251220703
 10
308.1649169921874
 20
201.3741455078124
 10
308.2302856445312
 20
199.5859375
 10
308.3202819824218
 20
197.8515014648437
 10
308.4344482421875
 20
196.1720886230468
 10
308.5719604492187
 20
194.5569763183593
 10
308.7320861816406
 20
193.0144042968749
 10
308.9137878417968
 20
191.5531311035156
 10
309.1158447265625
 20
190.1825714111328
 10
309.3370361328124
 20
188.9120941162109
 10
309.5758056640625
 20
187.7503356933593
 10
309.8304138183593
 20
186.7054595947265
 10
310.0991210937499
 20
185.7845916748047
 10
310.3802185058593
 20
184.9940185546875
 10
310.6718139648437
 20
184.3377990722656
 10
310.9722900390625
 20
183.8185272216796
 10
311.2790222167968
 20
183.4501037597656
 10
311.5881652832031
 20
183.2294311523437
 10
311.9010925292968
 20
183.1339569091796
  0
ELLIPSE
  5
ED
330
D1
100
AcDbEntity
  8
0
  6
Continuous
 62
     0
370
     0
100
AcDbEllipse
 10
311.9048844953967
 20
184.1337340651783
 30
0.0
 11
-0.1224542216392223
 21
-0.9924741626877338
 31
0.0
210
0.0
220
0.0
230
1.0
 40
0.984647521519701
 41
0.1208075404010742
 42
1.674235110616795
  0
LWPOLYLINE
  5
EE
330
D1
100
AcDbEntity
  8
0
  6
Continuous
 62
     0
370
     0
100
AcDbPolyline
 90
       20
 70
     0
 43
0.0
 10
312.8895568847656
 20
184.1162872314453
 10
312.5905456542968
 20
184.2078399658203
 10
312.2929992675781
 20
184.4207000732421
 10
311.9993286132812
 20
184.7718048095703
 10
311.7122192382812
 20
185.2677307128906
 10
311.4330444335937
 20
185.8969268798828
 10
311.1634826660156
 20
186.6532135009765
 10
310.905517578125
 20
187.5340576171875
 10
310.6610107421875
 20
188.5338745117187
 10
310.4314880371093
 20
189.6454467773437
 10
310.2184143066406
 20
190.8609771728515
 10
310.0232238769531
 20
192.1723022460937
 10
309.8471374511718
 20
193.5706939697265
 10
309.69140625
 20
195.0468292236328
 10
309.5571594238281
 20
196.5913696289062
 10
309.4456481933594
 20
198.1945037841796
 10
309.3587341308593
 20
199.8470611572265
 10
309.3000793457031
 20
201.5399322509765
 10
309.2700500488281
 20
203.2573699951171
 10
309.2660217285156
 20
204.9835205078125
  0
LWPOLYLINE
  5
EF
330
D1
100
AcDbEntity
  8
0
  6
Continuous
 62
     0
370
     0
100
AcDbPolyline
 90
        7
 70
     0
 43
0.0
 10
290.2201538085937
 20
183.1486663818359
 10
293.8335876464843
 20
183.1337738037109
 10
297.4470825195312
 20
183.1335144042968
 10
301.0605773925781
 20
183.1335144042968
 10
304.674072265625
 20
183.1335144042968
 10
308.28759765625
 20
183.1335144042968
 10
311.9010925292968
 20
183.1335144042968
  0
LINE
  5
F0
330
D1
100
AcDbEntity
  8
0
  6
Continuous
 62
     0
370
    30
100
AcDbLine
 10
308.1107019545554
 20
204.9835128527083
 30
0.0
 11
286.421189737795
 21
204.9835132917687
 31
0.0
  0
LWPOLYLINE
  5
F1
330
D1
100
AcDbEntity
  8
0
  6
Continuous
 62
     0
370
     0
100
AcDbPolyline
 90
        7
 70
     0
 43
0.0
 10
290.2201538085937
 20
226.8184204101562
 10
293.8341979980468
 20
226.8333129882812
 10
297.4483032226562
 20
226.8335723876953
 10
301.0624084472656
 20
226.8335723876953
 10
304.6765441894531
 20
226.8335723876953
 10
308.2906494140625
 20
226.8335723876953
 10
311.9047546386718
 20
226.8335723876953
  0
LWPOLYLINE
  5
F2
330
D1
100
AcDbEntity
  8
0
  6
Continuous
 62
     0
370
     0
100
AcDbPolyline
 90
        2
 70
     0
 43
0.0
 10
312.0034484863281
 20
183.129409790039
 10
311.9046936035156
 20
183.1329803466796
  0
LWPOLYLINE
  5
F3
330
D1
100
AcDbEntity
  8
0
  6
Continuous
 62
     0
370
     0
100
AcDbPolyline
 90
        2
 70
     0
 43
0.0
 10
312.0037231445312
 20
226.837661743164
 10
311.9047546386718
 20
226.8341064453125
  0
LWPOLYLINE
  5
F4
330
D1
100
AcDbEntity
  8
0
  6
Continuous
 62
     0
370
     0
100
AcDbPolyline
 90
        5
 70
     0
 43
0.0
 10
313.8195495605468
 20
225.2108917236328
 10
313.5911560058593
 20
225.5081787109375
 10
313.3599243164062
 20
225.715835571289
 10
313.1268920898437
 20
225.8312377929687
 10
312.8931579589843
 20
225.8517761230468
  0
LWPOLYLINE
  5
F5
330
D1
100
AcDbEntity
  8
0
  6
Continuous
 62
     0
370
     0
100
AcDbPolyline
 90
        5
 70
     0
 43
0.0
 10
313.8195190429687
 20
184.7562561035156
 10
313.5911254882812
 20
184.4589385986328
 10
313.35986328125
 20
184.2512664794922
 10
313.1268310546875
 20
184.1358489990234
 10
312.8930969238281
 20
184.1153106689453
  0
LWPOLYLINE
  5
F6
330
D1
100
AcDbEntity
  8
0
  6
Continuous
 62
     0
370
    30
100
AcDbPolyline
 90
        7
 70
     0
 43
0.0
 10
311.9756469726562
 20
183.1291198730468
 10
312.427978515625
 20
183.1954345703125
 10
312.8272094726562
 20
183.3710327148437
 10
313.1593627929687
 20
183.6171264648437
 10
313.4353027343749
 20
183.9064331054687
 10
313.6753845214844
 20
184.2326965332031
 10
313.8921813964843
 20
184.5957794189453
  0
LWPOLYLINE
  5
F7
330
D1
100
AcDbEntity
  8
0
  6
Continuous
 62
     0
370
    30
100
AcDbPolyline
 90
        7
 70
     0
 43
0.0
 10
313.8922119140624
 20
225.3713226318359
 10
313.6755371093749
 20
225.7345886230468
 10
313.4353027343749
 20
226.0606689453124
 10
313.159423828125
 20
226.3498229980468
 10
312.8274230957031
 20
226.5960388183593
 10
312.4279479980468
 20
226.771743774414
 10
311.9757080078124
 20
226.8379669189453
  0
LWPOLYLINE
  5
F8
330
D1
100
AcDbEntity
  8
0
  6
Continuous
 62
     0
370
    30
100
AcDbPolyline
 90
        7
 70
     0
 43
0.0
 10
311.9757080078124
 20
226.8382720947265
 10
308.4064941406249
 20
226.8444213867187
 10
304.8280334472656
 20
226.8535766601562
 10
301.2341003417968
 20
226.8634490966797
 10
297.6222839355468
 20
226.8674163818359
 10
293.9931030273437
 20
226.8628387451172
 10
290.3406066894531
 20
226.8365631103515
  0
LWPOLYLINE
  5
F9
330
D1
100
AcDbEntity
  8
0
  6
Continuous
 62
     0
370
    30
100
AcDbPolyline
 90
        7
 70
     0
 43
0.0
 10
311.9756469726562
 20
183.1288146972656
 10
308.4064331054687
 20
183.1226654052734
 10
304.8279724121093
 20
183.1135101318359
 10
301.2340698242187
 20
183.1036376953125
 10
297.6222839355468
 20
183.0996704101562
 10
293.9930725097656
 20
183.104248046875
 10
290.3406066894531
 20
183.1305236816406
  0
LWPOLYLINE
  5
FA
330
D1
100
AcDbEntity
  8
0
  6
Continuous
 62
     0
370
    30
100
AcDbPolyline
 90
       15
 70
     0
 43
0.0
 10
270.9344177246093
 20
204.9849090576171
 10
270.9352416992187
 20
204.8599853515625
 10
270.9353332519531
 20
204.6866607666015
 10
270.9329528808593
 20
204.4555206298828
 10
270.9275207519531
 20
204.2403869628906
 10
270.9203186035156
 20
204.0612487792968
 10
270.9116516113281
 20
203.902587890625
 10
270.9019470214844
 20
203.7604522705078
 10
270.8913879394531
 20
203.6303405761718
 10
270.880615234375
 20
203.5153045654296
 10
270.8701477050781
 20
203.4156188964843
 10
270.8609924316406
 20
203.3355712890625
 10
270.8539428710937
 20
203.2776641845702
 10
270.849609375
 20
203.2433013916015
 10
270.8481750488281
 20
203.2322845458984
  0
LWPOLYLINE
  5
FB
330
D1
100
AcDbEntity
  8
0
  6
Continuous
 62
     0
370
    30
100
AcDbPolyline
 90
       17
 70
     0
 43
0.0
 10
248.5549774169921
 20
202.1266326904296
 10
248.5319366455078
 20
202.2808380126952
 10
248.5162658691406
 20
202.3907470703124
 10
248.5043792724609
 20
202.4769897460937
 10
248.4950408935546
 20
202.5467224121093
 10
248.4867401123046
 20
202.6100769042968
 10
248.4793548583984
 20
202.6676635742187
 10
248.4717559814453
 20
202.7281799316406
 10
248.4642181396484
 20
202.7894287109375
 10
248.4567260742187
 20
202.8518066406249
 10
248.449234008789
 20
202.9156799316406
 10
248.4420318603515
 20
202.9785919189452
 10
248.4354858398437
 20
203.0370178222656
 10
248.4292907714843
 20
203.0936737060546
 10
248.4232025146484
 20
203.1507568359375
 10
248.4183349609375
 20
203.1974029541015
 10
248.4154663085937
 20
203.2252349853515
  0
LWPOLYLINE
  5
FC
330
D1
100
AcDbEntity
  8
0
  6
Continuous
 62
     0
370
    30
100
AcDbPolyline
 90
       28
 70
     0
 43
0.0
 10
248.3230743408203
 20
204.960708618164
 10
248.3251342773437
 20
204.7207641601562
 10
248.3297729492187
 20
204.5146789550781
 10
248.3357543945312
 20
204.3370666503906
 10
248.341064453125
 20
204.2134399414062
 10
248.3449096679687
 20
204.1353912353515
 10
248.345947265625
 20
204.1156921386718
 10
248.3457946777343
 20
204.1185150146484
 10
248.3445739746093
 20
204.1417694091796
 10
248.3428802490234
 20
204.1752319335937
 10
248.3413696289062
 20
204.2061157226562
 10
248.3396301269531
 20
204.2434997558593
 10
248.3377685546875
 20
204.2853546142578
 10
248.3359375
 20
204.329116821289
 10
248.3342742919921
 20
204.3720397949218
 10
248.3328399658203
 20
204.4110870361328
 10
248.3317108154297
 20
204.4432678222656
 10
248.3309020996093
 20
204.4679260253906
 10
248.3302154541015
 20
204.4903411865234
 10
248.3294830322265
 20
204.5154724121093
 10
248.3287811279296
 20
204.5401306152343
 10
248.3282928466796
 20
204.5577850341796
 10
248.3279876708984
 20
204.5698852539062
 10
248.327651977539
 20
204.5833892822265
 10
248.3273010253906
 20
204.5973052978515
 10
248.3262939453124
 20
204.643569946289
 10
248.3234405517578
 20
204.8517303466796
 10
248.3230590820312
 20
204.9832916259765
  0
LWPOLYLINE
  5
FD
330
D1
100
AcDbEntity
  8
0
  6
Continuous
 62
     0
370
    30
100
AcDbPolyline
 90
       14
 70
     0
 43
0.0
 10
249.0588989257812
 20
209.0118408203125
 10
249.4749603271484
 20
209.9814300537109
 10
249.9864807128906
 20
210.9236297607421
 10
250.5848083496093
 20
211.8170471191406
 10
251.2642974853515
 20
212.6522369384765
 10
252.0191040039062
 20
213.4210357666015
 10
252.8434600830077
 20
214.1158599853515
 10
253.7311401367187
 20
214.7288970947265
 10
254.675537109375
 20
215.2521820068359
 10
255.6686706542968
 20
215.6775207519531
 10
256.7011718749999
 20
215.9972076416015
 10
257.76220703125
 20
216.2046508789062
 10
258.8388061523437
 20
216.2945556640625
 10
259.6228942871093
 20
216.2838439941406
  0
LINE
  5
FE
330
D1
100
AcDbEntity
  8
0
  6
Continuous
 62
     0
370
    30
100
AcDbLine
 10
270.9200736291956
 20
205.5844872389039
 30
0.0
 11
270.9230345594252
 21
205.1152376313713
 31
0.0
  0
LWPOLYLINE
  5
FF
330
D1
100
AcDbEntity
  8
0
  6
Continuous
 62
     0
370
    30
100
AcDbPolyline
 90
       10
 70
     0
 43
0.0
 10
270.9344177246093
 20
204.9849395751953
 10
270.9324645996094
 20
205.1204681396484
 10
270.9302673339843
 20
205.2137908935546
 10
270.9281311035156
 20
205.2917175292968
 10
270.9261169433593
 20
205.3609008789062
 10
270.9242858886718
 20
205.4234008789062
 10
270.9226684570312
 20
205.4796600341796
 10
270.92138671875
 20
205.5289154052734
 10
270.9204406738281
 20
205.5669708251953
 10
270.9200744628906
 20
205.584487915039
  0
LWPOLYLINE
  5
100
330
D1
100
AcDbEntity
  8
0
  6
Continuous
 62
     0
370
    30
100
AcDbPolyline
 90
       52
 70
     0
 43
0.0
 10
248.3225555419922
 20
205.006362915039
 10
248.3190612792968
 20
205.4208068847656
 10
248.32470703125
 20
205.7972412109374
 10
248.3374786376953
 20
206.1293182373046
 10
248.3566284179687
 20
206.4589233398437
 10
248.3824768066406
 20
206.7868957519531
 10
248.4126586914062
 20
207.0941772460937
 10
248.4483184814453
 20
207.3985137939453
 10
248.4837188720703
 20
207.6610412597656
 10
248.5218048095703
 20
207.9141693115234
 10
248.5626068115234
 20
208.1601104736328
 10
248.6042785644531
 20
208.3905487060547
 10
248.6496276855468
 20
208.6229095458984
 10
248.6977844238281
 20
208.8531341552734
 10
248.748306274414
 20
209.0790863037109
 10
248.8021240234374
 20
209.3056182861328
 10
248.8603363037109
 20
209.5366973876953
 10
248.9224090576171
 20
209.7695770263671
 10
248.9895477294921
 20
210.0082550048828
 10
249.0633392333984
 20
210.2567138671874
 10
249.1428070068359
 20
210.5104827880859
 10
249.2317199707031
 20
210.77978515625
 10
249.3297729492187
 20
211.0611419677734
 10
249.4414367675781
 20
211.3644104003906
 10
249.5675048828124
 20
211.6878204345703
 10
249.709732055664
 20
212.031753540039
 10
249.8727111816406
 20
212.4024200439452
 10
250.0560607910156
 20
212.7936706542968
 10
250.2623138427734
 20
213.2058563232421
 10
250.4915313720703
 20
213.6340179443359
 10
250.7436218261718
 20
214.0736236572265
 10
251.0179138183593
 20
214.5197601318359
 10
251.3137817382812
 20
214.9683380126953
 10
251.6302642822265
 20
215.4154052734375
 10
251.9664459228515
 20
215.8576507568359
 10
252.3216247558593
 20
216.2926635742187
 10
252.6949768066406
 20
216.7180480957031
 10
253.08544921875
 20
217.1316223144531
 10
253.4927062988281
 20
217.5321197509765
 10
253.9153900146484
 20
217.9175415039062
 10
254.3527679443359
 20
218.2866668701171
 10
254.8041229248046
 20
218.638427734375
 10
255.2684936523437
 20
218.9716644287109
 10
255.7443542480468
 20
219.2849884033203
 10
256.2308959960937
 20
219.5776977539062
 10
256.7262268066406
 20
219.8485260009765
 10
257.2289123535156
 20
220.0967407226562
 10
257.7348022460937
 20
220.3213500976562
 10
258.2324829101562
 20
220.5208129882812
 10
258.70263671875
 20
220.693374633789
 10
259.1303100585937
 20
220.8399505615234
 10
259.5181579589843
 20
220.9670410156249
  0
LWPOLYLINE
  5
101
330
D1
100
AcDbEntity
  8
0
  6
Continuous
 62
     0
370
    30
100
AcDbPolyline
 90
        8
 70
     0
 43
0.0
 10
272.1438293457031
 20
224.5817413330078
 10
273.424072265625
 20
224.8683624267578
 10
274.7210388183593
 20
225.1384124755859
 10
276.0306396484375
 20
225.3899536132812
 10
277.3491821289062
 20
225.6218566894531
 10
278.6745910644531
 20
225.8341674804687
 10
280.0059509277343
 20
226.0275115966797
 10
281.3429260253906
 20
226.200927734375
  0
LWPOLYLINE
  5
102
330
D1
100
AcDbEntity
  8
0
  6
Continuous
 62
     0
370
    30
100
AcDbPolyline
 90
        8
 70
     0
 43
0.0
 10
270.8397827148437
 20
206.9477386474609
 10
270.8448181152343
 20
206.906753540039
 10
270.8624267578124
 20
206.7522277832031
 10
270.8859558105468
 20
206.4990234375
 10
270.9047546386718
 20
206.2135009765625
 10
270.9166259765625
 20
205.9274139404296
 10
270.9232482910156
 20
205.644058227539
 10
270.9261779785156
 20
205.3603820800781
  0
LWPOLYLINE
  5
103
330
D1
100
AcDbEntity
  8
0
  6
Continuous
 62
     0
370
    30
100
AcDbPolyline
 90
        6
 70
     0
 43
0.0
 10
270.8881225585937
 20
206.3815917968749
 10
270.8751525878906
 20
206.5793304443359
 10
270.8610534667968
 20
206.7472381591796
 10
270.8488464355468
 20
206.8688507080078
 10
270.8424682617187
 20
206.9253845214843
 10
270.8397827148437
 20
206.9477386474609
  0
LWPOLYLINE
  5
104
330
D1
100
AcDbEntity
  8
0
  6
Continuous
 62
     0
370
    30
100
AcDbPolyline
 90
        5
 70
     0
 43
0.0
 10
270.8397827148437
 20
206.9476470947265
 10
270.8437194824218
 20
206.9145812988281
 10
270.8544006347656
 20
206.8158111572265
 10
270.8716430664062
 20
206.6249237060546
 10
270.8880920410156
 20
206.3818969726562
  0
LWPOLYLINE
  5
105
330
D1
100
AcDbEntity
  8
0
  6
Continuous
 62
     0
370
    30
100
AcDbPolyline
 90
       11
 70
     0
 43
0.0
 10
270.9261474609375
 20
205.3591613769531
 10
270.9280700683593
 20
205.455825805664
 10
270.9290161132812
 20
205.5403137207031
 10
270.9281005859375
 20
205.6355895996093
 10
270.9243469238281
 20
205.7646789550781
 10
270.9169006347656
 20
205.9505462646484
 10
270.90478515625
 20
206.2131042480468
 10
270.8860168457031
 20
206.4983367919921
 10
270.8625183105468
 20
206.7515258789062
 10
270.8448791503906
 20
206.9062805175781
 10
270.8397827148437
 20
206.9476470947265
  0
LWPOLYLINE
  5
106
330
D1
100
AcDbEntity
  8
0
  6
Continuous
 62
     0
370
    30
100
AcDbPolyline
 90
        8
 70
     0
 43
0.0
 10
272.1434936523437
 20
185.3854217529296
 10
273.423828125
 20
185.0987854003906
 10
274.7208862304687
 20
184.8287048339843
 10
276.0305786132812
 20
184.5771484374999
 10
277.3492126464843
 20
184.345230102539
 10
278.6747131347656
 20
184.1329040527343
 10
280.0061645507812
 20
183.9395599365234
 10
281.3432312011718
 20
183.766128540039
  0
LWPOLYLINE
  5
107
330
D1
100
AcDbEntity
  8
0
  6
Continuous
 62
     0
370
    30
100
AcDbPolyline
 90
        6
 70
     0
 43
0.0
 10
270.8397827148437
 20
203.0194244384765
 10
270.8435363769531
 20
203.0498809814452
 10
270.8569641113281
 20
203.1646270751953
 10
270.8774108886718
 20
203.3673553466797
 10
270.8963623046875
 20
203.6112670898437
 10
270.9100341796875
 20
203.8629150390625
  0
LWPOLYLINE
  5
108
330
D1
100
AcDbEntity
  8
0
  6
Continuous
 62
     0
370
    30
100
AcDbPolyline
 90
        5
 70
     0
 43
0.0
 10
270.8880920410156
 20
203.5851593017578
 10
270.8716735839843
 20
203.3424072265625
 10
270.8544311523437
 20
203.1515350341797
 10
270.84375
 20
203.0528411865234
 10
270.8397827148437
 20
203.0194244384765
  0
LWPOLYLINE
  5
109
330
D1
100
AcDbEntity
  8
0
  6
Continuous
 62
     0
370
    30
100
AcDbPolyline
 90
        5
 70
     0
 43
0.0
 10
270.8397827148437
 20
203.0193939208984
 10
270.8437194824218
 20
203.0524749755859
 10
270.8543701171874
 20
203.1511230468749
 10
270.8716125488281
 20
203.3419647216796
 10
270.8880920410156
 20
203.5849304199218
  0
LWPOLYLINE
  5
10A
330
D1
100
AcDbEntity
  8
0
  6
Continuous
 62
     0
370
    30
100
AcDbPolyline
 90
        6
 70
     0
 43
0.0
 10
270.9100341796875
 20
203.8629150390625
 10
270.8963928222656
 20
203.6119079589843
 10
270.8774719238281
 20
203.3681945800781
 10
270.8570251464843
 20
203.1651000976562
 10
270.8435974121093
 20
203.0503540039062
 10
270.8397827148437
 20
203.0193939208984
  0
LWPOLYLINE
  5
10B
330
D1
100
AcDbEntity
  8
0
  6
Continuous
 62
     0
370
    30
100
AcDbPolyline
 90
        2
 70
     0
 43
0.0
 10
270.5549621582031
 20
185.7680511474609
 10
272.1434631347656
 20
185.3853759765625
  0
LWPOLYLINE
  5
10C
330
D1
100
AcDbEntity
  8
0
  6
Continuous
 62
     0
370
    30
100
AcDbPolyline
 90
        7
 70
     0
 43
0.0
 10
290.3343811035156
 20
183.1306152343749
 10
288.8304138183593
 20
183.1700592041015
 10
287.3299255371093
 20
183.2420349121093
 10
285.8340454101562
 20
183.3406219482421
 10
284.3392944335937
 20
183.4582061767578
 10
282.8448791503906
 20
183.5979919433593
 10
281.3530273437499
 20
183.7649993896484
  0
LWPOLYLINE
  5
10D
330
D1
100
AcDbEntity
  8
0
  6
Continuous
 62
     0
370
    30
100
AcDbPolyline
 90
       14
 70
     0
 43
0.0
 10
259.6124267578125
 20
220.9971008300781
 10
260.3963317871093
 20
221.2445068359375
 10
261.1153259277343
 20
221.4653930664062
 10
261.7977905273437
 20
221.6727142333984
 10
262.4523315429687
 20
221.8717803955078
 10
263.1410827636718
 20
222.0825653076171
 10
263.9333190917968
 20
222.3257751464843
 10
264.8523254394531
 20
222.6059875488281
 10
265.8869323730468
 20
222.9159698486328
 10
267.0156555175781
 20
223.2452697753906
 10
268.2234497070312
 20
223.5853118896484
 10
269.4925231933593
 20
223.9268646240234
 10
270.8038940429687
 20
224.2609405517578
 10
272.143798828125
 20
224.581802368164
  0
LWPOLYLINE
  5
10E
330
D1
100
AcDbEntity
  8
0
  6
Continuous
 62
     0
370
    30
100
AcDbPolyline
 90
        7
 70
     0
 43
0.0
 10
290.3343811035156
 20
226.8364715576172
 10
288.8303833007812
 20
226.7970275878906
 10
287.329833984375
 20
226.7250518798828
 10
285.8338928222656
 20
226.6264495849609
 10
284.339111328125
 20
226.5088653564453
 10
282.8446350097656
 20
226.3690643310547
 10
281.3527221679687
 20
226.2020568847656
  0
ARC
  5
10F
330
D1
100
AcDbEntity
  8
0
  6
Continuous
 62
     0
370
    30
100
AcDbCircle
 10
264.7230606079101
 20
204.9836160806876
 30
0.0
 40
27.5
100
AcDbArc
 50
282.2436661934165
 51
309.2133804677574
  0
ARC
  5
110
330
D1
100
AcDbEntity
  8
0
  6
Continuous
 62
     0
370
    30
100
AcDbCircle
 10
264.7230606079101
 20
204.9836160806876
 30
0.0
 40
27.5
100
AcDbArc
 50
50.78622935539403
 51
85.87491228370678
  0
ARC
  5
111
330
D1
100
AcDbEntity
  8
0
  6
Continuous
 62
     0
370
    30
100
AcDbCircle
 10
264.7230606079101
 20
204.9836160806876
 30
0.0
 40
27.5
100
AcDbArc
 50
94.21621075024081
 51
233.9897227356936
  0
ARC
  5
112
330
D1
100
AcDbEntity
  8
0
  6
Continuous
 62
     0
370
     0
100
AcDbCircle
 10
264.7230606079101
 20
204.9836160588319
 30
0.0
 40
27.0
100
AcDbArc
 50
94.29443392477963
 51
233.2147131137721
  0
ARC
  5
113
330
D1
100
AcDbEntity
  8
0
  6
Continuous
 62
     0
370
     0
100
AcDbCircle
 10
264.7230606079101
 20
204.9836160588319
 30
0.0
 40
27.0
100
AcDbArc
 50
282.4740173159696
 51
308.1742826188628
  0
ARC
  5
114
330
D1
100
AcDbEntity
  8
0
  6
Continuous
 62
     0
370
     0
100
AcDbCircle
 10
264.7230606079101
 20
204.9836160588319
 30
0.0
 40
27.0
100
AcDbArc
 50
51.82531248746804
 51
85.79838579817035
  0
ELLIPSE
  5
115
330
D1
100
AcDbEntity
  8
0
  6
Continuous
 62
     0
370
    30
100
AcDbEllipse
 10
312.8931379170824
 20
204.9835418620758
 30
0.0
 11
-0.0000001560764568
 21
-20.24999999999999
 31
0.0
210
0.0
220
0.0
230
-1.0
 40
0.1736477893696599
 41
6.271234072243521
 42
6.283185262793882
  0
ELLIPSE
  5
116
330
D1
100
AcDbEntity
  8
0
  6
Continuous
 62
     0
370
    30
100
AcDbEllipse
 10
312.8931379170824
 20
204.9835418620758
 30
0.0
 11
-0.0000001560764568
 21
-20.24999999999999
 31
0.0
210
0.0
220
0.0
230
-1.0
 40
0.1736477893696599
 41
3.141592609204089
 42
3.153543799754448
  0
ELLIPSE
  5
117
330
D1
100
AcDbEntity
  8
0
  6
Continuous
 62
     0
370
    30
100
AcDbEllipse
 10
312.8931379170824
 20
204.9835418620758
 30
0.0
 11
-0.0000001560764568
 21
-20.24999999999999
 31
0.0
210
0.0
220
0.0
230
-1.0
 40
0.1736477893696599
 41
6.283185262793882
 42
9.424777916383675
  0
ARC
  5
118
330
D1
100
AcDbEntity
  8
0
  6
Continuous
 62
     0
370
    30
100
AcDbCircle
 10
311.5280577303245
 20
204.7912254146822
 30
0.0
 40
20.48924402388073
100
AcDbArc
 50
83.64750654208203
 51
86.06209845836529
  0
ARC
  5
119
330
D1
100
AcDbEntity
  8
0
  6
Continuous
 62
     0
370
    30
100
AcDbCircle
 10
311.528057733359
 20
205.1758583305107
 30
0.0
 40
20.48924402387766
100
AcDbArc
 50
273.9379015331293
 51
276.3524934493805
  0
ELLIPSE
  5
11A
330
D1
100
AcDbEntity
  8
0
  6
Continuous
 62
     0
370
    30
100
AcDbEllipse
 10
315.2078203920378
 20
204.9835418303908
 30
0.0
 11
-0.0000001676376718
 21
-21.75
 31
0.0
210
0.0
220
0.0
230
-1.0
 40
0.1736477893696597
 41
0.0000791924543228
 42
1.570875519249222
  0
ELLIPSE
  5
11B
330
D1
100
AcDbEntity
  8
0
  6
Continuous
 62
     0
370
    30
100
AcDbEllipse
 10
315.2078203920378
 20
204.9835418303908
 30
0.0
 11
-0.0000001676376718
 21
-21.75
 31
0.0
210
0.0
220
0.0
230
-1.0
 40
0.1736477893696597
 41
1.570875519249222
 42
3.141671846044124
  0
ARC
  5
11C
330
D1
100
AcDbEntity
  8
0
  6
Continuous
 62
     0
370
     0
100
AcDbCircle
 10
334.6185820924643
 20
204.9858835143694
 30
0.0
 40
3.586956482303116
100
AcDbArc
 50
359.9992116491924
 51
179.9992116487456
  0
ARC
  5
11D
330
D1
100
AcDbEntity
  8
0
  6
Continuous
 62
     0
370
     0
100
AcDbCircle
 10
334.6185820924643
 20
204.9858835143694
 30
0.0
 40
3.586956482303116
100
AcDbArc
 50
179.9992116487456
 51
359.999211648299
  0
ARC
  5
11E
330
D1
100
AcDbEntity
  8
0
  6
Continuous
 62
     0
370
    30
100
AcDbCircle
 10
334.6185816324209
 20
204.9857926423575
 30
0.0
 40
4.499999999999986
100
AcDbArc
 50
359.9992116491922
 51
179.9992116487456
  0
ARC
  5
11F
330
D1
100
AcDbEntity
  8
0
  6
Continuous
 62
     0
370
    30
100
AcDbCircle
 10
334.6185816324209
 20
204.9857926423575
 30
0.0
 40
4.499999999999986
100
AcDbArc
 50
179.9992116487456
 51
359.999211648299
  0
LINE
  5
120
330
D1
100
AcDbEntity
  8
0
  6
Continuous
 62
     0
370
    30
100
AcDbLine
 10
315.2086235429361
 20
183.2335418324016
 30
0.0
 11
315.2075211272173
 21
183.233541898595
 31
0.0
  0
ELLIPSE
  5
121
330
D1
100
AcDbEntity
  8
0
  6
Continuous
 62
     0
370
     0
100
AcDbEllipse
 10
337.488103917925
 20
204.983541658666
 30
0.0
 11
-0.0000001558550567
 21
-20.22127512455449
 31
0.0
210
0.0
220
0.0
230
-1.0
 40
0.1736477893696597
 41
6.256830600181519
 42
7.558068478435081
  0
ELLIPSE
  5
122
330
D1
100
AcDbEntity
  8
0
  6
Continuous
 62
     0
370
     0
100
AcDbEllipse
 10
337.488103917925
 20
204.983541658666
 30
0.0
 11
-0.0000001558550567
 21
-20.22127512455449
 31
0.0
210
0.0
220
0.0
230
-1.0
 40
0.1736477893696597
 41
1.866867867242951
 42
3.167943331029841
  0
LWPOLYLINE
  5
123
330
D1
100
AcDbEntity
  8
0
  6
Continuous
 62
     0
370
     0
100
AcDbPolyline
 90
        5
 70
     0
 43
0.0
 10
334.1295166015624
 20
210.8834075927734
 10
334.5179443359374
 20
210.9353027343749
 10
334.8749084472656
 20
210.9057922363281
 10
335.1689453125
 20
210.8399505615234
 10
335.3763122558593
 20
210.8028106689453
  0
ELLIPSE
  5
124
330
D1
100
AcDbEntity
  8
0
  6
Continuous
 62
     0
370
     0
100
AcDbEllipse
 10
338.5604390345928
 20
204.9835416504009
 30
0.0
 11
-0.0000001482756365
 21
-19.23789002945559
 31
0.0
210
0.0
220
0.0
230
-1.0
 40
0.1736477893696597
 41
5.463274577299644
 42
7.546835758640561
  0
ELLIPSE
  5
125
330
D1
100
AcDbEntity
  8
0
  6
Continuous
 62
     0
370
     0
100
AcDbEllipse
 10
338.5604390345928
 20
204.9835416504009
 30
0.0
 11
-0.0000001482756365
 21
-19.23789002945559
 31
0.0
210
0.0
220
0.0
230
-1.0
 40
0.1736477893696597
 41
1.878100587037472
 42
3.96151349419842
  0
LWPOLYLINE
  5
126
330
D1
100
AcDbEntity
  8
0
  6
Continuous
 62
     0
370
     0
100
AcDbPolyline
 90
        5
 70
     0
 43
0.0
 10
335.3761596679687
 20
199.1671752929687
 10
335.1687927246093
 20
199.1300964355468
 10
334.874755859375
 20
199.0643005371093
 10
334.5177612304687
 20
199.0348205566406
 10
334.1293334960937
 20
199.0867462158203
  0
ARC
  5
127
330
D1
100
AcDbEntity
  8
0
  6
Continuous
 62
     0
370
     0
100
AcDbCircle
 10
332.841650617706
 20
204.9840050588909
 30
0.0
 40
6.346898823882517
100
AcDbArc
 50
0.001133997882774
 51
66.4620854633073
  0
ARC
  5
128
330
D1
100
AcDbEntity
  8
0
  6
Continuous
 62
     0
370
     0
100
AcDbCircle
 10
332.8447826743586
 20
204.9839999392061
 30
0.0
 40
6.343766767333947
100
AcDbArc
 50
293.5178056981614
 51
0.0011807976850318
  0
LWPOLYLINE
  5
129
330
D1
100
AcDbEntity
  8
0
  6
Continuous
 62
     0
370
     0
100
AcDbPolyline
 90
       22
 70
     0
 43
0.0
 10
334.1295166015624
 20
210.8834075927734
 10
333.7149047851562
 20
210.818603515625
 10
333.3115234375
 20
210.7204132080078
 10
332.9182128906249
 20
210.5927734375
 10
332.5364379882812
 20
210.438980102539
 10
332.1658630371093
 20
210.2623748779296
 10
331.8075866699218
 20
210.0640716552734
 10
331.4645690917968
 20
209.8432312011718
 10
331.139404296875
 20
209.5996551513672
 10
330.8335571289062
 20
209.3345947265624
 10
330.5486145019531
 20
209.0490570068359
 10
330.2862548828124
 20
208.7441864013671
 10
330.0478820800781
 20
208.4213256835937
 10
329.8349914550781
 20
208.0818939208984
 10
329.6491394042968
 20
207.7274627685546
 10
329.490478515625
 20
207.3599395751953
 10
329.36279296875
 20
206.9807586669921
 10
329.2722778320312
 20
206.5915832519531
 10
329.2185974121093
 20
206.1957550048828
 10
329.1934509277343
 20
205.7955474853515
 10
329.1863708496093
 20
205.3916015625
 10
329.1866455078125
 20
204.9851837158203
  0
LWPOLYLINE
  5
12A
330
D1
100
AcDbEntity
  8
0
  6
Continuous
 62
     0
370
     0
100
AcDbPolyline
 90
       18
 70
     0
 43
0.0
 10
329.1866455078125
 20
204.9851837158203
 10
329.1869812011718
 20
204.4834289550781
 10
329.2024230957031
 20
203.9861297607421
 10
329.2528076171874
 20
203.4947814941406
 10
329.3562927246093
 20
203.0124053955078
 10
329.5162658691406
 20
202.5448913574218
 10
329.7221374511718
 20
202.0954589843749
 10
329.969482421875
 20
201.667251586914
 10
330.2566223144531
 20
201.2634887695312
 10
330.5806274414062
 20
200.8869171142578
 10
330.9387512207031
 20
200.5400390625
 10
331.3279418945312
 20
200.2249450683593
 10
331.7452087402343
 20
199.9437713623047
 10
332.1868896484375
 20
199.6970825195312
 10
332.6463317871093
 20
199.4838104248047
 10
333.1257019042968
 20
199.3063659667968
 10
333.6172790527343
 20
199.1722259521484
 10
334.1293334960937
 20
199.0867462158203
  0
LINE
  5
12B
330
D1
100
AcDbEntity
  8
0
  6
Continuous
 62
     0
370
     0
100
AcDbLine
 10
329.1866469202382
 20
204.9852666351053
 30
0.0
 11
330.1185785915412
 21
204.9852538123758
 31
0.0
  0
ELLIPSE
  5
12C
330
D1
100
AcDbEntity
  8
0
  6
Continuous
 62
     0
370
     0
100
AcDbEllipse
 10
334.0651286663115
 20
198.5088208791432
 30
0.0
 11
0.1702911266208007
 21
1.992737045421251
 31
0.0
210
0.0
220
0.0
230
1.0
 40
0.0077193642109451
 41
5.007291936200674
 42
6.283107565123033
  0
ELLIPSE
  5
12D
330
D1
100
AcDbEntity
  8
0
  6
Continuous
 62
     0
370
     0
100
AcDbEllipse
 10
334.0653068878734
 20
211.4616261987263
 30
0.0
 11
-0.1702386778917379
 21
1.992741526779042
 31
0.0
210
0.0
220
0.0
230
1.0
 40
0.007706085757093
 41
3.141514978585293
 42
4.417330607507609
  0
ELLIPSE
  5
12E
330
D1
100
AcDbEntity
  8
0
  6
Continuous
 62
     0
370
     0
100
AcDbEllipse
 10
337.213423735743
 20
210.9446601339396
 30
0.0
 11
-0.7986890762996075
 21
-1.833601854111102
 31
0.0
210
0.0
220
0.0
230
1.0
 40
0.9022737253262043
 41
5.158920228500864
 42
6.282713971937295
  0
LINE
  5
12F
330
D1
100
AcDbEntity
  8
0
  6
Continuous
 62
     0
370
     0
100
AcDbLine
 10
339.1185737436077
 20
204.9841725379101
 30
0.0
 11
339.1885494409081
 21
204.9841715750933
 31
0.0
  0
ELLIPSE
  5
130
330
D1
100
AcDbEntity
  8
0
  6
Continuous
 62
     0
370
     0
100
AcDbEllipse
 10
337.2132597350182
 20
199.0253983002196
 30
0.0
 11
0.7980897842547503
 21
-1.833862780108762
 31
0.0
210
0.0
220
0.0
230
1.0
 40
0.9023005703605049
 41
3.141758154355507
 42
4.266189441346527
  0
ARC
  5
131
330
D1
100
AcDbEntity
  8
0
  6
Continuous
 62
     0
370
    30
100
AcDbCircle
 10
315.2088349803995
 20
63.01030012511813
 30
0.0
 40
163.7232417084163
100
AcDbArc
 50
82.14930229485151
 51
90.00035506034732
  0
ARC
  5
132
330
D1
100
AcDbEntity
  8
0
  6
Continuous
 62
     0
370
    30
100
AcDbCircle
 10
315.2088372345641
 20
346.9567831109633
 30
0.0
 40
163.7232412787479
100
AcDbArc
 50
269.9999252175298
 51
277.8506969293224
  0
ARC
  5
133
330
D1
100
AcDbEntity
  8
0
  6
Continuous
 62
     0
370
    30
100
AcDbCircle
 10
260.0073438166899
 20
204.9835422562042
 30
0.0
 40
82.05202819786716
100
AcDbArc
 50
350.7949224571
 51
9.204975507547054
  0
LWPOLYLINE
  5
134
330
D1
100
AcDbEntity
  8
0
  6
Continuous
 62
     0
370
    30
100
AcDbPolyline
 90
       15
 70
     0
 43
0.0
 10
340.9617004394531
 20
191.6092834472656
 10
340.8231506347656
 20
190.8296203613281
 10
340.6763000488281
 20
190.0927429199218
 10
340.5214233398437
 20
189.400634765625
 10
340.3583374023437
 20
188.7541809082031
 10
340.1868591308593
 20
188.154052734375
 10
340.0063781738281
 20
187.600341796875
 10
339.8153991699218
 20
187.0922393798828
 10
339.6116333007812
 20
186.6283874511718
 10
339.3906555175781
 20
186.206298828125
 10
339.1442565917968
 20
185.8221435546875
 10
338.8580627441406
 20
185.4726867675781
 10
338.5115051269531
 20
185.162368774414
 10
338.0832214355468
 20
184.9126434326171
 10
337.572021484375
 20
184.768081665039
  0
LWPOLYLINE
  5
135
330
D1
100
AcDbEntity
  8
0
  6
Continuous
 62
     0
370
    30
100
AcDbPolyline
 90
       15
 70
     0
 43
0.0
 10
340.9616394042968
 20
218.3582916259765
 10
340.8230590820312
 20
219.1378936767578
 10
340.6762390136718
 20
219.8747100830078
 10
340.5213317871093
 20
220.5667572021484
 10
340.3582458496093
 20
221.2131652832031
 10
340.1867980957031
 20
221.8132629394531
 10
340.0063171386718
 20
222.3669281005859
 10
339.8153381347656
 20
222.8749847412109
 10
339.6116027832031
 20
223.3388214111328
 10
339.390625
 20
223.7608795166015
 10
339.1442260742187
 20
224.1450042724609
 10
338.8580322265625
 20
224.4944458007812
 10
338.511474609375
 20
224.8047485351562
 10
338.0831909179687
 20
225.0544433593749
 10
337.572021484375
 20
225.1990051269531
  0
LINE
  5
136
330
D1
100
AcDbEntity
  8
0
  6
Continuous
 62
     0
370
    30
100
AcDbLine
 10
262.7012505614584
 20
226.3044991279914
 30
0.0
 11
262.7012505614584
 21
232.8842972839821
 31
0.0
  0
ELLIPSE
  5
137
330
D1
100
AcDbEntity
  8
0
  6
Continuous
 62
     0
370
     0
100
AcDbEllipse
 10
264.7012505614584
 20
232.8842972839821
 30
0.0
 11
2.0
 21
0.0
 31
0.0
210
0.0
220
0.0
230
-1.0
 40
0.3420201844009378
 41
0.0
 42
3.141592653589793
  0
ELLIPSE
  5
138
330
D1
100
AcDbEntity
  8
0
  6
Continuous
 62
     0
370
     0
100
AcDbEllipse
 10
264.7012505614584
 20
246.979686371518
 30
0.0
 11
0.100000023841858
 21
0.0
 31
0.0
210
0.0
220
0.0
230
-1.0
 40
0.3420201844009378
 41
0.0
 42
3.141592653589793
  0
ELLIPSE
  5
139
330
D1
100
AcDbEntity
  8
0
  6
Continuous
 62
     0
370
     0
100
AcDbEllipse
 10
264.7012505614584
 20
246.979686371518
 30
0.0
 11
0.100000023841858
 21
0.0
 31
0.0
210
0.0
220
0.0
230
-1.0
 40
0.3420201844009378
 41
3.141592653589793
 42
6.283185307179586
  0
LINE
  5
13A
330
D1
100
AcDbEntity
  8
0
  6
Continuous
 62
     0
370
    30
100
AcDbLine
 10
262.7012505614584
 20
232.8842972839821
 30
0.0
 11
262.7012505614584
 21
245.1942704428342
 31
0.0
  0
ELLIPSE
  5
13B
330
D1
100
AcDbEntity
  8
0
  6
Continuous
 62
     0
370
     0
100
AcDbEllipse
 10
264.7012505614584
 20
245.1942704428343
 30
0.0
 11
2.0
 21
0.0
 31
0.0
210
0.0
220
0.0
230
-1.0
 40
0.3420201844009378
 41
0.0
 42
3.141592653589793
  0
LWPOLYLINE
  5
13C
330
D1
100
AcDbEntity
  8
0
  6
Continuous
 62
     0
370
    30
100
AcDbPolyline
 90
       13
 70
     0
 43
0.0
 10
266.7012634277343
 20
245.1942749023437
 10
266.6316833496093
 20
245.7042236328125
 10
266.4291687011718
 20
246.1773223876952
 10
266.1079711914062
 20
246.5794525146484
 10
265.6921081542968
 20
246.8823699951172
 10
265.2122802734374
 20
247.0673370361328
 10
264.7012634277343
 20
247.1283874511718
 10
264.1902465820312
 20
247.0673370361328
 10
263.7103881835937
 20
246.8824005126953
 10
263.2946166992187
 20
246.5794372558594
 10
262.9734802246094
 20
246.1773071289062
 10
262.7709045410156
 20
245.7042694091796
 10
262.7012634277343
 20
245.1942749023437
  0
LINE
  5
13D
330
D1
100
AcDbEntity
  8
0
  6
Continuous
 62
     0
370
    30
100
AcDbLine
 10
266.7012505614584
 20
245.1942704522311
 30
0.0
 11
266.7012505614584
 21
232.8842972839821
 31
0.0
  0
LINE
  5
13E
330
D1
100
AcDbEntity
  8
0
  6
Continuous
 62
     0
370
    30
100
AcDbLine
 10
266.7012505614584
 20
232.884297283982
 30
0.0
 11
266.7012505614584
 21
226.3044991279914
 31
0.0
  0
ARC
  5
13F
330
D1
100
AcDbEntity
  8
0
  6
Continuous
 62
     0
370
    30
100
AcDbCircle
 10
259.5549757650863
 20
205.1268470404
 30
0.0
 40
11.0
100
AcDbArc
 50
0.000000000892998
 51
180.0000000004465
  0
LINE
  5
140
330
D1
100
AcDbEntity
  8
0
  6
Continuous
 62
     0
370
    30
100
AcDbLine
 10
270.5549757650862
 20
205.1268470404001
 30
0.0
 11
270.5549757650862
 21
102.70043831469
 31
0.0
  0
ELLIPSE
  5
141
330
D1
100
AcDbEntity
  8
0
  6
Continuous
 62
     0
370
     0
100
AcDbEllipse
 10
259.5549757650863
 20
102.70043831469
 30
0.0
 11
-11.0
 21
0.0
 31
0.0
210
0.0
220
0.0
230
1.0
 40
0.7071068120951676
 41
6.283185307179586
 42
9.424777960769379
  0
LINE
  5
142
330
D1
100
AcDbEntity
  8
0
  6
Continuous
 62
     0
370
    30
100
AcDbLine
 10
270.5549757650862
 20
102.70043831469
 30
0.0
 11
270.5549757650862
 21
94.21515731135494
 31
0.0
  0
ELLIPSE
  5
143
330
D1
100
AcDbEntity
  8
0
  6
Continuous
 62
     0
370
    30
100
AcDbEllipse
 10
259.5549757650863
 20
94.21515731135494
 30
0.0
 11
-11.0
 21
0.0
 31
0.0
210
0.0
220
0.0
230
1.0
 40
0.7071068120951676
 41
6.283185307179586
 42
9.424777960769379
  0
LINE
  5
144
330
D1
100
AcDbEntity
  8
0
  6
Continuous
 62
     0
370
    30
100
AcDbLine
 10
248.5549757650862
 20
94.21515730428387
 30
0.0
 11
248.5549757650862
 21
102.70043831469
 31
0.0
  0
LINE
  5
145
330
D1
100
AcDbEntity
  8
0
  6
Continuous
 62
     0
370
    30
100
AcDbLine
 10
248.5549757650862
 20
102.70043831469
 30
0.0
 11
248.5549757650862
 21
205.1268470404
 31
0.0
  0
ELLIPSE
  5
146
330
D1
100
AcDbEntity
  8
0
  6
Continuous
 62
     0
370
    30
100
AcDbEllipse
 10
259.5549757650861
 20
88.40436084696207
 30
0.0
 11
11.0
 21
0.0000000000000013
 31
0.0
210
0.0
220
0.0
230
-1.0
 40
0.7071068120951676
 41
0.0000000000000002
 42
0.6635346593126399
  0
ELLIPSE
  5
147
330
D1
100
AcDbEntity
  8
0
  6
Continuous
 62
     0
370
    30
100
AcDbEllipse
 10
259.5549757650861
 20
88.40436084696207
 30
0.0
 11
11.0
 21
0.0000000000000013
 31
0.0
210
0.0
220
0.0
230
-1.0
 40
0.7071068120951676
 41
0.6635346593126399
 42
3.141592653589793
  0
ELLIPSE
  5
148
330
D1
100
AcDbEntity
  8
0
  6
Continuous
 62
     0
370
    30
100
AcDbEllipse
 10
259.5549757650861
 20
72.42374829068094
 30
0.0
 11
11.0
 21
0.0000000000000013
 31
0.0
210
0.0
220
0.0
230
-1.0
 40
0.7071068120951676
 41
0.6635346593126372
 42
3.141592653589793
  0
ELLIPSE
  5
149
330
D1
100
AcDbEntity
  8
0
  6
Continuous
 62
     0
370
    30
100
AcDbEllipse
 10
259.5549757650861
 20
72.42374829068094
 30
0.0
 11
11.0
 21
0.0000000000000013
 31
0.0
210
0.0
220
0.0
230
-1.0
 40
0.7071068120951676
 41
0.0000000000000002
 42
0.6635346593126372
  0
LINE
  5
14A
330
D1
100
AcDbEntity
  8
0
  6
Continuous
 62
     0
370
    30
100
AcDbLine
 10
270.5549757650861
 20
88.40436085403322
 30
0.0
 11
270.5549757650861
 21
72.42374829068097
 31
0.0
  0
LINE
  5
14B
330
D1
100
AcDbEntity
  8
0
  6
Continuous
 62
     0
370
    30
100
AcDbLine
 10
248.5549757650861
 20
88.40436085403322
 30
0.0
 11
248.5549757650861
 21
72.42374829068097
 31
0.0
  0
ELLIPSE
  5
14C
330
D1
100
AcDbEntity
  8
0
  6
Continuous
 62
     0
370
    30
100
AcDbEllipse
 10
259.5549757650862
 20
91.93989459835176
 30
0.0
 11
11.0
 21
-0.0000000000000004
 31
0.0
210
0.0
220
0.0
230
-1.0
 40
0.7071068120951676
 41
6.136399330234824
 42
6.946719966492225
  0
ELLIPSE
  5
14D
330
D1
100
AcDbEntity
  8
0
  6
Continuous
 62
     0
370
    30
100
AcDbEllipse
 10
259.5549757650862
 20
91.93989459835176
 30
0.0
 11
11.0
 21
-0.0000000000000004
 31
0.0
210
0.0
220
0.0
230
-1.0
 40
0.7071068120951676
 41
0.6635346593126396
 42
3.2883786305346
  0
LINE
  5
14E
330
D1
100
AcDbEntity
  8
0
  6
Continuous
 62
     0
370
    30
100
AcDbLine
 10
270.5549757650862
 20
91.93989460542281
 30
0.0
 11
270.5549757650862
 21
88.40436084696209
 31
0.0
  0
LINE
  5
14F
330
D1
100
AcDbEntity
  8
0
  6
Continuous
 62
     0
370
    30
100
AcDbLine
 10
248.5549757650862
 20
91.93989460542281
 30
0.0
 11
248.5549757650862
 21
88.40436084696209
 31
0.0
  0
ENDBLK
  5
151
330
D1
100
AcDbEntity
  8
0
100
AcDbBlockEnd
  0
BLOCK
  5
1BD
330
153
100
AcDbEntity
  8
0
100
AcDbBlockBegin
  2
c
 70
     0
 10
242.1771087646484
 20
78.72364807128906
 30
0.0
  3
c
  1

  0
LINE
  5
154
330
153
100
AcDbEntity
  8
0
  6
Continuous
 62
     0
370
    30
100
AcDbLine
 10
484.1657408019276
 20
470.199229972137
 30
0.0
 11
495.4778919567181
 21
470.1992303624429
 31
0.0
  0
LINE
  5
155
330
153
100
AcDbEntity
  8
0
  6
Continuous
 62
     0
370
    30
100
AcDbLine
 10
495.4778935192712
 20
470.199230362443
 30
0.0
 11
506.7879890628056
 21
470.1992303704737
 31
0.0
  0
LWPOLYLINE
  5
156
330
153
100
AcDbEntity
  8
0
  6
Continuous
 62
     0
370
     0
100
AcDbPolyline
 90
       12
 70
     0
 43
0.0
 10
473.6429748535156
 20
427.2655334472656
 10
473.7389221191405
 20
426.7642822265624
 10
473.9380493164062
 20
426.2612609863281
 10
474.2189636230468
 20
425.7617797851562
 10
474.5986328125
 20
425.2634582519531
 10
475.0682678222656
 20
424.7675170898437
 10
475.6294555664062
 20
424.2745971679687
 10
476.2818298339843
 20
423.7850646972656
 10
477.0246887207031
 20
423.2994384765625
 10
477.8565673828125
 20
422.8172607421875
 10
478.7781372070312
 20
422.3426208496094
 10
479.7864074707031
 20
421.8704528808594
  0
LWPOLYLINE
  5
157
330
153
100
AcDbEntity
  8
0
  6
Continuous
 62
     0
370
     0
100
AcDbPolyline
 90
        4
 70
     0
 43
0.0
 10
473.9591979980469
 20
423.2076110839844
 10
473.746826171875
 20
424.5498657226562
 10
473.6375427246094
 20
425.9047546386718
 10
473.6429748535156
 20
427.2655334472656
  0
LWPOLYLINE
  5
158
330
153
100
AcDbEntity
  8
0
  6
Continuous
 62
     0
370
     0
100
AcDbPolyline
 90
        5
 70
     0
 43
0.0
 10
479.0706481933593
 20
388.872314453125
 10
479.1219787597656
 20
388.8740844726562
 10
479.2750854492187
 20
388.8779296875
 10
479.5288696289062
 20
388.8793029785156
 10
479.8816833496093
 20
388.8786926269531
  0
LWPOLYLINE
  5
159
330
153
100
AcDbEntity
  8
0
  6
Continuous
 62
     0
370
     0
100
AcDbPolyline
 90
        5
 70
     0
 43
0.0
 10
479.8909301757812
 20
388.8779296875
 10
479.52685546875
 20
388.8953857421875
 10
479.2732849121093
 20
388.8899230957031
 10
479.1219787597656
 20
388.878173828125
 10
479.0706481933593
 20
388.872314453125
  0
LINE
  5
15A
330
153
100
AcDbEntity
  8
0
  6
Continuous
 62
     0
370
     0
100
AcDbLine
 10
479.7863944793132
 20
421.8704376228628
 30
0.0
 11
479.890935784345
 21
388.8779405042794
 31
0.0
  0
LINE
  5
15B
330
153
100
AcDbEntity
  8
0
  6
Continuous
 62
     0
370
     0
100
AcDbLine
 10
511.1693286351422
 20
421.87042005069
 30
0.0
 11
511.0647503832869
 21
388.8779230491984
 31
0.0
  0
LWPOLYLINE
  5
15C
330
153
100
AcDbEntity
  8
0
  6
Continuous
 62
     0
370
     0
100
AcDbPolyline
 90
        5
 70
     0
 43
0.0
 10
511.885009765625
 20
388.872314453125
 10
511.8337097167969
 20
388.8740539550781
 10
511.6806030273437
 20
388.8778991699219
 10
511.4268188476562
 20
388.8792724609375
 10
511.073974609375
 20
388.878662109375
  0
LWPOLYLINE
  5
15D
330
153
100
AcDbEntity
  8
0
  6
Continuous
 62
     0
370
     0
100
AcDbPolyline
 90
        5
 70
     0
 43
0.0
 10
511.0647583007812
 20
388.8779296875
 10
511.4288330078125
 20
388.8953857421875
 10
511.682373046875
 20
388.889892578125
 10
511.8337097167969
 20
388.8781433105468
 10
511.885009765625
 20
388.872314453125
  0
LWPOLYLINE
  5
15E
330
153
100
AcDbEntity
  8
0
  6
Continuous
 62
     0
370
     0
100
AcDbPolyline
 90
        4
 70
     0
 43
0.0
 10
516.9971313476562
 20
423.2109069824218
 10
517.2091674804687
 20
424.5520629882812
 10
517.3182373046874
 20
425.9058532714844
 10
517.312744140625
 20
427.2655029296875
  0
LWPOLYLINE
  5
15F
330
153
100
AcDbEntity
  8
0
  6
Continuous
 62
     0
370
     0
100
AcDbPolyline
 90
       12
 70
     0
 43
0.0
 10
517.312744140625
 20
427.2655029296875
 10
517.216796875
 20
426.7642822265624
 10
517.0177001953125
 20
426.2612304687499
 10
516.7367553710938
 20
425.7617492675781
 10
516.3570556640625
 20
425.263427734375
 10
515.887451171875
 20
424.7675170898437
 10
515.3262939453124
 20
424.2745666503906
 10
514.6738891601562
 20
423.7850341796875
 10
513.9310302734375
 20
423.2994384765625
 10
513.0991821289062
 20
422.8172607421875
 10
512.1776123046875
 20
422.3425903320312
 10
511.1693420410156
 20
421.8704223632812
  0
LINE
  5
160
330
153
100
AcDbEntity
  8
0
  6
Continuous
 62
     0
370
     0
100
AcDbLine
 10
479.8909359184194
 20
388.8779405042793
 30
0.0
 11
479.8909036862919
 21
358.4786041259765
 31
0.0
  0
LINE
  5
161
330
153
100
AcDbEntity
  8
0
  6
Continuous
 62
     0
370
     0
100
AcDbLine
 10
495.4778342405358
 20
358.5939512867301
 30
0.0
 11
495.4777923204302
 21
388.8777037903206
 31
0.0
  0
LINE
  5
162
330
153
100
AcDbEntity
  8
0
  6
Continuous
 62
     0
370
     0
100
AcDbLine
 10
495.4777923204302
 20
388.8777037903206
 30
0.0
 11
479.8909383914404
 21
388.8779418206081
 31
0.0
  0
LWPOLYLINE
  5
163
330
153
100
AcDbEntity
  8
0
  6
Continuous
 62
     0
370
     0
100
AcDbPolyline
 90
       13
 70
     0
 43
0.0
 10
506.7777099609375
 20
460.4201354980468
 10
506.8262329101562
 20
457.1832275390625
 10
506.98779296875
 20
453.9500122070312
 10
507.2653503417968
 20
450.7247009277343
 10
507.654296875
 20
447.5109558105469
 10
508.1583557128906
 20
444.3132019042969
 10
508.7576904296875
 20
441.1318969726562
 10
509.3224792480468
 20
437.9443054199218
 10
509.821533203125
 20
434.7457275390625
 10
510.2559509277344
 20
431.5377502441406
 10
510.6257324218749
 20
428.3216857910156
 10
510.9302062988281
 20
425.0988464355469
 10
511.1693420410156
 20
421.8704223632812
  0
LWPOLYLINE
  5
164
330
153
100
AcDbEntity
  8
0
  6
Continuous
 62
     0
370
     0
100
AcDbPolyline
 90
       14
 70
     0
 43
0.0
 10
517.312744140625
 20
427.2655029296875
 10
517.2117309570312
 20
428.6655578613281
 10
517.1072387695312
 20
430.0638427734375
 10
516.929931640625
 20
431.4546813964843
 10
516.6080932617187
 20
432.8208312988281
 10
516.1715698242187
 20
434.1560363769531
 10
515.6651000976562
 20
435.4669189453125
 10
515.0904541015624
 20
436.7502746582031
 10
514.4302368164062
 20
437.9930114746094
 10
513.6806030273437
 20
439.1857910156249
 10
512.8506469726562
 20
440.326416015625
 10
511.9496154785156
 20
441.4133605957031
 10
510.9805603027344
 20
442.4418334960937
 10
509.9453125
 20
443.4059448242187
  0
LWPOLYLINE
  5
165
330
153
100
AcDbEntity
  8
0
  6
Continuous
 62
     0
370
     0
100
AcDbPolyline
 90
       14
 70
     0
 43
0.0
 10
473.6429748535156
 20
427.2655334472656
 10
473.7439880371093
 20
428.6655578613281
 10
473.8484802246094
 20
430.0638732910156
 10
474.0257568359375
 20
431.4547119140625
 10
474.3476257324219
 20
432.8208618164062
 10
474.7841796874999
 20
434.1560668945312
 10
475.2906494140624
 20
435.4669494628906
 10
475.8652648925781
 20
436.7503051757812
 10
476.5254821777343
 20
437.9930114746094
 10
477.2751159667969
 20
439.1858215332031
 10
478.1051025390625
 20
440.3264465332031
 10
479.0061340332031
 20
441.4133911132812
 10
479.9751892089843
 20
442.4418640136718
 10
481.0104370117187
 20
443.4059753417968
  0
LWPOLYLINE
  5
166
330
153
100
AcDbEntity
  8
0
  6
Continuous
 62
     0
370
     0
100
AcDbPolyline
 90
       13
 70
     0
 43
0.0
 10
484.1780700683593
 20
460.4201354980468
 10
484.1295166015624
 20
457.1832275390625
 10
483.9679565429687
 20
453.9500122070312
 10
483.6903991699219
 20
450.7247314453125
 10
483.3014526367187
 20
447.5109558105469
 10
482.7973937988281
 20
444.3132324218749
 10
482.1980590820312
 20
441.1318969726562
 10
481.6332702636718
 20
437.9443359375
 10
481.1342163085937
 20
434.7457275390625
 10
480.6997680664062
 20
431.5377807617188
 10
480.3299865722656
 20
428.3217163085937
 10
480.0255126953125
 20
425.0988769531249
 10
479.7864074707031
 20
421.8704528808594
  0
LINE
  5
167
330
153
100
AcDbEntity
  8
0
  6
Continuous
 62
     0
370
     0
100
AcDbLine
 10
495.4777923204302
 20
388.8777037903206
 30
0.0
 11
495.4778270361934
 21
419.8779256214696
 31
0.0
  0
LWPOLYLINE
  5
168
330
153
100
AcDbEntity
  8
0
  6
Continuous
 62
     0
370
     0
100
AcDbPolyline
 90
       14
 70
     0
 43
0.0
 10
495.4778137207031
 20
419.8779296875
 10
493.8822937011718
 20
419.8914489746093
 10
492.3019409179687
 20
419.9318237304687
 10
490.7516479492187
 20
419.9987487792968
 10
489.24609375
 20
420.0915222167968
 10
487.7997436523437
 20
420.2093200683593
 10
486.4263305664062
 20
420.3509826660156
 10
485.1388854980468
 20
420.5151672363281
 10
483.9494323730469
 20
420.7002868652343
 10
482.8689880371094
 20
420.9046325683593
 10
481.9081115722656
 20
421.1262817382812
 10
481.0777587890624
 20
421.3632507324218
 10
480.3860778808593
 20
421.6132507324219
 10
479.7864074707031
 20
421.8704528808594
  0
LWPOLYLINE
  5
169
330
153
100
AcDbEntity
  8
0
  6
Continuous
 62
     0
370
     0
100
AcDbPolyline
 90
       15
 70
     0
 43
0.0
 10
484.1780700683593
 20
460.4201354980468
 10
484.2485046386719
 20
460.419677734375
 10
484.4601440429687
 20
460.4190673828124
 10
484.8110046386718
 20
460.4179077148437
 10
485.2964782714844
 20
460.4162902832031
 10
485.9100952148437
 20
460.4144897460937
 10
486.6437377929687
 20
460.4127502441406
 10
487.4880981445312
 20
460.4111328124999
 10
488.4326477050781
 20
460.4096069335937
 10
489.4656982421874
 20
460.4080810546874
 10
490.5744934082031
 20
460.4064331054687
 10
491.7452392578125
 20
460.4046020507812
 10
492.9631042480468
 20
460.4026794433593
 10
494.2126159667968
 20
460.4007873535156
 10
495.4778747558593
 20
460.3990478515624
  0
LINE
  5
16A
330
153
100
AcDbEntity
  8
0
  6
Continuous
 62
     0
370
     0
100
AcDbLine
 10
495.477872413998
 20
460.3990572141137
 30
0.0
 11
495.4778919567181
 21
470.1992303624418
 31
0.0
  0
LWPOLYLINE
  5
16B
330
153
100
AcDbEntity
  8
0
  6
Continuous
 62
     0
370
     0
100
AcDbPolyline
 90
        4
 70
     0
 43
0.0
 10
506.7769470214844
 20
470.19921875
 10
506.7738647460937
 20
466.9397277832031
 10
506.7663879394531
 20
463.679931640625
 10
506.7777099609375
 20
460.4202270507812
  0
LWPOLYLINE
  5
16C
330
153
100
AcDbEntity
  8
0
  6
Continuous
 62
     0
370
     0
100
AcDbPolyline
 90
       15
 70
     0
 43
0.0
 10
506.7777099609375
 20
460.4201354980468
 10
506.7072448730469
 20
460.419677734375
 10
506.49560546875
 20
460.4190673828124
 10
506.1447753906249
 20
460.4178771972656
 10
505.6592712402343
 20
460.4162902832031
 10
505.0456848144531
 20
460.4144897460937
 10
504.3120117187499
 20
460.4127502441406
 10
503.4676513671874
 20
460.4111022949219
 10
502.5231323242187
 20
460.4096069335937
 10
501.4900817871093
 20
460.4080810546874
 10
500.3812866210937
 20
460.4064331054687
 10
499.2105407714843
 20
460.4046020507812
 10
497.9926452636719
 20
460.4026794433593
 10
496.7431640625
 20
460.4007873535156
 10
495.4779052734375
 20
460.3990478515624
  0
LINE
  5
16D
330
153
100
AcDbEntity
  8
0
  6
Continuous
 62
     0
370
     0
100
AcDbLine
 10
495.4778948348242
 20
419.8779256214316
 30
0.0
 11
495.4778948348242
 21
460.3990572141011
 31
0.0
  0
LWPOLYLINE
  5
16E
330
153
100
AcDbEntity
  8
0
  6
Continuous
 62
     0
370
     0
100
AcDbPolyline
 90
       14
 70
     0
 43
0.0
 10
511.1693420410156
 20
421.8704223632812
 10
510.5696411132812
 20
421.6132202148437
 10
509.8779907226562
 20
421.3632507324218
 10
509.0476379394531
 20
421.1262512207031
 10
508.0867614746093
 20
420.9046325683593
 10
507.0063171386719
 20
420.7002868652343
 10
505.8168334960937
 20
420.5151672363281
 10
504.5293884277343
 20
420.3509826660156
 10
503.1559753417968
 20
420.2093200683593
 10
501.7095947265625
 20
420.0915222167968
 10
500.2040405273437
 20
419.9987182617187
 10
498.6537475585937
 20
419.9318237304687
 10
497.0733947753906
 20
419.8914184570312
 10
495.4779052734375
 20
419.8779296875
  0
LINE
  5
16F
330
153
100
AcDbEntity
  8
0
  6
Continuous
 62
     0
370
     0
100
AcDbLine
 10
511.0647477761938
 20
388.8779243655301
 30
0.0
 11
495.4778948348243
 21
388.8777037902632
 31
0.0
  0
LWPOLYLINE
  5
170
330
153
100
AcDbEntity
  8
0
  6
Continuous
 62
     0
370
     0
100
AcDbPolyline
 90
       13
 70
     0
 43
0.0
 10
482.7845458984374
 20
448.6438293457031
 10
481.4209289550781
 20
447.5893249511718
 10
480.1449584960937
 20
446.4331970214844
 10
478.9648132324218
 20
445.1821289062499
 10
477.8874816894531
 20
443.8439025878905
 10
476.9199218749999
 20
442.4265441894531
 10
476.0687866210937
 20
440.9382934570312
 10
475.3390808105469
 20
439.3898620605468
 10
474.733642578125
 20
437.7915039062499
 10
474.2558288574218
 20
436.1460571289062
 10
473.9183349609374
 20
434.4668273925781
 10
473.7159729003906
 20
432.7785949707031
 10
473.6278381347656
 20
431.0891418457031
  0
LWPOLYLINE
  5
171
330
153
100
AcDbEntity
  8
0
  6
Continuous
 62
     0
370
     0
100
AcDbPolyline
 90
       13
 70
     0
 43
0.0
 10
508.1712646484374
 20
448.6435546874999
 10
509.5335388183594
 20
447.5902404785156
 10
510.8084106445312
 20
446.4355773925781
 10
511.9878234863281
 20
445.1861572265625
 10
513.0643920898437
 20
443.8495788574218
 10
514.0311889648437
 20
442.4338989257812
 10
514.8820190429687
 20
440.9476623535156
 10
515.6118774414062
 20
439.4011535644531
 10
516.2176513671875
 20
437.8047180175781
 10
516.6962890625
 20
436.160888671875
 10
517.0345458984375
 20
434.4841003417968
 10
517.2381591796875
 20
432.7976989746093
 10
517.3274536132812
 20
431.1101379394531
  0
LWPOLYLINE
  5
172
330
153
100
AcDbEntity
  8
0
  6
Continuous
 62
     0
370
     0
100
AcDbPolyline
 90
        7
 70
     0
 43
0.0
 10
517.312744140625
 20
427.2655029296875
 10
517.32763671875
 20
427.9027709960937
 10
517.327880859375
 20
428.5400085449218
 10
517.327880859375
 20
429.1772766113281
 10
517.327880859375
 20
429.8145446777343
 10
517.327880859375
 20
430.4518127441406
 10
517.327880859375
 20
431.0890808105468
  0
LWPOLYLINE
  5
173
330
153
100
AcDbEntity
  8
0
  6
Continuous
 62
     0
370
     0
100
AcDbPolyline
 90
        7
 70
     0
 43
0.0
 10
473.6429748535156
 20
427.2655334472656
 10
473.6280822753906
 20
427.9028015136718
 10
473.6278381347656
 20
428.5400390625
 10
473.6278381347656
 20
429.1773071289062
 10
473.6278381347656
 20
429.8145751953125
 10
473.6278381347656
 20
430.4518432617187
 10
473.6278381347656
 20
431.0891113281249
  0
LWPOLYLINE
  5
174
330
153
100
AcDbEntity
  8
0
  6
Continuous
 62
     0
370
     0
100
AcDbPolyline
 90
        2
 70
     0
 43
0.0
 10
517.327880859375
 20
430.2663269042969
 10
517.3284301757812
 20
431.0890808105468
  0
LWPOLYLINE
  5
175
330
153
100
AcDbEntity
  8
0
  6
Continuous
 62
     0
370
     0
100
AcDbPolyline
 90
        2
 70
     0
 43
0.0
 10
473.6278381347656
 20
430.2663879394531
 10
473.6272888183593
 20
431.0891113281249
  0
LINE
  5
176
330
153
100
AcDbEntity
  8
0
  6
Continuous
 62
     0
370
     0
100
AcDbLine
 10
511.0647502492127
 20
388.8779230491984
 30
0.0
 11
511.0647484384814
 21
358.4786041259766
 31
0.0
  0
LINE
  5
177
330
153
100
AcDbEntity
  8
0
  6
Continuous
 62
     0
370
    30
100
AcDbLine
 10
511.8852446557215
 20
388.8728341755417
 30
0.0
 11
511.8797876512759
 21
358.478642523347
 31
0.0
  0
LINE
  5
178
330
153
100
AcDbEntity
  8
0
  6
Continuous
 62
     0
370
    30
100
AcDbLine
 10
517.3320130966535
 20
430.8026456465227
 30
0.0
 11
517.3284227140915
 21
431.0896890067818
 31
0.0
  0
LINE
  5
179
330
153
100
AcDbEntity
  8
0
  6
Continuous
 62
     0
370
    30
100
AcDbLine
 10
473.6273061432918
 20
431.0897242146292
 30
0.0
 11
473.6237155148917
 21
430.802684105183
 31
0.0
  0
LWPOLYLINE
  5
17A
330
153
100
AcDbEntity
  8
0
  6
Continuous
 62
     0
370
    30
100
AcDbPolyline
 90
       42
 70
     0
 43
0.0
 10
473.6234130859375
 20
430.7924499511718
 10
473.6226806640624
 20
430.6644897460937
 10
473.6219177246093
 20
430.5372314453125
 10
473.62109375
 20
430.4107360839843
 10
473.6202087402343
 20
430.2851257324219
 10
473.6192321777344
 20
430.1604614257812
 10
473.6182250976562
 20
430.0368347167968
 10
473.6171264648437
 20
429.914306640625
 10
473.615966796875
 20
429.7929382324219
 10
473.6147155761718
 20
429.6725463867187
 10
473.6134033203125
 20
429.5528564453125
 10
473.6120300292968
 20
429.4335632324218
 10
473.610595703125
 20
429.3143920898437
 10
473.6091003417969
 20
429.1950988769531
 10
473.6075439453125
 20
429.0752563476562
 10
473.60595703125
 20
428.9544982910156
 10
473.6043395996094
 20
428.8323974609375
 10
473.6027221679687
 20
428.7086181640624
 10
473.6011047363281
 20
428.5828247070312
 10
473.5995483398437
 20
428.454833984375
 10
473.5981140136718
 20
428.3245544433594
 10
473.5968017578125
 20
428.1917419433593
 10
473.5957031249999
 20
428.0563354492187
 10
473.5947875976562
 20
427.9187011718749
 10
473.5942077636718
 20
427.7796630859374
 10
473.5939331054687
 20
427.6399230957031
 10
473.5940246582031
 20
427.5002746582031
 10
473.594482421875
 20
427.3630676269531
 10
473.5952758789062
 20
427.2311096191406
 10
473.5962829589843
 20
427.1080017089843
 10
473.5973815917969
 20
426.998291015625
 10
473.598388671875
 20
426.9091186523437
 10
473.5990600585937
 20
426.8452758789062
 10
473.5996093749999
 20
426.7849731445312
 10
473.6008911132812
 20
426.655029296875
 10
473.6059265136718
 20
426.3841552734374
 10
473.6204223632812
 20
425.9823303222656
 10
473.6488037109374
 20
425.5093688964843
 10
473.6925659179687
 20
425.0061950683593
 10
473.7513427734374
 20
424.4929504394531
 10
473.8235473632812
 20
423.9832458496094
 10
473.9047546386719
 20
423.4980163574219
  0
LWPOLYLINE
  5
17B
330
153
100
AcDbEntity
  8
0
  6
Continuous
 62
     0
370
    30
100
AcDbPolyline
 90
       42
 70
     0
 43
0.0
 10
517.3323364257812
 20
430.7924194335937
 10
517.3330078124999
 20
430.6644592285156
 10
517.3338012695312
 20
430.5371704101562
 10
517.3346557617187
 20
430.4107055664062
 10
517.3355102539062
 20
430.2850952148437
 10
517.3364868164062
 20
430.1604309082031
 10
517.3375244140625
 20
430.0368041992187
 10
517.3386230468749
 20
429.9142761230468
 10
517.3397827148437
 20
429.7929077148437
 10
517.3410034179688
 20
429.6725158691406
 10
517.34228515625
 20
429.5527954101562
 10
517.3436889648437
 20
429.4335021972655
 10
517.3451538085937
 20
429.3143615722656
 10
517.3466186523437
 20
429.195068359375
 10
517.3482055664062
 20
429.0752258300781
 10
517.3497924804687
 20
428.9544677734375
 10
517.3513793945312
 20
428.8323669433593
 10
517.3530273437499
 20
428.7085876464844
 10
517.3546142578125
 20
428.5827941894531
 10
517.3561401367187
 20
428.4548034667968
 10
517.3576049804687
 20
428.3244934082031
 10
517.3589477539062
 20
428.1917114257812
 10
517.3600463867187
 20
428.0562744140625
 10
517.3609008789062
 20
427.9186706542969
 10
517.3615112304687
 20
427.7796325683594
 10
517.3618164062499
 20
427.639892578125
 10
517.3616943359375
 20
427.5002441406249
 10
517.3612060546875
 20
427.363037109375
 10
517.3604736328124
 20
427.2310791015625
 10
517.3594360351562
 20
427.1079711914062
 10
517.3583374023437
 20
426.9982604980468
 10
517.3573608398437
 20
426.9090881347656
 10
517.356689453125
 20
426.8452453613281
 10
517.3561401367187
 20
426.7849426269531
 10
517.3547973632812
 20
426.6549987792968
 10
517.3497924804687
 20
426.3841247558593
 10
517.3353271484375
 20
425.9822692871093
 10
517.3068847656249
 20
425.5093078613281
 10
517.26318359375
 20
425.0061340332031
 10
517.2044067382812
 20
424.4929199218749
 10
517.1321411132812
 20
423.9831542968749
 10
517.0509643554687
 20
423.4979553222656
  0
LWPOLYLINE
  5
17C
330
153
100
AcDbEntity
  8
0
  6
Continuous
 62
     0
370
    30
100
AcDbPolyline
 90
       13
 70
     0
 43
0.0
 10
508.1678161621093
 20
448.6567382812499
 10
509.5293273925781
 20
447.6040344238281
 10
510.8036193847656
 20
446.4501037597655
 10
511.9824829101562
 20
445.201416015625
 10
513.0587158203125
 20
443.8655700683593
 10
514.0255126953125
 20
442.4507141113281
 10
514.87646484375
 20
440.9652099609375
 10
515.60693359375
 20
439.4186401367187
 10
516.2139282226562
 20
437.821044921875
 10
516.6921386718749
 20
436.1813049316406
 10
517.0310668945312
 20
434.5082092285156
 10
517.2369995117187
 20
432.8143310546875
 10
517.3274536132812
 20
431.1107788085937
  0
LWPOLYLINE
  5
17D
330
153
100
AcDbEntity
  8
0
  6
Continuous
 62
     0
370
    30
100
AcDbPolyline
 90
       13
 70
     0
 43
0.0
 10
473.6278381347656
 20
431.0897521972655
 10
473.7171630859375
 20
432.7952270507812
 10
473.9219665527343
 20
434.4911499023437
 10
474.2601623535156
 20
436.1658020019531
 10
474.7374267578124
 20
437.8077392578124
 10
475.343994140625
 20
439.4074401855468
 10
476.0744323730468
 20
440.9559326171875
 10
476.9259338378906
 20
442.4430847167968
 10
477.8931274414062
 20
443.85986328125
 10
478.9700012207031
 20
445.1974487304688
 10
480.1498107910155
 20
446.4476928710937
 10
481.4251098632812
 20
447.6031188964843
 10
482.7879638671874
 20
448.6568908691406
  0
LWPOLYLINE
  5
17E
330
153
100
AcDbEntity
  8
0
  6
Continuous
 62
     0
370
    30
100
AcDbPolyline
 90
        4
 70
     0
 43
0.0
 10
506.7777099609375
 20
460.4201354980468
 10
506.7713317871094
 20
463.6712951660156
 10
506.7865295410156
 20
466.9331665039062
 10
506.7879943847656
 20
470.19921875
  0
LWPOLYLINE
  5
17F
330
153
100
AcDbEntity
  8
0
  6
Continuous
 62
     0
370
    30
100
AcDbPolyline
 90
        4
 70
     0
 43
0.0
 10
484.1780700683593
 20
460.4201354980468
 10
484.1766662597656
 20
463.6705017089844
 10
484.1640625
 20
466.9322814941406
 10
484.1657409667968
 20
470.19921875
  0
LWPOLYLINE
  5
180
330
153
100
AcDbEntity
  8
0
  6
Continuous
 62
     0
370
    30
100
AcDbPolyline
 90
       27
 70
     0
 43
0.0
 10
484.1697387695312
 20
459.4672546386719
 10
484.155029296875
 20
458.59375
 10
484.1257019042968
 20
457.7114868164062
 10
484.0790405273437
 20
456.820068359375
 10
484.0133361816405
 20
455.9215393066406
 10
483.9286804199218
 20
455.0196533203124
 10
483.8258972167968
 20
454.1187438964843
 10
483.7056579589844
 20
453.22265625
 10
483.5680236816406
 20
452.3333129882812
 10
483.4130249023437
 20
451.4522705078125
 10
483.2405700683593
 20
450.5809936523437
 10
483.0506896972656
 20
449.7212524414062
 10
482.844482421875
 20
448.8756103515624
 10
482.6231994628906
 20
448.0468444824218
 10
482.3881530761719
 20
447.237548828125
 10
482.1410827636718
 20
446.449951171875
 10
481.8843078613281
 20
445.6870727539062
 10
481.62060546875
 20
444.9528503417968
 10
481.3535461425781
 20
444.2520751953124
 10
481.0873107910156
 20
443.5906677246093
 10
480.8273315429687
 20
442.9769897460937
 10
480.5794067382812
 20
442.4200744628906
 10
480.3507080078125
 20
441.9308776855468
 10
480.1499328613281
 20
441.5226135253906
 10
479.9886169433594
 20
441.2118225097656
 10
479.8803405761718
 20
441.0147399902343
 10
479.8403015136718
 20
440.9459838867187
  0
LWPOLYLINE
  5
181
330
153
100
AcDbEntity
  8
0
  6
Continuous
 62
     0
370
    30
100
AcDbPolyline
 90
       27
 70
     0
 43
0.0
 10
506.7860107421875
 20
459.4672241210937
 10
506.8007507324218
 20
458.59375
 10
506.830078125
 20
457.7114868164062
 10
506.8767395019531
 20
456.820068359375
 10
506.9424438476562
 20
455.9215087890625
 10
507.0270690917968
 20
455.0196228027344
 10
507.1298522949218
 20
454.1187438964843
 10
507.2500915527343
 20
453.2226257324218
 10
507.3877258300781
 20
452.3332824707031
 10
507.542724609375
 20
451.4522399902343
 10
507.7152099609374
 20
450.5809936523437
 10
507.9050598144531
 20
449.7212219238281
 10
508.1112670898437
 20
448.8755798339844
 10
508.3325500488281
 20
448.0468139648437
 10
508.5675964355468
 20
447.2375183105468
 10
508.8146667480469
 20
446.4499206542968
 10
509.0714416503906
 20
445.6870727539062
 10
509.3351440429687
 20
444.9528503417968
 10
509.6022033691406
 20
444.2520446777344
 10
509.8684387207031
 20
443.5906372070312
 10
510.12841796875
 20
442.9769592285156
 10
510.3763427734374
 20
442.4200439453125
 10
510.6050415039062
 20
441.9308471679687
 10
510.8058166503906
 20
441.5226135253906
 10
510.9671325683593
 20
441.2117919921874
 10
511.0754089355468
 20
441.0147094726562
 10
511.1154479980468
 20
440.9459533691406
  0
LINE
  5
182
330
153
100
AcDbEntity
  8
0
  6
Continuous
 62
     0
370
    30
100
AcDbLine
 10
479.0704410617352
 20
388.872836400339
 30
0.0
 11
479.0758640296651
 21
358.4786477129246
 31
0.0
  0
LWPOLYLINE
  5
183
330
153
100
AcDbEntity
  8
0
  6
Continuous
 62
     0
370
    30
100
AcDbPolyline
 90
       35
 70
     0
 43
0.0
 10
511.8853454589843
 20
388.8722839355468
 10
511.8862609863281
 20
390.2707214355468
 10
511.8891601562499
 20
391.6682739257812
 10
511.892333984375
 20
393.0638427734375
 10
511.8976440429687
 20
394.4572448730468
 10
511.9096984863281
 20
395.8483276367187
 10
511.9340515136719
 20
397.236328125
 10
511.9757385253906
 20
398.6191101074219
 10
512.0378417968749
 20
399.994140625
 10
512.121337890625
 20
401.35693359375
 10
512.2252197265624
 20
402.7030334472656
 10
512.3462524414062
 20
404.0249328613281
 10
512.4808959960937
 20
405.3126525878906
 10
512.6265258789062
 20
406.5547790527343
 10
512.7819824218749
 20
407.7410278320312
 10
512.9464111328124
 20
408.8590393066406
 10
513.1199340820312
 20
409.907501220703
 10
513.30224609375
 20
410.8887939453125
 10
513.4906005859375
 20
411.7959899902343
 10
513.6851806640625
 20
412.6400756835937
 10
513.8828735351562
 20
413.4192810058594
 10
514.0837402343749
 20
414.1448059082031
 10
514.2845458984375
 20
414.8163146972656
 10
514.4869384765625
 20
415.4489135742187
 10
514.6884765624999
 20
416.0438232421874
 10
514.8894653320312
 20
416.6103820800781
 10
515.0911865234375
 20
417.1592712402343
 10
515.2962646484374
 20
417.7048339843749
 10
515.5092163085937
 20
418.2671508789062
 10
515.7356567382812
 20
418.8718872070312
 10
515.9824218749999
 20
419.5539245605468
 10
516.2548828124999
 20
420.3587036132812
 10
516.5421142578124
 20
421.3059692382812
 10
516.8176879882812
 20
422.3714599609374
 10
517.0507202148437
 20
423.4962158203124
  0
LWPOLYLINE
  5
184
330
153
100
AcDbEntity
  8
0
  6
Continuous
 62
     0
370
    30
100
AcDbPolyline
 90
       35
 70
     0
 43
0.0
 10
479.070343017578
 20
388.872314453125
 10
479.0694274902343
 20
390.2707519531249
 10
479.0665283203124
 20
391.6683044433593
 10
479.0633544921875
 20
393.0639038085937
 10
479.0580444335937
 20
394.4573059082031
 10
479.0460205078125
 20
395.848388671875
 10
479.0216369628906
 20
397.2364196777343
 10
478.9799499511718
 20
398.6192016601562
 10
478.9178771972656
 20
399.9942626953125
 10
478.8343505859375
 20
401.3570556640624
 10
478.7304992675781
 20
402.703155517578
 10
478.6094665527343
 20
404.0250854492187
 10
478.4748229980468
 20
405.3127746582031
 10
478.3291625976562
 20
406.554931640625
 10
478.1736755371094
 20
407.7412109375
 10
478.0092468261718
 20
408.8591918945312
 10
477.8357543945312
 20
409.9076843261718
 10
477.6534729003905
 20
410.8889465332031
 10
477.465087890625
 20
411.7961120605468
 10
477.2704772949218
 20
412.6402282714844
 10
477.0728149414062
 20
413.4194335937499
 10
476.8719482421874
 20
414.1449890136718
 10
476.671142578125
 20
414.8164672851562
 10
476.4687194824218
 20
415.4490661621093
 10
476.2672119140624
 20
416.0439453124999
 10
476.0662231445312
 20
416.6105041503906
 10
475.8644714355468
 20
417.1594543457031
 10
475.6594848632812
 20
417.7046203613281
 10
475.4464721679688
 20
418.2672119140624
 10
475.219970703125
 20
418.8721008300781
 10
474.9732055664062
 20
419.5541381835937
 10
474.7007751464844
 20
420.3589477539062
 10
474.4134826660156
 20
421.3063964843749
 10
474.1380004882812
 20
422.3717041015625
 10
473.9049072265625
 20
423.4967651367187
  0
LINE
  5
185
330
153
100
AcDbEntity
  8
0
  6
Continuous
 62
     0
370
    30
100
AcDbLine
 10
522.4777954777331
 20
354.2786041259765
 30
0.0
 11
468.4777954777331
 21
354.2786041259765
 31
0.0
  0
LINE
  5
186
330
153
100
AcDbEntity
  8
0
  6
Continuous
 62
     0
370
     0
100
AcDbLine
 10
522.9777954777331
 20
357.9786041259765
 30
0.0
 11
467.9777954777331
 21
357.9786041259765
 31
0.0
  0
LINE
  5
187
330
153
100
AcDbEntity
  8
0
  6
Continuous
 62
     0
370
    30
100
AcDbLine
 10
467.9777954777332
 20
357.9786041259765
 30
0.0
 11
467.9777954777332
 21
354.7786041259765
 31
0.0
  0
LINE
  5
188
330
153
100
AcDbEntity
  8
0
  6
Continuous
 62
     0
370
     0
100
AcDbLine
 10
522.9777954777331
 20
354.7786041259765
 30
0.0
 11
467.9777954777331
 21
354.7786041259765
 31
0.0
  0
LINE
  5
189
330
153
100
AcDbEntity
  8
0
  6
Continuous
 62
     0
370
    30
100
AcDbLine
 10
522.4777954777331
 20
358.4786041259765
 30
0.0
 11
468.4777954777331
 21
358.4786041259765
 31
0.0
  0
ARC
  5
18A
330
153
100
AcDbEntity
  8
0
  6
Continuous
 62
     0
370
    30
100
AcDbCircle
 10
468.4777954777332
 20
357.9786041259765
 30
0.0
 40
0.5
100
AcDbArc
 50
90.00000000022325
 51
180.0
  0
ARC
  5
18B
330
153
100
AcDbEntity
  8
0
  6
Continuous
 62
     0
370
    30
100
AcDbCircle
 10
468.4777954777332
 20
354.7786041259765
 30
0.0
 40
0.5
100
AcDbArc
 50
180.0
 51
269.9999999997767
  0
ARC
  5
18C
330
153
100
AcDbEntity
  8
0
  6
Continuous
 62
     0
370
    30
100
AcDbCircle
 10
522.4777927906745
 20
354.7786068130351
 30
0.0
 40
0.5000026870658142
100
AcDbArc
 50
270.0003079127966
 51
359.999692087416
  0
ARC
  5
18D
330
153
100
AcDbEntity
  8
0
  6
Continuous
 62
     0
370
    30
100
AcDbCircle
 10
522.4777927906741
 20
357.9786014389176
 30
0.0
 40
0.500002687066168
100
AcDbArc
 50
0.0003079126126455
 51
89.99969208715169
  0
LINE
  5
18E
330
153
100
AcDbEntity
  8
0
  6
Continuous
 62
     0
370
    30
100
AcDbLine
 10
522.9777954777331
 20
357.9786041359765
 30
0.0
 11
522.9777954777331
 21
354.7786041259765
 31
0.0
  0
ELLIPSE
  5
18F
330
153
100
AcDbEntity
  8
0
  6
Continuous
 62
     0
370
    30
100
AcDbEllipse
 10
495.4778642871222
 20
431.967305043831
 30
0.0
 11
21.74999999999933
 21
0.0000053918287915
 31
0.0
210
0.0
220
0.0
230
1.0
 40
0.9848078214794135
 41
0.0676431686448877
 42
0.9598752421524006
  0
ELLIPSE
  5
190
330
153
100
AcDbEntity
  8
0
  6
Continuous
 62
     0
370
    30
100
AcDbEllipse
 10
495.4778642871222
 20
431.967305043831
 30
0.0
 11
21.74999999999933
 21
0.0000053918287915
 31
0.0
210
0.0
220
0.0
230
1.0
 40
0.9848078214794135
 41
2.181715745541795
 42
3.073948225128266
  0
ELLIPSE
  5
191
330
153
100
AcDbEntity
  8
0
  6
Continuous
 62
     0
370
     0
100
AcDbEllipse
 10
495.4778633132201
 20
435.8959111093144
 30
0.0
 11
20.22127512455387
 21
0.0000050128576284
 31
0.0
210
0.0
220
0.0
230
1.0
 40
0.9848078214794135
 41
0.8787546197768758
 42
0.9369233334382984
  0
ELLIPSE
  5
192
330
153
100
AcDbEntity
  8
0
  6
Continuous
 62
     0
370
     0
100
AcDbEllipse
 10
495.4778633132201
 20
435.8959111093144
 30
0.0
 11
20.22127512455387
 21
0.0000050128576284
 31
0.0
210
0.0
220
0.0
230
1.0
 40
0.9848078214794135
 41
2.204667340305382
 42
2.262837599036243
  0
LWPOLYLINE
  5
193
330
153
100
AcDbEntity
  8
0
  6
Continuous
 62
     0
370
    30
100
AcDbPolyline
 90
       14
 70
     0
 43
0.0
 10
473.7587585449218
 20
433.2382202148437
 10
473.8784790039062
 20
434.77001953125
 10
474.0884704589843
 20
436.2940063476562
 10
474.3890380859375
 20
437.8059387207031
 10
474.7804260253906
 20
439.301513671875
 10
475.2632446289062
 20
440.7763061523437
 10
475.8381042480468
 20
442.2257385253906
 10
476.5060424804687
 20
443.6452941894531
 10
477.2681884765624
 20
445.0296936035156
 10
478.1263427734375
 20
446.3740844726562
 10
479.0826721191406
 20
447.6728210449218
 10
480.1401062011718
 20
448.9196472167968
 10
481.3027343749999
 20
450.1078491210937
 10
482.574462890625
 20
451.2286376953125
  0
LWPOLYLINE
  5
194
330
153
100
AcDbEntity
  8
0
  6
Continuous
 62
     0
370
    30
100
AcDbPolyline
 90
       14
 70
     0
 43
0.0
 10
517.1969604492187
 20
433.2384643554687
 10
517.0772094726562
 20
434.7702636718749
 10
516.8671875
 20
436.2942199707031
 10
516.5666503906249
 20
437.8061218261718
 10
516.1752319335938
 20
439.3016967773437
 10
515.6924438476562
 20
440.7764587402343
 10
515.1175537109375
 20
442.2258911132812
 10
514.4496459960937
 20
443.6454162597656
 10
513.6874999999999
 20
445.02978515625
 10
512.829345703125
 20
446.3741455078125
 10
511.8729858398437
 20
447.6728820800781
 10
510.8155822753906
 20
448.919677734375
 10
509.6529541015625
 20
450.1078796386718
 10
508.3812561035156
 20
451.2286376953125
  0
LINE
  5
195
330
153
100
AcDbEntity
  8
0
  6
Continuous
 62
     0
370
     0
100
AcDbLine
 10
467.5771138556116
 20
367.8160154665035
 30
0.0
 11
466.8930735587338
 21
365.9366301968346
 31
0.0
  0
LINE
  5
196
330
153
100
AcDbEntity
  8
0
  6
Continuous
 62
     0
370
     0
100
AcDbLine
 10
468.2611541320365
 20
369.6954006799782
 30
0.0
 11
467.5771138556116
 21
367.8160154665035
 31
0.0
  0
LINE
  5
197
330
153
100
AcDbEntity
  8
0
  6
Continuous
 62
     0
370
    30
100
AcDbLine
 10
453.5159265560836
 20
373.040286872774
 30
0.0
 11
453.481724534108
 21
372.9463175896963
 31
0.0
  0
LINE
  5
198
330
153
100
AcDbEntity
  8
0
  6
Continuous
 62
     0
370
    30
100
AcDbLine
 10
453.481724534108
 20
372.9463175896963
 30
0.0
 11
453.4475225111097
 21
372.8523483038088
 31
0.0
  0
LINE
  5
199
330
153
100
AcDbEntity
  8
0
  6
Continuous
 62
     0
370
     0
100
AcDbLine
 10
455.2671405009122
 20
372.2964793522241
 30
0.0
 11
454.5831002040343
 21
370.4170940825552
 31
0.0
  0
LINE
  5
19A
330
153
100
AcDbEntity
  8
0
  6
Continuous
 62
     0
370
     0
100
AcDbLine
 10
455.951180777337
 20
374.1758645656988
 30
0.0
 11
455.2671405009122
 21
372.2964793522241
 31
0.0
  0
ARC
  5
19B
330
153
100
AcDbEntity
  8
0
  6
Continuous
 62
     0
370
    30
100
AcDbCircle
 10
455.30145471813
 20
372.3902079860352
 30
0.0
 40
1.900187721369574
100
AcDbArc
 50
70.00566074427505
 51
159.9943392850924
  0
ARC
  5
19C
330
153
100
AcDbEntity
  8
0
  6
Continuous
 62
     0
370
    30
100
AcDbCircle
 10
455.2331790913917
 20
372.2026222432754
 30
0.0
 40
1.900187721368677
100
AcDbArc
 50
160.0056607149326
 51
249.9943392557527
  0
LINE
  5
19D
330
153
100
AcDbEntity
  8
0
  6
Continuous
 62
     0
370
    30
100
AcDbLine
 10
454.5831001946375
 20
370.4170940859755
 30
0.0
 11
466.8930735587338
 21
365.9366301968346
 31
0.0
  0
LINE
  5
19E
330
153
100
AcDbEntity
  8
0
  6
Continuous
 62
     0
370
    30
100
AcDbLine
 10
455.9511807679401
 20
374.1758645691191
 30
0.0
 11
468.2611541320364
 21
369.6954006799782
 31
0.0
  0
ARC
  5
19F
330
153
100
AcDbEntity
  8
0
  6
Continuous
 62
     0
370
    30
100
AcDbCircle
 10
464.1569090249999
 20
358.4190870801648
 30
0.0
 40
8.000003179165133
100
AcDbArc
 50
0.4262632047432009
 51
69.99998247189857
  0
ARC
  5
1A0
330
153
100
AcDbEntity
  8
0
  6
Continuous
 62
     0
370
    30
100
AcDbCircle
 10
464.1569084895096
 20
358.4190866385061
 30
0.0
 40
12.00000377733706
100
AcDbArc
 50
0.2841761457680336
 51
69.99998663325347
  0
LINE
  5
1A1
330
153
100
AcDbEntity
  8
0
  6
Continuous
 62
     0
370
     0
100
AcDbLine
 10
506.3345587458209
 20
495.1992301618552
 30
0.0
 11
495.3345592266462
 21
495.1992301618552
 31
0.0
  0
LINE
  5
1A2
330
153
100
AcDbEntity
  8
0
  6
Continuous
 62
     0
370
     0
100
AcDbLine
 10
495.3345592266462
 20
495.1992301618552
 30
0.0
 11
484.3345587458209
 21
495.1992301618552
 31
0.0
  0
LINE
  5
1A3
330
153
100
AcDbEntity
  8
0
  6
Continuous
 62
     0
370
     0
100
AcDbLine
 10
589.9827910239617
 20
529.8474624399959
 30
0.0
 11
597.7609658574264
 21
537.6256372734606
 31
0.0
  0
LINE
  5
1A4
330
153
100
AcDbEntity
  8
0
  6
Continuous
 62
     0
370
     0
100
AcDbLine
 10
597.7609658574264
 20
537.6256372734606
 30
0.0
 11
605.5391402100658
 21
545.4038116260999
 31
0.0
  0
LINE
  5
1A5
330
153
100
AcDbEntity
  8
0
  6
Continuous
 62
     0
370
    30
100
AcDbLine
 10
598.4680723982002
 20
521.3621810657573
 30
0.0
 11
606.2462472316649
 21
529.1403558992219
 31
0.0
  0
LINE
  5
1A6
330
153
100
AcDbEntity
  8
0
  6
Continuous
 62
     0
370
    30
100
AcDbLine
 10
606.2462472316649
 20
529.1403558992219
 30
0.0
 11
614.0244215843043
 21
536.9185302518612
 31
0.0
  0
LINE
  5
1A7
330
153
100
AcDbEntity
  8
0
  6
Continuous
 62
     0
370
    30
100
AcDbLine
 10
598.4680724052712
 20
521.3621810586862
 30
0.0
 11
589.9827910239617
 21
529.8474624399958
 31
0.0
  0
LINE
  5
1A8
330
153
100
AcDbEntity
  8
0
  6
Continuous
 62
     0
370
    30
100
AcDbLine
 10
614.0244215913753
 20
536.9185302447903
 30
0.0
 11
605.5391402100657
 21
545.4038116260999
 31
0.0
  0
ARC
  5
1A9
330
153
100
AcDbEntity
  8
0
  6
Continuous
 62
     0
370
    30
100
AcDbCircle
 10
555.3345599916046
 20
495.199227154267
 30
0.0
 40
49.00000124578389
100
AcDbArc
 50
45.00000351677751
 51
179.9999964828874
  0
ARC
  5
1AA
330
153
100
AcDbEntity
  8
0
  6
Continuous
 62
     0
370
    30
100
AcDbCircle
 10
555.3345605724477
 20
495.1992257519876
 30
0.0
 40
71.000001826627
100
AcDbArc
 50
45.0000035586871
 51
179.9999964409778
  0
LINE
  5
1AB
330
153
100
AcDbEntity
  8
0
  6
Continuous
 62
     0
370
    30
100
AcDbLine
 10
506.3345587458208
 20
495.1992301718552
 30
0.0
 11
506.3345587458208
 21
470.1992301618552
 31
0.0
  0
LINE
  5
1AC
330
153
100
AcDbEntity
  8
0
  6
Continuous
 62
     0
370
    30
100
AcDbLine
 10
484.3345587458208
 20
495.1992301718552
 30
0.0
 11
484.3345587458208
 21
470.1992301618552
 31
0.0
  0
LINE
  5
1AD
330
153
100
AcDbEntity
  8
0
  6
Continuous
 62
     0
370
    30
100
AcDbLine
 10
635.8158315575111
 20
515.1271202786545
 30
0.0
 11
623.2470376572771
 21
502.5583263784206
 31
0.0
  0
LINE
  5
1AE
330
153
100
AcDbEntity
  8
0
  6
Continuous
 62
     0
370
    30
100
AcDbLine
 10
623.2470376572771
 20
502.5583263784206
 30
0.0
 11
620.2594823714069
 21
499.5707710925505
 31
0.0
  0
LINE
  5
1AF
330
153
100
AcDbEntity
  8
0
  6
Continuous
 62
     0
370
    30
100
AcDbLine
 10
604.2788691095199
 20
515.5513843544375
 30
0.0
 11
620.2594823714069
 21
499.5707710925504
 31
0.0
  0
LINE
  5
1B0
330
153
100
AcDbEntity
  8
0
  6
Continuous
 62
     0
370
    30
100
AcDbLine
 10
619.835218295624
 20
531.1077335405416
 30
0.0
 11
635.815831557511
 21
515.1271202786545
 31
0.0
  0
LINE
  5
1B1
330
153
100
AcDbEntity
  8
0
  6
Continuous
 62
     0
370
    30
100
AcDbLine
 10
603.7308904965284
 20
522.0744735391694
 30
0.0
 11
600.7433352106582
 21
519.0869182532993
 31
0.0
  0
LINE
  5
1B2
330
153
100
AcDbEntity
  8
0
  6
Continuous
 62
     0
370
    30
100
AcDbLine
 10
616.2996843967625
 20
534.6432674394033
 30
0.0
 11
603.7308904965284
 21
522.0744735391694
 31
0.0
  0
LINE
  5
1B3
330
153
100
AcDbEntity
  8
0
  6
Continuous
 62
     0
370
    30
100
AcDbLine
 10
619.8352183026952
 20
531.1077335334705
 30
0.0
 11
607.2664244024612
 21
518.5389396332366
 31
0.0
  0
LINE
  5
1B4
330
153
100
AcDbEntity
  8
0
  6
Continuous
 62
     0
370
    30
100
AcDbLine
 10
607.2664244024612
 20
518.5389396332366
 30
0.0
 11
604.278869116591
 21
515.5513843473666
 31
0.0
  0
LINE
  5
1B5
330
153
100
AcDbEntity
  8
0
  6
Continuous
 62
     0
370
    30
100
AcDbLine
 10
602.6983488569908
 20
525.2845694092441
 30
0.0
 11
612.4105986889897
 21
534.9968192412432
 31
0.0
  0
LINE
  5
1B6
330
153
100
AcDbEntity
  8
0
  6
Continuous
 62
     0
370
    30
100
AcDbLine
 10
600.3897834088185
 20
522.9760039610718
 30
0.0
 11
602.6983488569908
 21
525.2845694092441
 31
0.0
  0
LINE
  5
1B7
330
153
100
AcDbEntity
  8
0
  6
Continuous
 62
     0
370
    30
100
AcDbLine
 10
612.4105986960607
 20
534.996819234172
 30
0.0
 11
612.2566546313378
 21
535.150763298895
 31
0.0
  0
LINE
  5
1B8
330
153
100
AcDbEntity
  8
0
  6
Continuous
 62
     0
370
    30
100
AcDbLine
 10
600.3897834158895
 20
522.9760039540008
 30
0.0
 11
600.2358393511665
 21
523.1299480187238
 31
0.0
  0
LINE
  5
1B9
330
153
100
AcDbEntity
  8
0
  6
Continuous
 62
     0
370
    30
100
AcDbLine
 10
611.3499369355277
 20
529.6935199640263
 30
0.0
 11
609.2286181736502
 21
531.8148387259038
 31
0.0
  0
LINE
  5
1BA
330
153
100
AcDbEntity
  8
0
  6
Continuous
 62
     0
370
    30
100
AcDbLine
 10
605.6930826860353
 20
524.036665714534
 30
0.0
 11
603.5717639241578
 21
526.1579844764114
 31
0.0
  0
LINE
  5
1BB
330
153
100
AcDbEntity
  8
0
  6
Continuous
 62
     0
370
    30
100
AcDbLine
 10
600.7433352035873
 20
519.0869182603703
 30
0.0
 11
604.2788691165911
 21
515.5513843473665
 31
0.0
  0
LINE
  5
1BC
330
153
100
AcDbEntity
  8
0
  6
Continuous
 62
     0
370
    30
100
AcDbLine
 10
616.2996843896912
 20
534.6432674464743
 30
0.0
 11
619.8352183026951
 21
531.1077335334705
 31
0.0
  0
ENDBLK
  5
1BE
330
153
100
AcDbEntity
  8
0
100
AcDbBlockEnd
  0
BLOCK
  5
245
330
1C0
100
AcDbEntity
  8
0
100
AcDbBlockBegin
  2
d
 70
     0
 10
129.1452178955078
 20
0.0
 30
0.0
  3
d
  1

  0
LINE
  5
1C1
330
1C0
100
AcDbEntity
  8
0
  6
Continuous
 62
     0
370
    30
100
AcDbLine
 10
41.09440281460061
 20
470.1991845860936
 30
0.0
 11
52.39475322786777
 21
470.1991841874982
 31
0.0
  0
LINE
  5
1C2
330
1C0
100
AcDbEntity
  8
0
  6
Continuous
 62
     0
370
    30
100
AcDbLine
 10
52.39475747598056
 20
470.1991841874981
 30
0.0
 11
63.69478297079398
 21
470.1991841875382
 31
0.0
  0
LINE
  5
1C3
330
1C0
100
AcDbEntity
  8
0
  6
Continuous
 62
     0
370
    30
100
AcDbLine
 10
63.69478571530102
 20
470.1991841875383
 30
0.0
 11
63.70673983193039
 21
470.1991841957698
 31
0.0
  0
LWPOLYLINE
  5
1C4
330
1C0
100
AcDbEntity
  8
0
  6
Continuous
 62
     0
370
    30
100
AcDbPolyline
 90
        2
 70
     0
 43
0.0
 10
41.08449172973632
 20
470.1991882324218
 10
41.09553909301758
 20
470.1991882324218
  0
LWPOLYLINE
  5
1C5
330
1C0
100
AcDbEntity
  8
0
  6
Continuous
 62
     0
370
    30
100
AcDbPolyline
 90
       21
 70
     0
 43
0.0
 10
48.97467422485352
 20
406.0093994140625
 10
48.97465515136719
 20
405.7759094238281
 10
48.97457885742188
 20
405.4948120117187
 10
48.97507858276367
 20
405.2376098632812
 10
48.97467422485352
 20
404.9956665039062
 10
48.97476959228516
 20
404.6711120605468
 10
48.97471237182617
 20
404.2144470214843
 10
48.97461318969726
 20
403.6125183105468
 10
48.97455596923828
 20
402.8739929199218
 10
48.97466278076172
 20
402.0146179199218
 10
48.97477340698242
 20
401.0456848144531
 10
48.97477722167969
 20
399.9819946289062
 10
48.97474670410156
 20
398.8427124023437
 10
48.97470092773438
 20
397.6464538574218
 10
48.97460174560547
 20
396.4126281738281
 10
48.97453689575195
 20
395.1616516113281
 10
48.9748306274414
 20
393.9073181152343
 10
48.97519302368164
 20
392.6536865234375
 10
48.97496032714844
 20
391.4006042480469
 10
48.97463607788086
 20
390.1465759277343
 10
48.97467422485352
 20
388.8918151855468
  0
LWPOLYLINE
  5
1C6
330
1C0
100
AcDbEntity
  8
0
  6
Continuous
 62
     0
370
     0
100
AcDbPolyline
 90
        6
 70
     0
 43
0.0
 10
48.97475433349609
 20
388.8784790039062
 10
49.74452972412109
 20
388.8844604492187
 10
50.52003479003906
 20
388.8887329101562
 10
51.29931640625
 20
388.8876647949219
 10
52.39458465576172
 20
388.8778686523437
 10
52.39468765258789
 20
388.8778686523437
  0
LWPOLYLINE
  5
1C7
330
1C0
100
AcDbEntity
  8
0
  6
Continuous
 62
     0
370
     0
100
AcDbPolyline
 90
        3
 70
     0
 43
0.0
 10
52.39468765258789
 20
388.8778686523437
 10
52.39472579956054
 20
388.8778686523437
 10
55.8554458618164
 20
388.878173828125
  0
LWPOLYLINE
  5
1C8
330
1C0
100
AcDbEntity
  8
0
  6
Continuous
 62
     0
370
    30
100
AcDbPolyline
 90
       21
 70
     0
 43
0.0
 10
55.8554458618164
 20
388.8902587890624
 10
55.85548782348633
 20
390.145263671875
 10
55.85515213012695
 20
391.3995971679687
 10
55.85492324829101
 20
392.6528930664062
 10
55.85529708862305
 20
393.9067687988281
 10
55.8555908203125
 20
395.1613464355468
 10
55.85552215576171
 20
396.4124755859375
 10
55.85541915893554
 20
397.6464538574218
 10
55.85537719726563
 20
398.8428344726562
 10
55.85534286499023
 20
399.9822692871093
 10
55.85534286499023
 20
401.0461120605468
 10
55.85546112060547
 20
402.0152893066406
 10
55.8555793762207
 20
402.8749694824218
 10
55.85551452636718
 20
403.6139221191406
 10
55.85540771484375
 20
404.2163696289062
 10
55.85535430908203
 20
404.6737976074219
 10
55.8554458618164
 20
404.9993591308593
 10
55.85504531860351
 20
405.2423706054687
 10
55.85554122924804
 20
405.5001220703124
 10
55.85546493530273
 20
405.7818603515625
 10
55.8554458618164
 20
406.0157775878906
  0
ARC
  5
1C9
330
1C0
100
AcDbEntity
  8
0
  6
Continuous
 62
     0
370
     0
100
AcDbCircle
 10
52.41286159080807
 20
427.8921337468631
 30
0.0
 40
22.14555748014363
100
AcDbArc
 50
269.9527124527844
 51
278.9430446555836
  0
ARC
  5
1CA
330
1C0
100
AcDbEntity
  8
0
  6
Continuous
 62
     0
370
     0
100
AcDbCircle
 10
52.40195556488366
 20
428.2251809925842
 30
0.0
 40
22.47859839213659
100
AcDbArc
 50
261.2299865276508
 51
269.9812114741303
  0
LWPOLYLINE
  5
1CB
330
1C0
100
AcDbEntity
  8
0
  6
Continuous
 62
     0
370
     0
100
AcDbPolyline
 90
       17
 70
     0
 43
0.0
 10
55.8554458618164
 20
406.0158386230468
 10
57.51373291015625
 20
406.3428039550781
 10
59.14289855957031
 20
406.7944946289062
 10
60.73051834106445
 20
407.3692321777343
 10
62.26774597167969
 20
408.0635681152343
 10
63.74590301513672
 20
408.8729858398437
 10
65.15579223632812
 20
409.792236328125
 10
66.48987579345703
 20
410.8167724609375
 10
67.74070739746093
 20
411.9404296875
 10
68.90040588378906
 20
413.1554565429687
 10
69.96168518066406
 20
414.4540405273437
 10
70.91935729980469
 20
415.8282470703125
 10
71.76863098144531
 20
417.2701416015625
 10
72.5045166015625
 20
418.7710571289062
 10
73.12187194824218
 20
420.3219604492187
 10
73.61495971679687
 20
421.9149475097656
 10
73.97551727294922
 20
423.5416259765624
  0
LWPOLYLINE
  5
1CC
330
1C0
100
AcDbEntity
  8
0
  6
Continuous
 62
     0
370
     0
100
AcDbPolyline
 90
       15
 70
     0
 43
0.0
 10
68.80181884765625
 20
388.8722839355468
 10
68.7242431640625
 20
388.8750305175781
 10
68.492919921875
 20
388.8788452148437
 10
68.11032867431641
 20
388.8789367675781
 10
67.57992553710938
 20
388.8778991699219
 10
66.9066162109375
 20
388.8783874511718
 10
66.09687042236328
 20
388.8787841796875
 10
65.15831756591797
 20
388.8762817382812
 10
64.09964752197265
 20
388.8739624023437
 10
62.93078231811524
 20
388.8778076171874
 10
61.66287994384766
 20
388.8869934082031
 10
60.30838775634766
 20
388.8850708007812
 10
58.87996673583984
 20
388.858154296875
 10
57.39127349853515
 20
388.8468017578125
 10
55.85588073730469
 20
388.8902282714843
  0
LWPOLYLINE
  5
1CD
330
1C0
100
AcDbEntity
  8
0
  6
Continuous
 62
     0
370
     0
100
AcDbPolyline
 90
       15
 70
     0
 43
0.0
 10
35.98745727539062
 20
388.8722534179687
 10
36.06531906127929
 20
388.8749999999999
 10
36.29750823974609
 20
388.8788146972656
 10
36.68153381347656
 20
388.8789062499999
 10
37.21390533447265
 20
388.8778686523437
 10
37.88968276977539
 20
388.8783874511718
 10
38.70235061645507
 20
388.8787536621093
 10
39.64421844482421
 20
388.876220703125
 10
40.70653915405273
 20
388.8739624023437
 10
41.87931060791015
 20
388.8779296875
 10
43.15129852294922
 20
388.8871154785156
 10
44.50996780395508
 20
388.8847351074218
 10
45.94256973266602
 20
388.8574523925781
 10
47.43534088134765
 20
388.8472290039062
 10
48.97467422485352
 20
388.8918151855468
  0
LWPOLYLINE
  5
1CE
330
1C0
100
AcDbEntity
  8
0
  6
Continuous
 62
     0
370
     0
100
AcDbPolyline
 90
       17
 70
     0
 43
0.0
 10
48.97467422485352
 20
406.0093994140625
 10
47.31329727172851
 20
406.3339233398437
 10
45.6808853149414
 20
406.7835083007812
 10
44.08994674682617
 20
407.3565979003906
 10
42.54936599731445
 20
408.0496826171875
 10
41.06786346435547
 20
408.8583068847656
 10
39.65469741821289
 20
409.7772216796874
 10
38.31743240356445
 20
410.8017883300781
 10
37.06356430053711
 20
411.9258422851562
 10
35.90101623535156
 20
413.1416625976562
 10
34.83710861206054
 20
414.4413757324218
 10
33.87707901000976
 20
415.8170166015625
 10
33.02573013305664
 20
417.2606201171874
 10
32.28808212280273
 20
418.7634582519531
 10
31.66928672790527
 20
420.3164978027343
 10
31.17512130737305
 20
421.9117431640625
 10
30.81385231018066
 20
423.5408325195312
  0
LINE
  5
1CF
330
1C0
100
AcDbEntity
  8
0
  6
Continuous
 62
     0
370
     0
100
AcDbLine
 10
52.39472186830396
 20
358.4785583496092
 30
0.0
 11
52.39468782546354
 21
388.8778785892206
 31
0.0
  0
LINE
  5
1D0
330
1C0
100
AcDbEntity
  8
0
  6
Continuous
 62
     0
370
     0
100
AcDbLine
 10
41.09478411544322
 20
460.4200797441254
 30
0.0
 11
41.08646056751289
 21
459.4671880048369
 31
0.0
  0
LWPOLYLINE
  5
1D1
330
1C0
100
AcDbEntity
  8
0
  6
Continuous
 62
     0
370
     0
100
AcDbPolyline
 90
       11
 70
     0
 43
0.0
 10
47.89656829833984
 20
460.4464721679687
 10
46.73232650756836
 20
460.4555358886718
 10
45.63313674926757
 20
460.4390869140624
 10
44.61435317993164
 20
460.4167175292968
 10
43.69761276245117
 20
460.4053649902343
 10
42.90212249755859
 20
460.4084777832031
 10
42.24457931518554
 20
460.4200439453125
 10
41.73939514160156
 20
460.4325256347656
 10
41.38821411132812
 20
460.4399108886719
 10
41.18004608154296
 20
460.4352722167968
 10
41.09478759765624
 20
460.420196533203
  0
LWPOLYLINE
  5
1D2
330
1C0
100
AcDbEntity
  8
0
  6
Continuous
 62
     0
370
     0
100
AcDbPolyline
 90
       11
 70
     0
 43
0.0
 10
56.89656829833984
 20
460.4465637207031
 10
58.06023406982422
 20
460.4555358886718
 10
59.15886306762695
 20
460.4390258789062
 10
60.17708587646485
 20
460.4166870117187
 10
61.09328460693359
 20
460.4053649902343
 10
61.88827896118164
 20
460.4085083007812
 10
62.54538345336914
 20
460.4200744628906
 10
63.05022430419922
 20
460.4325256347656
 10
63.40116119384766
 20
460.4399414062499
 10
63.60919570922852
 20
460.4352722167968
 10
63.69440841674805
 20
460.420196533203
  0
LINE
  5
1D3
330
1C0
100
AcDbEntity
  8
0
  6
Continuous
 62
     0
370
     0
100
AcDbLine
 10
63.69441078401175
 20
460.4200923982815
 30
0.0
 11
63.70273539897247
 21
459.4672006683155
 31
0.0
  0
LWPOLYLINE
  5
1D4
330
1C0
100
AcDbEntity
  8
0
  6
Continuous
 62
     0
370
     0
100
AcDbPolyline
 90
        3
 70
     0
 43
0.0
 10
63.69478225708007
 20
470.1991882324218
 10
63.69309997558594
 20
465.3097534179687
 10
63.69440841674805
 20
460.420196533203
  0
LINE
  5
1D5
330
1C0
100
AcDbEntity
  8
0
  6
Continuous
 62
     0
370
     0
100
AcDbLine
 10
52.39569514077422
 20
465.8526885984791
 30
0.0
 11
52.39475747601264
 21
470.1991841918855
 31
0.0
  0
LWPOLYLINE
  5
1D6
330
1C0
100
AcDbEntity
  8
0
  6
Continuous
 62
     0
370
     0
100
AcDbPolyline
 90
        4
 70
     0
 43
0.0
 10
41.09553909301758
 20
470.1991882324218
 10
41.09860229492187
 20
466.939697265625
 10
41.10610198974609
 20
463.6799011230468
 10
41.09478759765624
 20
460.420196533203
  0
LWPOLYLINE
  5
1D7
330
1C0
100
AcDbEntity
  8
0
  6
Continuous
 62
     0
370
     0
100
AcDbPolyline
 90
        3
 70
     0
 43
0.0
 10
74.11387634277343
 20
433.2352294921874
 10
74.20106506347656
 20
432.1624145507812
 10
74.24463653564453
 20
431.0891113281249
  0
ELLIPSE
  5
1D8
330
1C0
100
AcDbEntity
  8
0
  6
Continuous
 62
     0
370
     0
100
AcDbEllipse
 10
73.24485208815457
 20
431.0688074477786
 30
0.0
 11
0.9997810754486483
 21
0.0209236988779935
 31
0.0
210
0.0
220
0.0
230
1.0
 40
0.173239814865051
 41
6.279552162228626
 42
6.771353848436201
  0
LWPOLYLINE
  5
1D9
330
1C0
100
AcDbEntity
  8
0
  6
Continuous
 62
     0
370
     0
100
AcDbPolyline
 90
        3
 70
     0
 43
0.0
 10
30.67535591125488
 20
433.2353515624999
 10
30.58880233764648
 20
432.1729431152343
 10
30.5450325012207
 20
431.110107421875
  0
ELLIPSE
  5
1DA
330
1C0
100
AcDbEntity
  8
0
  6
Continuous
 62
     0
370
     0
100
AcDbEllipse
 10
31.54480378627656
 20
431.0890695841624
 30
0.0
 11
-0.9997644590495706
 21
0.0217031431204262
 31
0.0
210
0.0
220
0.0
230
-1.0
 40
0.1732407873544781
 41
6.279335989728325
 42
6.768318000546361
  0
LINE
  5
1DB
330
1C0
100
AcDbEntity
  8
0
  6
Continuous
 62
     0
370
     0
100
AcDbLine
 10
52.3945843462106
 20
405.7465838090387
 30
0.0
 11
52.39458313651802
 21
409.571024151017
 31
0.0
  0
LWPOLYLINE
  5
1DC
330
1C0
100
AcDbEntity
  8
0
  6
Continuous
 62
     0
370
     0
100
AcDbPolyline
 90
       21
 70
     0
 43
0.0
 10
52.39458465576172
 20
409.5710144042969
 10
50.68058395385742
 20
409.6370239257812
 10
48.97353363037109
 20
409.8353881835937
 10
47.28629684448242
 20
410.1645202636718
 10
45.63173675537109
 20
410.6221313476562
 10
44.01935577392578
 20
411.2050781249999
 10
42.45811462402343
 20
411.9100341796874
 10
40.95708847045898
 20
412.7329711914062
 10
39.52553939819336
 20
413.6687011718749
 10
38.17272567749023
 20
414.7118225097655
 10
36.9072265625
 20
415.8562622070312
 10
35.73683166503906
 20
417.0949707031249
 10
34.66922760009765
 20
418.4208679199218
 10
33.71125411987304
 20
419.8257446289062
 10
32.86908340454101
 20
421.300537109375
 10
32.14875793457031
 20
422.8361816406249
 10
31.5553855895996
 20
424.4237365722656
 10
31.09354782104492
 20
426.05419921875
 10
30.76785278320312
 20
427.7179565429687
 10
30.58308982849121
 20
429.4010314941406
 10
30.54404830932617
 20
431.0890197753906
  0
LWPOLYLINE
  5
1DD
330
1C0
100
AcDbEntity
  8
0
  6
Continuous
 62
     0
370
     0
100
AcDbPolyline
 90
       21
 70
     0
 43
0.0
 10
52.3946647644043
 20
409.5710144042969
 10
54.10866165161133
 20
409.6370239257812
 10
55.81571197509766
 20
409.8353881835937
 10
57.50294876098632
 20
410.1645202636718
 10
59.15750885009765
 20
410.6221313476562
 10
60.76988983154297
 20
411.2051086425781
 10
62.33112716674805
 20
411.9100646972656
 10
63.8321533203125
 20
412.7330017089843
 10
65.26370239257812
 20
413.6687316894531
 10
66.61651611328125
 20
414.7118530273437
 10
67.88201141357422
 20
415.8562927246093
 10
69.05240631103516
 20
417.0950012207031
 10
70.12001037597656
 20
418.4208984375
 10
71.0779800415039
 20
419.8257751464844
 10
71.92015075683594
 20
421.300567626953
 10
72.64047241210938
 20
422.8362121582031
 10
73.23384857177734
 20
424.4237670898437
 10
73.6956787109375
 20
426.0542297363281
 10
74.02136993408203
 20
427.7179870605468
 10
74.20613861083984
 20
429.4010620117187
 10
74.24517822265625
 20
431.0890808105468
  0
LWPOLYLINE
  5
1DE
330
1C0
100
AcDbEntity
  8
0
  6
Continuous
 62
     0
370
     0
100
AcDbPolyline
 90
       14
 70
     0
 43
0.0
 10
52.39485549926758
 20
410.7122802734375
 10
54.19015884399414
 20
410.7880249023437
 10
55.9724006652832
 20
411.0147094726562
 10
57.72843933105469
 20
411.3904418945312
 10
59.44521331787109
 20
411.9130554199219
 10
61.11038970947266
 20
412.5782470703125
 10
62.71197509765625
 20
413.3806762695312
 10
64.23800659179687
 20
414.3148803710937
 10
65.67728424072265
 20
415.3741760253906
 10
67.01923370361328
 20
416.5508117675781
 10
68.25335693359375
 20
417.8369445800781
 10
69.37020874023438
 20
419.2233276367187
 10
70.36144256591796
 20
420.6994628906249
 10
71.21876525878906
 20
422.2547302246093
  0
LINE
  5
1DF
330
1C0
100
AcDbEntity
  8
0
  6
Continuous
 62
     0
370
     0
100
AcDbLine
 10
52.39466927357735
 20
409.5710241500229
 30
0.0
 11
52.39488587241361
 21
410.7122661215722
 31
0.0
  0
LWPOLYLINE
  5
1E0
330
1C0
100
AcDbEntity
  8
0
  6
Continuous
 62
     0
370
     0
100
AcDbPolyline
 90
       14
 70
     0
 43
0.0
 10
52.39438629150391
 20
410.7122802734375
 10
50.59895706176757
 20
410.7880249023437
 10
48.81658935546875
 20
411.0147399902343
 10
47.06043243408203
 20
411.3905334472656
 10
45.34354400634765
 20
411.9132385253906
 10
43.67826461791992
 20
412.5785217285156
 10
42.07659530639648
 20
413.3810119628906
 10
40.55048751831054
 20
414.3153381347656
 10
39.11115646362304
 20
415.3747863769531
 10
37.76917266845703
 20
416.5515747070312
 10
36.53504180908203
 20
417.8378601074219
 10
35.41819381713867
 20
419.2244262695312
 10
34.42699813842773
 20
420.7007446289062
 10
33.56973648071289
 20
422.2561645507812
  0
LINE
  5
1E1
330
1C0
100
AcDbEntity
  8
0
  6
Continuous
 62
     0
370
    30
100
AcDbLine
 10
35.98723548891405
 20
388.8727883991745
 30
0.0
 11
35.9926924944752
 21
358.4785967469798
 31
0.0
  0
LINE
  5
1E2
330
1C0
100
AcDbEntity
  8
0
  6
Continuous
 62
     0
370
    30
100
AcDbLine
 10
30.54046292023696
 20
430.8025998701555
 30
0.0
 11
30.54405330699584
 21
431.0896432304145
 31
0.0
  0
LINE
  5
1E3
330
1C0
100
AcDbEntity
  8
0
  6
Continuous
 62
     0
370
    30
100
AcDbLine
 10
74.24516987779019
 20
431.089678438262
 30
0.0
 11
74.24876050199348
 21
430.8026383288158
 31
0.0
  0
LWPOLYLINE
  5
1E4
330
1C0
100
AcDbEntity
  8
0
  6
Continuous
 62
     0
370
    30
100
AcDbPolyline
 90
       42
 70
     0
 43
0.0
 10
74.24906921386718
 20
430.7924194335937
 10
74.24978637695312
 20
430.6644287109374
 10
74.25055694580078
 20
430.5371704101562
 10
74.25138092041016
 20
430.4107055664062
 10
74.25227355957031
 20
430.2850646972656
 10
74.25323486328125
 20
430.1604003906249
 10
74.25425720214843
 20
430.0367736816406
 10
74.25534820556641
 20
429.9142761230468
 10
74.25651550292968
 20
429.7929077148437
 10
74.25775146484375
 20
429.6725158691406
 10
74.25906372070312
 20
429.5527954101562
 10
74.26043701171875
 20
429.4335021972655
 10
74.26187896728515
 20
429.3143615722656
 10
74.26338958740235
 20
429.195068359375
 10
74.26493835449218
 20
429.0752258300781
 10
74.26653289794922
 20
428.9544372558593
 10
74.26814270019531
 20
428.8323669433593
 10
74.26976776123047
 20
428.7085571289062
 10
74.27136993408203
 20
428.582763671875
 10
74.27291870117187
 20
428.4548034667968
 10
74.27436065673828
 20
428.3244934082031
 10
74.27566528320312
 20
428.1916809082031
 10
74.27678680419922
 20
428.0562744140625
 10
74.27767181396484
 20
427.9186401367187
 10
74.27827453613281
 20
427.7796325683594
 10
74.27854156494141
 20
427.639892578125
 10
74.27843475341797
 20
427.5002136230468
 10
74.27798461914062
 20
427.363037109375
 10
74.27719879150391
 20
427.2310791015625
 10
74.27618408203125
 20
427.1079406738281
 10
74.27507781982422
 20
426.9982604980468
 10
74.27410125732421
 20
426.9090881347656
 10
74.27342987060547
 20
426.84521484375
 10
74.27288055419921
 20
426.784912109375
 10
74.27157592773437
 20
426.6549682617187
 10
74.26656341552734
 20
426.3841247558593
 10
74.25206756591797
 20
425.9822692871093
 10
74.22367095947265
 20
425.5093078613281
 10
74.17991638183593
 20
425.0061340332031
 10
74.12114715576172
 20
424.4929199218749
 10
74.04893493652344
 20
423.9832153320312
 10
73.96772766113281
 20
423.4979858398437
  0
LWPOLYLINE
  5
1E5
330
1C0
100
AcDbEntity
  8
0
  6
Continuous
 62
     0
370
    30
100
AcDbPolyline
 90
       42
 70
     0
 43
0.0
 10
30.54015159606933
 20
430.7923583984375
 10
30.53943824768066
 20
430.6643981933594
 10
30.53866958618164
 20
430.5371398925781
 10
30.53783988952636
 20
430.4106445312499
 10
30.53694725036621
 20
430.2850341796875
 10
30.53599166870117
 20
430.1603698730469
 10
30.53496742248535
 20
430.0367431640625
 10
30.53387451171875
 20
429.9142150878906
 10
30.5327091217041
 20
429.7928771972656
 10
30.5314712524414
 20
429.6724548339843
 10
30.53016281127929
 20
429.5527648925781
 10
30.52878761291504
 20
429.4334716796875
 10
30.52734565734863
 20
429.3143310546875
 10
30.52584075927734
 20
429.1950073242187
 10
30.52428436279297
 20
429.0751647949218
 10
30.5226936340332
 20
428.9544067382812
 10
30.52108192443848
 20
428.8323364257812
 10
30.51946067810058
 20
428.7085266113281
 10
30.51785659790039
 20
428.5827331542968
 10
30.51630973815917
 20
428.4547729492187
 10
30.51486396789551
 20
428.324462890625
 10
30.51355934143066
 20
428.1916503906249
 10
30.5124397277832
 20
428.0562438964843
 10
30.51155281066894
 20
427.9186096191406
 10
30.51095199584961
 20
427.7796020507812
 10
30.51068878173828
 20
427.6398620605468
 10
30.51078987121582
 20
427.5001831054687
 10
30.51124572753906
 20
427.3629760742188
 10
30.51202774047851
 20
427.2310485839843
 10
30.51304626464844
 20
427.10791015625
 10
30.5141487121582
 20
426.9982299804687
 10
30.51512718200683
 20
426.9090576171874
 10
30.51580429077148
 20
426.8451843261718
 10
30.51634979248047
 20
426.7848815917968
 10
30.51765823364258
 20
426.6549377441406
 10
30.52266693115234
 20
426.3840637207031
 10
30.53716278076171
 20
425.9822387695312
 10
30.56556510925293
 20
425.5092468261718
 10
30.60932350158691
 20
425.0060729980468
 10
30.66808891296386
 20
424.4928588867187
 10
30.74031066894531
 20
423.9831237792968
 10
30.82151794433594
 20
423.4978942871093
  0
LWPOLYLINE
  5
1E6
330
1C0
100
AcDbEntity
  8
0
  6
Continuous
 62
     0
370
    30
100
AcDbPolyline
 90
        3
 70
     0
 43
0.0
 10
30.67550468444824
 20
433.2384338378906
 10
30.58864784240722
 20
432.1758117675781
 10
30.5450382232666
 20
431.1107482910156
  0
LWPOLYLINE
  5
1E7
330
1C0
100
AcDbEntity
  8
0
  6
Continuous
 62
     0
370
    30
100
AcDbPolyline
 90
        3
 70
     0
 43
0.0
 10
74.24463653564453
 20
431.0897216796875
 10
74.20112609863281
 20
432.1651306152343
 10
74.11373138427734
 20
433.2381591796875
  0
LWPOLYLINE
  5
1E8
330
1C0
100
AcDbEntity
  8
0
  6
Continuous
 62
     0
370
    30
100
AcDbPolyline
 90
        4
 70
     0
 43
0.0
 10
41.09478378295898
 20
460.4200744628906
 10
41.10114669799805
 20
463.6712341308593
 10
41.08594131469726
 20
466.93310546875
 10
41.08449172973632
 20
470.1991882324218
  0
LWPOLYLINE
  5
1E9
330
1C0
100
AcDbEntity
  8
0
  6
Continuous
 62
     0
370
    30
100
AcDbPolyline
 90
        4
 70
     0
 43
0.0
 10
63.69441223144531
 20
460.4201049804687
 10
63.69582366943359
 20
463.6704406738281
 10
63.70842361450195
 20
466.9322204589843
 10
63.70673370361328
 20
470.1991882324218
  0
LWPOLYLINE
  5
1EA
330
1C0
100
AcDbEntity
  8
0
  6
Continuous
 62
     0
370
    30
100
AcDbPolyline
 90
        5
 70
     0
 43
0.0
 10
63.70273971557617
 20
459.4671936035156
 10
63.75106430053711
 20
457.6130676269531
 10
63.87631225585938
 20
455.7216796875
 10
64.08464050292969
 20
453.8200378417968
 10
64.37103271484375
 20
451.9414672851562
  0
LWPOLYLINE
  5
1EB
330
1C0
100
AcDbEntity
  8
0
  6
Continuous
 62
     0
370
    30
100
AcDbPolyline
 90
        5
 70
     0
 43
0.0
 10
41.08645629882812
 20
459.4671936035156
 10
41.03813552856445
 20
457.613037109375
 10
40.91288757324218
 20
455.7216491699218
 10
40.70456314086913
 20
453.8200073242187
 10
40.41817474365234
 20
451.9414672851562
  0
LINE
  5
1EC
330
1C0
100
AcDbEntity
  8
0
  6
Continuous
 62
     0
370
    30
100
AcDbLine
 10
68.80203908290036
 20
388.8727906239718
 30
0.0
 11
68.79661611608593
 21
358.4786019365574
 31
0.0
  0
LWPOLYLINE
  5
1ED
330
1C0
100
AcDbEntity
  8
0
  6
Continuous
 62
     0
370
    30
100
AcDbPolyline
 90
       35
 70
     0
 43
0.0
 10
35.98714447021484
 20
388.8722534179687
 10
35.98620986938476
 20
390.2706604003906
 10
35.98331451416015
 20
391.6682128906249
 10
35.98014831542968
 20
393.0637817382812
 10
35.97483825683593
 20
394.4571838378906
 10
35.96279525756836
 20
395.8482666015624
 10
35.93843841552734
 20
397.2362670898437
 10
35.89673614501953
 20
398.6190490722656
 10
35.83466720581054
 20
399.9940795898437
 10
35.75112915039062
 20
401.3568725585937
 10
35.64728164672851
 20
402.7029724121093
 10
35.52625274658203
 20
404.02490234375
 10
35.39160919189453
 20
405.3125915527344
 10
35.24596405029297
 20
406.5547180175781
 10
35.09046936035156
 20
407.7409973144531
 10
34.92604446411132
 20
408.8590087890625
 10
34.75255584716796
 20
409.907470703125
 10
34.57025527954101
 20
410.8887634277343
 10
34.38187408447265
 20
411.7959289550781
 10
34.18728637695312
 20
412.6400451660156
 10
33.98960494995117
 20
413.4192504882812
 10
33.78875350952148
 20
414.1447753906249
 10
33.58793640136719
 20
414.8162841796875
 10
33.38551330566406
 20
415.4488830566406
 10
33.18402862548828
 20
416.0437927246094
 10
32.9830207824707
 20
416.6103515625
 10
32.78130340576172
 20
417.1592102050781
 10
32.57622528076172
 20
417.7047729492187
 10
32.36326217651367
 20
418.26708984375
 10
32.13679122924804
 20
418.8718566894531
 10
31.89004325866699
 20
419.5538635253906
 10
31.61761856079101
 20
420.3586425781249
 10
31.33035087585449
 20
421.3059082031249
 10
31.05479431152343
 20
422.3713989257812
 10
30.8217716217041
 20
423.4961547851562
  0
LWPOLYLINE
  5
1EE
330
1C0
100
AcDbEntity
  8
0
  6
Continuous
 62
     0
370
    30
100
AcDbPolyline
 90
       35
 70
     0
 43
0.0
 10
68.80213165283203
 20
388.8722534179687
 10
68.80306243896484
 20
390.2706909179687
 10
68.80595397949218
 20
391.6682434082031
 10
68.80912017822265
 20
393.0638427734375
 10
68.8144302368164
 20
394.4572448730468
 10
68.82646942138672
 20
395.8483581542968
 10
68.850830078125
 20
397.2363586425781
 10
68.89252471923828
 20
398.6191711425781
 10
68.95460510253906
 20
399.9942016601562
 10
69.03813934326172
 20
401.3569946289062
 10
69.14198303222656
 20
402.7030944824218
 10
69.26301574707031
 20
404.0250244140625
 10
69.39765930175781
 20
405.312744140625
 10
69.54330444335937
 20
406.5548706054687
 10
69.69879913330078
 20
407.7411499023437
 10
69.86322784423828
 20
408.8591613769531
 10
70.0367202758789
 20
409.9076232910156
 10
70.21901702880859
 20
410.888916015625
 10
70.40740203857422
 20
411.7960815429687
 10
70.60198974609375
 20
412.6401977539062
 10
70.79967498779296
 20
413.4193725585937
 10
71.00052642822266
 20
414.1449279785156
 10
71.20134735107422
 20
414.81640625
 10
71.40377044677734
 20
415.4490356445312
 10
71.60525512695312
 20
416.0439147949218
 10
71.80625915527343
 20
416.6104431152343
 10
72.00799560546875
 20
417.1594238281249
 10
72.21298980712891
 20
417.7045593261718
 10
72.42601013183594
 20
418.2671508789062
 10
72.65251159667968
 20
418.8720397949218
 10
72.89926147460938
 20
419.5540771484375
 10
73.17169189453125
 20
420.35888671875
 10
73.45900726318359
 20
421.3063659667969
 10
73.73448181152344
 20
422.3716430664062
 10
73.96755981445313
 20
423.4967041015624
  0
LINE
  5
1EF
330
1C0
100
AcDbEntity
  8
0
  6
Continuous
 62
     0
370
    30
100
AcDbLine
 10
79.394684668407
 20
354.2785583496093
 30
0.0
 11
25.39468466840701
 21
354.2785583496093
 31
0.0
  0
LINE
  5
1F0
330
1C0
100
AcDbEntity
  8
0
  6
Continuous
 62
     0
370
     0
100
AcDbLine
 10
79.89468466840701
 20
357.9785583496093
 30
0.0
 11
24.89468466840701
 21
357.9785583496093
 31
0.0
  0
LINE
  5
1F1
330
1C0
100
AcDbEntity
  8
0
  6
Continuous
 62
     0
370
    30
100
AcDbLine
 10
79.89468466840699
 20
357.9785583496093
 30
0.0
 11
79.89468466840699
 21
354.7785583496093
 31
0.0
  0
LINE
  5
1F2
330
1C0
100
AcDbEntity
  8
0
  6
Continuous
 62
     0
370
     0
100
AcDbLine
 10
79.89468466840701
 20
354.7785583496093
 30
0.0
 11
24.89468466840701
 21
354.7785583496093
 31
0.0
  0
LINE
  5
1F3
330
1C0
100
AcDbEntity
  8
0
  6
Continuous
 62
     0
370
    30
100
AcDbLine
 10
79.394684668407
 20
358.4785583496093
 30
0.0
 11
25.39468466840701
 21
358.4785583496093
 31
0.0
  0
ARC
  5
1F4
330
1C0
100
AcDbEntity
  8
0
  6
Continuous
 62
     0
370
    30
100
AcDbCircle
 10
79.394684668407
 20
357.9785583496093
 30
0.0
 40
0.5
100
AcDbArc
 50
0.0
 51
83.10049753592918
  0
ARC
  5
1F5
330
1C0
100
AcDbEntity
  8
0
  6
Continuous
 62
     0
370
    30
100
AcDbCircle
 10
79.394684668407
 20
354.7785583496093
 30
0.0
 40
0.5
100
AcDbArc
 50
276.8995024640704
 51
0.0
  0
ARC
  5
1F6
330
1C0
100
AcDbEntity
  8
0
  6
Continuous
 62
     0
370
    30
100
AcDbCircle
 10
25.3946873554658
 20
354.7785610366683
 30
0.0
 40
0.5000026870660522
100
AcDbArc
 50
180.0003079126133
 51
269.9996920871777
  0
ARC
  5
1F7
330
1C0
100
AcDbEntity
  8
0
  6
Continuous
 62
     0
370
    30
100
AcDbCircle
 10
79.3945177318069
 20
354.7749704983929
 30
0.0
 40
0.4964121768866307
100
AcDbArc
 50
270.0192794099007
 51
276.9683769021953
  0
ARC
  5
1F8
330
1C0
100
AcDbEntity
  8
0
  6
Continuous
 62
     0
370
    30
100
AcDbCircle
 10
25.394687355466
 20
357.9785556625504
 30
0.0
 40
0.5000026870661677
100
AcDbArc
 50
90.00030791284425
 51
179.9996920873833
  0
ARC
  5
1F9
330
1C0
100
AcDbEntity
  8
0
  6
Continuous
 62
     0
370
    30
100
AcDbCircle
 10
79.39451773180879
 20
357.9821462008705
 30
0.0
 40
0.4964121768420259
100
AcDbArc
 50
83.03162309739628
 51
89.98072059031484
  0
LINE
  5
1FA
330
1C0
100
AcDbEntity
  8
0
  6
Continuous
 62
     0
370
    30
100
AcDbLine
 10
24.89468466840702
 20
357.9785583596093
 30
0.0
 11
24.89468466840702
 21
354.7785583496093
 31
0.0
  0
ELLIPSE
  5
1FB
330
1C0
100
AcDbEntity
  8
0
  6
Continuous
 62
     0
370
    30
100
AcDbEllipse
 10
52.39461154667807
 20
431.242390744739
 30
0.0
 11
20.24999999999937
 21
0.0000050199785087
 31
0.0
210
0.0
220
0.0
230
-1.0
 40
0.9848078214794135
 41
0.7117404675198097
 42
2.429869321208179
  0
ELLIPSE
  5
1FC
330
1C0
100
AcDbEntity
  8
0
  6
Continuous
 62
     0
370
    30
100
AcDbEllipse
 10
52.39461144550009
 20
431.9672592674638
 30
0.0
 11
21.74999999999933
 21
0.0000053918287457
 31
0.0
210
0.0
220
0.0
230
-1.0
 40
0.9848078214794135
 41
0.0000002517244237
 42
0.0000794885644489
  0
LINE
  5
1FD
330
1C0
100
AcDbEntity
  8
0
  6
Continuous
 62
     0
370
     0
100
AcDbLine
 10
55.98391021454617
 20
465.4172204680741
 30
0.0
 11
52.39690423235533
 21
465.4175003731075
 31
0.0
  0
LINE
  5
1FE
330
1C0
100
AcDbEntity
  8
0
  6
Continuous
 62
     0
370
     0
100
AcDbLine
 10
52.3969042323553
 20
465.4175003731075
 30
0.0
 11
48.80999727178149
 21
465.4177802704139
 31
0.0
  0
LINE
  5
1FF
330
1C0
100
AcDbEntity
  8
0
  6
Continuous
 62
     0
370
     0
100
AcDbLine
 10
56.89686280651949
 20
464.2519642325809
 30
0.0
 11
52.39680070665963
 21
464.2523153861721
 31
0.0
  0
LINE
  5
200
330
1C0
100
AcDbEntity
  8
0
  6
Continuous
 62
     0
370
     0
100
AcDbLine
 10
52.39680070665962
 20
464.2523153861721
 30
0.0
 11
47.89686283392072
 21
464.2526665300695
 31
0.0
  0
LWPOLYLINE
  5
201
330
1C0
100
AcDbEntity
  8
0
  6
Continuous
 62
     0
370
    30
100
AcDbPolyline
 90
       38
 70
     0
 43
0.0
 10
74.14461517333984
 20
431.965576171875
 10
74.07224273681641
 20
430.3868103027343
 10
73.8555908203125
 20
428.8169860839843
 10
73.49514007568359
 20
427.2649230957031
 10
72.99208068847656
 20
425.7398071289062
 10
72.34778594970703
 20
424.2507934570312
 10
71.5641098022461
 20
422.8072204589843
 10
70.64397430419922
 20
421.4188842773437
 10
69.59048461914062
 20
420.0955810546875
 10
68.40822601318359
 20
418.8473205566406
 10
67.10324096679688
 20
417.6843872070312
 10
65.68170166015625
 20
416.6170349121093
 10
64.15177154541016
 20
415.6553344726562
 10
62.52347564697266
 20
414.8090515136718
 10
60.80799102783203
 20
414.0874938964843
 10
59.0183334350586
 20
413.4991760253906
 10
57.16917037963867
 20
413.0510864257812
 10
55.27649688720703
 20
412.7489929199218
 10
53.35707092285156
 20
412.5970458984374
 10
51.42874908447265
 20
412.5971679687499
 10
49.5093765258789
 20
412.7494812011718
 10
47.61665725708008
 20
413.0517578124999
 10
45.76763916015624
 20
413.5002136230468
 10
43.97808456420898
 20
414.0888366699218
 10
42.26292419433593
 20
414.8106994628906
 10
40.63459396362304
 20
415.6571655273437
 10
39.1048355102539
 20
416.6190795898437
 10
37.68342971801757
 20
417.6867065429687
 10
36.37831497192383
 20
418.849853515625
 10
35.19655609130859
 20
420.0982666015624
 10
34.14341735839844
 20
421.4217529296875
 10
33.22349548339843
 20
422.8102416992187
 10
32.44008255004882
 20
424.2539062499999
 10
31.79602813720703
 20
425.7430114746093
 10
31.29318618774414
 20
427.2682495117187
 10
30.93307304382324
 20
428.8202819824219
 10
30.71670532226562
 20
430.3901977539062
 10
30.64461135864258
 20
431.9689636230468
  0
LWPOLYLINE
  5
202
330
1C0
100
AcDbEntity
  8
0
  6
Continuous
 62
     0
370
    30
100
AcDbPolyline
 90
       13
 70
     0
 43
0.0
 10
52.3929557800293
 20
414.0105590820312
 10
51.80889129638671
 20
414.0391540527343
 10
51.26618194580078
 20
414.1213378906249
 10
50.80162811279297
 20
414.2472534179687
 10
50.4457893371582
 20
414.4029541015624
 10
50.22112655639649
 20
414.5733337402344
 10
50.14319229125977
 20
414.7430114746093
 10
50.217529296875
 20
414.8992919921875
 10
50.44105529785156
 20
415.0322875976562
 10
50.79777526855469
 20
415.1370544433594
 10
51.26466751098632
 20
415.2110290527343
 10
51.80865478515625
 20
415.2546997070312
 10
52.39298248291015
 20
415.2690734863281
  0
LWPOLYLINE
  5
203
330
1C0
100
AcDbEntity
  8
0
  6
Continuous
 62
     0
370
    30
100
AcDbPolyline
 90
       13
 70
     0
 43
0.0
 10
52.39298248291015
 20
415.2690734863281
 10
52.97723770141601
 20
415.2546081542968
 10
53.52154159545898
 20
415.2108764648437
 10
53.98808670043945
 20
415.1367492675781
 10
54.34491348266601
 20
415.0320434570312
 10
54.56836700439453
 20
414.8989562988281
 10
54.64285659790039
 20
414.74267578125
 10
54.56466674804687
 20
414.5729370117187
 10
54.34027099609375
 20
414.4026794433593
 10
53.98419189453125
 20
414.2470397949218
 10
53.51981735229492
 20
414.1211242675781
 10
52.97700119018554
 20
414.0390625
 10
52.3929557800293
 20
414.0105590820312
  0
LWPOLYLINE
  5
204
330
1C0
100
AcDbEntity
  8
0
  6
Continuous
 62
     0
370
     0
100
AcDbPolyline
 90
       25
 70
     0
 43
0.0
 10
56.52200698852539
 20
454.920928955078
 10
56.4522819519043
 20
454.4150390625
 10
56.37679672241211
 20
453.9093627929687
 10
56.2955322265625
 20
453.4040222167968
 10
56.20841979980468
 20
452.8992004394531
 10
56.11538314819336
 20
452.3950805664062
 10
56.01628875732422
 20
451.891845703125
 10
55.91098403930664
 20
451.3897094726562
 10
55.79925155639648
 20
450.8889770507813
 10
55.68083190917969
 20
450.389892578125
 10
55.55538177490234
 20
449.8928833007812
 10
55.4224853515625
 20
449.3983154296874
 10
55.2816162109375
 20
448.9068298339843
 10
55.13211059570313
 20
448.4190368652344
 10
54.97314071655273
 20
447.9358520507812
 10
54.80363464355469
 20
447.4584350585937
 10
54.62223434448242
 20
446.9883422851562
 10
54.42715072631836
 20
446.5278320312499
 10
54.21603012084961
 20
446.0800476074219
 10
53.98573684692383
 20
445.6497802734374
 10
53.73208999633789
 20
445.24462890625
 10
53.44971084594726
 20
444.8770751953125
 10
53.13264083862304
 20
444.5682067871094
 10
52.77799987792969
 20
444.3523864746094
 10
52.3952407836914
 20
444.2728271484375
  0
LWPOLYLINE
  5
205
330
1C0
100
AcDbEntity
  8
0
  6
Continuous
 62
     0
370
     0
100
AcDbPolyline
 90
        6
 70
     0
 43
0.0
 10
56.89625930786132
 20
456.8236999511718
 10
56.87299346923828
 20
456.6633911132812
 10
56.80876159667969
 20
456.3853759765625
 10
56.71677017211914
 20
455.994140625
 10
56.61460876464843
 20
455.5006713867187
 10
56.52200698852539
 20
454.920928955078
  0
LWPOLYLINE
  5
206
330
1C0
100
AcDbEntity
  8
0
  6
Continuous
 62
     0
370
     0
100
AcDbPolyline
 90
        6
 70
     0
 43
0.0
 10
48.27021026611328
 20
454.9215698242187
 10
48.1777114868164
 20
455.5012817382812
 10
48.07564163208008
 20
455.9947814941406
 10
47.98372268676757
 20
456.3860168457031
 10
47.9195442199707
 20
456.6640624999999
 10
47.89630508422852
 20
456.8243713378906
  0
LWPOLYLINE
  5
207
330
1C0
100
AcDbEntity
  8
0
  6
Continuous
 62
     0
370
     0
100
AcDbPolyline
 90
       25
 70
     0
 43
0.0
 10
52.3952407836914
 20
444.2728271484375
 10
52.01249694824219
 20
444.3524475097656
 10
51.65789031982422
 20
444.5683288574218
 10
51.34087371826172
 20
444.8772277832031
 10
51.05855178833007
 20
445.2448425292969
 10
50.80496978759765
 20
445.6500244140625
 10
50.57474517822265
 20
446.080322265625
 10
50.36370086669922
 20
446.5281372070312
 10
50.1686897277832
 20
446.9887084960937
 10
49.98736190795899
 20
447.4588012695313
 10
49.81793594360351
 20
447.9362487792968
 10
49.6590461730957
 20
448.4194641113281
 10
49.5096206665039
 20
448.9072570800781
 10
49.36883163452148
 20
449.3988037109375
 10
49.23601531982422
 20
449.8933715820312
 10
49.11064529418945
 20
450.3904113769531
 10
48.99230575561523
 20
450.8894958496093
 10
48.88065719604492
 20
451.3902587890624
 10
48.77543258666992
 20
451.8924255371094
 10
48.67642211914063
 20
452.3956604003906
 10
48.58346557617188
 20
452.8998107910156
 10
48.49644088745117
 20
453.4046325683593
 10
48.41525650024414
 20
453.9099731445312
 10
48.33985519409179
 20
454.4156799316406
 10
48.27021026611328
 20
454.9215698242187
  0
ELLIPSE
  5
208
330
1C0
100
AcDbEntity
  8
0
  6
Continuous
 62
     0
370
     0
100
AcDbEllipse
 10
52.39461047159794
 20
435.8958653329472
 30
0.0
 11
20.22127512455387
 21
0.0000050128575858
 31
0.0
210
0.0
220
0.0
230
-1.0
 40
0.9848078214794135
 41
5.404374237629356
 42
10.3035894247986
  0
LWPOLYLINE
  5
209
330
1C0
100
AcDbEntity
  8
0
  6
Continuous
 62
     0
370
     0
100
AcDbPolyline
 90
        5
 70
     0
 43
0.0
 10
58.30566024780273
 20
454.9408264160156
 10
58.34627914428711
 20
454.8713684082031
 10
58.31376266479492
 20
454.7135925292969
 10
58.24931335449218
 20
454.469268798828
 10
58.21388626098633
 20
454.1430053710937
  0
ELLIPSE
  5
20A
330
1C0
100
AcDbEntity
  8
0
  6
Continuous
 62
     0
370
     0
100
AcDbEllipse
 10
52.39461042472467
 20
436.084946510423
 30
0.0
 11
19.237890029455
 21
0.0000047690762514
 31
0.0
210
0.0
220
0.0
230
-1.0
 40
0.9848078214794133
 41
5.019693536737383
 42
10.68842870834047
  0
LWPOLYLINE
  5
20B
330
1C0
100
AcDbEntity
  8
0
  6
Continuous
 62
     0
370
     0
100
AcDbPolyline
 90
        5
 70
     0
 43
0.0
 10
46.57823944091797
 20
454.1439208984375
 10
46.54286956787109
 20
454.4701843261718
 10
46.47846984863281
 20
454.7145385742187
 10
46.44598388671875
 20
454.8722839355469
 10
46.48662185668945
 20
454.9417419433593
  0
LWPOLYLINE
  5
20C
330
1C0
100
AcDbEntity
  8
0
  6
Continuous
 62
     0
370
     0
100
AcDbPolyline
 90
       25
 70
     0
 43
0.0
 10
58.21388626098633
 20
454.1430053710937
 10
58.11558151245117
 20
453.649169921875
 10
58.00916290283203
 20
453.155517578125
 10
57.89458847045898
 20
452.6622009277343
 10
57.77177429199219
 20
452.1694030761718
 10
57.64059829711914
 20
451.6772766113281
 10
57.50088882446289
 20
451.1860046386718
 10
57.3524169921875
 20
450.6958312988281
 10
57.19488525390625
 20
450.2070007324219
 10
57.02791595458984
 20
449.7198181152343
 10
56.85103988647461
 20
449.234619140625
 10
56.66366577148437
 20
448.7518615722656
 10
56.46504592895507
 20
448.2720336914062
 10
56.25424957275391
 20
447.7958679199218
 10
56.03010177612304
 20
447.3241882324218
 10
55.79110717773438
 20
446.8581237792968
 10
55.53533172607422
 20
446.3992614746094
 10
55.2602653503418
 20
445.9496765136718
 10
54.96258544921875
 20
445.5125732421874
 10
54.63787078857421
 20
445.0925598144531
 10
54.28022003173828
 20
444.6970520019531
 10
53.8820571899414
 20
444.3382568359375
 10
53.43497848510742
 20
444.0367431640624
 10
52.93485260009766
 20
443.8260498046875
 10
52.39519882202149
 20
443.7484130859375
  0
LWPOLYLINE
  5
20D
330
1C0
100
AcDbEntity
  8
0
  6
Continuous
 62
     0
370
     0
100
AcDbPolyline
 90
       25
 70
     0
 43
0.0
 10
52.39519882202149
 20
443.7484130859375
 10
51.85556030273438
 20
443.8261413574219
 10
51.35546875
 20
444.0369262695312
 10
50.90843963623047
 20
444.3384704589844
 10
50.51033401489258
 20
444.6973571777343
 10
50.15275192260742
 20
445.0928955078125
 10
49.82810592651367
 20
445.5129699707031
 10
49.53049850463867
 20
445.9501342773437
 10
49.25550460815429
 20
446.3997497558593
 10
48.99980545043945
 20
446.8586730957031
 10
48.76088714599609
 20
447.3247375488281
 10
48.53681945800781
 20
447.7964782714844
 10
48.32610321044922
 20
448.2726745605468
 10
48.1275634765625
 20
448.7525329589844
 10
47.94026565551757
 20
449.2353210449218
 10
47.76346969604492
 20
449.7205505371093
 10
47.59658432006836
 20
450.207763671875
 10
47.43913269042969
 20
450.6966247558593
 10
47.29074096679688
 20
451.1868286132812
 10
47.15111541748046
 20
451.6781005859375
 10
47.02002334594726
 20
452.1702575683593
 10
46.89729309082031
 20
452.6630554199218
 10
46.78279876708984
 20
453.1564025878906
 10
46.67646408081054
 20
453.6500549316406
 10
46.57823944091797
 20
454.1439208984375
  0
ELLIPSE
  5
20E
330
1C0
100
AcDbEntity
  8
0
  6
Continuous
 62
     0
370
     0
100
AcDbEllipse
 10
58.35572979048413
 20
454.9207916317512
 30
0.0
 11
-1.964548445769009
 21
0.374899192085767
 31
0.0
210
0.0
220
0.0
230
-1.0
 40
0.3952912600011151
 41
4.709156641118426
 42
5.833587928109415
  0
LINE
  5
20F
330
1C0
100
AcDbEntity
  8
0
  6
Continuous
 62
     0
370
     0
100
AcDbLine
 10
52.3952140397749
 20
444.2728225008358
 30
0.0
 11
52.39517311837108
 21
443.7484113879021
 31
0.0
  0
ELLIPSE
  5
210
330
1C0
100
AcDbEntity
  8
0
  6
Continuous
 62
     0
370
     0
100
AcDbEllipse
 10
46.43646795681198
 20
454.9217217282246
 30
0.0
 11
-1.964611302141905
 21
-0.3745696617404002
 31
0.0
210
0.0
220
0.0
230
-1.0
 40
0.3952960111931316
 41
3.591160511152619
 42
4.715591798143644
  0
ARC
  5
211
330
1C0
100
AcDbEntity
  8
0
  6
Continuous
 62
     0
370
    30
100
AcDbCircle
 10
45.91803664034793
 20
456.8365746905321
 30
0.0
 40
1.978310110871604
100
AcDbArc
 50
286.7029519500361
 51
359.646727960734
  0
ARC
  5
212
330
1C0
100
AcDbEntity
  8
0
  6
Continuous
 62
     0
370
    30
100
AcDbCircle
 10
58.87453128574526
 20
456.8355669897044
 30
0.0
 40
1.978309672060061
100
AcDbArc
 50
180.3438126334809
 51
253.2884060751586
  0
LWPOLYLINE
  5
213
330
1C0
100
AcDbEntity
  8
0
  6
Continuous
 62
     0
370
    30
100
AcDbPolyline
 90
       14
 70
     0
 43
0.0
 10
74.14461517333984
 20
431.9672546386718
 10
74.09364318847656
 20
433.599609375
 10
73.94058990478516
 20
435.2272949218749
 10
73.68537902832031
 20
436.8443908691406
 10
73.32754516601562
 20
438.4464416503906
 10
72.86662292480468
 20
440.0279235839843
 10
72.30211639404297
 20
441.5828857421875
 10
71.63269805908203
 20
443.1067199707031
 10
70.85738372802734
 20
444.5927734375
 10
69.97400665283203
 20
446.0356140136719
 10
68.98021697998046
 20
447.4284362792968
 10
67.87281799316406
 20
448.7638854980469
 10
66.64697265625
 20
450.0340576171875
 10
65.29801177978516
 20
451.2286071777343
  0
LWPOLYLINE
  5
214
330
1C0
100
AcDbEntity
  8
0
  6
Continuous
 62
     0
370
    30
100
AcDbPolyline
 90
       14
 70
     0
 43
0.0
 10
30.64461135864258
 20
431.9678039550781
 10
30.69561386108398
 20
433.60009765625
 10
30.84868812561035
 20
435.2277221679687
 10
31.10391998291015
 20
436.8448181152343
 10
31.4617691040039
 20
438.4468078613281
 10
31.92270088195801
 20
440.0282592773437
 10
32.48721694946289
 20
441.5831604003906
 10
33.15663528442382
 20
443.1069335937499
 10
33.93194198608398
 20
444.5929565429687
 10
34.8153076171875
 20
446.0357360839843
 10
35.80908584594726
 20
447.4285278320312
 10
36.91645812988281
 20
448.7639465332031
 10
38.14228439331055
 20
450.0340881347656
 10
39.49120712280273
 20
451.2286071777343
  0
ARC
  5
215
330
1C0
100
AcDbEntity
  8
0
  6
Continuous
 62
     0
370
    30
100
AcDbCircle
 10
52.33688433234698
 20
435.4740893628087
 30
0.0
 40
20.32767419855664
100
AcDbArc
 50
106.7259606004369
 51
129.1894047960426
  0
ARC
  5
216
330
1C0
100
AcDbEntity
  8
0
  6
Continuous
 62
     0
370
    30
100
AcDbCircle
 10
52.45236251811633
 20
435.4741296369755
 30
0.0
 40
20.32762695253372
100
AcDbArc
 50
50.81058572688785
 51
73.26506532653549
  0
LINE
  5
217
330
1C0
100
AcDbEntity
  8
0
  6
Continuous
 62
     0
370
    30
100
AcDbLine
 10
56.89628319803429
 20
456.8242339101923
 30
0.0
 11
56.89686280651954
 21
464.2519642325808
 31
0.0
  0
LINE
  5
218
330
1C0
100
AcDbEntity
  8
0
  6
Continuous
 62
     0
370
    30
100
AcDbLine
 10
47.89628322355172
 20
456.8249120665019
 30
0.0
 11
47.89686283392077
 21
464.2526665300696
 31
0.0
  0
ARC
  5
219
330
1C0
100
AcDbEntity
  8
0
  6
Continuous
 62
     0
370
    30
100
AcDbCircle
 10
55.69683984002875
 20
464.2520398527971
 30
0.0
 40
1.200023042678462
100
AcDbArc
 50
359.9963894531923
 51
76.15427137583068
  0
ARC
  5
21A
330
1C0
100
AcDbEntity
  8
0
  6
Continuous
 62
     0
370
    30
100
AcDbCircle
 10
49.09688577454978
 20
464.2525548653207
 30
0.0
 40
1.200023043758235
100
AcDbArc
 50
103.8367858008236
 51
179.9946685194477
  0
ARC
  5
21B
330
1C0
100
AcDbEntity
  8
0
  6
Continuous
 62
     0
370
    30
100
AcDbCircle
 10
52.39596590978587
 20
450.8514622626883
 30
0.0
 40
15.00122632903649
100
AcDbArc
 50
89.9974772257673
 51
103.8301842838068
  0
ARC
  5
21C
330
1C0
100
AcDbEntity
  8
0
  6
Continuous
 62
     0
370
    30
100
AcDbCircle
 10
52.39566831179452
 20
450.8514622870881
 30
0.0
 40
15.00122632785923
100
AcDbArc
 50
76.16087378628911
 51
89.99358084538366
  0
LINE
  5
21D
330
1C0
100
AcDbEntity
  8
0
  6
Continuous
 62
     0
370
     0
100
AcDbLine
 10
80.97940658931307
 20
365.9365844204674
 30
0.0
 11
80.29536629243521
 21
367.8159696901364
 31
0.0
  0
LINE
  5
21E
330
1C0
100
AcDbEntity
  8
0
  6
Continuous
 62
     0
370
     0
100
AcDbLine
 10
80.29536629243521
 20
367.8159696901364
 30
0.0
 11
79.6113260160104
 21
369.695354903611
 31
0.0
  0
LINE
  5
21F
330
1C0
100
AcDbEntity
  8
0
  6
Continuous
 62
     0
370
    30
100
AcDbLine
 10
94.39075561393892
 20
372.9462718133291
 30
0.0
 11
94.35655359196328
 21
373.0402410964068
 31
0.0
  0
LINE
  5
220
330
1C0
100
AcDbEntity
  8
0
  6
Continuous
 62
     0
370
    30
100
AcDbLine
 10
94.4249576369372
 20
372.8523025274416
 30
0.0
 11
94.39075561393892
 21
372.9462718133291
 31
0.0
  0
LINE
  5
221
330
1C0
100
AcDbEntity
  8
0
  6
Continuous
 62
     0
370
     0
100
AcDbLine
 10
93.2893799440125
 20
370.417048306188
 30
0.0
 11
92.60533964713465
 21
372.2964335758569
 31
0.0
  0
LINE
  5
222
330
1C0
100
AcDbEntity
  8
0
  6
Continuous
 62
     0
370
     0
100
AcDbLine
 10
92.60533964713465
 20
372.2964335758569
 30
0.0
 11
91.92129937070983
 21
374.1758187893316
 31
0.0
  0
ARC
  5
223
330
1C0
100
AcDbEntity
  8
0
  6
Continuous
 62
     0
370
    30
100
AcDbCircle
 10
92.57102542992187
 20
372.3901622096751
 30
0.0
 40
1.900187721362734
100
AcDbArc
 50
20.00566071475584
 51
109.9943392557808
  0
ARC
  5
224
330
1C0
100
AcDbEntity
  8
0
  6
Continuous
 62
     0
370
    30
100
AcDbCircle
 10
92.63930105666274
 20
372.2025764669034
 30
0.0
 40
1.900187721363469
100
AcDbArc
 50
290.0056607442405
 51
19.9943392852793
  0
LINE
  5
225
330
1C0
100
AcDbEntity
  8
0
  6
Continuous
 62
     0
370
    30
100
AcDbLine
 10
93.28937995340941
 20
370.4170483096083
 30
0.0
 11
80.97940658931308
 21
365.9365844204674
 31
0.0
  0
LINE
  5
226
330
1C0
100
AcDbEntity
  8
0
  6
Continuous
 62
     0
370
    30
100
AcDbLine
 10
91.92129938010674
 20
374.1758187927519
 30
0.0
 11
79.61132601601041
 21
369.695354903611
 31
0.0
  0
ARC
  5
227
330
1C0
100
AcDbEntity
  8
0
  6
Continuous
 62
     0
370
    30
100
AcDbCircle
 10
83.71557112304692
 20
358.4190413037976
 30
0.0
 40
8.000003179165133
100
AcDbArc
 50
110.0000175281014
 51
179.5737367952567
  0
ARC
  5
228
330
1C0
100
AcDbEntity
  8
0
  6
Continuous
 62
     0
370
    30
100
AcDbCircle
 10
83.71557165853724
 20
358.4190408621389
 30
0.0
 40
12.00000377733706
100
AcDbArc
 50
110.0000133667464
 51
179.7158238542319
  0
LINE
  5
229
330
1C0
100
AcDbEntity
  8
0
  6
Continuous
 62
     0
370
     0
100
AcDbLine
 10
52.53792137130234
 20
495.199184385488
 30
0.0
 11
41.53792185212761
 21
495.199184385488
 31
0.0
  0
LINE
  5
22A
330
1C0
100
AcDbEntity
  8
0
  6
Continuous
 62
     0
370
     0
100
AcDbLine
 10
63.5379218521276
 20
495.199184385488
 30
0.0
 11
52.53792137130234
 21
495.199184385488
 31
0.0
  0
LINE
  5
22B
330
1C0
100
AcDbEntity
  8
0
  6
Continuous
 62
     0
370
     0
100
AcDbLine
 10
-49.8884852594779
 20
537.6255914970934
 30
0.0
 11
-42.11031042601322
 21
529.8474166636288
 31
0.0
  0
LINE
  5
22C
330
1C0
100
AcDbEntity
  8
0
  6
Continuous
 62
     0
370
     0
100
AcDbLine
 10
-57.66665961211729
 20
545.4037658497327
 30
0.0
 11
-49.8884852594779
 21
537.6255914970934
 31
0.0
  0
LINE
  5
22D
330
1C0
100
AcDbEntity
  8
0
  6
Continuous
 62
     0
370
    30
100
AcDbLine
 10
-58.37376663371639
 20
529.1403101228548
 30
0.0
 11
-50.59559180025171
 21
521.3621352893901
 31
0.0
  0
LINE
  5
22E
330
1C0
100
AcDbEntity
  8
0
  6
Continuous
 62
     0
370
    30
100
AcDbLine
 10
-66.1519409863558
 20
536.9184844754941
 30
0.0
 11
-58.37376663371639
 21
529.1403101228548
 31
0.0
  0
LINE
  5
22F
330
1C0
100
AcDbEntity
  8
0
  6
Continuous
 62
     0
370
    30
100
AcDbLine
 10
-50.59559180732282
 20
521.362135282319
 30
0.0
 11
-42.11031042601325
 21
529.8474166636286
 31
0.0
  0
LINE
  5
230
330
1C0
100
AcDbEntity
  8
0
  6
Continuous
 62
     0
370
    30
100
AcDbLine
 10
-66.15194099342687
 20
536.9184844684231
 30
0.0
 11
-57.66665961211729
 21
545.4037658497327
 31
0.0
  0
ARC
  5
231
330
1C0
100
AcDbEntity
  8
0
  6
Continuous
 62
     0
370
    30
100
AcDbCircle
 10
-7.462079393656239
 20
495.1991813778997
 30
0.0
 40
49.00000124578393
100
AcDbArc
 50
0.0000035171126575
 51
134.9999964832223
  0
ARC
  5
232
330
1C0
100
AcDbEntity
  8
0
  6
Continuous
 62
     0
370
    30
100
AcDbCircle
 10
-7.46207997449926
 20
495.1991799756204
 30
0.0
 40
71.000001826627
100
AcDbArc
 50
0.000003559022165
 51
134.9999964413128
  0
LINE
  5
233
330
1C0
100
AcDbEntity
  8
0
  6
Continuous
 62
     0
370
    30
100
AcDbLine
 10
41.53792185212767
 20
495.199184395488
 30
0.0
 11
41.53792185212767
 21
470.1991843854881
 31
0.0
  0
LINE
  5
234
330
1C0
100
AcDbEntity
  8
0
  6
Continuous
 62
     0
370
    30
100
AcDbLine
 10
63.53792185212765
 20
495.199184395488
 30
0.0
 11
63.53792185212765
 21
470.1991843854881
 31
0.0
  0
LINE
  5
235
330
1C0
100
AcDbEntity
  8
0
  6
Continuous
 62
     0
370
    30
100
AcDbLine
 10
-84.95579605249631
 20
512.139519595221
 30
0.0
 11
-87.94335095956261
 21
515.1270745022872
 31
0.0
  0
LINE
  5
236
330
1C0
100
AcDbEntity
  8
0
  6
Continuous
 62
     0
370
    30
100
AcDbLine
 10
-72.38700177345852
 20
499.5707253161834
 30
0.0
 11
-84.95579605249631
 21
512.139519595221
 31
0.0
  0
LINE
  5
237
330
1C0
100
AcDbEntity
  8
0
  6
Continuous
 62
     0
370
    30
100
AcDbLine
 10
-56.40638851157146
 20
515.5513385780704
 30
0.0
 11
-72.38700177345847
 21
499.5707253161832
 31
0.0
  0
LINE
  5
238
330
1C0
100
AcDbEntity
  8
0
  6
Continuous
 62
     0
370
    30
100
AcDbLine
 10
-71.96273769767555
 20
531.1076877641744
 30
0.0
 11
-87.94335095956254
 21
515.1270745022872
 31
0.0
  0
LINE
  5
239
330
1C0
100
AcDbEntity
  8
0
  6
Continuous
 62
     0
370
    30
100
AcDbLine
 10
-52.8708546127098
 20
519.0868724769321
 30
0.0
 11
-65.43964889174763
 21
531.6556667559699
 31
0.0
  0
LINE
  5
23A
330
1C0
100
AcDbEntity
  8
0
  6
Continuous
 62
     0
370
    30
100
AcDbLine
 10
-65.43964889174763
 20
531.6556667559699
 30
0.0
 11
-68.42720379881389
 21
534.643221663036
 31
0.0
  0
LINE
  5
23B
330
1C0
100
AcDbEntity
  8
0
  6
Continuous
 62
     0
370
    30
100
AcDbLine
 10
-68.97518279768043
 20
528.1201328500372
 30
0.0
 11
-71.96273770474668
 21
531.1076877571033
 31
0.0
  0
LINE
  5
23C
330
1C0
100
AcDbEntity
  8
0
  6
Continuous
 62
     0
370
    30
100
AcDbLine
 10
-56.4063885186426
 20
515.5513385709993
 30
0.0
 11
-68.97518279768043
 21
528.1201328500372
 31
0.0
  0
LINE
  5
23D
330
1C0
100
AcDbEntity
  8
0
  6
Continuous
 62
     0
370
    30
100
AcDbLine
 10
-64.5381180910413
 20
534.9967734648759
 30
0.0
 11
-62.22955293558097
 21
532.6882083094156
 31
0.0
  0
LINE
  5
23E
330
1C0
100
AcDbEntity
  8
0
  6
Continuous
 62
     0
370
    30
100
AcDbLine
 10
-62.22955293558097
 20
532.6882083094156
 30
0.0
 11
-52.51730281086995
 21
522.9759581847047
 31
0.0
  0
LINE
  5
23F
330
1C0
100
AcDbEntity
  8
0
  6
Continuous
 62
     0
370
    30
100
AcDbLine
 10
-64.53811809811236
 20
534.9967734578049
 30
0.0
 11
-64.38417403338945
 21
535.1507175225278
 31
0.0
  0
LINE
  5
240
330
1C0
100
AcDbEntity
  8
0
  6
Continuous
 62
     0
370
    30
100
AcDbLine
 10
-52.51730281794102
 20
522.9759581776336
 30
0.0
 11
-52.3633587532181
 21
523.1299022423566
 31
0.0
  0
LINE
  5
241
330
1C0
100
AcDbEntity
  8
0
  6
Continuous
 62
     0
370
    30
100
AcDbLine
 10
-63.47745633757921
 20
529.6934741876591
 30
0.0
 11
-61.35613757570182
 21
531.8147929495365
 31
0.0
  0
LINE
  5
242
330
1C0
100
AcDbEntity
  8
0
  6
Continuous
 62
     0
370
    30
100
AcDbLine
 10
-57.82060208808681
 20
524.0366199381668
 30
0.0
 11
-55.69928332620944
 21
526.1579387000442
 31
0.0
  0
LINE
  5
243
330
1C0
100
AcDbEntity
  8
0
  6
Continuous
 62
     0
370
    30
100
AcDbLine
 10
-52.87085460563876
 20
519.0868724840031
 30
0.0
 11
-56.40638851864259
 21
515.5513385709992
 31
0.0
  0
LINE
  5
244
330
1C0
100
AcDbEntity
  8
0
  6
Continuous
 62
     0
370
    30
100
AcDbLine
 10
-68.42720379174284
 20
534.6432216701072
 30
0.0
 11
-71.96273770474667
 21
531.1076877571033
 31
0.0
  0
ENDBLK
  5
246
330
1C0
100
AcDbEntity
  8
0
100
AcDbBlockEnd
  0
ENDSEC
  0
SECTION
  2
ENTITIES
  0
INSERT
  5
D0
330
1F
100
AcDbEntity
  8
0
  6
Continuous
 62
   250
370
     0
100
AcDbBlockReference
  2
a
 10
209.1382141113281
 20
78.72364807128906
 30
0.0
  0
INSERT
  5
152
330
1F
100
AcDbEntity
  8
0
  6
Continuous
 62
   250
370
     0
100
AcDbBlockReference
  2
b
 10
209.1382141113281
 20
62.5649528503418
 30
0.0
  0
INSERT
  5
1BF
330
1F
100
AcDbEntity
  8
0
  6
Continuous
 62
   250
370
     0
100
AcDbBlockReference
  2
c
 10
242.1771087646484
 20
78.72364807128906
 30
0.0
  0
INSERT
  5
247
330
1F
100
AcDbEntity
  8
0
  6
Continuous
 62
   250
370
     0
100
AcDbBlockReference
  2
d
 10
129.1452178955078
 20
0.0
 30
0.0
  0
ENDSEC
  0
SECTION
  2
OBJECTS
  0
DICTIONARY
  5
C
330
0
100
AcDbDictionary
281
     1
  3
ACAD_GROUP
350
D
  3
ACAD_LAYOUT
350
1A
  3
ACAD_MLEADERSTYLE
350
24A
  3
ACAD_MLINESTYLE
350
17
  3
ACAD_PLOTSETTINGS
350
19
  3
ACAD_PLOTSTYLENAME
350
E
  3
ACAD_VISUALSTYLE
350
2A
  3
AcDbVariableDictionary
350
248
  0
DICTIONARY
  5
D
102
{ACAD_REACTORS
330
C
102
}
330
C
100
AcDbDictionary
281
     1
  0
DICTIONARY
  5
1A
102
{ACAD_REACTORS
330
C
102
}
330
C
100
AcDbDictionary
281
     1
  3
Layout1
350
1E
  3
Layout2
350
26
  3
Model
350
22
  0
DICTIONARY
  5
24A
102
{ACAD_REACTORS
330
C
102
}
330
C
100
AcDbDictionary
281
     1
  0
DICTIONARY
  5
17
102
{ACAD_REACTORS
330
C
102
}
330
C
100
AcDbDictionary
281
     1
  3
Standard
350
18
  0
DICTIONARY
  5
19
102
{ACAD_REACTORS
330
C
102
}
330
C
100
AcDbDictionary
281
     1
  0
ACDBDICTIONARYWDFLT
  5
E
102
{ACAD_REACTORS
330
C
102
}
330
C
100
AcDbDictionary
281
     1
  3
Normal
350
F
100
AcDbDictionaryWithDefault
340
F
  0
DICTIONARY
  5
2A
102
{ACAD_REACTORS
330
C
102
}
330
C
100
AcDbDictionary
281
     1
  3
2dWireframe
350
2F
  3
3D Hidden
350
31
  3
3dWireframe
350
30
  3
Basic
350
32
  3
Brighten
350
36
  3
ColorChange
350
3A
  3
Conceptual
350
34
  3
Dim
350
35
  3
Facepattern
350
39
  3
Flat
350
2B
  3
FlatWithEdges
350
2C
  3
Gouraud
350
2D
  3
GouraudWithEdges
350
2E
  3
Linepattern
350
38
  3
Realistic
350
33
  3
Thicken
350
37
  0
DICTIONARY
  5
248
102
{ACAD_REACTORS
330
C
102
}
330
C
100
AcDbDictionary
281
     1
  3
DIMASSOC
350
253
  3
PSOLHEIGHT
350
24C
  3
PSOLWIDTH
350
24B
  0
LAYOUT
  5
1E
102
{ACAD_REACTORS
330
1A
102
}
330
1A
100
AcDbPlotSettings
  1

  2
none_device
  4

  6

 40
0.0
 41
0.0
 42
0.0
 43
0.0
 44
0.0
 45
0.0
 46
0.0
 47
0.0
 48
0.0
 49
0.0
140
0.0
141
0.0
142
1.0
143
1.0
 70
   688
 72
     0
 73
     0
 74
     5
  7

 75
    16
147
1.0
148
0.0
149
0.0
100
AcDbLayout
  1
Layout1
 70
     1
 71
     1
 10
0.0
 20
0.0
 11
420.0
 21
297.0
 12
0.0
 22
0.0
 32
0.0
 14
1.000000000000000E+20
 24
1.000000000000000E+20
 34
1.000000000000000E+20
 15
-1.000000000000000E+20
 25
-1.000000000000000E+20
 35
-1.000000000000000E+20
146
0.0
 13
0.0
 23
0.0
 33
0.0
 16
1.0
 26
0.0
 36
0.0
 17
0.0
 27
1.0
 37
0.0
 76
     0
330
1B
  0
LAYOUT
  5
26
102
{ACAD_REACTORS
330
1A
102
}
330
1A
100
AcDbPlotSettings
  1

  2
none_device
  4

  6

 40
0.0
 41
0.0
 42
0.0
 43
0.0
 44
0.0
 45
0.0
 46
0.0
 47
0.0
 48
0.0
 49
0.0
140
0.0
141
0.0
142
1.0
143
1.0
 70
   688
 72
     0
 73
     0
 74
     5
  7

 75
    16
147
1.0
148
0.0
149
0.0
100
AcDbLayout
  1
Layout2
 70
     1
 71
     2
 10
0.0
 20
0.0
 11
0.0
 21
0.0
 12
0.0
 22
0.0
 32
0.0
 14
0.0
 24
0.0
 34
0.0
 15
0.0
 25
0.0
 35
0.0
146
0.0
 13
0.0
 23
0.0
 33
0.0
 16
1.0
 26
0.0
 36
0.0
 17
0.0
 27
1.0
 37
0.0
 76
     0
330
23
  0
LAYOUT
  5
22
102
{ACAD_REACTORS
330
1A
102
}
330
1A
100
AcDbPlotSettings
  1

  2
none_device
  4

  6

 40
0.0
 41
0.0
 42
0.0
 43
0.0
 44
0.0
 45
0.0
 46
0.0
 47
0.0
 48
0.0
 49
0.0
140
0.0
141
0.0
142
1.0
143
1.0
 70
  1712
 72
     0
 73
     0
 74
     0
  7

 75
     0
147
1.0
148
0.0
149
0.0
100
AcDbLayout
  1
Model
 70
     1
 71
     0
 10
-87.94335174560547
 20
49.89370346069335
 11
635.8158569335937
 21
566.1904907226563
 12
0.0
 22
0.0
 32
0.0
 14
-87.94335174560547
 24
49.89370346069335
 34
0.0
 15
635.8158569335937
 25
566.1904907226563
 35
0.0
146
0.0
 13
0.0
 23
0.0
 33
0.0
 16
1.0
 26
0.0
 36
0.0
 17
0.0
 27
1.0
 37
0.0
 76
     0
330
1F
  0
MLINESTYLE
  5
18
102
{ACAD_REACTORS
330
17
102
}
330
17
100
AcDbMlineStyle
  2
STANDARD
 70
     0
  3

 62
   256
 51
90.0
 52
90.0
 71
     2
 49
0.5
 62
   256
  6
BYLAYER
 49
-0.5
 62
   256
  6
BYLAYER
  0
ACDBPLACEHOLDER
  5
F
102
{ACAD_REACTORS
330
E
102
}
330
E
  0
ACAD_PROXY_OBJECT
  5
2F
102
{ACAD_REACTORS
330
2A
102
}
330
2A
100
AcDbProxyObject
 90
      499
 91
      501
 95
   851991
 70
     0
 93
      436
310
42CC9915DA5C99599C985B595049028333333333333E3BF0000000000000FB0107901411070040501600405405064090741402480A0340
 94
        0
1001
ACAD
1000
AcDbSavedByObjectVersion
1070
     0
  0
ACAD_PROXY_OBJECT
  5
31
102
{ACAD_REACTORS
330
2A
102
}
330
2A
100
AcDbProxyObject
 90
      499
 91
      501
 95
   851991
 70
     0
 93
      500
310
424CD108121A5919195B90640502408333333333333E3BF0000000000000FB01079024090700405020000000000001110200405405064090740C02480A034D
 94
        0
1001
ACAD
1000
AcDbSavedByObjectVersion
1070
     0
  0
ACAD_PROXY_OBJECT
  5
30
102
{ACAD_REACTORS
330
2A
102
}
330
2A
100
AcDbProxyObject
 90
      499
 91
      501
 95
   851991
 70
     0
 93
      436
310
42CCD915DA5C99599C985B595059028333333333333E3BF0000000000000FB0107901411070040501600405405064090741402480A0340
 94
        0
1001
ACAD
1000
AcDbSavedByObjectVersion
1070
     0
  0
ACAD_PROXY_OBJECT
  5
32
102
{ACAD_REACTORS
330
2A
102
}
330
2A
100
AcDbProxyObject
 90
      499
 91
      501
 95
   851991
 70
     0
 93
      388
310
4150985CDA58D07406404333333333333E3BF0000000000000FB0107A41107004050150841D405064090741402480A0352
 94
        0
1001
ACAD
1000
AcDbSavedByObjectVersion
1070
     0
  0
ACAD_PROXY_OBJECT
  5
36
102
{ACAD_REACTORS
330
2A
102
}
330
2A
100
AcDbProxyObject
 90
      499
 91
      501
 95
   851991
 70
     0
 93
      428
310
42109C9A59DA1D195B90C409028333333333333E3BF0000000000000FB010790141107004050150841D405064090741402480A029956
 94
        0
1001
ACAD
1000
AcDbSavedByObjectVersion
1070
     0
  0
ACAD_PROXY_OBJECT
  5
3A
102
{ACAD_REACTORS
330
2A
102
}
330
2A
100
AcDbProxyObject
 90
      499
 91
      501
 95
   851991
 70
     0
 93
      452
310
42D0DBDB1BDC90DA185B99D95104090240C333333333333E3BF0000000000000FB0108901411070040501508421405064090741402480A0354
 94
        0
1001
ACAD
1000
AcDbSavedByObjectVersion
1070
     0
  0
ACAD_PROXY_OBJECT
  5
34
102
{ACAD_REACTORS
330
2A
102
}
330
2A
100
AcDbProxyObject
 90
      499
 91
      501
 95
   851991
 70
     0
 93
      500
310
4290DBDB98D95C1D1D585B10940D028333333333333E3BF0000000000000FB0107902409070040501000000000000111010841D405064090740C02480A034D
 94
        0
1001
ACAD
1000
AcDbSavedByObjectVersion
1070
     0
  0
ACAD_PROXY_OBJECT
  5
35
102
{ACAD_REACTORS
330
2A
102
}
330
2A
100
AcDbProxyObject
 90
      499
 91
      501
 95
   851991
 70
     0
 93
      412
310
40D11A5B50B409028333333333333E3BF0000000000000FB010790141107004050150841D405064090741402480A02677FFFFFD4
 94
        0
1001
ACAD
1000
AcDbSavedByObjectVersion
1070
     0
  0
ACAD_PROXY_OBJECT
  5
39
102
{ACAD_REACTORS
330
2A
102
}
330
2A
100
AcDbProxyObject
 90
      499
 91
      501
 95
   851991
 70
     0
 93
      444
310
42D19858D95C185D1D195C9B90F409028333333333333E3BF0000000000000FB010790141107004050150841D405064090741402480A0350
 94
        0
1001
ACAD
1000
AcDbSavedByObjectVersion
1070
     0
  0
ACAD_PROXY_OBJECT
  5
2B
102
{ACAD_REACTORS
330
2A
102
}
330
2A
100
AcDbProxyObject
 90
      499
 91
      501
 95
   851991
 70
     0
 93
      388
310
41119B185D240901404333333333333E3BF0000000000000F9010740A41107004050150841D405064090741402480A1B5D
 94
        0
1001
ACAD
1000
AcDbSavedByObjectVersion
1070
     0
  0
ACAD_PROXY_OBJECT
  5
2C
102
{ACAD_REACTORS
330
2A
102
}
330
2A
100
AcDbProxyObject
 90
      499
 91
      501
 95
   851991
 70
     0
 93
      476
310
43519B185D15DA5D1A115919D95CD0140901404333333333333E3BF0000000000000F9010740901411070040501600405405064090741402480A1B50
 94
        0
1001
ACAD
1000
AcDbSavedByObjectVersion
1070
     0
  0
ACAD_PROXY_OBJECT
  5
2D
102
{ACAD_REACTORS
330
2A
102
}
330
2A
100
AcDbProxyObject
 90
      499
 91
      501
 95
   851991
 70
     0
 93
      412
310
41D1DBDD5C985D5910240902404333333333333E3BF0000000000000F9010740A411070040501641D405064090741402480A1B50
 94
        0
1001
ACAD
1000
AcDbSavedByObjectVersion
1070
     0
  0
ACAD_PROXY_OBJECT
  5
2E
102
{ACAD_REACTORS
330
2A
102
}
330
2A
100
AcDbProxyObject
 90
      499
 91
      501
 95
   851991
 70
     0
 93
      500
310
4411DBDD5C985D5915DA5D1A115919D95CD0340902404333333333333E3BF0000000000000F9010740901411070040501600405405064090741402480A1B5D
 94
        0
1001
ACAD
1000
AcDbSavedByObjectVersion
1070
     0
  0
ACAD_PROXY_OBJECT
  5
38
102
{ACAD_REACTORS
330
2A
102
}
330
2A
100
AcDbProxyObject
 90
      499
 91
      501
 95
   851991
 70
     0
 93
      444
310
42D31A5B995C185D1D195C9B90E409028333333333333E3BF0000000000000FB010790141107004050750841D405064090741402483A0350
 94
        0
1001
ACAD
1000
AcDbSavedByObjectVersion
1070
     0
  0
ACAD_PROXY_OBJECT
  5
33
102
{ACAD_REACTORS
330
2A
102
}
330
2A
100
AcDbProxyObject
 90
      499
 91
      501
 95
   851991
 70
     0
 93
      420
310
425499585B1A5CDD1A58D08409028333333333333E3BF0000000000000FB01079019070040501508421405064090741402480A1B45
 94
        0
1001
ACAD
1000
AcDbSavedByObjectVersion
1070
     0
  0
ACAD_PROXY_OBJECT
  5
37
102
{ACAD_REACTORS
330
2A
102
}
330
2A
100
AcDbProxyObject
 90
      499
 91
      501
 95
   851991
 70
     0
 93
      412
310
41D51A1A58DAD95B90D409028333333333333E3BF0000000000000FB010790141107004050150C41D405064090741402480A0352
 94
        0
1001
ACAD
1000
AcDbSavedByObjectVersion
1070
     0
  0
DICTIONARYVAR
  5
253
102
{ACAD_REACTORS
330
248
102
}
330
248
100
DictionaryVariables
280
     0
  1
1
  0
DICTIONARYVAR
  5
24C
102
{ACAD_REACTORS
330
248
102
}
330
248
100
DictionaryVariables
280
     0
  1
80.000000
  0
DICTIONARYVAR
  5
24B
102
{ACAD_REACTORS
330
248
102
}
330
248
100
DictionaryVariables
280
     0
  1
5.000000
  0
ENDSEC
  0
EOF
