  0
SECTION
  2
HEADER
  9
$ACADVER
  1
AC1024
  9
$ACADMAINTVER
 70
     6
  9
$DWGCODEPAGE
  3
ANSI_1252
  9
$INSBASE
 10
0.0
 20
0.0
 30
0.0
  9
$EXTMIN
 10
1.000000E+20
 20
1.000000E+20
 30
1.000000E+20
  9
$EXTMAX
 10
-1.000000E+20
 20
-1.000000E+20
 30
-1.000000E+20
  9
$LIMMIN
 10
0.0
 20
0.0
  9
$LIMMAX
 10
420.0
 20
297.0
  9
$ORTHOMODE
 70
     0
  9
$REGENMODE
 70
     1
  9
$FILLMODE
 70
     1
  9
$QTEXTMODE
 70
     0
  9
$MIRRTEXT
 70
     1
  9
$LTSCALE
 40
1.0
  9
$ATTMODE
 70
     1
  9
$TEXTSIZE
 40
2.5
  9
$TRACEWID
 40
1.0
  9
$TEXTSTYLE
  7
Standard
  9
$CLAYER
  8
0
  9
$CELTYPE
  6
ByLayer
  9
$CECOLOR
 62
   256
  9
$CELTSCALE
 40
1.0
  9
$DISPSILH
 70
     0
  9
$DIMSCALE
 40
1.0
  9
$DIMASZ
 40
2.5
  9
$DIMEXO
 40
0.625
  9
$DIMDLI
 40
3.75
  9
$DIMRND
 40
0.0
  9
$DIMDLE
 40
0.0
  9
$DIMEXE
 40
1.25
  9
$DIMTP
 40
0.0
  9
$DIMTM
 40
0.0
  9
$DIMTXT
 40
2.5
  9
$DIMCEN
 40
2.5
  9
$DIMTSZ
 40
0.0
  9
$DIMTOL
 70
     0
  9
$DIMLIM
 70
     0
  9
$DIMTIH
 70
     0
  9
$DIMTOH
 70
     0
  9
$DIMSE1
 70
     0
  9
$DIMSE2
 70
     0
  9
$DIMTAD
 70
     1
  9
$DIMZIN
 70
     8
  9
$DIMBLK
  1

  9
$DIMASO
 70
     1
  9
$DIMSHO
 70
     1
  9
$DIMPOST
  1

  9
$DIMAPOST
  1

  9
$DIMALT
 70
     0
  9
$DIMALTD
 70
     3
  9
$DIMALTF
 40
0.03937
  9
$DIMLFAC
 40
1.0
  9
$DIMTOFL
 70
     1
  9
$DIMTVP
 40
0.0
  9
$DIMTIX
 70
     0
  9
$DIMSOXD
 70
     0
  9
$DIMSAH
 70
     0
  9
$DIMBLK1
  1

  9
$DIMBLK2
  1

  9
$DIMSTYLE
  2
ISO-25
  9
$DIMCLRD
 70
     0
  9
$DIMCLRE
 70
     0
  9
$DIMCLRT
 70
     0
  9
$DIMTFAC
 40
1.0
  9
$DIMGAP
 40
0.625
  9
$DIMJUST
 70
     0
  9
$DIMSD1
 70
     0
  9
$DIMSD2
 70
     0
  9
$DIMTOLJ
 70
     0
  9
$DIMTZIN
 70
     8
  9
$DIMALTZ
 70
     0
  9
$DIMALTTZ
 70
     0
  9
$DIMUPT
 70
     0
  9
$DIMDEC
 70
     2
  9
$DIMTDEC
 70
     2
  9
$DIMALTU
 70
     2
  9
$DIMALTTD
 70
     3
  9
$DIMTXSTY
  7
Standard
  9
$DIMAUNIT
 70
     0
  9
$DIMADEC
 70
     0
  9
$DIMALTRND
 40
0.0
  9
$DIMAZIN
 70
     0
  9
$DIMDSEP
 70
    44
  9
$DIMATFIT
 70
     3
  9
$DIMFRAC
 70
     0
  9
$DIMLDRBLK
  1

  9
$DIMLUNIT
 70
     2
  9
$DIMLWD
 70
    -2
  9
$DIMLWE
 70
    -2
  9
$DIMTMOVE
 70
     0
  9
$DIMFXL
 40
1.0
  9
$DIMFXLON
 70
     0
  9
$DIMJOGANG
 40
0.785398
  9
$DIMTFILL
 70
     0
  9
$DIMTFILLCLR
 70
     0
  9
$DIMARCSYM
 70
     0
  9
$DIMLTYPE
  6

  9
$DIMLTEX1
  6

  9
$DIMLTEX2
  6

  9
$DIMTXTDIRECTION
 70
     0
  9
$LUNITS
 70
     2
  9
$LUPREC
 70
     4
  9
$SKETCHINC
 40
1.0
  9
$FILLETRAD
 40
10.0
  9
$AUNITS
 70
     0
  9
$AUPREC
 70
     0
  9
$MENU
  1
.
  9
$ELEVATION
 40
0.0
  9
$PELEVATION
 40
0.0
  9
$THICKNESS
 40
0.0
  9
$LIMCHECK
 70
     0
  9
$CHAMFERA
 40
0.0
  9
$CHAMFERB
 40
0.0
  9
$CHAMFERC
 40
0.0
  9
$CHAMFERD
 40
0.0
  9
$SKPOLY
 70
     0
  9
$TDCREATE
 40
2457823.372212361
  9
$TDUCREATE
 40
2457823.330545695
  9
$TDUPDATE
 40
2457823.372212905
  9
$TDUUPDATE
 40
2457823.330546238
  9
$TDINDWG
 40
0.0000000116
  9
$TDUSRTIMER
 40
0.0000000116
  9
$USRTIMER
 70
     1
  9
$ANGBASE
 50
0.0
  9
$ANGDIR
 70
     0
  9
$PDMODE
 70
     0
  9
$PDSIZE
 40
0.0
  9
$PLINEWID
 40
0.0
  9
$SPLFRAME
 70
     0
  9
$SPLINETYPE
 70
     6
  9
$SPLINESEGS
 70
     8
  9
$HANDSEED
  5
280
  9
$SURFTAB1
 70
     6
  9
$SURFTAB2
 70
     6
  9
$SURFTYPE
 70
     6
  9
$SURFU
 70
     6
  9
$SURFV
 70
     6
  9
$UCSBASE
  2

  9
$UCSNAME
  2

  9
$UCSORG
 10
0.0
 20
0.0
 30
0.0
  9
$UCSXDIR
 10
1.0
 20
0.0
 30
0.0
  9
$UCSYDIR
 10
0.0
 20
1.0
 30
0.0
  9
$UCSORTHOREF
  2

  9
$UCSORTHOVIEW
 70
     0
  9
$UCSORGTOP
 10
0.0
 20
0.0
 30
0.0
  9
$UCSORGBOTTOM
 10
0.0
 20
0.0
 30
0.0
  9
$UCSORGLEFT
 10
0.0
 20
0.0
 30
0.0
  9
$UCSORGRIGHT
 10
0.0
 20
0.0
 30
0.0
  9
$UCSORGFRONT
 10
0.0
 20
0.0
 30
0.0
  9
$UCSORGBACK
 10
0.0
 20
0.0
 30
0.0
  9
$PUCSBASE
  2

  9
$PUCSNAME
  2

  9
$PUCSORG
 10
0.0
 20
0.0
 30
0.0
  9
$PUCSXDIR
 10
1.0
 20
0.0
 30
0.0
  9
$PUCSYDIR
 10
0.0
 20
1.0
 30
0.0
  9
$PUCSORTHOREF
  2

  9
$PUCSORTHOVIEW
 70
     0
  9
$PUCSORGTOP
 10
0.0
 20
0.0
 30
0.0
  9
$PUCSORGBOTTOM
 10
0.0
 20
0.0
 30
0.0
  9
$PUCSORGLEFT
 10
0.0
 20
0.0
 30
0.0
  9
$PUCSORGRIGHT
 10
0.0
 20
0.0
 30
0.0
  9
$PUCSORGFRONT
 10
0.0
 20
0.0
 30
0.0
  9
$PUCSORGBACK
 10
0.0
 20
0.0
 30
0.0
  9
$USERI1
 70
     0
  9
$USERI2
 70
     0
  9
$USERI3
 70
     0
  9
$USERI4
 70
     0
  9
$USERI5
 70
     0
  9
$USERR1
 40
0.0
  9
$USERR2
 40
0.0
  9
$USERR3
 40
0.0
  9
$USERR4
 40
0.0
  9
$USERR5
 40
0.0
  9
$WORLDVIEW
 70
     1
  9
$SHADEDGE
 70
     3
  9
$SHADEDIF
 70
    70
  9
$TILEMODE
 70
     1
  9
$MAXACTVP
 70
    64
  9
$PINSBASE
 10
0.0
 20
0.0
 30
0.0
  9
$PLIMCHECK
 70
     0
  9
$PEXTMIN
 10
1.000000E+20
 20
1.000000E+20
 30
1.000000E+20
  9
$PEXTMAX
 10
-1.000000E+20
 20
-1.000000E+20
 30
-1.000000E+20
  9
$PLIMMIN
 10
0.0
 20
0.0
  9
$PLIMMAX
 10
420.0
 20
297.0
  9
$UNITMODE
 70
     0
  9
$VISRETAIN
 70
     1
  9
$PLINEGEN
 70
     0
  9
$PSLTSCALE
 70
     1
  9
$TREEDEPTH
 70
  3020
  9
$CMLSTYLE
  2
Standard
  9
$CMLJUST
 70
     0
  9
$CMLSCALE
 40
20.0
  9
$PROXYGRAPHICS
 70
     1
  9
$MEASUREMENT
 70
     1
  9
$CELWEIGHT
370
    -1
  9
$ENDCAPS
280
     0
  9
$JOINSTYLE
280
     0
  9
$LWDISPLAY
290
     0
  9
$INSUNITS
 70
     4
  9
$HYPERLINKBASE
  1

  9
$STYLESHEET
  1

  9
$XEDIT
290
     1
  9
$CEPSNTYPE
380
     0
  9
$PSTYLEMODE
290
     1
  9
$FINGERPRINTGUID
  2
{799CF326-FDB7-4ACD-8110-55AF61B628E1}
  9
$VERSIONGUID
  2
{FAEB1C32-E019-11D5-929B-00C0DF256EC4}
  9
$EXTNAMES
290
     1
  9
$PSVPSCALE
 40
0.0
  9
$OLESTARTUP
290
     0
  9
$SORTENTS
280
   127
  9
$INDEXCTL
280
     0
  9
$HIDETEXT
280
     1
  9
$XCLIPFRAME
280
     2
  9
$HALOGAP
280
     0
  9
$OBSCOLOR
 70
   257
  9
$OBSLTYPE
280
     0
  9
$INTERSECTIONDISPLAY
280
     0
  9
$INTERSECTIONCOLOR
 70
   257
  9
$DIMASSOC
280
     2
  9
$PROJECTNAME
  1

  9
$CAMERADISPLAY
290
     0
  9
$LENSLENGTH
 40
50.0
  9
$CAMERAHEIGHT
 40
0.0
  9
$STEPSPERSEC
 40
2.0
  9
$STEPSIZE
 40
6.0
  9
$3DDWFPREC
 40
2.0
  9
$PSOLWIDTH
 40
5.0
  9
$PSOLHEIGHT
 40
80.0
  9
$LOFTANG1
 40
1.570796
  9
$LOFTANG2
 40
1.570796
  9
$LOFTMAG1
 40
0.0
  9
$LOFTMAG2
 40
0.0
  9
$LOFTPARAM
 70
     7
  9
$LOFTNORMALS
280
     1
  9
$LATITUDE
 40
37.795
  9
$LONGITUDE
 40
-122.394
  9
$NORTHDIRECTION
 40
0.0
  9
$TIMEZONE
 70
 -8000
  9
$LIGHTGLYPHDISPLAY
280
     1
  9
$TILEMODELIGHTSYNCH
280
     1
  9
$CMATERIAL
347
44
  9
$SOLIDHIST
280
     0
  9
$SHOWHIST
280
     1
  9
$DWFFRAME
280
     2
  9
$DGNFRAME
280
     2
  9
$REALWORLDSCALE
290
     1
  9
$INTERFERECOLOR
 62
   256
  9
$CSHADOW
280
     0
  9
$SHADOWPLANELOCATION
 40
0.0
  0
ENDSEC
  0
SECTION
  2
CLASSES
  0
CLASS
  1
ACDBDICTIONARYWDFLT
  2
AcDbDictionaryWithDefault
  3
ObjectDBX Classes
 90
        0
 91
        4
280
     0
281
     0
  0
CLASS
  1
VISUALSTYLE
  2
AcDbVisualStyle
  3
ObjectDBX Classes
 90
     4095
 91
        4
280
     0
281
     0
  0
CLASS
  1
MATERIAL
  2
AcDbMaterial
  3
ObjectDBX Classes
 90
     1153
 91
        4
280
     0
281
     0
  0
CLASS
  1
SCALE
  2
AcDbScale
  3
ObjectDBX Classes
 90
     1153
 91
        4
280
     0
281
     0
  0
CLASS
  1
TABLESTYLE
  2
AcDbTableStyle
  3
ObjectDBX Classes
 90
     4095
 91
        4
280
     0
281
     0
  0
CLASS
  1
MLEADERSTYLE
  2
AcDbMLeaderStyle
  3
ACDB_MLEADERSTYLE_CLASS
 90
     4095
 91
        4
280
     0
281
     0
  0
CLASS
  1
SUN
  2
AcDbSun
  3
SCENEOE
 90
     1153
 91
        4
280
     0
281
     0
  0
CLASS
  1
DICTIONARYVAR
  2
AcDbDictionaryVar
  3
ObjectDBX Classes
 90
        0
 91
        4
280
     0
281
     0
  0
CLASS
  1
CELLSTYLEMAP
  2
AcDbCellStyleMap
  3
ObjectDBX Classes
 90
     1152
 91
        4
280
     0
281
     0
  0
ENDSEC
  0
SECTION
  2
TABLES
  0
TABLE
  2
VPORT
  5
8
330
0
100
AcDbSymbolTable
 70
     1
  0
VPORT
  5
29
330
8
100
AcDbSymbolTableRecord
100
AcDbViewportTableRecord
  2
*Active
 70
     0
 10
0.0
 20
0.0
 11
1.0
 21
1.0
 12
344.186916
 22
148.5
 13
0.0
 23
0.0
 14
10.0
 24
10.0
 15
10.0
 25
10.0
 16
0.0
 26
0.0
 36
1.0
 17
0.0
 27
0.0
 37
0.0
 40
297.0
 41
1.972973
 42
50.0
 43
0.0
 44
0.0
 50
0.0
 51
0.0
 71
     0
 72
   100
 73
     1
 74
     3
 75
     0
 76
     0
 77
     0
 78
     0
281
     0
 65
     1
110
0.0
120
0.0
130
0.0
111
1.0
121
0.0
131
0.0
112
0.0
122
1.0
132
0.0
 79
     0
146
0.0
348
2F
 60
     3
 61
     5
292
     1
282
     1
141
0.0
142
0.0
 63
   250
361
6D
  0
ENDTAB
  0
TABLE
  2
LTYPE
  5
5
330
0
100
AcDbSymbolTable
 70
     1
  0
LTYPE
  5
14
330
5
100
AcDbSymbolTableRecord
100
AcDbLinetypeTableRecord
  2
ByBlock
 70
     0
  3

 72
    65
 73
     0
 40
0.0
  0
LTYPE
  5
15
330
5
100
AcDbSymbolTableRecord
100
AcDbLinetypeTableRecord
  2
ByLayer
 70
     0
  3

 72
    65
 73
     0
 40
0.0
  0
LTYPE
  5
16
330
5
100
AcDbSymbolTableRecord
100
AcDbLinetypeTableRecord
  2
Continuous
 70
     0
  3
Solid line
 72
    65
 73
     0
 40
0.0
  0
ENDTAB
  0
TABLE
  2
LAYER
  5
2
330
0
100
AcDbSymbolTable
 70
     1
  0
LAYER
  5
10
330
2
100
AcDbSymbolTableRecord
100
AcDbLayerTableRecord
  2
0
 70
     0
 62
   106
  6
Continuous
370
     0
390
F
347
46
  0
ENDTAB
  0
TABLE
  2
STYLE
  5
3
330
0
100
AcDbSymbolTable
 70
     4
  0
STYLE
  5
11
330
3
100
AcDbSymbolTableRecord
100
AcDbTextStyleTableRecord
  2
Standard
 70
     0
 40
0.0
 41
1.0
 50
0.0
 71
     0
 42
2.5
  3
txt
  4

  0
STYLE
  5
6E
330
3
100
AcDbSymbolTableRecord
100
AcDbTextStyleTableRecord
  2
Default
 70
     0
 40
0.0
 41
1.0
 50
0.0
 71
     0
 42
2.5
  3

  4

1001
ACAD
1000
txt
1071
        0
  0
STYLE
  5
6F
330
3
100
AcDbSymbolTableRecord
100
AcDbTextStyleTableRecord
  2
ISO
 70
     0
 40
0.0
 41
1.0
 50
0.0
 71
     0
 42
2.5
  3

  4

1001
ACAD
1000
txt
1071
        0
  0
STYLE
  5
70
330
3
100
AcDbSymbolTableRecord
100
AcDbTextStyleTableRecord
  2
zucchetti
 70
     0
 40
0.0
 41
1.0
 50
0.0
 71
     0
 42
2.5
  3

  4

1001
ACAD
1000
Arial
1071
        0
  0
ENDTAB
  0
TABLE
  2
VIEW
  5
6
330
0
100
AcDbSymbolTable
 70
     0
  0
ENDTAB
  0
TABLE
  2
UCS
  5
7
330
0
100
AcDbSymbolTable
 70
     0
  0
ENDTAB
  0
TABLE
  2
APPID
  5
9
330
0
100
AcDbSymbolTable
 70
     1
  0
APPID
  5
12
330
9
100
AcDbSymbolTableRecord
100
AcDbRegAppTableRecord
  2
ACAD
 70
     0
  0
ENDTAB
  0
TABLE
  2
DIMSTYLE
  5
A
330
0
100
AcDbSymbolTable
 70
     4
100
AcDbDimStyleTable
  0
DIMSTYLE
105
27
330
A
100
AcDbSymbolTableRecord
100
AcDbDimStyleTableRecord
  2
ISO-25
 70
     0
 41
2.5
 42
0.625
 43
3.75
 44
1.25
 73
     0
 74
     0
 77
     1
 78
     8
140
2.5
141
2.5
143
0.03937
147
0.625
171
     3
172
     1
178
     0
271
     2
272
     2
274
     3
278
    44
283
     0
284
     8
340
11
  0
DIMSTYLE
105
71
330
A
100
AcDbSymbolTableRecord
100
AcDbDimStyleTableRecord
  2
Default
 70
     0
  3
<>
 41
4.375
 42
1.05
 44
2.1
 49
10.01
 73
     0
 74
     0
 77
     1
 78
     8
140
3.5
146
0.4
147
1.75
172
     1
271
     2
178
     3
271
     2
272
     3
284
     8
340
6E
341
72
342
72
  0
DIMSTYLE
105
79
330
A
100
AcDbSymbolTableRecord
100
AcDbDimStyleTableRecord
  2
ISO
 70
     0
  3
<>
 41
4.375
 42
1.05
 44
2.1
 49
10.01
 73
     0
 74
     0
 77
     1
 78
     8
140
3.5
146
0.4
147
1.75
172
     1
271
     2
178
     3
271
     2
272
     3
284
     8
340
6F
341
72
342
72
  0
DIMSTYLE
105
7A
330
A
100
AcDbSymbolTableRecord
100
AcDbDimStyleTableRecord
  2
zucchetti
 70
     0
  3
<>
 41
3.0
 42
0.9
 44
1.8
 49
8.58
 73
     0
 74
     0
 77
     1
 78
     8
140
3.0
146
0.6
147
1.5
172
     1
176
     3
177
     3
271
     2
178
     3
271
     2
272
     2
284
     8
340
70
  0
ENDTAB
  0
TABLE
  2
BLOCK_RECORD
  5
1
330
0
100
AcDbSymbolTable
 70
     7
  0
BLOCK_RECORD
  5
1F
330
1
100
AcDbSymbolTableRecord
100
AcDbBlockTableRecord
  2
*Model_Space
340
22
 70
     0
280
     1
281
     0
  0
BLOCK_RECORD
  5
1B
330
1
100
AcDbSymbolTableRecord
100
AcDbBlockTableRecord
  2
*Paper_Space
340
1E
 70
     0
280
     1
281
     0
  0
BLOCK_RECORD
  5
23
330
1
100
AcDbSymbolTableRecord
100
AcDbBlockTableRecord
  2
*Paper_Space0
340
26
 70
     0
280
     1
281
     0
  0
BLOCK_RECORD
  5
72
330
1
100
AcDbSymbolTableRecord
100
AcDbBlockTableRecord
  2
_CLOSED
340
0
 70
     0
280
     1
281
     0
  0
BLOCK_RECORD
  5
7B
330
1
100
AcDbSymbolTableRecord
100
AcDbBlockTableRecord
  2
a
340
0
102
{BLKREFS
331
C9
102
}
 70
     0
280
     1
281
     0
  0
BLOCK_RECORD
  5
CA
330
1
100
AcDbSymbolTableRecord
100
AcDbBlockTableRecord
  2
b
340
0
102
{BLKREFS
331
108
102
}
 70
     0
280
     1
281
     0
  0
BLOCK_RECORD
  5
109
330
1
100
AcDbSymbolTableRecord
100
AcDbBlockTableRecord
  2
c
340
0
102
{BLKREFS
331
16E
102
}
 70
     0
280
     1
281
     0
  0
BLOCK_RECORD
  5
16F
330
1
100
AcDbSymbolTableRecord
100
AcDbBlockTableRecord
  2
d
340
0
102
{BLKREFS
331
1DC
102
}
 70
     0
280
     1
281
     0
  0
BLOCK_RECORD
  5
1DD
330
1
100
AcDbSymbolTableRecord
100
AcDbBlockTableRecord
  2
e
340
0
102
{BLKREFS
331
246
102
}
 70
     0
280
     1
281
     0
  0
ENDTAB
  0
ENDSEC
  0
SECTION
  2
BLOCKS
  0
BLOCK
  5
20
330
1F
100
AcDbEntity
  8
0
100
AcDbBlockBegin
  2
*Model_Space
 70
     0
 10
0.0
 20
0.0
 30
0.0
  3
*Model_Space
  1

  0
ENDBLK
  5
21
330
1F
100
AcDbEntity
  8
0
100
AcDbBlockEnd
  0
BLOCK
  5
1C
330
1B
100
AcDbEntity
 67
     1
  8
0
100
AcDbBlockBegin
  2
*Paper_Space
 70
     0
 10
0.0
 20
0.0
 30
0.0
  3
*Paper_Space
  1

  0
ENDBLK
  5
1D
330
1B
100
AcDbEntity
 67
     1
  8
0
100
AcDbBlockEnd
  0
BLOCK
  5
24
330
23
100
AcDbEntity
  8
0
100
AcDbBlockBegin
  2
*Paper_Space0
 70
     0
 10
0.0
 20
0.0
 30
0.0
  3
*Paper_Space0
  1

  0
ENDBLK
  5
25
330
23
100
AcDbEntity
  8
0
100
AcDbBlockEnd
  0
BLOCK
  5
73
330
72
100
AcDbEntity
  8
0
100
AcDbBlockBegin
  2
_CLOSED
 70
     0
 10
0.0
 20
0.0
 30
0.0
  3
_CLOSED
  1

  0
LINE
  5
75
330
72
100
AcDbEntity
  8
0
  6
ByBlock
 62
     0
370
    -2
100
AcDbLine
 10
-1.0
 20
0.166667
 30
0.0
 11
0.0
 21
0.0
 31
0.0
  0
LINE
  5
76
330
72
100
AcDbEntity
  8
0
  6
ByBlock
 62
     0
370
    -2
100
AcDbLine
 10
0.0
 20
0.0
 30
0.0
 11
-1.0
 21
-0.166667
 31
0.0
  0
LINE
  5
77
330
72
100
AcDbEntity
  8
0
  6
ByBlock
 62
     0
370
    -2
100
AcDbLine
 10
-1.0
 20
0.166667
 30
0.0
 11
-1.0
 21
-0.166667
 31
0.0
  0
LINE
  5
78
330
72
100
AcDbEntity
  8
0
  6
ByBlock
 62
     0
370
    -2
100
AcDbLine
 10
0.0
 20
0.0
 30
0.0
 11
-1.0
 21
0.0
 31
0.0
  0
ENDBLK
  5
74
330
72
100
AcDbEntity
  8
0
100
AcDbBlockEnd
  0
BLOCK
  5
C7
330
7B
100
AcDbEntity
  8
0
100
AcDbBlockBegin
  2
a
 70
     0
 10
13.245436
 20
94.50956
 30
0.0
  3
a
  1

  0
LINE
  5
7C
330
7B
100
AcDbEntity
  8
0
  6
Continuous
 62
     0
370
    30
100
AcDbLine
 10
227.851672
 20
789.662695
 30
0.0
 11
216.539522
 21
789.662694
 31
0.0
  0
LINE
  5
7D
330
7B
100
AcDbEntity
  8
0
  6
Continuous
 62
     0
370
    30
100
AcDbLine
 10
216.53952
 20
789.662694
 30
0.0
 11
205.229424
 21
789.662694
 31
0.0
  0
LWPOLYLINE
  5
7E
330
7B
100
AcDbEntity
  8
0
  6
Continuous
 62
     0
370
     0
100
AcDbPolyline
 90
       16
 70
     0
 43
0.0
 10
238.374435
 20
832.596375
 10
238.317078
 20
832.96228
 10
238.194885
 20
833.331299
 10
238.032089
 20
833.698059
 10
237.822556
 20
834.063354
 10
237.559006
 20
834.428162
 10
237.246674
 20
834.791931
 10
236.886093
 20
835.154236
 10
236.476425
 20
835.514893
 10
236.017868
 20
835.873779
 10
235.510727
 20
836.230652
 10
234.955307
 20
836.585388
 10
234.352341
 20
836.938354
 10
233.701721
 20
837.28833
 10
233.002701
 20
837.632874
 10
232.231018
 20
837.991516
  0
LWPOLYLINE
  5
7F
330
7B
100
AcDbEntity
  8
0
  6
Continuous
 62
     0
370
     0
100
AcDbPolyline
 90
        6
 70
     0
 43
0.0
 10
237.926437
 20
837.274475
 10
238.109146
 20
836.383423
 10
238.248886
 20
835.485291
 10
238.343063
 20
834.581238
 10
238.388702
 20
833.672729
 10
238.374435
 20
832.596375
  0
LINE
  5
80
330
7B
100
AcDbEntity
  8
0
  6
Continuous
 62
     0
370
     0
100
AcDbLine
 10
232.126477
 20
870.983983
 30
0.0
 11
232.946743
 21
870.989625
 31
0.0
  0
LINE
  5
81
330
7B
100
AcDbEntity
  8
0
  6
Continuous
 62
     0
370
     0
100
AcDbLine
 10
232.231019
 20
837.991487
 30
0.0
 11
232.126477
 21
870.983984
 31
0.0
  0
LINE
  5
82
330
7B
100
AcDbEntity
  8
0
  6
Continuous
 62
     0
370
     0
100
AcDbLine
 10
200.848085
 20
837.991505
 30
0.0
 11
200.952663
 21
870.984002
 31
0.0
  0
LINE
  5
83
330
7B
100
AcDbEntity
  8
0
  6
Continuous
 62
     0
370
     0
100
AcDbLine
 10
200.952663
 20
870.984
 30
0.0
 11
200.132404
 21
870.989649
 31
0.0
  0
LWPOLYLINE
  5
84
330
7B
100
AcDbEntity
  8
0
  6
Continuous
 62
     0
370
     0
100
AcDbPolyline
 90
        6
 70
     0
 43
0.0
 10
195.15126
 20
837.268372
 10
194.969116
 20
836.378784
 10
194.829803
 20
835.482178
 10
194.735916
 20
834.579712
 10
194.690384
 20
833.672729
 10
194.704666
 20
832.596436
  0
LWPOLYLINE
  5
85
330
7B
100
AcDbEntity
  8
0
  6
Continuous
 62
     0
370
     0
100
AcDbPolyline
 90
       16
 70
     0
 43
0.0
 10
194.704666
 20
832.596436
 10
194.762024
 20
832.96228
 10
194.884201
 20
833.33136
 10
195.046997
 20
833.698059
 10
195.256546
 20
834.063416
 10
195.520096
 20
834.428223
 10
195.832428
 20
834.791992
 10
196.192993
 20
835.154236
 10
196.602676
 20
835.514893
 10
197.061234
 20
835.873779
 10
197.568375
 20
836.230713
 10
198.123795
 20
836.585388
 10
198.726761
 20
836.938416
 10
199.37738
 20
837.28833
 10
200.076401
 20
837.632874
 10
200.848083
 20
837.991516
  0
LINE
  5
86
330
7B
100
AcDbEntity
  8
0
  6
Continuous
 62
     0
370
     0
100
AcDbLine
 10
232.126477
 20
870.983984
 30
0.0
 11
232.12651
 21
901.383321
 31
0.0
  0
LINE
  5
87
330
7B
100
AcDbEntity
  8
0
  6
Continuous
 62
     0
370
     0
100
AcDbLine
 10
216.539579
 20
901.267973
 30
0.0
 11
216.539621
 21
870.984221
 31
0.0
  0
LINE
  5
88
330
7B
100
AcDbEntity
  8
0
  6
Continuous
 62
     0
370
     0
100
AcDbLine
 10
216.539621
 20
870.984221
 30
0.0
 11
232.126475
 21
870.983983
 31
0.0
  0
LWPOLYLINE
  5
89
330
7B
100
AcDbEntity
  8
0
  6
Continuous
 62
     0
370
     0
100
AcDbPolyline
 90
       17
 70
     0
 43
0.0
 10
205.239716
 20
799.441772
 10
205.21106
 20
801.86676
 10
205.126328
 20
804.290405
 10
204.971298
 20
806.710632
 10
204.753235
 20
809.125916
 10
204.472794
 20
811.534729
 10
204.128647
 20
813.935364
 10
203.71756
 20
816.325317
 10
203.263916
 20
818.707642
 10
202.833618
 20
821.094299
 10
202.442749
 20
823.487732
 10
202.084946
 20
825.886292
 10
201.765671
 20
828.290283
 10
201.483292
 20
830.698914
 10
201.232193
 20
833.110962
 10
201.027908
 20
835.527466
 10
200.848083
 20
837.991516
  0
LWPOLYLINE
  5
8A
330
7B
100
AcDbEntity
  8
0
  6
Continuous
 62
     0
370
     0
100
AcDbPolyline
 90
       20
 70
     0
 43
0.0
 10
194.704666
 20
832.596436
 10
194.771667
 20
831.640381
 10
194.842514
 20
830.685608
 10
194.916
 20
829.731384
 10
195.026093
 20
828.78064
 10
195.202789
 20
827.839233
 10
195.44696
 20
826.912292
 10
195.741913
 20
825.999878
 10
196.071518
 20
825.099121
 10
196.430069
 20
824.209167
 10
196.821136
 20
823.332642
 10
197.251144
 20
822.473877
 10
197.723648
 20
821.637085
 10
198.237366
 20
820.824036
 10
198.7892
 20
820.035278
 10
199.375656
 20
819.270935
 10
199.994446
 20
818.531982
 10
200.645004
 20
817.820068
 10
201.326828
 20
817.136963
 10
202.071136
 20
816.456787
  0
LWPOLYLINE
  5
8B
330
7B
100
AcDbEntity
  8
0
  6
Continuous
 62
     0
370
     0
100
AcDbPolyline
 90
       20
 70
     0
 43
0.0
 10
238.374435
 20
832.596375
 10
238.307434
 20
831.640381
 10
238.236588
 20
830.685608
 10
238.163101
 20
829.731384
 10
238.052994
 20
828.78064
 10
237.876312
 20
827.839172
 10
237.632141
 20
826.912292
 10
237.337173
 20
825.999878
 10
237.007568
 20
825.099121
 10
236.649033
 20
824.209167
 10
236.25795
 20
823.332581
 10
235.827942
 20
822.473877
 10
235.355438
 20
821.637085
 10
234.841721
 20
820.824036
 10
234.289886
 20
820.035217
 10
233.70343
 20
819.270935
 10
233.084625
 20
818.531982
 10
232.434082
 20
817.820068
 10
231.752258
 20
817.136963
 10
231.00795
 20
816.456787
  0
LWPOLYLINE
  5
8C
330
7B
100
AcDbEntity
  8
0
  6
Continuous
 62
     0
370
     0
100
AcDbPolyline
 90
       17
 70
     0
 43
0.0
 10
227.83934
 20
799.441772
 10
227.868011
 20
801.86676
 10
227.952728
 20
804.290344
 10
228.107773
 20
806.710571
 10
228.325836
 20
809.125916
 10
228.606277
 20
811.534729
 10
228.950424
 20
813.935364
 10
229.361526
 20
816.325317
 10
229.815155
 20
818.707642
 10
230.245468
 20
821.094299
 10
230.636337
 20
823.487671
 10
230.994156
 20
825.886292
 10
231.313431
 20
828.290283
 10
231.595795
 20
830.698914
 10
231.846909
 20
833.110962
 10
232.051193
 20
835.527405
 10
232.231018
 20
837.991516
  0
LINE
  5
8D
330
7B
100
AcDbEntity
  8
0
  6
Continuous
 62
     0
370
     0
100
AcDbLine
 10
216.539621
 20
870.984221
 30
0.0
 11
216.539587
 21
839.983999
 31
0.0
  0
LWPOLYLINE
  5
8E
330
7B
100
AcDbEntity
  8
0
  6
Continuous
 62
     0
370
     0
100
AcDbPolyline
 90
       19
 70
     0
 43
0.0
 10
216.539581
 20
839.984009
 10
217.690399
 20
839.97699
 10
218.83551
 20
839.955933
 10
219.969315
 20
839.921021
 10
221.086243
 20
839.872375
 10
222.180817
 20
839.810242
 10
223.247574
 20
839.734863
 10
224.281219
 20
839.646729
 10
225.276642
 20
839.546204
 10
226.228912
 20
839.433777
 10
227.133423
 20
839.310059
 10
227.985794
 20
839.175659
 10
228.781921
 20
839.031128
 10
229.517853
 20
838.877319
 10
230.189636
 20
838.714905
 10
230.793121
 20
838.544617
 10
231.323914
 20
838.367188
 10
231.787628
 20
838.184143
 10
232.231018
 20
837.991516
  0
LINE
  5
8F
330
7B
100
AcDbEntity
  8
0
  6
Continuous
 62
     0
370
     0
100
AcDbLine
 10
227.839343
 20
799.441787
 30
0.0
 11
216.539541
 21
799.462868
 31
0.0
  0
LINE
  5
90
330
7B
100
AcDbEntity
  8
0
  6
Continuous
 62
     0
370
     0
100
AcDbLine
 10
216.539541
 20
799.462868
 30
0.0
 11
216.539522
 21
789.662694
 31
0.0
  0
LINE
  5
91
330
7B
100
AcDbEntity
  8
0
  6
Continuous
 62
     0
370
     0
100
AcDbLine
 10
205.239717
 20
799.441799
 30
0.0
 11
216.539519
 21
799.462868
 31
0.0
  0
LINE
  5
92
330
7B
100
AcDbEntity
  8
0
  6
Continuous
 62
     0
370
     0
100
AcDbLine
 10
216.539519
 20
839.983999
 30
0.0
 11
216.539519
 21
799.462868
 31
0.0
  0
LWPOLYLINE
  5
93
330
7B
100
AcDbEntity
  8
0
  6
Continuous
 62
     0
370
     0
100
AcDbPolyline
 90
       19
 70
     0
 43
0.0
 10
200.848083
 20
837.991516
 10
201.275009
 20
838.177246
 10
201.73671
 20
838.360413
 10
202.264725
 20
838.538086
 10
202.86557
 20
838.708679
 10
203.534866
 20
838.871399
 10
204.268463
 20
839.025574
 10
205.062408
 20
839.17041
 10
205.912766
 20
839.305237
 10
206.815399
 20
839.429382
 10
207.765976
 20
839.542175
 10
208.759872
 20
839.643188
 10
209.792191
 20
839.731812
 10
210.857819
 20
839.807678
 10
211.951447
 20
839.8703
 10
213.067627
 20
839.919434
 10
214.200897
 20
839.954895
 10
215.345673
 20
839.97644
 10
216.53952
 20
839.984009
  0
LINE
  5
94
330
7B
100
AcDbEntity
  8
0
  6
Continuous
 62
     0
370
     0
100
AcDbLine
 10
200.952665
 20
870.984
 30
0.0
 11
216.539519
 21
870.984221
 31
0.0
  0
ARC
  5
95
330
7B
100
AcDbEntity
  8
0
  6
Continuous
 62
     0
370
     0
100
AcDbCircle
 10
216.698894
 20
828.9214
 30
0.0
 40
21.69119028545354
100
AcDbArc
 50
305.298196
 51
359.60742
  0
ARC
  5
96
330
7B
100
AcDbEntity
  8
0
  6
Continuous
 62
     0
370
     0
100
AcDbCircle
 10
216.378573
 20
828.920423
 30
0.0
 40
21.68926140178532
100
AcDbArc
 50
180.445522
 51
234.703153
  0
LINE
  5
97
330
7B
100
AcDbEntity
  8
0
  6
Continuous
 62
     0
370
     0
100
AcDbLine
 10
194.704666
 20
832.596414
 30
0.0
 11
194.689518
 21
828.772843
 31
0.0
  0
LINE
  5
98
330
7B
100
AcDbEntity
  8
0
  6
Continuous
 62
     0
370
     0
100
AcDbLine
 10
238.374432
 20
832.59639
 30
0.0
 11
238.389575
 21
828.772808
 31
0.0
  0
LINE
  5
99
330
7B
100
AcDbEntity
  8
0
  6
Continuous
 62
     0
370
     0
100
AcDbLine
 10
200.952663
 20
870.984002
 30
0.0
 11
200.952665
 21
901.383321
 31
0.0
  0
LINE
  5
9A
330
7B
100
AcDbEntity
  8
0
  6
Continuous
 62
     0
370
    30
100
AcDbLine
 10
200.132168
 20
870.989167
 30
0.0
 11
200.137625
 21
901.383282
 31
0.0
  0
LINE
  5
9B
330
7B
100
AcDbEntity
  8
0
  6
Continuous
 62
     0
370
    30
100
AcDbLine
 10
194.689974
 20
828.751131
 30
0.0
 11
194.732347
 21
827.710614
 31
0.0
  0
LINE
  5
9C
330
7B
100
AcDbEntity
  8
0
  6
Continuous
 62
     0
370
    30
100
AcDbLine
 10
238.389568
 20
828.772167
 30
0.0
 11
238.34797
 21
827.730876
 31
0.0
  0
LINE
  5
9D
330
7B
100
AcDbEntity
  8
0
  6
Continuous
 62
     0
370
    30
100
AcDbLine
 10
205.239717
 20
799.441799
 30
0.0
 11
205.229423
 21
789.662695
 31
0.0
  0
LINE
  5
9E
330
7B
100
AcDbEntity
  8
0
  6
Continuous
 62
     0
370
    30
100
AcDbLine
 10
227.839343
 20
799.441787
 30
0.0
 11
227.851665
 21
789.662696
 31
0.0
  0
LWPOLYLINE
  5
9F
330
7B
100
AcDbEntity
  8
0
  6
Continuous
 62
     0
370
    30
100
AcDbPolyline
 90
       37
 70
     0
 43
0.0
 10
227.847672
 20
800.394531
 10
227.857056
 20
801.024475
 10
227.873596
 20
801.658875
 10
227.8983
 20
802.297607
 10
227.932159
 20
802.940552
 10
227.975967
 20
803.587341
 10
228.029709
 20
804.236755
 10
228.093201
 20
804.887451
 10
228.166275
 20
805.538147
 10
228.248749
 20
806.187378
 10
228.340408
 20
806.833862
 10
228.441132
 20
807.47644
 10
228.550827
 20
808.11438
 10
228.669403
 20
808.747009
 10
228.796814
 20
809.373718
 10
228.932953
 20
809.993774
 10
229.077759
 20
810.606506
 10
229.230988
 20
811.211304
 10
229.392059
 20
811.80719
 10
229.560303
 20
812.39325
 10
229.735092
 20
812.96875
 10
229.915741
 20
813.532654
 10
230.101639
 20
814.084167
 10
230.292023
 20
814.622192
 10
230.485291
 20
815.144409
 10
230.679398
 20
815.647705
 10
230.872299
 20
816.128906
 10
231.061935
 20
816.584961
 10
231.246231
 20
817.012756
 10
231.423157
 20
817.40918
 10
231.590637
 20
817.771057
 10
231.746155
 20
818.094727
 10
231.885345
 20
818.374084
 10
232.003342
 20
818.602234
 10
232.095291
 20
818.772461
 10
232.155426
 20
818.878845
 10
232.177231
 20
818.916077
  0
LWPOLYLINE
  5
A0
330
7B
100
AcDbEntity
  8
0
  6
Continuous
 62
     0
370
    30
100
AcDbPolyline
 90
       37
 70
     0
 43
0.0
 10
205.231384
 20
800.394531
 10
205.222
 20
801.024475
 10
205.20546
 20
801.658875
 10
205.180771
 20
802.297607
 10
205.146912
 20
802.940552
 10
205.103104
 20
803.587341
 10
205.049362
 20
804.236755
 10
204.985855
 20
804.887451
 10
204.912781
 20
805.538147
 10
204.830322
 20
806.187378
 10
204.738663
 20
806.833862
 10
204.637939
 20
807.47644
 10
204.528244
 20
808.11438
 10
204.409668
 20
808.747009
 10
204.282257
 20
809.373718
 10
204.146118
 20
809.993774
 10
204.001312
 20
810.606567
 10
203.848083
 20
811.211304
 10
203.687012
 20
811.80719
 10
203.518768
 20
812.393311
 10
203.343994
 20
812.96875
 10
203.16333
 20
813.532654
 10
202.977432
 20
814.084167
 10
202.787064
 20
814.622192
 10
202.593781
 20
815.144409
 10
202.399673
 20
815.647705
 10
202.206772
 20
816.128906
 10
202.017151
 20
816.584961
 10
201.83284
 20
817.012756
 10
201.65593
 20
817.40918
 10
201.488449
 20
817.771057
 10
201.332916
 20
818.094788
 10
201.193741
 20
818.374084
 10
201.075729
 20
818.602234
 10
200.983795
 20
818.772522
 10
200.923645
 20
818.878906
 10
200.901855
 20
818.916138
  0
LINE
  5
A1
330
7B
100
AcDbEntity
  8
0
  6
Continuous
 62
     0
370
    30
100
AcDbLine
 10
232.946972
 20
870.989162
 30
0.0
 11
232.941549
 21
901.383277
 31
0.0
  0
LWPOLYLINE
  5
A2
330
7B
100
AcDbEntity
  8
0
  6
Continuous
 62
     0
370
    30
100
AcDbPolyline
 90
       47
 70
     0
 43
0.0
 10
200.13208
 20
870.989624
 10
200.131241
 20
869.956543
 10
200.129501
 20
868.923706
 10
200.128189
 20
867.891724
 10
200.126984
 20
866.860901
 10
200.123886
 20
865.831299
 10
200.116898
 20
864.802856
 10
200.103958
 20
863.775635
 10
200.08345
 20
862.75
 10
200.054474
 20
861.727112
 10
200.016129
 20
860.708313
 10
199.96759
 20
859.694763
 10
199.907974
 20
858.687744
 10
199.836548
 20
857.688599
 10
199.754059
 20
856.700684
 10
199.662125
 20
855.728394
 10
199.562332
 20
854.776062
 10
199.456284
 20
853.848145
 10
199.345276
 20
852.948853
 10
199.229431
 20
852.08136
 10
199.108627
 20
851.248779
 10
198.982742
 20
850.454224
 10
198.851807
 20
849.699768
 10
198.716415
 20
848.984497
 10
198.577225
 20
848.306763
 10
198.434906
 20
847.664978
 10
198.290146
 20
847.057434
 10
198.143631
 20
846.482544
 10
197.996033
 20
845.93866
 10
197.848022
 20
845.424194
 10
197.700058
 20
844.936951
 10
197.552032
 20
844.47345
 10
197.403763
 20
844.029724
 10
197.255035
 20
843.602112
 10
197.105652
 20
843.186768
 10
196.955414
 20
842.779907
 10
196.804108
 20
842.377686
 10
196.650375
 20
841.972595
 10
196.491623
 20
841.553284
 10
196.32515
 20
841.108032
 10
196.148254
 20
840.625244
 10
195.95813
 20
840.087524
 10
195.754074
 20
839.473816
 10
195.541687
 20
838.784912
 10
195.329468
 20
838.026245
 10
195.139359
 20
837.212769
 10
194.966705
 20
836.365723
  0
LWPOLYLINE
  5
A3
330
7B
100
AcDbEntity
  8
0
  6
Continuous
 62
     0
370
    30
100
AcDbPolyline
 90
       47
 70
     0
 43
0.0
 10
232.947067
 20
870.989624
 10
232.947906
 20
869.956543
 10
232.949646
 20
868.923706
 10
232.950943
 20
867.891724
 10
232.952164
 20
866.860901
 10
232.955246
 20
865.831299
 10
232.96225
 20
864.802856
 10
232.975174
 20
863.775635
 10
232.995682
 20
862.75
 10
233.024658
 20
861.727173
 10
233.062988
 20
860.708374
 10
233.111526
 20
859.694824
 10
233.171158
 20
858.687744
 10
233.242569
 20
857.68866
 10
233.325058
 20
856.700745
 10
233.416992
 20
855.728394
 10
233.5168
 20
854.776123
 10
233.622833
 20
853.848206
 10
233.733826
 20
852.948914
 10
233.84967
 20
852.081421
 10
233.970474
 20
851.24884
 10
234.096359
 20
850.454285
 10
234.227295
 20
849.699829
 10
234.362686
 20
848.984558
 10
234.501892
 20
848.306824
 10
234.644196
 20
847.665039
 10
234.78894
 20
847.057434
 10
234.935455
 20
846.482544
 10
235.083054
 20
845.938721
 10
235.231064
 20
845.424255
 10
235.379028
 20
844.937012
 10
235.527054
 20
844.47345
 10
235.675339
 20
844.029724
 10
235.824066
 20
843.602112
 10
235.97345
 20
843.186768
 10
236.123688
 20
842.779968
 10
236.274979
 20
842.377686
 10
236.428711
 20
841.972656
 10
236.587463
 20
841.553284
 10
236.753937
 20
841.108093
 10
236.930817
 20
840.625305
 10
237.120941
 20
840.087585
 10
237.325012
 20
839.473938
 10
237.537399
 20
838.785034
 10
237.749557
 20
838.026428
 10
237.939651
 20
837.212891
 10
238.112488
 20
836.365173
  0
LINE
  5
A4
330
7B
100
AcDbEntity
  8
0
  6
Continuous
 62
     0
370
    30
100
AcDbLine
 10
189.539618
 20
905.583321
 30
0.0
 11
243.539618
 21
905.583321
 31
0.0
  0
LINE
  5
A5
330
7B
100
AcDbEntity
  8
0
  6
Continuous
 62
     0
370
     0
100
AcDbLine
 10
189.039618
 20
901.883321
 30
0.0
 11
244.039618
 21
901.883321
 31
0.0
  0
LINE
  5
A6
330
7B
100
AcDbEntity
  8
0
  6
Continuous
 62
     0
370
    30
100
AcDbLine
 10
244.039618
 20
901.883321
 30
0.0
 11
244.039618
 21
905.083321
 31
0.0
  0
LINE
  5
A7
330
7B
100
AcDbEntity
  8
0
  6
Continuous
 62
     0
370
     0
100
AcDbLine
 10
189.039618
 20
905.083321
 30
0.0
 11
244.039618
 21
905.083321
 31
0.0
  0
LINE
  5
A8
330
7B
100
AcDbEntity
  8
0
  6
Continuous
 62
     0
370
    30
100
AcDbLine
 10
189.539618
 20
901.383321
 30
0.0
 11
243.539618
 21
901.383321
 31
0.0
  0
ARC
  5
A9
330
7B
100
AcDbEntity
  8
0
  6
Continuous
 62
     0
370
    30
100
AcDbCircle
 10
243.539618
 20
901.883321
 30
0.0
 40
0.5
100
AcDbArc
 50
270.0
 51
0.0
  0
ARC
  5
AA
330
7B
100
AcDbEntity
  8
0
  6
Continuous
 62
     0
370
    30
100
AcDbCircle
 10
243.539618
 20
905.083321
 30
0.0
 40
0.5
100
AcDbArc
 50
0.0
 51
90.0
  0
LINE
  5
AB
330
7B
100
AcDbEntity
  8
0
  6
Continuous
 62
     0
370
    30
100
AcDbLine
 10
189.039618
 20
901.883321
 30
0.0
 11
189.039618
 21
905.083321
 31
0.0
  0
ELLIPSE
  5
AC
330
7B
100
AcDbEntity
  8
0
  6
Continuous
 62
     0
370
    30
100
AcDbEllipse
 10
216.539547
 20
827.89462
 30
0.0
 11
-21.75
 21
-2.556989664531402E-14
 31
0.0
210
0.0
220
0.0
230
1.0
 40
0.984808
 41
0.067483410744976
 42
0.9598807108987089
  0
ELLIPSE
  5
AD
330
7B
100
AcDbEntity
  8
0
  6
Continuous
 62
     0
370
    30
100
AcDbEllipse
 10
216.539547
 20
827.89462
 30
0.0
 11
-21.75
 21
-2.556989664531402E-14
 31
0.0
210
0.0
220
0.0
230
1.0
 40
0.984808
 41
2.181710780266657
 42
3.074104534121808
  0
ELLIPSE
  5
AE
330
7B
100
AcDbEntity
  8
0
  6
Continuous
 62
     0
370
     0
100
AcDbEllipse
 10
216.539547
 20
823.966014
 30
0.0
 11
-20.22127512455449
 21
-2.377268574580771E-14
 31
0.0
210
0.0
220
0.0
230
1.0
 40
0.984808
 41
0.3037088769975247
 42
0.9368901795008195
  0
ELLIPSE
  5
AF
330
7B
100
AcDbEntity
  8
0
  6
Continuous
 62
     0
370
     0
100
AcDbEllipse
 10
216.539547
 20
823.966014
 30
0.0
 11
-20.22127512455449
 21
-2.377268574580771E-14
 31
0.0
210
0.0
220
0.0
230
1.0
 40
0.984808
 41
2.204700997621877
 42
2.837883776592255
  0
ARC
  5
B0
330
7B
100
AcDbEntity
  8
0
  6
Continuous
 62
     0
370
    30
100
AcDbCircle
 10
213.48323
 20
827.609056
 30
0.0
 40
24.7950178134307
100
AcDbArc
 50
310.065763
 51
357.72816
  0
ARC
  5
B1
330
7B
100
AcDbEntity
  8
0
  6
Continuous
 62
     0
370
    30
100
AcDbCircle
 10
219.595856
 20
827.609051
 30
0.0
 40
24.79500932503594
100
AcDbArc
 50
182.272069
 51
229.934243
  0
LINE
  5
B2
330
7B
100
AcDbEntity
  8
0
  6
Continuous
 62
     0
370
     0
100
AcDbLine
 10
244.440299
 20
892.045909
 30
0.0
 11
245.124339
 21
893.925295
 31
0.0
  0
LINE
  5
B3
330
7B
100
AcDbEntity
  8
0
  6
Continuous
 62
     0
370
     0
100
AcDbLine
 10
243.756259
 20
890.166524
 30
0.0
 11
244.440299
 21
892.045909
 31
0.0
  0
LINE
  5
B4
330
7B
100
AcDbEntity
  8
0
  6
Continuous
 62
     0
370
    30
100
AcDbLine
 10
258.501486
 20
886.821638
 30
0.0
 11
258.535688
 21
886.915607
 31
0.0
  0
LINE
  5
B5
330
7B
100
AcDbEntity
  8
0
  6
Continuous
 62
     0
370
    30
100
AcDbLine
 10
258.569891
 20
887.009576
 30
0.0
 11
258.535688
 21
886.915607
 31
0.0
  0
LINE
  5
B6
330
7B
100
AcDbEntity
  8
0
  6
Continuous
 62
     0
370
     0
100
AcDbLine
 10
256.750273
 20
887.565445
 30
0.0
 11
257.434313
 21
889.444831
 31
0.0
  0
LINE
  5
B7
330
7B
100
AcDbEntity
  8
0
  6
Continuous
 62
     0
370
     0
100
AcDbLine
 10
256.066232
 20
885.68606
 30
0.0
 11
256.750273
 21
887.565445
 31
0.0
  0
ARC
  5
B8
330
7B
100
AcDbEntity
  8
0
  6
Continuous
 62
     0
370
    30
100
AcDbCircle
 10
256.716062
 20
887.471495
 30
0.0
 40
1.900015022935189
100
AcDbArc
 50
250.000454
 51
339.999546
  0
ARC
  5
B9
330
7B
100
AcDbEntity
  8
0
  6
Continuous
 62
     0
370
    30
100
AcDbCircle
 10
256.784455
 20
887.659406
 30
0.0
 40
1.900015022935156
100
AcDbArc
 50
340.000454
 51
69.999546
  0
LINE
  5
BA
330
7B
100
AcDbEntity
  8
0
  6
Continuous
 62
     0
370
    30
100
AcDbLine
 10
257.434313
 20
889.444831
 30
0.0
 11
245.124339
 21
893.925295
 31
0.0
  0
LINE
  5
BB
330
7B
100
AcDbEntity
  8
0
  6
Continuous
 62
     0
370
    30
100
AcDbLine
 10
256.066232
 20
885.68606
 30
0.0
 11
243.756259
 21
890.166524
 31
0.0
  0
ARC
  5
BC
330
7B
100
AcDbEntity
  8
0
  6
Continuous
 62
     0
370
    30
100
AcDbCircle
 10
247.857035
 20
901.440409
 30
0.0
 40
7.996535109204132
100
AcDbArc
 50
179.982615
 51
250.017385
  0
ARC
  5
BD
330
7B
100
AcDbEntity
  8
0
  6
Continuous
 62
     0
370
    30
100
AcDbCircle
 10
247.86184
 20
901.443773
 30
0.0
 40
12.00133944754255
100
AcDbArc
 50
180.004477
 51
249.995523
  0
LINE
  5
BE
330
7B
100
AcDbEntity
  8
0
  6
Continuous
 62
     0
370
     0
100
AcDbLine
 10
227.682854
 20
664.662695
 30
0.0
 11
205.682854
 21
664.662695
 31
0.0
  0
ARC
  5
BF
330
7B
100
AcDbEntity
  8
0
  6
Continuous
 62
     0
370
    30
100
AcDbCircle
 10
136.682854
 20
664.662695
 30
0.0
 40
69.0
100
AcDbArc
 50
198.0
 51
0.0
  0
LINE
  5
C0
330
7B
100
AcDbEntity
  8
0
  6
Continuous
 62
     0
370
     0
100
AcDbLine
 10
50.136712
 20
636.542148
 30
0.0
 11
71.059955
 21
643.340522
 31
0.0
  0
LINE
  5
C1
330
7B
100
AcDbEntity
  8
0
  6
Continuous
 62
     0
370
    30
100
AcDbLine
 10
71.059955
 20
643.340522
 30
0.0
 11
64.652097
 21
663.061882
 31
0.0
  0
LINE
  5
C2
330
7B
100
AcDbEntity
  8
0
  6
Continuous
 62
     0
370
    30
100
AcDbLine
 10
43.728853
 20
656.263508
 30
0.0
 11
64.652097
 21
663.061882
 31
0.0
  0
LINE
  5
C3
330
7B
100
AcDbEntity
  8
0
  6
Continuous
 62
     0
370
    30
100
AcDbLine
 10
205.682854
 20
789.662695
 30
0.0
 11
205.682854
 21
664.662695
 31
0.0
  0
LINE
  5
C4
330
7B
100
AcDbEntity
  8
0
  6
Continuous
 62
     0
370
    30
100
AcDbLine
 10
227.682854
 20
789.662695
 30
0.0
 11
227.682854
 21
664.662695
 31
0.0
  0
LINE
  5
C5
330
7B
100
AcDbEntity
  8
0
  6
Continuous
 62
     0
370
    30
100
AcDbLine
 10
50.136712
 20
636.542148
 30
0.0
 11
43.728853
 21
656.263508
 31
0.0
  0
ARC
  5
C6
330
7B
100
AcDbEntity
  8
0
  6
Continuous
 62
     0
370
    30
100
AcDbCircle
 10
136.682611
 20
664.664232
 30
0.0
 40
91.00024358178835
100
AcDbArc
 50
198.000968
 51
359.999032
  0
ENDBLK
  5
C8
330
7B
100
AcDbEntity
  8
0
100
AcDbBlockEnd
  0
BLOCK
  5
106
330
CA
100
AcDbEntity
  8
0
100
AcDbBlockBegin
  2
b
 70
     0
 10
13.245436
 20
94.50956
 30
0.0
  3
b
  1

  0
LINE
  5
CB
330
CA
100
AcDbEntity
  8
0
  6
Continuous
 62
     0
370
    30
100
AcDbLine
 10
213.119609
 20
138.218391
 30
0.0
 11
213.119495
 21
136.263906
 31
0.0
  0
LINE
  5
CC
330
CA
100
AcDbEntity
  8
0
  6
Continuous
 62
     0
370
    30
100
AcDbLine
 10
220.000493
 20
136.258767
 30
0.0
 11
220.00038
 21
138.217273
 31
0.0
  0
LINE
  5
CD
330
CA
100
AcDbEntity
  8
0
  6
Continuous
 62
     0
370
     0
100
AcDbLine
 10
220.00038
 20
138.217273
 30
0.0
 11
216.539518
 21
138.263958
 31
0.0
  0
LINE
  5
CE
330
CA
100
AcDbEntity
  8
0
  6
Continuous
 62
     0
370
     0
100
AcDbLine
 10
216.539518
 20
138.263958
 30
0.0
 11
213.119609
 21
138.218391
 31
0.0
  0
LINE
  5
CF
330
CA
100
AcDbEntity
  8
0
  6
Continuous
 62
     0
370
     0
100
AcDbLine
 10
238.374431
 20
134.474501
 30
0.0
 11
237.846139
 21
126.363676
 31
0.0
  0
LWPOLYLINE
  5
D0
330
CA
100
AcDbEntity
  8
0
  6
Continuous
 62
     0
370
     0
100
AcDbPolyline
 90
       29
 70
     0
 43
0.0
 10
220.000381
 20
138.217499
 10
221.082748
 20
138.186356
 10
222.154602
 20
138.141296
 10
223.212479
 20
138.085159
 10
224.252823
 20
138.021133
 10
225.273148
 20
137.949402
 10
226.271255
 20
137.869446
 10
227.244705
 20
137.780914
 10
228.190872
 20
137.683578
 10
229.107315
 20
137.57753
 10
229.99205
 20
137.463409
 10
230.843109
 20
137.341827
 10
231.658325
 20
137.21312
 10
232.435547
 20
137.077621
 10
233.172592
 20
136.935608
 10
233.867554
 20
136.787384
 10
234.519058
 20
136.633224
 10
235.125809
 20
136.47345
 10
235.686478
 20
136.30835
 10
236.199677
 20
136.138504
 10
236.664017
 20
135.964691
 10
237.078064
 20
135.787643
 10
237.440338
 20
135.607971
 10
237.749039
 20
135.425797
 10
238.00177
 20
135.240173
 10
238.195297
 20
135.049118
 10
238.325607
 20
134.854584
 10
238.387924
 20
134.661728
 10
238.374435
 20
134.474503
  0
LWPOLYLINE
  5
D1
330
CA
100
AcDbEntity
  8
0
  6
Continuous
 62
     0
370
     0
100
AcDbPolyline
 90
       29
 70
     0
 43
0.0
 10
213.119614
 20
138.218414
 10
212.03537
 20
138.187729
 10
210.961578
 20
138.143051
 10
209.901672
 20
138.087173
 10
208.859283
 20
138.023315
 10
207.836884
 20
137.951721
 10
206.8367
 20
137.871902
 10
205.861145
 20
137.783493
 10
204.912888
 20
137.686279
 10
203.994385
 20
137.580292
 10
203.10762
 20
137.466187
 10
202.254578
 20
137.344604
 10
201.437424
 20
137.215881
 10
200.658325
 20
137.080322
 10
199.919495
 20
136.938232
 10
199.222824
 20
136.789902
 10
198.569702
 20
136.635635
 10
197.961441
 20
136.475708
 10
197.399384
 20
136.310455
 10
196.884888
 20
136.140427
 10
196.419388
 20
135.9664
 10
196.004288
 20
135.789139
 10
195.641129
 20
135.609238
 10
195.33165
 20
135.426834
 10
195.078278
 20
135.240967
 10
194.884262
 20
135.049667
 10
194.753632
 20
134.854858
 10
194.691177
 20
134.661743
 10
194.704666
 20
134.474503
  0
LINE
  5
D2
330
CA
100
AcDbEntity
  8
0
  6
Continuous
 62
     0
370
     0
100
AcDbLine
 10
194.704666
 20
134.474501
 30
0.0
 11
195.232976
 21
126.363529
 31
0.0
  0
LINE
  5
D3
330
CA
100
AcDbEntity
  8
0
  6
Continuous
 62
     0
370
     0
100
AcDbLine
 10
216.539518
 20
138.263958
 30
0.0
 11
216.539518
 21
159.953472
 31
0.0
  0
LWPOLYLINE
  5
D4
330
CA
100
AcDbEntity
  8
0
  6
Continuous
 62
     0
370
     0
100
AcDbPolyline
 90
       29
 70
     0
 43
0.0
 10
216.53952
 20
159.953476
 10
215.316345
 20
159.947617
 10
214.095215
 20
159.929916
 10
212.880081
 20
159.900436
 10
211.676041
 20
159.859283
 10
210.48793
 20
159.80661
 10
209.319305
 20
159.742615
 10
208.173447
 20
159.66748
 10
207.053574
 20
159.581451
 10
205.962997
 20
159.484741
 10
204.905045
 20
159.37767
 10
203.883102
 20
159.26059
 10
202.900513
 20
159.133804
 10
201.960587
 20
158.997711
 10
201.066223
 20
158.852707
 10
200.2202
 20
158.699265
 10
199.425369
 20
158.537842
 10
198.684433
 20
158.368881
 10
197.999695
 20
158.192947
 10
197.373428
 20
158.01059
 10
196.807846
 20
157.822372
 10
196.305084
 20
157.62883
 10
195.866898
 20
157.430405
 10
195.494965
 20
157.227524
 10
195.190948
 20
157.02063
 10
194.956512
 20
156.810211
 10
194.793411
 20
156.597076
 10
194.703415
 20
156.382126
 10
194.68898
 20
156.159058
  0
LWPOLYLINE
  5
D5
330
CA
100
AcDbEntity
  8
0
  6
Continuous
 62
     0
370
     0
100
AcDbPolyline
 90
       29
 70
     0
 43
0.0
 10
216.539597
 20
159.953476
 10
217.762772
 20
159.947632
 10
218.983902
 20
159.929932
 10
220.199036
 20
159.900452
 10
221.403076
 20
159.859299
 10
222.591187
 20
159.806625
 10
223.759811
 20
159.74263
 10
224.90567
 20
159.667511
 10
226.025528
 20
159.581482
 10
227.116119
 20
159.484772
 10
228.174072
 20
159.377716
 10
229.196014
 20
159.26062
 10
230.178589
 20
159.13385
 10
231.118515
 20
158.997742
 10
232.012894
 20
158.852753
 10
232.858902
 20
158.69931
 10
233.653732
 20
158.537888
 10
234.394684
 20
158.368927
 10
235.079407
 20
158.193008
 10
235.705673
 20
158.010651
 10
236.271255
 20
157.822433
 10
236.774017
 20
157.628876
 10
237.212204
 20
157.43045
 10
237.584137
 20
157.227585
 10
237.888153
 20
157.020691
 10
238.122589
 20
156.810272
 10
238.28569
 20
156.597137
 10
238.375687
 20
156.382187
 10
238.390106
 20
156.159119
  0
LINE
  5
D6
330
CA
100
AcDbEntity
  8
0
  6
Continuous
 62
     0
370
     0
100
AcDbLine
 10
216.539786
 20
159.953472
 30
0.0
 11
216.53976
 21
160.779824
 31
0.0
  0
LWPOLYLINE
  5
D7
330
CA
100
AcDbEntity
  8
0
  6
Continuous
 62
     0
370
    30
100
AcDbPolyline
 90
       40
 70
     0
 43
0.0
 10
216.539352
 20
160.779709
 10
215.693558
 20
160.776733
 10
214.848312
 20
160.767853
 10
214.005173
 20
160.753113
 10
213.16568
 20
160.732529
 10
212.331406
 20
160.706131
 10
211.503876
 20
160.67392
 10
210.684479
 20
160.635956
 10
209.87442
 20
160.592331
 10
209.07489
 20
160.543106
 10
208.287125
 20
160.488373
 10
207.512299
 20
160.428207
 10
206.751648
 20
160.362686
 10
206.006348
 20
160.291901
 10
205.277542
 20
160.215927
 10
204.566238
 20
160.134888
 10
203.873459
 20
160.048889
 10
203.200211
 20
159.958038
 10
202.547501
 20
159.862473
 10
201.916351
 20
159.762268
 10
201.30777
 20
159.657562
 10
200.722656
 20
159.548462
 10
200.161697
 20
159.435043
 10
199.62558
 20
159.317398
 10
199.11499
 20
159.195633
 10
198.630554
 20
159.069794
 10
198.172668
 20
158.939789
 10
197.741455
 20
158.805359
 10
197.337082
 20
158.666245
 10
196.959686
 20
158.522186
 10
196.608963
 20
158.372513
 10
196.283768
 20
158.215775
 10
195.982864
 20
158.05043
 10
195.705109
 20
157.874603
 10
195.450562
 20
157.68251
 10
195.220108
 20
157.465866
 10
195.014694
 20
157.216293
 10
194.843506
 20
156.926834
 10
194.730682
 20
156.593964
 10
194.68512
 20
156.229996
  0
LWPOLYLINE
  5
D8
330
CA
100
AcDbEntity
  8
0
  6
Continuous
 62
     0
370
    30
100
AcDbPolyline
 90
       40
 70
     0
 43
0.0
 10
216.539764
 20
160.779709
 10
217.385559
 20
160.776733
 10
218.230804
 20
160.767868
 10
219.073944
 20
160.753128
 10
219.913437
 20
160.732544
 10
220.747711
 20
160.706131
 10
221.575241
 20
160.673935
 10
222.394638
 20
160.635971
 10
223.204697
 20
160.592346
 10
224.004211
 20
160.543121
 10
224.791977
 20
160.488403
 10
225.566803
 20
160.428238
 10
226.327454
 20
160.362717
 10
227.072754
 20
160.291931
 10
227.801575
 20
160.215958
 10
228.512863
 20
160.134918
 10
229.205643
 20
160.04892
 10
229.878891
 20
159.958084
 10
230.531601
 20
159.862503
 10
231.16275
 20
159.762314
 10
231.771332
 20
159.657608
 10
232.356445
 20
159.548508
 10
232.917404
 20
159.435089
 10
233.453506
 20
159.317459
 10
233.964111
 20
159.195679
 10
234.448532
 20
159.069855
 10
234.906433
 20
158.93985
 10
235.337631
 20
158.80542
 10
235.742004
 20
158.666306
 10
236.119415
 20
158.522247
 10
236.470123
 20
158.372574
 10
236.795319
 20
158.215836
 10
237.096222
 20
158.050491
 10
237.373993
 20
157.874664
 10
237.628525
 20
157.682587
 10
237.858978
 20
157.465927
 10
238.064407
 20
157.216354
 10
238.23558
 20
156.926895
 10
238.348419
 20
156.594025
 10
238.393967
 20
156.230057
  0
LINE
  5
D9
330
CA
100
AcDbEntity
  8
0
  6
Continuous
 62
     0
370
    30
100
AcDbLine
 10
238.394279
 20
156.231593
 30
0.0
 11
238.392564
 21
134.594949
 31
0.0
  0
LINE
  5
DA
330
CA
100
AcDbEntity
  8
0
  6
Continuous
 62
     0
370
    30
100
AcDbLine
 10
194.684814
 20
156.231529
 30
0.0
 11
194.686534
 21
134.594947
 31
0.0
  0
LINE
  5
DB
330
CA
100
AcDbEntity
  8
0
  6
Continuous
 62
     0
370
    30
100
AcDbLine
 10
194.686619
 20
134.588736
 30
0.0
 11
195.235137
 21
126.366177
 31
0.0
  0
LINE
  5
DC
330
CA
100
AcDbEntity
  8
0
  6
Continuous
 62
     0
370
    30
100
AcDbLine
 10
238.392479
 20
134.588744
 30
0.0
 11
237.843967
 21
126.366336
 31
0.0
  0
ARC
  5
DD
330
CA
100
AcDbEntity
  8
0
  6
Continuous
 62
     0
370
     0
100
AcDbCircle
 10
216.539618
 20
108.977409
 30
0.0
 40
27.0
100
AcDbArc
 50
0.0
 51
180.0
  0
ARC
  5
DE
330
CA
100
AcDbEntity
  8
0
  6
Continuous
 62
     0
370
     0
100
AcDbCircle
 10
216.539618
 20
108.977409
 30
0.0
 40
27.0
100
AcDbArc
 50
180.0
 51
360.0
  0
ARC
  5
DF
330
CA
100
AcDbEntity
  8
0
  6
Continuous
 62
     0
370
    30
100
AcDbCircle
 10
216.539618
 20
108.977409
 30
0.0
 40
27.5
100
AcDbArc
 50
180.0
 51
360.0
  0
ARC
  5
E0
330
CA
100
AcDbEntity
  8
0
  6
Continuous
 62
     0
370
    30
100
AcDbCircle
 10
216.539618
 20
108.977409
 30
0.0
 40
27.5
100
AcDbArc
 50
0.0
 51
180.0
  0
ELLIPSE
  5
E1
330
CA
100
AcDbEntity
  8
0
  6
Continuous
 62
     0
370
    30
100
AcDbEllipse
 10
216.539547
 20
167.291011
 30
0.0
 11
16.6397728621497
 21
0.0
 31
0.0
210
0.0
220
0.0
230
1.0
 40
0.173648
 41
0.5810773013295476
 42
2.560860524905271
  0
ARC
  5
E2
330
CA
100
AcDbEntity
  8
0
  6
Continuous
 62
     0
370
    30
100
AcDbCircle
 10
216.341691
 20
155.782104
 30
0.0
 40
20.49452899515506
100
AcDbArc
 50
6.976809
 51
30.884682
  0
ARC
  5
E3
330
CA
100
AcDbEntity
  8
0
  6
Continuous
 62
     0
370
    30
100
AcDbCircle
 10
216.737378
 20
155.782112
 30
0.0
 40
20.49450429325328
100
AcDbArc
 50
149.105961
 51
173.023389
  0
ELLIPSE
  5
E4
330
CA
100
AcDbEntity
  8
0
  6
Continuous
 62
     0
370
    30
100
AcDbEllipse
 10
216.539547
 20
159.462173
 30
0.0
 11
21.75
 21
-4.508652242400848E-15
 31
0.0
210
0.0
220
0.0
230
1.0
 40
0.173648
 41
3.141671890429821
 42
3.497465812545973
  0
ELLIPSE
  5
E5
330
CA
100
AcDbEntity
  8
0
  6
Continuous
 62
     0
370
    30
100
AcDbEllipse
 10
216.539547
 20
159.462173
 30
0.0
 11
21.75
 21
-4.508652242400848E-15
 31
0.0
210
0.0
220
0.0
230
1.0
 40
0.173648
 41
5.927320178758849
 42
6.283264544019623
  0
LINE
  5
E6
330
CA
100
AcDbEntity
  8
0
  6
Continuous
 62
     0
370
    30
100
AcDbLine
 10
237.139546
 20
159.462456
 30
0.0
 11
238.289546
 21
159.462472
 31
0.0
  0
ELLIPSE
  5
E7
330
CA
100
AcDbEntity
  8
0
  6
Continuous
 62
     0
370
    30
100
AcDbEllipse
 10
216.539547
 20
159.462173
 30
0.0
 11
-20.60000000000001
 21
4.270547221903326E-15
 31
0.0
210
0.0
220
0.0
230
-1.0
 40
0.173648
 41
6.060573726588988
 42
6.283106070339555
  0
ELLIPSE
  5
E8
330
CA
100
AcDbEntity
  8
0
  6
Continuous
 62
     0
370
    30
100
AcDbEllipse
 10
216.539547
 20
159.462173
 30
0.0
 11
-20.60000000000001
 21
4.270547221903326E-15
 31
0.0
210
0.0
220
0.0
230
-1.0
 40
0.173648
 41
3.141513416749766
 42
3.364204234180375
  0
LINE
  5
E9
330
CA
100
AcDbEntity
  8
0
  6
Continuous
 62
     0
370
    30
100
AcDbLine
 10
194.789547
 20
159.461873
 30
0.0
 11
195.939547
 21
159.461889
 31
0.0
  0
LWPOLYLINE
  5
EA
330
CA
100
AcDbEntity
  8
0
  6
Continuous
 62
     0
370
    30
100
AcDbPolyline
 90
       51
 70
     0
 43
0.0
 10
238.289551
 20
159.462479
 10
238.249893
 20
160.280746
 10
238.13121
 20
161.096527
 10
237.933609
 20
161.907242
 10
237.657379
 20
162.710388
 10
237.303055
 20
163.503357
 10
236.87117
 20
164.283554
 10
236.36232
 20
165.048355
 10
235.77739
 20
165.79509
 10
235.117615
 20
166.52095
 10
234.384216
 20
167.22316
 10
233.578598
 20
167.898956
 10
232.702911
 20
168.545425
 10
231.759628
 20
169.159683
 10
230.751205
 20
169.738785
 10
229.680283
 20
170.279831
 10
228.550522
 20
170.780029
 10
227.366013
 20
171.236572
 10
226.130966
 20
171.646744
 10
224.850388
 20
172.008026
 10
223.529587
 20
172.318039
 10
222.174454
 20
172.574738
 10
220.791428
 20
172.776489
 10
219.387039
 20
172.921677
 10
217.96814
 20
173.009232
 10
216.541992
 20
173.038666
 10
215.11586
 20
173.009552
 10
213.696945
 20
172.922241
 10
212.292404
 20
172.77742
 10
210.909286
 20
172.575974
 10
209.554092
 20
172.319473
 10
208.233139
 20
172.009735
 10
206.95253
 20
171.648682
 10
205.717361
 20
171.238739
 10
204.53244
 20
170.782486
 10
203.402496
 20
170.282532
 10
202.331451
 20
169.741638
 10
201.32251
 20
169.16272
 10
200.378845
 20
168.548645
 10
199.503128
 20
167.902344
 10
198.697433
 20
167.226685
 10
197.963776
 20
166.524582
 10
197.303741
 20
165.798828
 10
196.718567
 20
165.052216
 10
196.209457
 20
164.287506
 10
195.777267
 20
163.50737
 10
195.422653
 20
162.714447
 10
195.146225
 20
161.911362
 10
194.94841
 20
161.100693
 10
194.829453
 20
160.284897
 10
194.789551
 20
159.461868
  0
LWPOLYLINE
  5
EB
330
CA
100
AcDbEntity
  8
0
  6
Continuous
 62
     0
370
    30
100
AcDbPolyline
 90
       26
 70
     0
 43
0.0
 10
216.537949
 20
172.228241
 10
215.194016
 20
172.201004
 10
213.856506
 20
172.119522
 10
212.53244
 20
171.984406
 10
211.22821
 20
171.796524
 10
209.949875
 20
171.557114
 10
208.703003
 20
171.26799
 10
207.493179
 20
170.931015
 10
206.325806
 20
170.54808
 10
205.205383
 20
170.12149
 10
204.135834
 20
169.653793
 10
203.121078
 20
169.147491
 10
202.164703
 20
168.605179
 10
201.269363
 20
168.029556
 10
200.437683
 20
167.423309
 10
199.672058
 20
166.789154
 10
198.974197
 20
166.12973
 10
198.345657
 20
165.447693
 10
197.787979
 20
164.745712
 10
197.302292
 20
164.026352
 10
196.889481
 20
163.292145
 10
196.550293
 20
162.545654
 10
196.285355
 20
161.789368
 10
196.095062
 20
161.025696
 10
195.979736
 20
160.257034
 10
195.939545
 20
159.461884
  0
LWPOLYLINE
  5
EC
330
CA
100
AcDbEntity
  8
0
  6
Continuous
 62
     0
370
    30
100
AcDbPolyline
 90
       26
 70
     0
 43
0.0
 10
216.537949
 20
172.228241
 10
217.881882
 20
172.20105
 10
219.219406
 20
172.119598
 10
220.543518
 20
171.984512
 10
221.847794
 20
171.796661
 10
223.12619
 20
171.557297
 10
224.373123
 20
171.268219
 10
225.583054
 20
170.931274
 10
226.750504
 20
170.54837
 10
227.871048
 20
170.121811
 10
228.940704
 20
169.654129
 10
229.955582
 20
169.147858
 10
230.912109
 20
168.605576
 10
231.807571
 20
168.029968
 10
232.639404
 20
167.423752
 10
233.405197
 20
166.789612
 10
234.103226
 20
166.130219
 10
234.731934
 20
165.448196
 10
235.28978
 20
164.746231
 10
235.77565
 20
164.026886
 10
236.18866
 20
163.292694
 10
236.52803
 20
162.546204
 10
236.793152
 20
161.789932
 10
236.983643
 20
161.02626
 10
237.099152
 20
160.257599
 10
237.139542
 20
159.462463
  0
ARC
  5
ED
330
CA
100
AcDbEntity
  8
0
  6
Continuous
 62
     0
370
    30
100
AcDbCircle
 10
216.463017
 20
180.795138
 30
0.0
 40
2.175043704560557
100
AcDbArc
 50
88.026485
 51
271.972803
  0
ARC
  5
EE
330
CA
100
AcDbEntity
  8
0
  6
Continuous
 62
     0
370
    30
100
AcDbCircle
 10
216.612898
 20
180.795137
 30
0.0
 40
2.175047205033674
100
AcDbArc
 50
268.02381
 51
91.975477
  0
ARC
  5
EF
330
CA
100
AcDbEntity
  8
0
  6
Continuous
 62
     0
370
    30
100
AcDbCircle
 10
216.568225
 20
180.412471
 30
0.0
 40
2.224136191936805
100
AcDbArc
 50
5.449459
 51
90.776789
  0
ARC
  5
F0
330
CA
100
AcDbEntity
  8
0
  6
Continuous
 62
     0
370
    30
100
AcDbCircle
 10
216.507977
 20
180.412394
 30
0.0
 40
2.224212967885999
100
AcDbArc
 50
89.224737
 51
174.580174
  0
LINE
  5
F1
330
CA
100
AcDbEntity
  8
0
  6
Continuous
 62
     0
370
     0
100
AcDbLine
 10
218.215518
 20
181.909577
 30
0.0
 11
214.860528
 21
181.909438
 31
0.0
  0
ELLIPSE
  5
F2
330
CA
100
AcDbEntity
  8
0
  6
Continuous
 62
     0
370
     0
100
AcDbEllipse
 10
216.539547
 20
181.742456
 30
0.0
 11
20.22127512455449
 21
-4.191756203886303E-15
 31
0.0
210
0.0
220
0.0
230
1.0
 40
0.173648
 41
0.0239409774879817
 42
3.117655433707468
  0
ELLIPSE
  5
F3
330
CA
100
AcDbEntity
  8
0
  6
Continuous
 62
     0
370
     0
100
AcDbEllipse
 10
216.539547
 20
182.814791
 30
0.0
 11
19.2378900294556
 21
-3.987906023924869E-15
 31
0.0
210
0.0
220
0.0
230
1.0
 40
0.173648
 41
0.002814219954133
 42
3.138778433635662
  0
ARC
  5
F4
330
CA
100
AcDbEntity
  8
0
  6
Continuous
 62
     0
370
    30
100
AcDbCircle
 10
358.514668
 20
159.463059
 30
0.0
 40
163.7251210233976
100
AcDbArc
 50
172.149348
 51
180.000029
  0
ARC
  5
F5
330
CA
100
AcDbEntity
  8
0
  6
Continuous
 62
     0
370
    30
100
AcDbCircle
 10
74.394717
 20
159.451306
 30
0.0
 40
163.8948445578335
100
AcDbArc
 50
0.083015
 51
7.846624
  0
ARC
  5
F6
330
CA
100
AcDbEntity
  8
0
  6
Continuous
 62
     0
370
    30
100
AcDbCircle
 10
216.539547
 20
104.233282
 30
0.0
 40
82.08007572780227
100
AcDbArc
 50
80.798197
 51
99.201905
  0
LINE
  5
F7
330
CA
100
AcDbEntity
  8
0
  6
Continuous
 62
     0
370
    30
100
AcDbLine
 10
243.965195
 20
106.955599
 30
0.0
 11
244.440299
 21
106.955599
 31
0.0
  0
ELLIPSE
  5
F8
330
CA
100
AcDbEntity
  8
0
  6
Continuous
 62
     0
370
     0
100
AcDbEllipse
 10
244.440299
 20
108.9556
 30
0.0
 11
3.181928846964988E-8
 21
-2.0
 31
0.0
210
0.0
220
0.0
230
1.0
 40
0.34202
 41
-0.0000000465166874
 42
3.141592607073105
  0
LINE
  5
F9
330
CA
100
AcDbEntity
  8
0
  6
Continuous
 62
     0
370
    30
100
AcDbLine
 10
244.440299
 20
106.9556
 30
0.0
 11
256.750273
 21
106.9556
 31
0.0
  0
ELLIPSE
  5
FA
330
CA
100
AcDbEntity
  8
0
  6
Continuous
 62
     0
370
     0
100
AcDbEllipse
 10
256.750273
 20
108.9556
 30
0.0
 11
3.181928846964988E-8
 21
-2.0
 31
0.0
210
0.0
220
0.0
230
1.0
 40
0.34202
 41
-0.0000000465166874
 42
3.141592607073105
  0
ARC
  5
FB
330
CA
100
AcDbEntity
  8
0
  6
Continuous
 62
     0
370
    30
100
AcDbCircle
 10
256.683288
 20
108.9556
 30
0.0
 40
2.001121420611344
100
AcDbArc
 50
271.918251
 51
88.081749
  0
LINE
  5
FC
330
CA
100
AcDbEntity
  8
0
  6
Continuous
 62
     0
370
    30
100
AcDbLine
 10
256.750273
 20
110.9556
 30
0.0
 11
244.440299
 21
110.9556
 31
0.0
  0
LINE
  5
FD
330
CA
100
AcDbEntity
  8
0
  6
Continuous
 62
     0
370
    30
100
AcDbLine
 10
244.440299
 20
110.9556
 30
0.0
 11
243.968376
 21
110.9556
 31
0.0
  0
ELLIPSE
  5
FE
330
CA
100
AcDbEntity
  8
0
  6
Continuous
 62
     0
370
     0
100
AcDbEllipse
 10
60.598333
 20
103.809336
 30
0.0
 11
1.479828021288837E-6
 21
-10.9999999999999
 31
0.0
210
0.0
220
0.0
230
1.0
 40
0.951057
 41
6.283185165726563
 42
7.853981492521457
  0
ELLIPSE
  5
FF
330
CA
100
AcDbEntity
  8
0
  6
Continuous
 62
     0
370
     0
100
AcDbEllipse
 10
60.598333
 20
103.809336
 30
0.0
 11
1.479828021288837E-6
 21
-10.9999999999999
 31
0.0
210
0.0
220
0.0
230
1.0
 40
0.951057
 41
1.570796185341873
 42
3.14159251213677
  0
ELLIPSE
  5
100
330
CA
100
AcDbEntity
  8
0
  6
Continuous
 62
     0
370
    30
100
AcDbEllipse
 10
54.190475
 20
103.809335
 30
0.0
 11
1.479828021288837E-6
 21
-10.9999999999999
 31
0.0
210
0.0
220
0.0
230
1.0
 40
0.951057
 41
4.712388838931665
 42
7.853981492521458
  0
ELLIPSE
  5
101
330
CA
100
AcDbEntity
  8
0
  6
Continuous
 62
     0
370
    30
100
AcDbEllipse
 10
54.190475
 20
103.809335
 30
0.0
 11
1.479828021288837E-6
 21
-10.9999999999999
 31
0.0
210
0.0
220
0.0
230
1.0
 40
0.951057
 41
1.570796185341873
 42
4.712388838931665
  0
LINE
  5
102
330
CA
100
AcDbEntity
  8
0
  6
Continuous
 62
     0
370
    30
100
AcDbLine
 10
60.598333
 20
114.809336
 30
0.0
 11
54.190475
 21
114.809335
 31
0.0
  0
LINE
  5
103
330
CA
100
AcDbEntity
  8
0
  6
Continuous
 62
     0
370
    30
100
AcDbLine
 10
60.598333
 20
92.809336
 30
0.0
 11
54.190475
 21
92.809335
 31
0.0
  0
LINE
  5
104
330
CA
100
AcDbEntity
  8
0
  6
Continuous
 62
     0
370
    30
100
AcDbLine
 10
60.598333
 20
114.809336
 30
0.0
 11
189.665117
 21
114.809338
 31
0.0
  0
LINE
  5
105
330
CA
100
AcDbEntity
  8
0
  6
Continuous
 62
     0
370
    30
100
AcDbLine
 10
60.598333
 20
92.809336
 30
0.0
 11
194.29455
 21
92.809337
 31
0.0
  0
ENDBLK
  5
107
330
CA
100
AcDbEntity
  8
0
100
AcDbBlockEnd
  0
BLOCK
  5
16C
330
109
100
AcDbEntity
  8
0
100
AcDbBlockBegin
  2
c
 70
     0
 10
13.245436
 20
94.50956
 30
0.0
  3
c
  1

  0
LINE
  5
10A
330
109
100
AcDbEntity
  8
0
  6
Continuous
 62
     0
370
    30
100
AcDbLine
 10
409.756143
 20
789.662694
 30
0.0
 11
398.453093
 21
789.662695
 31
0.0
  0
LINE
  5
10B
330
109
100
AcDbEntity
  8
0
  6
Continuous
 62
     0
370
    30
100
AcDbLine
 10
421.056126
 20
789.662694
 30
0.0
 11
409.756206
 21
789.662694
 31
0.0
  0
LWPOLYLINE
  5
10C
330
109
100
AcDbEntity
  8
0
  6
Continuous
 62
     0
370
    30
100
AcDbPolyline
 90
       30
 70
     0
 43
0.0
 10
375.415161
 20
853.852478
 10
376.266052
 20
854.007935
 10
377.111755
 20
854.189392
 10
377.954163
 20
854.386169
 10
378.800232
 20
854.566162
 10
379.649902
 20
854.728638
 10
380.496948
 20
854.903809
 10
381.332916
 20
855.125427
 10
382.150146
 20
855.408264
 10
382.940552
 20
855.758789
 10
383.696106
 20
856.178833
 10
384.411102
 20
856.664795
 10
385.081512
 20
857.210999
 10
385.702576
 20
857.812866
 10
386.268097
 20
858.467102
 10
386.772614
 20
859.169373
 10
387.212799
 20
859.913696
 10
387.586212
 20
860.693604
 10
387.890594
 20
861.503052
 10
388.12381
 20
862.335999
 10
388.284668
 20
863.185852
 10
388.377594
 20
864.045715
 10
388.419189
 20
864.909729
 10
388.43689
 20
865.774475
 10
388.451782
 20
866.639038
 10
388.475525
 20
867.502991
 10
388.516052
 20
868.366882
 10
388.566895
 20
869.231201
 10
388.602631
 20
870.09613
 10
388.607452
 20
870.970032
  0
LINE
  5
10D
330
109
100
AcDbEntity
  8
0
  6
Continuous
 62
     0
370
     0
100
AcDbLine
 10
388.607367
 20
870.983415
 30
0.0
 11
388.256126
 21
870.983999
 31
0.0
  0
LINE
  5
10E
330
109
100
AcDbEntity
  8
0
  6
Continuous
 62
     0
370
    30
100
AcDbLine
 10
375.369581
 20
854.115295
 30
0.0
 11
375.415147
 21
853.852484
 31
0.0
  0
LINE
  5
10F
330
109
100
AcDbEntity
  8
0
  6
Continuous
 62
     0
370
     0
100
AcDbLine
 10
409.756125
 20
870.984
 30
0.0
 11
388.60745
 21
870.970055
 31
0.0
  0
LINE
  5
110
330
109
100
AcDbEntity
  8
0
  6
Continuous
 62
     0
370
     0
100
AcDbLine
 10
375.41513
 20
853.852481
 30
0.0
 11
379.159039
 21
832.596414
 31
0.0
  0
LINE
  5
111
330
109
100
AcDbEntity
  8
0
  6
Continuous
 62
     0
370
     0
100
AcDbLine
 10
379.15904
 20
832.596414
 30
0.0
 11
409.756126
 21
837.991504
 31
0.0
  0
LINE
  5
112
330
109
100
AcDbEntity
  8
0
  6
Continuous
 62
     0
370
    30
100
AcDbLine
 10
388.256126
 20
901.383321
 30
0.0
 11
388.256126
 21
870.984
 31
0.0
  0
LINE
  5
113
330
109
100
AcDbEntity
  8
0
  6
Continuous
 62
     0
370
     0
100
AcDbLine
 10
421.056128
 20
901.267973
 30
0.0
 11
421.056126
 21
881.769993
 31
0.0
  0
LINE
  5
114
330
109
100
AcDbEntity
  8
0
  6
Continuous
 62
     0
370
     0
100
AcDbLine
 10
409.756215
 20
799.441799
 30
0.0
 11
409.756126
 21
837.991504
 31
0.0
  0
LWPOLYLINE
  5
115
330
109
100
AcDbEntity
  8
0
  6
Continuous
 62
     0
370
     0
100
AcDbPolyline
 90
       32
 70
     0
 43
0.0
 10
379.159027
 20
832.596436
 10
379.345764
 20
831.508118
 10
379.539032
 20
830.421143
 10
379.734467
 20
829.33551
 10
379.927002
 20
828.257385
 10
380.114319
 20
827.195557
 10
380.297577
 20
826.153015
 10
380.478729
 20
825.126221
 10
380.657715
 20
824.113586
 10
380.833282
 20
823.118835
 10
381.004486
 20
822.148682
 10
381.170593
 20
821.20813
 10
381.33139
 20
820.298828
 10
381.486572
 20
819.421143
 10
381.635834
 20
818.575989
 10
381.778961
 20
817.765747
 10
381.915588
 20
816.993042
 10
382.044861
 20
816.260925
 10
382.165863
 20
815.572144
 10
382.278687
 20
814.92804
 10
382.384033
 20
814.328918
 10
382.482239
 20
813.775452
 10
382.573242
 20
813.268555
 10
382.656006
 20
812.810425
 10
382.727203
 20
812.40625
 10
382.783905
 20
812.060608
 10
382.829651
 20
811.77002
 10
382.872681
 20
811.525146
 10
382.916534
 20
811.321167
 10
382.952423
 20
811.170532
 10
382.966949
 20
811.093811
 10
382.958008
 20
811.079224
  0
LINE
  5
116
330
109
100
AcDbEntity
  8
0
  6
Continuous
 62
     0
370
    30
100
AcDbLine
 10
398.455985
 20
799.94186
 30
0.0
 11
398.456126
 21
799.441004
 31
0.0
  0
LWPOLYLINE
  5
117
330
109
100
AcDbEntity
  8
0
  6
Continuous
 62
     0
370
    30
100
AcDbPolyline
 90
       32
 70
     0
 43
0.0
 10
382.958008
 20
811.079224
 10
383.707184
 20
811.211243
 10
384.456451
 20
811.343201
 10
385.20575
 20
811.475037
 10
385.955017
 20
811.606934
 10
386.704071
 20
811.739929
 10
387.452698
 20
811.875366
 10
388.200684
 20
812.01416
 10
388.950073
 20
812.145325
 10
389.704498
 20
812.242615
 10
390.464447
 20
812.27771
 10
391.224487
 20
812.240234
 10
391.977539
 20
812.131409
 10
392.717529
 20
811.951355
 10
393.437256
 20
811.701721
 10
394.129669
 20
811.384583
 10
394.788666
 20
811.003113
 10
395.408417
 20
810.56073
 10
395.983307
 20
810.061462
 10
396.508118
 20
809.509766
 10
396.978394
 20
808.91095
 10
397.389679
 20
808.270142
 10
397.737701
 20
807.592651
 10
398.01944
 20
806.885071
 10
398.232605
 20
806.154541
 10
398.372833
 20
805.406921
 10
398.445251
 20
804.649536
 10
398.46701
 20
803.889038
 10
398.46228
 20
803.128296
 10
398.45459
 20
802.367615
 10
398.452423
 20
801.606873
 10
398.454041
 20
800.831848
  0
LINE
  5
118
330
109
100
AcDbEntity
  8
0
  6
Continuous
 62
     0
370
     0
100
AcDbLine
 10
398.456126
 20
799.441004
 30
0.0
 11
409.756143
 21
799.44169
 31
0.0
  0
LINE
  5
119
330
109
100
AcDbEntity
  8
0
  6
Continuous
 62
     0
370
    30
100
AcDbLine
 10
421.056126
 20
869.977548
 30
0.0
 11
421.056127
 21
839.983999
 31
0.0
  0
LINE
  5
11A
330
109
100
AcDbEntity
  8
0
  6
Continuous
 62
     0
370
    30
100
AcDbLine
 10
421.056126
 20
799.462868
 30
0.0
 11
421.056126
 21
789.662694
 31
0.0
  0
LINE
  5
11B
330
109
100
AcDbEntity
  8
0
  6
Continuous
 62
     0
370
     0
100
AcDbLine
 10
409.756206
 20
789.662694
 30
0.0
 11
409.756215
 21
799.441691
 31
0.0
  0
LINE
  5
11C
330
109
100
AcDbEntity
  8
0
  6
Continuous
 62
     0
370
     0
100
AcDbLine
 10
409.756215
 20
799.441799
 30
0.0
 11
421.056126
 21
799.462868
 31
0.0
  0
LINE
  5
11D
330
109
100
AcDbEntity
  8
0
  6
Continuous
 62
     0
370
    30
100
AcDbLine
 10
421.056127
 20
839.983999
 30
0.0
 11
421.056126
 21
799.462868
 31
0.0
  0
LINE
  5
11E
330
109
100
AcDbEntity
  8
0
  6
Continuous
 62
     0
370
     0
100
AcDbLine
 10
409.756126
 20
837.991504
 30
0.0
 11
421.056127
 21
839.983999
 31
0.0
  0
LINE
  5
11F
330
109
100
AcDbEntity
  8
0
  6
Continuous
 62
     0
370
     0
100
AcDbLine
 10
409.756133
 20
870.984
 30
0.0
 11
421.056126
 21
870.984221
 31
0.0
  0
LWPOLYLINE
  5
120
330
109
100
AcDbEntity
  8
0
  6
Continuous
 62
     0
370
     0
100
AcDbPolyline
 90
       30
 70
     0
 43
0.0
 10
361.268494
 20
807.254761
 10
361.262054
 20
807.258545
 10
361.244415
 20
807.325073
 10
361.216064
 20
807.457031
 10
361.176727
 20
807.666687
 10
361.126556
 20
807.950378
 10
361.065948
 20
808.299622
 10
360.994934
 20
808.711243
 10
360.913757
 20
809.18219
 10
360.822601
 20
809.710083
 10
360.721741
 20
810.292908
 10
360.61142
 20
810.928589
 10
360.491913
 20
811.615234
 10
360.363586
 20
812.350891
 10
360.226776
 20
813.133606
 10
360.081848
 20
813.961426
 10
359.929291
 20
814.831848
 10
359.769531
 20
815.742493
 10
359.603058
 20
816.690796
 10
359.430389
 20
817.674133
 10
359.251984
 20
818.689636
 10
359.068359
 20
819.734131
 10
358.880005
 20
820.803772
 10
358.687469
 20
821.895813
 10
358.49115
 20
823.010498
 10
358.291687
 20
824.144775
 10
358.090179
 20
825.291687
 10
357.887848
 20
826.442993
 10
357.684479
 20
827.595032
 10
357.478088
 20
828.75177
  0
LINE
  5
121
330
109
100
AcDbEntity
  8
0
  6
Continuous
 62
     0
370
     0
100
AcDbLine
 10
357.474391
 20
828.772825
 30
0.0
 11
356.489581
 21
828.599555
 31
0.0
  0
LWPOLYLINE
  5
122
330
109
100
AcDbEntity
  8
0
  6
Continuous
 62
     0
370
    30
100
AcDbPolyline
 90
       29
 70
     0
 43
0.0
 10
356.489655
 20
828.599182
 10
356.692474
 20
827.447144
 10
356.894928
 20
826.298584
 10
357.096375
 20
825.15625
 10
357.296051
 20
824.024353
 10
357.49295
 20
822.907654
 10
357.686493
 20
821.809692
 10
357.876373
 20
820.732849
 10
358.062073
 20
819.67981
 10
358.24295
 20
818.654236
 10
358.418396
 20
817.659546
 10
358.58783
 20
816.699036
 10
358.750732
 20
815.775574
 10
358.906647
 20
814.891846
 10
359.055145
 20
814.050415
 10
359.195709
 20
813.253845
 10
359.327972
 20
812.504517
 10
359.451508
 20
811.804749
 10
359.565948
 20
811.156738
 10
359.670929
 20
810.562378
 10
359.766113
 20
810.023804
 10
359.851074
 20
809.543091
 10
359.925446
 20
809.122314
 10
359.988678
 20
808.764526
 10
360.039581
 20
808.47583
 10
360.077057
 20
808.262024
 10
360.101288
 20
808.122375
 10
360.113037
 20
808.052734
 10
360.113159
 20
808.049011
  0
LINE
  5
123
330
109
100
AcDbEntity
  8
0
  6
Continuous
 62
     0
370
     0
100
AcDbLine
 10
379.159039
 20
832.596414
 30
0.0
 11
357.474484
 21
828.772843
 31
0.0
  0
LINE
  5
124
330
109
100
AcDbEntity
  8
0
  6
Continuous
 62
     0
370
    30
100
AcDbLine
 10
381.414485
 20
810.815103
 30
0.0
 11
382.957998
 21
811.079195
 31
0.0
  0
LINE
  5
125
330
109
100
AcDbEntity
  8
0
  6
Continuous
 62
     0
370
    30
100
AcDbLine
 10
375.369581
 20
854.115295
 30
0.0
 11
353.680067
 21
850.290855
 31
0.0
  0
LWPOLYLINE
  5
126
330
109
100
AcDbEntity
  8
0
  6
Continuous
 62
     0
370
     0
100
AcDbPolyline
 90
       27
 70
     0
 43
0.0
 10
353.680054
 20
850.290833
 10
353.686859
 20
850.251892
 10
353.707458
 20
850.13446
 10
353.741699
 20
849.939087
 10
353.789459
 20
849.666809
 10
353.850586
 20
849.318542
 10
353.924744
 20
848.895813
 10
354.011749
 20
848.400146
 10
354.111267
 20
847.83313
 10
354.222992
 20
847.196716
 10
354.346466
 20
846.493286
 10
354.481262
 20
845.725342
 10
354.627014
 20
844.895447
 10
354.783081
 20
844.00647
 10
354.949005
 20
843.061707
 10
355.124146
 20
842.064392
 10
355.307922
 20
841.017944
 10
355.499634
 20
839.926392
 10
355.698608
 20
838.793884
 10
355.904144
 20
837.624573
 10
356.115601
 20
836.422485
 10
356.332458
 20
835.191711
 10
356.554169
 20
833.936401
 10
356.780182
 20
832.660706
 10
357.009521
 20
831.370789
 10
357.241119
 20
830.073669
 10
357.474487
 20
828.772827
  0
ARC
  5
127
330
109
100
AcDbEntity
  8
0
  6
Continuous
 62
     0
370
    30
100
AcDbCircle
 10
353.853715
 20
849.306047
 30
0.0
 40
1.00000000000001
100
AcDbArc
 50
99.999984
 51
188.999984
  0
LWPOLYLINE
  5
128
330
109
100
AcDbEntity
  8
0
  6
Continuous
 62
     0
370
    30
100
AcDbPolyline
 90
       27
 70
     0
 43
0.0
 10
352.866028
 20
849.149597
 10
352.872589
 20
849.112366
 10
352.892303
 20
849.000671
 10
352.925049
 20
848.815125
 10
352.970703
 20
848.556335
 10
353.029175
 20
848.225037
 10
353.10022
 20
847.822327
 10
353.183533
 20
847.350098
 10
353.278809
 20
846.810181
 10
353.385712
 20
846.204346
 10
353.503876
 20
845.534546
 10
353.632935
 20
844.803345
 10
353.772308
 20
844.013245
 10
353.921631
 20
843.167114
 10
354.080322
 20
842.267517
 10
354.247894
 20
841.317688
 10
354.423676
 20
840.321228
 10
354.607025
 20
839.281799
 10
354.797302
 20
838.203003
 10
354.993835
 20
837.088623
 10
355.195862
 20
835.942932
 10
355.402649
 20
834.77002
 10
355.613434
 20
833.574158
 10
355.827454
 20
832.359741
 10
356.043854
 20
831.131531
 10
356.261688
 20
829.894531
 10
356.486084
 20
828.619507
  0
LINE
  5
129
330
109
100
AcDbEntity
  8
0
  6
Continuous
 62
     0
370
     0
100
AcDbLine
 10
409.756125
 20
870.984002
 30
0.0
 11
409.756123
 21
901.383321
 31
0.0
  0
LINE
  5
12A
330
109
100
AcDbEntity
  8
0
  6
Continuous
 62
     0
370
    30
100
AcDbLine
 10
421.056126
 20
881.769993
 30
0.0
 11
421.060312
 21
870.984218
 31
0.0
  0
LINE
  5
12B
330
109
100
AcDbEntity
  8
0
  6
Continuous
 62
     0
370
    30
100
AcDbLine
 10
361.266798
 20
807.248541
 30
0.0
 11
381.414529
 21
810.815111
 31
0.0
  0
ARC
  5
12C
330
109
100
AcDbEntity
  8
0
  6
Continuous
 62
     0
370
    30
100
AcDbCircle
 10
361.09647
 20
808.234783
 30
0.0
 40
1.000709317735049
100
AcDbArc
 50
190.700978
 51
279.801084
  0
LINE
  5
12D
330
109
100
AcDbEntity
  8
0
  6
Continuous
 62
     0
370
    30
100
AcDbLine
 10
398.451706
 20
789.662718
 30
0.0
 11
398.456126
 21
799.441004
 31
0.0
  0
LINE
  5
12E
330
109
100
AcDbEntity
  8
0
  6
Continuous
 62
     0
370
    30
100
AcDbLine
 10
421.056126
 20
869.977548
 30
0.0
 11
421.060312
 21
870.984218
 31
0.0
  0
ARC
  5
12F
330
109
100
AcDbEntity
  8
0
  6
Continuous
 62
     0
370
    30
100
AcDbCircle
 10
390.455668
 20
804.275389
 30
0.0
 40
8.002233278097131
100
AcDbArc
 50
26.38208
 51
61.974607
  0
LINE
  5
130
330
109
100
AcDbEntity
  8
0
  6
Continuous
 62
     0
370
    30
100
AcDbLine
 10
398.453286
 20
800.831855
 30
0.0
 11
398.452743
 21
801.323975
 31
0.0
  0
LWPOLYLINE
  5
131
330
109
100
AcDbEntity
  8
0
  6
Continuous
 62
     0
370
    30
100
AcDbPolyline
 90
       13
 70
     0
 43
0.0
 10
398.455963
 20
799.941833
 10
398.456024
 20
799.906738
 10
398.456024
 20
799.938477
 10
398.455963
 20
800.019226
 10
398.455811
 20
800.13092
 10
398.455566
 20
800.255615
 10
398.45517
 20
800.375305
 10
398.454651
 20
800.475769
 10
398.454102
 20
800.558716
 10
398.453644
 20
800.629944
 10
398.453369
 20
800.69519
 10
398.453461
 20
800.760254
 10
398.45401
 20
800.831848
  0
LINE
  5
132
330
109
100
AcDbEntity
  8
0
  6
Continuous
 62
     0
370
    30
100
AcDbLine
 10
377.656127
 20
905.583321
 30
0.0
 11
404.656128
 21
905.583321
 31
0.0
  0
LINE
  5
133
330
109
100
AcDbEntity
  8
0
  6
Continuous
 62
     0
370
    30
100
AcDbLine
 10
404.656128
 20
905.583321
 30
0.0
 11
431.656127
 21
905.583321
 31
0.0
  0
LINE
  5
134
330
109
100
AcDbEntity
  8
0
  6
Continuous
 62
     0
370
     0
100
AcDbLine
 10
377.156127
 20
901.883321
 30
0.0
 11
404.656128
 21
901.883321
 31
0.0
  0
LINE
  5
135
330
109
100
AcDbEntity
  8
0
  6
Continuous
 62
     0
370
     0
100
AcDbLine
 10
404.656128
 20
901.883321
 30
0.0
 11
432.156127
 21
901.883321
 31
0.0
  0
LINE
  5
136
330
109
100
AcDbEntity
  8
0
  6
Continuous
 62
     0
370
     0
100
AcDbLine
 10
404.656128
 20
905.083321
 30
0.0
 11
432.156127
 21
905.083321
 31
0.0
  0
LINE
  5
137
330
109
100
AcDbEntity
  8
0
  6
Continuous
 62
     0
370
     0
100
AcDbLine
 10
377.156127
 20
905.083321
 30
0.0
 11
404.656128
 21
905.083321
 31
0.0
  0
LINE
  5
138
330
109
100
AcDbEntity
  8
0
  6
Continuous
 62
     0
370
    30
100
AcDbLine
 10
404.656128
 20
901.383321
 30
0.0
 11
431.656127
 21
901.383321
 31
0.0
  0
LINE
  5
139
330
109
100
AcDbEntity
  8
0
  6
Continuous
 62
     0
370
    30
100
AcDbLine
 10
377.656127
 20
901.383321
 30
0.0
 11
404.656128
 21
901.383321
 31
0.0
  0
LINE
  5
13A
330
109
100
AcDbEntity
  8
0
  6
Continuous
 62
     0
370
    30
100
AcDbLine
 10
377.156127
 20
901.883321
 30
0.0
 11
377.156127
 21
905.083321
 31
0.0
  0
LINE
  5
13B
330
109
100
AcDbEntity
  8
0
  6
Continuous
 62
     0
370
    30
100
AcDbLine
 10
432.156127
 20
901.883321
 30
0.0
 11
432.156127
 21
905.083321
 31
0.0
  0
ARC
  5
13C
330
109
100
AcDbEntity
  8
0
  6
Continuous
 62
     0
370
    30
100
AcDbCircle
 10
357.888571
 20
828.656535
 30
0.0
 40
20.50407013732124
100
AcDbArc
 50
103.880531
 51
134.751316
  0
LINE
  5
13D
330
109
100
AcDbEntity
  8
0
  6
Continuous
 62
     0
370
    30
100
AcDbLine
 10
360.002417
 20
808.67713
 30
0.0
 11
357.580175
 21
808.562267
 31
0.0
  0
LINE
  5
13E
330
109
100
AcDbEntity
  8
0
  6
Continuous
 62
     0
370
    30
100
AcDbLine
 10
354.171666
 20
827.892922
 30
0.0
 11
357.948206
 21
806.47505
 31
0.0
  0
ARC
  5
13F
330
109
100
AcDbEntity
  8
0
  6
Continuous
 62
     0
370
    30
100
AcDbCircle
 10
334.760611
 20
809.00919
 30
0.0
 40
15.0
100
AcDbArc
 50
256.164754
 51
269.999977
  0
LINE
  5
140
330
109
100
AcDbEntity
  8
0
  6
Continuous
 62
     0
370
     0
100
AcDbLine
 10
331.173649
 20
794.44438
 30
0.0
 11
338.347562
 21
794.444377
 31
0.0
  0
LINE
  5
141
330
109
100
AcDbEntity
  8
0
  6
Continuous
 62
     0
370
     0
100
AcDbLine
 10
330.260606
 20
795.609565
 30
0.0
 11
339.260606
 21
795.609562
 31
0.0
  0
ARC
  5
142
330
109
100
AcDbEntity
  8
0
  6
Continuous
 62
     0
370
    30
100
AcDbCircle
 10
331.460606
 20
795.609565
 30
0.0
 40
1.200000047683726
100
AcDbArc
 50
179.999977
 51
256.164754
  0
LINE
  5
143
330
109
100
AcDbEntity
  8
0
  6
Continuous
 62
     0
370
    30
100
AcDbLine
 10
340.594877
 20
847.283873
 30
0.0
 11
354.171667
 21
827.892922
 31
0.0
  0
LWPOLYLINE
  5
144
330
109
100
AcDbEntity
  8
0
  6
Continuous
 62
     0
370
    30
100
AcDbPolyline
 90
       18
 70
     0
 43
0.0
 10
335.012146
 20
845.851318
 10
334.975586
 20
845.836975
 10
334.867218
 20
845.795044
 10
334.690918
 20
845.727905
 10
334.453125
 20
845.639648
 10
334.161835
 20
845.535339
 10
333.82608
 20
845.420044
 10
333.457031
 20
845.299255
 10
333.066223
 20
845.178467
 10
332.666351
 20
845.062317
 10
332.271088
 20
844.954712
 10
331.894073
 20
844.859131
 10
331.54834
 20
844.777161
 10
331.246796
 20
844.710083
 10
331.000122
 20
844.658386
 10
330.816498
 20
844.621826
 10
330.703369
 20
844.600098
 10
330.664642
 20
844.592773
  0
LINE
  5
145
330
109
100
AcDbEntity
  8
0
  6
Continuous
 62
     0
370
    30
100
AcDbLine
 10
330.260606
 20
795.609565
 30
0.0
 11
330.260614
 21
815.589056
 31
0.0
  0
LWPOLYLINE
  5
146
330
109
100
AcDbEntity
  8
0
  6
Continuous
 62
     0
370
     0
100
AcDbPolyline
 90
       15
 70
     0
 43
0.0
 10
339.26062
 20
803.3125
 10
339.230591
 20
803.283936
 10
339.143372
 20
803.225098
 10
339.002899
 20
803.172363
 10
338.811829
 20
803.14624
 10
338.57431
 20
803.134888
 10
338.295044
 20
803.130249
 10
337.978729
 20
803.130188
 10
337.630249
 20
803.131592
 10
337.254578
 20
803.131226
 10
336.856659
 20
803.126343
 10
336.441895
 20
803.111206
 10
336.016296
 20
803.0802
 10
335.58316
 20
803.040771
 10
335.143768
 20
803.004028
  0
LWPOLYLINE
  5
147
330
109
100
AcDbEntity
  8
0
  6
Continuous
 62
     0
370
     0
100
AcDbPolyline
 90
        9
 70
     0
 43
0.0
 10
332.964294
 20
804.940308
 10
333.122528
 20
804.512085
 10
333.323975
 20
804.126343
 10
333.56424
 20
803.790405
 10
333.838196
 20
803.50946
 10
334.139832
 20
803.287842
 10
334.462067
 20
803.12738
 10
334.797913
 20
803.030334
 10
335.143768
 20
803.004028
  0
LWPOLYLINE
  5
148
330
109
100
AcDbEntity
  8
0
  6
Continuous
 62
     0
370
     0
100
AcDbPolyline
 90
       35
 70
     0
 43
0.0
 10
330.26062
 20
815.58905
 10
330.268829
 20
815.548889
 10
330.292267
 20
815.434814
 10
330.328033
 20
815.26178
 10
330.37323
 20
815.045044
 10
330.425507
 20
814.796875
 10
330.483246
 20
814.526001
 10
330.545288
 20
814.238281
 10
330.610901
 20
813.937927
 10
330.679535
 20
813.627686
 10
330.750793
 20
813.309814
 10
330.824432
 20
812.985657
 10
330.900208
 20
812.656494
 10
330.977966
 20
812.32312
 10
331.057556
 20
811.986328
 10
331.138947
 20
811.646545
 10
331.222015
 20
811.304199
 10
331.306702
 20
810.959778
 10
331.392944
 20
810.613525
 10
331.480682
 20
810.265625
 10
331.569946
 20
809.916321
 10
331.660614
 20
809.565857
 10
331.752747
 20
809.214294
 10
331.846222
 20
808.861877
 10
331.941101
 20
808.508606
 10
332.037323
 20
808.154663
 10
332.134857
 20
807.80011
 10
332.233704
 20
807.445068
 10
332.333862
 20
807.089539
 10
332.435272
 20
806.733704
 10
332.537964
 20
806.377502
 10
332.641907
 20
806.021118
 10
332.74707
 20
805.664551
 10
332.853455
 20
805.3078
 10
332.964294
 20
804.940308
  0
LINE
  5
149
330
109
100
AcDbEntity
  8
0
  6
Continuous
 62
     0
370
     0
100
AcDbLine
 10
328.379704
 20
843.880084
 30
0.0
 11
335.249846
 21
804.917484
 31
0.0
  0
LINE
  5
14A
330
109
100
AcDbEntity
  8
0
  6
Continuous
 62
     0
370
     0
100
AcDbLine
 10
327.478131
 20
842.722557
 30
0.0
 11
334.003026
 21
805.717956
 31
0.0
  0
LWPOLYLINE
  5
14B
330
109
100
AcDbEntity
  8
0
  6
Continuous
 62
     0
370
     0
100
AcDbPolyline
 90
        7
 70
     0
 43
0.0
 10
334.003021
 20
805.717957
 10
334.125122
 20
805.494019
 10
334.285767
 20
805.304688
 10
334.479797
 20
805.151855
 10
334.700775
 20
805.03656
 10
334.940765
 20
804.960083
 10
335.249847
 20
804.91748
  0
ARC
  5
14C
330
109
100
AcDbEntity
  8
0
  6
Continuous
 62
     0
370
    30
100
AcDbCircle
 10
409.371815
 20
837.627926
 30
0.0
 40
82.0519999999998
100
AcDbArc
 50
189.999977
 51
195.200949
  0
LWPOLYLINE
  5
14D
330
109
100
AcDbEntity
  8
0
  6
Continuous
 62
     0
370
     0
100
AcDbPolyline
 90
       34
 70
     0
 43
0.0
 10
330.190643
 20
816.113464
 10
330.202972
 20
816.071777
 10
330.237946
 20
815.953857
 10
330.291168
 20
815.775696
 10
330.358154
 20
815.553589
 10
330.435394
 20
815.30011
 10
330.520538
 20
815.02417
 10
330.611877
 20
814.731689
 10
330.708374
 20
814.426758
 10
330.809235
 20
814.112244
 10
330.91391
 20
813.790222
 10
331.022003
 20
813.462158
 10
331.13324
 20
813.12915
 10
331.247375
 20
812.792175
 10
331.364227
 20
812.451721
 10
331.483704
 20
812.108521
 10
331.605621
 20
811.762817
 10
331.729919
 20
811.4151
 10
331.856567
 20
811.065613
 10
331.985413
 20
810.714539
 10
332.116455
 20
810.362183
 10
332.249664
 20
810.008667
 10
332.384949
 20
809.654114
 10
332.522308
 20
809.298767
 10
332.661682
 20
808.942627
 10
332.80307
 20
808.585815
 10
332.946442
 20
808.228516
 10
333.091736
 20
807.870728
 10
333.238953
 20
807.512512
 10
333.388062
 20
807.153992
 10
333.539032
 20
806.795227
 10
333.691864
 20
806.436279
 10
333.846558
 20
806.077148
 10
334.003021
 20
805.717957
  0
ARC
  5
14E
330
109
100
AcDbEntity
  8
0
  6
Continuous
 62
     0
370
    30
100
AcDbCircle
 10
328.745253
 20
972.093612
 30
0.0
 40
168.1734848484853
100
AcDbArc
 50
273.903046
 51
279.999977
  0
LWPOLYLINE
  5
14F
330
109
100
AcDbEntity
  8
0
  6
Continuous
 62
     0
370
     0
100
AcDbPolyline
 90
       25
 70
     0
 43
0.0
 10
340.192535
 20
804.310181
 10
340.192932
 20
804.313232
 10
340.188782
 20
804.321899
 10
340.172821
 20
804.335693
 10
340.138123
 20
804.353943
 10
340.077667
 20
804.375977
 10
339.988251
 20
804.401245
 10
339.870972
 20
804.429321
 10
339.730774
 20
804.460205
 10
339.569855
 20
804.49353
 10
339.388092
 20
804.528687
 10
339.186554
 20
804.565186
 10
338.966248
 20
804.602539
 10
338.728088
 20
804.640137
 10
338.473145
 20
804.677429
 10
338.202484
 20
804.713806
 10
337.917206
 20
804.748718
 10
337.618347
 20
804.781616
 10
337.307281
 20
804.812073
 10
336.986115
 20
804.839966
 10
336.657959
 20
804.86499
 10
336.318665
 20
804.886292
 10
335.965698
 20
804.902771
 10
335.630188
 20
804.913513
 10
335.249847
 20
804.91748
  0
ARC
  5
150
330
109
100
AcDbEntity
  8
0
  6
Continuous
 62
     0
370
    30
100
AcDbCircle
 10
340.260609
 20
803.312499
 30
0.0
 40
0.999999999999994
100
AcDbArc
 50
93.903046
 51
179.999977
  0
ELLIPSE
  5
151
330
109
100
AcDbEntity
  8
0
  6
Continuous
 62
     0
370
     0
100
AcDbEllipse
 10
335.314059
 20
803.00388
 30
0.0
 11
0.01549500231240114
 21
-1.999939975325094
 31
0.0
210
0.0
220
0.0
230
1.0
 40
0.085143
 41
3.435835900118946
 42
4.711651529041291
  0
ELLIPSE
  5
152
330
109
100
AcDbEntity
  8
0
  6
Continuous
 62
     0
370
     0
100
AcDbEllipse
 10
332.165928
 20
804.940157
 30
0.0
 11
1.831912213475717
 21
0.8025569401098785
 31
0.0
210
0.0
220
0.0
230
1.0
 40
0.172031
 41
5.086732542401933
 42
6.211163829392946
  0
LINE
  5
153
330
109
100
AcDbEntity
  8
0
  6
Continuous
 62
     0
370
    30
100
AcDbLine
 10
339.544902
 20
804.010897
 30
0.0
 11
339.429264
 21
803.868207
 31
0.0
  0
LINE
  5
154
330
109
100
AcDbEntity
  8
0
  6
Continuous
 62
     0
370
    30
100
AcDbLine
 10
339.260609
 20
803.312498
 30
0.0
 11
339.277544
 21
803.495142
 31
0.0
  0
LINE
  5
155
330
109
100
AcDbEntity
  8
0
  6
Continuous
 62
     0
370
    30
100
AcDbLine
 10
340.594552
 20
847.283806
 30
0.0
 11
335.012146
 21
845.85132
 31
0.0
  0
LINE
  5
156
330
109
100
AcDbEntity
  8
0
  6
Continuous
 62
     0
370
    30
100
AcDbLine
 10
328.379703
 20
843.880083
 30
0.0
 11
330.664656
 21
844.592797
 31
0.0
  0
ARC
  5
157
330
109
100
AcDbEntity
  8
0
  6
Continuous
 62
     0
370
    30
100
AcDbCircle
 10
409.37505
 20
837.628108
 30
0.0
 40
82.05521722630928
100
AcDbArc
 50
176.440466
 51
189.998358
  0
LINE
  5
158
330
109
100
AcDbEntity
  8
0
  6
Continuous
 62
     0
370
    30
100
AcDbLine
 10
328.5667
 20
823.377869
 30
0.0
 11
328.601677
 21
823.180937
 31
0.0
  0
ARC
  5
159
330
109
100
AcDbEntity
  8
0
  6
Continuous
 62
     0
370
    30
100
AcDbCircle
 10
328.776982
 20
842.640781
 30
0.0
 40
1.301422255531409
100
AcDbArc
 50
107.774078
 51
176.397165
  0
LINE
  5
15A
330
109
100
AcDbEntity
  8
0
  6
Continuous
 62
     0
370
    30
100
AcDbLine
 10
339.260609
 20
803.312499
 30
0.0
 11
339.260606
 21
795.609562
 31
0.0
  0
ARC
  5
15B
330
109
100
AcDbEntity
  8
0
  6
Continuous
 62
     0
370
    30
100
AcDbCircle
 10
338.058138
 20
795.611354
 30
0.0
 40
1.202469604465713
100
AcDbArc
 50
290.10488
 51
359.914584
  0
ARC
  5
15C
330
109
100
AcDbEntity
  8
0
  6
Continuous
 62
     0
370
    30
100
AcDbCircle
 10
334.755318
 20
809.051099
 30
0.0
 40
15.04195974742293
100
AcDbArc
 50
270.580731
 51
283.816605
  0
LINE
  5
15D
330
109
100
AcDbEntity
  8
0
  6
Continuous
 62
     0
370
     0
100
AcDbLine
 10
409.824212
 20
664.662695
 30
0.0
 11
398.824212
 21
664.662695
 31
0.0
  0
LINE
  5
15E
330
109
100
AcDbEntity
  8
0
  6
Continuous
 62
     0
370
     0
100
AcDbLine
 10
420.824212
 20
664.662695
 30
0.0
 11
409.824212
 21
664.662695
 31
0.0
  0
ELLIPSE
  5
15F
330
109
100
AcDbEntity
  8
0
  6
Continuous
 62
     0
370
     0
100
AcDbEllipse
 10
409.824219
 20
639.941335
 30
0.0
 11
-11.0
 21
1.562296010445007E-7
 31
0.0
210
0.0
220
0.0
230
1.0
 40
0.309017
 41
1.57079637275577
 42
3.141592699550633
  0
ELLIPSE
  5
160
330
109
100
AcDbEntity
  8
0
  6
Continuous
 62
     0
370
     0
100
AcDbEllipse
 10
409.824219
 20
639.941335
 30
0.0
 11
-11.0
 21
1.562296010445007E-7
 31
0.0
210
0.0
220
0.0
230
1.0
 40
0.309017
 41
0.0000000459608733
 42
1.57079637275577
  0
ELLIPSE
  5
161
330
109
100
AcDbEntity
  8
0
  6
Continuous
 62
     0
370
    30
100
AcDbEllipse
 10
409.824219
 20
659.662695
 30
0.0
 11
-11.0
 21
1.562296010445007E-7
 31
0.0
210
0.0
220
0.0
230
1.0
 40
0.309017
 41
1.57079637275577
 42
4.712389026345563
  0
ELLIPSE
  5
162
330
109
100
AcDbEntity
  8
0
  6
Continuous
 62
     0
370
    30
100
AcDbEllipse
 10
409.824219
 20
659.662695
 30
0.0
 11
-11.0
 21
1.562296010445007E-7
 31
0.0
210
0.0
220
0.0
230
1.0
 40
0.309017
 41
4.712389026345563
 42
7.853981679935356
  0
LINE
  5
163
330
109
100
AcDbEntity
  8
0
  6
Continuous
 62
     0
370
    30
100
AcDbLine
 10
398.824212
 20
789.662695
 30
0.0
 11
398.824212
 21
664.662695
 31
0.0
  0
LINE
  5
164
330
109
100
AcDbEntity
  8
0
  6
Continuous
 62
     0
370
    30
100
AcDbLine
 10
420.824212
 20
789.662695
 30
0.0
 11
420.824212
 21
664.662695
 31
0.0
  0
LINE
  5
165
330
109
100
AcDbEntity
  8
0
  6
Continuous
 62
     0
370
    30
100
AcDbLine
 10
398.824219
 20
639.941335
 30
0.0
 11
398.824219
 21
659.662695
 31
0.0
  0
LINE
  5
166
330
109
100
AcDbEntity
  8
0
  6
Continuous
 62
     0
370
    30
100
AcDbLine
 10
420.824219
 20
639.941335
 30
0.0
 11
420.824219
 21
659.662695
 31
0.0
  0
ARC
  5
167
330
109
100
AcDbEntity
  8
0
  6
Continuous
 62
     0
370
    30
100
AcDbCircle
 10
409.824775
 20
584.662617
 30
0.0
 40
10.9995644486921
100
AcDbArc
 50
179.972657
 51
0.028516
  0
LINE
  5
168
330
109
100
AcDbEntity
  8
0
  6
Continuous
 62
     0
370
    30
100
AcDbLine
 10
398.824212
 20
659.662695
 30
0.0
 11
398.824212
 21
664.662695
 31
0.0
  0
LINE
  5
169
330
109
100
AcDbEntity
  8
0
  6
Continuous
 62
     0
370
    30
100
AcDbLine
 10
398.824219
 20
639.941335
 30
0.0
 11
398.824215
 21
584.668085
 31
0.0
  0
LINE
  5
16A
330
109
100
AcDbEntity
  8
0
  6
Continuous
 62
     0
370
    30
100
AcDbLine
 10
420.824212
 20
659.662695
 30
0.0
 11
420.824212
 21
664.662695
 31
0.0
  0
LINE
  5
16B
330
109
100
AcDbEntity
  8
0
  6
Continuous
 62
     0
370
    30
100
AcDbLine
 10
420.824219
 20
639.941335
 30
0.0
 11
420.824215
 21
584.668085
 31
0.0
  0
ENDBLK
  5
16D
330
109
100
AcDbEntity
  8
0
100
AcDbBlockEnd
  0
BLOCK
  5
1DA
330
16F
100
AcDbEntity
  8
0
100
AcDbBlockBegin
  2
d
 70
     0
 10
13.245436
 20
94.50956
 30
0.0
  3
d
  1

  0
LWPOLYLINE
  5
170
330
16F
100
AcDbEntity
  8
0
  6
Continuous
 62
     0
370
    30
100
AcDbPolyline
 90
       20
 70
     0
 43
0.0
 10
450.19339
 20
362.587708
 10
449.65152
 20
362.9664
 10
449.154907
 20
363.365356
 10
448.703278
 20
363.781708
 10
448.300446
 20
364.214386
 10
447.949402
 20
364.661865
 10
447.651672
 20
365.12204
 10
447.407867
 20
365.592712
 10
447.21933
 20
366.071747
 10
447.088898
 20
366.557159
 10
447.019775
 20
367.046783
 10
447.014038
 20
367.537964
 10
447.071472
 20
368.028076
 10
447.190308
 20
368.514526
 10
447.369019
 20
368.994781
 10
447.606628
 20
369.466492
 10
447.904663
 20
369.926605
 10
448.267822
 20
370.370758
 10
448.701019
 20
370.793488
 10
449.221588
 20
371.2052
  0
ARC
  5
171
330
16F
100
AcDbEntity
  8
0
  6
Continuous
 62
     0
370
    30
100
AcDbCircle
 10
463.802647
 20
367.832545
 30
0.0
 40
5.755988829997665
100
AcDbArc
 50
294.330569
 51
354.418006
  0
LWPOLYLINE
  5
172
330
16F
100
AcDbEntity
  8
0
  6
Continuous
 62
     0
370
    30
100
AcDbPolyline
 90
       20
 70
     0
 43
0.0
 10
466.174103
 20
362.587769
 10
465.485565
 20
362.221954
 10
464.747223
 20
361.890076
 10
463.964233
 20
361.594238
 10
463.141876
 20
361.336426
 10
462.285828
 20
361.118286
 10
461.401703
 20
360.941315
 10
460.495514
 20
360.80661
 10
459.573273
 20
360.715149
 10
458.641174
 20
360.667572
 10
457.705444
 20
360.664215
 10
456.772339
 20
360.70517
 10
455.848267
 20
360.790131
 10
454.939514
 20
360.918854
 10
454.052551
 20
361.090973
 10
453.194031
 20
361.305939
 10
452.371307
 20
361.563232
 10
451.592194
 20
361.862427
 10
450.865509
 20
362.20282
 10
450.194244
 20
362.588135
  0
LWPOLYLINE
  5
173
330
16F
100
AcDbEntity
  8
0
  6
Continuous
 62
     0
370
    30
100
AcDbPolyline
 90
       12
 70
     0
 43
0.0
 10
431.482819
 20
432.235199
 10
432.040924
 20
432.030151
 10
432.595947
 20
431.844666
 10
433.148346
 20
431.674774
 10
433.702637
 20
431.49588
 10
434.259399
 20
431.300171
 10
434.816071
 20
431.103516
 10
435.368439
 20
430.933533
 10
435.911713
 20
430.808014
 10
436.441589
 20
430.735443
 10
436.953339
 20
430.721832
 10
437.491425
 20
430.777863
  0
LINE
  5
174
330
16F
100
AcDbEntity
  8
0
  6
Continuous
 62
     0
370
    30
100
AcDbLine
 10
438.15024
 20
434.436836
 30
0.0
 11
436.349058
 21
435.038588
 31
0.0
  0
LINE
  5
175
330
16F
100
AcDbEntity
  8
0
  6
Continuous
 62
     0
370
     0
100
AcDbLine
 10
436.349058
 20
435.038588
 30
0.0
 11
433.868849
 21
433.864564
 31
0.0
  0
LINE
  5
176
330
16F
100
AcDbEntity
  8
0
  6
Continuous
 62
     0
370
     0
100
AcDbLine
 10
433.868849
 20
433.864564
 30
0.0
 11
431.482828
 21
432.235205
 31
0.0
  0
LINE
  5
177
330
16F
100
AcDbEntity
  8
0
  6
Continuous
 62
     0
370
     0
100
AcDbLine
 10
436.348901
 20
435.038647
 30
0.0
 11
438.164561
 21
435.573342
 31
0.0
  0
LINE
  5
178
330
16F
100
AcDbEntity
  8
0
  6
Continuous
 62
     0
370
     0
100
AcDbLine
 10
447.088288
 20
400.255295
 30
0.0
 11
447.162235
 21
427.23625
 31
0.0
  0
LWPOLYLINE
  5
179
330
16F
100
AcDbEntity
  8
0
  6
Continuous
 62
     0
370
     0
100
AcDbPolyline
 90
       17
 70
     0
 43
0.0
 10
447.162231
 20
427.236237
 10
446.167847
 20
427.533722
 10
445.216431
 20
427.888977
 10
444.3125
 20
428.289459
 10
443.45462
 20
428.721619
 10
442.648895
 20
429.181946
 10
441.900055
 20
429.669159
 10
441.211609
 20
430.184784
 10
440.58667
 20
430.728271
 10
440.028259
 20
431.296631
 10
439.539124
 20
431.886139
 10
439.121582
 20
432.493225
 10
438.777649
 20
433.114777
 10
438.50885
 20
433.749084
 10
438.316498
 20
434.393921
 10
438.201569
 20
435.045654
 10
438.164703
 20
435.706329
  0
LWPOLYLINE
  5
17A
330
16F
100
AcDbEntity
  8
0
  6
Continuous
 62
     0
370
     0
100
AcDbPolyline
 90
       25
 70
     0
 43
0.0
 10
431.482819
 20
432.235199
 10
430.615204
 20
431.512024
 10
429.771271
 20
430.728271
 10
428.951538
 20
429.888794
 10
428.157288
 20
428.997681
 10
427.391479
 20
428.057556
 10
426.657227
 20
427.071198
 10
425.957703
 20
426.042114
 10
425.295502
 20
424.973724
 10
424.672058
 20
423.869293
 10
424.089142
 20
422.732666
 10
423.548859
 20
421.568207
 10
423.053314
 20
420.380402
 10
422.60437
 20
419.173431
 10
422.203217
 20
417.951263
 10
421.851044
 20
416.717773
 10
421.548889
 20
415.477081
 10
421.297546
 20
414.233704
 10
421.097748
 20
412.992371
 10
420.950531
 20
411.757446
 10
420.857819
 20
410.532684
 10
420.824158
 20
409.322357
 10
420.854309
 20
408.132019
 10
420.948669
 20
406.96991
 10
421.108826
 20
405.833405
  0
LWPOLYLINE
  5
17B
330
16F
100
AcDbEntity
  8
0
  6
Continuous
 62
     0
370
     0
100
AcDbPolyline
 90
       15
 70
     0
 43
0.0
 10
421.108826
 20
405.833405
 10
422.729553
 20
405.269348
 10
424.398895
 20
404.738495
 10
426.098175
 20
404.225403
 10
427.833618
 20
403.736359
 10
429.606934
 20
403.274506
 10
431.413269
 20
402.836945
 10
433.252594
 20
402.4245
 10
435.123901
 20
402.03772
 10
437.025909
 20
401.67691
 10
438.957336
 20
401.342316
 10
440.916718
 20
401.034332
 10
442.902954
 20
400.75296
 10
444.915924
 20
400.496368
 10
447.088287
 20
400.25531
  0
LINE
  5
17C
330
16F
100
AcDbEntity
  8
0
  6
Continuous
 62
     0
370
     0
100
AcDbLine
 10
466.174194
 20
446.514435
 30
0.0
 11
466.174187
 21
428.986572
 31
0.0
  0
ARC
  5
17D
330
16F
100
AcDbEntity
  8
0
  6
Continuous
 62
     0
370
     0
100
AcDbCircle
 10
463.040178
 20
436.448998
 30
0.0
 40
8.093813465466765
100
AcDbArc
 50
292.781036
 51
354.189218
  0
LWPOLYLINE
  5
17E
330
16F
100
AcDbEntity
  8
0
  6
Continuous
 62
     0
370
     0
100
AcDbPolyline
 90
       16
 70
     0
 43
0.0
 10
450.193695
 20
370.572418
 10
450.170807
 20
372.667328
 10
450.102142
 20
374.733429
 10
449.977417
 20
376.764648
 10
449.802765
 20
378.761932
 10
449.577698
 20
380.723938
 10
449.3013
 20
382.647827
 10
448.973053
 20
384.531372
 10
448.635925
 20
386.408936
 10
448.328949
 20
388.30899
 10
448.049591
 20
390.231293
 10
447.7995
 20
392.174957
 10
447.582153
 20
394.140015
 10
447.383881
 20
396.126343
 10
447.230591
 20
398.1315
 10
447.088287
 20
400.25528
  0
LWPOLYLINE
  5
17F
330
16F
100
AcDbEntity
  8
0
  6
Continuous
 62
     0
370
     0
100
AcDbPolyline
 90
       19
 70
     0
 43
0.0
 10
421.108826
 20
405.833405
 10
421.285126
 20
404.950165
 10
421.467651
 20
404.066681
 10
421.657562
 20
403.186188
 10
421.883484
 20
402.332611
 10
422.162933
 20
401.524292
 10
422.490295
 20
400.76123
 10
422.851013
 20
400.031891
 10
423.235321
 20
399.327759
 10
423.642822
 20
398.650574
 10
424.078278
 20
398.007965
 10
424.545227
 20
397.407104
 10
425.042999
 20
396.850159
 10
425.568817
 20
396.336334
 10
426.119446
 20
395.864227
 10
426.69281
 20
395.433746
 10
427.288239
 20
395.046417
 10
427.905029
 20
394.70401
 10
428.561218
 20
394.400391
  0
LWPOLYLINE
  5
180
330
16F
100
AcDbEntity
  8
0
  6
Continuous
 62
     0
370
     0
100
AcDbPolyline
 90
       10
 70
     0
 43
0.0
 10
446.86261
 20
374.698303
 10
446.957001
 20
374.187683
 10
447.125671
 20
373.678467
 10
447.36795
 20
373.177124
 10
447.682983
 20
372.689972
 10
448.067535
 20
372.221497
 10
448.516357
 20
371.775085
 10
449.022705
 20
371.353729
 10
449.577606
 20
370.957672
 10
450.193665
 20
370.572388
  0
LINE
  5
181
330
16F
100
AcDbEntity
  8
0
  6
Continuous
 62
     0
370
     0
100
AcDbLine
 10
466.174187
 20
428.986572
 30
0.0
 11
466.174163
 21
403.674983
 31
0.0
  0
LWPOLYLINE
  5
182
330
16F
100
AcDbEntity
  8
0
  6
Continuous
 62
     0
370
     0
100
AcDbPolyline
 90
       12
 70
     0
 43
0.0
 10
466.174164
 20
403.674988
 10
466.953735
 20
404.151398
 10
467.674103
 20
404.64621
 10
468.331787
 20
405.157043
 10
468.923645
 20
405.681366
 10
469.446747
 20
406.216736
 10
469.898529
 20
406.760468
 10
470.276794
 20
407.309937
 10
470.579681
 20
407.862457
 10
470.805756
 20
408.415344
 10
470.95401
 20
408.965881
 10
471.023987
 20
409.514893
  0
ARC
  5
183
330
16F
100
AcDbEntity
  8
0
  6
Continuous
 62
     0
370
     0
100
AcDbCircle
 10
463.87763
 20
375.731473
 30
0.0
 40
5.631410829869035
100
AcDbArc
 50
294.066842
 51
354.537213
  0
LINE
  5
184
330
16F
100
AcDbEntity
  8
0
  6
Continuous
 62
     0
370
     0
100
AcDbLine
 10
466.174131
 20
370.589599
 30
0.0
 11
466.174117
 21
362.587783
 31
0.0
  0
LINE
  5
185
330
16F
100
AcDbEntity
  8
0
  6
Continuous
 62
     0
370
     0
100
AcDbLine
 10
450.194232
 20
362.588139
 30
0.0
 11
450.193706
 21
370.572344
 31
0.0
  0
ARC
  5
186
330
16F
100
AcDbEntity
  8
0
  6
Continuous
 62
     0
370
     0
100
AcDbCircle
 10
458.16701
 20
386.321288
 30
0.0
 40
17.65219716967341
100
AcDbArc
 50
243.147892
 51
296.975141
  0
LINE
  5
187
330
16F
100
AcDbEntity
  8
0
  6
Continuous
 62
     0
370
     0
100
AcDbLine
 10
466.174115
 20
403.674955
 30
0.0
 11
466.174115
 21
370.58959
 31
0.0
  0
ARC
  5
188
330
16F
100
AcDbEntity
  8
0
  6
Continuous
 62
     0
370
     0
100
AcDbCircle
 10
451.18114
 20
432.383044
 30
0.0
 40
32.38740052309943
100
AcDbArc
 50
262.740022
 51
297.57609
  0
ARC
  5
189
330
16F
100
AcDbEntity
  8
0
  6
Continuous
 62
     0
370
     0
100
AcDbCircle
 10
454.546297
 20
451.159631
 30
0.0
 40
25.03702325868304
100
AcDbArc
 50
252.846936
 51
297.673012
  0
LWPOLYLINE
  5
18A
330
16F
100
AcDbEntity
  8
0
  6
Continuous
 62
     0
370
     0
100
AcDbPolyline
 90
       16
 70
     0
 43
0.0
 10
413.556702
 20
399.990875
 10
412.764771
 20
400.335754
 10
412.002014
 20
400.750031
 10
411.271088
 20
401.232391
 10
410.574585
 20
401.781189
 10
409.915039
 20
402.394714
 10
409.294769
 20
403.070892
 10
408.715942
 20
403.807495
 10
408.18045
 20
404.601471
 10
407.68985
 20
405.449219
 10
407.244843
 20
406.348877
 10
406.847626
 20
407.300873
 10
406.504028
 20
408.301422
 10
406.214264
 20
409.340912
 10
405.972992
 20
410.410187
 10
405.7677
 20
411.539459
  0
ELLIPSE
  5
18B
330
16F
100
AcDbEntity
  8
0
  6
Continuous
 62
     0
370
     0
100
AcDbEllipse
 10
406.471956
 20
411.96634
 30
0.0
 11
0.9876072403632384
 21
0.1569456555056402
 31
0.0
210
0.0
220
0.0
230
-1.0
 40
0.480807
 41
2.438016571623868
 42
3.85691979106888
  0
LINE
  5
18C
330
16F
100
AcDbEntity
  8
0
  6
Continuous
 62
     0
370
     0
100
AcDbLine
 10
421.108827
 20
405.83339
 30
0.0
 11
405.764821
 21
411.557956
 31
0.0
  0
LINE
  5
18D
330
16F
100
AcDbEntity
  8
0
  6
Continuous
 62
     0
370
     0
100
AcDbLine
 10
433.868849
 20
433.864564
 30
0.0
 11
418.532046
 21
439.596628
 31
0.0
  0
LWPOLYLINE
  5
18E
330
16F
100
AcDbEntity
  8
0
  6
Continuous
 62
     0
370
     0
100
AcDbPolyline
 90
       26
 70
     0
 43
0.0
 10
418.532043
 20
439.596619
 10
417.568146
 20
438.999725
 10
416.616943
 20
438.328827
 10
415.682587
 20
437.586945
 10
414.77002
 20
436.777924
 10
413.883362
 20
435.905334
 10
413.025696
 20
434.972626
 10
412.200043
 20
433.983124
 10
411.409454
 20
432.940338
 10
410.656921
 20
431.848358
 10
409.945496
 20
430.711578
 10
409.278168
 20
429.534302
 10
408.657715
 20
428.321075
 10
408.086548
 20
427.07666
 10
407.567017
 20
425.805908
 10
407.101379
 20
424.513672
 10
406.691589
 20
423.205139
 10
406.339264
 20
421.885681
 10
406.046112
 20
420.56073
 10
405.81369
 20
419.235504
 10
405.643219
 20
417.914978
 10
405.53598
 20
416.604156
 10
405.493195
 20
415.307983
 10
405.515839
 20
414.033142
 10
405.604828
 20
412.787598
 10
405.764435
 20
411.557739
  0
LWPOLYLINE
  5
18F
330
16F
100
AcDbEntity
  8
0
  6
Continuous
 62
     0
370
     0
100
AcDbPolyline
 90
       13
 70
     0
 43
0.0
 10
418.532104
 20
439.596649
 10
419.406525
 20
440.06897
 10
420.287933
 20
440.479706
 10
421.173431
 20
440.827606
 10
422.059296
 20
441.111145
 10
422.941925
 20
441.329102
 10
423.818634
 20
441.480957
 10
424.68692
 20
441.566467
 10
425.544281
 20
441.585358
 10
426.388214
 20
441.537506
 10
427.216064
 20
441.423157
 10
428.025146
 20
441.242645
 10
428.868927
 20
440.975983
  0
ELLIPSE
  5
190
330
16F
100
AcDbEntity
  8
0
  6
Continuous
 62
     0
370
     0
100
AcDbEllipse
 10
418.655027
 20
438.721756
 30
0.0
 11
0.5001659117729564
 21
-0.8659295933852517
 31
0.0
210
0.0
220
0.0
230
1.0
 40
0.577259
 41
2.530616535432886
 42
3.77358923055502
  0
LINE
  5
191
330
16F
100
AcDbEntity
  8
0
  6
Continuous
 62
     0
370
     0
100
AcDbLine
 10
447.162236
 20
427.23625
 30
0.0
 11
447.162236
 21
445.621837
 31
0.0
  0
LINE
  5
192
330
16F
100
AcDbEntity
  8
0
  6
Continuous
 62
     0
370
    30
100
AcDbLine
 10
438.164691
 20
435.681462
 30
0.0
 11
438.169499
 21
448.169539
 31
0.0
  0
LWPOLYLINE
  5
193
330
16F
100
AcDbEntity
  8
0
  6
Continuous
 62
     0
370
    30
100
AcDbPolyline
 90
       26
 70
     0
 43
0.0
 10
418.154755
 20
439.587585
 10
417.189087
 20
438.989258
 10
416.238708
 20
438.319305
 10
415.307404
 20
437.580872
 10
414.398987
 20
436.777161
 10
413.517212
 20
435.911346
 10
412.665527
 20
434.986847
 10
411.846893
 20
434.007416
 10
411.064117
 20
432.976898
 10
410.320129
 20
431.899139
 10
409.617798
 20
430.777924
 10
408.95993
 20
429.617126
 10
408.348969
 20
428.420959
 10
407.786774
 20
427.194214
 10
407.275116
 20
425.941711
 10
406.815826
 20
424.668213
 10
406.410767
 20
423.37854
 10
406.061737
 20
422.077454
 10
405.770538
 20
420.769775
 10
405.539032
 20
419.460266
 10
405.368988
 20
418.153778
 10
405.26181
 20
416.855621
 10
405.21817
 20
415.572083
 10
405.238617
 20
414.309479
 10
405.3237
 20
413.074188
 10
405.480988
 20
411.828064
  0
LINE
  5
194
330
16F
100
AcDbEntity
  8
0
  6
Continuous
 62
     0
370
    30
100
AcDbLine
 10
427.956168
 20
441.26081
 30
0.0
 11
428.862383
 21
440.978269
 31
0.0
  0
LINE
  5
195
330
16F
100
AcDbEntity
  8
0
  6
Continuous
 62
     0
370
    30
100
AcDbLine
 10
428.868911
 20
440.975973
 30
0.0
 11
438.165385
 21
437.483742
 31
0.0
  0
LINE
  5
196
330
16F
100
AcDbEntity
  8
0
  6
Continuous
 62
     0
370
    30
100
AcDbLine
 10
413.556621
 20
399.990654
 30
0.0
 11
429.042172
 21
394.216334
 31
0.0
  0
LINE
  5
197
330
16F
100
AcDbEntity
  8
0
  6
Continuous
 62
     0
370
    30
100
AcDbLine
 10
413.556134
 20
399.99112
 30
0.0
 11
413.08364
 21
400.186231
 31
0.0
  0
LINE
  5
198
330
16F
100
AcDbEntity
  8
0
  6
Continuous
 62
     0
370
    30
100
AcDbLine
 10
413.087315
 20
400.184714
 30
0.0
 11
413.556134
 21
399.99112
 31
0.0
  0
ARC
  5
199
330
16F
100
AcDbEntity
  8
0
  6
Continuous
 62
     0
370
    30
100
AcDbCircle
 10
377.909903
 20
369.662299
 30
0.0
 40
69.13654272298143
100
AcDbArc
 50
358.112719
 51
4.177513
  0
LWPOLYLINE
  5
19A
330
16F
100
AcDbEntity
  8
0
  6
Continuous
 62
     0
370
    30
100
AcDbPolyline
 90
       49
 70
     0
 43
0.0
 10
469.483459
 20
375.195374
 10
469.461945
 20
375.971741
 10
469.43399
 20
376.602356
 10
469.410065
 20
377.219757
 10
469.388458
 20
377.851349
 10
469.36911
 20
378.488434
 10
469.352051
 20
379.130981
 10
469.337372
 20
379.778717
 10
469.325073
 20
380.431061
 10
469.315277
 20
381.087524
 10
469.308167
 20
381.747833
 10
469.304016
 20
382.412109
 10
469.303223
 20
383.080505
 10
469.306061
 20
383.753143
 10
469.312897
 20
384.430176
 10
469.324127
 20
385.111725
 10
469.340302
 20
385.797821
 10
469.361969
 20
386.488556
 10
469.389618
 20
387.185089
 10
469.423523
 20
387.890381
 10
469.46405
 20
388.607513
 10
469.51062
 20
389.337494
 10
469.561401
 20
390.077881
 10
469.614471
 20
390.825958
 10
469.668549
 20
391.578766
 10
469.723511
 20
392.333069
 10
469.779236
 20
393.085632
 10
469.835815
 20
393.835358
 10
469.893402
 20
394.584229
 10
469.952179
 20
395.334259
 10
470.012085
 20
396.086243
 10
470.072845
 20
396.839508
 10
470.134125
 20
397.593231
 10
470.195618
 20
398.346741
 10
470.25708
 20
399.099274
 10
470.318146
 20
399.850189
 10
470.378723
 20
400.600037
 10
470.438751
 20
401.349884
 10
470.498108
 20
402.100342
 10
470.556458
 20
402.849945
 10
470.613464
 20
403.59668
 10
470.668976
 20
404.339294
 10
470.72345
 20
405.078278
 10
470.777374
 20
405.814514
 10
470.830719
 20
406.549255
 10
470.882812
 20
407.284302
 10
470.932861
 20
408.021515
 10
470.980072
 20
408.762787
 10
471.023956
 20
409.514374
  0
LINE
  5
19B
330
16F
100
AcDbEntity
  8
0
  6
Continuous
 62
     0
370
    30
100
AcDbLine
 10
469.483464
 20
375.194854
 30
0.0
 11
469.531317
 21
367.267064
 31
0.0
  0
LWPOLYLINE
  5
19C
330
16F
100
AcDbEntity
  8
0
  6
Continuous
 62
     0
370
    30
100
AcDbPolyline
 90
       40
 70
     0
 43
0.0
 10
471.023987
 20
409.514893
 10
471.062683
 20
410.222504
 10
471.100403
 20
410.928345
 10
471.136932
 20
411.632751
 10
471.171997
 20
412.335999
 10
471.205383
 20
413.038391
 10
471.236877
 20
413.740021
 10
471.266174
 20
414.440643
 10
471.293121
 20
415.139984
 10
471.317474
 20
415.837769
 10
471.338959
 20
416.533752
 10
471.357361
 20
417.22757
 10
471.372498
 20
417.919037
 10
471.384064
 20
418.607819
 10
471.391907
 20
419.293671
 10
471.395782
 20
419.976318
 10
471.395905
 20
420.655426
 10
471.39267
 20
421.330719
 10
471.386383
 20
422.001892
 10
471.377411
 20
422.668671
 10
471.366119
 20
423.330719
 10
471.352844
 20
423.987793
 10
471.337982
 20
424.639618
 10
471.321869
 20
425.286926
 10
471.304901
 20
425.930878
 10
471.287506
 20
426.572632
 10
471.27002
 20
427.213379
 10
471.252838
 20
427.854279
 10
471.236389
 20
428.496521
 10
471.221008
 20
429.141296
 10
471.206726
 20
429.789673
 10
471.193115
 20
430.442627
 10
471.17984
 20
431.10025
 10
471.166809
 20
431.759735
 10
471.15387
 20
432.418213
 10
471.140472
 20
433.079254
 10
471.125854
 20
433.750519
 10
471.110626
 20
434.422943
 10
471.098145
 20
435.054993
 10
471.092407
 20
435.628418
  0
LWPOLYLINE
  5
19D
330
16F
100
AcDbEntity
  8
0
  6
Continuous
 62
     0
370
    30
100
AcDbPolyline
 90
       29
 70
     0
 43
0.0
 10
428.546783
 20
394.406433
 10
429.443542
 20
394.031677
 10
430.322266
 20
393.663544
 10
431.185089
 20
393.295959
 10
432.036438
 20
392.922028
 10
432.884827
 20
392.533203
 10
433.738983
 20
392.120728
 10
434.605438
 20
391.675323
 10
435.488098
 20
391.18692
 10
436.390717
 20
390.645508
 10
437.316223
 20
390.041534
 10
438.257233
 20
389.371643
 10
439.199341
 20
388.636627
 10
440.127594
 20
387.839508
 10
441.025055
 20
386.991913
 10
441.87442
 20
386.107849
 10
442.659027
 20
385.200958
 10
443.371185
 20
384.281555
 10
444.008759
 20
383.357849
 10
444.569641
 20
382.438049
 10
445.05249
 20
381.53009
 10
445.460327
 20
380.640167
 10
445.799194
 20
379.770508
 10
446.07785
 20
378.916504
 10
446.304718
 20
378.074524
 10
446.487701
 20
377.242218
 10
446.634827
 20
376.414032
 10
446.756989
 20
375.569061
 10
446.862579
 20
374.698303
  0
LINE
  5
19E
330
16F
100
AcDbEntity
  8
0
  6
Continuous
 62
     0
370
    30
100
AcDbLine
 10
471.078562
 20
448.209547
 30
0.0
 11
471.092404
 21
435.628459
 31
0.0
  0
LWPOLYLINE
  5
19F
330
16F
100
AcDbEntity
  8
0
  6
Continuous
 62
     0
370
    30
100
AcDbPolyline
 90
       20
 70
     0
 43
0.0
 10
438.164642
 20
435.682526
 10
438.163025
 20
435.148834
 10
438.157013
 20
434.685425
 10
438.144257
 20
434.28183
 10
438.123901
 20
433.917999
 10
438.095642
 20
433.570984
 10
438.058746
 20
433.2276
 10
438.012207
 20
432.88324
 10
437.955078
 20
432.533508
 10
437.886749
 20
432.177582
 10
437.807953
 20
431.823334
 10
437.719513
 20
431.480255
 10
437.622833
 20
431.157074
 10
437.521667
 20
430.860077
 10
437.42038
 20
430.59494
 10
437.323334
 20
430.367218
 10
437.234894
 20
430.182495
 10
437.159698
 20
430.046295
 10
437.106079
 20
429.962006
 10
437.0849
 20
429.931671
  0
ELLIPSE
  5
1A0
330
16F
100
AcDbEntity
  8
0
  6
Continuous
 62
     0
370
     0
100
AcDbEllipse
 10
454.577634
 20
463.931889
 30
0.0
 11
-27.0
 21
0.0
 31
0.0
210
0.0
220
0.0
230
1.0
 40
0.57735
 41
3.926990816987242
 42
7.068583470577035
  0
ELLIPSE
  5
1A1
330
16F
100
AcDbEntity
  8
0
  6
Continuous
 62
     0
370
     0
100
AcDbEllipse
 10
454.577634
 20
463.931889
 30
0.0
 11
-27.0
 21
0.0
 31
0.0
210
0.0
220
0.0
230
1.0
 40
0.57735
 41
0.7853981633974483
 42
3.926990816987241
  0
ELLIPSE
  5
1A2
330
16F
100
AcDbEntity
  8
0
  6
Continuous
 62
     0
370
     0
100
AcDbEllipse
 10
454.577634
 20
460.910851
 30
0.0
 11
-27.5
 21
0.0
 31
0.0
210
0.0
220
0.0
230
1.0
 40
0.57735
 41
-0.0000000086396863
 42
0.7853981633974483
  0
ELLIPSE
  5
1A3
330
16F
100
AcDbEntity
  8
0
  6
Continuous
 62
     0
370
     0
100
AcDbEllipse
 10
454.577634
 20
460.910851
 30
0.0
 11
-27.5
 21
0.0
 31
0.0
210
0.0
220
0.0
230
1.0
 40
0.57735
 41
0.7853981633974483
 42
3.141592644950107
  0
ELLIPSE
  5
1A4
330
16F
100
AcDbEntity
  8
0
  6
Continuous
 62
     0
370
     0
100
AcDbEllipse
 10
454.577634
 20
463.52364
 30
0.0
 11
-27.5
 21
0.0
 31
0.0
210
0.0
220
0.0
230
1.0
 40
0.57735
 41
0.7853981633974483
 42
3.926990816987241
  0
ELLIPSE
  5
1A5
330
16F
100
AcDbEntity
  8
0
  6
Continuous
 62
     0
370
     0
100
AcDbEllipse
 10
454.577634
 20
463.52364
 30
0.0
 11
-27.5
 21
0.0
 31
0.0
210
0.0
220
0.0
230
1.0
 40
0.57735
 41
5.488654342576063
 42
7.068583470577035
  0
LINE
  5
1A6
330
16F
100
AcDbEntity
  8
0
  6
Continuous
 62
     0
370
    30
100
AcDbLine
 10
482.077634
 20
463.523732
 30
0.0
 11
482.060039
 21
464.101043
 31
0.0
  0
LINE
  5
1A7
330
16F
100
AcDbEntity
  8
0
  6
Continuous
 62
     0
370
    30
100
AcDbLine
 10
427.077634
 20
463.523641
 30
0.0
 11
427.095228
 21
464.100902
 31
0.0
  0
LWPOLYLINE
  5
1A8
330
16F
100
AcDbEntity
  8
0
  6
Continuous
 62
     0
370
    30
100
AcDbPolyline
 90
       46
 70
     0
 43
0.0
 10
473.919525
 20
474.97937
 10
472.875824
 20
475.551178
 10
471.782104
 20
476.090515
 10
470.641632
 20
476.595795
 10
469.457733
 20
477.06546
 10
468.233765
 20
477.498291
 10
466.973114
 20
477.893372
 10
465.679169
 20
478.249664
 10
464.355286
 20
478.566223
 10
463.004883
 20
478.842041
 10
461.631439
 20
479.076263
 10
460.23877
 20
479.268494
 10
458.830719
 20
479.418457
 10
457.411194
 20
479.525848
 10
455.984039
 20
479.590393
 10
454.553131
 20
479.611725
 10
453.122345
 20
479.5896
 10
451.695557
 20
479.523804
 10
450.276581
 20
479.414673
 10
448.869171
 20
479.262726
 10
447.477112
 20
479.068573
 10
446.104218
 20
478.832733
 10
444.754242
 20
478.555756
 10
443.430969
 20
478.23819
 10
442.138184
 20
477.880646
 10
440.879211
 20
477.48407
 10
439.657227
 20
477.049683
 10
438.475281
 20
476.578766
 10
437.336517
 20
476.07254
 10
436.24408
 20
475.532257
 10
435.201019
 20
474.959137
 10
434.21051
 20
474.354431
 10
433.275177
 20
473.719604
 10
432.397278
 20
473.056335
 10
431.578979
 20
472.366364
 10
430.822479
 20
471.651367
 10
430.129974
 20
470.913086
 10
429.503662
 20
470.153229
 10
428.945648
 20
469.373535
 10
428.457703
 20
468.575928
 10
428.04126
 20
467.762573
 10
427.697754
 20
466.935516
 10
427.42868
 20
466.096924
 10
427.235199
 20
465.24939
 10
427.11795
 20
464.396423
 10
427.077637
 20
463.523651
  0
LWPOLYLINE
  5
1A9
330
16F
100
AcDbEntity
  8
0
  6
Continuous
 62
     0
370
    30
100
AcDbPolyline
 90
       16
 70
     0
 43
0.0
 10
473.919525
 20
474.97937
 10
474.913635
 20
474.37442
 10
475.853455
 20
473.738953
 10
476.735901
 20
473.074677
 10
477.558136
 20
472.383392
 10
478.317932
 20
471.66684
 10
479.013275
 20
470.926849
 10
479.642181
 20
470.165222
 10
480.202698
 20
469.383667
 10
480.69281
 20
468.584106
 10
481.110992
 20
467.768585
 10
481.455841
 20
466.939423
 10
481.726044
 20
466.098938
 10
481.920227
 20
465.249481
 10
482.037598
 20
464.394226
 10
482.077637
 20
463.523743
  0
LINE
  5
1AA
330
16F
100
AcDbEntity
  8
0
  6
Continuous
 62
     0
370
    30
100
AcDbLine
 10
427.077634
 20
460.910852
 30
0.0
 11
427.077634
 21
463.523641
 31
0.0
  0
ELLIPSE
  5
1AB
330
16F
100
AcDbEntity
  8
0
  6
Continuous
 62
     0
370
    30
100
AcDbEllipse
 10
413.343643
 20
423.437217
 30
0.0
 11
5.825473128142635
 21
15.5867220331031
 31
0.0
210
0.0
220
0.0
230
1.0
 40
0.668835
 41
0.6741538829214448
 42
1.829213546757348
  0
ARC
  5
1AC
330
16F
100
AcDbEntity
  8
0
  6
Continuous
 62
     0
370
    30
100
AcDbCircle
 10
421.470113
 20
420.228441
 30
0.0
 40
20.47301124316154
100
AcDbArc
 50
92.990532
 51
119.505269
  0
LINE
  5
1AD
330
16F
100
AcDbEntity
  8
0
  6
Continuous
 62
     0
370
    30
100
AcDbLine
 10
407.346572
 20
405.816202
 30
0.0
 11
405.880269
 21
407.390667
 31
0.0
  0
ELLIPSE
  5
1AE
330
16F
100
AcDbEntity
  8
0
  6
Continuous
 62
     0
370
    30
100
AcDbEllipse
 10
418.879468
 20
421.109618
 30
0.0
 11
7.614529452220749
 21
20.37354758556454
 31
0.0
210
0.0
220
0.0
230
1.0
 40
0.668835
 41
2.252384455423142
 42
3.254921331973032
  0
ELLIPSE
  5
1AF
330
16F
100
AcDbEntity
  8
0
  6
Continuous
 62
     0
370
    30
100
AcDbEllipse
 10
418.879468
 20
421.109618
 30
0.0
 11
-7.211922147850454
 21
-19.29632552931631
 31
0.0
210
0.0
220
0.0
230
-1.0
 40
0.668835
 41
0.2300689957485274
 42
0.8892081981666469
  0
LINE
  5
1B0
330
16F
100
AcDbEntity
  8
0
  6
Continuous
 62
     0
370
    30
100
AcDbLine
 10
403.500107
 20
412.22871
 30
0.0
 11
404.313269
 21
412.698275
 31
0.0
  0
ELLIPSE
  5
1B1
330
16F
100
AcDbEntity
  8
0
  6
Continuous
 62
     0
370
     0
100
AcDbEllipse
 10
405.15558
 20
402.67431
 30
0.0
 11
-4.499999989827455
 21
-0.0003025769235222843
 31
0.0
210
0.0
220
0.0
230
1.0
 40
0.577396
 41
2.356169427350137
 42
2.687064659625051
  0
ELLIPSE
  5
1B2
330
16F
100
AcDbEntity
  8
0
  6
Continuous
 62
     0
370
     0
100
AcDbEllipse
 10
405.15558
 20
402.67431
 30
0.0
 11
-4.499999989827455
 21
-0.0003025769235222843
 31
0.0
210
0.0
220
0.0
230
1.0
 40
0.577396
 41
-0.000000008637917
 42
2.356169427350137
  0
LWPOLYLINE
  5
1B3
330
16F
100
AcDbEntity
  8
0
  6
Continuous
 62
     0
370
    30
100
AcDbPolyline
 90
       45
 70
     0
 43
0.0
 10
424.56192
 20
441.605286
 10
423.609924
 20
442.163574
 10
422.639404
 20
442.660797
 10
421.652924
 20
443.094574
 10
420.653107
 20
443.462524
 10
419.643097
 20
443.762634
 10
418.62616
 20
443.993073
 10
417.60556
 20
444.152008
 10
416.584778
 20
444.237976
 10
415.567474
 20
444.249847
 10
414.557373
 20
444.186584
 10
413.558258
 20
444.047852
 10
412.574005
 20
443.83371
 10
411.608551
 20
443.544189
 10
410.665649
 20
443.179871
 10
409.749084
 20
442.742218
 10
408.862488
 20
442.232697
 10
408.00943
 20
441.653107
 10
407.193085
 20
441.006134
 10
406.416473
 20
440.294495
 10
405.682587
 20
439.521057
 10
404.993683
 20
438.689362
 10
404.35199
 20
437.80304
 10
403.759613
 20
436.865784
 10
403.218048
 20
435.881531
 10
402.728424
 20
434.854309
 10
402.291779
 20
433.788208
 10
401.909088
 20
432.687286
 10
401.580811
 20
431.555603
 10
401.307068
 20
430.397064
 10
401.088043
 20
429.215668
 10
400.923676
 20
428.01535
 10
400.813629
 20
426.799713
 10
400.757507
 20
425.572418
 10
400.754822
 20
424.337067
 10
400.804962
 20
423.097046
 10
400.907196
 20
421.855621
 10
401.06073
 20
420.616058
 10
401.26474
 20
419.38147
 10
401.51825
 20
418.154877
 10
401.820343
 20
416.939209
 10
402.169983
 20
415.737457
 10
402.566193
 20
414.552307
 10
403.007812
 20
413.386505
 10
403.500122
 20
412.228699
  0
LWPOLYLINE
  5
1B4
330
16F
100
AcDbEntity
  8
0
  6
Continuous
 62
     0
370
    30
100
AcDbPolyline
 90
       29
 70
     0
 43
0.0
 10
409.851349
 20
441.20694
 10
409.018158
 20
440.68277
 10
408.218719
 20
440.092316
 10
407.45639
 20
439.438263
 10
406.734009
 20
438.723389
 10
406.054199
 20
437.950684
 10
405.419067
 20
437.123596
 10
404.830414
 20
436.24588
 10
404.2901
 20
435.321167
 10
403.799927
 20
434.35321
 10
403.36084
 20
433.345917
 10
402.973541
 20
432.303223
 10
402.638763
 20
431.229156
 10
402.357086
 20
430.127686
 10
402.128601
 20
429.002594
 10
401.953308
 20
427.857666
 10
401.831116
 20
426.696686
 10
401.76178
 20
425.523315
 10
401.744751
 20
424.340973
 10
401.77951
 20
423.153107
 10
401.865479
 20
421.963104
 10
402.001984
 20
420.774231
 10
402.18811
 20
419.5896
 10
402.423065
 20
418.412292
 10
402.705902
 20
417.2453
 10
403.035614
 20
416.091553
 10
403.411194
 20
414.953827
 10
403.831573
 20
413.83493
 10
404.313263
 20
412.698273
  0
LWPOLYLINE
  5
1B5
330
16F
100
AcDbEntity
  8
0
  6
Continuous
 62
     0
370
    30
100
AcDbPolyline
 90
       15
 70
     0
 43
0.0
 10
409.851349
 20
441.20694
 10
410.67923
 20
441.645447
 10
411.532501
 20
442.019684
 10
412.407684
 20
442.328278
 10
413.301575
 20
442.570465
 10
414.210968
 20
442.745483
 10
415.132568
 20
442.853363
 10
416.06308
 20
442.894562
 10
416.999237
 20
442.869415
 10
417.937775
 20
442.778381
 10
418.87561
 20
442.622467
 10
419.809875
 20
442.403076
 10
420.737701
 20
442.121735
 10
421.656189
 20
441.779968
 10
422.629486
 20
441.347382
  0
LWPOLYLINE
  5
1B6
330
16F
100
AcDbEntity
  8
0
  6
Continuous
 62
     0
370
    30
100
AcDbPolyline
 90
       18
 70
     0
 43
0.0
 10
405.330688
 20
443.592255
 10
405.011749
 20
443.42627
 10
404.652405
 20
443.27301
 10
404.265381
 20
443.138672
 10
403.863739
 20
443.028931
 10
403.460785
 20
442.948944
 10
403.06955
 20
442.903076
 10
402.702301
 20
442.893738
 10
402.371216
 20
442.923035
 10
402.08725
 20
442.990723
 10
401.860138
 20
443.094482
 10
401.698547
 20
443.230988
 10
401.607574
 20
443.393829
 10
401.591492
 20
443.575958
 10
401.651398
 20
443.769775
 10
401.784515
 20
443.966736
 10
401.987396
 20
444.158478
 10
402.256561
 20
444.339539
  0
LWPOLYLINE
  5
1B7
330
16F
100
AcDbEntity
  8
0
  6
Continuous
 62
     0
370
    30
100
AcDbPolyline
 90
       18
 70
     0
 43
0.0
 10
402.256561
 20
444.339539
 10
402.57608
 20
444.499023
 10
402.938629
 20
444.634338
 10
403.330872
 20
444.741547
 10
403.739044
 20
444.818695
 10
404.149323
 20
444.864471
 10
404.547485
 20
444.879456
 10
404.91922
 20
444.864716
 10
405.251678
 20
444.821869
 10
405.534027
 20
444.753204
 10
405.756348
 20
444.661133
 10
405.912384
 20
444.548126
 10
405.997162
 20
444.416656
 10
406.007477
 20
444.269531
 10
405.943817
 20
444.109985
 10
405.807465
 20
443.941467
 10
405.602783
 20
443.768341
 10
405.330688
 20
443.592255
  0
LINE
  5
1B8
330
16F
100
AcDbEntity
  8
0
  6
Continuous
 62
     0
370
    30
100
AcDbLine
 10
402.981971
 20
442.897582
 30
0.0
 11
404.638489
 21
443.267657
 31
0.0
  0
ELLIPSE
  5
1B9
330
16F
100
AcDbEntity
  8
0
  6
Continuous
 62
     0
370
     0
100
AcDbEllipse
 10
404.42468
 20
426.512035
 30
0.0
 11
-6.480219951510239
 21
-17.3385723143423
 31
0.0
210
0.0
220
0.0
230
-1.0
 40
0.668835
 41
3.353978014694706
 42
3.626549799486461
  0
LINE
  5
1BA
330
16F
100
AcDbEntity
  8
0
  6
Continuous
 62
     0
370
     0
100
AcDbLine
 10
404.141984
 20
435.043302
 30
0.0
 11
404.851401
 21
435.135554
 31
0.0
  0
LINE
  5
1BB
330
16F
100
AcDbEntity
  8
0
  6
Continuous
 62
     0
370
     0
100
AcDbLine
 10
405.342764
 20
435.389094
 30
0.0
 11
404.851404
 21
435.135553
 31
0.0
  0
ARC
  5
1BC
330
16F
100
AcDbEntity
  8
0
  6
Continuous
 62
     0
370
     0
100
AcDbCircle
 10
405.715962
 20
434.838647
 30
0.0
 40
0.6650372603470324
100
AcDbArc
 50
357.169218
 51
124.137102
  0
LINE
  5
1BD
330
16F
100
AcDbEntity
  8
0
  6
Continuous
 62
     0
370
     0
100
AcDbLine
 10
406.478527
 20
433.710279
 30
0.0
 11
406.380188
 21
434.805803
 31
0.0
  0
ELLIPSE
  5
1BE
330
16F
100
AcDbEntity
  8
0
  6
Continuous
 62
     0
370
     0
100
AcDbEllipse
 10
403.34668
 20
426.914934
 30
0.0
 11
-5.955964296681763
 21
-15.93586613299918
 31
0.0
210
0.0
220
0.0
230
-1.0
 40
0.668835
 41
3.324745231219867
 42
3.629036066906771
  0
ELLIPSE
  5
1BF
330
16F
100
AcDbEntity
  8
0
  6
Continuous
 62
     0
370
     0
100
AcDbEllipse
 10
403.124928
 20
426.997812
 30
0.0
 11
7.079333103327769
 21
18.94156832142085
 31
0.0
210
0.0
220
0.0
230
1.0
 40
0.668835
 41
0.1224445499135642
 42
3.019145476913236
  0
ELLIPSE
  5
1C0
330
16F
100
AcDbEntity
  8
0
  6
Continuous
 62
     0
370
    30
100
AcDbEllipse
 10
403.559453
 20
426.83541
 30
0.0
 11
-6.38920287370247
 21
-17.09504567524383
 31
0.0
210
0.0
220
0.0
230
-1.0
 40
0.668835
 41
3.388151930201436
 42
3.659405797393332
  0
ARC
  5
1C1
330
16F
100
AcDbEntity
  8
0
  6
Continuous
 62
     0
370
    30
100
AcDbCircle
 10
390.788743
 20
346.132304
 30
0.0
 40
101.8143152430328
100
AcDbArc
 50
73.201463
 51
79.922679
  0
ARC
  5
1C2
330
16F
100
AcDbEntity
  8
0
  6
Continuous
 62
     0
370
    30
100
AcDbCircle
 10
447.008195
 20
496.428804
 30
0.0
 40
102.150280403783
100
AcDbArc
 50
239.100918
 51
249.518278
  0
LINE
  5
1C3
330
16F
100
AcDbEntity
  8
0
  6
Continuous
 62
     0
370
    30
100
AcDbLine
 10
408.603299
 20
446.375976
 30
0.0
 11
408.098835
 21
446.452359
 31
0.0
  0
LINE
  5
1C4
330
16F
100
AcDbEntity
  8
0
  6
Continuous
 62
     0
370
    30
100
AcDbLine
 10
394.550546
 20
408.776818
 30
0.0
 11
394.119652
 21
409.050021
 31
0.0
  0
LINE
  5
1C5
330
16F
100
AcDbEntity
  8
0
  6
Continuous
 62
     0
370
    30
100
AcDbLine
 10
400.655396
 20
405.400439
 30
0.0
 11
400.65558
 21
402.674007
 31
0.0
  0
LINE
  5
1C6
330
16F
100
AcDbEntity
  8
0
  6
Continuous
 62
     0
370
    30
100
AcDbLine
 10
400.655578
 20
402.675914
 30
0.0
 11
400.661616
 21
402.510358
 31
0.0
  0
ELLIPSE
  5
1C7
330
16F
100
AcDbEntity
  8
0
  6
Continuous
 62
     0
370
     0
100
AcDbEllipse
 10
483.026283
 20
465.627382
 30
0.0
 11
0.3103422126394676
 21
-1.975775217744681
 31
0.0
210
0.0
220
0.0
230
1.0
 40
0.739997
 41
1.032089997648832
 42
3.141592692840579
  0
ELLIPSE
  5
1C8
330
16F
100
AcDbEntity
  8
0
  6
Continuous
 62
     0
370
     0
100
AcDbEllipse
 10
483.026283
 20
465.627382
 30
0.0
 11
0.3103422126394676
 21
-1.975775217744681
 31
0.0
210
0.0
220
0.0
230
1.0
 40
0.739997
 41
0.0000000392507848
 42
1.032089997648832
  0
ARC
  5
1C9
330
16F
100
AcDbEntity
  8
0
  6
Continuous
 62
     0
370
    30
100
AcDbCircle
 10
483.023513
 20
465.601614
 30
0.0
 40
1.974832415942649
100
AcDbArc
 50
279.103798
 51
345.198856
  0
ARC
  5
1CA
330
16F
100
AcDbEntity
  8
0
  6
Continuous
 62
     0
370
    30
100
AcDbCircle
 10
483.006123
 20
465.626211
 30
0.0
 40
1.998023489013082
100
AcDbArc
 50
344.644298
 51
98.336907
  0
LINE
  5
1CB
330
16F
100
AcDbEntity
  8
0
  6
Continuous
 62
     0
370
    30
100
AcDbLine
 10
482.715941
 20
467.603158
 30
0.0
 11
481.28325
 21
467.37812
 31
0.0
  0
LINE
  5
1CC
330
16F
100
AcDbEntity
  8
0
  6
Continuous
 62
     0
370
    30
100
AcDbLine
 10
483.336625
 20
463.651607
 30
0.0
 11
482.088346
 21
463.455536
 31
0.0
  0
ELLIPSE
  5
1CD
330
16F
100
AcDbEntity
  8
0
  6
Continuous
 62
     0
370
     0
100
AcDbEllipse
 10
458.333306
 20
265.169636
 30
0.0
 11
11.0
 21
0.0
 31
0.0
210
0.0
220
0.0
230
-1.0
 40
0.57735
 41
2.356194490192346
 42
3.141592662229485
  0
ELLIPSE
  5
1CE
330
16F
100
AcDbEntity
  8
0
  6
Continuous
 62
     0
370
     0
100
AcDbEllipse
 10
458.333306
 20
265.169636
 30
0.0
 11
11.0
 21
0.0
 31
0.0
210
0.0
220
0.0
230
-1.0
 40
0.57735
 41
0.0000000086354208
 42
2.356194490192346
  0
ELLIPSE
  5
1CF
330
16F
100
AcDbEntity
  8
0
  6
Continuous
 62
     0
370
     0
100
AcDbEllipse
 10
347.964882
 20
181.263491
 30
0.0
 11
-10.42723769561517
 21
-3.503243359965454
 31
0.0
210
0.0
220
0.0
230
1.0
 40
0.727504
 41
0.5707587314273255
 42
3.14159265573404
  0
ELLIPSE
  5
1D0
330
16F
100
AcDbEntity
  8
0
  6
Continuous
 62
     0
370
     0
100
AcDbEllipse
 10
347.964882
 20
181.263491
 30
0.0
 11
-10.42723769561517
 21
-3.503243359965454
 31
0.0
210
0.0
220
0.0
230
1.0
 40
0.727504
 41
0.0000000021442474
 42
0.5707587314273255
  0
ELLIPSE
  5
1D1
330
16F
100
AcDbEntity
  8
0
  6
Continuous
 62
     0
370
    30
100
AcDbEllipse
 10
343.433842
 20
194.749917
 30
0.0
 11
-10.42723769561517
 21
-3.503243359965454
 31
0.0
210
0.0
220
0.0
230
1.0
 40
0.727504
 41
0.570758731427321
 42
3.712351385017116
  0
ELLIPSE
  5
1D2
330
16F
100
AcDbEntity
  8
0
  6
Continuous
 62
     0
370
    30
100
AcDbEllipse
 10
343.433842
 20
194.749917
 30
0.0
 11
-10.42723769561517
 21
-3.503243359965454
 31
0.0
210
0.0
220
0.0
230
1.0
 40
0.727504
 41
3.712351385017117
 42
6.853944038606907
  0
LINE
  5
1D3
330
16F
100
AcDbEntity
  8
0
  6
Continuous
 62
     0
370
    30
100
AcDbLine
 10
447.333306
 20
365.764811
 30
0.0
 11
447.333306
 21
265.169636
 31
0.0
  0
LINE
  5
1D4
330
16F
100
AcDbEntity
  8
0
  6
Continuous
 62
     0
370
    30
100
AcDbLine
 10
469.333306
 20
366.055152
 30
0.0
 11
469.333306
 21
265.169636
 31
0.0
  0
LINE
  5
1D5
330
16F
100
AcDbEntity
  8
0
  6
Continuous
 62
     0
370
    30
100
AcDbLine
 10
337.537645
 20
177.760248
 30
0.0
 11
333.006605
 21
191.246673
 31
0.0
  0
LINE
  5
1D6
330
16F
100
AcDbEntity
  8
0
  6
Continuous
 62
     0
370
    30
100
AcDbLine
 10
358.39212
 20
184.766735
 30
0.0
 11
353.86108
 21
198.25316
 31
0.0
  0
LWPOLYLINE
  5
1D7
330
16F
100
AcDbEntity
  8
0
  6
Continuous
 62
     0
370
    30
100
AcDbPolyline
 90
       71
 70
     0
 43
0.0
 10
367.264771
 20
172.754013
 10
368.090942
 20
172.309036
 10
368.948578
 20
171.911194
 10
369.841034
 20
171.560379
 10
370.771637
 20
171.256485
 10
371.743622
 20
170.999664
 10
372.759033
 20
170.791565
 10
373.819427
 20
170.634552
 10
374.926331
 20
170.531021
 10
376.081238
 20
170.483307
 10
377.284149
 20
170.493942
 10
378.533936
 20
170.56546
 10
379.829437
 20
170.700455
 10
381.169098
 20
170.901276
 10
382.550385
 20
171.169617
 10
383.970551
 20
171.506989
 10
385.42691
 20
171.914993
 10
386.916718
 20
172.395096
 10
388.436981
 20
172.947861
 10
389.984589
 20
173.572891
 10
391.556305
 20
174.269775
 10
393.148987
 20
175.038086
 10
394.75946
 20
175.877426
 10
396.384521
 20
176.787384
 10
398.020996
 20
177.767517
 10
399.66571
 20
178.817444
 10
401.315704
 20
179.936264
 10
402.968414
 20
181.122299
 10
404.621277
 20
182.373795
 10
406.27179
 20
183.68895
 10
407.917419
 20
185.065994
 10
409.555603
 20
186.503174
 10
411.183838
 20
187.998688
 10
412.799591
 20
189.550781
 10
414.400299
 20
191.157654
 10
415.98349
 20
192.817566
 10
417.546661
 20
194.52861
 10
419.087921
 20
196.288528
 10
420.605347
 20
198.094955
 10
422.097107
 20
199.945465
 10
423.561371
 20
201.837708
 10
424.996277
 20
203.769272
 10
426.399963
 20
205.737793
 10
427.770599
 20
207.740875
 10
429.106293
 20
209.776138
 10
430.405243
 20
211.841202
 10
431.665588
 20
213.93367
 10
432.88562
 20
216.051041
 10
434.064087
 20
218.190582
 10
435.199799
 20
220.349533
 10
436.291473
 20
222.525085
 10
437.337952
 20
224.714493
 10
438.337982
 20
226.914978
 10
439.290344
 20
229.123749
 10
440.193817
 20
231.338043
 10
441.04718
 20
233.555084
 10
441.849243
 20
235.77211
 10
442.598755
 20
237.986313
 10
443.294922
 20
240.194839
 10
443.937256
 20
242.39473
 10
444.525269
 20
244.583008
 10
445.058502
 20
246.756744
 10
445.536469
 20
248.912933
 10
445.95871
 20
251.04866
 10
446.324738
 20
253.160934
 10
446.634064
 20
255.246796
 10
446.886505
 20
257.303101
 10
447.082336
 20
259.326385
 10
447.221832
 20
261.313049
 10
447.305389
 20
263.259583
 10
447.333313
 20
265.169647
  0
LWPOLYLINE
  5
1D8
330
16F
100
AcDbEntity
  8
0
  6
Continuous
 62
     0
370
    30
100
AcDbPolyline
 90
      103
 70
     0
 43
0.0
 10
337.537659
 20
177.760254
 10
338.159912
 20
176.006546
 10
338.836884
 20
174.288879
 10
339.569031
 20
172.608978
 10
340.356781
 20
170.968567
 10
341.200531
 20
169.369415
 10
342.099976
 20
167.813553
 10
343.054443
 20
166.303146
 10
344.063385
 20
164.840363
 10
345.12616
 20
163.427338
 10
346.242157
 20
162.066254
 10
347.410736
 20
160.759262
 10
348.631287
 20
159.50853
 10
349.903198
 20
158.316208
 10
351.225464
 20
157.184418
 10
352.595978
 20
156.115158
 10
354.012421
 20
155.110413
 10
355.472382
 20
154.17215
 10
356.973602
 20
153.302368
 10
358.51358
 20
152.502792
 10
360.089661
 20
151.774368
 10
361.699097
 20
151.117767
 10
363.339111
 20
150.533676
 10
365.006927
 20
150.022812
 10
366.69989
 20
149.585663
 10
368.415588
 20
149.221939
 10
370.151672
 20
148.931137
 10
371.905853
 20
148.712753
 10
373.675842
 20
148.566254
 10
375.459259
 20
148.49115
 10
377.25412
 20
148.486786
 10
379.058868
 20
148.552124
 10
380.872162
 20
148.686142
 10
382.692566
 20
148.887756
 10
384.518738
 20
149.15593
 10
386.349213
 20
149.489594
 10
388.18277
 20
149.887741
 10
390.018433
 20
150.349472
 10
391.855377
 20
150.873901
 10
393.692719
 20
151.460144
 10
395.529572
 20
152.10733
 10
397.365051
 20
152.814575
 10
399.198273
 20
153.580994
 10
401.028381
 20
154.405701
 10
402.854492
 20
155.287811
 10
404.67572
 20
156.226456
 10
406.49118
 20
157.220749
 10
408.300018
 20
158.269791
 10
410.101379
 20
159.372726
 10
411.894318
 20
160.528656
 10
413.677979
 20
161.736664
 10
415.451355
 20
162.995697
 10
417.213379
 20
164.304718
 10
418.963074
 20
165.662613
 10
420.699402
 20
167.068344
 10
422.421295
 20
168.520813
 10
424.127747
 20
170.018951
 10
425.817749
 20
171.561691
 10
427.490265
 20
173.147964
 10
429.144257
 20
174.776688
 10
430.778687
 20
176.446793
 10
432.392517
 20
178.157211
 10
433.984772
 20
179.90686
 10
435.554382
 20
181.69455
 10
437.100281
 20
183.51886
 10
438.621429
 20
185.378357
 10
440.116821
 20
187.271622
 10
441.585358
 20
189.197235
 10
443.026001
 20
191.153732
 10
444.437714
 20
193.139725
 10
445.819458
 20
195.153748
 10
447.170166
 20
197.194382
 10
448.488892
 20
199.260117
 10
449.77475
 20
201.349396
 10
451.026825
 20
203.460663
 10
452.244293
 20
205.592361
 10
453.426208
 20
207.74295
 10
454.571686
 20
209.910858
 10
455.67984
 20
212.094528
 10
456.749817
 20
214.292419
 10
457.780701
 20
216.502945
 10
458.771881
 20
218.724518
 10
459.722626
 20
220.955505
 10
460.632294
 20
223.194305
 10
461.500183
 20
225.439316
 10
462.325623
 20
227.688889
 10
463.107971
 20
229.941452
 10
463.846497
 20
232.195358
 10
464.540619
 20
234.449036
 10
465.189728
 20
236.701019
 10
465.793427
 20
238.949905
 10
466.351227
 20
241.194275
 10
466.86264
 20
243.432724
 10
467.327209
 20
245.663834
 10
467.744446
 20
247.8862
 10
468.113922
 20
250.098404
 10
468.435272
 20
252.298843
 10
468.70816
 20
254.485947
 10
468.93222
 20
256.658112
 10
469.107086
 20
258.813751
 10
469.232483
 20
260.951263
 10
469.307983
 20
263.069092
 10
469.333313
 20
265.169647
  0
ARC
  5
1D9
330
16F
100
AcDbEntity
  8
0
  6
Continuous
 62
     0
370
    30
100
AcDbCircle
 10
378.442228
 20
190.292788
 30
0.0
 40
20.79769490063097
100
AcDbArc
 50
195.408853
 51
237.490616
  0
ENDBLK
  5
1DB
330
16F
100
AcDbEntity
  8
0
100
AcDbBlockEnd
  0
BLOCK
  5
244
330
1DD
100
AcDbEntity
  8
0
100
AcDbBlockBegin
  2
e
 70
     0
 10
24.549809
 20
0.0
 30
0.0
  3
e
  1

  0
LINE
  5
1DE
330
1DD
100
AcDbEntity
  8
0
  6
Continuous
 62
     0
370
    30
100
AcDbLine
 10
-81.440584
 20
789.662718
 30
0.0
 11
-92.743695
 21
789.662718
 31
0.0
  0
LINE
  5
1DF
330
1DD
100
AcDbEntity
  8
0
  6
Continuous
 62
     0
370
    30
100
AcDbLine
 10
-92.743701
 20
789.662718
 30
0.0
 11
-104.04362
 21
789.662717
 31
0.0
  0
LINE
  5
1E0
330
1DD
100
AcDbEntity
  8
0
  6
Continuous
 62
     0
370
    30
100
AcDbLine
 10
-104.043656
 20
901.383344
 30
0.0
 11
-92.743617
 21
901.383344
 31
0.0
  0
LINE
  5
1E1
330
1DD
100
AcDbEntity
  8
0
  6
Continuous
 62
     0
370
    30
100
AcDbLine
 10
-85.665431
 20
901.383344
 30
0.0
 11
-71.243585
 21
901.383344
 31
0.0
  0
LINE
  5
1E2
330
1DD
100
AcDbEntity
  8
0
  6
Continuous
 62
     0
370
    30
100
AcDbLine
 10
-92.743617
 20
901.383344
 30
0.0
 11
-89.665431
 21
901.383344
 31
0.0
  0
LINE
  5
1E3
330
1DD
100
AcDbEntity
  8
0
  6
Continuous
 62
     0
370
     0
100
AcDbLine
 10
-71.24362
 20
870.984022
 30
0.0
 11
-71.603564
 21
870.983725
 31
0.0
  0
LWPOLYLINE
  5
1E4
330
1DD
100
AcDbEntity
  8
0
  6
Continuous
 62
     0
370
    30
100
AcDbPolyline
 90
       30
 70
     0
 43
0.0
 10
-71.603615
 20
870.97168
 10
-71.598595
 20
870.106445
 10
-71.562912
 20
869.241333
 10
-71.511574
 20
868.376831
 10
-71.47039
 20
867.512817
 10
-71.446121
 20
866.648682
 10
-71.430664
 20
865.784058
 10
-71.412262
 20
864.919067
 10
-71.370148
 20
864.054993
 10
-71.277092
 20
863.194946
 10
-71.116417
 20
862.344849
 10
-70.883591
 20
861.511658
 10
-70.579674
 20
860.701843
 10
-70.206802
 20
859.921509
 10
-69.76712
 20
859.176697
 10
-69.263161
 20
858.473816
 10
-68.698189
 20
857.818848
 10
-68.077614
 20
857.216248
 10
-67.407677
 20
856.669189
 10
-66.69313
 20
856.182312
 10
-65.937996
 20
855.761169
 10
-65.147942
 20
855.409363
 10
-64.330956
 20
855.125305
 10
-63.495178
 20
854.902344
 10
-62.648186
 20
854.726074
 10
-61.79845
 20
854.563049
 10
-60.952232
 20
854.382996
 10
-60.109718
 20
854.185852
 10
-59.264023
 20
854.003662
 10
-58.403759
 20
853.84613
  0
LINE
  5
1E5
330
1DD
100
AcDbEntity
  8
0
  6
Continuous
 62
     0
370
     0
100
AcDbLine
 10
-58.403759
 20
853.84611
 30
0.0
 11
-58.357075
 21
854.115318
 31
0.0
  0
LINE
  5
1E6
330
1DD
100
AcDbEntity
  8
0
  6
Continuous
 62
     0
370
     0
100
AcDbLine
 10
-62.146533
 20
832.596412
 30
0.0
 11
-92.74362
 21
837.99151
 31
0.0
  0
LINE
  5
1E7
330
1DD
100
AcDbEntity
  8
0
  6
Continuous
 62
     0
370
     0
100
AcDbLine
 10
-58.403537
 20
853.846071
 30
0.0
 11
-62.146533
 21
832.596412
 31
0.0
  0
LINE
  5
1E8
330
1DD
100
AcDbEntity
  8
0
  6
Continuous
 62
     0
370
     0
100
AcDbLine
 10
-92.743619
 20
870.984006
 30
0.0
 11
-71.603705
 21
870.971673
 31
0.0
  0
LINE
  5
1E9
330
1DD
100
AcDbEntity
  8
0
  6
Continuous
 62
     0
370
    30
100
AcDbLine
 10
-71.24362
 20
901.498691
 30
0.0
 11
-71.24362
 21
870.984023
 31
0.0
  0
LINE
  5
1EA
330
1DD
100
AcDbEntity
  8
0
  6
Continuous
 62
     0
370
     0
100
AcDbLine
 10
-92.743619
 20
870.984007
 30
0.0
 11
-92.743617
 21
901.491975
 31
0.0
  0
LINE
  5
1EB
330
1DD
100
AcDbEntity
  8
0
  6
Continuous
 62
     0
370
     0
100
AcDbLine
 10
-104.043621
 20
901.267996
 30
0.0
 11
-104.043621
 21
899.224078
 31
0.0
  0
LWPOLYLINE
  5
1EC
330
1DD
100
AcDbEntity
  8
0
  6
Continuous
 62
     0
370
     0
100
AcDbPolyline
 90
       20
 70
     0
 43
0.0
 10
-104.043617
 20
870.984253
 10
-104.031448
 20
870.984253
 10
-103.94519
 20
870.984192
 10
-103.785248
 20
870.984192
 10
-103.552368
 20
870.984192
 10
-103.247635
 20
870.984192
 10
-102.872475
 20
870.984192
 10
-102.428627
 20
870.984131
 10
-101.918167
 20
870.984131
 10
-101.343475
 20
870.984131
 10
-100.707237
 20
870.984131
 10
-100.012421
 20
870.984131
 10
-99.26226
 20
870.98407
 10
-98.460251
 20
870.98407
 10
-97.610146
 20
870.98407
 10
-96.715897
 20
870.98407
 10
-95.781685
 20
870.98407
 10
-94.811859
 20
870.984009
 10
-93.810951
 20
870.984009
 10
-92.743629
 20
870.984009
  0
LWPOLYLINE
  5
1ED
330
1DD
100
AcDbEntity
  8
0
  6
Continuous
 62
     0
370
    30
100
AcDbPolyline
 90
       33
 70
     0
 43
0.0
 10
-65.945488
 20
811.079224
 10
-66.714195
 20
811.214722
 10
-67.482971
 20
811.350098
 10
-68.25177
 20
811.485352
 10
-69.020538
 20
811.620728
 10
-69.789062
 20
811.757385
 10
-70.557076
 20
811.896912
 10
-71.324554
 20
812.039368
 10
-72.094208
 20
812.169434
 10
-72.869705
 20
812.257263
 10
-73.650131
 20
812.274902
 10
-74.428658
 20
812.21637
 10
-75.197975
 20
812.082764
 10
-75.951279
 20
811.874573
 10
-76.680664
 20
811.593811
 10
-77.378845
 20
811.243103
 10
-78.039452
 20
810.825989
 10
-78.656265
 20
810.346497
 10
-79.223297
 20
809.809082
 10
-79.735359
 20
809.219116
 10
-80.187714
 20
808.582153
 10
-80.575554
 20
807.90387
 10
-80.894829
 20
807.190552
 10
-81.143089
 20
806.449951
 10
-81.316353
 20
805.688965
 10
-81.414291
 20
804.91449
 10
-81.451698
 20
804.134766
 10
-81.452286
 20
803.354248
 10
-81.44381
 20
802.57373
 10
-81.439941
 20
801.793152
 10
-81.441032
 20
801.012573
 10
-81.443069
 20
800.231995
 10
-81.443619
 20
799.44104
  0
LINE
  5
1EE
330
1DD
100
AcDbEntity
  8
0
  6
Continuous
 62
     0
370
     0
100
AcDbLine
 10
-81.44362
 20
799.441027
 30
0.0
 11
-92.743637
 21
799.441701
 31
0.0
  0
LWPOLYLINE
  5
1EF
330
1DD
100
AcDbEntity
  8
0
  6
Continuous
 62
     0
370
     0
100
AcDbPolyline
 90
       32
 70
     0
 43
0.0
 10
-62.146534
 20
832.596436
 10
-62.333263
 20
831.508118
 10
-62.52652
 20
830.421143
 10
-62.721966
 20
829.33551
 10
-62.914494
 20
828.257385
 10
-63.10181
 20
827.195557
 10
-63.285065
 20
826.153015
 10
-63.466221
 20
825.126221
 10
-63.645214
 20
824.113586
 10
-63.820789
 20
823.118835
 10
-63.99197
 20
822.148682
 10
-64.158096
 20
821.20813
 10
-64.318886
 20
820.298828
 10
-64.47406
 20
819.421143
 10
-64.623337
 20
818.575989
 10
-64.766464
 20
817.765747
 10
-64.903091
 20
816.993042
 10
-65.032356
 20
816.260925
 10
-65.153351
 20
815.572144
 10
-65.266167
 20
814.92804
 10
-65.371513
 20
814.328918
 10
-65.469727
 20
813.775452
 10
-65.56073
 20
813.268555
 10
-65.643509
 20
812.810425
 10
-65.714691
 20
812.40625
 10
-65.771393
 20
812.060608
 10
-65.817131
 20
811.77002
 10
-65.860168
 20
811.525208
 10
-65.904022
 20
811.321228
 10
-65.939919
 20
811.170593
 10
-65.95443
 20
811.093872
 10
-65.945488
 20
811.079224
  0
LINE
  5
1F0
330
1DD
100
AcDbEntity
  8
0
  6
Continuous
 62
     0
370
     0
100
AcDbLine
 10
-92.743709
 20
799.441809
 30
0.0
 11
-92.74362
 21
837.99151
 31
0.0
  0
LINE
  5
1F1
330
1DD
100
AcDbEntity
  8
0
  6
Continuous
 62
     0
370
    30
100
AcDbLine
 10
-104.04362
 20
848.208043
 30
0.0
 11
-104.043621
 21
839.984022
 31
0.0
  0
LINE
  5
1F2
330
1DD
100
AcDbEntity
  8
0
  6
Continuous
 62
     0
370
     0
100
AcDbLine
 10
-104.043621
 20
839.984022
 30
0.0
 11
-92.74362
 21
837.99151
 31
0.0
  0
LINE
  5
1F3
330
1DD
100
AcDbEntity
  8
0
  6
Continuous
 62
     0
370
     0
100
AcDbLine
 10
-92.743695
 20
789.662718
 30
0.0
 11
-92.743637
 21
799.441701
 31
0.0
  0
LINE
  5
1F4
330
1DD
100
AcDbEntity
  8
0
  6
Continuous
 62
     0
370
    30
100
AcDbLine
 10
-81.44362
 20
799.441027
 30
0.0
 11
-81.440584
 21
789.662718
 31
0.0
  0
LINE
  5
1F5
330
1DD
100
AcDbEntity
  8
0
  6
Continuous
 62
     0
370
     0
100
AcDbLine
 10
-92.743709
 20
799.441809
 30
0.0
 11
-104.04362
 21
799.46289
 31
0.0
  0
LINE
  5
1F6
330
1DD
100
AcDbEntity
  8
0
  6
Continuous
 62
     0
370
    30
100
AcDbLine
 10
-104.04362
 20
799.46289
 30
0.0
 11
-104.04362
 21
789.662717
 31
0.0
  0
LINE
  5
1F7
330
1DD
100
AcDbEntity
  8
0
  6
Continuous
 62
     0
370
    30
100
AcDbLine
 10
-104.043621
 20
839.984022
 30
0.0
 11
-104.04362
 21
799.46289
 31
0.0
  0
LWPOLYLINE
  5
1F8
330
1DD
100
AcDbEntity
  8
0
  6
Continuous
 62
     0
370
     0
100
AcDbPolyline
 90
       30
 70
     0
 43
0.0
 10
-44.255978
 20
807.254761
 10
-44.249477
 20
807.258545
 10
-44.231956
 20
807.325134
 10
-44.203571
 20
807.457031
 10
-44.16412
 20
807.667114
 10
-44.113987
 20
807.950623
 10
-44.053356
 20
808.299988
 10
-43.982334
 20
808.71167
 10
-43.901123
 20
809.182922
 10
-43.809948
 20
809.710938
 10
-43.709049
 20
810.293762
 10
-43.598686
 20
810.929504
 10
-43.479149
 20
811.616333
 10
-43.350784
 20
812.352295
 10
-43.21394
 20
813.135315
 10
-43.068981
 20
813.963379
 10
-42.916359
 20
814.834106
 10
-42.756561
 20
815.744934
 10
-42.590069
 20
816.693359
 10
-42.417362
 20
817.67688
 10
-42.23893
 20
818.692688
 10
-42.055241
 20
819.737366
 10
-41.866817
 20
820.80719
 10
-41.674213
 20
821.899414
 10
-41.477871
 20
823.013794
 10
-41.278332
 20
824.148499
 10
-41.076775
 20
825.295959
 10
-40.874458
 20
826.44751
 10
-40.671089
 20
827.599731
 10
-40.461742
 20
828.772827
  0
LWPOLYLINE
  5
1F9
330
1DD
100
AcDbEntity
  8
0
  6
Continuous
 62
     0
370
    30
100
AcDbPolyline
 90
       30
 70
     0
 43
0.0
 10
-39.473503
 20
828.619507
 10
-39.669491
 20
827.506348
 10
-39.86517
 20
826.396179
 10
-40.059948
 20
825.291748
 10
-40.253025
 20
824.19696
 10
-40.443661
 20
823.115784
 10
-40.63139
 20
822.051025
 10
-40.81575
 20
821.005371
 10
-40.996281
 20
819.981567
 10
-41.172485
 20
818.982483
 10
-41.343826
 20
818.011108
 10
-41.509762
 20
817.070435
 10
-41.669788
 20
816.163269
 10
-41.823456
 20
815.292236
 10
-41.97036
 20
814.459656
 10
-42.110111
 20
813.667725
 10
-42.242344
 20
812.918579
 10
-42.366665
 20
812.214355
 10
-42.482693
 20
811.557251
 10
-42.590069
 20
810.949341
 10
-42.688454
 20
810.392395
 10
-42.777534
 20
809.888245
 10
-42.856991
 20
809.43866
 10
-42.926445
 20
809.045715
 10
-42.985466
 20
808.71167
 10
-43.032959
 20
808.442322
 10
-43.06752
 20
808.244934
 10
-43.089478
 20
808.11792
 10
-43.100426
 20
808.053101
 10
-43.100643
 20
808.049072
  0
LINE
  5
1FA
330
1DD
100
AcDbEntity
  8
0
  6
Continuous
 62
     0
370
     0
100
AcDbLine
 10
-40.458173
 20
828.793096
 30
0.0
 11
-39.473293
 21
828.619818
 31
0.0
  0
LINE
  5
1FB
330
1DD
100
AcDbEntity
  8
0
  6
Continuous
 62
     0
370
    30
100
AcDbLine
 10
-64.401979
 20
810.815126
 30
0.0
 11
-65.945491
 21
811.079218
 31
0.0
  0
LINE
  5
1FC
330
1DD
100
AcDbEntity
  8
0
  6
Continuous
 62
     0
370
     0
100
AcDbLine
 10
-62.146533
 20
832.596412
 30
0.0
 11
-40.461917
 21
828.772831
 31
0.0
  0
LINE
  5
1FD
330
1DD
100
AcDbEntity
  8
0
  6
Continuous
 62
     0
370
    30
100
AcDbLine
 10
-58.357075
 20
854.115318
 30
0.0
 11
-36.667561
 21
850.290878
 31
0.0
  0
LWPOLYLINE
  5
1FE
330
1DD
100
AcDbEntity
  8
0
  6
Continuous
 62
     0
370
     0
100
AcDbPolyline
 90
       27
 70
     0
 43
0.0
 10
-36.667561
 20
850.290894
 10
-36.674362
 20
850.251892
 10
-36.694935
 20
850.13446
 10
-36.729183
 20
849.939148
 10
-36.776955
 20
849.666809
 10
-36.838055
 20
849.318542
 10
-36.912228
 20
848.895813
 10
-36.99921
 20
848.400208
 10
-37.098736
 20
847.83313
 10
-37.210442
 20
847.196716
 10
-37.333916
 20
846.493286
 10
-37.468735
 20
845.725342
 10
-37.614452
 20
844.895447
 10
-37.770546
 20
844.00647
 10
-37.936443
 20
843.061707
 10
-38.11158
 20
842.064392
 10
-38.295349
 20
841.017944
 10
-38.487076
 20
839.926392
 10
-38.68605
 20
838.793884
 10
-38.891586
 20
837.624512
 10
-39.10305
 20
836.422485
 10
-39.319904
 20
835.191711
 10
-39.541615
 20
833.936401
 10
-39.767601
 20
832.660706
 10
-39.996952
 20
831.370728
 10
-40.228546
 20
830.073669
 10
-40.461918
 20
828.772827
  0
LWPOLYLINE
  5
1FF
330
1DD
100
AcDbEntity
  8
0
  6
Continuous
 62
     0
370
    30
100
AcDbPolyline
 90
       27
 70
     0
 43
0.0
 10
-35.853519
 20
849.149658
 10
-35.860088
 20
849.112427
 10
-35.879803
 20
849.000671
 10
-35.91254
 20
848.815125
 10
-35.958195
 20
848.556335
 10
-36.016647
 20
848.225037
 10
-36.087692
 20
847.822388
 10
-36.171009
 20
847.350098
 10
-36.266277
 20
846.810181
 10
-36.373169
 20
846.204346
 10
-36.491348
 20
845.534607
 10
-36.620377
 20
844.803345
 10
-36.759777
 20
844.013245
 10
-36.909073
 20
843.167114
 10
-37.06778
 20
842.267517
 10
-37.235348
 20
841.317688
 10
-37.411129
 20
840.321228
 10
-37.594479
 20
839.281738
 10
-37.784744
 20
838.203003
 10
-37.981262
 20
837.088623
 10
-38.183289
 20
835.942932
 10
-38.390076
 20
834.77002
 10
-38.600872
 20
833.574158
 10
-38.814899
 20
832.359741
 10
-39.031281
 20
831.131531
 10
-39.249111
 20
829.894531
 10
-39.473515
 20
828.619507
  0
ARC
  5
200
330
1DD
100
AcDbEntity
  8
0
  6
Continuous
 62
     0
370
    30
100
AcDbCircle
 10
-36.841209
 20
849.30607
 30
0.0
 40
1.00000000000001
100
AcDbArc
 50
351.000016
 51
80.000016
  0
LINE
  5
201
330
1DD
100
AcDbEntity
  8
0
  6
Continuous
 62
     0
370
    30
100
AcDbLine
 10
-44.254298
 20
807.248564
 30
0.0
 11
-64.402092
 21
810.815146
 31
0.0
  0
ARC
  5
202
330
1DD
100
AcDbEntity
  8
0
  6
Continuous
 62
     0
370
    30
100
AcDbCircle
 10
-44.083759
 20
808.234377
 30
0.0
 40
1.0004284508726
100
AcDbArc
 50
260.169587
 51
349.322188
  0
LINE
  5
203
330
1DD
100
AcDbEntity
  8
0
  6
Continuous
 62
     0
370
    30
100
AcDbLine
 10
-104.047806
 20
870.98424
 30
0.0
 11
-104.043944
 21
848.208043
 31
0.0
  0
ARC
  5
204
330
1DD
100
AcDbEntity
  8
0
  6
Continuous
 62
     0
370
    30
100
AcDbCircle
 10
-73.443161
 20
804.275412
 30
0.0
 40
8.002233426271076
100
AcDbArc
 50
118.025393
 51
153.61792
  0
LWPOLYLINE
  5
205
330
1DD
100
AcDbEntity
  8
0
  6
Continuous
 62
     0
370
    30
100
AcDbPolyline
 90
       17
 70
     0
 43
0.0
 10
-81.443474
 20
799.913635
 10
-81.443542
 20
799.862793
 10
-81.443565
 20
799.875793
 10
-81.443542
 20
799.940369
 10
-81.443443
 20
800.044434
 10
-81.443268
 20
800.17572
 10
-81.442986
 20
800.322144
 10
-81.442596
 20
800.471436
 10
-81.442078
 20
800.611511
 10
-81.441437
 20
800.733032
 10
-81.440742
 20
800.837341
 10
-81.440071
 20
800.928406
 10
-81.439522
 20
801.009949
 10
-81.439171
 20
801.085815
 10
-81.439102
 20
801.159851
 10
-81.439407
 20
801.235962
 10
-81.440239
 20
801.323975
  0
LINE
  5
206
330
1DD
100
AcDbEntity
  8
0
  6
Continuous
 62
     0
370
    30
100
AcDbLine
 10
-104.047806
 20
870.98424
 30
0.0
 11
-104.043956
 21
899.224078
 31
0.0
  0
LINE
  5
207
330
1DD
100
AcDbEntity
  8
0
  6
Continuous
 62
     0
370
     0
100
AcDbLine
 10
-87.643622
 20
901.883344
 30
0.0
 11
-60.143621
 21
901.883344
 31
0.0
  0
LINE
  5
208
330
1DD
100
AcDbEntity
  8
0
  6
Continuous
 62
     0
370
     0
100
AcDbLine
 10
-115.143621
 20
901.883344
 30
0.0
 11
-87.643622
 21
901.883344
 31
0.0
  0
LINE
  5
209
330
1DD
100
AcDbEntity
  8
0
  6
Continuous
 62
     0
370
     0
100
AcDbLine
 10
-115.143621
 20
905.083344
 30
0.0
 11
-87.643622
 21
905.083344
 31
0.0
  0
LINE
  5
20A
330
1DD
100
AcDbEntity
  8
0
  6
Continuous
 62
     0
370
     0
100
AcDbLine
 10
-87.643622
 20
905.083344
 30
0.0
 11
-60.143621
 21
905.083344
 31
0.0
  0
LINE
  5
20B
330
1DD
100
AcDbEntity
  8
0
  6
Continuous
 62
     0
370
    30
100
AcDbLine
 10
-60.143621
 20
901.883343
 30
0.0
 11
-60.143621
 21
905.083344
 31
0.0
  0
LINE
  5
20C
330
1DD
100
AcDbEntity
  8
0
  6
Continuous
 62
     0
370
    30
100
AcDbLine
 10
-115.143621
 20
901.883343
 30
0.0
 11
-115.143621
 21
905.083344
 31
0.0
  0
ARC
  5
20D
330
1DD
100
AcDbEntity
  8
0
  6
Continuous
 62
     0
370
    30
100
AcDbCircle
 10
-40.876065
 20
828.656558
 30
0.0
 40
20.50407013732109
100
AcDbArc
 50
45.248684
 51
76.119469
  0
LINE
  5
20E
330
1DD
100
AcDbEntity
  8
0
  6
Continuous
 62
     0
370
    30
100
AcDbLine
 10
-42.989911
 20
808.677153
 30
0.0
 11
-40.567668
 21
808.56229
 31
0.0
  0
LINE
  5
20F
330
1DD
100
AcDbEntity
  8
0
  6
Continuous
 62
     0
370
    30
100
AcDbLine
 10
-40.9357
 20
806.475072
 30
0.0
 11
-37.158562
 21
827.89634
 31
0.0
  0
ARC
  5
210
330
1DD
100
AcDbEntity
  8
0
  6
Continuous
 62
     0
370
    30
100
AcDbCircle
 10
-17.748105
 20
809.009213
 30
0.0
 40
15.0
100
AcDbArc
 50
270.000023
 51
283.835246
  0
LINE
  5
211
330
1DD
100
AcDbEntity
  8
0
  6
Continuous
 62
     0
370
     0
100
AcDbLine
 10
-21.335056
 20
794.4444
 30
0.0
 11
-14.161143
 21
794.444403
 31
0.0
  0
LINE
  5
212
330
1DD
100
AcDbEntity
  8
0
  6
Continuous
 62
     0
370
     0
100
AcDbLine
 10
-22.2481
 20
795.609585
 30
0.0
 11
-13.2481
 21
795.609588
 31
0.0
  0
ARC
  5
213
330
1DD
100
AcDbEntity
  8
0
  6
Continuous
 62
     0
370
    30
100
AcDbCircle
 10
-14.4481
 20
795.609588
 30
0.0
 40
1.200000047683726
100
AcDbArc
 50
283.835246
 51
0.000023
  0
LINE
  5
214
330
1DD
100
AcDbEntity
  8
0
  6
Continuous
 62
     0
370
    30
100
AcDbLine
 10
-37.158563
 20
827.89634
 30
0.0
 11
-23.582371
 21
847.283896
 31
0.0
  0
LWPOLYLINE
  5
215
330
1DD
100
AcDbEntity
  8
0
  6
Continuous
 62
     0
370
    30
100
AcDbPolyline
 90
       18
 70
     0
 43
0.0
 10
-13.652142
 20
844.592834
 10
-13.689974
 20
844.600037
 10
-13.802351
 20
844.621643
 10
-13.985004
 20
844.658081
 10
-14.230934
 20
844.709656
 10
-14.532199
 20
844.776672
 10
-14.877365
 20
844.858398
 10
-15.254045
 20
844.953918
 10
-15.649261
 20
845.061401
 10
-16.049158
 20
845.177429
 10
-16.44006
 20
845.29834
 10
-16.809563
 20
845.419067
 10
-17.145691
 20
845.534363
 10
-17.437517
 20
845.638855
 10
-17.676123
 20
845.727295
 10
-17.853094
 20
845.794556
 10
-17.962198
 20
845.836731
 10
-17.999649
 20
845.851318
  0
LINE
  5
216
330
1DD
100
AcDbEntity
  8
0
  6
Continuous
 62
     0
370
    30
100
AcDbLine
 10
-13.2481
 20
795.609588
 30
0.0
 11
-13.248107
 21
815.589079
 31
0.0
  0
LWPOLYLINE
  5
217
330
1DD
100
AcDbEntity
  8
0
  6
Continuous
 62
     0
370
     0
100
AcDbPolyline
 90
       35
 70
     0
 43
0.0
 10
-15.951672
 20
804.940979
 10
-15.844045
 20
805.297791
 10
-15.737622
 20
805.65448
 10
-15.63242
 20
806.011047
 10
-15.52845
 20
806.367493
 10
-15.425728
 20
806.723633
 10
-15.324268
 20
807.079468
 10
-15.224086
 20
807.434998
 10
-15.125196
 20
807.790039
 10
-15.027617
 20
808.144592
 10
-14.931364
 20
808.498535
 10
-14.836458
 20
808.851807
 10
-14.74292
 20
809.204285
 10
-14.650773
 20
809.555847
 10
-14.560042
 20
809.906372
 10
-14.470758
 20
810.255676
 10
-14.382953
 20
810.603577
 10
-14.296665
 20
810.94989
 10
-14.21194
 20
811.294373
 10
-14.128832
 20
811.636719
 10
-14.047405
 20
811.976562
 10
-13.967739
 20
812.313477
 10
-13.889931
 20
812.646973
 10
-13.814105
 20
812.976257
 10
-13.740419
 20
813.300476
 10
-13.669083
 20
813.618591
 10
-13.600372
 20
813.929016
 10
-13.534668
 20
814.229736
 10
-13.472502
 20
814.517822
 10
-13.414634
 20
814.789307
 10
-13.362174
 20
815.038208
 10
-13.316745
 20
815.255981
 10
-13.280647
 20
815.430542
 10
-13.256817
 20
815.546509
 10
-13.248108
 20
815.58905
  0
LWPOLYLINE
  5
218
330
1DD
100
AcDbEntity
  8
0
  6
Continuous
 62
     0
370
     0
100
AcDbPolyline
 90
        9
 70
     0
 43
0.0
 10
-18.131138
 20
803.004761
 10
-17.78978
 20
803.030273
 10
-17.453831
 20
803.126404
 10
-17.131382
 20
803.286072
 10
-16.829414
 20
803.506836
 10
-16.555061
 20
803.786987
 10
-16.314287
 20
804.122253
 10
-16.112299
 20
804.507324
 10
-15.951672
 20
804.940979
  0
LWPOLYLINE
  5
219
330
1DD
100
AcDbEntity
  8
0
  6
Continuous
 62
     0
370
     0
100
AcDbPolyline
 90
       15
 70
     0
 43
0.0
 10
-18.131138
 20
803.004761
 10
-18.569109
 20
803.041382
 10
-19.001913
 20
803.080688
 10
-19.427568
 20
803.111816
 10
-19.842442
 20
803.126892
 10
-20.240482
 20
803.131775
 10
-20.616299
 20
803.132141
 10
-20.964933
 20
803.130737
 10
-21.281412
 20
803.130676
 10
-21.560848
 20
803.135254
 10
-21.79854
 20
803.146545
 10
-21.989807
 20
803.172546
 10
-22.130484
 20
803.225098
 10
-22.21788
 20
803.283875
 10
-22.248102
 20
803.3125
  0
LINE
  5
21A
330
1DD
100
AcDbEntity
  8
0
  6
Continuous
 62
     0
370
     0
100
AcDbLine
 10
-18.237177
 20
804.918427
 30
0.0
 11
-11.367198
 21
843.880106
 31
0.0
  0
LWPOLYLINE
  5
21B
330
1DD
100
AcDbEntity
  8
0
  6
Continuous
 62
     0
370
     0
100
AcDbPolyline
 90
        7
 70
     0
 43
0.0
 10
-18.237177
 20
804.918457
 10
-17.986139
 20
804.94873
 10
-17.742983
 20
805.015991
 10
-17.516766
 20
805.122375
 10
-17.315784
 20
805.266479
 10
-17.146811
 20
805.447388
 10
-16.99036
 20
805.718872
  0
LINE
  5
21C
330
1DD
100
AcDbEntity
  8
0
  6
Continuous
 62
     0
370
     0
100
AcDbLine
 10
-16.99036
 20
805.718887
 30
0.0
 11
-10.465625
 21
842.72258
 31
0.0
  0
LWPOLYLINE
  5
21D
330
1DD
100
AcDbEntity
  8
0
  6
Continuous
 62
     0
370
     0
100
AcDbPolyline
 90
       34
 70
     0
 43
0.0
 10
-16.99036
 20
805.718872
 10
-16.833889
 20
806.078064
 10
-16.679224
 20
806.437134
 10
-16.52639
 20
806.796082
 10
-16.375406
 20
807.154846
 10
-16.226297
 20
807.513367
 10
-16.079082
 20
807.871521
 10
-15.933788
 20
808.229309
 10
-15.790439
 20
808.586609
 10
-15.649059
 20
808.94342
 10
-15.509678
 20
809.2995
 10
-15.372325
 20
809.654907
 10
-15.237036
 20
810.009399
 10
-15.103845
 20
810.362915
 10
-14.972795
 20
810.715271
 10
-14.843935
 20
811.066284
 10
-14.717319
 20
811.415771
 10
-14.593011
 20
811.763489
 10
-14.471087
 20
812.109131
 10
-14.351641
 20
812.452332
 10
-14.234782
 20
812.792725
 10
-14.120652
 20
813.1297
 10
-14.009424
 20
813.462646
 10
-13.901325
 20
813.790649
 10
-13.796652
 20
814.112671
 10
-13.695801
 20
814.427124
 10
-13.599317
 20
814.732056
 10
-13.507966
 20
815.024475
 10
-13.422855
 20
815.300415
 10
-13.345612
 20
815.553833
 10
-13.278643
 20
815.775879
 10
-13.225421
 20
815.954041
 10
-13.190443
 20
816.071838
 10
-13.178132
 20
816.113464
  0
ARC
  5
21E
330
1DD
100
AcDbEntity
  8
0
  6
Continuous
 62
     0
370
    30
100
AcDbCircle
 10
-92.359309
 20
837.627948
 30
0.0
 40
82.0519999999998
100
AcDbArc
 50
344.799051
 51
350.000023
  0
ARC
  5
21F
330
1DD
100
AcDbEntity
  8
0
  6
Continuous
 62
     0
370
    30
100
AcDbCircle
 10
-11.732746
 20
972.093635
 30
0.0
 40
168.1734848484853
100
AcDbArc
 50
260.000023
 51
266.096954
  0
LWPOLYLINE
  5
220
330
1DD
100
AcDbEntity
  8
0
  6
Continuous
 62
     0
370
     0
100
AcDbPolyline
 90
       30
 70
     0
 43
0.0
 10
-18.237177
 20
804.918457
 10
-18.534468
 20
804.915527
 10
-18.832457
 20
804.908264
 10
-19.122921
 20
804.896606
 10
-19.407242
 20
804.881348
 10
-19.68548
 20
804.862976
 10
-19.95776
 20
804.842163
 10
-20.224184
 20
804.819336
 10
-20.484152
 20
804.794739
 10
-20.73653
 20
804.768494
 10
-20.980024
 20
804.740601
 10
-21.213974
 20
804.711426
 10
-21.437881
 20
804.681274
 10
-21.651112
 20
804.650513
 10
-21.853022
 20
804.619446
 10
-22.043022
 20
804.588318
 10
-22.220564
 20
804.557556
 10
-22.385134
 20
804.527405
 10
-22.53611
 20
804.49823
 10
-22.672853
 20
804.470276
 10
-22.795359
 20
804.443848
 10
-22.903446
 20
804.419312
 10
-22.994549
 20
804.396667
 10
-23.066132
 20
804.375977
 10
-23.117859
 20
804.357483
 10
-23.151209
 20
804.341492
 10
-23.17013
 20
804.32843
 10
-23.17861
 20
804.318665
 10
-23.180475
 20
804.312439
 10
-23.180035
 20
804.310181
  0
ARC
  5
221
330
1DD
100
AcDbEntity
  8
0
  6
Continuous
 62
     0
370
    30
100
AcDbCircle
 10
-23.248103
 20
803.312521
 30
0.0
 40
0.999999999999994
100
AcDbArc
 50
0.000023
 51
86.096954
  0
ELLIPSE
  5
222
330
1DD
100
AcDbEntity
  8
0
  6
Continuous
 62
     0
370
     0
100
AcDbEllipse
 10
-18.301375
 20
803.004913
 30
0.0
 11
0.01546829890796758
 21
1.999940182037676
 31
0.0
210
0.0
220
0.0
230
1.0
 40
0.085117
 41
4.712969587901855
 42
5.988785216824247
  0
ELLIPSE
  5
223
330
1DD
100
AcDbEntity
  8
0
  6
Continuous
 62
     0
370
     0
100
AcDbEllipse
 10
-15.153258
 20
804.94111
 30
0.0
 11
1.831906966383427
 21
-0.8025689169883564
 31
0.0
210
0.0
220
0.0
230
1.0
 40
0.172183
 41
3.213652118859506
 42
4.3380834058505
  0
LINE
  5
224
330
1DD
100
AcDbEntity
  8
0
  6
Continuous
 62
     0
370
    30
100
AcDbLine
 10
-22.248103
 20
803.312521
 30
0.0
 11
-22.265038
 21
803.495165
 31
0.0
  0
LINE
  5
225
330
1DD
100
AcDbEntity
  8
0
  6
Continuous
 62
     0
370
    30
100
AcDbLine
 10
-22.509997
 20
803.987206
 30
0.0
 11
-22.399062
 21
803.840803
 31
0.0
  0
LINE
  5
226
330
1DD
100
AcDbEntity
  8
0
  6
Continuous
 62
     0
370
    30
100
AcDbLine
 10
-23.582046
 20
847.283829
 30
0.0
 11
-17.99964
 21
845.851343
 31
0.0
  0
LINE
  5
227
330
1DD
100
AcDbEntity
  8
0
  6
Continuous
 62
     0
370
    30
100
AcDbLine
 10
-11.367197
 20
843.880106
 30
0.0
 11
-13.652149
 21
844.59282
 31
0.0
  0
ARC
  5
228
330
1DD
100
AcDbEntity
  8
0
  6
Continuous
 62
     0
370
    30
100
AcDbCircle
 10
-92.362544
 20
837.62813
 30
0.0
 40
82.05521722631237
100
AcDbArc
 50
350.001642
 51
3.559534
  0
LINE
  5
229
330
1DD
100
AcDbEntity
  8
0
  6
Continuous
 62
     0
370
    30
100
AcDbLine
 10
-11.554194
 20
823.377892
 30
0.0
 11
-11.589171
 21
823.18096
 31
0.0
  0
ARC
  5
22A
330
1DD
100
AcDbEntity
  8
0
  6
Continuous
 62
     0
370
    30
100
AcDbCircle
 10
-11.764476
 20
842.640804
 30
0.0
 40
1.301422255531978
100
AcDbArc
 50
3.602835
 51
72.225922
  0
LINE
  5
22B
330
1DD
100
AcDbEntity
  8
0
  6
Continuous
 62
     0
370
    30
100
AcDbLine
 10
-22.248103
 20
803.312521
 30
0.0
 11
-22.2481
 21
795.609585
 31
0.0
  0
ARC
  5
22C
330
1DD
100
AcDbEntity
  8
0
  6
Continuous
 62
     0
370
    30
100
AcDbCircle
 10
-21.045631
 20
795.611377
 30
0.0
 40
1.202469604473155
100
AcDbArc
 50
180.085416
 51
249.89512
  0
ARC
  5
22D
330
1DD
100
AcDbEntity
  8
0
  6
Continuous
 62
     0
370
    30
100
AcDbCircle
 10
-17.742812
 20
809.051122
 30
0.0
 40
15.04195974741089
100
AcDbArc
 50
256.183395
 51
269.419269
  0
LINE
  5
22E
330
1DD
100
AcDbEntity
  8
0
  6
Continuous
 62
     0
370
    30
100
AcDbLine
 10
-89.665432
 20
901.883344
 30
0.0
 11
-89.665432
 21
901.442858
 31
0.0
  0
LINE
  5
22F
330
1DD
100
AcDbEntity
  8
0
  6
Continuous
 62
     0
370
     0
100
AcDbLine
 10
-89.665432
 20
901.442858
 30
0.0
 11
-85.665432
 21
901.442858
 31
0.0
  0
LINE
  5
230
330
1DD
100
AcDbEntity
  8
0
  6
Continuous
 62
     0
370
    30
100
AcDbLine
 10
-89.665432
 20
901.442858
 30
0.0
 11
-89.665432
 21
892.045932
 31
0.0
  0
ELLIPSE
  5
231
330
1DD
100
AcDbEntity
  8
0
  6
Continuous
 62
     0
370
     0
100
AcDbEllipse
 10
-87.665432
 20
892.045932
 30
0.0
 11
-1.999999999999986
 21
2.401921045816492E-7
 31
0.0
210
0.0
220
0.0
230
-1.0
 40
0.939693
 41
6.283185179376037
 42
9.42477783296583
  0
LINE
  5
232
330
1DD
100
AcDbEntity
  8
0
  6
Continuous
 62
     0
370
     0
100
AcDbLine
 10
-87.565432
 20
886.91563
 30
0.0
 11
-87.765433
 21
886.91563
 31
0.0
  0
LINE
  5
233
330
1DD
100
AcDbEntity
  8
0
  6
Continuous
 62
     0
370
     0
100
AcDbLine
 10
-87.765433
 20
886.91563
 30
0.0
 11
-87.565432
 21
886.91563
 31
0.0
  0
LINE
  5
234
330
1DD
100
AcDbEntity
  8
0
  6
Continuous
 62
     0
370
    30
100
AcDbLine
 10
-89.665432
 20
892.045932
 30
0.0
 11
-89.665432
 21
887.565468
 31
0.0
  0
ELLIPSE
  5
235
330
1DD
100
AcDbEntity
  8
0
  6
Continuous
 62
     0
370
     0
100
AcDbEllipse
 10
-87.665432
 20
887.565468
 30
0.0
 11
-1.999999999999986
 21
2.401921045816492E-7
 31
0.0
210
0.0
220
0.0
230
-1.0
 40
0.939693
 41
6.283185179376037
 42
9.42477783296583
  0
ELLIPSE
  5
236
330
1DD
100
AcDbEntity
  8
0
  6
Continuous
 62
     0
370
     0
100
AcDbEllipse
 10
-87.665432
 20
887.565468
 30
0.0
 11
-1.999999999999986
 21
2.401921045816492E-7
 31
0.0
210
0.0
220
0.0
230
-1.0
 40
0.939693
 41
6.226420993998312
 42
6.283185179376037
  0
ELLIPSE
  5
237
330
1DD
100
AcDbEntity
  8
0
  6
Continuous
 62
     0
370
     0
100
AcDbEllipse
 10
-87.665432
 20
887.565468
 30
0.0
 11
-1.999999999999986
 21
2.401921045816492E-7
 31
0.0
210
0.0
220
0.0
230
-1.0
 40
0.939693
 41
3.141592525786244
 42
3.198411119467269
  0
LINE
  5
238
330
1DD
100
AcDbEntity
  8
0
  6
Continuous
 62
     0
370
    30
100
AcDbLine
 10
-89.665432
 20
887.565468
 30
0.0
 11
-89.651153
 21
887.329337
 31
0.0
  0
LINE
  5
239
330
1DD
100
AcDbEntity
  8
0
  6
Continuous
 62
     0
370
    30
100
AcDbLine
 10
-85.665432
 20
887.565468
 30
0.0
 11
-85.67983
 21
887.327612
 31
0.0
  0
LINE
  5
23A
330
1DD
100
AcDbEntity
  8
0
  6
Continuous
 62
     0
370
    30
100
AcDbLine
 10
-85.665432
 20
887.565468
 30
0.0
 11
-85.665432
 21
892.045932
 31
0.0
  0
LINE
  5
23B
330
1DD
100
AcDbEntity
  8
0
  6
Continuous
 62
     0
370
    30
100
AcDbLine
 10
-85.665432
 20
892.045932
 30
0.0
 11
-85.665432
 21
901.442858
 31
0.0
  0
LINE
  5
23C
330
1DD
100
AcDbEntity
  8
0
  6
Continuous
 62
     0
370
    30
100
AcDbLine
 10
-85.665432
 20
901.442858
 30
0.0
 11
-85.665432
 21
901.883344
 31
0.0
  0
LINE
  5
23D
330
1DD
100
AcDbEntity
  8
0
  6
Continuous
 62
     0
370
     0
100
AcDbLine
 10
-81.811705
 20
664.662717
 30
0.0
 11
-92.811706
 21
664.662717
 31
0.0
  0
LINE
  5
23E
330
1DD
100
AcDbEntity
  8
0
  6
Continuous
 62
     0
370
     0
100
AcDbLine
 10
-92.811706
 20
664.662717
 30
0.0
 11
-103.811705
 21
664.662717
 31
0.0
  0
LINE
  5
23F
330
1DD
100
AcDbEntity
  8
0
  6
Continuous
 62
     0
370
    30
100
AcDbLine
 10
-81.811705
 20
789.662717
 30
0.0
 11
-81.811705
 21
664.662717
 31
0.0
  0
LINE
  5
240
330
1DD
100
AcDbEntity
  8
0
  6
Continuous
 62
     0
370
    30
100
AcDbLine
 10
-103.811705
 20
789.662717
 30
0.0
 11
-103.811705
 21
664.662717
 31
0.0
  0
ARC
  5
241
330
1DD
100
AcDbEntity
  8
0
  6
Continuous
 62
     0
370
    30
100
AcDbCircle
 10
-92.812262
 20
584.66264
 30
0.0
 40
10.9995644486921
100
AcDbArc
 50
179.971484
 51
0.027343
  0
LWPOLYLINE
  5
242
330
1DD
100
AcDbEntity
  8
0
  6
Continuous
 62
     0
370
    30
100
AcDbPolyline
 90
       51
 70
     0
 43
0.0
 10
-81.811699
 20
584.668091
 10
-81.811699
 20
584.707336
 10
-81.811699
 20
584.825073
 10
-81.811699
 20
585.021362
 10
-81.811699
 20
585.296326
 10
-81.811699
 20
585.650085
 10
-81.811699
 20
586.082581
 10
-81.811707
 20
586.59314
 10
-81.811707
 20
587.180908
 10
-81.811707
 20
587.845032
 10
-81.811707
 20
588.584717
 10
-81.811707
 20
589.399048
 10
-81.811707
 20
590.287292
 10
-81.811707
 20
591.248474
 10
-81.811707
 20
592.28186
 10
-81.811707
 20
593.386597
 10
-81.811707
 20
594.561768
 10
-81.811707
 20
595.80658
 10
-81.811707
 20
597.120117
 10
-81.811707
 20
598.500916
 10
-81.811707
 20
599.947205
 10
-81.811707
 20
601.457275
 10
-81.811707
 20
603.02948
 10
-81.811707
 20
604.662048
 10
-81.811707
 20
606.353333
 10
-81.811707
 20
608.101562
 10
-81.811707
 20
609.90509
 10
-81.811707
 20
611.762207
 10
-81.811707
 20
613.671143
 10
-81.811707
 20
615.630188
 10
-81.811707
 20
617.637756
 10
-81.811707
 20
619.692017
 10
-81.811707
 20
621.791016
 10
-81.811707
 20
623.932556
 10
-81.811707
 20
626.114502
 10
-81.811707
 20
628.334473
 10
-81.811707
 20
630.590332
 10
-81.811707
 20
632.879883
 10
-81.811707
 20
635.200867
 10
-81.811707
 20
637.551025
 10
-81.811707
 20
639.928223
 10
-81.811707
 20
642.3302
 10
-81.811707
 20
644.7547
 10
-81.811707
 20
647.199463
 10
-81.811707
 20
649.661926
 10
-81.811707
 20
652.139038
 10
-81.811707
 20
654.627991
 10
-81.811707
 20
657.125916
 10
-81.811707
 20
659.629822
 10
-81.811707
 20
662.136902
 10
-81.811707
 20
664.66272
  0
LINE
  5
243
330
1DD
100
AcDbEntity
  8
0
  6
Continuous
 62
     0
370
    30
100
AcDbLine
 10
-103.811702
 20
584.668108
 30
0.0
 11
-103.811705
 21
664.662717
 31
0.0
  0
ENDBLK
  5
245
330
1DD
100
AcDbEntity
  8
0
100
AcDbBlockEnd
  0
ENDSEC
  0
SECTION
  2
ENTITIES
  0
INSERT
  5
C9
330
1F
100
AcDbEntity
  8
0
  6
Continuous
 62
     7
420
 16250871
370
     0
100
AcDbBlockReference
  2
a
 10
13.245436
 20
94.50956
 30
0.0
  0
INSERT
  5
108
330
1F
100
AcDbEntity
  8
0
  6
Continuous
 62
     7
420
 16250871
370
     0
100
AcDbBlockReference
  2
b
 10
13.245436
 20
94.50956
 30
0.0
  0
INSERT
  5
16E
330
1F
100
AcDbEntity
  8
0
  6
Continuous
 62
     7
420
 16250871
370
     0
100
AcDbBlockReference
  2
c
 10
13.245436
 20
94.50956
 30
0.0
  0
INSERT
  5
1DC
330
1F
100
AcDbEntity
  8
0
  6
Continuous
 62
     7
420
 16250871
370
     0
100
AcDbBlockReference
  2
d
 10
13.245436
 20
94.50956
 30
0.0
  0
INSERT
  5
246
330
1F
100
AcDbEntity
  8
0
  6
Continuous
 62
     7
420
 16250871
370
     0
100
AcDbBlockReference
  2
e
 10
24.549809
 20
0.0
 30
0.0
  0
ENDSEC
  0
SECTION
  2
OBJECTS
  0
DICTIONARY
  5
C
330
0
100
AcDbDictionary
281
     1
  3
ACAD_DETAILVIEWSTYLE
350
27E
  3
ACAD_GROUP
350
D
  3
ACAD_LAYOUT
350
1A
  3
ACAD_MATERIAL
350
43
  3
ACAD_MLEADERSTYLE
350
6B
  3
ACAD_MLINESTYLE
350
17
  3
ACAD_PLOTSETTINGS
350
19
  3
ACAD_PLOTSTYLENAME
350
E
  3
ACAD_SCALELIST
350
47
  3
ACAD_SECTIONVIEWSTYLE
350
27F
  3
ACAD_TABLESTYLE
350
69
  3
ACAD_VISUALSTYLE
350
2A
  3
ACDB_RECOMPOSE_DATA
350
27B
  3
AcDbVariableDictionary
350
247
  0
SUN
  5
6D
330
29
100
AcDbSun
 90
        1
290
     0
 63
     7
421
 16777215
 40
1.0
291
     1
 91
  2455826
 92
 54000000
292
     0
 70
     2
 71
   256
280
     1
  0
DICTIONARY
  5
27E
102
{ACAD_REACTORS
330
C
102
}
330
C
100
AcDbDictionary
281
     1
  0
DICTIONARY
  5
D
102
{ACAD_REACTORS
330
C
102
}
330
C
100
AcDbDictionary
281
     1
  0
DICTIONARY
  5
1A
102
{ACAD_REACTORS
330
C
102
}
330
C
100
AcDbDictionary
281
     1
  3
Layout1
350
1E
  3
Layout2
350
26
  3
Model
350
22
  0
DICTIONARY
  5
43
102
{ACAD_REACTORS
330
C
102
}
330
C
100
AcDbDictionary
281
     1
  3
ByBlock
350
45
  3
ByLayer
350
44
  3
Global
350
46
  0
DICTIONARY
  5
6B
102
{ACAD_REACTORS
330
C
102
}
330
C
100
AcDbDictionary
281
     1
  3
Standard
350
6C
  0
DICTIONARY
  5
17
102
{ACAD_REACTORS
330
C
102
}
330
C
100
AcDbDictionary
281
     1
  3
Standard
350
18
  0
DICTIONARY
  5
19
102
{ACAD_REACTORS
330
C
102
}
330
C
100
AcDbDictionary
281
     1
  0
ACDBDICTIONARYWDFLT
  5
E
102
{ACAD_REACTORS
330
C
102
}
330
C
100
AcDbDictionary
281
     1
  3
Normal
350
F
100
AcDbDictionaryWithDefault
340
F
  0
DICTIONARY
  5
47
102
{ACAD_REACTORS
330
C
102
}
330
C
100
AcDbDictionary
281
     1
  3
A0
350
48
  3
A1
350
49
  3
A2
350
4A
  3
A3
350
4B
  3
A4
350
4C
  3
A5
350
4D
  3
A6
350
4E
  3
A7
350
4F
  3
A8
350
50
  3
A9
350
51
  3
B0
350
52
  3
B1
350
53
  3
B2
350
54
  3
B3
350
55
  3
B4
350
56
  3
B5
350
57
  3
B6
350
58
  3
B7
350
59
  3
B8
350
5A
  3
B9
350
5B
  3
C0
350
5C
  3
C1
350
5D
  3
C2
350
5E
  3
C3
350
5F
  3
C4
350
60
  3
C5
350
61
  3
C6
350
62
  3
C7
350
63
  3
C8
350
64
  3
C9
350
65
  3
D0
350
66
  3
D1
350
67
  3
D2
350
68
  0
DICTIONARY
  5
27F
102
{ACAD_REACTORS
330
C
102
}
330
C
100
AcDbDictionary
281
     1
  0
DICTIONARY
  5
69
102
{ACAD_REACTORS
330
C
102
}
330
C
100
AcDbDictionary
281
     1
  3
Standard
350
6A
  0
DICTIONARY
  5
2A
102
{ACAD_REACTORS
330
C
102
}
330
C
100
AcDbDictionary
281
     1
  3
2dWireframe
350
2F
  3
Basic
350
32
  3
Brighten
350
36
  3
ColorChange
350
3A
  3
Conceptual
350
34
  3
Dim
350
35
  3
EdgeColorOff
350
3D
  3
Facepattern
350
39
  3
Flat
350
2B
  3
FlatWithEdges
350
2C
  3
Gouraud
350
2D
  3
GouraudWithEdges
350
2E
  3
Hidden
350
31
  3
JitterOff
350
3B
  3
Linepattern
350
38
  3
OverhangOff
350
3C
  3
Realistic
350
33
  3
Shaded
350
42
  3
Shaded with edges
350
41
  3
Shades of Gray
350
3E
  3
Sketchy
350
3F
  3
Thicken
350
37
  3
Wireframe
350
30
  3
X-Ray
350
40
  0
XRECORD
  5
27B
102
{ACAD_REACTORS
330
C
102
}
330
C
100
AcDbXrecord
280
     1
 90
        1
330
6A
  0
DICTIONARY
  5
247
102
{ACAD_REACTORS
330
C
102
}
330
C
100
AcDbDictionary
281
     1
  3
CANNOSCALE
350
248
  3
CMLEADERSTYLE
350
27D
  3
CTABLESTYLE
350
27C
  0
LAYOUT
  5
1E
102
{ACAD_REACTORS
330
1A
102
}
330
1A
100
AcDbPlotSettings
  1

  2
none_device
  4

  6

 40
0.0
 41
0.0
 42
0.0
 43
0.0
 44
0.0
 45
0.0
 46
0.0
 47
0.0
 48
0.0
 49
0.0
140
0.0
141
0.0
142
1.0
143
1.0
 70
   688
 72
     1
 73
     0
 74
     5
  7

 75
    16
 76
     0
 77
     2
 78
   300
147
1.0
148
0.0
149
0.0
100
AcDbLayout
  1
Layout1
 70
     1
 71
     1
 10
0.0
 20
0.0
 11
420.0
 21
297.0
 12
0.0
 22
0.0
 32
0.0
 14
1.000000E+20
 24
1.000000E+20
 34
1.000000E+20
 15
-1.000000E+20
 25
-1.000000E+20
 35
-1.000000E+20
146
0.0
 13
0.0
 23
0.0
 33
0.0
 16
1.0
 26
0.0
 36
0.0
 17
0.0
 27
1.0
 37
0.0
 76
     0
330
1B
  0
LAYOUT
  5
26
102
{ACAD_REACTORS
330
1A
102
}
330
1A
100
AcDbPlotSettings
  1

  2
none_device
  4

  6

 40
0.0
 41
0.0
 42
0.0
 43
0.0
 44
0.0
 45
0.0
 46
0.0
 47
0.0
 48
0.0
 49
0.0
140
0.0
141
0.0
142
1.0
143
1.0
 70
   688
 72
     1
 73
     0
 74
     5
  7

 75
    16
 76
     0
 77
     2
 78
   300
147
1.0
148
0.0
149
0.0
100
AcDbLayout
  1
Layout2
 70
     1
 71
     2
 10
0.0
 20
0.0
 11
0.0
 21
0.0
 12
0.0
 22
0.0
 32
0.0
 14
0.0
 24
0.0
 34
0.0
 15
0.0
 25
0.0
 35
0.0
146
0.0
 13
0.0
 23
0.0
 33
0.0
 16
1.0
 26
0.0
 36
0.0
 17
0.0
 27
1.0
 37
0.0
 76
     0
330
23
  0
LAYOUT
  5
22
102
{ACAD_REACTORS
330
1A
102
}
330
1A
100
AcDbPlotSettings
  1

  2
none_device
  4
Letter_(8.50_x_11.00_Inches)
  6

 40
6.35
 41
6.35
 42
6.350005
 43
6.350005
 44
215.9
 45
279.4
 46
0.0
 47
0.0
 48
0.0
 49
0.0
140
0.0
141
0.0
142
1.0
143
1.0
 70
  1712
 72
     1
 73
     0
 74
     0
  7

 75
     0
 76
     0
 77
     2
 78
   300
147
1.0
148
0.0
149
0.0
100
AcDbLayout
  1
Model
 70
     1
 71
     0
 10
0.0
 20
0.0
 11
420.0
 21
297.0
 12
0.0
 22
0.0
 32
0.0
 14
1.000000E+20
 24
1.000000E+20
 34
1.000000E+20
 15
-1.000000E+20
 25
-1.000000E+20
 35
-1.000000E+20
146
0.0
 13
0.0
 23
0.0
 33
0.0
 16
1.0
 26
0.0
 36
0.0
 17
0.0
 27
1.0
 37
0.0
 76
     0
330
1F
331
29
  0
MATERIAL
  5
45
102
{ACAD_REACTORS
330
43
102
}
330
43
100
AcDbMaterial
  1
ByBlock
 72
     1
 94
      127
  0
MATERIAL
  5
44
102
{ACAD_REACTORS
330
43
102
}
330
43
100
AcDbMaterial
  1
ByLayer
 72
     1
 94
      127
  0
MATERIAL
  5
46
102
{ACAD_REACTORS
330
43
102
}
330
43
100
AcDbMaterial
  1
Global
 72
     1
 94
      127
  0
MLEADERSTYLE
  5
6C
102
{ACAD_REACTORS
330
6B
102
}
330
6B
100
AcDbMLeaderStyle
179
     2
170
     2
171
     1
172
     0
 90
        2
 40
0.0
 41
0.0
173
     1
 91
-1056964608
340
14
 92
       -2
290
     1
 42
2.0
291
     1
 43
8.0
  3
Standard
341
0
 44
4.0
300

342
11
174
     1
178
     6
175
     1
176
     0
 93
-1056964608
 45
4.0
292
     0
297
     0
 46
4.0
343
0
 94
-1056964608
 47
1.0
 49
1.0
140
1.0
293
     1
141
0.0
294
     1
177
     0
142
1.0
295
     0
296
     0
143
3.75
271
     0
272
     9
273
     9
  0
MLINESTYLE
  5
18
102
{ACAD_REACTORS
330
17
102
}
330
17
100
AcDbMlineStyle
  2
Standard
 70
     0
  3

 62
   256
 51
90.0
 52
90.0
 71
     2
 49
0.5
 62
   256
  6
BYLAYER
 49
-0.5
 62
   256
  6
BYLAYER
  0
ACDBPLACEHOLDER
  5
F
102
{ACAD_REACTORS
330
E
102
}
330
E
  0
SCALE
  5
48
102
{ACAD_REACTORS
330
47
102
}
330
47
100
AcDbScale
 70
     0
300
1:1
140
1.0
141
1.0
290
     1
  0
SCALE
  5
49
102
{ACAD_REACTORS
330
47
102
}
330
47
100
AcDbScale
 70
     0
300
1:2
140
1.0
141
2.0
290
     0
  0
SCALE
  5
4A
102
{ACAD_REACTORS
330
47
102
}
330
47
100
AcDbScale
 70
     0
300
1:4
140
1.0
141
4.0
290
     0
  0
SCALE
  5
4B
102
{ACAD_REACTORS
330
47
102
}
330
47
100
AcDbScale
 70
     0
300
1:5
140
1.0
141
5.0
290
     0
  0
SCALE
  5
4C
102
{ACAD_REACTORS
330
47
102
}
330
47
100
AcDbScale
 70
     0
300
1:8
140
1.0
141
8.0
290
     0
  0
SCALE
  5
4D
102
{ACAD_REACTORS
330
47
102
}
330
47
100
AcDbScale
 70
     0
300
1:10
140
1.0
141
10.0
290
     0
  0
SCALE
  5
4E
102
{ACAD_REACTORS
330
47
102
}
330
47
100
AcDbScale
 70
     0
300
1:16
140
1.0
141
16.0
290
     0
  0
SCALE
  5
4F
102
{ACAD_REACTORS
330
47
102
}
330
47
100
AcDbScale
 70
     0
300
1:20
140
1.0
141
20.0
290
     0
  0
SCALE
  5
50
102
{ACAD_REACTORS
330
47
102
}
330
47
100
AcDbScale
 70
     0
300
1:30
140
1.0
141
30.0
290
     0
  0
SCALE
  5
51
102
{ACAD_REACTORS
330
47
102
}
330
47
100
AcDbScale
 70
     0
300
1:40
140
1.0
141
40.0
290
     0
  0
SCALE
  5
52
102
{ACAD_REACTORS
330
47
102
}
330
47
100
AcDbScale
 70
     0
300
1:50
140
1.0
141
50.0
290
     0
  0
SCALE
  5
53
102
{ACAD_REACTORS
330
47
102
}
330
47
100
AcDbScale
 70
     0
300
1:100
140
1.0
141
100.0
290
     0
  0
SCALE
  5
54
102
{ACAD_REACTORS
330
47
102
}
330
47
100
AcDbScale
 70
     0
300
2:1
140
2.0
141
1.0
290
     0
  0
SCALE
  5
55
102
{ACAD_REACTORS
330
47
102
}
330
47
100
AcDbScale
 70
     0
300
4:1
140
4.0
141
1.0
290
     0
  0
SCALE
  5
56
102
{ACAD_REACTORS
330
47
102
}
330
47
100
AcDbScale
 70
     0
300
8:1
140
8.0
141
1.0
290
     0
  0
SCALE
  5
57
102
{ACAD_REACTORS
330
47
102
}
330
47
100
AcDbScale
 70
     0
300
10:1
140
10.0
141
1.0
290
     0
  0
SCALE
  5
58
102
{ACAD_REACTORS
330
47
102
}
330
47
100
AcDbScale
 70
     0
300
100:1
140
100.0
141
1.0
290
     0
  0
SCALE
  5
59
102
{ACAD_REACTORS
330
47
102
}
330
47
100
AcDbScale
 70
     0
300
1/128" = 1'-0"
140
0.007812
141
12.0
290
     0
  0
SCALE
  5
5A
102
{ACAD_REACTORS
330
47
102
}
330
47
100
AcDbScale
 70
     0
300
1/64" = 1'-0"
140
0.015625
141
12.0
290
     0
  0
SCALE
  5
5B
102
{ACAD_REACTORS
330
47
102
}
330
47
100
AcDbScale
 70
     0
300
1/32" = 1'-0"
140
0.03125
141
12.0
290
     0
  0
SCALE
  5
5C
102
{ACAD_REACTORS
330
47
102
}
330
47
100
AcDbScale
 70
     0
300
1/16" = 1'-0"
140
0.0625
141
12.0
290
     0
  0
SCALE
  5
5D
102
{ACAD_REACTORS
330
47
102
}
330
47
100
AcDbScale
 70
     0
300
3/32" = 1'-0"
140
0.09375
141
12.0
290
     0
  0
SCALE
  5
5E
102
{ACAD_REACTORS
330
47
102
}
330
47
100
AcDbScale
 70
     0
300
1/8" = 1'-0"
140
0.125
141
12.0
290
     0
  0
SCALE
  5
5F
102
{ACAD_REACTORS
330
47
102
}
330
47
100
AcDbScale
 70
     0
300
3/16" = 1'-0"
140
0.1875
141
12.0
290
     0
  0
SCALE
  5
60
102
{ACAD_REACTORS
330
47
102
}
330
47
100
AcDbScale
 70
     0
300
1/4" = 1'-0"
140
0.25
141
12.0
290
     0
  0
SCALE
  5
61
102
{ACAD_REACTORS
330
47
102
}
330
47
100
AcDbScale
 70
     0
300
3/8" = 1'-0"
140
0.375
141
12.0
290
     0
  0
SCALE
  5
62
102
{ACAD_REACTORS
330
47
102
}
330
47
100
AcDbScale
 70
     0
300
1/2" = 1'-0"
140
0.5
141
12.0
290
     0
  0
SCALE
  5
63
102
{ACAD_REACTORS
330
47
102
}
330
47
100
AcDbScale
 70
     0
300
3/4" = 1'-0"
140
0.75
141
12.0
290
     0
  0
SCALE
  5
64
102
{ACAD_REACTORS
330
47
102
}
330
47
100
AcDbScale
 70
     0
300
1" = 1'-0"
140
1.0
141
12.0
290
     0
  0
SCALE
  5
65
102
{ACAD_REACTORS
330
47
102
}
330
47
100
AcDbScale
 70
     0
300
1-1/2" = 1'-0"
140
1.5
141
12.0
290
     0
  0
SCALE
  5
66
102
{ACAD_REACTORS
330
47
102
}
330
47
100
AcDbScale
 70
     0
300
3" = 1'-0"
140
3.0
141
12.0
290
     0
  0
SCALE
  5
67
102
{ACAD_REACTORS
330
47
102
}
330
47
100
AcDbScale
 70
     0
300
6" = 1'-0"
140
6.0
141
12.0
290
     0
  0
SCALE
  5
68
102
{ACAD_REACTORS
330
47
102
}
330
47
100
AcDbScale
 70
     0
300
1'-0" = 1'-0"
140
12.0
141
12.0
290
     0
  0
TABLESTYLE
  5
6A
102
{ACAD_REACTORS
330
69
102
}
102
{ACAD_XDICTIONARY
360
279
102
}
330
69
100
AcDbTableStyle
  3
Standard
 70
     0
 71
     0
 40
0.06
 41
0.06
280
     0
281
     0
  7
Standard
140
4.5
170
     2
 62
     0
 63
   257
283
     0
 90
        4
 91
        0
  1

274
    -2
284
     1
 64
     0
275
    -2
285
     1
 65
     0
276
    -2
286
     1
 66
     0
277
    -2
287
     1
 67
     0
278
    -2
288
     1
 68
     0
279
    -2
289
     1
 69
     0
  7
Standard
140
6.0
170
     5
 62
     0
 63
   257
283
     0
 90
        4
 91
        0
  1

274
    -2
284
     1
 64
     0
275
    -2
285
     1
 65
     0
276
    -2
286
     1
 66
     0
277
    -2
287
     1
 67
     0
278
    -2
288
     1
 68
     0
279
    -2
289
     1
 69
     0
  7
Standard
140
4.5
170
     5
 62
     0
 63
   257
283
     0
 90
        4
 91
        0
  1

274
    -2
284
     1
 64
     0
275
    -2
285
     1
 65
     0
276
    -2
286
     1
 66
     0
277
    -2
287
     1
 67
     0
278
    -2
288
     1
 68
     0
279
    -2
289
     1
 69
     0
  0
VISUALSTYLE
  5
2F
102
{ACAD_REACTORS
330
2A
102
}
102
{ACAD_XDICTIONARY
360
251
102
}
330
2A
100
AcDbVisualStyle
  2
2dWireframe
 70
     4
177
     2
291
     0
 71
     0
176
     1
 72
     2
176
     1
 73
     0
176
     1
 90
        0
176
     1
 40
0.6
176
     1
 41
30.0
176
     1
 62
     5
 63
     7
421
 16777215
176
     1
 74
     1
176
     1
 91
        4
176
     1
 64
     7
176
     1
 65
   257
176
     1
 75
     1
176
     1
175
     1
176
     1
 42
1.0
176
     1
 92
        0
176
     1
 66
   257
176
     1
 43
1.0
176
     1
 76
     1
176
     1
 77
     6
176
     1
 78
     2
176
     1
 67
     7
176
     1
 79
     5
176
     1
170
     0
176
     1
171
     0
176
     1
290
     0
176
     1
 93
        1
176
     1
 44
0.0
176
     1
173
     0
176
     1
  0
VISUALSTYLE
  5
32
102
{ACAD_REACTORS
330
2A
102
}
102
{ACAD_XDICTIONARY
360
257
102
}
330
2A
100
AcDbVisualStyle
  2
Basic
 70
     7
177
     2
291
     1
 71
     1
176
     1
 72
     0
176
     1
 73
     1
176
     1
 90
        0
176
     1
 40
0.6
176
     1
 41
30.0
176
     1
 62
     5
 63
     7
421
 16777215
176
     1
 74
     0
176
     1
 91
        4
176
     1
 64
     7
176
     1
 65
   257
176
     1
 75
     1
176
     1
175
     1
176
     1
 42
1.0
176
     1
 92
        8
176
     1
 66
     7
176
     1
 43
1.0
176
     1
 76
     1
176
     1
 77
     6
176
     1
 78
     2
176
     1
 67
     7
176
     1
 79
     5
176
     1
170
     0
176
     1
171
     0
176
     1
290
     0
176
     1
 93
        1
176
     1
 44
0.0
176
     1
173
     0
176
     1
  0
VISUALSTYLE
  5
36
102
{ACAD_REACTORS
330
2A
102
}
102
{ACAD_XDICTIONARY
360
25F
102
}
330
2A
100
AcDbVisualStyle
  2
Brighten
 70
    12
177
     2
291
     1
 71
     2
176
     1
 72
     2
176
     1
 73
     0
176
     1
 90
        0
176
     1
 40
0.6
176
     1
 41
30.0
176
     1
 62
     5
 63
     7
421
 16777215
176
     1
 74
     1
176
     1
 91
        4
176
     1
 64
     7
176
     1
 65
   257
176
     1
 75
     1
176
     1
175
     1
176
     1
 42
1.0
176
     1
 92
        8
176
     1
 66
     7
176
     1
 43
1.0
176
     1
 76
     1
176
     1
 77
     6
176
     1
 78
     2
176
     1
 67
     7
176
     1
 79
     5
176
     1
170
     0
176
     1
171
     0
176
     1
290
     0
176
     1
 93
        1
176
     1
 44
50.0
176
     1
173
     0
176
     1
  0
VISUALSTYLE
  5
3A
102
{ACAD_REACTORS
330
2A
102
}
102
{ACAD_XDICTIONARY
360
267
102
}
330
2A
100
AcDbVisualStyle
  2
ColorChange
 70
    16
177
     2
291
     1
 71
     2
176
     1
 72
     2
176
     1
 73
     3
176
     1
 90
        0
176
     1
 40
0.6
176
     1
 41
30.0
176
     1
 62
     5
 63
     8
421
  8421504
176
     1
 74
     1
176
     1
 91
        4
176
     1
 64
     7
176
     1
 65
   257
176
     1
 75
     1
176
     1
175
     1
176
     1
 42
1.0
176
     1
 92
        8
176
     1
 66
     8
424
  8421504
176
     1
 43
1.0
176
     1
 76
     1
176
     1
 77
     6
176
     1
 78
     2
176
     1
 67
     7
176
     1
 79
     5
176
     1
170
     0
176
     1
171
     0
176
     1
290
     0
176
     1
 93
        1
176
     1
 44
0.0
176
     1
173
     0
176
     1
  0
VISUALSTYLE
  5
34
102
{ACAD_REACTORS
330
2A
102
}
102
{ACAD_XDICTIONARY
360
25B
102
}
330
2A
100
AcDbVisualStyle
  2
Conceptual
 70
     9
177
     2
291
     0
 71
     3
176
     1
 72
     2
176
     1
 73
     0
176
     1
 90
        0
176
     1
 40
0.6
176
     1
 41
30.0
176
     1
 62
     5
 63
     7
421
 16777215
176
     1
 74
     2
176
     1
 91
        2
176
     1
 64
     7
176
     1
 65
   257
176
     1
 75
     1
176
     1
175
     1
176
     1
 42
179.0
176
     1
 92
        8
176
     1
 66
     7
176
     1
 43
1.0
176
     1
 76
     1
176
     1
 77
     6
176
     1
 78
     2
176
     1
 67
     7
176
     1
 79
     3
176
     1
170
     0
176
     1
171
     0
176
     1
290
     0
176
     1
 93
        1
176
     1
 44
0.0
176
     1
173
     0
176
     1
  0
VISUALSTYLE
  5
35
102
{ACAD_REACTORS
330
2A
102
}
102
{ACAD_XDICTIONARY
360
25D
102
}
330
2A
100
AcDbVisualStyle
  2
Dim
 70
    11
177
     2
291
     1
 71
     2
176
     1
 72
     2
176
     1
 73
     0
176
     1
 90
        0
176
     1
 40
0.6
176
     1
 41
30.0
176
     1
 62
     5
 63
     7
421
 16777215
176
     1
 74
     1
176
     1
 91
        4
176
     1
 64
     7
176
     1
 65
   257
176
     1
 75
     1
176
     1
175
     1
176
     1
 42
1.0
176
     1
 92
        8
176
     1
 66
     7
176
     1
 43
1.0
176
     1
 76
     1
176
     1
 77
     6
176
     1
 78
     2
176
     1
 67
     7
176
     1
 79
     5
176
     1
170
     0
176
     1
171
     0
176
     1
290
     0
176
     1
 93
        1
176
     1
 44
-50.0
176
     1
173
     0
176
     1
  0
VISUALSTYLE
  5
3D
102
{ACAD_REACTORS
330
2A
102
}
102
{ACAD_XDICTIONARY
360
26D
102
}
330
2A
100
AcDbVisualStyle
  2
EdgeColorOff
 70
    22
177
     2
291
     1
 71
     2
176
     0
 72
     2
176
     0
 73
     0
176
     0
 90
        0
176
     0
 40
0.6
176
     0
 41
30.0
176
     0
 62
     5
 63
     7
421
 16777215
176
     0
 74
     1
176
     0
 91
        4
176
     0
 64
     7
176
     0
 65
   257
176
     0
 75
     1
176
     0
175
     1
176
     0
 42
1.0
176
     0
 92
        8
176
     2
 66
     7
176
     0
 43
1.0
176
     0
 76
     1
176
     0
 77
     6
176
     0
 78
     2
176
     0
 67
     7
176
     0
 79
     5
176
     0
170
     0
176
     0
171
     0
176
     0
290
     0
176
     0
 93
        1
176
     0
 44
0.0
176
     0
173
     0
176
     0
  0
VISUALSTYLE
  5
39
102
{ACAD_REACTORS
330
2A
102
}
102
{ACAD_XDICTIONARY
360
265
102
}
330
2A
100
AcDbVisualStyle
  2
Facepattern
 70
    15
177
     2
291
     1
 71
     2
176
     1
 72
     2
176
     1
 73
     0
176
     1
 90
        0
176
     1
 40
0.6
176
     1
 41
30.0
176
     1
 62
     5
 63
     7
421
 16777215
176
     1
 74
     1
176
     1
 91
        4
176
     1
 64
     7
176
     1
 65
   257
176
     1
 75
     1
176
     1
175
     1
176
     1
 42
1.0
176
     1
 92
        8
176
     1
 66
     7
176
     1
 43
1.0
176
     1
 76
     1
176
     1
 77
     6
176
     1
 78
     2
176
     1
 67
     7
176
     1
 79
     5
176
     1
170
     0
176
     1
171
     0
176
     1
290
     0
176
     1
 93
        1
176
     1
 44
0.0
176
     1
173
     0
176
     1
  0
VISUALSTYLE
  5
2B
102
{ACAD_REACTORS
330
2A
102
}
102
{ACAD_XDICTIONARY
360
249
102
}
330
2A
100
AcDbVisualStyle
  2
Flat
 70
     0
177
     2
291
     1
 71
     2
176
     1
 72
     1
176
     1
 73
     1
176
     1
 90
        2
176
     1
 40
0.6
176
     1
 41
30.0
176
     1
 62
     5
 63
     7
421
 16777215
176
     1
 74
     0
176
     1
 91
        0
176
     1
 64
     7
176
     1
 65
   257
176
     1
 75
     1
176
     1
175
     1
176
     1
 42
1.0
176
     1
 92
        8
176
     1
 66
     7
176
     1
 43
1.0
176
     1
 76
     1
176
     1
 77
     6
176
     1
 78
     2
176
     1
 67
     7
176
     1
 79
     5
176
     1
170
     0
176
     1
171
     0
176
     1
290
     0
176
     1
 93
       13
176
     1
 44
0.0
176
     1
173
     0
176
     1
  0
VISUALSTYLE
  5
2C
102
{ACAD_REACTORS
330
2A
102
}
102
{ACAD_XDICTIONARY
360
24B
102
}
330
2A
100
AcDbVisualStyle
  2
FlatWithEdges
 70
     1
177
     2
291
     1
 71
     2
176
     1
 72
     1
176
     1
 73
     1
176
     1
 90
        2
176
     1
 40
0.6
176
     1
 41
30.0
176
     1
 62
     5
 63
     7
421
 16777215
176
     1
 74
     1
176
     1
 91
        0
176
     1
 64
     7
176
     1
 65
   257
176
     1
 75
     1
176
     1
175
     1
176
     1
 42
1.0
176
     1
 92
        0
176
     1
 66
   257
176
     1
 43
1.0
176
     1
 76
     1
176
     1
 77
     6
176
     1
 78
     2
176
     1
 67
     7
176
     1
 79
     5
176
     1
170
     0
176
     1
171
     0
176
     1
290
     0
176
     1
 93
       13
176
     1
 44
0.0
176
     1
173
     0
176
     1
  0
VISUALSTYLE
  5
2D
102
{ACAD_REACTORS
330
2A
102
}
102
{ACAD_XDICTIONARY
360
24D
102
}
330
2A
100
AcDbVisualStyle
  2
Gouraud
 70
     2
177
     2
291
     1
 71
     2
176
     1
 72
     2
176
     1
 73
     1
176
     1
 90
        2
176
     1
 40
0.6
176
     1
 41
30.0
176
     1
 62
     5
 63
     7
421
 16777215
176
     1
 74
     0
176
     1
 91
        0
176
     1
 64
     7
176
     1
 65
   257
176
     1
 75
     1
176
     1
175
     1
176
     1
 42
1.0
176
     1
 92
        0
176
     1
 66
     7
176
     1
 43
1.0
176
     1
 76
     1
176
     1
 77
     6
176
     1
 78
     2
176
     1
 67
     7
176
     1
 79
     5
176
     1
170
     0
176
     1
171
     0
176
     1
290
     0
176
     1
 93
       13
176
     1
 44
0.0
176
     1
173
     0
176
     1
  0
VISUALSTYLE
  5
2E
102
{ACAD_REACTORS
330
2A
102
}
102
{ACAD_XDICTIONARY
360
24F
102
}
330
2A
100
AcDbVisualStyle
  2
GouraudWithEdges
 70
     3
177
     2
291
     1
 71
     2
176
     1
 72
     2
176
     1
 73
     1
176
     1
 90
        2
176
     1
 40
0.6
176
     1
 41
30.0
176
     1
 62
     5
 63
     7
421
 16777215
176
     1
 74
     1
176
     1
 91
        0
176
     1
 64
     7
176
     1
 65
   257
176
     1
 75
     1
176
     1
175
     1
176
     1
 42
1.0
176
     1
 92
        0
176
     1
 66
   257
176
     1
 43
1.0
176
     1
 76
     1
176
     1
 77
     6
176
     1
 78
     2
176
     1
 67
     7
176
     1
 79
     5
176
     1
170
     0
176
     1
171
     0
176
     1
290
     0
176
     1
 93
       13
176
     1
 44
0.0
176
     1
173
     0
176
     1
  0
VISUALSTYLE
  5
31
102
{ACAD_REACTORS
330
2A
102
}
102
{ACAD_XDICTIONARY
360
255
102
}
330
2A
100
AcDbVisualStyle
  2
Hidden
 70
     6
177
     2
291
     0
 71
     1
176
     1
 72
     2
176
     1
 73
     2
176
     1
 90
        0
176
     1
 40
0.6
176
     1
 41
30.0
176
     1
 62
     5
 63
     7
421
 16777215
176
     1
 74
     2
176
     1
 91
        2
176
     1
 64
     7
176
     1
 65
   257
176
     1
 75
     2
176
     1
175
     1
176
     1
 42
40.0
176
     1
 92
        0
176
     1
 66
   257
176
     1
 43
1.0
176
     1
 76
     1
176
     1
 77
     6
176
     1
 78
     2
176
     1
 67
     7
176
     1
 79
     3
176
     1
170
     0
176
     1
171
     0
176
     1
290
     0
176
     1
 93
        1
176
     1
 44
0.0
176
     1
173
     0
176
     1
  0
VISUALSTYLE
  5
3B
102
{ACAD_REACTORS
330
2A
102
}
102
{ACAD_XDICTIONARY
360
269
102
}
330
2A
100
AcDbVisualStyle
  2
JitterOff
 70
    20
177
     2
291
     1
 71
     2
176
     0
 72
     2
176
     0
 73
     0
176
     0
 90
        0
176
     0
 40
0.6
176
     0
 41
30.0
176
     0
 62
     5
 63
     7
421
 16777215
176
     0
 74
     1
176
     0
 91
        4
176
     0
 64
     7
176
     0
 65
   257
176
     0
 75
     1
176
     0
175
     1
176
     0
 42
1.0
176
     0
 92
       10
176
     2
 66
     7
176
     0
 43
1.0
176
     0
 76
     1
176
     0
 77
     6
176
     0
 78
     2
176
     0
 67
     7
176
     0
 79
     5
176
     0
170
     0
176
     0
171
     0
176
     0
290
     0
176
     0
 93
        1
176
     0
 44
0.0
176
     0
173
     0
176
     0
  0
VISUALSTYLE
  5
38
102
{ACAD_REACTORS
330
2A
102
}
102
{ACAD_XDICTIONARY
360
263
102
}
330
2A
100
AcDbVisualStyle
  2
Linepattern
 70
    14
177
     2
291
     1
 71
     2
176
     1
 72
     2
176
     1
 73
     0
176
     1
 90
        0
176
     1
 40
0.6
176
     1
 41
30.0
176
     1
 62
     5
 63
     7
421
 16777215
176
     1
 74
     1
176
     1
 91
        4
176
     1
 64
     7
176
     1
 65
   257
176
     1
 75
     7
176
     1
175
     7
176
     1
 42
1.0
176
     1
 92
        8
176
     1
 66
     7
176
     1
 43
1.0
176
     1
 76
     1
176
     1
 77
     6
176
     1
 78
     2
176
     1
 67
     7
176
     1
 79
     5
176
     1
170
     0
176
     1
171
     0
176
     1
290
     0
176
     1
 93
        1
176
     1
 44
0.0
176
     1
173
     0
176
     1
  0
VISUALSTYLE
  5
3C
102
{ACAD_REACTORS
330
2A
102
}
102
{ACAD_XDICTIONARY
360
26B
102
}
330
2A
100
AcDbVisualStyle
  2
OverhangOff
 70
    21
177
     2
291
     1
 71
     2
176
     0
 72
     2
176
     0
 73
     0
176
     0
 90
        0
176
     0
 40
0.6
176
     0
 41
30.0
176
     0
 62
     5
 63
     7
421
 16777215
176
     0
 74
     1
176
     0
 91
        4
176
     0
 64
     7
176
     0
 65
   257
176
     0
 75
     1
176
     0
175
     1
176
     0
 42
1.0
176
     0
 92
        9
176
     2
 66
     7
176
     0
 43
1.0
176
     0
 76
     1
176
     0
 77
     6
176
     0
 78
     2
176
     0
 67
     7
176
     0
 79
     5
176
     0
170
     0
176
     0
171
     0
176
     0
290
     0
176
     0
 93
        1
176
     0
 44
0.0
176
     0
173
     0
176
     0
  0
VISUALSTYLE
  5
33
102
{ACAD_REACTORS
330
2A
102
}
102
{ACAD_XDICTIONARY
360
259
102
}
330
2A
100
AcDbVisualStyle
  2
Realistic
 70
     8
177
     2
291
     0
 71
     2
176
     1
 72
     3
176
     1
 73
     0
176
     1
 90
        2
176
     1
 40
0.6
176
     1
 41
30.0
176
     1
 62
     5
 63
     7
421
 16777215
176
     1
 74
     0
176
     1
 91
        0
176
     1
 64
     7
176
     1
 65
   257
176
     1
 75
     1
176
     1
175
     1
176
     1
 42
1.0
176
     1
 92
        8
176
     1
 66
   257
176
     1
 43
1.0
176
     1
 76
     1
176
     1
 77
     6
176
     1
 78
     2
176
     1
 67
     7
176
     1
 79
     3
176
     1
170
     0
176
     1
171
     0
176
     1
290
     0
176
     1
 93
       13
176
     1
 44
0.0
176
     1
173
     0
176
     1
  0
VISUALSTYLE
  5
42
102
{ACAD_REACTORS
330
2A
102
}
102
{ACAD_XDICTIONARY
360
277
102
}
330
2A
100
AcDbVisualStyle
  2
Shaded
 70
    27
177
     2
291
     0
 71
     2
176
     1
 72
     2
176
     1
 73
     1
176
     1
 90
        2
176
     1
 40
0.6
176
     1
 41
30.0
176
     1
 62
     5
 63
     7
421
 16777215
176
     1
 74
     0
176
     1
 91
        4
176
     1
 64
     7
176
     1
 65
   257
176
     1
 75
     1
176
     1
175
     1
176
     1
 42
1.0
176
     1
 92
        8
176
     1
 66
   257
176
     1
 43
1.0
176
     1
 76
     1
176
     1
 77
     6
176
     1
 78
     2
176
     1
 67
     8
425
  7895160
176
     1
 79
     3
176
     1
170
     0
176
     1
171
     0
176
     1
290
     0
176
     1
 93
        5
176
     1
 44
0.0
176
     1
173
     0
176
     1
  0
VISUALSTYLE
  5
41
102
{ACAD_REACTORS
330
2A
102
}
102
{ACAD_XDICTIONARY
360
275
102
}
330
2A
100
AcDbVisualStyle
  2
Shaded with edges
 70
    26
177
     2
291
     0
 71
     2
176
     1
 72
     2
176
     1
 73
     1
176
     1
 90
        2
176
     1
 40
0.6
176
     1
 41
30.0
176
     1
 62
     5
 63
     7
421
 16777215
176
     1
 74
     1
176
     1
 91
       10
176
     1
 64
     7
176
     1
 65
   257
176
     1
 75
     2
176
     1
175
     1
176
     1
 42
1.0
176
     1
 92
        8
176
     1
 66
   257
176
     1
 43
1.0
176
     1
 76
     1
176
     1
 77
     6
176
     1
 78
     2
176
     1
 67
     7
176
     1
 79
     3
176
     1
170
     0
176
     1
171
     0
176
     1
290
     0
176
     1
 93
        5
176
     1
 44
0.0
176
     1
173
     0
176
     1
  0
VISUALSTYLE
  5
3E
102
{ACAD_REACTORS
330
2A
102
}
102
{ACAD_XDICTIONARY
360
26F
102
}
330
2A
100
AcDbVisualStyle
  2
Shades of Gray
 70
    23
177
     2
291
     0
 71
     2
176
     1
 72
     2
176
     1
 73
     3
176
     1
 90
        0
176
     1
 40
0.6
176
     1
 41
30.0
176
     1
 62
     5
 63
     7
421
 16777215
176
     1
 74
     2
176
     1
 91
        2
176
     1
 64
     7
176
     1
 65
     7
176
     1
 75
     1
176
     1
175
     1
176
     1
 42
40.0
176
     1
 92
        8
176
     1
 66
     7
176
     1
 43
1.0
176
     1
 76
     1
176
     1
 77
     6
176
     1
 78
     2
176
     1
 67
     7
176
     1
 79
     3
176
     1
170
     0
176
     1
171
     0
176
     1
290
     0
176
     1
 93
        1
176
     1
 44
0.0
176
     1
173
     0
176
     1
  0
VISUALSTYLE
  5
3F
102
{ACAD_REACTORS
330
2A
102
}
102
{ACAD_XDICTIONARY
360
271
102
}
330
2A
100
AcDbVisualStyle
  2
Sketchy
 70
    24
177
     2
291
     0
 71
     1
176
     1
 72
     2
176
     1
 73
     2
176
     1
 90
        0
176
     1
 40
0.6
176
     1
 41
30.0
176
     1
 62
     5
 63
     7
421
 16777215
176
     1
 74
     2
176
     1
 91
        2
176
     1
 64
     7
176
     1
 65
     7
176
     1
 75
     1
176
     1
175
     1
176
     1
 42
40.0
176
     1
 92
       11
176
     1
 66
     7
176
     1
 43
1.0
176
     1
 76
     1
176
     1
 77
     6
176
     1
 78
     2
176
     1
 67
     7
176
     1
 79
     6
176
     1
170
     0
176
     1
171
     0
176
     1
290
     0
176
     1
 93
        1
176
     1
 44
0.0
176
     1
173
     0
176
     1
  0
VISUALSTYLE
  5
37
102
{ACAD_REACTORS
330
2A
102
}
102
{ACAD_XDICTIONARY
360
261
102
}
330
2A
100
AcDbVisualStyle
  2
Thicken
 70
    13
177
     2
291
     1
 71
     2
176
     1
 72
     2
176
     1
 73
     0
176
     1
 90
        0
176
     1
 40
0.6
176
     1
 41
30.0
176
     1
 62
     5
 63
     7
421
 16777215
176
     1
 74
     1
176
     1
 91
        4
176
     1
 64
     7
176
     1
 65
   257
176
     1
 75
     1
176
     1
175
     1
176
     1
 42
1.0
176
     1
 92
       12
176
     1
 66
     7
176
     1
 43
1.0
176
     1
 76
     1
176
     1
 77
     6
176
     1
 78
     2
176
     1
 67
     7
176
     1
 79
     5
176
     1
170
     0
176
     1
171
     0
176
     1
290
     0
176
     1
 93
        1
176
     1
 44
0.0
176
     1
173
     0
176
     1
  0
VISUALSTYLE
  5
30
102
{ACAD_REACTORS
330
2A
102
}
102
{ACAD_XDICTIONARY
360
253
102
}
330
2A
100
AcDbVisualStyle
  2
Wireframe
 70
     5
177
     2
291
     0
 71
     0
176
     1
 72
     2
176
     1
 73
     0
176
     1
 90
        0
176
     1
 40
0.6
176
     1
 41
30.0
176
     1
 62
     5
 63
     7
421
 16777215
176
     1
 74
     1
176
     1
 91
        4
176
     1
 64
     7
176
     1
 65
   257
176
     1
 75
     1
176
     1
175
     1
176
     1
 42
1.0
176
     1
 92
        0
176
     1
 66
   257
176
     1
 43
1.0
176
     1
 76
     1
176
     1
 77
     6
176
     1
 78
     2
176
     1
 67
     7
176
     1
 79
     3
176
     1
170
     0
176
     1
171
     0
176
     1
290
     0
176
     1
 93
        1
176
     1
 44
0.0
176
     1
173
     0
176
     1
  0
VISUALSTYLE
  5
40
102
{ACAD_REACTORS
330
2A
102
}
102
{ACAD_XDICTIONARY
360
273
102
}
330
2A
100
AcDbVisualStyle
  2
X-Ray
 70
    25
177
     2
291
     0
 71
     2
176
     1
 72
     2
176
     1
 73
     1
176
     1
 90
        1
176
     1
 40
0.5
176
     1
 41
30.0
176
     1
 62
     5
 63
     7
421
 16777215
176
     1
 74
     1
176
     1
 91
        0
176
     1
 64
     7
176
     1
 65
   257
176
     1
 75
     1
176
     1
175
     1
176
     1
 42
1.0
176
     1
 92
        8
176
     1
 66
     7
176
     1
 43
1.0
176
     1
 76
     1
176
     1
 77
     6
176
     1
 78
     2
176
     1
 67
     7
176
     1
 79
     3
176
     1
170
     0
176
     1
171
     0
176
     1
290
     0
176
     1
 93
       13
176
     1
 44
0.0
176
     1
173
     0
176
     1
  0
DICTIONARYVAR
  5
248
102
{ACAD_REACTORS
330
247
102
}
330
247
100
DictionaryVariables
280
     0
  1
1:1
  0
DICTIONARYVAR
  5
27D
102
{ACAD_REACTORS
330
247
102
}
330
247
100
DictionaryVariables
280
     0
  1
Standard
  0
DICTIONARYVAR
  5
27C
102
{ACAD_REACTORS
330
247
102
}
330
247
100
DictionaryVariables
280
     0
  1
Standard
  0
DICTIONARY
  5
279
330
6A
100
AcDbDictionary
280
     1
281
     1
  3
ACAD_ROUNDTRIP_2008_TABLESTYLE_CELLSTYLEMAP
360
27A
  0
DICTIONARY
  5
251
330
2F
100
AcDbDictionary
280
     1
281
     1
  3
ACAD_XREC_ROUNDTRIP
360
252
  0
DICTIONARY
  5
257
330
32
100
AcDbDictionary
280
     1
281
     1
  3
ACAD_XREC_ROUNDTRIP
360
258
  0
DICTIONARY
  5
25F
330
36
100
AcDbDictionary
280
     1
281
     1
  3
ACAD_XREC_ROUNDTRIP
360
260
  0
DICTIONARY
  5
267
330
3A
100
AcDbDictionary
280
     1
281
     1
  3
ACAD_XREC_ROUNDTRIP
360
268
  0
DICTIONARY
  5
25B
330
34
100
AcDbDictionary
280
     1
281
     1
  3
ACAD_XREC_ROUNDTRIP
360
25C
  0
DICTIONARY
  5
25D
330
35
100
AcDbDictionary
280
     1
281
     1
  3
ACAD_XREC_ROUNDTRIP
360
25E
  0
DICTIONARY
  5
26D
330
3D
100
AcDbDictionary
280
     1
281
     1
  3
ACAD_XREC_ROUNDTRIP
360
26E
  0
DICTIONARY
  5
265
330
39
100
AcDbDictionary
280
     1
281
     1
  3
ACAD_XREC_ROUNDTRIP
360
266
  0
DICTIONARY
  5
249
330
2B
100
AcDbDictionary
280
     1
281
     1
  3
ACAD_XREC_ROUNDTRIP
360
24A
  0
DICTIONARY
  5
24B
330
2C
100
AcDbDictionary
280
     1
281
     1
  3
ACAD_XREC_ROUNDTRIP
360
24C
  0
DICTIONARY
  5
24D
330
2D
100
AcDbDictionary
280
     1
281
     1
  3
ACAD_XREC_ROUNDTRIP
360
24E
  0
DICTIONARY
  5
24F
330
2E
100
AcDbDictionary
280
     1
281
     1
  3
ACAD_XREC_ROUNDTRIP
360
250
  0
DICTIONARY
  5
255
330
31
100
AcDbDictionary
280
     1
281
     1
  3
ACAD_XREC_ROUNDTRIP
360
256
  0
DICTIONARY
  5
269
330
3B
100
AcDbDictionary
280
     1
281
     1
  3
ACAD_XREC_ROUNDTRIP
360
26A
  0
DICTIONARY
  5
263
330
38
100
AcDbDictionary
280
     1
281
     1
  3
ACAD_XREC_ROUNDTRIP
360
264
  0
DICTIONARY
  5
26B
330
3C
100
AcDbDictionary
280
     1
281
     1
  3
ACAD_XREC_ROUNDTRIP
360
26C
  0
DICTIONARY
  5
259
330
33
100
AcDbDictionary
280
     1
281
     1
  3
ACAD_XREC_ROUNDTRIP
360
25A
  0
DICTIONARY
  5
277
330
42
100
AcDbDictionary
280
     1
281
     1
  3
ACAD_XREC_ROUNDTRIP
360
278
  0
DICTIONARY
  5
275
330
41
100
AcDbDictionary
280
     1
281
     1
  3
ACAD_XREC_ROUNDTRIP
360
276
  0
DICTIONARY
  5
26F
330
3E
100
AcDbDictionary
280
     1
281
     1
  3
ACAD_XREC_ROUNDTRIP
360
270
  0
DICTIONARY
  5
271
330
3F
100
AcDbDictionary
280
     1
281
     1
  3
ACAD_XREC_ROUNDTRIP
360
272
  0
DICTIONARY
  5
261
330
37
100
AcDbDictionary
280
     1
281
     1
  3
ACAD_XREC_ROUNDTRIP
360
262
  0
DICTIONARY
  5
253
330
30
100
AcDbDictionary
280
     1
281
     1
  3
ACAD_XREC_ROUNDTRIP
360
254
  0
DICTIONARY
  5
273
330
40
100
AcDbDictionary
280
     1
281
     1
  3
ACAD_XREC_ROUNDTRIP
360
274
  0
CELLSTYLEMAP
  5
27A
102
{ACAD_REACTORS
330
279
102
}
330
279
100
AcDbCellStyleMap
 90
        3
300
CELLSTYLE
  1
TABLEFORMAT_BEGIN
 90
        5
170
     1
 91
        0
 92
    32768
 62
   257
 93
        1
300
CONTENTFORMAT
  1
CONTENTFORMAT_BEGIN
 90
        0
 91
        0
 92
        4
 93
        0
300

 40
0.0
140
1.0
 94
        5
 62
     0
340
11
144
6.0
309
CONTENTFORMAT_END
171
     1
301
MARGIN
  1
CELLMARGIN_BEGIN
 40
1.5
 40
1.5
 40
1.5
 40
1.5
 40
1.5
 40
1.5
309
CELLMARGIN_END
 94
        6
 95
        1
302
GRIDFORMAT
  1
GRIDFORMAT_BEGIN
 90
        0
 91
        1
 62
     0
 92
       -2
340
14
 93
        0
 40
0.045
309
GRIDFORMAT_END
 95
        2
302
GRIDFORMAT
  1
GRIDFORMAT_BEGIN
 90
        0
 91
        1
 62
     0
 92
       -2
340
14
 93
        0
 40
0.045
309
GRIDFORMAT_END
 95
        4
302
GRIDFORMAT
  1
GRIDFORMAT_BEGIN
 90
        0
 91
        1
 62
     0
 92
       -2
340
14
 93
        0
 40
0.045
309
GRIDFORMAT_END
 95
        8
302
GRIDFORMAT
  1
GRIDFORMAT_BEGIN
 90
        0
 91
        1
 62
     0
 92
       -2
340
14
 93
        0
 40
0.045
309
GRIDFORMAT_END
 95
       16
302
GRIDFORMAT
  1
GRIDFORMAT_BEGIN
 90
        0
 91
        1
 62
     0
 92
       -2
340
14
 93
        0
 40
0.045
309
GRIDFORMAT_END
 95
       32
302
GRIDFORMAT
  1
GRIDFORMAT_BEGIN
 90
        0
 91
        1
 62
     0
 92
       -2
340
14
 93
        0
 40
0.045
309
GRIDFORMAT_END
309
TABLEFORMAT_END
  1
CELLSTYLE_BEGIN
 90
        1
 91
        1
300
_TITLE
309
CELLSTYLE_END
300
CELLSTYLE
  1
TABLEFORMAT_BEGIN
 90
        5
170
     1
 91
        0
 92
        0
 62
   257
 93
        1
300
CONTENTFORMAT
  1
CONTENTFORMAT_BEGIN
 90
        0
 91
        0
 92
        4
 93
        0
300

 40
0.0
140
1.0
 94
        5
 62
     0
340
11
144
4.5
309
CONTENTFORMAT_END
171
     1
301
MARGIN
  1
CELLMARGIN_BEGIN
 40
1.5
 40
1.5
 40
1.5
 40
1.5
 40
1.5
 40
1.5
309
CELLMARGIN_END
 94
        6
 95
        1
302
GRIDFORMAT
  1
GRIDFORMAT_BEGIN
 90
        0
 91
        1
 62
     0
 92
       -2
340
14
 93
        0
 40
0.045
309
GRIDFORMAT_END
 95
        2
302
GRIDFORMAT
  1
GRIDFORMAT_BEGIN
 90
        0
 91
        1
 62
     0
 92
       -2
340
14
 93
        0
 40
0.045
309
GRIDFORMAT_END
 95
        4
302
GRIDFORMAT
  1
GRIDFORMAT_BEGIN
 90
        0
 91
        1
 62
     0
 92
       -2
340
14
 93
        0
 40
0.045
309
GRIDFORMAT_END
 95
        8
302
GRIDFORMAT
  1
GRIDFORMAT_BEGIN
 90
        0
 91
        1
 62
     0
 92
       -2
340
14
 93
        0
 40
0.045
309
GRIDFORMAT_END
 95
       16
302
GRIDFORMAT
  1
GRIDFORMAT_BEGIN
 90
        0
 91
        1
 62
     0
 92
       -2
340
14
 93
        0
 40
0.045
309
GRIDFORMAT_END
 95
       32
302
GRIDFORMAT
  1
GRIDFORMAT_BEGIN
 90
        0
 91
        1
 62
     0
 92
       -2
340
14
 93
        0
 40
0.045
309
GRIDFORMAT_END
309
TABLEFORMAT_END
  1
CELLSTYLE_BEGIN
 90
        2
 91
        1
300
_HEADER
309
CELLSTYLE_END
300
CELLSTYLE
  1
TABLEFORMAT_BEGIN
 90
        5
170
     1
 91
        0
 92
        0
 62
   257
 93
        1
300
CONTENTFORMAT
  1
CONTENTFORMAT_BEGIN
 90
        0
 91
        0
 92
        4
 93
        0
300

 40
0.0
140
1.0
 94
        2
 62
     0
340
11
144
4.5
309
CONTENTFORMAT_END
171
     1
301
MARGIN
  1
CELLMARGIN_BEGIN
 40
1.5
 40
1.5
 40
1.5
 40
1.5
 40
1.5
 40
1.5
309
CELLMARGIN_END
 94
        6
 95
        1
302
GRIDFORMAT
  1
GRIDFORMAT_BEGIN
 90
        0
 91
        1
 62
     0
 92
       -2
340
14
 93
        0
 40
0.045
309
GRIDFORMAT_END
 95
        2
302
GRIDFORMAT
  1
GRIDFORMAT_BEGIN
 90
        0
 91
        1
 62
     0
 92
       -2
340
14
 93
        0
 40
0.045
309
GRIDFORMAT_END
 95
        4
302
GRIDFORMAT
  1
GRIDFORMAT_BEGIN
 90
        0
 91
        1
 62
     0
 92
       -2
340
14
 93
        0
 40
0.045
309
GRIDFORMAT_END
 95
        8
302
GRIDFORMAT
  1
GRIDFORMAT_BEGIN
 90
        0
 91
        1
 62
     0
 92
       -2
340
14
 93
        0
 40
0.045
309
GRIDFORMAT_END
 95
       16
302
GRIDFORMAT
  1
GRIDFORMAT_BEGIN
 90
        0
 91
        1
 62
     0
 92
       -2
340
14
 93
        0
 40
0.045
309
GRIDFORMAT_END
 95
       32
302
GRIDFORMAT
  1
GRIDFORMAT_BEGIN
 90
        0
 91
        1
 62
     0
 92
       -2
340
14
 93
        0
 40
0.045
309
GRIDFORMAT_END
309
TABLEFORMAT_END
  1
CELLSTYLE_BEGIN
 90
        3
 91
        2
300
_DATA
309
CELLSTYLE_END
  0
XRECORD
  5
252
102
{ACAD_REACTORS
330
251
102
}
330
251
100
AcDbXrecord
280
     1
102
RTVSPost2010Prop28
280
     1
102
RTVSPost2010PropOp28
 70
     1
102
RTVSPost2010Prop29
280
     1
102
RTVSPost2010PropOp29
 70
     1
102
RTVSPost2010Prop30
280
     0
102
RTVSPost2010PropOp30
 70
     1
102
RTVSPost2010Prop31
280
     0
102
RTVSPost2010PropOp31
 70
     1
102
RTVSPost2010Prop32
280
     0
102
RTVSPost2010PropOp32
 70
     1
102
RTVSPost2010Prop33
280
     0
102
RTVSPost2010PropOp33
 70
     1
102
RTVSPost2010Prop34
280
     0
102
RTVSPost2010PropOp34
 70
     1
102
RTVSPost2010Prop35
280
     0
102
RTVSPost2010PropOp35
 70
     1
102
RTVSPost2010Prop36
280
     0
102
RTVSPost2010PropOp36
 70
     1
102
RTVSPost2010Prop37
 90
       50
102
RTVSPost2010PropOp37
 70
     1
102
RTVSPost2010Prop38
140
0.0
102
RTVSPost2010PropOp38
 70
     1
102
RTVSPost2010Prop39
140
1.0
102
RTVSPost2010PropOp39
 70
     1
102
RTVSPost2010Prop40
 90
        0
102
RTVSPost2010PropOp40
 70
     1
102
RTVSPost2010Prop41ColorIndex
 90
       18
102
RTVSPost2010Prop41ColorRGB
 90
        0
102
RTVSPost2010PropOp41
 70
     1
102
RTVSPost2010Prop42
 90
       50
102
RTVSPost2010PropOp42
 70
     1
102
RTVSPost2010Prop43
 90
        3
102
RTVSPost2010PropOp43
 70
     1
102
RTVSPost2010Prop44ColorIndex
 90
        5
102
RTVSPost2010Prop44ColorRGB
 90
      255
102
RTVSPost2010PropOp44
 70
     1
102
RTVSPost2010Prop45
280
     0
102
RTVSPost2010PropOp45
 70
     1
102
RTVSPost2010Prop46
 90
       50
102
RTVSPost2010PropOp46
 70
     1
102
RTVSPost2010Prop47
 90
       50
102
RTVSPost2010PropOp47
 70
     1
102
RTVSPost2010Prop48
 90
       50
102
RTVSPost2010PropOp48
 70
     1
102
RTVSPost2010Prop49
280
     0
102
RTVSPost2010PropOp49
 70
     1
102
RTVSPost2010Prop50
 90
       50
102
RTVSPost2010PropOp50
 70
     1
102
RTVSPost2010Prop51ColorIndex
 90
      256
102
RTVSPost2010Prop51ColorRGB
 90
-16777216
102
RTVSPost2010PropOp51
 70
     0
102
RTVSPost2010Prop52
140
1.0
102
RTVSPost2010PropOp52
 70
     0
102
RTVSPost2010Prop53
 90
        2
102
RTVSPost2010PropOp53
 70
     1
102
RTVSPost2010Prop54
  1
strokes_ogs.tif
102
RTVSPost2010PropOp54
 70
     1
102
RTVSPost2010Prop55
280
     0
102
RTVSPost2010PropOp55
 70
     1
102
RTVSPost2010Prop56
140
1.0
102
RTVSPost2010PropOp56
 70
     1
102
RTVSPost2010Prop57
140
1.0
102
RTVSPost2010PropOp57
 70
     1
  0
XRECORD
  5
258
102
{ACAD_REACTORS
330
257
102
}
330
257
100
AcDbXrecord
280
     1
102
RTVSPost2010Prop28
280
     0
102
RTVSPost2010PropOp28
 70
     1
102
RTVSPost2010Prop29
280
     1
102
RTVSPost2010PropOp29
 70
     1
102
RTVSPost2010Prop30
280
     1
102
RTVSPost2010PropOp30
 70
     1
102
RTVSPost2010Prop31
280
     0
102
RTVSPost2010PropOp31
 70
     1
102
RTVSPost2010Prop32
280
     0
102
RTVSPost2010PropOp32
 70
     1
102
RTVSPost2010Prop33
280
     0
102
RTVSPost2010PropOp33
 70
     1
102
RTVSPost2010Prop34
280
     0
102
RTVSPost2010PropOp34
 70
     1
102
RTVSPost2010Prop35
280
     0
102
RTVSPost2010PropOp35
 70
     1
102
RTVSPost2010Prop36
280
     0
102
RTVSPost2010PropOp36
 70
     1
102
RTVSPost2010Prop37
 90
       50
102
RTVSPost2010PropOp37
 70
     1
102
RTVSPost2010Prop38
140
0.0
102
RTVSPost2010PropOp38
 70
     1
102
RTVSPost2010Prop39
140
1.0
102
RTVSPost2010PropOp39
 70
     1
102
RTVSPost2010Prop40
 90
        0
102
RTVSPost2010PropOp40
 70
     1
102
RTVSPost2010Prop41ColorIndex
 90
       18
102
RTVSPost2010Prop41ColorRGB
 90
        0
102
RTVSPost2010PropOp41
 70
     1
102
RTVSPost2010Prop42
 90
       50
102
RTVSPost2010PropOp42
 70
     1
102
RTVSPost2010Prop43
 90
        3
102
RTVSPost2010PropOp43
 70
     1
102
RTVSPost2010Prop44ColorIndex
 90
        5
102
RTVSPost2010Prop44ColorRGB
 90
      255
102
RTVSPost2010PropOp44
 70
     1
102
RTVSPost2010Prop45
280
     0
102
RTVSPost2010PropOp45
 70
     1
102
RTVSPost2010Prop46
 90
       50
102
RTVSPost2010PropOp46
 70
     1
102
RTVSPost2010Prop47
 90
       50
102
RTVSPost2010PropOp47
 70
     1
102
RTVSPost2010Prop48
 90
       50
102
RTVSPost2010PropOp48
 70
     1
102
RTVSPost2010Prop49
280
     0
102
RTVSPost2010PropOp49
 70
     1
102
RTVSPost2010Prop50
 90
       50
102
RTVSPost2010PropOp50
 70
     1
102
RTVSPost2010Prop51ColorIndex
 90
      256
102
RTVSPost2010Prop51ColorRGB
 90
-16777216
102
RTVSPost2010PropOp51
 70
     0
102
RTVSPost2010Prop52
140
1.0
102
RTVSPost2010PropOp52
 70
     0
102
RTVSPost2010Prop53
 90
        2
102
RTVSPost2010PropOp53
 70
     1
102
RTVSPost2010Prop54
  1
strokes_ogs.tif
102
RTVSPost2010PropOp54
 70
     1
102
RTVSPost2010Prop55
280
     0
102
RTVSPost2010PropOp55
 70
     1
102
RTVSPost2010Prop56
140
1.0
102
RTVSPost2010PropOp56
 70
     1
102
RTVSPost2010Prop57
140
1.0
102
RTVSPost2010PropOp57
 70
     1
  0
XRECORD
  5
260
102
{ACAD_REACTORS
330
25F
102
}
330
25F
100
AcDbXrecord
280
     1
102
RTVSPost2010Prop28
280
     0
102
RTVSPost2010PropOp28
 70
     1
102
RTVSPost2010Prop29
280
     1
102
RTVSPost2010PropOp29
 70
     1
102
RTVSPost2010Prop30
280
     1
102
RTVSPost2010PropOp30
 70
     1
102
RTVSPost2010Prop31
280
     0
102
RTVSPost2010PropOp31
 70
     1
102
RTVSPost2010Prop32
280
     0
102
RTVSPost2010PropOp32
 70
     1
102
RTVSPost2010Prop33
280
     0
102
RTVSPost2010PropOp33
 70
     1
102
RTVSPost2010Prop34
280
     0
102
RTVSPost2010PropOp34
 70
     1
102
RTVSPost2010Prop35
280
     0
102
RTVSPost2010PropOp35
 70
     1
102
RTVSPost2010Prop36
280
     0
102
RTVSPost2010PropOp36
 70
     1
102
RTVSPost2010Prop37
 90
       50
102
RTVSPost2010PropOp37
 70
     1
102
RTVSPost2010Prop38
140
0.0
102
RTVSPost2010PropOp38
 70
     1
102
RTVSPost2010Prop39
140
1.0
102
RTVSPost2010PropOp39
 70
     1
102
RTVSPost2010Prop40
 90
        0
102
RTVSPost2010PropOp40
 70
     1
102
RTVSPost2010Prop41ColorIndex
 90
       18
102
RTVSPost2010Prop41ColorRGB
 90
        0
102
RTVSPost2010PropOp41
 70
     1
102
RTVSPost2010Prop42
 90
       50
102
RTVSPost2010PropOp42
 70
     1
102
RTVSPost2010Prop43
 90
        3
102
RTVSPost2010PropOp43
 70
     1
102
RTVSPost2010Prop44ColorIndex
 90
        5
102
RTVSPost2010Prop44ColorRGB
 90
      255
102
RTVSPost2010PropOp44
 70
     1
102
RTVSPost2010Prop45
280
     0
102
RTVSPost2010PropOp45
 70
     1
102
RTVSPost2010Prop46
 90
       50
102
RTVSPost2010PropOp46
 70
     1
102
RTVSPost2010Prop47
 90
       50
102
RTVSPost2010PropOp47
 70
     1
102
RTVSPost2010Prop48
 90
       50
102
RTVSPost2010PropOp48
 70
     1
102
RTVSPost2010Prop49
280
     0
102
RTVSPost2010PropOp49
 70
     1
102
RTVSPost2010Prop50
 90
       50
102
RTVSPost2010PropOp50
 70
     1
102
RTVSPost2010Prop51ColorIndex
 90
      256
102
RTVSPost2010Prop51ColorRGB
 90
-16777216
102
RTVSPost2010PropOp51
 70
     0
102
RTVSPost2010Prop52
140
1.0
102
RTVSPost2010PropOp52
 70
     0
102
RTVSPost2010Prop53
 90
        2
102
RTVSPost2010PropOp53
 70
     1
102
RTVSPost2010Prop54
  1
strokes_ogs.tif
102
RTVSPost2010PropOp54
 70
     1
102
RTVSPost2010Prop55
280
     0
102
RTVSPost2010PropOp55
 70
     1
102
RTVSPost2010Prop56
140
1.0
102
RTVSPost2010PropOp56
 70
     1
102
RTVSPost2010Prop57
140
1.0
102
RTVSPost2010PropOp57
 70
     1
  0
XRECORD
  5
268
102
{ACAD_REACTORS
330
267
102
}
330
267
100
AcDbXrecord
280
     1
102
RTVSPost2010Prop28
280
     0
102
RTVSPost2010PropOp28
 70
     1
102
RTVSPost2010Prop29
280
     1
102
RTVSPost2010PropOp29
 70
     1
102
RTVSPost2010Prop30
280
     1
102
RTVSPost2010PropOp30
 70
     1
102
RTVSPost2010Prop31
280
     0
102
RTVSPost2010PropOp31
 70
     1
102
RTVSPost2010Prop32
280
     0
102
RTVSPost2010PropOp32
 70
     1
102
RTVSPost2010Prop33
280
     0
102
RTVSPost2010PropOp33
 70
     1
102
RTVSPost2010Prop34
280
     0
102
RTVSPost2010PropOp34
 70
     1
102
RTVSPost2010Prop35
280
     0
102
RTVSPost2010PropOp35
 70
     1
102
RTVSPost2010Prop36
280
     0
102
RTVSPost2010PropOp36
 70
     1
102
RTVSPost2010Prop37
 90
       50
102
RTVSPost2010PropOp37
 70
     1
102
RTVSPost2010Prop38
140
0.0
102
RTVSPost2010PropOp38
 70
     1
102
RTVSPost2010Prop39
140
1.0
102
RTVSPost2010PropOp39
 70
     1
102
RTVSPost2010Prop40
 90
        0
102
RTVSPost2010PropOp40
 70
     1
102
RTVSPost2010Prop41ColorIndex
 90
       18
102
RTVSPost2010Prop41ColorRGB
 90
        0
102
RTVSPost2010PropOp41
 70
     1
102
RTVSPost2010Prop42
 90
       50
102
RTVSPost2010PropOp42
 70
     1
102
RTVSPost2010Prop43
 90
        3
102
RTVSPost2010PropOp43
 70
     1
102
RTVSPost2010Prop44ColorIndex
 90
        5
102
RTVSPost2010Prop44ColorRGB
 90
      255
102
RTVSPost2010PropOp44
 70
     1
102
RTVSPost2010Prop45
280
     0
102
RTVSPost2010PropOp45
 70
     1
102
RTVSPost2010Prop46
 90
       50
102
RTVSPost2010PropOp46
 70
     1
102
RTVSPost2010Prop47
 90
       50
102
RTVSPost2010PropOp47
 70
     1
102
RTVSPost2010Prop48
 90
       50
102
RTVSPost2010PropOp48
 70
     1
102
RTVSPost2010Prop49
280
     0
102
RTVSPost2010PropOp49
 70
     1
102
RTVSPost2010Prop50
 90
       50
102
RTVSPost2010PropOp50
 70
     1
102
RTVSPost2010Prop51ColorIndex
 90
      256
102
RTVSPost2010Prop51ColorRGB
 90
-16777216
102
RTVSPost2010PropOp51
 70
     0
102
RTVSPost2010Prop52
140
1.0
102
RTVSPost2010PropOp52
 70
     0
102
RTVSPost2010Prop53
 90
        2
102
RTVSPost2010PropOp53
 70
     1
102
RTVSPost2010Prop54
  1
strokes_ogs.tif
102
RTVSPost2010PropOp54
 70
     1
102
RTVSPost2010Prop55
280
     0
102
RTVSPost2010PropOp55
 70
     1
102
RTVSPost2010Prop56
140
1.0
102
RTVSPost2010PropOp56
 70
     1
102
RTVSPost2010Prop57
140
1.0
102
RTVSPost2010PropOp57
 70
     1
  0
XRECORD
  5
25C
102
{ACAD_REACTORS
330
25B
102
}
330
25B
100
AcDbXrecord
280
     1
102
RTVSPost2010Prop28
280
     0
102
RTVSPost2010PropOp28
 70
     1
102
RTVSPost2010Prop29
280
     1
102
RTVSPost2010PropOp29
 70
     1
102
RTVSPost2010Prop30
280
     1
102
RTVSPost2010PropOp30
 70
     1
102
RTVSPost2010Prop31
280
     0
102
RTVSPost2010PropOp31
 70
     1
102
RTVSPost2010Prop32
280
     0
102
RTVSPost2010PropOp32
 70
     1
102
RTVSPost2010Prop33
280
     0
102
RTVSPost2010PropOp33
 70
     1
102
RTVSPost2010Prop34
280
     0
102
RTVSPost2010PropOp34
 70
     1
102
RTVSPost2010Prop35
280
     0
102
RTVSPost2010PropOp35
 70
     1
102
RTVSPost2010Prop36
280
     0
102
RTVSPost2010PropOp36
 70
     1
102
RTVSPost2010Prop37
 90
       50
102
RTVSPost2010PropOp37
 70
     1
102
RTVSPost2010Prop38
140
0.0
102
RTVSPost2010PropOp38
 70
     1
102
RTVSPost2010Prop39
140
1.0
102
RTVSPost2010PropOp39
 70
     1
102
RTVSPost2010Prop40
 90
        0
102
RTVSPost2010PropOp40
 70
     1
102
RTVSPost2010Prop41ColorIndex
 90
       18
102
RTVSPost2010Prop41ColorRGB
 90
        0
102
RTVSPost2010PropOp41
 70
     1
102
RTVSPost2010Prop42
 90
       50
102
RTVSPost2010PropOp42
 70
     1
102
RTVSPost2010Prop43
 90
        3
102
RTVSPost2010PropOp43
 70
     1
102
RTVSPost2010Prop44ColorIndex
 90
        5
102
RTVSPost2010Prop44ColorRGB
 90
      255
102
RTVSPost2010PropOp44
 70
     1
102
RTVSPost2010Prop45
280
     0
102
RTVSPost2010PropOp45
 70
     1
102
RTVSPost2010Prop46
 90
       50
102
RTVSPost2010PropOp46
 70
     1
102
RTVSPost2010Prop47
 90
       50
102
RTVSPost2010PropOp47
 70
     1
102
RTVSPost2010Prop48
 90
       50
102
RTVSPost2010PropOp48
 70
     1
102
RTVSPost2010Prop49
280
     0
102
RTVSPost2010PropOp49
 70
     1
102
RTVSPost2010Prop50
 90
       50
102
RTVSPost2010PropOp50
 70
     1
102
RTVSPost2010Prop51ColorIndex
 90
      256
102
RTVSPost2010Prop51ColorRGB
 90
-16777216
102
RTVSPost2010PropOp51
 70
     0
102
RTVSPost2010Prop52
140
1.0
102
RTVSPost2010PropOp52
 70
     0
102
RTVSPost2010Prop53
 90
        2
102
RTVSPost2010PropOp53
 70
     1
102
RTVSPost2010Prop54
  1
strokes_ogs.tif
102
RTVSPost2010PropOp54
 70
     1
102
RTVSPost2010Prop55
280
     0
102
RTVSPost2010PropOp55
 70
     1
102
RTVSPost2010Prop56
140
1.0
102
RTVSPost2010PropOp56
 70
     1
102
RTVSPost2010Prop57
140
1.0
102
RTVSPost2010PropOp57
 70
     1
  0
XRECORD
  5
25E
102
{ACAD_REACTORS
330
25D
102
}
330
25D
100
AcDbXrecord
280
     1
102
RTVSPost2010Prop28
280
     0
102
RTVSPost2010PropOp28
 70
     1
102
RTVSPost2010Prop29
280
     1
102
RTVSPost2010PropOp29
 70
     1
102
RTVSPost2010Prop30
280
     1
102
RTVSPost2010PropOp30
 70
     1
102
RTVSPost2010Prop31
280
     0
102
RTVSPost2010PropOp31
 70
     1
102
RTVSPost2010Prop32
280
     0
102
RTVSPost2010PropOp32
 70
     1
102
RTVSPost2010Prop33
280
     0
102
RTVSPost2010PropOp33
 70
     1
102
RTVSPost2010Prop34
280
     0
102
RTVSPost2010PropOp34
 70
     1
102
RTVSPost2010Prop35
280
     0
102
RTVSPost2010PropOp35
 70
     1
102
RTVSPost2010Prop36
280
     0
102
RTVSPost2010PropOp36
 70
     1
102
RTVSPost2010Prop37
 90
       50
102
RTVSPost2010PropOp37
 70
     1
102
RTVSPost2010Prop38
140
0.0
102
RTVSPost2010PropOp38
 70
     1
102
RTVSPost2010Prop39
140
1.0
102
RTVSPost2010PropOp39
 70
     1
102
RTVSPost2010Prop40
 90
        0
102
RTVSPost2010PropOp40
 70
     1
102
RTVSPost2010Prop41ColorIndex
 90
       18
102
RTVSPost2010Prop41ColorRGB
 90
        0
102
RTVSPost2010PropOp41
 70
     1
102
RTVSPost2010Prop42
 90
       50
102
RTVSPost2010PropOp42
 70
     1
102
RTVSPost2010Prop43
 90
        3
102
RTVSPost2010PropOp43
 70
     1
102
RTVSPost2010Prop44ColorIndex
 90
        5
102
RTVSPost2010Prop44ColorRGB
 90
      255
102
RTVSPost2010PropOp44
 70
     1
102
RTVSPost2010Prop45
280
     0
102
RTVSPost2010PropOp45
 70
     1
102
RTVSPost2010Prop46
 90
       50
102
RTVSPost2010PropOp46
 70
     1
102
RTVSPost2010Prop47
 90
       50
102
RTVSPost2010PropOp47
 70
     1
102
RTVSPost2010Prop48
 90
       50
102
RTVSPost2010PropOp48
 70
     1
102
RTVSPost2010Prop49
280
     0
102
RTVSPost2010PropOp49
 70
     1
102
RTVSPost2010Prop50
 90
       50
102
RTVSPost2010PropOp50
 70
     1
102
RTVSPost2010Prop51ColorIndex
 90
      256
102
RTVSPost2010Prop51ColorRGB
 90
-16777216
102
RTVSPost2010PropOp51
 70
     0
102
RTVSPost2010Prop52
140
1.0
102
RTVSPost2010PropOp52
 70
     0
102
RTVSPost2010Prop53
 90
        2
102
RTVSPost2010PropOp53
 70
     1
102
RTVSPost2010Prop54
  1
strokes_ogs.tif
102
RTVSPost2010PropOp54
 70
     1
102
RTVSPost2010Prop55
280
     0
102
RTVSPost2010PropOp55
 70
     1
102
RTVSPost2010Prop56
140
1.0
102
RTVSPost2010PropOp56
 70
     1
102
RTVSPost2010Prop57
140
1.0
102
RTVSPost2010PropOp57
 70
     1
  0
XRECORD
  5
26E
102
{ACAD_REACTORS
330
26D
102
}
330
26D
100
AcDbXrecord
280
     1
102
RTVSPost2010Prop28
280
     0
102
RTVSPost2010PropOp28
 70
     0
102
RTVSPost2010Prop29
280
     1
102
RTVSPost2010PropOp29
 70
     0
102
RTVSPost2010Prop30
280
     1
102
RTVSPost2010PropOp30
 70
     0
102
RTVSPost2010Prop31
280
     0
102
RTVSPost2010PropOp31
 70
     0
102
RTVSPost2010Prop32
280
     0
102
RTVSPost2010PropOp32
 70
     0
102
RTVSPost2010Prop33
280
     0
102
RTVSPost2010PropOp33
 70
     0
102
RTVSPost2010Prop34
280
     0
102
RTVSPost2010PropOp34
 70
     0
102
RTVSPost2010Prop35
280
     0
102
RTVSPost2010PropOp35
 70
     0
102
RTVSPost2010Prop36
280
     0
102
RTVSPost2010PropOp36
 70
     0
102
RTVSPost2010Prop37
 90
       50
102
RTVSPost2010PropOp37
 70
     0
102
RTVSPost2010Prop38
140
0.0
102
RTVSPost2010PropOp38
 70
     0
102
RTVSPost2010Prop39
140
1.0
102
RTVSPost2010PropOp39
 70
     0
102
RTVSPost2010Prop40
 90
        0
102
RTVSPost2010PropOp40
 70
     0
102
RTVSPost2010Prop41ColorIndex
 90
       18
102
RTVSPost2010Prop41ColorRGB
 90
        0
102
RTVSPost2010PropOp41
 70
     0
102
RTVSPost2010Prop42
 90
       50
102
RTVSPost2010PropOp42
 70
     0
102
RTVSPost2010Prop43
 90
        3
102
RTVSPost2010PropOp43
 70
     0
102
RTVSPost2010Prop44ColorIndex
 90
        5
102
RTVSPost2010Prop44ColorRGB
 90
      255
102
RTVSPost2010PropOp44
 70
     0
102
RTVSPost2010Prop45
280
     0
102
RTVSPost2010PropOp45
 70
     0
102
RTVSPost2010Prop46
 90
       50
102
RTVSPost2010PropOp46
 70
     0
102
RTVSPost2010Prop47
 90
       50
102
RTVSPost2010PropOp47
 70
     0
102
RTVSPost2010Prop48
 90
       50
102
RTVSPost2010PropOp48
 70
     0
102
RTVSPost2010Prop49
280
     0
102
RTVSPost2010PropOp49
 70
     0
102
RTVSPost2010Prop50
 90
       50
102
RTVSPost2010PropOp50
 70
     0
102
RTVSPost2010Prop51ColorIndex
 90
      256
102
RTVSPost2010Prop51ColorRGB
 90
-16777216
102
RTVSPost2010PropOp51
 70
     0
102
RTVSPost2010Prop52
140
1.0
102
RTVSPost2010PropOp52
 70
     0
102
RTVSPost2010Prop53
 90
        2
102
RTVSPost2010PropOp53
 70
     0
102
RTVSPost2010Prop54
  1
strokes_ogs.tif
102
RTVSPost2010PropOp54
 70
     0
102
RTVSPost2010Prop55
280
     0
102
RTVSPost2010PropOp55
 70
     0
102
RTVSPost2010Prop56
140
1.0
102
RTVSPost2010PropOp56
 70
     0
102
RTVSPost2010Prop57
140
1.0
102
RTVSPost2010PropOp57
 70
     0
  0
XRECORD
  5
266
102
{ACAD_REACTORS
330
265
102
}
330
265
100
AcDbXrecord
280
     1
102
RTVSPost2010Prop28
280
     0
102
RTVSPost2010PropOp28
 70
     1
102
RTVSPost2010Prop29
280
     1
102
RTVSPost2010PropOp29
 70
     1
102
RTVSPost2010Prop30
280
     1
102
RTVSPost2010PropOp30
 70
     1
102
RTVSPost2010Prop31
280
     0
102
RTVSPost2010PropOp31
 70
     1
102
RTVSPost2010Prop32
280
     0
102
RTVSPost2010PropOp32
 70
     1
102
RTVSPost2010Prop33
280
     0
102
RTVSPost2010PropOp33
 70
     1
102
RTVSPost2010Prop34
280
     0
102
RTVSPost2010PropOp34
 70
     1
102
RTVSPost2010Prop35
280
     0
102
RTVSPost2010PropOp35
 70
     1
102
RTVSPost2010Prop36
280
     0
102
RTVSPost2010PropOp36
 70
     1
102
RTVSPost2010Prop37
 90
       50
102
RTVSPost2010PropOp37
 70
     1
102
RTVSPost2010Prop38
140
0.0
102
RTVSPost2010PropOp38
 70
     1
102
RTVSPost2010Prop39
140
1.0
102
RTVSPost2010PropOp39
 70
     1
102
RTVSPost2010Prop40
 90
        0
102
RTVSPost2010PropOp40
 70
     1
102
RTVSPost2010Prop41ColorIndex
 90
       18
102
RTVSPost2010Prop41ColorRGB
 90
        0
102
RTVSPost2010PropOp41
 70
     1
102
RTVSPost2010Prop42
 90
       50
102
RTVSPost2010PropOp42
 70
     1
102
RTVSPost2010Prop43
 90
        3
102
RTVSPost2010PropOp43
 70
     1
102
RTVSPost2010Prop44ColorIndex
 90
        5
102
RTVSPost2010Prop44ColorRGB
 90
      255
102
RTVSPost2010PropOp44
 70
     1
102
RTVSPost2010Prop45
280
     0
102
RTVSPost2010PropOp45
 70
     1
102
RTVSPost2010Prop46
 90
       50
102
RTVSPost2010PropOp46
 70
     1
102
RTVSPost2010Prop47
 90
       50
102
RTVSPost2010PropOp47
 70
     1
102
RTVSPost2010Prop48
 90
       50
102
RTVSPost2010PropOp48
 70
     1
102
RTVSPost2010Prop49
280
     0
102
RTVSPost2010PropOp49
 70
     1
102
RTVSPost2010Prop50
 90
       50
102
RTVSPost2010PropOp50
 70
     1
102
RTVSPost2010Prop51ColorIndex
 90
      256
102
RTVSPost2010Prop51ColorRGB
 90
-16777216
102
RTVSPost2010PropOp51
 70
     0
102
RTVSPost2010Prop52
140
1.0
102
RTVSPost2010PropOp52
 70
     0
102
RTVSPost2010Prop53
 90
        2
102
RTVSPost2010PropOp53
 70
     1
102
RTVSPost2010Prop54
  1
strokes_ogs.tif
102
RTVSPost2010PropOp54
 70
     1
102
RTVSPost2010Prop55
280
     0
102
RTVSPost2010PropOp55
 70
     1
102
RTVSPost2010Prop56
140
1.0
102
RTVSPost2010PropOp56
 70
     1
102
RTVSPost2010Prop57
140
1.0
102
RTVSPost2010PropOp57
 70
     1
  0
XRECORD
  5
24A
102
{ACAD_REACTORS
330
249
102
}
330
249
100
AcDbXrecord
280
     1
102
RTVSPost2010Prop28
280
     0
102
RTVSPost2010PropOp28
 70
     1
102
RTVSPost2010Prop29
280
     1
102
RTVSPost2010PropOp29
 70
     1
102
RTVSPost2010Prop30
280
     1
102
RTVSPost2010PropOp30
 70
     1
102
RTVSPost2010Prop31
280
     0
102
RTVSPost2010PropOp31
 70
     1
102
RTVSPost2010Prop32
280
     0
102
RTVSPost2010PropOp32
 70
     1
102
RTVSPost2010Prop33
280
     0
102
RTVSPost2010PropOp33
 70
     1
102
RTVSPost2010Prop34
280
     0
102
RTVSPost2010PropOp34
 70
     1
102
RTVSPost2010Prop35
280
     0
102
RTVSPost2010PropOp35
 70
     1
102
RTVSPost2010Prop36
280
     0
102
RTVSPost2010PropOp36
 70
     1
102
RTVSPost2010Prop37
 90
       50
102
RTVSPost2010PropOp37
 70
     1
102
RTVSPost2010Prop38
140
0.0
102
RTVSPost2010PropOp38
 70
     1
102
RTVSPost2010Prop39
140
1.0
102
RTVSPost2010PropOp39
 70
     1
102
RTVSPost2010Prop40
 90
        0
102
RTVSPost2010PropOp40
 70
     1
102
RTVSPost2010Prop41ColorIndex
 90
       18
102
RTVSPost2010Prop41ColorRGB
 90
        0
102
RTVSPost2010PropOp41
 70
     1
102
RTVSPost2010Prop42
 90
       50
102
RTVSPost2010PropOp42
 70
     1
102
RTVSPost2010Prop43
 90
        3
102
RTVSPost2010PropOp43
 70
     1
102
RTVSPost2010Prop44ColorIndex
 90
        5
102
RTVSPost2010Prop44ColorRGB
 90
      255
102
RTVSPost2010PropOp44
 70
     1
102
RTVSPost2010Prop45
280
     0
102
RTVSPost2010PropOp45
 70
     1
102
RTVSPost2010Prop46
 90
       50
102
RTVSPost2010PropOp46
 70
     1
102
RTVSPost2010Prop47
 90
       50
102
RTVSPost2010PropOp47
 70
     1
102
RTVSPost2010Prop48
 90
       50
102
RTVSPost2010PropOp48
 70
     1
102
RTVSPost2010Prop49
280
     0
102
RTVSPost2010PropOp49
 70
     1
102
RTVSPost2010Prop50
 90
       50
102
RTVSPost2010PropOp50
 70
     1
102
RTVSPost2010Prop51ColorIndex
 90
      256
102
RTVSPost2010Prop51ColorRGB
 90
-16777216
102
RTVSPost2010PropOp51
 70
     0
102
RTVSPost2010Prop52
140
1.0
102
RTVSPost2010PropOp52
 70
     0
102
RTVSPost2010Prop53
 90
        2
102
RTVSPost2010PropOp53
 70
     1
102
RTVSPost2010Prop54
  1
strokes_ogs.tif
102
RTVSPost2010PropOp54
 70
     1
102
RTVSPost2010Prop55
280
     0
102
RTVSPost2010PropOp55
 70
     1
102
RTVSPost2010Prop56
140
1.0
102
RTVSPost2010PropOp56
 70
     1
102
RTVSPost2010Prop57
140
1.0
102
RTVSPost2010PropOp57
 70
     1
  0
XRECORD
  5
24C
102
{ACAD_REACTORS
330
24B
102
}
330
24B
100
AcDbXrecord
280
     1
102
RTVSPost2010Prop28
280
     0
102
RTVSPost2010PropOp28
 70
     1
102
RTVSPost2010Prop29
280
     1
102
RTVSPost2010PropOp29
 70
     1
102
RTVSPost2010Prop30
280
     1
102
RTVSPost2010PropOp30
 70
     1
102
RTVSPost2010Prop31
280
     0
102
RTVSPost2010PropOp31
 70
     1
102
RTVSPost2010Prop32
280
     0
102
RTVSPost2010PropOp32
 70
     1
102
RTVSPost2010Prop33
280
     0
102
RTVSPost2010PropOp33
 70
     1
102
RTVSPost2010Prop34
280
     0
102
RTVSPost2010PropOp34
 70
     1
102
RTVSPost2010Prop35
280
     0
102
RTVSPost2010PropOp35
 70
     1
102
RTVSPost2010Prop36
280
     0
102
RTVSPost2010PropOp36
 70
     1
102
RTVSPost2010Prop37
 90
       50
102
RTVSPost2010PropOp37
 70
     1
102
RTVSPost2010Prop38
140
0.0
102
RTVSPost2010PropOp38
 70
     1
102
RTVSPost2010Prop39
140
1.0
102
RTVSPost2010PropOp39
 70
     1
102
RTVSPost2010Prop40
 90
        0
102
RTVSPost2010PropOp40
 70
     1
102
RTVSPost2010Prop41ColorIndex
 90
       18
102
RTVSPost2010Prop41ColorRGB
 90
        0
102
RTVSPost2010PropOp41
 70
     1
102
RTVSPost2010Prop42
 90
       50
102
RTVSPost2010PropOp42
 70
     1
102
RTVSPost2010Prop43
 90
        3
102
RTVSPost2010PropOp43
 70
     1
102
RTVSPost2010Prop44ColorIndex
 90
        5
102
RTVSPost2010Prop44ColorRGB
 90
      255
102
RTVSPost2010PropOp44
 70
     1
102
RTVSPost2010Prop45
280
     0
102
RTVSPost2010PropOp45
 70
     1
102
RTVSPost2010Prop46
 90
       50
102
RTVSPost2010PropOp46
 70
     1
102
RTVSPost2010Prop47
 90
       50
102
RTVSPost2010PropOp47
 70
     1
102
RTVSPost2010Prop48
 90
       50
102
RTVSPost2010PropOp48
 70
     1
102
RTVSPost2010Prop49
280
     0
102
RTVSPost2010PropOp49
 70
     1
102
RTVSPost2010Prop50
 90
       50
102
RTVSPost2010PropOp50
 70
     1
102
RTVSPost2010Prop51ColorIndex
 90
      256
102
RTVSPost2010Prop51ColorRGB
 90
-16777216
102
RTVSPost2010PropOp51
 70
     0
102
RTVSPost2010Prop52
140
1.0
102
RTVSPost2010PropOp52
 70
     0
102
RTVSPost2010Prop53
 90
        2
102
RTVSPost2010PropOp53
 70
     1
102
RTVSPost2010Prop54
  1
strokes_ogs.tif
102
RTVSPost2010PropOp54
 70
     1
102
RTVSPost2010Prop55
280
     0
102
RTVSPost2010PropOp55
 70
     1
102
RTVSPost2010Prop56
140
1.0
102
RTVSPost2010PropOp56
 70
     1
102
RTVSPost2010Prop57
140
1.0
102
RTVSPost2010PropOp57
 70
     1
  0
XRECORD
  5
24E
102
{ACAD_REACTORS
330
24D
102
}
330
24D
100
AcDbXrecord
280
     1
102
RTVSPost2010Prop28
280
     0
102
RTVSPost2010PropOp28
 70
     1
102
RTVSPost2010Prop29
280
     1
102
RTVSPost2010PropOp29
 70
     1
102
RTVSPost2010Prop30
280
     1
102
RTVSPost2010PropOp30
 70
     1
102
RTVSPost2010Prop31
280
     0
102
RTVSPost2010PropOp31
 70
     1
102
RTVSPost2010Prop32
280
     0
102
RTVSPost2010PropOp32
 70
     1
102
RTVSPost2010Prop33
280
     0
102
RTVSPost2010PropOp33
 70
     1
102
RTVSPost2010Prop34
280
     0
102
RTVSPost2010PropOp34
 70
     1
102
RTVSPost2010Prop35
280
     0
102
RTVSPost2010PropOp35
 70
     1
102
RTVSPost2010Prop36
280
     0
102
RTVSPost2010PropOp36
 70
     1
102
RTVSPost2010Prop37
 90
       50
102
RTVSPost2010PropOp37
 70
     1
102
RTVSPost2010Prop38
140
0.0
102
RTVSPost2010PropOp38
 70
     1
102
RTVSPost2010Prop39
140
1.0
102
RTVSPost2010PropOp39
 70
     1
102
RTVSPost2010Prop40
 90
        0
102
RTVSPost2010PropOp40
 70
     1
102
RTVSPost2010Prop41ColorIndex
 90
       18
102
RTVSPost2010Prop41ColorRGB
 90
        0
102
RTVSPost2010PropOp41
 70
     1
102
RTVSPost2010Prop42
 90
       50
102
RTVSPost2010PropOp42
 70
     1
102
RTVSPost2010Prop43
 90
        3
102
RTVSPost2010PropOp43
 70
     1
102
RTVSPost2010Prop44ColorIndex
 90
        5
102
RTVSPost2010Prop44ColorRGB
 90
      255
102
RTVSPost2010PropOp44
 70
     1
102
RTVSPost2010Prop45
280
     0
102
RTVSPost2010PropOp45
 70
     1
102
RTVSPost2010Prop46
 90
       50
102
RTVSPost2010PropOp46
 70
     1
102
RTVSPost2010Prop47
 90
       50
102
RTVSPost2010PropOp47
 70
     1
102
RTVSPost2010Prop48
 90
       50
102
RTVSPost2010PropOp48
 70
     1
102
RTVSPost2010Prop49
280
     0
102
RTVSPost2010PropOp49
 70
     1
102
RTVSPost2010Prop50
 90
       50
102
RTVSPost2010PropOp50
 70
     1
102
RTVSPost2010Prop51ColorIndex
 90
      256
102
RTVSPost2010Prop51ColorRGB
 90
-16777216
102
RTVSPost2010PropOp51
 70
     0
102
RTVSPost2010Prop52
140
1.0
102
RTVSPost2010PropOp52
 70
     0
102
RTVSPost2010Prop53
 90
        2
102
RTVSPost2010PropOp53
 70
     1
102
RTVSPost2010Prop54
  1
strokes_ogs.tif
102
RTVSPost2010PropOp54
 70
     1
102
RTVSPost2010Prop55
280
     0
102
RTVSPost2010PropOp55
 70
     1
102
RTVSPost2010Prop56
140
1.0
102
RTVSPost2010PropOp56
 70
     1
102
RTVSPost2010Prop57
140
1.0
102
RTVSPost2010PropOp57
 70
     1
  0
XRECORD
  5
250
102
{ACAD_REACTORS
330
24F
102
}
330
24F
100
AcDbXrecord
280
     1
102
RTVSPost2010Prop28
280
     0
102
RTVSPost2010PropOp28
 70
     1
102
RTVSPost2010Prop29
280
     1
102
RTVSPost2010PropOp29
 70
     1
102
RTVSPost2010Prop30
280
     1
102
RTVSPost2010PropOp30
 70
     1
102
RTVSPost2010Prop31
280
     0
102
RTVSPost2010PropOp31
 70
     1
102
RTVSPost2010Prop32
280
     0
102
RTVSPost2010PropOp32
 70
     1
102
RTVSPost2010Prop33
280
     0
102
RTVSPost2010PropOp33
 70
     1
102
RTVSPost2010Prop34
280
     0
102
RTVSPost2010PropOp34
 70
     1
102
RTVSPost2010Prop35
280
     0
102
RTVSPost2010PropOp35
 70
     1
102
RTVSPost2010Prop36
280
     0
102
RTVSPost2010PropOp36
 70
     1
102
RTVSPost2010Prop37
 90
       50
102
RTVSPost2010PropOp37
 70
     1
102
RTVSPost2010Prop38
140
0.0
102
RTVSPost2010PropOp38
 70
     1
102
RTVSPost2010Prop39
140
1.0
102
RTVSPost2010PropOp39
 70
     1
102
RTVSPost2010Prop40
 90
        0
102
RTVSPost2010PropOp40
 70
     1
102
RTVSPost2010Prop41ColorIndex
 90
       18
102
RTVSPost2010Prop41ColorRGB
 90
        0
102
RTVSPost2010PropOp41
 70
     1
102
RTVSPost2010Prop42
 90
       50
102
RTVSPost2010PropOp42
 70
     1
102
RTVSPost2010Prop43
 90
        3
102
RTVSPost2010PropOp43
 70
     1
102
RTVSPost2010Prop44ColorIndex
 90
        5
102
RTVSPost2010Prop44ColorRGB
 90
      255
102
RTVSPost2010PropOp44
 70
     1
102
RTVSPost2010Prop45
280
     0
102
RTVSPost2010PropOp45
 70
     1
102
RTVSPost2010Prop46
 90
       50
102
RTVSPost2010PropOp46
 70
     1
102
RTVSPost2010Prop47
 90
       50
102
RTVSPost2010PropOp47
 70
     1
102
RTVSPost2010Prop48
 90
       50
102
RTVSPost2010PropOp48
 70
     1
102
RTVSPost2010Prop49
280
     0
102
RTVSPost2010PropOp49
 70
     1
102
RTVSPost2010Prop50
 90
       50
102
RTVSPost2010PropOp50
 70
     1
102
RTVSPost2010Prop51ColorIndex
 90
      256
102
RTVSPost2010Prop51ColorRGB
 90
-16777216
102
RTVSPost2010PropOp51
 70
     0
102
RTVSPost2010Prop52
140
1.0
102
RTVSPost2010PropOp52
 70
     0
102
RTVSPost2010Prop53
 90
        2
102
RTVSPost2010PropOp53
 70
     1
102
RTVSPost2010Prop54
  1
strokes_ogs.tif
102
RTVSPost2010PropOp54
 70
     1
102
RTVSPost2010Prop55
280
     0
102
RTVSPost2010PropOp55
 70
     1
102
RTVSPost2010Prop56
140
1.0
102
RTVSPost2010PropOp56
 70
     1
102
RTVSPost2010Prop57
140
1.0
102
RTVSPost2010PropOp57
 70
     1
  0
XRECORD
  5
256
102
{ACAD_REACTORS
330
255
102
}
330
255
100
AcDbXrecord
280
     1
102
RTVSPost2010Prop28
280
     0
102
RTVSPost2010PropOp28
 70
     1
102
RTVSPost2010Prop29
280
     1
102
RTVSPost2010PropOp29
 70
     1
102
RTVSPost2010Prop30
280
     1
102
RTVSPost2010PropOp30
 70
     1
102
RTVSPost2010Prop31
280
     0
102
RTVSPost2010PropOp31
 70
     1
102
RTVSPost2010Prop32
280
     0
102
RTVSPost2010PropOp32
 70
     1
102
RTVSPost2010Prop33
280
     0
102
RTVSPost2010PropOp33
 70
     1
102
RTVSPost2010Prop34
280
     0
102
RTVSPost2010PropOp34
 70
     1
102
RTVSPost2010Prop35
280
     0
102
RTVSPost2010PropOp35
 70
     1
102
RTVSPost2010Prop36
280
     0
102
RTVSPost2010PropOp36
 70
     1
102
RTVSPost2010Prop37
 90
       50
102
RTVSPost2010PropOp37
 70
     1
102
RTVSPost2010Prop38
140
0.0
102
RTVSPost2010PropOp38
 70
     1
102
RTVSPost2010Prop39
140
1.0
102
RTVSPost2010PropOp39
 70
     1
102
RTVSPost2010Prop40
 90
        0
102
RTVSPost2010PropOp40
 70
     1
102
RTVSPost2010Prop41ColorIndex
 90
       18
102
RTVSPost2010Prop41ColorRGB
 90
        0
102
RTVSPost2010PropOp41
 70
     1
102
RTVSPost2010Prop42
 90
       50
102
RTVSPost2010PropOp42
 70
     1
102
RTVSPost2010Prop43
 90
        3
102
RTVSPost2010PropOp43
 70
     1
102
RTVSPost2010Prop44ColorIndex
 90
        5
102
RTVSPost2010Prop44ColorRGB
 90
      255
102
RTVSPost2010PropOp44
 70
     1
102
RTVSPost2010Prop45
280
     0
102
RTVSPost2010PropOp45
 70
     1
102
RTVSPost2010Prop46
 90
       50
102
RTVSPost2010PropOp46
 70
     1
102
RTVSPost2010Prop47
 90
       50
102
RTVSPost2010PropOp47
 70
     1
102
RTVSPost2010Prop48
 90
       50
102
RTVSPost2010PropOp48
 70
     1
102
RTVSPost2010Prop49
280
     0
102
RTVSPost2010PropOp49
 70
     1
102
RTVSPost2010Prop50
 90
       50
102
RTVSPost2010PropOp50
 70
     1
102
RTVSPost2010Prop51ColorIndex
 90
      256
102
RTVSPost2010Prop51ColorRGB
 90
-16777216
102
RTVSPost2010PropOp51
 70
     0
102
RTVSPost2010Prop52
140
1.0
102
RTVSPost2010PropOp52
 70
     0
102
RTVSPost2010Prop53
 90
        2
102
RTVSPost2010PropOp53
 70
     1
102
RTVSPost2010Prop54
  1
strokes_ogs.tif
102
RTVSPost2010PropOp54
 70
     1
102
RTVSPost2010Prop55
280
     0
102
RTVSPost2010PropOp55
 70
     1
102
RTVSPost2010Prop56
140
1.0
102
RTVSPost2010PropOp56
 70
     1
102
RTVSPost2010Prop57
140
1.0
102
RTVSPost2010PropOp57
 70
     1
  0
XRECORD
  5
26A
102
{ACAD_REACTORS
330
269
102
}
330
269
100
AcDbXrecord
280
     1
102
RTVSPost2010Prop28
280
     0
102
RTVSPost2010PropOp28
 70
     0
102
RTVSPost2010Prop29
280
     1
102
RTVSPost2010PropOp29
 70
     0
102
RTVSPost2010Prop30
280
     1
102
RTVSPost2010PropOp30
 70
     0
102
RTVSPost2010Prop31
280
     0
102
RTVSPost2010PropOp31
 70
     0
102
RTVSPost2010Prop32
280
     0
102
RTVSPost2010PropOp32
 70
     0
102
RTVSPost2010Prop33
280
     0
102
RTVSPost2010PropOp33
 70
     0
102
RTVSPost2010Prop34
280
     0
102
RTVSPost2010PropOp34
 70
     0
102
RTVSPost2010Prop35
280
     0
102
RTVSPost2010PropOp35
 70
     0
102
RTVSPost2010Prop36
280
     0
102
RTVSPost2010PropOp36
 70
     0
102
RTVSPost2010Prop37
 90
       50
102
RTVSPost2010PropOp37
 70
     0
102
RTVSPost2010Prop38
140
0.0
102
RTVSPost2010PropOp38
 70
     0
102
RTVSPost2010Prop39
140
1.0
102
RTVSPost2010PropOp39
 70
     0
102
RTVSPost2010Prop40
 90
        0
102
RTVSPost2010PropOp40
 70
     0
102
RTVSPost2010Prop41ColorIndex
 90
       18
102
RTVSPost2010Prop41ColorRGB
 90
        0
102
RTVSPost2010PropOp41
 70
     0
102
RTVSPost2010Prop42
 90
       50
102
RTVSPost2010PropOp42
 70
     0
102
RTVSPost2010Prop43
 90
        3
102
RTVSPost2010PropOp43
 70
     0
102
RTVSPost2010Prop44ColorIndex
 90
        5
102
RTVSPost2010Prop44ColorRGB
 90
      255
102
RTVSPost2010PropOp44
 70
     0
102
RTVSPost2010Prop45
280
     0
102
RTVSPost2010PropOp45
 70
     0
102
RTVSPost2010Prop46
 90
       50
102
RTVSPost2010PropOp46
 70
     0
102
RTVSPost2010Prop47
 90
       50
102
RTVSPost2010PropOp47
 70
     0
102
RTVSPost2010Prop48
 90
       50
102
RTVSPost2010PropOp48
 70
     0
102
RTVSPost2010Prop49
280
     0
102
RTVSPost2010PropOp49
 70
     0
102
RTVSPost2010Prop50
 90
       50
102
RTVSPost2010PropOp50
 70
     0
102
RTVSPost2010Prop51ColorIndex
 90
      256
102
RTVSPost2010Prop51ColorRGB
 90
-16777216
102
RTVSPost2010PropOp51
 70
     0
102
RTVSPost2010Prop52
140
1.0
102
RTVSPost2010PropOp52
 70
     0
102
RTVSPost2010Prop53
 90
        2
102
RTVSPost2010PropOp53
 70
     0
102
RTVSPost2010Prop54
  1
strokes_ogs.tif
102
RTVSPost2010PropOp54
 70
     0
102
RTVSPost2010Prop55
280
     0
102
RTVSPost2010PropOp55
 70
     0
102
RTVSPost2010Prop56
140
1.0
102
RTVSPost2010PropOp56
 70
     0
102
RTVSPost2010Prop57
140
1.0
102
RTVSPost2010PropOp57
 70
     0
  0
XRECORD
  5
264
102
{ACAD_REACTORS
330
263
102
}
330
263
100
AcDbXrecord
280
     1
102
RTVSPost2010Prop28
280
     0
102
RTVSPost2010PropOp28
 70
     1
102
RTVSPost2010Prop29
280
     1
102
RTVSPost2010PropOp29
 70
     1
102
RTVSPost2010Prop30
280
     1
102
RTVSPost2010PropOp30
 70
     1
102
RTVSPost2010Prop31
280
     0
102
RTVSPost2010PropOp31
 70
     1
102
RTVSPost2010Prop32
280
     0
102
RTVSPost2010PropOp32
 70
     1
102
RTVSPost2010Prop33
280
     0
102
RTVSPost2010PropOp33
 70
     1
102
RTVSPost2010Prop34
280
     0
102
RTVSPost2010PropOp34
 70
     1
102
RTVSPost2010Prop35
280
     0
102
RTVSPost2010PropOp35
 70
     1
102
RTVSPost2010Prop36
280
     0
102
RTVSPost2010PropOp36
 70
     1
102
RTVSPost2010Prop37
 90
       50
102
RTVSPost2010PropOp37
 70
     1
102
RTVSPost2010Prop38
140
0.0
102
RTVSPost2010PropOp38
 70
     1
102
RTVSPost2010Prop39
140
1.0
102
RTVSPost2010PropOp39
 70
     1
102
RTVSPost2010Prop40
 90
        0
102
RTVSPost2010PropOp40
 70
     1
102
RTVSPost2010Prop41ColorIndex
 90
       18
102
RTVSPost2010Prop41ColorRGB
 90
        0
102
RTVSPost2010PropOp41
 70
     1
102
RTVSPost2010Prop42
 90
       50
102
RTVSPost2010PropOp42
 70
     1
102
RTVSPost2010Prop43
 90
        3
102
RTVSPost2010PropOp43
 70
     1
102
RTVSPost2010Prop44ColorIndex
 90
        5
102
RTVSPost2010Prop44ColorRGB
 90
      255
102
RTVSPost2010PropOp44
 70
     1
102
RTVSPost2010Prop45
280
     0
102
RTVSPost2010PropOp45
 70
     1
102
RTVSPost2010Prop46
 90
       50
102
RTVSPost2010PropOp46
 70
     1
102
RTVSPost2010Prop47
 90
       50
102
RTVSPost2010PropOp47
 70
     1
102
RTVSPost2010Prop48
 90
       50
102
RTVSPost2010PropOp48
 70
     1
102
RTVSPost2010Prop49
280
     0
102
RTVSPost2010PropOp49
 70
     1
102
RTVSPost2010Prop50
 90
       50
102
RTVSPost2010PropOp50
 70
     1
102
RTVSPost2010Prop51ColorIndex
 90
      256
102
RTVSPost2010Prop51ColorRGB
 90
-16777216
102
RTVSPost2010PropOp51
 70
     0
102
RTVSPost2010Prop52
140
1.0
102
RTVSPost2010PropOp52
 70
     0
102
RTVSPost2010Prop53
 90
        2
102
RTVSPost2010PropOp53
 70
     1
102
RTVSPost2010Prop54
  1
strokes_ogs.tif
102
RTVSPost2010PropOp54
 70
     1
102
RTVSPost2010Prop55
280
     0
102
RTVSPost2010PropOp55
 70
     1
102
RTVSPost2010Prop56
140
1.0
102
RTVSPost2010PropOp56
 70
     1
102
RTVSPost2010Prop57
140
1.0
102
RTVSPost2010PropOp57
 70
     1
  0
XRECORD
  5
26C
102
{ACAD_REACTORS
330
26B
102
}
330
26B
100
AcDbXrecord
280
     1
102
RTVSPost2010Prop28
280
     0
102
RTVSPost2010PropOp28
 70
     0
102
RTVSPost2010Prop29
280
     1
102
RTVSPost2010PropOp29
 70
     0
102
RTVSPost2010Prop30
280
     1
102
RTVSPost2010PropOp30
 70
     0
102
RTVSPost2010Prop31
280
     0
102
RTVSPost2010PropOp31
 70
     0
102
RTVSPost2010Prop32
280
     0
102
RTVSPost2010PropOp32
 70
     0
102
RTVSPost2010Prop33
280
     0
102
RTVSPost2010PropOp33
 70
     0
102
RTVSPost2010Prop34
280
     0
102
RTVSPost2010PropOp34
 70
     0
102
RTVSPost2010Prop35
280
     0
102
RTVSPost2010PropOp35
 70
     0
102
RTVSPost2010Prop36
280
     0
102
RTVSPost2010PropOp36
 70
     0
102
RTVSPost2010Prop37
 90
       50
102
RTVSPost2010PropOp37
 70
     0
102
RTVSPost2010Prop38
140
0.0
102
RTVSPost2010PropOp38
 70
     0
102
RTVSPost2010Prop39
140
1.0
102
RTVSPost2010PropOp39
 70
     0
102
RTVSPost2010Prop40
 90
        0
102
RTVSPost2010PropOp40
 70
     0
102
RTVSPost2010Prop41ColorIndex
 90
       18
102
RTVSPost2010Prop41ColorRGB
 90
        0
102
RTVSPost2010PropOp41
 70
     0
102
RTVSPost2010Prop42
 90
       50
102
RTVSPost2010PropOp42
 70
     0
102
RTVSPost2010Prop43
 90
        3
102
RTVSPost2010PropOp43
 70
     0
102
RTVSPost2010Prop44ColorIndex
 90
        5
102
RTVSPost2010Prop44ColorRGB
 90
      255
102
RTVSPost2010PropOp44
 70
     0
102
RTVSPost2010Prop45
280
     0
102
RTVSPost2010PropOp45
 70
     0
102
RTVSPost2010Prop46
 90
       50
102
RTVSPost2010PropOp46
 70
     0
102
RTVSPost2010Prop47
 90
       50
102
RTVSPost2010PropOp47
 70
     0
102
RTVSPost2010Prop48
 90
       50
102
RTVSPost2010PropOp48
 70
     0
102
RTVSPost2010Prop49
280
     0
102
RTVSPost2010PropOp49
 70
     0
102
RTVSPost2010Prop50
 90
       50
102
RTVSPost2010PropOp50
 70
     0
102
RTVSPost2010Prop51ColorIndex
 90
      256
102
RTVSPost2010Prop51ColorRGB
 90
-16777216
102
RTVSPost2010PropOp51
 70
     0
102
RTVSPost2010Prop52
140
1.0
102
RTVSPost2010PropOp52
 70
     0
102
RTVSPost2010Prop53
 90
        2
102
RTVSPost2010PropOp53
 70
     0
102
RTVSPost2010Prop54
  1
strokes_ogs.tif
102
RTVSPost2010PropOp54
 70
     0
102
RTVSPost2010Prop55
280
     0
102
RTVSPost2010PropOp55
 70
     0
102
RTVSPost2010Prop56
140
1.0
102
RTVSPost2010PropOp56
 70
     0
102
RTVSPost2010Prop57
140
1.0
102
RTVSPost2010PropOp57
 70
     0
  0
XRECORD
  5
25A
102
{ACAD_REACTORS
330
259
102
}
330
259
100
AcDbXrecord
280
     1
102
RTVSPost2010Prop28
280
     0
102
RTVSPost2010PropOp28
 70
     1
102
RTVSPost2010Prop29
280
     1
102
RTVSPost2010PropOp29
 70
     1
102
RTVSPost2010Prop30
280
     1
102
RTVSPost2010PropOp30
 70
     1
102
RTVSPost2010Prop31
280
     0
102
RTVSPost2010PropOp31
 70
     1
102
RTVSPost2010Prop32
280
     0
102
RTVSPost2010PropOp32
 70
     1
102
RTVSPost2010Prop33
280
     0
102
RTVSPost2010PropOp33
 70
     1
102
RTVSPost2010Prop34
280
     0
102
RTVSPost2010PropOp34
 70
     1
102
RTVSPost2010Prop35
280
     0
102
RTVSPost2010PropOp35
 70
     1
102
RTVSPost2010Prop36
280
     0
102
RTVSPost2010PropOp36
 70
     1
102
RTVSPost2010Prop37
 90
       50
102
RTVSPost2010PropOp37
 70
     1
102
RTVSPost2010Prop38
140
0.0
102
RTVSPost2010PropOp38
 70
     1
102
RTVSPost2010Prop39
140
1.0
102
RTVSPost2010PropOp39
 70
     1
102
RTVSPost2010Prop40
 90
        0
102
RTVSPost2010PropOp40
 70
     1
102
RTVSPost2010Prop41ColorIndex
 90
       18
102
RTVSPost2010Prop41ColorRGB
 90
        0
102
RTVSPost2010PropOp41
 70
     1
102
RTVSPost2010Prop42
 90
       50
102
RTVSPost2010PropOp42
 70
     1
102
RTVSPost2010Prop43
 90
        3
102
RTVSPost2010PropOp43
 70
     1
102
RTVSPost2010Prop44ColorIndex
 90
        5
102
RTVSPost2010Prop44ColorRGB
 90
      255
102
RTVSPost2010PropOp44
 70
     1
102
RTVSPost2010Prop45
280
     0
102
RTVSPost2010PropOp45
 70
     1
102
RTVSPost2010Prop46
 90
       50
102
RTVSPost2010PropOp46
 70
     1
102
RTVSPost2010Prop47
 90
       50
102
RTVSPost2010PropOp47
 70
     1
102
RTVSPost2010Prop48
 90
       50
102
RTVSPost2010PropOp48
 70
     1
102
RTVSPost2010Prop49
280
     0
102
RTVSPost2010PropOp49
 70
     1
102
RTVSPost2010Prop50
 90
       50
102
RTVSPost2010PropOp50
 70
     1
102
RTVSPost2010Prop51ColorIndex
 90
      256
102
RTVSPost2010Prop51ColorRGB
 90
-16777216
102
RTVSPost2010PropOp51
 70
     0
102
RTVSPost2010Prop52
140
1.0
102
RTVSPost2010PropOp52
 70
     0
102
RTVSPost2010Prop53
 90
        2
102
RTVSPost2010PropOp53
 70
     1
102
RTVSPost2010Prop54
  1
strokes_ogs.tif
102
RTVSPost2010PropOp54
 70
     1
102
RTVSPost2010Prop55
280
     0
102
RTVSPost2010PropOp55
 70
     1
102
RTVSPost2010Prop56
140
1.0
102
RTVSPost2010PropOp56
 70
     1
102
RTVSPost2010Prop57
140
1.0
102
RTVSPost2010PropOp57
 70
     1
  0
XRECORD
  5
278
102
{ACAD_REACTORS
330
277
102
}
330
277
100
AcDbXrecord
280
     1
102
RTVSPost2010Prop28
280
     0
102
RTVSPost2010PropOp28
 70
     1
102
RTVSPost2010Prop29
280
     1
102
RTVSPost2010PropOp29
 70
     1
102
RTVSPost2010Prop30
280
     1
102
RTVSPost2010PropOp30
 70
     1
102
RTVSPost2010Prop31
280
     0
102
RTVSPost2010PropOp31
 70
     1
102
RTVSPost2010Prop32
280
     0
102
RTVSPost2010PropOp32
 70
     1
102
RTVSPost2010Prop33
280
     0
102
RTVSPost2010PropOp33
 70
     1
102
RTVSPost2010Prop34
280
     0
102
RTVSPost2010PropOp34
 70
     1
102
RTVSPost2010Prop35
280
     0
102
RTVSPost2010PropOp35
 70
     1
102
RTVSPost2010Prop36
280
     0
102
RTVSPost2010PropOp36
 70
     1
102
RTVSPost2010Prop37
 90
       50
102
RTVSPost2010PropOp37
 70
     1
102
RTVSPost2010Prop38
140
0.0
102
RTVSPost2010PropOp38
 70
     1
102
RTVSPost2010Prop39
140
1.0
102
RTVSPost2010PropOp39
 70
     1
102
RTVSPost2010Prop40
 90
        0
102
RTVSPost2010PropOp40
 70
     1
102
RTVSPost2010Prop41ColorIndex
 90
       18
102
RTVSPost2010Prop41ColorRGB
 90
        0
102
RTVSPost2010PropOp41
 70
     1
102
RTVSPost2010Prop42
 90
       50
102
RTVSPost2010PropOp42
 70
     1
102
RTVSPost2010Prop43
 90
        3
102
RTVSPost2010PropOp43
 70
     1
102
RTVSPost2010Prop44ColorIndex
 90
        5
102
RTVSPost2010Prop44ColorRGB
 90
      255
102
RTVSPost2010PropOp44
 70
     1
102
RTVSPost2010Prop45
280
     0
102
RTVSPost2010PropOp45
 70
     1
102
RTVSPost2010Prop46
 90
       50
102
RTVSPost2010PropOp46
 70
     1
102
RTVSPost2010Prop47
 90
       50
102
RTVSPost2010PropOp47
 70
     1
102
RTVSPost2010Prop48
 90
       50
102
RTVSPost2010PropOp48
 70
     1
102
RTVSPost2010Prop49
280
     0
102
RTVSPost2010PropOp49
 70
     1
102
RTVSPost2010Prop50
 90
       50
102
RTVSPost2010PropOp50
 70
     1
102
RTVSPost2010Prop51ColorIndex
 90
      256
102
RTVSPost2010Prop51ColorRGB
 90
-16777216
102
RTVSPost2010PropOp51
 70
     0
102
RTVSPost2010Prop52
140
1.0
102
RTVSPost2010PropOp52
 70
     0
102
RTVSPost2010Prop53
 90
        2
102
RTVSPost2010PropOp53
 70
     1
102
RTVSPost2010Prop54
  1
strokes_ogs.tif
102
RTVSPost2010PropOp54
 70
     1
102
RTVSPost2010Prop55
280
     0
102
RTVSPost2010PropOp55
 70
     1
102
RTVSPost2010Prop56
140
1.0
102
RTVSPost2010PropOp56
 70
     1
102
RTVSPost2010Prop57
140
1.0
102
RTVSPost2010PropOp57
 70
     1
  0
XRECORD
  5
276
102
{ACAD_REACTORS
330
275
102
}
330
275
100
AcDbXrecord
280
     1
102
RTVSPost2010Prop28
280
     0
102
RTVSPost2010PropOp28
 70
     1
102
RTVSPost2010Prop29
280
     1
102
RTVSPost2010PropOp29
 70
     1
102
RTVSPost2010Prop30
280
     1
102
RTVSPost2010PropOp30
 70
     1
102
RTVSPost2010Prop31
280
     0
102
RTVSPost2010PropOp31
 70
     1
102
RTVSPost2010Prop32
280
     0
102
RTVSPost2010PropOp32
 70
     1
102
RTVSPost2010Prop33
280
     0
102
RTVSPost2010PropOp33
 70
     1
102
RTVSPost2010Prop34
280
     0
102
RTVSPost2010PropOp34
 70
     1
102
RTVSPost2010Prop35
280
     0
102
RTVSPost2010PropOp35
 70
     1
102
RTVSPost2010Prop36
280
     0
102
RTVSPost2010PropOp36
 70
     1
102
RTVSPost2010Prop37
 90
       50
102
RTVSPost2010PropOp37
 70
     1
102
RTVSPost2010Prop38
140
0.0
102
RTVSPost2010PropOp38
 70
     1
102
RTVSPost2010Prop39
140
1.0
102
RTVSPost2010PropOp39
 70
     1
102
RTVSPost2010Prop40
 90
        0
102
RTVSPost2010PropOp40
 70
     1
102
RTVSPost2010Prop41ColorIndex
 90
       18
102
RTVSPost2010Prop41ColorRGB
 90
        0
102
RTVSPost2010PropOp41
 70
     1
102
RTVSPost2010Prop42
 90
       50
102
RTVSPost2010PropOp42
 70
     1
102
RTVSPost2010Prop43
 90
        3
102
RTVSPost2010PropOp43
 70
     1
102
RTVSPost2010Prop44ColorIndex
 90
        5
102
RTVSPost2010Prop44ColorRGB
 90
      255
102
RTVSPost2010PropOp44
 70
     1
102
RTVSPost2010Prop45
280
     0
102
RTVSPost2010PropOp45
 70
     1
102
RTVSPost2010Prop46
 90
       50
102
RTVSPost2010PropOp46
 70
     1
102
RTVSPost2010Prop47
 90
       50
102
RTVSPost2010PropOp47
 70
     1
102
RTVSPost2010Prop48
 90
       50
102
RTVSPost2010PropOp48
 70
     1
102
RTVSPost2010Prop49
280
     0
102
RTVSPost2010PropOp49
 70
     1
102
RTVSPost2010Prop50
 90
       50
102
RTVSPost2010PropOp50
 70
     1
102
RTVSPost2010Prop51ColorIndex
 90
      256
102
RTVSPost2010Prop51ColorRGB
 90
-16777216
102
RTVSPost2010PropOp51
 70
     0
102
RTVSPost2010Prop52
140
1.0
102
RTVSPost2010PropOp52
 70
     0
102
RTVSPost2010Prop53
 90
        2
102
RTVSPost2010PropOp53
 70
     1
102
RTVSPost2010Prop54
  1
strokes_ogs.tif
102
RTVSPost2010PropOp54
 70
     1
102
RTVSPost2010Prop55
280
     0
102
RTVSPost2010PropOp55
 70
     1
102
RTVSPost2010Prop56
140
1.0
102
RTVSPost2010PropOp56
 70
     1
102
RTVSPost2010Prop57
140
1.0
102
RTVSPost2010PropOp57
 70
     1
  0
XRECORD
  5
270
102
{ACAD_REACTORS
330
26F
102
}
330
26F
100
AcDbXrecord
280
     1
102
RTVSPost2010Prop28
280
     0
102
RTVSPost2010PropOp28
 70
     1
102
RTVSPost2010Prop29
280
     1
102
RTVSPost2010PropOp29
 70
     1
102
RTVSPost2010Prop30
280
     1
102
RTVSPost2010PropOp30
 70
     1
102
RTVSPost2010Prop31
280
     0
102
RTVSPost2010PropOp31
 70
     1
102
RTVSPost2010Prop32
280
     0
102
RTVSPost2010PropOp32
 70
     1
102
RTVSPost2010Prop33
280
     0
102
RTVSPost2010PropOp33
 70
     1
102
RTVSPost2010Prop34
280
     0
102
RTVSPost2010PropOp34
 70
     1
102
RTVSPost2010Prop35
280
     0
102
RTVSPost2010PropOp35
 70
     1
102
RTVSPost2010Prop36
280
     0
102
RTVSPost2010PropOp36
 70
     1
102
RTVSPost2010Prop37
 90
       50
102
RTVSPost2010PropOp37
 70
     1
102
RTVSPost2010Prop38
140
0.0
102
RTVSPost2010PropOp38
 70
     1
102
RTVSPost2010Prop39
140
1.0
102
RTVSPost2010PropOp39
 70
     1
102
RTVSPost2010Prop40
 90
        0
102
RTVSPost2010PropOp40
 70
     1
102
RTVSPost2010Prop41ColorIndex
 90
       18
102
RTVSPost2010Prop41ColorRGB
 90
        0
102
RTVSPost2010PropOp41
 70
     1
102
RTVSPost2010Prop42
 90
       50
102
RTVSPost2010PropOp42
 70
     1
102
RTVSPost2010Prop43
 90
        3
102
RTVSPost2010PropOp43
 70
     1
102
RTVSPost2010Prop44ColorIndex
 90
        5
102
RTVSPost2010Prop44ColorRGB
 90
      255
102
RTVSPost2010PropOp44
 70
     1
102
RTVSPost2010Prop45
280
     0
102
RTVSPost2010PropOp45
 70
     1
102
RTVSPost2010Prop46
 90
       50
102
RTVSPost2010PropOp46
 70
     1
102
RTVSPost2010Prop47
 90
       50
102
RTVSPost2010PropOp47
 70
     1
102
RTVSPost2010Prop48
 90
       50
102
RTVSPost2010PropOp48
 70
     1
102
RTVSPost2010Prop49
280
     0
102
RTVSPost2010PropOp49
 70
     1
102
RTVSPost2010Prop50
 90
       50
102
RTVSPost2010PropOp50
 70
     1
102
RTVSPost2010Prop51ColorIndex
 90
      256
102
RTVSPost2010Prop51ColorRGB
 90
-16777216
102
RTVSPost2010PropOp51
 70
     0
102
RTVSPost2010Prop52
140
1.0
102
RTVSPost2010PropOp52
 70
     0
102
RTVSPost2010Prop53
 90
        2
102
RTVSPost2010PropOp53
 70
     1
102
RTVSPost2010Prop54
  1
strokes_ogs.tif
102
RTVSPost2010PropOp54
 70
     1
102
RTVSPost2010Prop55
280
     0
102
RTVSPost2010PropOp55
 70
     1
102
RTVSPost2010Prop56
140
1.0
102
RTVSPost2010PropOp56
 70
     1
102
RTVSPost2010Prop57
140
1.0
102
RTVSPost2010PropOp57
 70
     1
  0
XRECORD
  5
272
102
{ACAD_REACTORS
330
271
102
}
330
271
100
AcDbXrecord
280
     1
102
RTVSPost2010Prop28
280
     0
102
RTVSPost2010PropOp28
 70
     1
102
RTVSPost2010Prop29
280
     1
102
RTVSPost2010PropOp29
 70
     1
102
RTVSPost2010Prop30
280
     1
102
RTVSPost2010PropOp30
 70
     1
102
RTVSPost2010Prop31
280
     0
102
RTVSPost2010PropOp31
 70
     1
102
RTVSPost2010Prop32
280
     0
102
RTVSPost2010PropOp32
 70
     1
102
RTVSPost2010Prop33
280
     0
102
RTVSPost2010PropOp33
 70
     1
102
RTVSPost2010Prop34
280
     0
102
RTVSPost2010PropOp34
 70
     1
102
RTVSPost2010Prop35
280
     0
102
RTVSPost2010PropOp35
 70
     1
102
RTVSPost2010Prop36
280
     0
102
RTVSPost2010PropOp36
 70
     1
102
RTVSPost2010Prop37
 90
       50
102
RTVSPost2010PropOp37
 70
     1
102
RTVSPost2010Prop38
140
0.0
102
RTVSPost2010PropOp38
 70
     1
102
RTVSPost2010Prop39
140
1.0
102
RTVSPost2010PropOp39
 70
     1
102
RTVSPost2010Prop40
 90
        0
102
RTVSPost2010PropOp40
 70
     1
102
RTVSPost2010Prop41ColorIndex
 90
       18
102
RTVSPost2010Prop41ColorRGB
 90
        0
102
RTVSPost2010PropOp41
 70
     1
102
RTVSPost2010Prop42
 90
       50
102
RTVSPost2010PropOp42
 70
     1
102
RTVSPost2010Prop43
 90
        3
102
RTVSPost2010PropOp43
 70
     1
102
RTVSPost2010Prop44ColorIndex
 90
        5
102
RTVSPost2010Prop44ColorRGB
 90
      255
102
RTVSPost2010PropOp44
 70
     1
102
RTVSPost2010Prop45
280
     0
102
RTVSPost2010PropOp45
 70
     1
102
RTVSPost2010Prop46
 90
       50
102
RTVSPost2010PropOp46
 70
     1
102
RTVSPost2010Prop47
 90
       50
102
RTVSPost2010PropOp47
 70
     1
102
RTVSPost2010Prop48
 90
       50
102
RTVSPost2010PropOp48
 70
     1
102
RTVSPost2010Prop49
280
     0
102
RTVSPost2010PropOp49
 70
     1
102
RTVSPost2010Prop50
 90
       50
102
RTVSPost2010PropOp50
 70
     1
102
RTVSPost2010Prop51ColorIndex
 90
      256
102
RTVSPost2010Prop51ColorRGB
 90
-16777216
102
RTVSPost2010PropOp51
 70
     0
102
RTVSPost2010Prop52
140
1.0
102
RTVSPost2010PropOp52
 70
     0
102
RTVSPost2010Prop53
 90
        2
102
RTVSPost2010PropOp53
 70
     1
102
RTVSPost2010Prop54
  1
strokes_ogs.tif
102
RTVSPost2010PropOp54
 70
     1
102
RTVSPost2010Prop55
280
     0
102
RTVSPost2010PropOp55
 70
     1
102
RTVSPost2010Prop56
140
1.0
102
RTVSPost2010PropOp56
 70
     1
102
RTVSPost2010Prop57
140
1.0
102
RTVSPost2010PropOp57
 70
     1
  0
XRECORD
  5
262
102
{ACAD_REACTORS
330
261
102
}
330
261
100
AcDbXrecord
280
     1
102
RTVSPost2010Prop28
280
     0
102
RTVSPost2010PropOp28
 70
     1
102
RTVSPost2010Prop29
280
     1
102
RTVSPost2010PropOp29
 70
     1
102
RTVSPost2010Prop30
280
     1
102
RTVSPost2010PropOp30
 70
     1
102
RTVSPost2010Prop31
280
     0
102
RTVSPost2010PropOp31
 70
     1
102
RTVSPost2010Prop32
280
     0
102
RTVSPost2010PropOp32
 70
     1
102
RTVSPost2010Prop33
280
     0
102
RTVSPost2010PropOp33
 70
     1
102
RTVSPost2010Prop34
280
     0
102
RTVSPost2010PropOp34
 70
     1
102
RTVSPost2010Prop35
280
     0
102
RTVSPost2010PropOp35
 70
     1
102
RTVSPost2010Prop36
280
     0
102
RTVSPost2010PropOp36
 70
     1
102
RTVSPost2010Prop37
 90
       50
102
RTVSPost2010PropOp37
 70
     1
102
RTVSPost2010Prop38
140
0.0
102
RTVSPost2010PropOp38
 70
     1
102
RTVSPost2010Prop39
140
1.0
102
RTVSPost2010PropOp39
 70
     1
102
RTVSPost2010Prop40
 90
        0
102
RTVSPost2010PropOp40
 70
     1
102
RTVSPost2010Prop41ColorIndex
 90
       18
102
RTVSPost2010Prop41ColorRGB
 90
        0
102
RTVSPost2010PropOp41
 70
     1
102
RTVSPost2010Prop42
 90
       50
102
RTVSPost2010PropOp42
 70
     1
102
RTVSPost2010Prop43
 90
        3
102
RTVSPost2010PropOp43
 70
     1
102
RTVSPost2010Prop44ColorIndex
 90
        5
102
RTVSPost2010Prop44ColorRGB
 90
      255
102
RTVSPost2010PropOp44
 70
     1
102
RTVSPost2010Prop45
280
     0
102
RTVSPost2010PropOp45
 70
     1
102
RTVSPost2010Prop46
 90
       50
102
RTVSPost2010PropOp46
 70
     1
102
RTVSPost2010Prop47
 90
       50
102
RTVSPost2010PropOp47
 70
     1
102
RTVSPost2010Prop48
 90
       50
102
RTVSPost2010PropOp48
 70
     1
102
RTVSPost2010Prop49
280
     0
102
RTVSPost2010PropOp49
 70
     1
102
RTVSPost2010Prop50
 90
       50
102
RTVSPost2010PropOp50
 70
     1
102
RTVSPost2010Prop51ColorIndex
 90
      256
102
RTVSPost2010Prop51ColorRGB
 90
-16777216
102
RTVSPost2010PropOp51
 70
     0
102
RTVSPost2010Prop52
140
1.0
102
RTVSPost2010PropOp52
 70
     0
102
RTVSPost2010Prop53
 90
        2
102
RTVSPost2010PropOp53
 70
     1
102
RTVSPost2010Prop54
  1
strokes_ogs.tif
102
RTVSPost2010PropOp54
 70
     1
102
RTVSPost2010Prop55
280
     0
102
RTVSPost2010PropOp55
 70
     1
102
RTVSPost2010Prop56
140
1.0
102
RTVSPost2010PropOp56
 70
     1
102
RTVSPost2010Prop57
140
1.0
102
RTVSPost2010PropOp57
 70
     1
  0
XRECORD
  5
254
102
{ACAD_REACTORS
330
253
102
}
330
253
100
AcDbXrecord
280
     1
102
RTVSPost2010Prop28
280
     0
102
RTVSPost2010PropOp28
 70
     1
102
RTVSPost2010Prop29
280
     1
102
RTVSPost2010PropOp29
 70
     1
102
RTVSPost2010Prop30
280
     1
102
RTVSPost2010PropOp30
 70
     1
102
RTVSPost2010Prop31
280
     0
102
RTVSPost2010PropOp31
 70
     1
102
RTVSPost2010Prop32
280
     0
102
RTVSPost2010PropOp32
 70
     1
102
RTVSPost2010Prop33
280
     0
102
RTVSPost2010PropOp33
 70
     1
102
RTVSPost2010Prop34
280
     0
102
RTVSPost2010PropOp34
 70
     1
102
RTVSPost2010Prop35
280
     0
102
RTVSPost2010PropOp35
 70
     1
102
RTVSPost2010Prop36
280
     0
102
RTVSPost2010PropOp36
 70
     1
102
RTVSPost2010Prop37
 90
       50
102
RTVSPost2010PropOp37
 70
     1
102
RTVSPost2010Prop38
140
0.0
102
RTVSPost2010PropOp38
 70
     1
102
RTVSPost2010Prop39
140
1.0
102
RTVSPost2010PropOp39
 70
     1
102
RTVSPost2010Prop40
 90
        0
102
RTVSPost2010PropOp40
 70
     1
102
RTVSPost2010Prop41ColorIndex
 90
       18
102
RTVSPost2010Prop41ColorRGB
 90
        0
102
RTVSPost2010PropOp41
 70
     1
102
RTVSPost2010Prop42
 90
       50
102
RTVSPost2010PropOp42
 70
     1
102
RTVSPost2010Prop43
 90
        3
102
RTVSPost2010PropOp43
 70
     1
102
RTVSPost2010Prop44ColorIndex
 90
        5
102
RTVSPost2010Prop44ColorRGB
 90
      255
102
RTVSPost2010PropOp44
 70
     1
102
RTVSPost2010Prop45
280
     0
102
RTVSPost2010PropOp45
 70
     1
102
RTVSPost2010Prop46
 90
       50
102
RTVSPost2010PropOp46
 70
     1
102
RTVSPost2010Prop47
 90
       50
102
RTVSPost2010PropOp47
 70
     1
102
RTVSPost2010Prop48
 90
       50
102
RTVSPost2010PropOp48
 70
     1
102
RTVSPost2010Prop49
280
     0
102
RTVSPost2010PropOp49
 70
     1
102
RTVSPost2010Prop50
 90
       50
102
RTVSPost2010PropOp50
 70
     1
102
RTVSPost2010Prop51ColorIndex
 90
      256
102
RTVSPost2010Prop51ColorRGB
 90
-16777216
102
RTVSPost2010PropOp51
 70
     0
102
RTVSPost2010Prop52
140
1.0
102
RTVSPost2010PropOp52
 70
     0
102
RTVSPost2010Prop53
 90
        2
102
RTVSPost2010PropOp53
 70
     1
102
RTVSPost2010Prop54
  1
strokes_ogs.tif
102
RTVSPost2010PropOp54
 70
     1
102
RTVSPost2010Prop55
280
     0
102
RTVSPost2010PropOp55
 70
     1
102
RTVSPost2010Prop56
140
1.0
102
RTVSPost2010PropOp56
 70
     1
102
RTVSPost2010Prop57
140
1.0
102
RTVSPost2010PropOp57
 70
     1
  0
XRECORD
  5
274
102
{ACAD_REACTORS
330
273
102
}
330
273
100
AcDbXrecord
280
     1
102
RTVSPost2010Prop28
280
     0
102
RTVSPost2010PropOp28
 70
     1
102
RTVSPost2010Prop29
280
     1
102
RTVSPost2010PropOp29
 70
     1
102
RTVSPost2010Prop30
280
     1
102
RTVSPost2010PropOp30
 70
     1
102
RTVSPost2010Prop31
280
     0
102
RTVSPost2010PropOp31
 70
     1
102
RTVSPost2010Prop32
280
     0
102
RTVSPost2010PropOp32
 70
     1
102
RTVSPost2010Prop33
280
     0
102
RTVSPost2010PropOp33
 70
     1
102
RTVSPost2010Prop34
280
     0
102
RTVSPost2010PropOp34
 70
     1
102
RTVSPost2010Prop35
280
     0
102
RTVSPost2010PropOp35
 70
     1
102
RTVSPost2010Prop36
280
     0
102
RTVSPost2010PropOp36
 70
     1
102
RTVSPost2010Prop37
 90
       50
102
RTVSPost2010PropOp37
 70
     1
102
RTVSPost2010Prop38
140
0.0
102
RTVSPost2010PropOp38
 70
     1
102
RTVSPost2010Prop39
140
1.0
102
RTVSPost2010PropOp39
 70
     1
102
RTVSPost2010Prop40
 90
        0
102
RTVSPost2010PropOp40
 70
     1
102
RTVSPost2010Prop41ColorIndex
 90
       18
102
RTVSPost2010Prop41ColorRGB
 90
        0
102
RTVSPost2010PropOp41
 70
     1
102
RTVSPost2010Prop42
 90
       50
102
RTVSPost2010PropOp42
 70
     1
102
RTVSPost2010Prop43
 90
        3
102
RTVSPost2010PropOp43
 70
     1
102
RTVSPost2010Prop44ColorIndex
 90
        5
102
RTVSPost2010Prop44ColorRGB
 90
      255
102
RTVSPost2010PropOp44
 70
     1
102
RTVSPost2010Prop45
280
     0
102
RTVSPost2010PropOp45
 70
     1
102
RTVSPost2010Prop46
 90
       50
102
RTVSPost2010PropOp46
 70
     1
102
RTVSPost2010Prop47
 90
       50
102
RTVSPost2010PropOp47
 70
     1
102
RTVSPost2010Prop48
 90
       50
102
RTVSPost2010PropOp48
 70
     1
102
RTVSPost2010Prop49
280
     0
102
RTVSPost2010PropOp49
 70
     1
102
RTVSPost2010Prop50
 90
       50
102
RTVSPost2010PropOp50
 70
     1
102
RTVSPost2010Prop51ColorIndex
 90
      256
102
RTVSPost2010Prop51ColorRGB
 90
-16777216
102
RTVSPost2010PropOp51
 70
     0
102
RTVSPost2010Prop52
140
1.0
102
RTVSPost2010PropOp52
 70
     0
102
RTVSPost2010Prop53
 90
        2
102
RTVSPost2010PropOp53
 70
     1
102
RTVSPost2010Prop54
  1
strokes_ogs.tif
102
RTVSPost2010PropOp54
 70
     1
102
RTVSPost2010Prop55
280
     0
102
RTVSPost2010PropOp55
 70
     1
102
RTVSPost2010Prop56
140
1.0
102
RTVSPost2010PropOp56
 70
     1
102
RTVSPost2010Prop57
140
1.0
102
RTVSPost2010PropOp57
 70
     1
  0
ENDSEC
  0
EOF
