  0
SECTION
  2
HEADER
  9
$ACADVER
  1
AC1024
  9
$ACADMAINTVER
 70
     6
  9
$DWGCODEPAGE
  3
ANSI_1252
  9
$INSBASE
 10
0.0
 20
0.0
 30
0.0
  9
$EXTMIN
 10
1.000000E+20
 20
1.000000E+20
 30
1.000000E+20
  9
$EXTMAX
 10
-1.000000E+20
 20
-1.000000E+20
 30
-1.000000E+20
  9
$LIMMIN
 10
0.0
 20
0.0
  9
$LIMMAX
 10
420.0
 20
297.0
  9
$ORTHOMODE
 70
     0
  9
$REGENMODE
 70
     1
  9
$FILLMODE
 70
     1
  9
$QTEXTMODE
 70
     0
  9
$MIRRTEXT
 70
     1
  9
$LTSCALE
 40
1.0
  9
$ATTMODE
 70
     1
  9
$TEXTSIZE
 40
2.5
  9
$TRACEWID
 40
1.0
  9
$TEXTSTYLE
  7
Standard
  9
$CLAYER
  8
0
  9
$CELTYPE
  6
ByLayer
  9
$CECOLOR
 62
   256
  9
$CELTSCALE
 40
1.0
  9
$DISPSILH
 70
     0
  9
$DIMSCALE
 40
1.0
  9
$DIMASZ
 40
2.5
  9
$DIMEXO
 40
0.625
  9
$DIMDLI
 40
3.75
  9
$DIMRND
 40
0.0
  9
$DIMDLE
 40
0.0
  9
$DIMEXE
 40
1.25
  9
$DIMTP
 40
0.0
  9
$DIMTM
 40
0.0
  9
$DIMTXT
 40
2.5
  9
$DIMCEN
 40
2.5
  9
$DIMTSZ
 40
0.0
  9
$DIMTOL
 70
     0
  9
$DIMLIM
 70
     0
  9
$DIMTIH
 70
     0
  9
$DIMTOH
 70
     0
  9
$DIMSE1
 70
     0
  9
$DIMSE2
 70
     0
  9
$DIMTAD
 70
     1
  9
$DIMZIN
 70
     8
  9
$DIMBLK
  1

  9
$DIMASO
 70
     1
  9
$DIMSHO
 70
     1
  9
$DIMPOST
  1

  9
$DIMAPOST
  1

  9
$DIMALT
 70
     0
  9
$DIMALTD
 70
     3
  9
$DIMALTF
 40
0.03937
  9
$DIMLFAC
 40
1.0
  9
$DIMTOFL
 70
     1
  9
$DIMTVP
 40
0.0
  9
$DIMTIX
 70
     0
  9
$DIMSOXD
 70
     0
  9
$DIMSAH
 70
     0
  9
$DIMBLK1
  1

  9
$DIMBLK2
  1

  9
$DIMSTYLE
  2
ISO-25
  9
$DIMCLRD
 70
     0
  9
$DIMCLRE
 70
     0
  9
$DIMCLRT
 70
     0
  9
$DIMTFAC
 40
1.0
  9
$DIMGAP
 40
0.625
  9
$DIMJUST
 70
     0
  9
$DIMSD1
 70
     0
  9
$DIMSD2
 70
     0
  9
$DIMTOLJ
 70
     0
  9
$DIMTZIN
 70
     8
  9
$DIMALTZ
 70
     0
  9
$DIMALTTZ
 70
     0
  9
$DIMUPT
 70
     0
  9
$DIMDEC
 70
     2
  9
$DIMTDEC
 70
     2
  9
$DIMALTU
 70
     2
  9
$DIMALTTD
 70
     3
  9
$DIMTXSTY
  7
Standard
  9
$DIMAUNIT
 70
     0
  9
$DIMADEC
 70
     0
  9
$DIMALTRND
 40
0.0
  9
$DIMAZIN
 70
     0
  9
$DIMDSEP
 70
    44
  9
$DIMATFIT
 70
     3
  9
$DIMFRAC
 70
     0
  9
$DIMLDRBLK
  1

  9
$DIMLUNIT
 70
     2
  9
$DIMLWD
 70
    -2
  9
$DIMLWE
 70
    -2
  9
$DIMTMOVE
 70
     0
  9
$DIMFXL
 40
1.0
  9
$DIMFXLON
 70
     0
  9
$DIMJOGANG
 40
0.785398
  9
$DIMTFILL
 70
     0
  9
$DIMTFILLCLR
 70
     0
  9
$DIMARCSYM
 70
     0
  9
$DIMLTYPE
  6

  9
$DIMLTEX1
  6

  9
$DIMLTEX2
  6

  9
$DIMTXTDIRECTION
 70
     0
  9
$LUNITS
 70
     2
  9
$LUPREC
 70
     4
  9
$SKETCHINC
 40
1.0
  9
$FILLETRAD
 40
10.0
  9
$AUNITS
 70
     0
  9
$AUPREC
 70
     0
  9
$MENU
  1
.
  9
$ELEVATION
 40
0.0
  9
$PELEVATION
 40
0.0
  9
$THICKNESS
 40
0.0
  9
$LIMCHECK
 70
     0
  9
$CHAMFERA
 40
0.0
  9
$CHAMFERB
 40
0.0
  9
$CHAMFERC
 40
0.0
  9
$CHAMFERD
 40
0.0
  9
$SKPOLY
 70
     0
  9
$TDCREATE
 40
2457823.370711921
  9
$TDUCREATE
 40
2457823.329045255
  9
$TDUPDATE
 40
2457823.37071265
  9
$TDUUPDATE
 40
2457823.329045984
  9
$TDINDWG
 40
0.0000000116
  9
$TDUSRTIMER
 40
0.0000000116
  9
$USRTIMER
 70
     1
  9
$ANGBASE
 50
0.0
  9
$ANGDIR
 70
     0
  9
$PDMODE
 70
     0
  9
$PDSIZE
 40
0.0
  9
$PLINEWID
 40
0.0
  9
$SPLFRAME
 70
     0
  9
$SPLINETYPE
 70
     6
  9
$SPLINESEGS
 70
     8
  9
$HANDSEED
  5
27E
  9
$SURFTAB1
 70
     6
  9
$SURFTAB2
 70
     6
  9
$SURFTYPE
 70
     6
  9
$SURFU
 70
     6
  9
$SURFV
 70
     6
  9
$UCSBASE
  2

  9
$UCSNAME
  2

  9
$UCSORG
 10
0.0
 20
0.0
 30
0.0
  9
$UCSXDIR
 10
1.0
 20
0.0
 30
0.0
  9
$UCSYDIR
 10
0.0
 20
1.0
 30
0.0
  9
$UCSORTHOREF
  2

  9
$UCSORTHOVIEW
 70
     0
  9
$UCSORGTOP
 10
0.0
 20
0.0
 30
0.0
  9
$UCSORGBOTTOM
 10
0.0
 20
0.0
 30
0.0
  9
$UCSORGLEFT
 10
0.0
 20
0.0
 30
0.0
  9
$UCSORGRIGHT
 10
0.0
 20
0.0
 30
0.0
  9
$UCSORGFRONT
 10
0.0
 20
0.0
 30
0.0
  9
$UCSORGBACK
 10
0.0
 20
0.0
 30
0.0
  9
$PUCSBASE
  2

  9
$PUCSNAME
  2

  9
$PUCSORG
 10
0.0
 20
0.0
 30
0.0
  9
$PUCSXDIR
 10
1.0
 20
0.0
 30
0.0
  9
$PUCSYDIR
 10
0.0
 20
1.0
 30
0.0
  9
$PUCSORTHOREF
  2

  9
$PUCSORTHOVIEW
 70
     0
  9
$PUCSORGTOP
 10
0.0
 20
0.0
 30
0.0
  9
$PUCSORGBOTTOM
 10
0.0
 20
0.0
 30
0.0
  9
$PUCSORGLEFT
 10
0.0
 20
0.0
 30
0.0
  9
$PUCSORGRIGHT
 10
0.0
 20
0.0
 30
0.0
  9
$PUCSORGFRONT
 10
0.0
 20
0.0
 30
0.0
  9
$PUCSORGBACK
 10
0.0
 20
0.0
 30
0.0
  9
$USERI1
 70
     0
  9
$USERI2
 70
     0
  9
$USERI3
 70
     0
  9
$USERI4
 70
     0
  9
$USERI5
 70
     0
  9
$USERR1
 40
0.0
  9
$USERR2
 40
0.0
  9
$USERR3
 40
0.0
  9
$USERR4
 40
0.0
  9
$USERR5
 40
0.0
  9
$WORLDVIEW
 70
     1
  9
$SHADEDGE
 70
     3
  9
$SHADEDIF
 70
    70
  9
$TILEMODE
 70
     1
  9
$MAXACTVP
 70
    64
  9
$PINSBASE
 10
0.0
 20
0.0
 30
0.0
  9
$PLIMCHECK
 70
     0
  9
$PEXTMIN
 10
1.000000E+20
 20
1.000000E+20
 30
1.000000E+20
  9
$PEXTMAX
 10
-1.000000E+20
 20
-1.000000E+20
 30
-1.000000E+20
  9
$PLIMMIN
 10
0.0
 20
0.0
  9
$PLIMMAX
 10
420.0
 20
297.0
  9
$UNITMODE
 70
     0
  9
$VISRETAIN
 70
     1
  9
$PLINEGEN
 70
     0
  9
$PSLTSCALE
 70
     1
  9
$TREEDEPTH
 70
  3020
  9
$CMLSTYLE
  2
Standard
  9
$CMLJUST
 70
     0
  9
$CMLSCALE
 40
20.0
  9
$PROXYGRAPHICS
 70
     1
  9
$MEASUREMENT
 70
     1
  9
$CELWEIGHT
370
    -1
  9
$ENDCAPS
280
     0
  9
$JOINSTYLE
280
     0
  9
$LWDISPLAY
290
     0
  9
$INSUNITS
 70
     4
  9
$HYPERLINKBASE
  1

  9
$STYLESHEET
  1

  9
$XEDIT
290
     1
  9
$CEPSNTYPE
380
     0
  9
$PSTYLEMODE
290
     1
  9
$FINGERPRINTGUID
  2
{6F6D3B1D-AF15-4B63-B4D5-DA59191E6904}
  9
$VERSIONGUID
  2
{FAEB1C32-E019-11D5-929B-00C0DF256EC4}
  9
$EXTNAMES
290
     1
  9
$PSVPSCALE
 40
0.0
  9
$OLESTARTUP
290
     0
  9
$SORTENTS
280
   127
  9
$INDEXCTL
280
     0
  9
$HIDETEXT
280
     1
  9
$XCLIPFRAME
280
     2
  9
$HALOGAP
280
     0
  9
$OBSCOLOR
 70
   257
  9
$OBSLTYPE
280
     0
  9
$INTERSECTIONDISPLAY
280
     0
  9
$INTERSECTIONCOLOR
 70
   257
  9
$DIMASSOC
280
     2
  9
$PROJECTNAME
  1

  9
$CAMERADISPLAY
290
     0
  9
$LENSLENGTH
 40
50.0
  9
$CAMERAHEIGHT
 40
0.0
  9
$STEPSPERSEC
 40
2.0
  9
$STEPSIZE
 40
6.0
  9
$3DDWFPREC
 40
2.0
  9
$PSOLWIDTH
 40
5.0
  9
$PSOLHEIGHT
 40
80.0
  9
$LOFTANG1
 40
1.570796
  9
$LOFTANG2
 40
1.570796
  9
$LOFTMAG1
 40
0.0
  9
$LOFTMAG2
 40
0.0
  9
$LOFTPARAM
 70
     7
  9
$LOFTNORMALS
280
     1
  9
$LATITUDE
 40
37.795
  9
$LONGITUDE
 40
-122.394
  9
$NORTHDIRECTION
 40
0.0
  9
$TIMEZONE
 70
 -8000
  9
$LIGHTGLYPHDISPLAY
280
     1
  9
$TILEMODELIGHTSYNCH
280
     1
  9
$CMATERIAL
347
44
  9
$SOLIDHIST
280
     0
  9
$SHOWHIST
280
     1
  9
$DWFFRAME
280
     2
  9
$DGNFRAME
280
     2
  9
$REALWORLDSCALE
290
     1
  9
$INTERFERECOLOR
 62
   256
  9
$CSHADOW
280
     0
  9
$SHADOWPLANELOCATION
 40
0.0
  0
ENDSEC
  0
SECTION
  2
CLASSES
  0
CLASS
  1
ACDBDICTIONARYWDFLT
  2
AcDbDictionaryWithDefault
  3
ObjectDBX Classes
 90
        0
 91
        4
280
     0
281
     0
  0
CLASS
  1
VISUALSTYLE
  2
AcDbVisualStyle
  3
ObjectDBX Classes
 90
     4095
 91
        4
280
     0
281
     0
  0
CLASS
  1
MATERIAL
  2
AcDbMaterial
  3
ObjectDBX Classes
 90
     1153
 91
        4
280
     0
281
     0
  0
CLASS
  1
SCALE
  2
AcDbScale
  3
ObjectDBX Classes
 90
     1153
 91
        4
280
     0
281
     0
  0
CLASS
  1
TABLESTYLE
  2
AcDbTableStyle
  3
ObjectDBX Classes
 90
     4095
 91
        4
280
     0
281
     0
  0
CLASS
  1
MLEADERSTYLE
  2
AcDbMLeaderStyle
  3
ACDB_MLEADERSTYLE_CLASS
 90
     4095
 91
        4
280
     0
281
     0
  0
CLASS
  1
SUN
  2
AcDbSun
  3
SCENEOE
 90
     1153
 91
        4
280
     0
281
     0
  0
CLASS
  1
DICTIONARYVAR
  2
AcDbDictionaryVar
  3
ObjectDBX Classes
 90
        0
 91
        4
280
     0
281
     0
  0
CLASS
  1
CELLSTYLEMAP
  2
AcDbCellStyleMap
  3
ObjectDBX Classes
 90
     1152
 91
        4
280
     0
281
     0
  0
ENDSEC
  0
SECTION
  2
TABLES
  0
TABLE
  2
VPORT
  5
8
330
0
100
AcDbSymbolTable
 70
     1
  0
VPORT
  5
29
330
8
100
AcDbSymbolTableRecord
100
AcDbViewportTableRecord
  2
*Active
 70
     0
 10
0.0
 20
0.0
 11
1.0
 21
1.0
 12
344.186916
 22
148.5
 13
0.0
 23
0.0
 14
10.0
 24
10.0
 15
10.0
 25
10.0
 16
0.0
 26
0.0
 36
1.0
 17
0.0
 27
0.0
 37
0.0
 40
297.0
 41
1.972973
 42
50.0
 43
0.0
 44
0.0
 50
0.0
 51
0.0
 71
     0
 72
   100
 73
     1
 74
     3
 75
     0
 76
     0
 77
     0
 78
     0
281
     0
 65
     1
110
0.0
120
0.0
130
0.0
111
1.0
121
0.0
131
0.0
112
0.0
122
1.0
132
0.0
 79
     0
146
0.0
348
2F
 60
     3
 61
     5
292
     1
282
     1
141
0.0
142
0.0
 63
   250
361
6D
  0
ENDTAB
  0
TABLE
  2
LTYPE
  5
5
330
0
100
AcDbSymbolTable
 70
     1
  0
LTYPE
  5
14
330
5
100
AcDbSymbolTableRecord
100
AcDbLinetypeTableRecord
  2
ByBlock
 70
     0
  3

 72
    65
 73
     0
 40
0.0
  0
LTYPE
  5
15
330
5
100
AcDbSymbolTableRecord
100
AcDbLinetypeTableRecord
  2
ByLayer
 70
     0
  3

 72
    65
 73
     0
 40
0.0
  0
LTYPE
  5
16
330
5
100
AcDbSymbolTableRecord
100
AcDbLinetypeTableRecord
  2
Continuous
 70
     0
  3
Solid line
 72
    65
 73
     0
 40
0.0
  0
ENDTAB
  0
TABLE
  2
LAYER
  5
2
330
0
100
AcDbSymbolTable
 70
     1
  0
LAYER
  5
10
330
2
100
AcDbSymbolTableRecord
100
AcDbLayerTableRecord
  2
0
 70
     0
 62
   106
  6
Continuous
370
     0
390
F
347
46
  0
ENDTAB
  0
TABLE
  2
STYLE
  5
3
330
0
100
AcDbSymbolTable
 70
     4
  0
STYLE
  5
11
330
3
100
AcDbSymbolTableRecord
100
AcDbTextStyleTableRecord
  2
Standard
 70
     0
 40
0.0
 41
1.0
 50
0.0
 71
     0
 42
2.5
  3
txt
  4

  0
STYLE
  5
6E
330
3
100
AcDbSymbolTableRecord
100
AcDbTextStyleTableRecord
  2
Default
 70
     0
 40
0.0
 41
1.0
 50
0.0
 71
     0
 42
2.5
  3

  4

1001
ACAD
1000
txt
1071
        0
  0
STYLE
  5
6F
330
3
100
AcDbSymbolTableRecord
100
AcDbTextStyleTableRecord
  2
ISO
 70
     0
 40
0.0
 41
1.0
 50
0.0
 71
     0
 42
2.5
  3

  4

1001
ACAD
1000
txt
1071
        0
  0
STYLE
  5
70
330
3
100
AcDbSymbolTableRecord
100
AcDbTextStyleTableRecord
  2
zucchetti
 70
     0
 40
0.0
 41
1.0
 50
0.0
 71
     0
 42
2.5
  3

  4

1001
ACAD
1000
Arial
1071
        0
  0
ENDTAB
  0
TABLE
  2
VIEW
  5
6
330
0
100
AcDbSymbolTable
 70
     0
  0
ENDTAB
  0
TABLE
  2
UCS
  5
7
330
0
100
AcDbSymbolTable
 70
     0
  0
ENDTAB
  0
TABLE
  2
APPID
  5
9
330
0
100
AcDbSymbolTable
 70
     1
  0
APPID
  5
12
330
9
100
AcDbSymbolTableRecord
100
AcDbRegAppTableRecord
  2
ACAD
 70
     0
  0
ENDTAB
  0
TABLE
  2
DIMSTYLE
  5
A
330
0
100
AcDbSymbolTable
 70
     4
100
AcDbDimStyleTable
  0
DIMSTYLE
105
27
330
A
100
AcDbSymbolTableRecord
100
AcDbDimStyleTableRecord
  2
ISO-25
 70
     0
 41
2.5
 42
0.625
 43
3.75
 44
1.25
 73
     0
 74
     0
 77
     1
 78
     8
140
2.5
141
2.5
143
0.03937
147
0.625
171
     3
172
     1
178
     0
271
     2
272
     2
274
     3
278
    44
283
     0
284
     8
340
11
  0
DIMSTYLE
105
71
330
A
100
AcDbSymbolTableRecord
100
AcDbDimStyleTableRecord
  2
Default
 70
     0
  3
<>
 41
4.375
 42
1.05
 44
2.1
 49
10.01
 73
     0
 74
     0
 77
     1
 78
     8
140
3.5
146
0.4
147
1.75
172
     1
271
     2
178
     3
271
     2
272
     3
284
     8
340
6E
341
72
342
72
  0
DIMSTYLE
105
79
330
A
100
AcDbSymbolTableRecord
100
AcDbDimStyleTableRecord
  2
ISO
 70
     0
  3
<>
 41
4.375
 42
1.05
 44
2.1
 49
10.01
 73
     0
 74
     0
 77
     1
 78
     8
140
3.5
146
0.4
147
1.75
172
     1
271
     2
178
     3
271
     2
272
     3
284
     8
340
6F
341
72
342
72
  0
DIMSTYLE
105
7A
330
A
100
AcDbSymbolTableRecord
100
AcDbDimStyleTableRecord
  2
zucchetti
 70
     0
  3
<>
 41
3.0
 42
0.9
 44
1.8
 49
8.58
 73
     0
 74
     0
 77
     1
 78
     8
140
3.0
146
0.6
147
1.5
172
     1
176
     3
177
     3
271
     2
178
     3
271
     2
272
     2
284
     8
340
70
  0
ENDTAB
  0
TABLE
  2
BLOCK_RECORD
  5
1
330
0
100
AcDbSymbolTable
 70
     7
  0
BLOCK_RECORD
  5
1F
330
1
100
AcDbSymbolTableRecord
100
AcDbBlockTableRecord
  2
*Model_Space
340
22
 70
     0
280
     1
281
     0
  0
BLOCK_RECORD
  5
1B
330
1
100
AcDbSymbolTableRecord
100
AcDbBlockTableRecord
  2
*Paper_Space
340
1E
 70
     0
280
     1
281
     0
  0
BLOCK_RECORD
  5
23
330
1
100
AcDbSymbolTableRecord
100
AcDbBlockTableRecord
  2
*Paper_Space0
340
26
 70
     0
280
     1
281
     0
  0
BLOCK_RECORD
  5
72
330
1
100
AcDbSymbolTableRecord
100
AcDbBlockTableRecord
  2
_CLOSED
340
0
 70
     0
280
     1
281
     0
  0
BLOCK_RECORD
  5
7B
330
1
100
AcDbSymbolTableRecord
100
AcDbBlockTableRecord
  2
a
340
0
102
{BLKREFS
331
E2
102
}
 70
     0
280
     1
281
     0
  0
BLOCK_RECORD
  5
E3
330
1
100
AcDbSymbolTableRecord
100
AcDbBlockTableRecord
  2
b
340
0
102
{BLKREFS
331
125
102
}
 70
     0
280
     1
281
     0
  0
BLOCK_RECORD
  5
126
330
1
100
AcDbSymbolTableRecord
100
AcDbBlockTableRecord
  2
c
340
0
102
{BLKREFS
331
17F
102
}
 70
     0
280
     1
281
     0
  0
BLOCK_RECORD
  5
180
330
1
100
AcDbSymbolTableRecord
100
AcDbBlockTableRecord
  2
d
340
0
102
{BLKREFS
331
1F7
102
}
 70
     0
280
     1
281
     0
  0
BLOCK_RECORD
  5
1F8
330
1
100
AcDbSymbolTableRecord
100
AcDbBlockTableRecord
  2
e
340
0
102
{BLKREFS
331
244
102
}
 70
     0
280
     1
281
     0
  0
ENDTAB
  0
ENDSEC
  0
SECTION
  2
BLOCKS
  0
BLOCK
  5
20
330
1F
100
AcDbEntity
  8
0
100
AcDbBlockBegin
  2
*Model_Space
 70
     0
 10
0.0
 20
0.0
 30
0.0
  3
*Model_Space
  1

  0
ENDBLK
  5
21
330
1F
100
AcDbEntity
  8
0
100
AcDbBlockEnd
  0
BLOCK
  5
1C
330
1B
100
AcDbEntity
 67
     1
  8
0
100
AcDbBlockBegin
  2
*Paper_Space
 70
     0
 10
0.0
 20
0.0
 30
0.0
  3
*Paper_Space
  1

  0
ENDBLK
  5
1D
330
1B
100
AcDbEntity
 67
     1
  8
0
100
AcDbBlockEnd
  0
BLOCK
  5
24
330
23
100
AcDbEntity
  8
0
100
AcDbBlockBegin
  2
*Paper_Space0
 70
     0
 10
0.0
 20
0.0
 30
0.0
  3
*Paper_Space0
  1

  0
ENDBLK
  5
25
330
23
100
AcDbEntity
  8
0
100
AcDbBlockEnd
  0
BLOCK
  5
73
330
72
100
AcDbEntity
  8
0
100
AcDbBlockBegin
  2
_CLOSED
 70
     0
 10
0.0
 20
0.0
 30
0.0
  3
_CLOSED
  1

  0
LINE
  5
75
330
72
100
AcDbEntity
  8
0
  6
ByBlock
 62
     0
370
    -2
100
AcDbLine
 10
-1.0
 20
0.166667
 30
0.0
 11
0.0
 21
0.0
 31
0.0
  0
LINE
  5
76
330
72
100
AcDbEntity
  8
0
  6
ByBlock
 62
     0
370
    -2
100
AcDbLine
 10
0.0
 20
0.0
 30
0.0
 11
-1.0
 21
-0.166667
 31
0.0
  0
LINE
  5
77
330
72
100
AcDbEntity
  8
0
  6
ByBlock
 62
     0
370
    -2
100
AcDbLine
 10
-1.0
 20
0.166667
 30
0.0
 11
-1.0
 21
-0.166667
 31
0.0
  0
LINE
  5
78
330
72
100
AcDbEntity
  8
0
  6
ByBlock
 62
     0
370
    -2
100
AcDbLine
 10
0.0
 20
0.0
 30
0.0
 11
-1.0
 21
0.0
 31
0.0
  0
ENDBLK
  5
74
330
72
100
AcDbEntity
  8
0
100
AcDbBlockEnd
  0
BLOCK
  5
E0
330
7B
100
AcDbEntity
  8
0
100
AcDbBlockBegin
  2
a
 70
     0
 10
92.584801
 20
94.536774
 30
0.0
  3
a
  1

  0
LINE
  5
7C
330
7B
100
AcDbEntity
  8
0
  6
Continuous
 62
     0
370
    30
100
AcDbLine
 10
152.971243
 20
513.276495
 30
0.0
 11
152.971243
 21
515.287339
 31
0.0
  0
LINE
  5
7D
330
7B
100
AcDbEntity
  8
0
  6
Continuous
 62
     0
370
    30
100
AcDbLine
 10
152.971243
 20
471.788308
 30
0.0
 11
152.971243
 21
473.799152
 31
0.0
  0
LINE
  5
7E
330
7B
100
AcDbEntity
  8
0
  6
Continuous
 62
     0
370
     0
100
AcDbLine
 10
129.258374
 20
512.775714
 30
0.0
 11
129.258374
 21
474.299933
 31
0.0
  0
LINE
  5
7F
330
7B
100
AcDbEntity
  8
0
  6
Continuous
 62
     0
370
     0
100
AcDbLine
 10
130.347251
 20
513.759099
 30
0.0
 11
130.347251
 21
473.316548
 31
0.0
  0
LWPOLYLINE
  5
80
330
7B
100
AcDbEntity
  8
0
  6
Continuous
 62
     0
370
    30
100
AcDbPolyline
 90
       51
 70
     0
 43
0.0
 10
152.971237
 20
471.7883
 10
152.368317
 20
471.836487
 10
151.767258
 20
471.963654
 10
151.169907
 20
472.169708
 10
150.57814
 20
472.454285
 10
149.993851
 20
472.816895
 10
149.418991
 20
473.256897
 10
148.855469
 20
473.773712
 10
148.305267
 20
474.366394
 10
147.770447
 20
475.033722
 10
147.253021
 20
475.774414
 10
146.755096
 20
476.587067
 10
146.278748
 20
477.469452
 10
145.826157
 20
478.419128
 10
145.39946
 20
479.433563
 10
145.000793
 20
480.510071
 10
144.632233
 20
481.64502
 10
144.295822
 20
482.834259
 10
143.993591
 20
484.073547
 10
143.727386
 20
485.35788
 10
143.498947
 20
486.681885
 10
143.309784
 20
488.039642
 10
143.161118
 20
489.424744
 10
143.054138
 20
490.830627
 10
142.989609
 20
492.250397
 10
142.967911
 20
493.676819
 10
142.989349
 20
495.1026
 10
143.053665
 20
496.520599
 10
143.160355
 20
497.923584
 10
143.308762
 20
499.304565
 10
143.497742
 20
500.657074
 10
143.725937
 20
501.974762
 10
143.991959
 20
503.251587
 10
144.294006
 20
504.482452
 10
144.630157
 20
505.662598
 10
144.99852
 20
506.787292
 10
145.397034
 20
507.852692
 10
145.823593
 20
508.855591
 10
146.276031
 20
509.792816
 10
146.752228
 20
510.661774
 10
147.250046
 20
511.460419
 10
147.767365
 20
512.186768
 10
148.302094
 20
512.839233
 10
148.852203
 20
513.416626
 10
149.415649
 20
513.917725
 10
149.990463
 20
514.341797
 10
150.574692
 20
514.68811
 10
151.166397
 20
514.956177
 10
151.763718
 20
515.145569
 10
152.364807
 20
515.255981
 10
152.971237
 20
515.287354
  0
ARC
  5
81
330
7B
100
AcDbEntity
  8
0
  6
Continuous
 62
     0
370
     0
100
AcDbCircle
 10
128.313278
 20
493.332483
 30
0.0
 40
4.495816865507868
100
AcDbArc
 50
179.734186
 51
254.299698
  0
ARC
  5
82
330
7B
100
AcDbEntity
  8
0
  6
Continuous
 62
     0
370
     0
100
AcDbCircle
 10
128.300534
 20
493.376266
 30
0.0
 40
4.483082508780562
100
AcDbArc
 50
105.845937
 51
180.293009
  0
LWPOLYLINE
  5
83
330
7B
100
AcDbEntity
  8
0
  6
Continuous
 62
     0
370
    30
100
AcDbPolyline
 90
       47
 70
     0
 43
0.0
 10
152.971237
 20
513.276489
 10
152.443329
 20
513.106689
 10
151.921188
 20
512.857971
 10
151.407028
 20
512.531189
 10
150.902863
 20
512.127686
 10
150.41069
 20
511.649231
 10
149.932526
 20
511.097778
 10
149.470306
 20
510.475342
 10
149.025909
 20
509.784454
 10
148.601074
 20
509.028046
 10
148.197571
 20
508.209045
 10
147.817047
 20
507.330688
 10
147.460938
 20
506.396698
 10
147.130753
 20
505.410767
 10
146.82785
 20
504.37674
 10
146.553421
 20
503.29892
 10
146.308548
 20
502.181671
 10
146.094299
 20
501.029388
 10
145.911484
 20
499.846802
 10
145.760849
 20
498.638672
 10
145.643051
 20
497.409851
 10
145.558517
 20
496.165344
 10
145.507599
 20
494.910156
 10
145.490555
 20
493.649384
 10
145.507401
 20
492.388092
 10
145.558029
 20
491.131378
 10
145.642334
 20
489.884369
 10
145.759918
 20
488.652069
 10
145.910294
 20
487.439453
 10
146.092896
 20
486.251465
 10
146.306961
 20
485.092865
 10
146.551575
 20
483.968262
 10
146.825775
 20
482.882294
 10
147.12851
 20
481.839325
 10
147.458481
 20
480.843536
 10
147.814392
 20
479.898956
 10
148.194794
 20
479.009399
 10
148.598129
 20
478.178345
 10
149.022797
 20
477.409302
 10
149.467087
 20
476.705292
 10
149.929169
 20
476.069092
 10
150.407227
 20
475.503418
 10
150.899307
 20
475.010376
 10
151.403397
 20
474.591919
 10
151.917511
 20
474.249908
 10
152.43959
 20
473.985657
 10
152.971237
 20
473.799164
  0
LINE
  5
84
330
7B
100
AcDbEntity
  8
0
  6
Continuous
 62
     0
370
    30
100
AcDbLine
 10
355.012913
 20
467.837823
 30
0.0
 11
355.012913
 21
432.037823
 31
0.0
  0
LINE
  5
85
330
7B
100
AcDbEntity
  8
0
  6
Continuous
 62
     0
370
     0
100
AcDbLine
 10
355.012913
 20
432.037823
 30
0.0
 11
330.012913
 21
432.037823
 31
0.0
  0
LWPOLYLINE
  5
86
330
7B
100
AcDbEntity
  8
0
  6
Continuous
 62
     0
370
     0
100
AcDbPolyline
 90
       17
 70
     0
 43
0.0
 10
349.107086
 20
471.99762
 10
349.74176
 20
471.645477
 10
350.34668
 20
471.285522
 10
350.921936
 20
470.922668
 10
351.466827
 20
470.561157
 10
351.980438
 20
470.205109
 10
352.461914
 20
469.858612
 10
352.909698
 20
469.525848
 10
353.321564
 20
469.211029
 10
353.695221
 20
468.918457
 10
354.028351
 20
468.652344
 10
354.318024
 20
468.416962
 10
354.561127
 20
468.216583
 10
354.754639
 20
468.05545
 10
354.895844
 20
467.937012
 10
354.982452
 20
467.8638
 10
355.012909
 20
467.83783
  0
LWPOLYLINE
  5
87
330
7B
100
AcDbEntity
  8
0
  6
Continuous
 62
     0
370
     0
100
AcDbPolyline
 90
       16
 70
     0
 43
0.0
 10
330.012909
 20
467.83783
 10
330.041656
 20
467.862274
 10
330.12674
 20
467.934204
 10
330.266418
 20
468.051483
 10
330.458923
 20
468.211853
 10
330.701691
 20
468.411987
 10
330.991516
 20
468.647522
 10
331.325195
 20
468.914124
 10
331.699707
 20
469.207428
 10
332.11264
 20
469.523163
 10
332.561737
 20
469.856995
 10
333.0448
 20
470.204681
 10
333.560272
 20
470.562012
 10
334.107208
 20
470.924805
 10
334.684723
 20
471.288971
 10
335.312073
 20
471.661621
  0
LWPOLYLINE
  5
88
330
7B
100
AcDbEntity
  8
0
  6
Continuous
 62
     0
370
     0
100
AcDbPolyline
 90
       42
 70
     0
 43
0.0
 10
330.012909
 20
391.292358
 10
330.043488
 20
392.074707
 10
330.138306
 20
392.874023
 10
330.301636
 20
393.684448
 10
330.536804
 20
394.499298
 10
330.846222
 20
395.311249
 10
331.230957
 20
396.112396
 10
331.690765
 20
396.894562
 10
332.223907
 20
397.649384
 10
332.827179
 20
398.368835
 10
333.49585
 20
399.045227
 10
334.223846
 20
399.6716
 10
335.003937
 20
400.242004
 10
335.828003
 20
400.751587
 10
336.687103
 20
401.196777
 10
337.572144
 20
401.575348
 10
338.473816
 20
401.886414
 10
339.383148
 20
402.130371
 10
340.291565
 20
402.308777
 10
341.191223
 20
402.424194
 10
342.075104
 20
402.480072
 10
342.943176
 20
402.480316
 10
343.826904
 20
402.424927
 10
344.726471
 20
402.310028
 10
345.634827
 20
402.132172
 10
346.544189
 20
401.888824
 10
347.445953
 20
401.578339
 10
348.331177
 20
401.200348
 10
349.190552
 20
400.755707
 10
350.014954
 20
400.246674
 10
350.795471
 20
399.676758
 10
351.523956
 20
399.050842
 10
352.193146
 20
398.374878
 10
352.796997
 20
397.655762
 10
353.33078
 20
396.901184
 10
353.791229
 20
396.119232
 10
354.176605
 20
395.318237
 10
354.486664
 20
394.506348
 10
354.722473
 20
393.691467
 10
354.886414
 20
392.880951
 10
354.981812
 20
392.081512
 10
355.012909
 20
391.292358
  0
LINE
  5
89
330
7B
100
AcDbEntity
  8
0
  6
Continuous
 62
     0
370
    30
100
AcDbLine
 10
355.012913
 20
391.292353
 30
0.0
 11
355.012913
 21
382.393846
 31
0.0
  0
LWPOLYLINE
  5
8A
330
7B
100
AcDbEntity
  8
0
  6
Continuous
 62
     0
370
    30
100
AcDbPolyline
 90
       42
 70
     0
 43
0.0
 10
330.012909
 20
382.39386
 10
330.043488
 20
381.611511
 10
330.138306
 20
380.812195
 10
330.301636
 20
380.00177
 10
330.536804
 20
379.18689
 10
330.846222
 20
378.374939
 10
331.230957
 20
377.573792
 10
331.690765
 20
376.791656
 10
332.223907
 20
376.036804
 10
332.827179
 20
375.317352
 10
333.49585
 20
374.640991
 10
334.223846
 20
374.014587
 10
335.003937
 20
373.444183
 10
335.828003
 20
372.934601
 10
336.687103
 20
372.48941
 10
337.572144
 20
372.11084
 10
338.473816
 20
371.799774
 10
339.383148
 20
371.555817
 10
340.291565
 20
371.377441
 10
341.191223
 20
371.261993
 10
342.075104
 20
371.206116
 10
342.943176
 20
371.205872
 10
343.826904
 20
371.261261
 10
344.726471
 20
371.37616
 10
345.634827
 20
371.554016
 10
346.544189
 20
371.797394
 10
347.445953
 20
372.10788
 10
348.331177
 20
372.48587
 10
349.190552
 20
372.930481
 10
350.014954
 20
373.439545
 10
350.795471
 20
374.00943
 10
351.523956
 20
374.635345
 10
352.193146
 20
375.31134
 10
352.796997
 20
376.030426
 10
353.33078
 20
376.785004
 10
353.791229
 20
377.566956
 10
354.176605
 20
378.367981
 10
354.486664
 20
379.179871
 10
354.722473
 20
379.994751
 10
354.886414
 20
380.805237
 10
354.981812
 20
381.604675
 10
355.012909
 20
382.39386
  0
LWPOLYLINE
  5
8B
330
7B
100
AcDbEntity
  8
0
  6
Continuous
 62
     0
370
    30
100
AcDbPolyline
 90
       42
 70
     0
 43
0.0
 10
355.012909
 20
382.39386
 10
354.982361
 20
383.176178
 10
354.887512
 20
383.975494
 10
354.724213
 20
384.785919
 10
354.489014
 20
385.6008
 10
354.179626
 20
386.41275
 10
353.794891
 20
387.213898
 10
353.335083
 20
387.996033
 10
352.80191
 20
388.750885
 10
352.198669
 20
389.470337
 10
351.529999
 20
390.146698
 10
350.801971
 20
390.773102
 10
350.021881
 20
391.343506
 10
349.197845
 20
391.853088
 10
348.338715
 20
392.298279
 10
347.453674
 20
392.676849
 10
346.552002
 20
392.987915
 10
345.6427
 20
393.231873
 10
344.734283
 20
393.410248
 10
343.834625
 20
393.525696
 10
342.950714
 20
393.581573
 10
342.082642
 20
393.581818
 10
341.198914
 20
393.526428
 10
340.299377
 20
393.41153
 10
339.390991
 20
393.233673
 10
338.481659
 20
392.990295
 10
337.579865
 20
392.67981
 10
336.694672
 20
392.301819
 10
335.835266
 20
391.857208
 10
335.010895
 20
391.348175
 10
334.230347
 20
390.778259
 10
333.501862
 20
390.152344
 10
332.832672
 20
389.476349
 10
332.228821
 20
388.757263
 10
331.695038
 20
388.002686
 10
331.234589
 20
387.220734
 10
330.849213
 20
386.419708
 10
330.539154
 20
385.607819
 10
330.303345
 20
384.792938
 10
330.139404
 20
383.982452
 10
330.044006
 20
383.183014
 10
330.012909
 20
382.39386
  0
ARC
  5
8C
330
7B
100
AcDbEntity
  8
0
  6
Continuous
 62
     0
370
    30
100
AcDbCircle
 10
359.012913
 20
467.837823
 30
0.0
 40
3.999999999999289
100
AcDbArc
 50
90.0
 51
180.0
  0
LWPOLYLINE
  5
8D
330
7B
100
AcDbEntity
  8
0
  6
Continuous
 62
     0
370
     0
100
AcDbPolyline
 90
       21
 70
     0
 43
0.0
 10
349.229706
 20
475.960663
 10
350.028503
 20
475.731659
 10
350.803894
 20
475.487946
 10
351.555115
 20
475.232544
 10
352.281342
 20
474.968475
 10
352.981567
 20
474.698425
 10
353.654755
 20
474.42511
 10
354.299835
 20
474.151184
 10
354.915466
 20
473.879303
 10
355.499603
 20
473.612183
 10
356.050171
 20
473.3526
 10
356.564972
 20
473.103333
 10
357.040894
 20
472.867401
 10
357.474518
 20
472.648041
 10
357.862335
 20
472.448425
 10
358.200531
 20
472.271759
 10
358.484985
 20
472.121307
 10
358.711487
 20
472.000366
 10
358.876404
 20
471.911682
 10
358.977478
 20
471.857056
 10
359.012909
 20
471.83783
  0
LWPOLYLINE
  5
8E
330
7B
100
AcDbEntity
  8
0
  6
Continuous
 62
     0
370
     0
100
AcDbPolyline
 90
       20
 70
     0
 43
0.0
 10
326.012909
 20
471.83783
 10
326.047668
 20
471.85672
 10
326.150452
 20
471.912292
 10
326.319092
 20
472.002899
 10
326.551147
 20
472.126801
 10
326.842773
 20
472.280975
 10
327.189667
 20
472.462006
 10
327.587463
 20
472.666504
 10
328.032227
 20
472.891113
 10
328.520325
 20
473.132446
 10
329.048065
 20
473.387177
 10
329.612396
 20
473.65213
 10
330.21106
 20
473.924438
 10
330.841827
 20
474.201233
 10
331.502686
 20
474.479645
 10
332.192291
 20
474.756836
 10
332.909607
 20
475.03009
 10
333.653503
 20
475.296539
 10
334.423035
 20
475.553253
 10
335.225586
 20
475.7995
  0
LINE
  5
8F
330
7B
100
AcDbEntity
  8
0
  6
Continuous
 62
     0
370
    30
100
AcDbLine
 10
155.012913
 20
472.537823
 30
0.0
 11
155.012913
 21
514.537823
 31
0.0
  0
LINE
  5
90
330
7B
100
AcDbEntity
  8
0
  6
Continuous
 62
     0
370
    30
100
AcDbLine
 10
380.012913
 20
472.537823
 30
0.0
 11
380.012913
 21
514.537823
 31
0.0
  0
ARC
  5
91
330
7B
100
AcDbEntity
  8
0
  6
Continuous
 62
     0
370
    30
100
AcDbCircle
 10
379.312913
 20
514.537823
 30
0.0
 40
0.699999988079071
100
AcDbArc
 50
0.0
 51
90.0
  0
LINE
  5
92
330
7B
100
AcDbEntity
  8
0
  6
Continuous
 62
     0
370
     0
100
AcDbLine
 10
379.312913
 20
515.237823
 30
0.0
 11
379.312913
 21
471.837823
 31
0.0
  0
ARC
  5
93
330
7B
100
AcDbEntity
  8
0
  6
Continuous
 62
     0
370
    30
100
AcDbCircle
 10
155.712913
 20
514.537823
 30
0.0
 40
0.699999988079071
100
AcDbArc
 50
90.0
 51
180.0
  0
LINE
  5
94
330
7B
100
AcDbEntity
  8
0
  6
Continuous
 62
     0
370
     0
100
AcDbLine
 10
155.712913
 20
515.237823
 30
0.0
 11
155.712913
 21
471.837823
 31
0.0
  0
LINE
  5
95
330
7B
100
AcDbEntity
  8
0
  6
Continuous
 62
     0
370
    30
100
AcDbLine
 10
358.513107
 20
525.237823
 30
0.0
 11
358.513107
 21
519.237823
 31
0.0
  0
LWPOLYLINE
  5
96
330
7B
100
AcDbEntity
  8
0
  6
Continuous
 62
     0
370
     0
100
AcDbPolyline
 90
       62
 70
     0
 43
0.0
 10
358.513092
 20
519.237854
 10
358.488251
 20
519.213257
 10
358.413544
 20
519.140381
 10
358.2901
 20
519.020935
 10
358.119934
 20
518.856995
 10
357.90506
 20
518.650818
 10
357.648041
 20
518.405457
 10
357.351471
 20
518.124634
 10
357.018036
 20
517.811768
 10
356.650391
 20
517.470642
 10
356.250793
 20
517.10437
 10
355.821198
 20
516.716187
 10
355.363403
 20
516.30896
 10
354.879303
 20
515.885681
 10
354.370483
 20
515.449463
 10
353.837585
 20
515.003418
 10
353.281097
 20
514.550598
 10
352.701508
 20
514.094177
 10
352.099243
 20
513.637268
 10
351.474243
 20
513.182678
 10
350.826172
 20
512.733154
 10
350.154419
 20
512.292175
 10
349.458069
 20
511.864197
 10
348.736206
 20
511.454346
 10
347.987854
 20
511.06842
 10
347.212158
 20
510.712891
 10
346.408997
 20
510.395935
 10
345.578674
 20
510.126343
 10
344.72403
 20
509.912994
 10
343.849213
 20
509.764557
 10
342.961121
 20
509.687714
 10
342.068542
 20
509.687469
 10
341.180389
 20
509.763885
 10
340.305542
 20
509.912079
 10
339.450867
 20
510.125427
 10
338.620514
 20
510.39502
 10
337.81723
 20
510.711792
 10
337.041321
 20
511.066956
 10
336.292633
 20
511.45224
 10
335.570496
 20
511.861664
 10
334.874207
 20
512.289795
 10
334.202667
 20
512.731445
 10
333.554779
 20
513.18158
 10
332.929871
 20
513.636414
 10
332.327484
 20
514.093323
 10
331.74765
 20
514.549377
 10
331.190857
 20
515.001709
 10
330.657654
 20
515.447266
 10
330.14859
 20
515.883179
 10
329.664337
 20
516.306458
 10
329.206512
 20
516.713928
 10
328.776886
 20
517.102539
 10
328.377289
 20
517.469177
 10
328.009583
 20
517.810669
 10
327.676025
 20
518.123657
 10
327.379303
 20
518.404663
 10
327.122101
 20
518.650085
 10
326.907043
 20
518.856384
 10
326.736664
 20
519.020508
 10
326.613037
 20
519.140076
 10
326.538177
 20
519.213074
 10
326.513092
 20
519.237854
  0
LINE
  5
97
330
7B
100
AcDbEntity
  8
0
  6
Continuous
 62
     0
370
    30
100
AcDbLine
 10
326.513107
 20
525.237823
 30
0.0
 11
358.513107
 21
525.237823
 31
0.0
  0
ARC
  5
98
330
7B
100
AcDbEntity
  8
0
  6
Continuous
 62
     0
370
    30
100
AcDbCircle
 10
362.513107
 20
519.237823
 30
0.0
 40
4.0
100
AcDbArc
 50
180.0
 51
270.0
  0
ARC
  5
99
330
7B
100
AcDbEntity
  8
0
  6
Continuous
 62
     0
370
    30
100
AcDbCircle
 10
322.513107
 20
519.237823
 30
0.0
 40
3.999999999999996
100
AcDbArc
 50
270.0
 51
0.0
  0
LWPOLYLINE
  5
9A
330
7B
100
AcDbEntity
  8
0
  6
Continuous
 62
     0
370
     0
100
AcDbPolyline
 90
       58
 70
     0
 43
0.0
 10
322.513092
 20
515.237854
 10
322.547119
 20
515.215393
 10
322.648224
 20
515.149048
 10
322.814911
 20
515.040039
 10
323.045746
 20
514.889709
 10
323.338745
 20
514.699829
 10
323.690979
 20
514.473206
 10
324.099274
 20
514.212708
 10
324.560608
 20
513.921265
 10
325.072052
 20
513.602173
 10
325.630737
 20
513.258606
 10
326.233795
 20
512.893799
 10
326.878632
 20
512.510986
 10
327.563324
 20
512.113403
 10
328.28598
 20
511.704315
 10
329.044861
 20
511.286987
 10
329.83905
 20
510.86499
 10
330.667725
 20
510.441895
 10
331.530273
 20
510.021393
 10
332.426392
 20
509.607819
 10
333.356079
 20
509.206055
 10
334.319427
 20
508.821075
 10
335.316559
 20
508.458862
 10
336.347565
 20
508.126007
 10
337.411224
 20
507.830048
 10
338.505127
 20
507.579285
 10
339.626617
 20
507.381989
 10
340.770111
 20
507.245117
 10
341.927063
 20
507.174469
 10
343.088806
 20
507.174835
 10
344.246216
 20
507.244812
 10
345.389984
 20
507.380432
 10
346.511505
 20
507.57724
 10
347.605957
 20
507.827759
 10
348.669983
 20
508.123413
 10
349.701019
 20
508.455902
 10
350.698395
 20
508.817841
 10
351.662048
 20
509.202545
 10
352.592041
 20
509.604431
 10
353.488495
 20
510.017914
 10
354.351349
 20
510.438202
 10
355.180176
 20
510.861328
 10
355.974579
 20
511.283447
 10
356.733856
 20
511.700745
 10
357.456757
 20
512.109924
 10
358.141846
 20
512.507629
 10
358.787384
 20
512.890625
 10
359.39093
 20
513.255615
 10
359.949829
 20
513.599426
 10
360.461456
 20
513.918701
 10
360.923126
 20
514.210266
 10
361.33194
 20
514.471069
 10
361.684692
 20
514.698059
 10
361.97821
 20
514.888245
 10
362.209564
 20
515.038879
 10
362.376831
 20
515.148254
 10
362.478485
 20
515.215027
 10
362.513092
 20
515.237854
  0
LINE
  5
9B
330
7B
100
AcDbEntity
  8
0
  6
Continuous
 62
     0
370
    30
100
AcDbLine
 10
208.513107
 20
525.237823
 30
0.0
 11
208.513107
 21
519.237823
 31
0.0
  0
LWPOLYLINE
  5
9C
330
7B
100
AcDbEntity
  8
0
  6
Continuous
 62
     0
370
     0
100
AcDbPolyline
 90
       62
 70
     0
 43
0.0
 10
208.513107
 20
519.237854
 10
208.488235
 20
519.213257
 10
208.413559
 20
519.140381
 10
208.290115
 20
519.020935
 10
208.119919
 20
518.856995
 10
207.905075
 20
518.650818
 10
207.648041
 20
518.405457
 10
207.351471
 20
518.124634
 10
207.018036
 20
517.811768
 10
206.650375
 20
517.470642
 10
206.250809
 20
517.10437
 10
205.821198
 20
516.716187
 10
205.363419
 20
516.30896
 10
204.879303
 20
515.885681
 10
204.370468
 20
515.449463
 10
203.837585
 20
515.003418
 10
203.281113
 20
514.550598
 10
202.701508
 20
514.094177
 10
202.099228
 20
513.637268
 10
201.474258
 20
513.182678
 10
200.826172
 20
512.733154
 10
200.154419
 20
512.292175
 10
199.458069
 20
511.864197
 10
198.736206
 20
511.454346
 10
197.987854
 20
511.06842
 10
197.212158
 20
510.712891
 10
196.408981
 20
510.395935
 10
195.578674
 20
510.126343
 10
194.72403
 20
509.912994
 10
193.849213
 20
509.764557
 10
192.961121
 20
509.687714
 10
192.068542
 20
509.687469
 10
191.180405
 20
509.763885
 10
190.305527
 20
509.912079
 10
189.450851
 20
510.125427
 10
188.620499
 20
510.39502
 10
187.81723
 20
510.711792
 10
187.041321
 20
511.066956
 10
186.292618
 20
511.45224
 10
185.570511
 20
511.861664
 10
184.874191
 20
512.289795
 10
184.202667
 20
512.731445
 10
183.554794
 20
513.18158
 10
182.929871
 20
513.636414
 10
182.327484
 20
514.093323
 10
181.74765
 20
514.549377
 10
181.190872
 20
515.001709
 10
180.657669
 20
515.447266
 10
180.148575
 20
515.883179
 10
179.664337
 20
516.306458
 10
179.206497
 20
516.713928
 10
178.776886
 20
517.102539
 10
178.377304
 20
517.469177
 10
178.009598
 20
517.810669
 10
177.676041
 20
518.123657
 10
177.379318
 20
518.404663
 10
177.122086
 20
518.650085
 10
176.907043
 20
518.856384
 10
176.736679
 20
519.020508
 10
176.613052
 20
519.140076
 10
176.538177
 20
519.213074
 10
176.513107
 20
519.237854
  0
LINE
  5
9D
330
7B
100
AcDbEntity
  8
0
  6
Continuous
 62
     0
370
    30
100
AcDbLine
 10
176.513107
 20
525.237823
 30
0.0
 11
208.513107
 21
525.237823
 31
0.0
  0
ARC
  5
9E
330
7B
100
AcDbEntity
  8
0
  6
Continuous
 62
     0
370
    30
100
AcDbCircle
 10
172.513107
 20
519.237823
 30
0.0
 40
4.0
100
AcDbArc
 50
270.0
 51
360.0
  0
LWPOLYLINE
  5
9F
330
7B
100
AcDbEntity
  8
0
  6
Continuous
 62
     0
370
     0
100
AcDbPolyline
 90
       58
 70
     0
 43
0.0
 10
212.513107
 20
515.237854
 10
212.479065
 20
515.215393
 10
212.377945
 20
515.148987
 10
212.211243
 20
515.039978
 10
211.980423
 20
514.889648
 10
211.687393
 20
514.699768
 10
211.335129
 20
514.473083
 10
210.926788
 20
514.212585
 10
210.465546
 20
513.921265
 10
209.95433
 20
513.602234
 10
209.395828
 20
513.258606
 10
208.792648
 20
512.893799
 10
208.14743
 20
512.510925
 10
207.462677
 20
512.113342
 10
206.740097
 20
511.704224
 10
205.98111
 20
511.286987
 10
205.187012
 20
510.864899
 10
204.358459
 20
510.441742
 10
203.495895
 20
510.021423
 10
202.599701
 20
509.607849
 10
201.669998
 20
509.205872
 10
200.70665
 20
508.820984
 10
199.709534
 20
508.458832
 10
198.678787
 20
508.126068
 10
197.615021
 20
507.830078
 10
196.520828
 20
507.579132
 10
195.399536
 20
507.381836
 10
194.25589
 20
507.245697
 10
193.098572
 20
507.17514
 10
191.936829
 20
507.174164
 10
190.7798
 20
507.244232
 10
189.636169
 20
507.380585
 10
188.514435
 20
507.577393
 10
187.420303
 20
507.827728
 10
186.356384
 20
508.123352
 10
185.325089
 20
508.455933
 10
184.327667
 20
508.817932
 10
183.364029
 20
509.202728
 10
182.434052
 20
509.60437
 10
181.537674
 20
510.017883
 10
180.67485
 20
510.438354
 10
179.845856
 20
510.86142
 10
179.051407
 20
511.283478
 10
178.292206
 20
511.700836
 10
177.569229
 20
512.109985
 10
176.884232
 20
512.50769
 10
176.239044
 20
512.890686
 10
175.635635
 20
513.255615
 10
175.076553
 20
513.599426
 10
174.564697
 20
513.918701
 10
174.102936
 20
514.210388
 10
173.694168
 20
514.47113
 10
173.341476
 20
514.698059
 10
173.047943
 20
514.888306
 10
172.816574
 20
515.03894
 10
172.649338
 20
515.148315
 10
172.547699
 20
515.215027
 10
172.513107
 20
515.237793
  0
ARC
  5
A0
330
7B
100
AcDbEntity
  8
0
  6
Continuous
 62
     0
370
    30
100
AcDbCircle
 10
212.513107
 20
519.237823
 30
0.0
 40
4.0
100
AcDbArc
 50
180.0
 51
270.0
  0
LINE
  5
A1
330
7B
100
AcDbEntity
  8
0
  6
Continuous
 62
     0
370
    30
100
AcDbLine
 10
379.312913
 20
515.237823
 30
0.0
 11
362.513107
 21
515.237823
 31
0.0
  0
LINE
  5
A2
330
7B
100
AcDbEntity
  8
0
  6
Continuous
 62
     0
370
    30
100
AcDbLine
 10
322.513107
 20
515.237823
 30
0.0
 11
212.513107
 21
515.237823
 31
0.0
  0
LINE
  5
A3
330
7B
100
AcDbEntity
  8
0
  6
Continuous
 62
     0
370
    30
100
AcDbLine
 10
172.513107
 20
515.237823
 30
0.0
 11
155.712913
 21
515.237823
 31
0.0
  0
LINE
  5
A4
330
7B
100
AcDbEntity
  8
0
  6
Continuous
 62
     0
370
    30
100
AcDbLine
 10
161.013107
 20
558.737823
 30
0.0
 11
223.989327
 21
558.737823
 31
0.0
  0
LINE
  5
A5
330
7B
100
AcDbEntity
  8
0
  6
Continuous
 62
     0
370
    30
100
AcDbLine
 10
161.513107
 20
538.737823
 30
0.0
 11
223.489704
 21
538.737823
 31
0.0
  0
LINE
  5
A6
330
7B
100
AcDbEntity
  8
0
  6
Continuous
 62
     0
370
     0
100
AcDbLine
 10
161.013107
 20
539.237823
 30
0.0
 11
223.989327
 21
539.237823
 31
0.0
  0
ARC
  5
A7
330
7B
100
AcDbEntity
  8
0
  6
Continuous
 62
     0
370
    30
100
AcDbCircle
 10
208.013107
 20
525.737823
 30
0.0
 40
0.5
100
AcDbArc
 50
270.0
 51
360.0
  0
LINE
  5
A8
330
7B
100
AcDbEntity
  8
0
  6
Continuous
 62
     0
370
     0
100
AcDbLine
 10
176.513107
 20
525.737823
 30
0.0
 11
208.513107
 21
525.737823
 31
0.0
  0
LINE
  5
A9
330
7B
100
AcDbEntity
  8
0
  6
Continuous
 62
     0
370
    30
100
AcDbLine
 10
208.513107
 20
525.737823
 30
0.0
 11
208.513107
 21
527.737823
 31
0.0
  0
LINE
  5
AA
330
7B
100
AcDbEntity
  8
0
  6
Continuous
 62
     0
370
    30
100
AcDbLine
 10
207.513107
 20
528.737823
 30
0.0
 11
208.513107
 21
527.737823
 31
0.0
  0
LINE
  5
AB
330
7B
100
AcDbEntity
  8
0
  6
Continuous
 62
     0
370
    30
100
AcDbLine
 10
207.513107
 20
538.537823
 30
0.0
 11
207.513107
 21
528.737823
 31
0.0
  0
LINE
  5
AC
330
7B
100
AcDbEntity
  8
0
  6
Continuous
 62
     0
370
    30
100
AcDbLine
 10
177.513107
 20
538.537823
 30
0.0
 11
207.513107
 21
538.537823
 31
0.0
  0
LINE
  5
AD
330
7B
100
AcDbEntity
  8
0
  6
Continuous
 62
     0
370
    30
100
AcDbLine
 10
177.513107
 20
528.737823
 30
0.0
 11
177.513107
 21
538.537823
 31
0.0
  0
LINE
  5
AE
330
7B
100
AcDbEntity
  8
0
  6
Continuous
 62
     0
370
    30
100
AcDbLine
 10
176.513107
 20
527.737823
 30
0.0
 11
177.513107
 21
528.737823
 31
0.0
  0
LINE
  5
AF
330
7B
100
AcDbEntity
  8
0
  6
Continuous
 62
     0
370
    30
100
AcDbLine
 10
207.513107
 20
538.737823
 30
0.0
 11
207.513107
 21
538.537823
 31
0.0
  0
LINE
  5
B0
330
7B
100
AcDbEntity
  8
0
  6
Continuous
 62
     0
370
    30
100
AcDbLine
 10
177.513107
 20
538.537823
 30
0.0
 11
177.513107
 21
538.737823
 31
0.0
  0
LINE
  5
B1
330
7B
100
AcDbEntity
  8
0
  6
Continuous
 62
     0
370
    30
100
AcDbLine
 10
311.06987
 20
558.737823
 30
0.0
 11
374.013107
 21
558.737823
 31
0.0
  0
LINE
  5
B2
330
7B
100
AcDbEntity
  8
0
  6
Continuous
 62
     0
370
     0
100
AcDbLine
 10
311.06987
 20
539.237823
 30
0.0
 11
374.013107
 21
539.237823
 31
0.0
  0
LINE
  5
B3
330
7B
100
AcDbEntity
  8
0
  6
Continuous
 62
     0
370
     0
100
AcDbLine
 10
326.513107
 20
525.737823
 30
0.0
 11
358.513107
 21
525.737823
 31
0.0
  0
ARC
  5
B4
330
7B
100
AcDbEntity
  8
0
  6
Continuous
 62
     0
370
    30
100
AcDbCircle
 10
327.013107
 20
525.737823
 30
0.0
 40
0.5
100
AcDbArc
 50
180.0
 51
270.0
  0
LINE
  5
B5
330
7B
100
AcDbEntity
  8
0
  6
Continuous
 62
     0
370
    30
100
AcDbLine
 10
326.513107
 20
525.737823
 30
0.0
 11
326.513107
 21
527.737823
 31
0.0
  0
LINE
  5
B6
330
7B
100
AcDbEntity
  8
0
  6
Continuous
 62
     0
370
    30
100
AcDbLine
 10
357.513107
 20
528.737823
 30
0.0
 11
358.513107
 21
527.737823
 31
0.0
  0
LINE
  5
B7
330
7B
100
AcDbEntity
  8
0
  6
Continuous
 62
     0
370
    30
100
AcDbLine
 10
357.513107
 20
538.537823
 30
0.0
 11
357.513107
 21
528.737823
 31
0.0
  0
LINE
  5
B8
330
7B
100
AcDbEntity
  8
0
  6
Continuous
 62
     0
370
    30
100
AcDbLine
 10
327.513107
 20
538.537823
 30
0.0
 11
357.513107
 21
538.537823
 31
0.0
  0
LINE
  5
B9
330
7B
100
AcDbEntity
  8
0
  6
Continuous
 62
     0
370
    30
100
AcDbLine
 10
327.513107
 20
538.537823
 30
0.0
 11
327.513107
 21
528.737823
 31
0.0
  0
LINE
  5
BA
330
7B
100
AcDbEntity
  8
0
  6
Continuous
 62
     0
370
    30
100
AcDbLine
 10
327.513107
 20
528.737823
 30
0.0
 11
326.513107
 21
527.737823
 31
0.0
  0
LINE
  5
BB
330
7B
100
AcDbEntity
  8
0
  6
Continuous
 62
     0
370
    30
100
AcDbLine
 10
357.513107
 20
538.737823
 30
0.0
 11
357.513107
 21
538.537823
 31
0.0
  0
LINE
  5
BC
330
7B
100
AcDbEntity
  8
0
  6
Continuous
 62
     0
370
    30
100
AcDbLine
 10
327.513107
 20
538.737823
 30
0.0
 11
327.513107
 21
538.537823
 31
0.0
  0
ARC
  5
BD
330
7B
100
AcDbEntity
  8
0
  6
Continuous
 62
     0
370
    30
100
AcDbCircle
 10
342.498306
 20
493.537735
 30
0.0
 40
11.5
100
AcDbArc
 50
306.617041
 51
89.121782
  0
ARC
  5
BE
330
7B
100
AcDbEntity
  8
0
  6
Continuous
 62
     0
370
    30
100
AcDbCircle
 10
342.498306
 20
493.537735
 30
0.0
 40
11.5
100
AcDbArc
 50
89.121782
 51
231.626542
  0
ARC
  5
BF
330
7B
100
AcDbEntity
  8
0
  6
Continuous
 62
     0
370
    30
100
AcDbCircle
 10
342.498305
 20
493.537595
 30
0.0
 40
10.03275521737465
100
AcDbArc
 50
89.121782
 51
224.877852
  0
ARC
  5
C0
330
7B
100
AcDbEntity
  8
0
  6
Continuous
 62
     0
370
    30
100
AcDbCircle
 10
342.498305
 20
493.537595
 30
0.0
 40
10.03275521737465
100
AcDbArc
 50
313.36572
 51
89.121782
  0
ARC
  5
C1
330
7B
100
AcDbEntity
  8
0
  6
Continuous
 62
     0
370
    30
100
AcDbCircle
 10
342.490958
 20
493.057633
 30
0.0
 40
7.000068965970454
100
AcDbArc
 50
358.846439
 51
179.356682
  0
LINE
  5
C2
330
7B
100
AcDbEntity
  8
0
  6
Continuous
 62
     0
370
    30
100
AcDbLine
 10
335.49133
 20
493.136228
 30
0.0
 11
335.192193
 21
473.621681
 31
0.0
  0
ARC
  5
C3
330
7B
100
AcDbEntity
  8
0
  6
Continuous
 62
     0
370
    30
100
AcDbCircle
 10
342.191242
 20
473.505907
 30
0.0
 40
7.000005141354119
100
AcDbArc
 50
359.191225
 51
179.052339
  0
ARC
  5
C4
330
7B
100
AcDbEntity
  8
0
  6
Continuous
 62
     0
370
    30
100
AcDbCircle
 10
342.191502
 20
473.522873
 30
0.0
 40
7.000005141354119
100
AcDbArc
 50
179.191225
 51
359.052339
  0
LINE
  5
C5
330
7B
100
AcDbEntity
  8
0
  6
Continuous
 62
     0
370
    30
100
AcDbLine
 10
355.012913
 20
391.737663
 30
0.0
 11
355.012913
 21
432.037823
 31
0.0
  0
LWPOLYLINE
  5
C6
330
7B
100
AcDbEntity
  8
0
  6
Continuous
 62
     0
370
    30
100
AcDbPolyline
 90
       52
 70
     0
 43
0.0
 10
335.184753
 20
473.135498
 10
335.19342
 20
472.824982
 10
335.225647
 20
472.314972
 10
335.284393
 20
471.817841
 10
335.370392
 20
471.39975
 10
335.482574
 20
471.010712
 10
335.619904
 20
470.610901
 10
335.781891
 20
470.205963
 10
335.96814
 20
469.810974
 10
336.17807
 20
469.433746
 10
336.410797
 20
469.072937
 10
336.665466
 20
468.726929
 10
336.94104
 20
468.396118
 10
337.236389
 20
468.082031
 10
337.550415
 20
467.786224
 10
337.881927
 20
467.510315
 10
338.229828
 20
467.255768
 10
338.592773
 20
467.023468
 10
338.96936
 20
466.814087
 10
339.358154
 20
466.628265
 10
339.757599
 20
466.466553
 10
340.166199
 20
466.32959
 10
340.582428
 20
466.217957
 10
341.004761
 20
466.132202
 10
341.43161
 20
466.072662
 10
341.861298
 20
466.03952
 10
342.292175
 20
466.032898
 10
342.722595
 20
466.052948
 10
343.150879
 20
466.099762
 10
343.57547
 20
466.172974
 10
343.994873
 20
466.272034
 10
344.407471
 20
466.396454
 10
344.811798
 20
466.545715
 10
345.206238
 20
466.71933
 10
345.589325
 20
466.916748
 10
345.959442
 20
467.137482
 10
346.315186
 20
467.380798
 10
346.655212
 20
467.645691
 10
346.978241
 20
467.931061
 10
347.282898
 20
468.23587
 10
347.567902
 20
468.559052
 10
347.832214
 20
468.899353
 10
348.075104
 20
469.255341
 10
348.295868
 20
469.625488
 10
348.493835
 20
470.008362
 10
348.668213
 20
470.402466
 10
348.81839
 20
470.806305
 10
348.943604
 20
471.218445
 10
349.043152
 20
471.63736
 10
349.116364
 20
472.061615
 10
349.162628
 20
472.489685
 10
349.182129
 20
472.927979
  0
LINE
  5
C7
330
7B
100
AcDbEntity
  8
0
  6
Continuous
 62
     0
370
    30
100
AcDbLine
 10
349.190603
 20
473.410645
 30
0.0
 11
349.489342
 21
492.899257
 31
0.0
  0
LINE
  5
C8
330
7B
100
AcDbEntity
  8
0
  6
Continuous
 62
     0
370
    30
100
AcDbLine
 10
358.513107
 20
525.737823
 30
0.0
 11
358.513107
 21
527.737823
 31
0.0
  0
LINE
  5
C9
330
7B
100
AcDbEntity
  8
0
  6
Continuous
 62
     0
370
    30
100
AcDbLine
 10
374.013107
 20
539.237823
 30
0.0
 11
374.013107
 21
558.737823
 31
0.0
  0
LINE
  5
CA
330
7B
100
AcDbEntity
  8
0
  6
Continuous
 62
     0
370
    30
100
AcDbLine
 10
311.013107
 20
539.237823
 30
0.0
 11
311.013107
 21
558.737823
 31
0.0
  0
LINE
  5
CB
330
7B
100
AcDbEntity
  8
0
  6
Continuous
 62
     0
370
    30
100
AcDbLine
 10
176.513107
 20
525.737823
 30
0.0
 11
176.513107
 21
527.737823
 31
0.0
  0
LINE
  5
CC
330
7B
100
AcDbEntity
  8
0
  6
Continuous
 62
     0
370
    30
100
AcDbLine
 10
161.013107
 20
539.237823
 30
0.0
 11
161.013107
 21
558.737823
 31
0.0
  0
LINE
  5
CD
330
7B
100
AcDbEntity
  8
0
  6
Continuous
 62
     0
370
    30
100
AcDbLine
 10
224.013107
 20
539.237823
 30
0.0
 11
224.013107
 21
558.737823
 31
0.0
  0
LINE
  5
CE
330
7B
100
AcDbEntity
  8
0
  6
Continuous
 62
     0
370
    30
100
AcDbLine
 10
379.312913
 20
471.837823
 30
0.0
 11
359.012913
 21
471.837823
 31
0.0
  0
LINE
  5
CF
330
7B
100
AcDbEntity
  8
0
  6
Continuous
 62
     0
370
    30
100
AcDbLine
 10
155.712913
 20
471.837823
 30
0.0
 11
326.012916
 21
471.837823
 31
0.0
  0
LINE
  5
D0
330
7B
100
AcDbEntity
  8
0
  6
Continuous
 62
     0
370
    30
100
AcDbLine
 10
176.513107
 20
519.237823
 30
0.0
 11
176.513107
 21
525.237823
 31
0.0
  0
LINE
  5
D1
330
7B
100
AcDbEntity
  8
0
  6
Continuous
 62
     0
370
    30
100
AcDbLine
 10
326.513107
 20
519.237823
 30
0.0
 11
326.513107
 21
525.237823
 31
0.0
  0
ARC
  5
D2
330
7B
100
AcDbEntity
  8
0
  6
Continuous
 62
     0
370
    30
100
AcDbCircle
 10
155.713104
 20
472.538014
 30
0.0
 40
0.7001906614068059
100
AcDbArc
 50
180.0156
 51
269.9844
  0
ARC
  5
D3
330
7B
100
AcDbEntity
  8
0
  6
Continuous
 62
     0
370
    30
100
AcDbCircle
 10
379.312722
 20
472.538014
 30
0.0
 40
0.700190661408245
100
AcDbArc
 50
270.0156
 51
359.9844
  0
ARC
  5
D4
330
7B
100
AcDbEntity
  8
0
  6
Continuous
 62
     0
370
    30
100
AcDbCircle
 10
326.012261
 20
467.837172
 30
0.0
 40
4.000654512301486
100
AcDbArc
 50
0.009381
 51
89.990617
  0
LINE
  5
D5
330
7B
100
AcDbEntity
  8
0
  6
Continuous
 62
     0
370
    30
100
AcDbLine
 10
330.012913
 20
391.292353
 30
0.0
 11
330.012913
 21
382.393846
 31
0.0
  0
LINE
  5
D6
330
7B
100
AcDbEntity
  8
0
  6
Continuous
 62
     0
370
    30
100
AcDbLine
 10
330.012913
 20
391.292353
 30
0.0
 11
330.012913
 21
432.037823
 31
0.0
  0
LINE
  5
D7
330
7B
100
AcDbEntity
  8
0
  6
Continuous
 62
     0
370
    30
100
AcDbLine
 10
330.012913
 20
467.837827
 30
0.0
 11
330.012913
 21
432.037823
 31
0.0
  0
LINE
  5
D8
330
7B
100
AcDbEntity
  8
0
  6
Continuous
 62
     0
370
    30
100
AcDbLine
 10
155.012913
 20
513.697501
 30
0.0
 11
152.909861
 21
513.260897
 31
0.0
  0
LINE
  5
D9
330
7B
100
AcDbEntity
  8
0
  6
Continuous
 62
     0
370
    30
100
AcDbLine
 10
155.012913
 20
473.378146
 30
0.0
 11
152.971243
 21
473.798712
 31
0.0
  0
ARC
  5
DA
330
7B
100
AcDbEntity
  8
0
  6
Continuous
 62
     0
370
    30
100
AcDbCircle
 10
209.02646
 20
493.538206
 30
0.0
 40
82.0552172275649
100
AcDbArc
 50
180.00162
 51
193.559512
  0
ARC
  5
DB
330
7B
100
AcDbEntity
  8
0
  6
Continuous
 62
     0
370
    30
100
AcDbCircle
 10
209.02646
 20
493.537441
 30
0.0
 40
82.05521722866584
100
AcDbArc
 50
166.440488
 51
179.99838
  0
ARC
  5
DC
330
7B
100
AcDbEntity
  8
0
  6
Continuous
 62
     0
370
    30
100
AcDbCircle
 10
152.971388
 20
639.963455
 30
0.0
 40
168.1756319221171
100
AcDbArc
 50
262.268739
 51
269.999951
  0
ARC
  5
DD
330
7B
100
AcDbEntity
  8
0
  6
Continuous
 62
     0
370
    30
100
AcDbCircle
 10
152.97464
 20
347.064205
 30
0.0
 40
168.2236196609007
100
AcDbArc
 50
90.024211
 51
97.73016
  0
ARC
  5
DE
330
7B
100
AcDbEntity
  8
0
  6
Continuous
 62
     0
370
    30
100
AcDbCircle
 10
130.523289
 20
512.469583
 30
0.0
 40
1.301420143478128
100
AcDbArc
 50
97.774007
 51
166.397135
  0
ARC
  5
DF
330
7B
100
AcDbEntity
  8
0
  6
Continuous
 62
     0
370
    30
100
AcDbCircle
 10
130.52329
 20
474.606057
 30
0.0
 40
1.301420319545005
100
AcDbArc
 50
193.602853
 51
262.225984
  0
ENDBLK
  5
E1
330
7B
100
AcDbEntity
  8
0
100
AcDbBlockEnd
  0
BLOCK
  5
123
330
E3
100
AcDbEntity
  8
0
100
AcDbBlockBegin
  2
b
 70
     0
 10
92.584801
 20
94.536774
 30
0.0
  3
b
  1

  0
LINE
  5
E4
330
E3
100
AcDbEntity
  8
0
  6
Continuous
 62
     0
370
    30
100
AcDbLine
 10
152.971227
 20
242.482586
 30
0.0
 11
152.971227
 21
220.877742
 31
0.0
  0
LINE
  5
E5
330
E3
100
AcDbEntity
  8
0
  6
Continuous
 62
     0
370
     0
100
AcDbLine
 10
129.258359
 20
239.478761
 30
0.0
 11
129.258359
 21
201.494696
 31
0.0
  0
LINE
  5
E6
330
E3
100
AcDbEntity
  8
0
  6
Continuous
 62
     0
370
     0
100
AcDbLine
 10
130.347236
 20
240.483996
 30
0.0
 11
130.347236
 21
200.511311
 31
0.0
  0
ARC
  5
E7
330
E3
100
AcDbEntity
  8
0
  6
Continuous
 62
     0
370
    30
100
AcDbCircle
 10
130.55969
 20
239.161541
 30
0.0
 40
1.33943711465146
100
AcDbArc
 50
99.126356
 51
166.30018
  0
LWPOLYLINE
  5
E8
330
E3
100
AcDbEntity
  8
0
  6
Continuous
 62
     0
370
    30
100
AcDbPolyline
 90
       43
 70
     0
 43
0.0
 10
145.523514
 20
204.664368
 10
145.170044
 20
203.912399
 10
144.838364
 20
203.207474
 10
144.529816
 20
202.552444
 10
144.245712
 20
201.950104
 10
143.98735
 20
201.403198
 10
143.75589
 20
200.914215
 10
143.55249
 20
200.48558
 10
143.378143
 20
200.119476
 10
143.233673
 20
199.817566
 10
143.119858
 20
199.581512
 10
143.037399
 20
199.412827
 10
142.98671
 20
199.312317
 10
142.968002
 20
199.280411
 10
142.981476
 20
199.317535
 10
143.027039
 20
199.423447
 10
143.104355
 20
199.597366
 10
143.213074
 20
199.838562
 10
143.352646
 20
200.145798
 10
143.522232
 20
200.517242
 10
143.720978
 20
200.95105
 10
143.947983
 20
201.445251
 10
144.202087
 20
201.99736
 10
144.482071
 20
202.604706
 10
144.786697
 20
203.264633
 10
145.114716
 20
203.974457
 10
145.464767
 20
204.731232
 10
145.83548
 20
205.531998
 10
146.225464
 20
206.373764
 10
146.633362
 20
207.253586
 10
147.05777
 20
208.168503
 10
147.497345
 20
209.115555
 10
147.950699
 20
210.091827
 10
148.416534
 20
211.094467
 10
148.893524
 20
212.120651
 10
149.380341
 20
213.167572
 10
149.875748
 20
214.232483
 10
150.378464
 20
215.312683
 10
150.887238
 20
216.405518
 10
151.400848
 20
217.508331
 10
151.918091
 20
218.618546
 10
152.437805
 20
219.733643
 10
152.971222
 20
220.877747
  0
LINE
  5
E9
330
E3
100
AcDbEntity
  8
0
  6
Continuous
 62
     0
370
    30
100
AcDbLine
 10
130.347252
 20
240.483975
 30
0.0
 11
134.181021
 21
241.429103
 31
0.0
  0
ARC
  5
EA
330
E3
100
AcDbEntity
  8
0
  6
Continuous
 62
     0
370
    30
100
AcDbCircle
 10
209.019587
 20
220.732586
 30
0.0
 40
82.04835948481116
100
AcDbArc
 50
174.613656
 51
180.0
  0
LWPOLYLINE
  5
EB
330
E3
100
AcDbEntity
  8
0
  6
Continuous
 62
     0
370
    30
100
AcDbPolyline
 90
       38
 70
     0
 43
0.0
 10
129.258362
 20
239.47876
 10
129.180023
 20
239.147141
 10
129.102936
 20
238.81546
 10
129.027069
 20
238.483795
 10
128.952484
 20
238.152176
 10
128.879166
 20
237.820663
 10
128.807129
 20
237.489334
 10
128.736404
 20
237.158218
 10
128.666992
 20
236.827393
 10
128.598892
 20
236.496887
 10
128.53215
 20
236.166763
 10
128.466721
 20
235.837067
 10
128.402649
 20
235.507858
 10
128.339935
 20
235.179184
 10
128.27858
 20
234.851089
 10
128.218597
 20
234.523697
 10
128.160004
 20
234.197083
 10
128.102798
 20
233.871353
 10
128.046997
 20
233.546616
 10
127.992622
 20
233.222977
 10
127.939667
 20
232.900589
 10
127.888168
 20
232.57962
 10
127.838127
 20
232.260284
 10
127.789581
 20
231.942886
 10
127.742554
 20
231.627701
 10
127.697067
 20
231.315079
 10
127.653175
 20
231.005508
 10
127.610916
 20
230.699585
 10
127.570381
 20
230.398239
 10
127.531662
 20
230.102524
 10
127.494881
 20
229.813843
 10
127.460258
 20
229.534653
 10
127.428093
 20
229.268082
 10
127.398842
 20
229.01918
 10
127.373276
 20
228.795975
 10
127.3526
 20
228.611084
 10
127.338654
 20
228.483429
 10
127.333527
 20
228.434555
  0
ARC
  5
EC
330
E3
100
AcDbEntity
  8
0
  6
Continuous
 62
     0
370
    30
100
AcDbCircle
 10
130.575935
 20
235.959544
 30
0.0
 40
15.00025149948586
100
AcDbArc
 50
99.999774
 51
112.984186
  0
LINE
  5
ED
330
E3
100
AcDbEntity
  8
0
  6
Continuous
 62
     0
370
     0
100
AcDbLine
 10
131.579257
 20
250.926233
 30
0.0
 11
124.514339
 21
249.680469
 31
0.0
  0
LINE
  5
EE
330
E3
100
AcDbEntity
  8
0
  6
Continuous
 62
     0
370
    30
100
AcDbLine
 10
123.817494
 20
248.374494
 30
0.0
 11
127.333523
 21
228.434549
 31
0.0
  0
LINE
  5
EF
330
E3
100
AcDbEntity
  8
0
  6
Continuous
 62
     0
370
     0
100
AcDbLine
 10
132.680761
 20
249.937327
 30
0.0
 11
123.8175
 21
248.37446
 31
0.0
  0
LINE
  5
F0
330
E3
100
AcDbEntity
  8
0
  6
Continuous
 62
     0
370
    30
100
AcDbLine
 10
355.012898
 20
191.818842
 30
0.0
 11
355.012898
 21
176.947308
 31
0.0
  0
ARC
  5
F1
330
E3
100
AcDbEntity
  8
0
  6
Continuous
 62
     0
370
    30
100
AcDbCircle
 10
333.929478
 20
177.348139
 30
0.0
 40
3.937037517364868
100
AcDbArc
 50
185.843423
 51
243.242985
  0
ARC
  5
F2
330
E3
100
AcDbEntity
  8
0
  6
Continuous
 62
     0
370
    30
100
AcDbCircle
 10
351.076548
 20
177.356535
 30
0.0
 40
3.957564878790423
100
AcDbArc
 50
296.438795
 51
354.064793
  0
LINE
  5
F3
330
E3
100
AcDbEntity
  8
0
  6
Continuous
 62
     0
370
    30
100
AcDbLine
 10
155.012898
 20
220.732585
 30
0.0
 11
155.012898
 21
241.732586
 31
0.0
  0
LINE
  5
F4
330
E3
100
AcDbEntity
  8
0
  6
Continuous
 62
     0
370
    30
100
AcDbLine
 10
155.012898
 20
199.732586
 30
0.0
 11
155.012898
 21
220.732585
 31
0.0
  0
LINE
  5
F5
330
E3
100
AcDbEntity
  8
0
  6
Continuous
 62
     0
370
    30
100
AcDbLine
 10
380.012898
 20
220.732585
 30
0.0
 11
380.012898
 21
241.732586
 31
0.0
  0
LINE
  5
F6
330
E3
100
AcDbEntity
  8
0
  6
Continuous
 62
     0
370
    30
100
AcDbLine
 10
380.012898
 20
199.732586
 30
0.0
 11
380.012898
 21
220.732585
 31
0.0
  0
LINE
  5
F7
330
E3
100
AcDbEntity
  8
0
  6
Continuous
 62
     0
370
     0
100
AcDbLine
 10
379.312898
 20
220.732585
 30
0.0
 11
379.312898
 21
199.032586
 31
0.0
  0
LINE
  5
F8
330
E3
100
AcDbEntity
  8
0
  6
Continuous
 62
     0
370
     0
100
AcDbLine
 10
379.312898
 20
242.432586
 30
0.0
 11
379.312898
 21
220.732585
 31
0.0
  0
LINE
  5
F9
330
E3
100
AcDbEntity
  8
0
  6
Continuous
 62
     0
370
     0
100
AcDbLine
 10
155.712898
 20
242.432586
 30
0.0
 11
155.712898
 21
220.732585
 31
0.0
  0
LINE
  5
FA
330
E3
100
AcDbEntity
  8
0
  6
Continuous
 62
     0
370
     0
100
AcDbLine
 10
155.712898
 20
220.732585
 30
0.0
 11
155.712898
 21
199.032586
 31
0.0
  0
LINE
  5
FB
330
E3
100
AcDbEntity
  8
0
  6
Continuous
 62
     0
370
     0
100
AcDbLine
 10
340.168365
 20
263.356318
 30
0.0
 11
351.498291
 21
263.356317
 31
0.0
  0
LINE
  5
FC
330
E3
100
AcDbEntity
  8
0
  6
Continuous
 62
     0
370
     0
100
AcDbLine
 10
333.498292
 20
263.356318
 30
0.0
 11
340.168365
 21
263.356318
 31
0.0
  0
LINE
  5
FD
330
E3
100
AcDbEntity
  8
0
  6
Continuous
 62
     0
370
    30
100
AcDbLine
 10
340.220141
 20
263.556318
 30
0.0
 11
351.298291
 21
263.556317
 31
0.0
  0
LINE
  5
FE
330
E3
100
AcDbEntity
  8
0
  6
Continuous
 62
     0
370
    30
100
AcDbLine
 10
333.698292
 20
263.556318
 30
0.0
 11
340.220141
 21
263.556318
 31
0.0
  0
ARC
  5
FF
330
E3
100
AcDbEntity
  8
0
  6
Continuous
 62
     0
370
    30
100
AcDbCircle
 10
192.513092
 20
220.732583
 30
0.0
 40
31.5
100
AcDbArc
 50
177.773501
 51
357.773501
  0
ARC
  5
100
330
E3
100
AcDbEntity
  8
0
  6
Continuous
 62
     0
370
    30
100
AcDbCircle
 10
192.513092
 20
220.732583
 30
0.0
 40
31.5
100
AcDbArc
 50
357.773501
 51
177.773501
  0
ARC
  5
101
330
E3
100
AcDbEntity
  8
0
  6
Continuous
 62
     0
370
    30
100
AcDbCircle
 10
342.513092
 20
220.732583
 30
0.0
 40
31.5
100
AcDbArc
 50
183.440176
 51
3.440176
  0
ARC
  5
102
330
E3
100
AcDbEntity
  8
0
  6
Continuous
 62
     0
370
    30
100
AcDbCircle
 10
342.513092
 20
220.732583
 30
0.0
 40
31.5
100
AcDbArc
 50
3.440176
 51
183.440176
  0
LINE
  5
103
330
E3
100
AcDbEntity
  8
0
  6
Continuous
 62
     0
370
    30
100
AcDbLine
 10
332.465535
 20
167.524064
 30
0.0
 11
342.652064
 21
167.524063
 31
0.0
  0
LINE
  5
104
330
E3
100
AcDbEntity
  8
0
  6
Continuous
 62
     0
370
    30
100
AcDbLine
 10
342.652064
 20
167.524063
 30
0.0
 11
352.531045
 21
167.524063
 31
0.0
  0
ARC
  5
105
330
E3
100
AcDbEntity
  8
0
  6
Continuous
 62
     0
370
    30
100
AcDbCircle
 10
342.191359
 20
17.680415
 30
0.0
 40
71.27078283085513
100
AcDbArc
 50
84.364161
 51
95.635842
  0
ARC
  5
106
330
E3
100
AcDbEntity
  8
0
  6
Continuous
 62
     0
370
    30
100
AcDbCircle
 10
342.191354
 20
159.532958
 30
0.0
 40
71.27078283086276
100
AcDbArc
 50
264.364161
 51
275.635842
  0
LWPOLYLINE
  5
107
330
E3
100
AcDbEntity
  8
0
  6
Continuous
 62
     0
370
    30
100
AcDbPolyline
 90
       38
 70
     0
 43
0.0
 10
335.191345
 20
88.601395
 10
335.189545
 20
90.855156
 10
335.187988
 20
93.109802
 10
335.186707
 20
95.365219
 10
335.185699
 20
97.621269
 10
335.184906
 20
99.877846
 10
335.184357
 20
102.134819
 10
335.184052
 20
104.392059
 10
335.184052
 20
106.649284
 10
335.184387
 20
108.906166
 10
335.18515
 20
111.162376
 10
335.186401
 20
113.417587
 10
335.188202
 20
115.671211
 10
335.190704
 20
117.922211
 10
335.194
 20
120.169518
 10
335.198181
 20
122.411659
 10
335.20343
 20
124.64444
 10
335.209869
 20
126.86248
 10
335.217651
 20
129.06041
 10
335.226959
 20
131.232834
 10
335.237885
 20
133.373962
 10
335.250549
 20
135.475754
 10
335.264954
 20
137.530167
 10
335.280975
 20
139.531906
 10
335.298553
 20
141.476776
 10
335.317383
 20
143.369843
 10
335.337097
 20
145.225845
 10
335.35733
 20
147.059982
 10
335.377716
 20
148.888
 10
335.397675
 20
150.730743
 10
335.416687
 20
152.611694
 10
335.434143
 20
154.554367
 10
335.449554
 20
156.573257
 10
335.462494
 20
158.663437
 10
335.472778
 20
160.815689
 10
335.480621
 20
163.013626
 10
335.48645
 20
165.239349
 10
335.490479
 20
167.524078
  0
LWPOLYLINE
  5
108
330
E3
100
AcDbEntity
  8
0
  6
Continuous
 62
     0
370
    30
100
AcDbPolyline
 90
       37
 70
     0
 43
0.0
 10
349.191345
 20
88.611969
 10
349.189484
 20
90.929253
 10
349.187927
 20
93.247475
 10
349.186615
 20
95.566498
 10
349.185577
 20
97.886185
 10
349.184814
 20
100.20639
 10
349.184296
 20
102.526962
 10
349.184021
 20
104.847748
 10
349.184082
 20
107.168449
 10
349.18454
 20
109.488762
 10
349.185455
 20
111.808372
 10
349.18692
 20
114.126938
 10
349.188995
 20
116.443504
 10
349.191833
 20
118.756615
 10
349.195587
 20
121.064819
 10
349.200317
 20
123.365517
 10
349.206238
 20
125.653778
 10
349.213531
 20
127.924339
 10
349.222321
 20
130.171875
 10
349.232819
 20
132.388809
 10
349.245117
 20
134.56543
 10
349.259247
 20
136.69397
 10
349.275116
 20
138.768631
 10
349.292664
 20
140.783768
 10
349.311646
 20
142.740082
 10
349.331696
 20
144.653137
 10
349.352417
 20
146.540588
 10
349.373383
 20
148.420288
 10
349.394043
 20
150.313568
 10
349.413788
 20
152.244751
 10
349.431976
 20
154.238281
 10
349.448059
 20
156.311096
 10
349.461578
 20
158.45845
 10
349.47229
 20
160.670303
 10
349.480438
 20
162.92984
 10
349.48645
 20
165.21843
 10
349.490509
 20
167.524063
  0
LINE
  5
109
330
E3
100
AcDbEntity
  8
0
  6
Continuous
 62
     0
370
    30
100
AcDbLine
 10
353.693068
 20
191.283339
 30
0.0
 11
352.531045
 21
167.524063
 31
0.0
  0
LINE
  5
10A
330
E3
100
AcDbEntity
  8
0
  6
Continuous
 62
     0
370
    30
100
AcDbLine
 10
331.302952
 20
191.294808
 30
0.0
 11
332.465535
 21
167.524064
 31
0.0
  0
LINE
  5
10B
330
E3
100
AcDbEntity
  8
0
  6
Continuous
 62
     0
370
    30
100
AcDbLine
 10
351.498291
 20
263.356317
 30
0.0
 11
351.498291
 21
250.923913
 31
0.0
  0
LINE
  5
10C
330
E3
100
AcDbEntity
  8
0
  6
Continuous
 62
     0
370
    30
100
AcDbLine
 10
333.498292
 20
263.356318
 30
0.0
 11
333.498291
 21
250.915087
 31
0.0
  0
LINE
  5
10D
330
E3
100
AcDbEntity
  8
0
  6
Continuous
 62
     0
370
    30
100
AcDbLine
 10
379.312898
 20
242.432586
 30
0.0
 11
365.346401
 21
242.432586
 31
0.0
  0
LINE
  5
10E
330
E3
100
AcDbEntity
  8
0
  6
Continuous
 62
     0
370
    30
100
AcDbLine
 10
379.312898
 20
199.032586
 30
0.0
 11
365.346401
 21
199.032586
 31
0.0
  0
LINE
  5
10F
330
E3
100
AcDbEntity
  8
0
  6
Continuous
 62
     0
370
    30
100
AcDbLine
 10
215.346401
 20
199.032586
 30
0.0
 11
319.679783
 21
199.032586
 31
0.0
  0
LINE
  5
110
330
E3
100
AcDbEntity
  8
0
  6
Continuous
 62
     0
370
    30
100
AcDbLine
 10
155.712898
 20
199.032586
 30
0.0
 11
169.679783
 21
199.032586
 31
0.0
  0
LINE
  5
111
330
E3
100
AcDbEntity
  8
0
  6
Continuous
 62
     0
370
    30
100
AcDbLine
 10
215.346401
 20
242.432586
 30
0.0
 11
319.679783
 21
242.432586
 31
0.0
  0
LINE
  5
112
330
E3
100
AcDbEntity
  8
0
  6
Continuous
 62
     0
370
    30
100
AcDbLine
 10
155.712898
 20
242.432586
 30
0.0
 11
169.679783
 21
242.432586
 31
0.0
  0
ARC
  5
113
330
E3
100
AcDbEntity
  8
0
  6
Continuous
 62
     0
370
    30
100
AcDbCircle
 10
155.713088
 20
241.732396
 30
0.0
 40
0.7001899619946128
100
AcDbArc
 50
90.015542
 51
179.981144
  0
ARC
  5
114
330
E3
100
AcDbEntity
  8
0
  6
Continuous
 62
     0
370
    30
100
AcDbCircle
 10
155.713088
 20
199.732776
 30
0.0
 40
0.7001899619955118
100
AcDbArc
 50
180.018856
 51
269.984458
  0
ARC
  5
115
330
E3
100
AcDbEntity
  8
0
  6
Continuous
 62
     0
370
    30
100
AcDbCircle
 10
379.312708
 20
241.732396
 30
0.0
 40
0.7001899619911922
100
AcDbArc
 50
0.018856
 51
89.984458
  0
ARC
  5
116
330
E3
100
AcDbEntity
  8
0
  6
Continuous
 62
     0
370
    30
100
AcDbCircle
 10
379.312708
 20
199.732776
 30
0.0
 40
0.7001899619758702
100
AcDbArc
 50
270.015542
 51
359.981144
  0
LINE
  5
117
330
E3
100
AcDbEntity
  8
0
  6
Continuous
 62
     0
370
    30
100
AcDbLine
 10
330.012898
 20
191.81901
 30
0.0
 11
330.012898
 21
176.947308
 31
0.0
  0
LINE
  5
118
330
E3
100
AcDbEntity
  8
0
  6
Continuous
 62
     0
370
    30
100
AcDbLine
 10
155.012898
 20
240.892263
 30
0.0
 11
152.971227
 21
240.471697
 31
0.0
  0
ARC
  5
119
330
E3
100
AcDbEntity
  8
0
  6
Continuous
 62
     0
370
    30
100
AcDbCircle
 10
158.124311
 20
220.839402
 30
0.0
 40
20.50394202555637
100
AcDbArc
 50
231.962694
 51
261.271814
  0
ARC
  5
11A
330
E3
100
AcDbEntity
  8
0
  6
Continuous
 62
     0
370
    30
100
AcDbCircle
 10
131.497617
 20
249.727748
 30
0.0
 40
1.201563008395143
100
AcDbArc
 50
10.044989
 51
86.165444
  0
LINE
  5
11B
330
E3
100
AcDbEntity
  8
0
  6
Continuous
 62
     0
370
    30
100
AcDbLine
 10
123.817497
 20
248.37446
 30
0.0
 11
123.799347
 21
248.58304
 31
0.0
  0
LINE
  5
11C
330
E3
100
AcDbEntity
  8
0
  6
Continuous
 62
     0
370
    30
100
AcDbLine
 10
123.799347
 20
248.582863
 30
0.0
 11
123.815179
 21
248.777678
 31
0.0
  0
LINE
  5
11D
330
E3
100
AcDbEntity
  8
0
  6
Continuous
 62
     0
370
    30
100
AcDbLine
 10
134.18102
 20
241.42912
 30
0.0
 11
132.680761
 21
249.937327
 31
0.0
  0
ARC
  5
11E
330
E3
100
AcDbEntity
  8
0
  6
Continuous
 62
     0
370
    30
100
AcDbCircle
 10
130.577654
 20
235.926109
 30
0.0
 40
15.03383226697762
100
AcDbArc
 50
86.185163
 51
99.550625
  0
ARC
  5
11F
330
E3
100
AcDbEntity
  8
0
  6
Continuous
 62
     0
370
    30
100
AcDbCircle
 10
209.026445
 20
220.732968
 30
0.0
 40
82.05521722867323
100
AcDbArc
 50
180.00162
 51
193.559512
  0
ARC
  5
120
330
E3
100
AcDbEntity
  8
0
  6
Continuous
 62
     0
370
    30
100
AcDbCircle
 10
153.108413
 20
368.562603
 30
0.0
 40
169.5856951355529
100
AcDbArc
 50
262.286691
 51
266.571871
  0
ARC
  5
121
330
E3
100
AcDbEntity
  8
0
  6
Continuous
 62
     0
370
    30
100
AcDbCircle
 10
152.971237
 20
74.308934
 30
0.0
 40
168.17365169772
100
AcDbArc
 50
90.000003
 51
96.415843
  0
ARC
  5
122
330
E3
100
AcDbEntity
  8
0
  6
Continuous
 62
     0
370
    30
100
AcDbCircle
 10
130.523276
 20
201.800772
 30
0.0
 40
1.301421508305497
100
AcDbArc
 50
193.60278
 51
262.225922
  0
ENDBLK
  5
124
330
E3
100
AcDbEntity
  8
0
100
AcDbBlockEnd
  0
BLOCK
  5
17D
330
126
100
AcDbEntity
  8
0
100
AcDbBlockBegin
  2
c
 70
     0
 10
92.584801
 20
94.536774
 30
0.0
  3
c
  1

  0
ARC
  5
127
330
126
100
AcDbEntity
  8
0
  6
Continuous
 62
     0
370
    30
100
AcDbCircle
 10
482.938089
 20
493.537823
 30
0.0
 40
21.75
100
AcDbArc
 50
90.382389
 51
168.441845
  0
ARC
  5
128
330
126
100
AcDbEntity
  8
0
  6
Continuous
 62
     0
370
    30
100
AcDbCircle
 10
482.938089
 20
493.537823
 30
0.0
 40
21.75
100
AcDbArc
 50
192.322933
 51
270.382389
  0
ARC
  5
129
330
126
100
AcDbEntity
  8
0
  6
Continuous
 62
     0
370
     0
100
AcDbCircle
 10
482.93809
 20
493.537823
 30
0.0
 40
19.2378900294556
100
AcDbArc
 50
193.746936
 51
167.017897
  0
LINE
  5
12A
330
126
100
AcDbEntity
  8
0
  6
Continuous
 62
     0
370
    30
100
AcDbLine
 10
464.251217
 20
488.966479
 30
0.0
 11
463.45377
 21
488.907768
 31
0.0
  0
ARC
  5
12B
330
126
100
AcDbEntity
  8
0
  6
Continuous
 62
     0
370
     0
100
AcDbCircle
 10
482.93809
 20
493.537823
 30
0.0
 40
20.22127512455449
100
AcDbArc
 50
193.140492
 51
167.624456
  0
LINE
  5
12C
330
126
100
AcDbEntity
  8
0
  6
Continuous
 62
     0
370
    30
100
AcDbLine
 10
463.368056
 20
497.907059
 30
0.0
 11
464.191909
 21
497.859441
 31
0.0
  0
ARC
  5
12D
330
126
100
AcDbEntity
  8
0
  6
Continuous
 62
     0
370
    30
100
AcDbCircle
 10
482.638245
 20
493.535822
 30
0.0
 40
21.75206680818724
100
AcDbArc
 50
271.172232
 51
89.592546
  0
LWPOLYLINE
  5
12E
330
126
100
AcDbEntity
  8
0
  6
Continuous
 62
     0
370
    30
100
AcDbPolyline
 90
       39
 70
     0
 43
0.0
 10
475.236115
 20
493.48642
 10
475.195679
 20
493.15744
 10
475.079468
 20
492.846985
 10
474.907104
 20
492.563873
 10
474.696625
 20
492.308105
 10
474.460236
 20
492.076263
 10
474.206085
 20
491.864532
 10
473.938812
 20
491.669769
 10
473.661987
 20
491.489288
 10
473.377899
 20
491.320984
 10
473.087921
 20
491.1633
 10
472.793304
 20
491.014923
 10
472.494904
 20
490.874878
 10
472.193298
 20
490.74231
 10
471.889008
 20
490.616577
 10
471.582367
 20
490.497131
 10
471.273773
 20
490.383484
 10
470.96347
 20
490.275269
 10
470.651611
 20
490.17218
 10
470.33847
 20
490.073914
 10
470.024139
 20
489.980255
 10
469.70871
 20
489.891022
 10
469.392365
 20
489.806122
 10
469.075134
 20
489.725372
 10
468.757141
 20
489.648651
 10
468.438507
 20
489.575806
 10
468.119293
 20
489.506805
 10
467.79953
 20
489.441589
 10
467.479248
 20
489.380096
 10
467.158508
 20
489.322327
 10
466.837402
 20
489.268219
 10
466.51593
 20
489.217712
 10
466.194153
 20
489.170837
 10
465.872131
 20
489.127594
 10
465.549896
 20
489.087982
 10
465.227509
 20
489.052094
 10
464.905029
 20
489.019958
 10
464.582489
 20
488.991547
 10
464.251251
 20
488.96637
  0
LWPOLYLINE
  5
12F
330
126
100
AcDbEntity
  8
0
  6
Continuous
 62
     0
370
    30
100
AcDbPolyline
 90
       39
 70
     0
 43
0.0
 10
464.191895
 20
497.859467
 10
464.51474
 20
497.839264
 10
464.837646
 20
497.815277
 10
465.160553
 20
497.787537
 10
465.483398
 20
497.756042
 10
465.806152
 20
497.720856
 10
466.128723
 20
497.682007
 10
466.451111
 20
497.639526
 10
466.773254
 20
497.593414
 10
467.095093
 20
497.543701
 10
467.416565
 20
497.490295
 10
467.73764
 20
497.433197
 10
468.058289
 20
497.372345
 10
468.378448
 20
497.307709
 10
468.698059
 20
497.239258
 10
469.017059
 20
497.16687
 10
469.335358
 20
497.090424
 10
469.652863
 20
497.009827
 10
469.969452
 20
496.924927
 10
470.285065
 20
496.835632
 10
470.599579
 20
496.741669
 10
470.912811
 20
496.642883
 10
471.224609
 20
496.539001
 10
471.53479
 20
496.429626
 10
471.843018
 20
496.314423
 10
472.149017
 20
496.192871
 10
472.452454
 20
496.064545
 10
472.752838
 20
495.928711
 10
473.049561
 20
495.784515
 10
473.341675
 20
495.630951
 10
473.628204
 20
495.466736
 10
473.907684
 20
495.290344
 10
474.177673
 20
495.099487
 10
474.435181
 20
494.891663
 10
474.67511
 20
494.663544
 10
474.889771
 20
494.411255
 10
475.067047
 20
494.131195
 10
475.189117
 20
493.822937
 10
475.236115
 20
493.48642
  0
ELLIPSE
  5
130
330
126
100
AcDbEntity
  8
0
  6
Continuous
 62
     0
370
     0
100
AcDbEllipse
 10
453.367325
 20
493.340467
 30
0.0
 11
-0.02393899440090385
 21
3.586876598167746
 31
0.0
210
0.0
220
0.0
230
-1.0
 40
0.173648
 41
5.48516635217943
 42
7.853981634270689
  0
ELLIPSE
  5
131
330
126
100
AcDbEntity
  8
0
  6
Continuous
 62
     0
370
     0
100
AcDbEllipse
 10
453.367325
 20
493.340467
 30
0.0
 11
-0.02393899440090385
 21
3.586876598167746
 31
0.0
210
0.0
220
0.0
230
-1.0
 40
0.173648
 41
1.570796327091123
 42
3.97524561855328
  0
ELLIPSE
  5
132
330
126
100
AcDbEntity
  8
0
  6
Continuous
 62
     0
370
     0
100
AcDbEllipse
 10
454.514783
 20
493.348125
 30
0.0
 11
-0.03003255694222935
 21
4.499899781719966
 31
0.0
210
0.0
220
0.0
230
-1.0
 40
0.173648
 41
1.570796327091122
 42
3.141629313963613
  0
ELLIPSE
  5
133
330
126
100
AcDbEntity
  8
0
  6
Continuous
 62
     0
370
     0
100
AcDbEllipse
 10
454.514783
 20
493.348125
 30
0.0
 11
-0.03003255694222935
 21
4.499899781719966
 31
0.0
210
0.0
220
0.0
230
-1.0
 40
0.173648
 41
6.283160946283686
 42
7.853981634270686
  0
LINE
  5
134
330
126
100
AcDbEntity
  8
0
  6
Continuous
 62
     0
370
     0
100
AcDbLine
 10
482.938081
 20
432.037823
 30
0.0
 11
470.438081
 21
432.037823
 31
0.0
  0
LINE
  5
135
330
126
100
AcDbEntity
  8
0
  6
Continuous
 62
     0
370
     0
100
AcDbLine
 10
495.438081
 20
432.037823
 30
0.0
 11
482.938081
 21
432.037823
 31
0.0
  0
LWPOLYLINE
  5
136
330
126
100
AcDbEntity
  8
0
  6
Continuous
 62
     0
370
     0
100
AcDbPolyline
 90
       27
 70
     0
 43
0.0
 10
482.93808
 20
467.83783
 10
483.733795
 20
467.859619
 10
484.524231
 20
467.923828
 10
485.304169
 20
468.028625
 10
486.068359
 20
468.17218
 10
486.812622
 20
468.35199
 10
487.534363
 20
468.564423
 10
488.23111
 20
468.805847
 10
488.900482
 20
469.072571
 10
489.541199
 20
469.360962
 10
490.15274
 20
469.667419
 10
490.734589
 20
469.988373
 10
491.286255
 20
470.320221
 10
491.807465
 20
470.659424
 10
492.298004
 20
471.002533
 10
492.75769
 20
471.346039
 10
493.186127
 20
471.686249
 10
493.582458
 20
472.01889
 10
493.945648
 20
472.339569
 10
494.27475
 20
472.64389
 10
494.568146
 20
472.926758
 10
494.823364
 20
473.181946
 10
495.03775
 20
473.403229
 10
495.20874
 20
473.584351
 10
495.333862
 20
473.719604
 10
495.410828
 20
473.803894
 10
495.43808
 20
473.834015
  0
LWPOLYLINE
  5
137
330
126
100
AcDbEntity
  8
0
  6
Continuous
 62
     0
370
     0
100
AcDbPolyline
 90
       27
 70
     0
 43
0.0
 10
470.43808
 20
473.834015
 10
470.463348
 20
473.805969
 10
470.538391
 20
473.723724
 10
470.661682
 20
473.590454
 10
470.830963
 20
473.411133
 10
471.043701
 20
473.191315
 10
471.297333
 20
472.937286
 10
471.589294
 20
472.655334
 10
471.917053
 20
472.351715
 10
472.278931
 20
472.031616
 10
472.673981
 20
471.699371
 10
473.101196
 20
471.359375
 10
473.559662
 20
471.015961
 10
474.049011
 20
470.672791
 10
474.569
 20
470.333374
 10
475.119476
 20
470.00119
 10
475.700134
 20
469.679749
 10
476.310516
 20
469.37262
 10
476.950104
 20
469.083435
 10
477.618347
 20
468.815796
 10
478.314056
 20
468.573334
 10
479.034851
 20
468.35968
 10
479.77829
 20
468.178558
 10
480.541718
 20
468.033508
 10
481.321136
 20
467.927185
 10
482.111237
 20
467.861359
 10
482.93808
 20
467.83783
  0
LINE
  5
138
330
126
100
AcDbEntity
  8
0
  6
Continuous
 62
     0
370
     0
100
AcDbLine
 10
503.250443
 20
380.097756
 30
0.0
 11
508.81201
 21
391.292353
 31
0.0
  0
LINE
  5
139
330
126
100
AcDbEntity
  8
0
  6
Continuous
 62
     0
370
     0
100
AcDbLine
 10
508.81201
 20
391.292353
 30
0.0
 11
514.373576
 21
402.486949
 31
0.0
  0
LINE
  5
13A
330
126
100
AcDbEntity
  8
0
  6
Continuous
 62
     0
370
    30
100
AcDbLine
 10
526.723364
 20
382.393846
 30
0.0
 11
521.161797
 21
371.19925
 31
0.0
  0
LWPOLYLINE
  5
13B
330
126
100
AcDbEntity
  8
0
  6
Continuous
 62
     0
370
    30
100
AcDbPolyline
 90
       21
 70
     0
 43
0.0
 10
532.284912
 20
393.58844
 10
532.27063
 20
393.559662
 10
532.226257
 20
393.470306
 10
532.14978
 20
393.316345
 10
532.039551
 20
393.094574
 10
531.894592
 20
392.802795
 10
531.714417
 20
392.440125
 10
531.499207
 20
392.006958
 10
531.249939
 20
391.505219
 10
530.968323
 20
390.938293
 10
530.656677
 20
390.311035
 10
530.318115
 20
389.629547
 10
529.956177
 20
388.901062
 10
529.574951
 20
388.133698
 10
529.178711
 20
387.33609
 10
528.771851
 20
386.517181
 10
528.358826
 20
385.685822
 10
527.943848
 20
384.850555
 10
527.530945
 20
384.019348
 10
527.123596
 20
383.199463
 10
526.723389
 20
382.39386
  0
ARC
  5
13C
330
126
100
AcDbEntity
  8
0
  6
Continuous
 62
     0
370
    30
100
AcDbCircle
 10
482.938089
 20
493.537823
 30
0.0
 40
21.7
100
AcDbArc
 50
294.287173
 51
66.477285
  0
LWPOLYLINE
  5
13D
330
126
100
AcDbEntity
  8
0
  6
Continuous
 62
     0
370
     0
100
AcDbPolyline
 90
       34
 70
     0
 43
0.0
 10
482.93808
 20
519.237854
 10
482.115143
 20
519.216858
 10
481.294464
 20
519.154602
 10
480.479675
 20
519.052307
 10
479.675995
 20
518.911682
 10
478.888672
 20
518.734436
 10
478.121185
 20
518.522583
 10
477.374908
 20
518.279053
 10
476.651093
 20
518.006653
 10
475.950958
 20
517.708191
 10
475.275604
 20
517.386475
 10
474.625549
 20
517.044006
 10
474.000824
 20
516.683105
 10
473.401581
 20
516.306274
 10
472.82785
 20
515.915833
 10
472.279724
 20
515.514099
 10
471.756958
 20
515.103516
 10
471.259308
 20
514.686646
 10
470.78653
 20
514.26593
 10
470.338318
 20
513.84375
 10
469.914551
 20
513.422546
 10
469.51532
 20
513.004395
 10
469.1409
 20
512.591614
 10
468.791565
 20
512.187195
 10
468.467804
 20
511.794922
 10
468.170349
 20
511.418884
 10
467.90036
 20
511.06369
 10
467.65918
 20
510.734467
 10
467.44873
 20
510.437683
 10
467.271179
 20
510.180267
 10
467.128906
 20
509.969177
 10
467.024597
 20
509.81134
 10
466.96051
 20
509.712799
 10
466.93808
 20
509.677795
  0
LWPOLYLINE
  5
13E
330
126
100
AcDbEntity
  8
0
  6
Continuous
 62
     0
370
     0
100
AcDbPolyline
 90
       34
 70
     0
 43
0.0
 10
498.93808
 20
509.677795
 10
498.916779
 20
509.710876
 10
498.85376
 20
509.807709
 10
498.750488
 20
509.964172
 10
498.609192
 20
510.174194
 10
498.432526
 20
510.430664
 10
498.222931
 20
510.726501
 10
497.982483
 20
511.054718
 10
497.713135
 20
511.408813
 10
497.41629
 20
511.784027
 10
497.093201
 20
512.176025
 10
496.74469
 20
512.580688
 10
496.371063
 20
512.994019
 10
495.972656
 20
513.412476
 10
495.549591
 20
513.833801
 10
495.101959
 20
514.255798
 10
494.629639
 20
514.676208
 10
494.132416
 20
515.092773
 10
493.610107
 20
515.502991
 10
493.0625
 20
515.904724
 10
492.48941
 20
516.295471
 10
491.890869
 20
516.672852
 10
491.266907
 20
517.034424
 10
490.617615
 20
517.377686
 10
489.942993
 20
517.700256
 10
489.2435
 20
517.999512
 10
488.520294
 20
518.272644
 10
487.774567
 20
518.516907
 10
487.007568
 20
518.729553
 10
486.220673
 20
518.907715
 10
485.417328
 20
519.049316
 10
484.602753
 20
519.152527
 10
483.782135
 20
519.21582
 10
482.93808
 20
519.237854
  0
LINE
  5
13F
330
126
100
AcDbEntity
  8
0
  6
Continuous
 62
     0
370
    30
100
AcDbLine
 10
482.938088
 20
525.237823
 30
0.0
 11
498.938087
 21
525.237823
 31
0.0
  0
LINE
  5
140
330
126
100
AcDbEntity
  8
0
  6
Continuous
 62
     0
370
    30
100
AcDbLine
 10
466.938087
 20
525.237823
 30
0.0
 11
482.938088
 21
525.237823
 31
0.0
  0
LINE
  5
141
330
126
100
AcDbEntity
  8
0
  6
Continuous
 62
     0
370
     0
100
AcDbLine
 10
482.938088
 20
515.237823
 30
0.0
 11
482.938088
 21
519.237823
 31
0.0
  0
LINE
  5
142
330
126
100
AcDbEntity
  8
0
  6
Continuous
 62
     0
370
     0
100
AcDbLine
 10
440.31439
 20
502.231227
 30
0.0
 11
440.314391
 21
502.538044
 31
0.0
  0
LINE
  5
143
330
126
100
AcDbEntity
  8
0
  6
Continuous
 62
     0
370
     0
100
AcDbLine
 10
440.314307
 20
484.538044
 30
0.0
 11
440.31439
 21
502.231227
 31
0.0
  0
LINE
  5
144
330
126
100
AcDbEntity
  8
0
  6
Continuous
 62
     0
370
    30
100
AcDbLine
 10
458.114313
 20
488.872048
 30
0.0
 11
458.114293
 21
484.537961
 31
0.0
  0
LINE
  5
145
330
126
100
AcDbEntity
  8
0
  6
Continuous
 62
     0
370
    30
100
AcDbLine
 10
458.114376
 20
502.231144
 30
0.0
 11
458.114356
 21
497.872249
 31
0.0
  0
LINE
  5
146
330
126
100
AcDbEntity
  8
0
  6
Continuous
 62
     0
370
    30
100
AcDbLine
 10
458.114377
 20
502.53796
 30
0.0
 11
458.114376
 21
502.231144
 31
0.0
  0
LINE
  5
147
330
126
100
AcDbEntity
  8
0
  6
Continuous
 62
     0
370
    30
100
AcDbLine
 10
440.114389
 20
502.038046
 30
0.0
 11
440.11439
 21
502.338045
 31
0.0
  0
LINE
  5
148
330
126
100
AcDbEntity
  8
0
  6
Continuous
 62
     0
370
    30
100
AcDbLine
 10
440.114308
 20
484.738045
 30
0.0
 11
440.114389
 21
502.038046
 31
0.0
  0
LINE
  5
149
330
126
100
AcDbEntity
  8
0
  6
Continuous
 62
     0
370
    30
100
AcDbLine
 10
481.714315
 20
558.737823
 30
0.0
 11
514.438087
 21
558.737823
 31
0.0
  0
LINE
  5
14A
330
126
100
AcDbEntity
  8
0
  6
Continuous
 62
     0
370
    30
100
AcDbLine
 10
451.438087
 20
558.737823
 30
0.0
 11
481.714315
 21
558.737823
 31
0.0
  0
LINE
  5
14B
330
126
100
AcDbEntity
  8
0
  6
Continuous
 62
     0
370
     0
100
AcDbLine
 10
481.714315
 20
539.237823
 30
0.0
 11
514.438087
 21
539.237823
 31
0.0
  0
LINE
  5
14C
330
126
100
AcDbEntity
  8
0
  6
Continuous
 62
     0
370
     0
100
AcDbLine
 10
451.438087
 20
539.237823
 30
0.0
 11
481.714315
 21
539.237823
 31
0.0
  0
LINE
  5
14D
330
126
100
AcDbEntity
  8
0
  6
Continuous
 62
     0
370
     0
100
AcDbLine
 10
466.938087
 20
525.737823
 30
0.0
 11
482.938088
 21
525.737823
 31
0.0
  0
LINE
  5
14E
330
126
100
AcDbEntity
  8
0
  6
Continuous
 62
     0
370
     0
100
AcDbLine
 10
482.938088
 20
525.737823
 30
0.0
 11
498.938087
 21
525.737823
 31
0.0
  0
LINE
  5
14F
330
126
100
AcDbEntity
  8
0
  6
Continuous
 62
     0
370
    30
100
AcDbLine
 10
488.505852
 20
538.537823
 30
0.0
 11
498.938087
 21
538.537823
 31
0.0
  0
LINE
  5
150
330
126
100
AcDbEntity
  8
0
  6
Continuous
 62
     0
370
    30
100
AcDbLine
 10
488.505852
 20
528.737823
 30
0.0
 11
488.505852
 21
538.537823
 31
0.0
  0
ARC
  5
151
330
126
100
AcDbEntity
  8
0
  6
Continuous
 62
     0
370
    30
100
AcDbCircle
 10
482.938088
 20
543.737823
 30
0.0
 40
15.99999963877216
100
AcDbArc
 50
270.0
 51
290.364135
  0
ARC
  5
152
330
126
100
AcDbEntity
  8
0
  6
Continuous
 62
     0
370
    30
100
AcDbCircle
 10
482.938088
 20
543.737824
 30
0.0
 40
16.00000036123081
100
AcDbArc
 50
249.635865
 51
269.999998
  0
LINE
  5
153
330
126
100
AcDbEntity
  8
0
  6
Continuous
 62
     0
370
    30
100
AcDbLine
 10
477.370323
 20
538.537823
 30
0.0
 11
477.370323
 21
528.737823
 31
0.0
  0
LINE
  5
154
330
126
100
AcDbEntity
  8
0
  6
Continuous
 62
     0
370
    30
100
AcDbLine
 10
466.938087
 20
538.537823
 30
0.0
 11
477.370323
 21
538.537823
 31
0.0
  0
LINE
  5
155
330
126
100
AcDbEntity
  8
0
  6
Continuous
 62
     0
370
    30
100
AcDbLine
 10
477.974218
 20
538.737823
 30
0.0
 11
477.370323
 21
538.537823
 31
0.0
  0
LINE
  5
156
330
126
100
AcDbEntity
  8
0
  6
Continuous
 62
     0
370
    30
100
AcDbLine
 10
488.505852
 20
538.537823
 30
0.0
 11
487.901957
 21
538.737823
 31
0.0
  0
LINE
  5
157
330
126
100
AcDbEntity
  8
0
  6
Continuous
 62
     0
370
    30
100
AcDbLine
 10
488.505852
 20
528.737823
 30
0.0
 11
477.370323
 21
528.737823
 31
0.0
  0
LINE
  5
158
330
126
100
AcDbEntity
  8
0
  6
Continuous
 62
     0
370
    30
100
AcDbLine
 10
506.146657
 20
505.037735
 30
0.0
 11
506.14655
 21
482.039086
 31
0.0
  0
LINE
  5
159
330
126
100
AcDbEntity
  8
0
  6
Continuous
 62
     0
370
    30
100
AcDbLine
 10
536.146556
 20
483.506018
 30
0.0
 11
536.14665
 21
503.57035
 31
0.0
  0
LWPOLYLINE
  5
15A
330
126
100
AcDbEntity
  8
0
  6
Continuous
 62
     0
370
    30
100
AcDbPolyline
 90
       31
 70
     0
 43
0.0
 10
615.063965
 20
473.407104
 10
615.030945
 20
474.078156
 10
614.99707
 20
474.767578
 10
614.96283
 20
475.465424
 10
614.928772
 20
476.160126
 10
614.895569
 20
476.838959
 10
614.863831
 20
477.48877
 10
614.83429
 20
478.096588
 10
614.807373
 20
478.650543
 10
614.783691
 20
479.140533
 10
614.76355
 20
479.55896
 10
614.747253
 20
479.90094
 10
614.734802
 20
480.164551
 10
614.726135
 20
480.350586
 10
614.72113
 20
480.462372
 10
614.719543
 20
480.505066
 10
614.72113
 20
480.483276
 10
614.726074
 20
480.393005
 10
614.734741
 20
480.228699
 10
614.747192
 20
479.986725
 10
614.763489
 20
479.665833
 10
614.783569
 20
479.267548
 10
614.807251
 20
478.796326
 10
614.834106
 20
478.25943
 10
614.863708
 20
477.666626
 10
614.895386
 20
477.029572
 10
614.928589
 20
476.361023
 10
614.962646
 20
475.674133
 10
614.996887
 20
474.981659
 10
615.030762
 20
474.295288
 10
615.063965
 20
473.621674
  0
LINE
  5
15B
330
126
100
AcDbEntity
  8
0
  6
Continuous
 62
     0
370
    30
100
AcDbLine
 10
615.063981
 20
473.621681
 30
0.0
 11
615.408371
 21
466.522867
 31
0.0
  0
LWPOLYLINE
  5
15C
330
126
100
AcDbEntity
  8
0
  6
Continuous
 62
     0
370
    30
100
AcDbPolyline
 90
       66
 70
     0
 43
0.0
 10
615.408386
 20
466.522858
 10
614.119934
 20
466.453278
 10
612.831116
 20
466.389313
 10
611.542114
 20
466.330841
 10
610.252747
 20
466.277863
 10
608.963257
 20
466.230286
 10
607.673462
 20
466.187988
 10
606.383545
 20
466.15097
 10
605.093445
 20
466.11911
 10
603.803223
 20
466.092377
 10
602.512878
 20
466.070679
 10
601.222473
 20
466.053925
 10
599.931946
 20
466.042175
 10
598.641479
 20
466.036041
 10
597.351013
 20
466.036255
 10
596.060608
 20
466.043579
 10
594.770325
 20
466.058746
 10
593.480164
 20
466.08252
 10
592.190247
 20
466.115601
 10
590.900574
 20
466.158752
 10
589.611206
 20
466.212769
 10
588.322388
 20
466.278625
 10
587.034241
 20
466.357452
 10
585.747131
 20
466.450317
 10
584.461243
 20
466.55835
 10
583.176819
 20
466.682678
 10
581.894165
 20
466.824402
 10
580.613647
 20
466.984741
 10
579.335815
 20
467.165161
 10
578.061218
 20
467.367096
 10
576.790527
 20
467.592041
 10
575.524353
 20
467.841461
 10
574.263306
 20
468.116669
 10
573.008423
 20
468.418854
 10
571.760742
 20
468.749054
 10
570.521362
 20
469.108368
 10
569.291321
 20
469.497894
 10
568.071655
 20
469.918671
 10
566.863403
 20
470.371704
 10
565.667419
 20
470.856812
 10
564.484497
 20
471.373291
 10
563.31543
 20
471.92038
 10
562.16095
 20
472.497345
 10
561.021912
 20
473.103485
 10
559.899048
 20
473.738068
 10
558.792908
 20
474.400116
 10
557.702271
 20
475.087006
 10
556.624939
 20
475.795319
 10
555.558838
 20
476.521545
 10
554.501648
 20
477.262207
 10
553.451355
 20
478.013855
 10
552.405762
 20
478.77301
 10
551.362427
 20
479.535828
 10
550.316833
 20
480.294891
 10
549.262817
 20
481.040527
 10
548.194458
 20
481.76297
 10
547.105713
 20
482.452606
 10
545.99054
 20
483.099701
 10
544.844727
 20
483.694305
 10
543.668701
 20
484.225769
 10
542.463562
 20
484.683411
 10
541.232056
 20
485.062958
 10
539.980042
 20
485.374634
 10
538.713928
 20
485.630646
 10
537.439697
 20
485.841034
 10
536.146606
 20
485.992859
  0
LWPOLYLINE
  5
15D
330
126
100
AcDbEntity
  8
0
  6
Continuous
 62
     0
370
    30
100
AcDbPolyline
 90
       51
 70
     0
 43
0.0
 10
614.719604
 20
480.50592
 10
613.058289
 20
480.416992
 10
611.396484
 20
480.33783
 10
609.734192
 20
480.268188
 10
608.071472
 20
480.207947
 10
606.408447
 20
480.156891
 10
604.745056
 20
480.114838
 10
603.081482
 20
480.081604
 10
601.417725
 20
480.057068
 10
599.753784
 20
480.041138
 10
598.089844
 20
480.035095
 10
596.426025
 20
480.040863
 10
594.76239
 20
480.060425
 10
593.099121
 20
480.095703
 10
591.436279
 20
480.14859
 10
589.774109
 20
480.221222
 10
588.113098
 20
480.316681
 10
586.453735
 20
480.438446
 10
584.796753
 20
480.589996
 10
583.142822
 20
480.774902
 10
581.493286
 20
480.997681
 10
579.850769
 20
481.264191
 10
578.21759
 20
481.580261
 10
576.596313
 20
481.951782
 10
574.989807
 20
482.384583
 10
573.402893
 20
482.884705
 10
571.841309
 20
483.458008
 10
570.309143
 20
484.105713
 10
568.808533
 20
484.824127
 10
567.341736
 20
485.609314
 10
565.910522
 20
486.457031
 10
564.511841
 20
487.357758
 10
563.138672
 20
488.297821
 10
561.783691
 20
489.263489
 10
560.438354
 20
490.242126
 10
559.093567
 20
491.221466
 10
557.740173
 20
492.18927
 10
556.369629
 20
493.133423
 10
554.975891
 20
494.04245
 10
553.553528
 20
494.90506
 10
552.097717
 20
495.710358
 10
550.607971
 20
496.452087
 10
549.086975
 20
497.127136
 10
547.537476
 20
497.732544
 10
545.962097
 20
498.265289
 10
544.363708
 20
498.722717
 10
542.74585
 20
499.10733
 10
541.112488
 20
499.426025
 10
539.467834
 20
499.68576
 10
537.815918
 20
499.893585
 10
536.146606
 20
500.057709
  0
LINE
  5
15E
330
126
100
AcDbEntity
  8
0
  6
Continuous
 62
     0
370
    30
100
AcDbLine
 10
506.14655
 20
482.037735
 30
0.0
 11
536.146556
 21
483.504839
 31
0.0
  0
LINE
  5
15F
330
126
100
AcDbEntity
  8
0
  6
Continuous
 62
     0
370
    30
100
AcDbLine
 10
506.146657
 20
505.037735
 30
0.0
 11
536.14665
 21
503.57035
 31
0.0
  0
LINE
  5
160
330
126
100
AcDbEntity
  8
0
  6
Continuous
 62
     0
370
    30
100
AcDbLine
 10
466.938087
 20
525.737823
 30
0.0
 11
466.938087
 21
538.537823
 31
0.0
  0
LINE
  5
161
330
126
100
AcDbEntity
  8
0
  6
Continuous
 62
     0
370
    30
100
AcDbLine
 10
498.938087
 20
525.737823
 30
0.0
 11
498.938087
 21
538.537823
 31
0.0
  0
LINE
  5
162
330
126
100
AcDbEntity
  8
0
  6
Continuous
 62
     0
370
    30
100
AcDbLine
 10
514.438087
 20
539.237823
 30
0.0
 11
514.438087
 21
558.737823
 31
0.0
  0
LINE
  5
163
330
126
100
AcDbEntity
  8
0
  6
Continuous
 62
     0
370
    30
100
AcDbLine
 10
451.438087
 20
539.237823
 30
0.0
 11
451.438087
 21
558.737823
 31
0.0
  0
LINE
  5
164
330
126
100
AcDbEntity
  8
0
  6
Continuous
 62
     0
370
    30
100
AcDbLine
 10
458.114359
 20
498.537961
 30
0.0
 11
461.821896
 21
498.537943
 31
0.0
  0
LINE
  5
165
330
126
100
AcDbEntity
  8
0
  6
Continuous
 62
     0
370
    30
100
AcDbLine
 10
458.114312
 20
488.537961
 30
0.0
 11
461.821848
 21
488.537943
 31
0.0
  0
LINE
  5
166
330
126
100
AcDbEntity
  8
0
  6
Continuous
 62
     0
370
    30
100
AcDbLine
 10
440.114308
 20
484.738017
 30
0.0
 11
440.114309
 21
485.038043
 31
0.0
  0
LINE
  5
167
330
126
100
AcDbEntity
  8
0
  6
Continuous
 62
     0
370
    30
100
AcDbLine
 10
440.11439
 20
502.338073
 30
0.0
 11
440.114389
 21
502.204866
 31
0.0
  0
LINE
  5
168
330
126
100
AcDbEntity
  8
0
  6
Continuous
 62
     0
370
    30
100
AcDbLine
 10
440.314391
 20
502.538044
 30
0.0
 11
458.114377
 21
502.53796
 31
0.0
  0
LINE
  5
169
330
126
100
AcDbEntity
  8
0
  6
Continuous
 62
     0
370
    30
100
AcDbLine
 10
440.314307
 20
484.538044
 30
0.0
 11
458.114293
 21
484.537961
 31
0.0
  0
LINE
  5
16A
330
126
100
AcDbEntity
  8
0
  6
Continuous
 62
     0
370
    30
100
AcDbLine
 10
502.196549
 20
483.537754
 30
0.0
 11
506.146557
 21
483.537736
 31
0.0
  0
LINE
  5
16B
330
126
100
AcDbEntity
  8
0
  6
Continuous
 62
     0
370
    30
100
AcDbLine
 10
502.196621
 20
503.537754
 30
0.0
 11
506.14665
 21
503.537736
 31
0.0
  0
ARC
  5
16C
330
126
100
AcDbEntity
  8
0
  6
Continuous
 62
     0
370
    30
100
AcDbCircle
 10
462.938199
 20
509.677836
 30
0.0
 40
3.999967553034598
100
AcDbArc
 50
329.421206
 51
359.998608
  0
ARC
  5
16D
330
126
100
AcDbEntity
  8
0
  6
Continuous
 62
     0
370
    30
100
AcDbCircle
 10
502.937568
 20
509.67757
 30
0.0
 40
3.99955988443989
100
AcDbArc
 50
179.997583
 51
218.896383
  0
LINE
  5
16E
330
126
100
AcDbEntity
  8
0
  6
Continuous
 62
     0
370
    30
100
AcDbLine
 10
466.938087
 20
509.677832
 30
0.0
 11
466.938087
 21
525.237823
 31
0.0
  0
LINE
  5
16F
330
126
100
AcDbEntity
  8
0
  6
Continuous
 62
     0
370
    30
100
AcDbLine
 10
498.938087
 20
509.677832
 30
0.0
 11
498.938087
 21
525.237823
 31
0.0
  0
ARC
  5
170
330
126
100
AcDbEntity
  8
0
  6
Continuous
 62
     0
370
    30
100
AcDbCircle
 10
499.440041
 20
473.833086
 30
0.0
 40
4.001966034746486
100
AcDbArc
 50
129.956014
 51
179.98231
  0
ARC
  5
171
330
126
100
AcDbEntity
  8
0
  6
Continuous
 62
     0
370
    30
100
AcDbCircle
 10
466.439281
 20
473.834306
 30
0.0
 40
3.998802885925658
100
AcDbArc
 50
0.00149
 51
41.737865
  0
LINE
  5
172
330
126
100
AcDbEntity
  8
0
  6
Continuous
 62
     0
370
    30
100
AcDbLine
 10
503.250443
 20
380.097756
 30
0.0
 11
521.161797
 21
371.19925
 31
0.0
  0
LINE
  5
173
330
126
100
AcDbEntity
  8
0
  6
Continuous
 62
     0
370
    30
100
AcDbLine
 10
514.373576
 20
402.486949
 30
0.0
 11
532.284929
 21
393.588442
 31
0.0
  0
ARC
  5
174
330
126
100
AcDbEntity
  8
0
  6
Continuous
 62
     0
370
    30
100
AcDbCircle
 10
527.964672
 20
432.044996
 30
0.0
 40
57.52659227696764
100
AcDbArc
 50
180.007144
 51
244.556934
  0
ARC
  5
175
330
126
100
AcDbEntity
  8
0
  6
Continuous
 62
     0
370
    30
100
AcDbCircle
 10
527.986559
 20
432.051967
 30
0.0
 40
32.54848138484915
100
AcDbArc
 50
180.024898
 51
245.276661
  0
LINE
  5
176
330
126
100
AcDbEntity
  8
0
  6
Continuous
 62
     0
370
    30
100
AcDbLine
 10
495.438081
 20
473.833968
 30
0.0
 11
495.438081
 21
432.037823
 31
0.0
  0
LINE
  5
177
330
126
100
AcDbEntity
  8
0
  6
Continuous
 62
     0
370
    30
100
AcDbLine
 10
470.438081
 20
473.833968
 30
0.0
 11
470.438081
 21
432.037823
 31
0.0
  0
ARC
  5
178
330
126
100
AcDbEntity
  8
0
  6
Continuous
 62
     0
370
    30
100
AcDbCircle
 10
454.855569
 20
495.930937
 30
0.0
 40
1.952594212025925
100
AcDbArc
 50
100.943038
 51
182.572749
  0
ARC
  5
179
330
126
100
AcDbEntity
  8
0
  6
Continuous
 62
     0
370
    30
100
AcDbCircle
 10
454.890013
 20
490.770092
 30
0.0
 40
1.952594213650401
100
AcDbArc
 50
178.192029
 51
259.821741
  0
LINE
  5
17A
330
126
100
AcDbEntity
  8
0
  6
Continuous
 62
     0
370
    30
100
AcDbLine
 10
463.393599
 20
497.907483
 30
0.0
 11
454.48475
 21
497.848025
 31
0.0
  0
LINE
  5
17B
330
126
100
AcDbEntity
  8
0
  6
Continuous
 62
     0
370
    30
100
AcDbLine
 10
463.453702
 20
488.907683
 30
0.0
 11
454.544815
 21
488.848225
 31
0.0
  0
ARC
  5
17C
330
126
100
AcDbEntity
  8
0
  6
Continuous
 62
     0
370
    30
100
AcDbCircle
 10
467.737023
 20
493.436288
 30
0.0
 40
15.02612091513702
100
AcDbArc
 50
170.788789
 51
189.615711
  0
ENDBLK
  5
17E
330
126
100
AcDbEntity
  8
0
100
AcDbBlockEnd
  0
BLOCK
  5
1F5
330
180
100
AcDbEntity
  8
0
100
AcDbBlockBegin
  2
d
 70
     0
 10
92.584801
 20
94.536774
 30
0.0
  3
d
  1

  0
ELLIPSE
  5
181
330
180
100
AcDbEntity
  8
0
  6
Continuous
 62
     0
370
    30
100
AcDbEllipse
 10
484.025536
 20
153.89953
 30
0.0
 11
-10.875
 21
18.83605253231154
 31
0.0
210
0.0
220
0.0
230
-1.0
 40
0.57735
 41
6.283179166351582
 42
7.061909519541099
  0
ELLIPSE
  5
182
330
180
100
AcDbEntity
  8
0
  6
Continuous
 62
     0
370
     0
100
AcDbEllipse
 10
467.258006
 20
144.218792
 30
0.0
 11
-9.618945014727801
 21
16.66050148071991
 31
0.0
210
0.0
220
0.0
230
-1.0
 40
0.57735
 41
5.724367586760471
 42
11.4952187675509
  0
ELLIPSE
  5
183
330
180
100
AcDbEntity
  8
0
  6
Continuous
 62
     0
370
     0
100
AcDbEllipse
 10
468.027958
 20
144.663325
 30
0.0
 11
-10.11063756227725
 21
17.51213795477853
 31
0.0
210
0.0
220
0.0
230
-1.0
 40
0.57735
 41
5.713781137704649
 42
9.565381955021742
  0
ARC
  5
184
330
180
100
AcDbEntity
  8
0
  6
Continuous
 62
     0
370
    30
100
AcDbCircle
 10
454.334314
 20
155.812264
 30
0.0
 40
0.528867041346647
100
AcDbArc
 50
121.043181
 51
231.1348
  0
LWPOLYLINE
  5
185
330
180
100
AcDbEntity
  8
0
  6
Continuous
 62
     0
370
    30
100
AcDbPolyline
 90
       41
 70
     0
 43
0.0
 10
489.657562
 20
132.209137
 10
489.991089
 20
132.422729
 10
490.305298
 20
132.712891
 10
490.598785
 20
133.07991
 10
490.870178
 20
133.523346
 10
491.118103
 20
134.042542
 10
491.341248
 20
134.636765
 10
491.538391
 20
135.304474
 10
491.708344
 20
136.04393
 10
491.850128
 20
136.852798
 10
491.962952
 20
137.727951
 10
492.04599
 20
138.66626
 10
492.098663
 20
139.664124
 10
492.120697
 20
140.717072
 10
492.111938
 20
141.820511
 10
492.072327
 20
142.969574
 10
492.002228
 20
144.158859
 10
491.902039
 20
145.382919
 10
491.772339
 20
146.636215
 10
491.614014
 20
147.91304
 10
491.428009
 20
149.207657
 10
491.215332
 20
150.514481
 10
490.977203
 20
151.828171
 10
490.714996
 20
153.143433
 10
490.429962
 20
154.455017
 10
490.123505
 20
155.758072
 10
489.797089
 20
157.048172
 10
489.452148
 20
158.320862
 10
489.090118
 20
159.571945
 10
488.712494
 20
160.797714
 10
488.320679
 20
161.994522
 10
487.916107
 20
163.158905
 10
487.500153
 20
164.287811
 10
487.074219
 20
165.378235
 10
486.639648
 20
166.427292
 10
486.197754
 20
167.432419
 10
485.749878
 20
168.391159
 10
485.297302
 20
169.301025
 10
484.841278
 20
170.15979
 10
484.383026
 20
170.965378
 10
483.922882
 20
171.717194
  0
LWPOLYLINE
  5
186
330
180
100
AcDbEntity
  8
0
  6
Continuous
 62
     0
370
    30
100
AcDbPolyline
 90
       20
 70
     0
 43
0.0
 10
460.450836
 20
146.535324
 10
460.424133
 20
146.278946
 10
460.347504
 20
146.07489
 10
460.234589
 20
145.92099
 10
460.097595
 20
145.808395
 10
459.944641
 20
145.728302
 10
459.781097
 20
145.673599
 10
459.609955
 20
145.639587
 10
459.433624
 20
145.622192
 10
459.25351
 20
145.618759
 10
459.070526
 20
145.62735
 10
458.885498
 20
145.646286
 10
458.698944
 20
145.674377
 10
458.511261
 20
145.710663
 10
458.322754
 20
145.75441
 10
458.133698
 20
145.804962
 10
457.944305
 20
145.861786
 10
457.754761
 20
145.924484
 10
457.565125
 20
145.992661
 10
457.369934
 20
146.068283
  0
LWPOLYLINE
  5
187
330
180
100
AcDbEntity
  8
0
  6
Continuous
 62
     0
370
    30
100
AcDbPolyline
 90
       31
 70
     0
 43
0.0
 10
454.002441
 20
155.400482
 10
454.22345
 20
155.172775
 10
454.445801
 20
154.940842
 10
454.669464
 20
154.704803
 10
454.894379
 20
154.464752
 10
455.120514
 20
154.22081
 10
455.347809
 20
153.973068
 10
455.576202
 20
153.721588
 10
455.805634
 20
153.46637
 10
456.036041
 20
153.207367
 10
456.267365
 20
152.94458
 10
456.499573
 20
152.677994
 10
456.732544
 20
152.407516
 10
456.966187
 20
152.133026
 10
457.200378
 20
151.854431
 10
457.434998
 20
151.571594
 10
457.669861
 20
151.284317
 10
457.904816
 20
150.99234
 10
458.139587
 20
150.695374
 10
458.37384
 20
150.39296
 10
458.607208
 20
150.084686
 10
458.839142
 20
149.769943
 10
459.069
 20
149.448013
 10
459.295654
 20
149.11792
 10
459.517761
 20
148.778595
 10
459.733063
 20
148.42868
 10
459.937927
 20
148.066635
 10
460.126434
 20
147.691452
 10
460.288086
 20
147.304077
 10
460.404541
 20
146.912766
 10
460.450836
 20
146.535324
  0
ELLIPSE
  5
188
330
180
100
AcDbEntity
  8
0
  6
Continuous
 62
     0
370
     0
100
AcDbEllipse
 10
446.44606
 20
155.255654
 30
0.0
 11
1.663001510504334
 21
4.181438266441369
 31
0.0
210
0.0
220
0.0
230
1.0
 40
0.472105
 41
2.279100156737172
 42
3.141592629545832
  0
ELLIPSE
  5
189
330
180
100
AcDbEntity
  8
0
  6
Continuous
 62
     0
370
     0
100
AcDbEllipse
 10
446.44606
 20
155.255654
 30
0.0
 11
1.663001510504334
 21
4.181438266441369
 31
0.0
210
0.0
220
0.0
230
1.0
 40
0.472105
 41
-0.0000000240439686
 42
2.27910015673715
  0
LWPOLYLINE
  5
18A
330
180
100
AcDbEntity
  8
0
  6
Continuous
 62
     0
370
    30
100
AcDbPolyline
 90
       20
 70
     0
 43
0.0
 10
491.763245
 20
136.330292
 10
492.512787
 20
136.355881
 10
493.237366
 20
136.446548
 10
493.934387
 20
136.602112
 10
494.601501
 20
136.821793
 10
495.236328
 20
137.104721
 10
495.836609
 20
137.450027
 10
496.400085
 20
137.856689
 10
496.924896
 20
138.32309
 10
497.40918
 20
138.847473
 10
497.851227
 20
139.428116
 10
498.249359
 20
140.063034
 10
498.602264
 20
140.749817
 10
498.908722
 20
141.486084
 10
499.167542
 20
142.269302
 10
499.377899
 20
143.096634
 10
499.539062
 20
143.965118
 10
499.65033
 20
144.871765
 10
499.711456
 20
145.813309
 10
499.721252
 20
146.84201
  0
LWPOLYLINE
  5
18B
330
180
100
AcDbEntity
  8
0
  6
Continuous
 62
     0
370
    30
100
AcDbPolyline
 90
       29
 70
     0
 43
0.0
 10
499.721252
 20
146.84201
 10
499.672638
 20
147.93187
 10
499.564758
 20
149.050079
 10
499.398132
 20
150.191986
 10
499.173279
 20
151.352859
 10
498.891296
 20
152.527847
 10
498.553345
 20
153.712021
 10
498.160767
 20
154.900452
 10
497.71524
 20
156.088211
 10
497.218628
 20
157.270294
 10
496.672913
 20
158.441757
 10
496.080414
 20
159.597748
 10
495.443756
 20
160.73349
 10
494.765564
 20
161.844238
 10
494.048492
 20
162.925217
 10
493.295563
 20
163.972015
 10
492.51004
 20
164.980331
 10
491.695129
 20
165.945908
 10
490.854218
 20
166.864624
 10
489.990875
 20
167.732758
 10
489.108612
 20
168.546616
 10
488.211182
 20
169.302826
 10
487.302338
 20
169.998306
 10
486.385834
 20
170.630051
 10
485.465485
 20
171.19545
 10
484.545166
 20
171.692215
 10
483.628723
 20
172.118149
 10
482.71994
 20
172.471542
 10
481.794128
 20
172.758728
  0
ELLIPSE
  5
18C
330
180
100
AcDbEntity
  8
0
  6
Continuous
 62
     0
370
     0
100
AcDbEllipse
 10
618.051737
 20
181.065053
 30
0.0
 11
12.5
 21
0.0
 31
0.0
210
0.0
220
0.0
230
-1.0
 40
0.57735
 41
2.356194490192345
 42
3.141592674113224
  0
ELLIPSE
  5
18D
330
180
100
AcDbEntity
  8
0
  6
Continuous
 62
     0
370
     0
100
AcDbEllipse
 10
618.051737
 20
181.065053
 30
0.0
 11
12.5
 21
0.0
 31
0.0
210
0.0
220
0.0
230
-1.0
 40
0.57735
 41
-0.0000000090013241
 42
2.356194490192345
  0
LWPOLYLINE
  5
18E
330
180
100
AcDbEntity
  8
0
  6
Continuous
 62
     0
370
     0
100
AcDbPolyline
 90
       20
 70
     0
 43
0.0
 10
615.019409
 20
204.471863
 10
615.885315
 20
204.664032
 10
616.753052
 20
204.909821
 10
617.620056
 20
205.203262
 10
618.484741
 20
205.538895
 10
619.346008
 20
205.911331
 10
620.202698
 20
206.315201
 10
621.053894
 20
206.745178
 10
621.898682
 20
207.195877
 10
622.735962
 20
207.661743
 10
623.561707
 20
208.135376
 10
624.370605
 20
208.608429
 10
625.157104
 20
209.07251
 10
625.91394
 20
209.518845
 10
626.632263
 20
209.938782
 10
627.302246
 20
210.324799
 10
627.915527
 20
210.672409
 10
628.466003
 20
210.980316
 10
628.950623
 20
211.250671
 10
629.378601
 20
211.493515
  0
ARC
  5
18F
330
180
100
AcDbEntity
  8
0
  6
Continuous
 62
     0
370
     0
100
AcDbCircle
 10
629.781986
 20
130.087321
 30
0.0
 40
3.056610012115919
100
AcDbArc
 50
138.05464
 51
200.163564
  0
LWPOLYLINE
  5
190
330
180
100
AcDbEntity
  8
0
  6
Continuous
 62
     0
370
     0
100
AcDbPolyline
 90
       34
 70
     0
 43
0.0
 10
627.508545
 20
132.130432
 10
627.800537
 20
132.615921
 10
628.142456
 20
133.13707
 10
628.535278
 20
133.692123
 10
628.979126
 20
134.278473
 10
629.473022
 20
134.892761
 10
630.015198
 20
135.530838
 10
630.602783
 20
136.18782
 10
631.231934
 20
136.8582
 10
631.897827
 20
137.53598
 10
632.594727
 20
138.214844
 10
633.316284
 20
138.888336
 10
634.055664
 20
139.550079
 10
634.805664
 20
140.193954
 10
635.559082
 20
140.814301
 10
636.30896
 20
141.406082
 10
637.048523
 20
141.964996
 10
637.771729
 20
142.487549
 10
638.473083
 20
142.97113
 10
639.147949
 20
143.413956
 10
639.792542
 20
143.815109
 10
640.404541
 20
144.17482
 10
641.003296
 20
144.504974
 10
641.594421
 20
144.807373
 10
642.171997
 20
145.07724
 10
642.72998
 20
145.309906
 10
643.262085
 20
145.500992
 10
643.761963
 20
145.6465
 10
644.223572
 20
145.743088
 10
644.641174
 20
145.788132
 10
645.009705
 20
145.779877
 10
645.324829
 20
145.71756
 10
645.583252
 20
145.601395
 10
645.783508
 20
145.431641
  0
LWPOLYLINE
  5
191
330
180
100
AcDbEntity
  8
0
  6
Continuous
 62
     0
370
    30
100
AcDbPolyline
 90
       43
 70
     0
 43
0.0
 10
640.173767
 20
117.552544
 10
639.926208
 20
117.09597
 10
639.716064
 20
116.65435
 10
639.548157
 20
116.232613
 10
639.42688
 20
115.835861
 10
639.356201
 20
115.469177
 10
639.339478
 20
115.137512
 10
639.379456
 20
114.845512
 10
639.477722
 20
114.597343
 10
639.635071
 20
114.396523
 10
639.851074
 20
114.245827
 10
640.124329
 20
114.147125
 10
640.452332
 20
114.101334
 10
640.831421
 20
114.108383
 10
641.257324
 20
114.167259
 10
641.724854
 20
114.276009
 10
642.228333
 20
114.4319
 10
642.761841
 20
114.6315
 10
643.319214
 20
114.870842
 10
643.894409
 20
115.145592
 10
644.481567
 20
115.451187
 10
645.075073
 20
115.782974
 10
645.686707
 20
116.146614
 10
646.330383
 20
116.551262
 10
647.003235
 20
116.996635
 10
647.701233
 20
117.481689
 10
648.419861
 20
118.004585
 10
649.153687
 20
118.562637
 10
649.896729
 20
119.152359
 10
650.642395
 20
119.769478
 10
651.383911
 20
120.409027
 10
652.114258
 20
121.065453
 10
652.826477
 20
121.732796
 10
653.513977
 20
122.404854
 10
654.170593
 20
123.075378
 10
654.790955
 20
123.738243
 10
655.370361
 20
124.387672
 10
655.90509
 20
125.018356
 10
656.392456
 20
125.62558
 10
656.83075
 20
126.205338
 10
657.219055
 20
126.754387
 10
657.557556
 20
127.270233
 10
657.85144
 20
127.758751
  0
LWPOLYLINE
  5
192
330
180
100
AcDbEntity
  8
0
  6
Continuous
 62
     0
370
    30
100
AcDbPolyline
 90
       43
 70
     0
 43
0.0
 10
657.85144
 20
127.758751
 10
658.09906
 20
128.215332
 10
658.309143
 20
128.656952
 10
658.477051
 20
129.07869
 10
658.598328
 20
129.475433
 10
658.669006
 20
129.842117
 10
658.68573
 20
130.173782
 10
658.645752
 20
130.46579
 10
658.547485
 20
130.713959
 10
658.390137
 20
130.91478
 10
658.174133
 20
131.065475
 10
657.900879
 20
131.164169
 10
657.572876
 20
131.209961
 10
657.193787
 20
131.202911
 10
656.767883
 20
131.144043
 10
656.300354
 20
131.035294
 10
655.796875
 20
130.879395
 10
655.263367
 20
130.679794
 10
654.705994
 20
130.44046
 10
654.130798
 20
130.16571
 10
653.54364
 20
129.860107
 10
652.950134
 20
129.52832
 10
652.338501
 20
129.164688
 10
651.694824
 20
128.76004
 10
651.022034
 20
128.314667
 10
650.323975
 20
127.829605
 10
649.605347
 20
127.306717
 10
648.871521
 20
126.748665
 10
648.128479
 20
126.158936
 10
647.382812
 20
125.541817
 10
646.641296
 20
124.902275
 10
645.91095
 20
124.24585
 10
645.19873
 20
123.578506
 10
644.51123
 20
122.906441
 10
643.854614
 20
122.235924
 10
643.234253
 20
121.573051
 10
642.654846
 20
120.923622
 10
642.120117
 20
120.292946
 10
641.632751
 20
119.685722
 10
641.194458
 20
119.105957
 10
640.806152
 20
118.556908
 10
640.467651
 20
118.041061
 10
640.173767
 20
117.552544
  0
ELLIPSE
  5
193
330
180
100
AcDbEntity
  8
0
  6
Continuous
 62
     0
370
     0
100
AcDbEllipse
 10
485.469215
 20
154.733039
 30
0.0
 11
10.50000000596047
 21
-18.18653348979704
 31
0.0
210
0.0
220
0.0
230
1.0
 40
0.57735
 41
2.356194490192345
 42
2.944677718687879
  0
ELLIPSE
  5
194
330
180
100
AcDbEntity
  8
0
  6
Continuous
 62
     0
370
     0
100
AcDbEllipse
 10
485.469215
 20
154.733039
 30
0.0
 11
10.50000000596047
 21
-18.18653348979704
 31
0.0
210
0.0
220
0.0
230
1.0
 40
0.57735
 41
5.923835346257855
 42
8.63937979737193
  0
ELLIPSE
  5
195
330
180
100
AcDbEntity
  8
0
  6
Continuous
 62
     0
370
     0
100
AcDbEllipse
 10
644.073266
 20
246.30313
 30
0.0
 11
-10.85
 21
18.79275126212232
 31
0.0
210
0.0
220
0.0
230
-1.0
 40
0.57735
 41
0.9978740168669121
 42
3.141592622099951
  0
ELLIPSE
  5
196
330
180
100
AcDbEntity
  8
0
  6
Continuous
 62
     0
370
     0
100
AcDbEllipse
 10
485.96419
 20
155.018813
 30
0.0
 11
-10.85
 21
18.79275126212232
 31
0.0
210
0.0
220
0.0
230
-1.0
 40
0.57735
 41
6.206682192115048
 42
7.068583470577034
  0
ELLIPSE
  5
197
330
180
100
AcDbEntity
  8
0
  6
Continuous
 62
     0
370
     0
100
AcDbEllipse
 10
485.96419
 20
155.018813
 30
0.0
 11
-10.85
 21
18.79275126212232
 31
0.0
210
0.0
220
0.0
230
-1.0
 40
0.57735
 41
0.7853981633974484
 42
3.555410693867323
  0
LWPOLYLINE
  5
198
330
180
100
AcDbEntity
  8
0
  6
Continuous
 62
     0
370
     0
100
AcDbPolyline
 90
       14
 70
     0
 43
0.0
 10
606.738159
 20
245.731659
 10
606.029602
 20
246.141144
 10
605.371948
 20
246.523026
 10
604.769897
 20
246.875259
 10
604.228638
 20
247.194992
 10
603.750671
 20
247.481186
 10
603.335205
 20
247.735535
 10
602.980957
 20
247.959946
 10
602.686646
 20
248.156372
 10
602.450623
 20
248.327118
 10
602.270935
 20
248.474777
 10
602.14563
 20
248.601944
 10
602.072937
 20
248.711334
 10
602.05188
 20
248.810928
  0
LWPOLYLINE
  5
199
330
180
100
AcDbEntity
  8
0
  6
Continuous
 62
     0
370
     0
100
AcDbPolyline
 90
       51
 70
     0
 43
0.0
 10
634.05188
 20
248.921402
 10
634.041199
 20
248.171036
 10
633.999084
 20
247.419754
 10
633.925903
 20
246.669601
 10
633.821899
 20
245.922516
 10
633.686707
 20
245.180145
 10
633.520081
 20
244.44426
 10
633.321167
 20
243.717438
 10
633.089233
 20
243.002548
 10
632.823181
 20
242.302994
 10
632.521667
 20
241.622772
 10
632.183228
 20
240.966385
 10
631.806458
 20
240.339935
 10
631.389954
 20
239.750046
 10
630.933411
 20
239.204178
 10
630.437134
 20
238.710358
 10
629.903015
 20
238.276123
 10
629.334717
 20
237.908218
 10
628.736572
 20
237.611862
 10
628.114319
 20
237.387222
 10
627.473633
 20
237.233047
 10
626.819275
 20
237.145172
 10
626.155212
 20
237.117981
 10
625.484375
 20
237.145432
 10
624.80835
 20
237.221024
 10
624.128357
 20
237.338684
 10
623.445007
 20
237.49382
 10
622.758789
 20
237.682159
 10
622.069702
 20
237.89975
 10
621.37738
 20
238.142776
 10
620.681519
 20
238.408051
 10
619.981873
 20
238.693527
 10
619.278442
 20
238.997299
 10
618.571289
 20
239.317673
 10
617.860474
 20
239.652985
 10
617.14624
 20
240.001602
 10
616.428711
 20
240.361908
 10
615.708252
 20
240.732285
 10
614.985657
 20
241.111252
 10
614.262085
 20
241.497375
 10
613.538513
 20
241.889206
 10
612.815979
 20
242.285324
 10
612.096008
 20
242.684113
 10
611.380859
 20
243.08371
 10
610.672913
 20
243.482162
 10
609.974426
 20
243.877594
 10
609.287903
 20
244.268021
 10
608.617188
 20
244.651016
 10
607.966919
 20
245.023697
 10
607.342041
 20
245.383255
 10
606.738159
 20
245.731659
  0
ELLIPSE
  5
19A
330
180
100
AcDbEntity
  8
0
  6
Continuous
 62
     0
370
    30
100
AcDbEllipse
 10
618.051874
 20
257.162614
 30
0.0
 11
-16.0
 21
0.0
 31
0.0
210
0.0
220
0.0
230
1.0
 40
0.57735
 41
0.7853981633974483
 42
2.529265863699946
  0
ELLIPSE
  5
19B
330
180
100
AcDbEntity
  8
0
  6
Continuous
 62
     0
370
    30
100
AcDbEllipse
 10
618.051874
 20
257.162614
 30
0.0
 11
-16.0
 21
0.0
 31
0.0
210
0.0
220
0.0
230
1.0
 40
0.57735
 41
0.6123018112812968
 42
0.7853981633974483
  0
ELLIPSE
  5
19C
330
180
100
AcDbEntity
  8
0
  6
Continuous
 62
     0
370
     0
100
AcDbEllipse
 10
603.909738
 20
244.098669
 30
0.0
 11
-1.999999999999998
 21
-3.464101615137751
 31
0.0
210
0.0
220
0.0
230
-1.0
 40
0.57735
 41
3.926990816987241
 42
5.497787143782138
  0
LWPOLYLINE
  5
19D
330
180
100
AcDbEntity
  8
0
  6
Continuous
 62
     0
370
     0
100
AcDbPolyline
 90
       56
 70
     0
 43
0.0
 10
603.909729
 20
240.832687
 10
604.565674
 20
240.461945
 10
605.258667
 20
240.085693
 10
605.985168
 20
239.705826
 10
606.741821
 20
239.324265
 10
607.524963
 20
238.942947
 10
608.331299
 20
238.563721
 10
609.157227
 20
238.188492
 10
609.999268
 20
237.819122
 10
610.854614
 20
237.457336
 10
611.720886
 20
237.104691
 10
612.595703
 20
236.762741
 10
613.476746
 20
236.433075
 10
614.362122
 20
236.117249
 10
615.250427
 20
235.816803
 10
616.140564
 20
235.533325
 10
617.031311
 20
235.268387
 10
617.921875
 20
235.023911
 10
618.811584
 20
234.802002
 10
619.699951
 20
234.604828
 10
620.586426
 20
234.434738
 10
621.470459
 20
234.294922
 10
622.351685
 20
234.188751
 10
623.229492
 20
234.119751
 10
624.103149
 20
234.092285
 10
624.971741
 20
234.11116
 10
625.833313
 20
234.181427
 10
626.685059
 20
234.308441
 10
627.524109
 20
234.497543
 10
628.346619
 20
234.753036
 10
629.146912
 20
235.076828
 10
629.919189
 20
235.47049
 10
630.65802
 20
235.933121
 10
631.35907
 20
236.459305
 10
632.018188
 20
237.043152
 10
632.631897
 20
237.678482
 10
633.199341
 20
238.358109
 10
633.720459
 20
239.074631
 10
634.195251
 20
239.820999
 10
634.624695
 20
240.591568
 10
635.009644
 20
241.381317
 10
635.351013
 20
242.186172
 10
635.649414
 20
243.002319
 10
635.90564
 20
243.826065
 10
636.119812
 20
244.654434
 10
636.291992
 20
245.484711
 10
636.422058
 20
246.314194
 10
636.509888
 20
247.140198
 10
636.55481
 20
247.960144
 10
636.556213
 20
248.771469
 10
636.513306
 20
249.571457
 10
636.425293
 20
250.357025
 10
636.29126
 20
251.124985
 10
636.110291
 20
251.872177
 10
635.88147
 20
252.595383
 10
635.598999
 20
253.303024
  0
LWPOLYLINE
  5
19E
330
180
100
AcDbEntity
  8
0
  6
Continuous
 62
     0
370
     0
100
AcDbPolyline
 90
       19
 70
     0
 43
0.0
 10
601.096375
 20
246.545456
 10
600.681702
 20
246.285461
 10
600.331848
 20
246.03627
 10
600.045898
 20
245.792633
 10
599.823792
 20
245.550385
 10
599.665466
 20
245.305466
 10
599.571411
 20
245.05426
 10
599.542908
 20
244.793808
 10
599.581116
 20
244.521255
 10
599.687561
 20
244.234512
 10
599.864014
 20
243.93187
 10
600.112122
 20
243.611633
 10
600.433411
 20
243.272232
 10
600.828552
 20
242.913208
 10
601.297668
 20
242.534698
 10
601.840942
 20
242.136856
 10
602.456909
 20
241.720749
 10
603.142029
 20
241.288544
 10
603.909729
 20
240.832687
  0
LWPOLYLINE
  5
19F
330
180
100
AcDbEntity
  8
0
  6
Continuous
 62
     0
370
     0
100
AcDbPolyline
 90
       14
 70
     0
 43
0.0
 10
500.67215
 20
184.494415
 10
499.963562
 20
184.9039
 10
499.305939
 20
185.285782
 10
498.703918
 20
185.638016
 10
498.162598
 20
185.957748
 10
497.684692
 20
186.243942
 10
497.269196
 20
186.498291
 10
496.914948
 20
186.722702
 10
496.620636
 20
186.919128
 10
496.384583
 20
187.089874
 10
496.204895
 20
187.237534
 10
496.07962
 20
187.3647
 10
496.006897
 20
187.474091
 10
495.98587
 20
187.573685
  0
LWPOLYLINE
  5
1A0
330
180
100
AcDbEntity
  8
0
  6
Continuous
 62
     0
370
     0
100
AcDbPolyline
 90
       51
 70
     0
 43
0.0
 10
527.98584
 20
187.684158
 10
527.97522
 20
186.933792
 10
527.933044
 20
186.18251
 10
527.859863
 20
185.432358
 10
527.755859
 20
184.685272
 10
527.620728
 20
183.942902
 10
527.454041
 20
183.207016
 10
527.255127
 20
182.480194
 10
527.023254
 20
181.765305
 10
526.757202
 20
181.06575
 10
526.455627
 20
180.385529
 10
526.117188
 20
179.729141
 10
525.740417
 20
179.102692
 10
525.323914
 20
178.512802
 10
524.867371
 20
177.966934
 10
524.371155
 20
177.473114
 10
523.836975
 20
177.038879
 10
523.268677
 20
176.670975
 10
522.670593
 20
176.374619
 10
522.048279
 20
176.149979
 10
521.407654
 20
175.995804
 10
520.753235
 20
175.907928
 10
520.089172
 20
175.880737
 10
519.418335
 20
175.908188
 10
518.74231
 20
175.98378
 10
518.062317
 20
176.10144
 10
517.378967
 20
176.256577
 10
516.69281
 20
176.444916
 10
516.003723
 20
176.662506
 10
515.31134
 20
176.905533
 10
514.615479
 20
177.170807
 10
513.915894
 20
177.456284
 10
513.212402
 20
177.760056
 10
512.505249
 20
178.080429
 10
511.794464
 20
178.415741
 10
511.080231
 20
178.764374
 10
510.362701
 20
179.124664
 10
509.642212
 20
179.495041
 10
508.919647
 20
179.874008
 10
508.196045
 20
180.260132
 10
507.472473
 20
180.651962
 10
506.749969
 20
181.04808
 10
506.030029
 20
181.446869
 10
505.31485
 20
181.846466
 10
504.606873
 20
182.244919
 10
503.908417
 20
182.64035
 10
503.221924
 20
183.030777
 10
502.551147
 20
183.413773
 10
501.900909
 20
183.786453
 10
501.276001
 20
184.146011
 10
500.67215
 20
184.494415
  0
ELLIPSE
  5
1A1
330
180
100
AcDbEntity
  8
0
  6
Continuous
 62
     0
370
    30
100
AcDbEllipse
 10
511.985857
 20
195.925371
 30
0.0
 11
-16.0
 21
0.0
 31
0.0
210
0.0
220
0.0
230
1.0
 40
0.57735
 41
0.7853981633974483
 42
2.529268862452478
  0
ELLIPSE
  5
1A2
330
180
100
AcDbEntity
  8
0
  6
Continuous
 62
     0
370
    30
100
AcDbEllipse
 10
511.985857
 20
195.925371
 30
0.0
 11
-16.0
 21
0.0
 31
0.0
210
0.0
220
0.0
230
1.0
 40
0.57735
 41
0.6123508952836998
 42
0.7853981633974483
  0
ELLIPSE
  5
1A3
330
180
100
AcDbEntity
  8
0
  6
Continuous
 62
     0
370
     0
100
AcDbEllipse
 10
497.843721
 20
182.861425
 30
0.0
 11
2.0
 21
3.464101615137755
 31
0.0
210
0.0
220
0.0
230
1.0
 40
0.57735
 41
3.926990816987234
 42
5.497787143782139
  0
LWPOLYLINE
  5
1A4
330
180
100
AcDbEntity
  8
0
  6
Continuous
 62
     0
370
     0
100
AcDbPolyline
 90
       56
 70
     0
 43
0.0
 10
529.533142
 20
192.065399
 10
529.811218
 20
191.369965
 10
530.040833
 20
190.647186
 10
530.222595
 20
189.900391
 10
530.357422
 20
189.132751
 10
530.446167
 20
188.347458
 10
530.489807
 20
187.547699
 10
530.489197
 20
186.736557
 10
530.445007
 20
185.916733
 10
530.357849
 20
185.090805
 10
530.228455
 20
184.261383
 10
530.057068
 20
183.431091
 10
529.843567
 20
182.602676
 10
529.588074
 20
181.778839
 10
529.290344
 20
180.962555
 10
528.949707
 20
180.157471
 10
528.565491
 20
179.367462
 10
528.136841
 20
178.596527
 10
527.662781
 20
177.849716
 10
527.142456
 20
177.13266
 10
526.575806
 20
176.452347
 10
525.962891
 20
175.816208
 10
525.304565
 20
175.231461
 10
524.604126
 20
174.704254
 10
523.865906
 20
174.240494
 10
523.094238
 20
173.845657
 10
522.294312
 20
173.520706
 10
521.472168
 20
173.264069
 10
520.633362
 20
173.073868
 10
519.781799
 20
172.945847
 10
518.920349
 20
172.874664
 10
518.05188
 20
172.854965
 10
517.178345
 20
172.881683
 10
516.300598
 20
172.950012
 10
515.419434
 20
173.055573
 10
514.535461
 20
173.194855
 10
513.649048
 20
173.364456
 10
512.760681
 20
173.561188
 10
511.871002
 20
173.782684
 10
510.980499
 20
174.02681
 10
510.089752
 20
174.291397
 10
509.199615
 20
174.57457
 10
508.311249
 20
174.874741
 10
507.425842
 20
175.190323
 10
506.544708
 20
175.51976
 10
505.669769
 20
175.861496
 10
504.803375
 20
176.213974
 10
503.947815
 20
176.575607
 10
503.105499
 20
176.94487
 10
502.279266
 20
177.320007
 10
501.472626
 20
177.699173
 10
500.688995
 20
178.080475
 10
499.931915
 20
178.462036
 10
499.204834
 20
178.841934
 10
498.511261
 20
179.218277
 10
497.843719
 20
179.595444
  0
LWPOLYLINE
  5
1A5
330
180
100
AcDbEntity
  8
0
  6
Continuous
 62
     0
370
     0
100
AcDbPolyline
 90
       19
 70
     0
 43
0.0
 10
497.843719
 20
179.595444
 10
497.091553
 20
180.041794
 10
496.404938
 20
180.474335
 10
495.787506
 20
180.890808
 10
495.242645
 20
181.289062
 10
494.771881
 20
181.667999
 10
494.375122
 20
182.027435
 10
494.052246
 20
182.367264
 10
493.802612
 20
182.687897
 10
493.624634
 20
182.990906
 10
493.516663
 20
183.277985
 10
493.47699
 20
183.550812
 10
493.504089
 20
183.811493
 10
493.596741
 20
184.062866
 10
493.753693
 20
184.307892
 10
493.974426
 20
184.550156
 10
494.258972
 20
184.793732
 10
494.607452
 20
185.042755
 10
495.030365
 20
185.308212
  0
LWPOLYLINE
  5
1A6
330
180
100
AcDbEntity
  8
0
  6
Continuous
 62
     0
370
    30
100
AcDbPolyline
 90
       34
 70
     0
 43
0.0
 10
627.443176
 20
212.991409
 10
627.090942
 20
212.997543
 10
626.773254
 20
213.060333
 10
626.488525
 20
213.181335
 10
626.235046
 20
213.362137
 10
626.011292
 20
213.604218
 10
625.816101
 20
213.908752
 10
625.648621
 20
214.276718
 10
625.508057
 20
214.708801
 10
625.393982
 20
215.204269
 10
625.306152
 20
215.761856
 10
625.244385
 20
216.379684
 10
625.208557
 20
217.053482
 10
625.19873
 20
217.778381
 10
625.214844
 20
218.548904
 10
625.256958
 20
219.357849
 10
625.325073
 20
220.197723
 10
625.41925
 20
221.061111
 10
625.539734
 20
221.94075
 10
625.686829
 20
222.829437
 10
625.860901
 20
223.720276
 10
626.062866
 20
224.606857
 10
626.293579
 20
225.482834
 10
626.554199
 20
226.34285
 10
626.846252
 20
227.182526
 10
627.171692
 20
227.997253
 10
627.53241
 20
228.781738
 10
627.930054
 20
229.530151
 10
628.366211
 20
230.236603
 10
628.841858
 20
230.895142
 10
629.3573
 20
231.499649
 10
629.912659
 20
232.044205
 10
630.505554
 20
232.523575
 10
631.140808
 20
232.937515
  0
LWPOLYLINE
  5
1A7
330
180
100
AcDbEntity
  8
0
  6
Continuous
 62
     0
370
    30
100
AcDbPolyline
 90
       14
 70
     0
 43
0.0
 10
631.140808
 20
232.937515
 10
631.744812
 20
233.247284
 10
632.369751
 20
233.492844
 10
633.010437
 20
233.673553
 10
633.66156
 20
233.789062
 10
634.317932
 20
233.840652
 10
634.974243
 20
233.83017
 10
635.625061
 20
233.759491
 10
636.265381
 20
233.630875
 10
636.890259
 20
233.446732
 10
637.49469
 20
233.209503
 10
638.074341
 20
232.921463
 10
638.625183
 20
232.584702
 10
639.184204
 20
232.166916
  0
ELLIPSE
  5
1A8
330
180
100
AcDbEntity
  8
0
  6
Continuous
 62
     0
370
     0
100
AcDbEllipse
 10
587.901878
 20
248.674876
 30
0.0
 11
-4.500031793754754
 21
-7.794210128901865
 31
0.0
210
0.0
220
0.0
230
-1.0
 40
0.577348
 41
2.094328845540489
 42
3.141592676439803
  0
ELLIPSE
  5
1A9
330
180
100
AcDbEntity
  8
0
  6
Continuous
 62
     0
370
     0
100
AcDbEllipse
 10
587.901878
 20
248.674876
 30
0.0
 11
-4.500031793754754
 21
-7.794210128901865
 31
0.0
210
0.0
220
0.0
230
-1.0
 40
0.577348
 41
0.0000000228500094
 42
2.094328845540489
  0
ELLIPSE
  5
1AA
330
180
100
AcDbEntity
  8
0
  6
Continuous
 62
     0
370
    30
100
AcDbEllipse
 10
600.488369
 20
241.407993
 30
0.0
 11
4.500031793754754
 21
7.794210128901865
 31
0.0
210
0.0
220
0.0
230
1.0
 40
0.577348
 41
1.047263808049303
 42
1.646478897092235
  0
ELLIPSE
  5
1AB
330
180
100
AcDbEntity
  8
0
  6
Continuous
 62
     0
370
    30
100
AcDbEllipse
 10
600.488369
 20
241.407993
 30
0.0
 11
4.500031793754754
 21
7.794210128901865
 31
0.0
210
0.0
220
0.0
230
1.0
 40
0.577348
 41
0.5371829489993649
 42
1.047263808049303
  0
ELLIPSE
  5
1AC
330
180
100
AcDbEntity
  8
0
  6
Continuous
 62
     0
370
    30
100
AcDbEllipse
 10
511.985857
 20
223.278006
 30
0.0
 11
-31.5
 21
0.0
 31
0.0
210
0.0
220
0.0
230
1.0
 40
0.57735
 41
0.7465384337747967
 42
3.888131087364589
  0
ELLIPSE
  5
1AD
330
180
100
AcDbEntity
  8
0
  6
Continuous
 62
     0
370
    30
100
AcDbEllipse
 10
511.985857
 20
223.278006
 30
0.0
 11
-31.5
 21
0.0
 31
0.0
210
0.0
220
0.0
230
1.0
 40
0.57735
 41
3.888131087364588
 42
7.029723740954382
  0
ELLIPSE
  5
1AE
330
180
100
AcDbEntity
  8
0
  6
Continuous
 62
     0
370
     0
100
AcDbEllipse
 10
511.985857
 20
207.356323
 30
0.0
 11
-31.5
 21
0.0
 31
0.0
210
0.0
220
0.0
230
1.0
 40
0.57735
 41
0.7465384337747967
 42
3.141592644950107
  0
ELLIPSE
  5
1AF
330
180
100
AcDbEntity
  8
0
  6
Continuous
 62
     0
370
     0
100
AcDbEllipse
 10
511.985857
 20
207.356323
 30
0.0
 11
-31.5
 21
0.0
 31
0.0
210
0.0
220
0.0
230
1.0
 40
0.57735
 41
6.283164072778693
 42
7.029723740954382
  0
ELLIPSE
  5
1B0
330
180
100
AcDbEntity
  8
0
  6
Continuous
 62
     0
370
     0
100
AcDbEllipse
 10
511.985857
 20
196.333619
 30
0.0
 11
-16.00000000000011
 21
0.0
 31
0.0
210
0.0
220
0.0
230
1.0
 40
0.57735
 41
0.6968004239243859
 42
0.7853981633974474
  0
ELLIPSE
  5
1B1
330
180
100
AcDbEntity
  8
0
  6
Continuous
 62
     0
370
     0
100
AcDbEllipse
 10
511.985857
 20
196.333619
 30
0.0
 11
-16.00000000000011
 21
0.0
 31
0.0
210
0.0
220
0.0
230
1.0
 40
0.57735
 41
0.7853981633974474
 42
2.444877120479884
  0
ELLIPSE
  5
1B2
330
180
100
AcDbEntity
  8
0
  6
Continuous
 62
     0
370
    30
100
AcDbEllipse
 10
618.051874
 20
284.51525
 30
0.0
 11
-31.5
 21
0.0
 31
0.0
210
0.0
220
0.0
230
1.0
 40
0.57735
 41
0.8454405626276271
 42
3.98703321621742
  0
ELLIPSE
  5
1B3
330
180
100
AcDbEntity
  8
0
  6
Continuous
 62
     0
370
    30
100
AcDbEllipse
 10
618.051874
 20
284.51525
 30
0.0
 11
-31.5
 21
0.0
 31
0.0
210
0.0
220
0.0
230
1.0
 40
0.57735
 41
3.987033216217419
 42
7.128625869807213
  0
ELLIPSE
  5
1B4
330
180
100
AcDbEntity
  8
0
  6
Continuous
 62
     0
370
     0
100
AcDbEllipse
 10
618.051874
 20
268.593566
 30
0.0
 11
-31.5
 21
0.0
 31
0.0
210
0.0
220
0.0
230
1.0
 40
0.57735
 41
0.8454405626276271
 42
3.14165560702833
  0
ELLIPSE
  5
1B5
330
180
100
AcDbEntity
  8
0
  6
Continuous
 62
     0
370
     0
100
AcDbEllipse
 10
618.051874
 20
268.593566
 30
0.0
 11
-31.5
 21
0.0
 31
0.0
210
0.0
220
0.0
230
1.0
 40
0.57735
 41
-0.0000000086396863
 42
0.8454405626276271
  0
ELLIPSE
  5
1B6
330
180
100
AcDbEntity
  8
0
  6
Continuous
 62
     0
370
     0
100
AcDbEllipse
 10
618.051874
 20
257.570862
 30
0.0
 11
-16.00000000000011
 21
0.0
 31
0.0
210
0.0
220
0.0
230
1.0
 40
0.57735
 41
0.7853981633974483
 42
2.444869363302097
  0
ELLIPSE
  5
1B7
330
180
100
AcDbEntity
  8
0
  6
Continuous
 62
     0
370
     0
100
AcDbEllipse
 10
618.051874
 20
257.570862
 30
0.0
 11
-16.00000000000011
 21
0.0
 31
0.0
210
0.0
220
0.0
230
1.0
 40
0.57735
 41
0.6967387013109283
 42
0.7853981633974465
  0
ELLIPSE
  5
1B8
330
180
100
AcDbEntity
  8
0
  6
Continuous
 62
     0
370
    30
100
AcDbEllipse
 10
634.452312
 20
221.798718
 30
0.0
 11
5.750040707760719
 21
9.95926864077351
 31
0.0
210
0.0
220
0.0
230
1.0
 40
0.577348
 41
6.248595337868724
 42
7.053258033504791
  0
ELLIPSE
  5
1B9
330
180
100
AcDbEntity
  8
0
  6
Continuous
 62
     0
370
    30
100
AcDbEllipse
 10
634.452312
 20
221.798718
 30
0.0
 11
5.750040707760719
 21
9.95926864077351
 31
0.0
210
0.0
220
0.0
230
1.0
 40
0.577348
 41
0.7700727263252052
 42
3.17618257720064
  0
ELLIPSE
  5
1BA
330
180
100
AcDbEntity
  8
0
  6
Continuous
 62
     0
370
    30
100
AcDbEllipse
 10
655.665514
 20
209.551154
 30
0.0
 11
-5.016413122687214
 21
-8.688600384083143
 31
0.0
210
0.0
220
0.0
230
-1.0
 40
0.577348
 41
5.608567281443888
 42
8.654705234444165
  0
ELLIPSE
  5
1BB
330
180
100
AcDbEntity
  8
0
  6
Continuous
 62
     0
370
    30
100
AcDbEllipse
 10
655.665514
 20
209.551154
 30
0.0
 11
-5.016413122687214
 21
-8.688600384083143
 31
0.0
210
0.0
220
0.0
230
-1.0
 40
0.577348
 41
2.371519927264579
 42
4.046759343455919
  0
LWPOLYLINE
  5
1BC
330
180
100
AcDbEntity
  8
0
  6
Continuous
 62
     0
370
    30
100
AcDbPolyline
 90
        9
 70
     0
 43
0.0
 10
652.006042
 20
203.148834
 10
651.713013
 20
203.38855
 10
651.453247
 20
203.677475
 10
651.229309
 20
204.013672
 10
651.043762
 20
204.395035
 10
650.898193
 20
204.817459
 10
650.793579
 20
205.275574
 10
650.730835
 20
205.764053
 10
650.710815
 20
206.362854
  0
LWPOLYLINE
  5
1BD
330
180
100
AcDbEntity
  8
0
  6
Continuous
 62
     0
370
    30
100
AcDbPolyline
 90
       24
 70
     0
 43
0.0
 10
650.710815
 20
206.362854
 10
650.744873
 20
206.970764
 10
650.831543
 20
207.604874
 10
650.970337
 20
208.258896
 10
651.15979
 20
208.923767
 10
651.398132
 20
209.590363
 10
651.682495
 20
210.250977
 10
652.008972
 20
210.898636
 10
652.373779
 20
211.526428
 10
652.772949
 20
212.127472
 10
653.202576
 20
212.695572
 10
653.658325
 20
213.225586
 10
654.135681
 20
213.712418
 10
654.629456
 20
214.150757
 10
655.134338
 20
214.535538
 10
655.644775
 20
214.862762
 10
656.155396
 20
215.12883
 10
656.660767
 20
215.331024
 10
657.155334
 20
215.467056
 10
657.63385
 20
215.535568
 10
658.091248
 20
215.535858
 10
658.522522
 20
215.467957
 10
658.923279
 20
215.332703
 10
659.30127
 20
215.123322
  0
LWPOLYLINE
  5
1BE
330
180
100
AcDbEntity
  8
0
  6
Continuous
 62
     0
370
    30
100
AcDbPolyline
 90
       32
 70
     0
 43
0.0
 10
716.200684
 20
163.628891
 10
716.163757
 20
164.163712
 10
716.080933
 20
164.686996
 10
715.948914
 20
165.189163
 10
715.765686
 20
165.66011
 10
715.530579
 20
166.089706
 10
715.244812
 20
166.468384
 10
714.911255
 20
166.787674
 10
714.534607
 20
167.040863
 10
714.121155
 20
167.223328
 10
713.678284
 20
167.332901
 10
713.214294
 20
167.369858
 10
712.73761
 20
167.336868
 10
712.256653
 20
167.238617
 10
711.779114
 20
167.081406
 10
711.311768
 20
166.87262
 10
710.856201
 20
166.617645
 10
710.391785
 20
166.305038
 10
709.92041
 20
165.931198
 10
709.449036
 20
165.49649
 10
708.985474
 20
165.003311
 10
708.538086
 20
164.456314
 10
708.115295
 20
163.862305
 10
707.724976
 20
163.230042
 10
707.374329
 20
162.569855
 10
707.069153
 20
161.893082
 10
706.813538
 20
161.211411
 10
706.609863
 20
160.536285
 10
706.45874
 20
159.878204
 10
706.359009
 20
159.246353
 10
706.308105
 20
158.648239
 10
706.302307
 20
158.089279
  0
LWPOLYLINE
  5
1BF
330
180
100
AcDbEntity
  8
0
  6
Continuous
 62
     0
370
    30
100
AcDbPolyline
 90
       32
 70
     0
 43
0.0
 10
706.302307
 20
158.089279
 10
706.339233
 20
157.554474
 10
706.422058
 20
157.031174
 10
706.554077
 20
156.529007
 10
706.737305
 20
156.05806
 10
706.972412
 20
155.628464
 10
707.258179
 20
155.249802
 10
707.591736
 20
154.930496
 10
707.968384
 20
154.677307
 10
708.381836
 20
154.494843
 10
708.824707
 20
154.385284
 10
709.288696
 20
154.348312
 10
709.76532
 20
154.381302
 10
710.246338
 20
154.479553
 10
710.723877
 20
154.636765
 10
711.191162
 20
154.845551
 10
711.64679
 20
155.100525
 10
712.111145
 20
155.413132
 10
712.582581
 20
155.786972
 10
713.053955
 20
156.221695
 10
713.517517
 20
156.714859
 10
713.964905
 20
157.261856
 10
714.387695
 20
157.855865
 10
714.777954
 20
158.488144
 10
715.128601
 20
159.148331
 10
715.433838
 20
159.825104
 10
715.689453
 20
160.50676
 10
715.893127
 20
161.181885
 10
716.04425
 20
161.839966
 10
716.143982
 20
162.471817
 10
716.194885
 20
163.069946
 10
716.200684
 20
163.628891
  0
LWPOLYLINE
  5
1C0
330
180
100
AcDbEntity
  8
0
  6
Continuous
 62
     0
370
    30
100
AcDbPolyline
 90
       55
 70
     0
 43
0.0
 10
708.038452
 20
154.640091
 10
706.928101
 20
155.212173
 10
705.819275
 20
155.791229
 10
704.711609
 20
156.376602
 10
703.604736
 20
156.967606
 10
702.498108
 20
157.563599
 10
701.391541
 20
158.164413
 10
700.284851
 20
158.770676
 10
699.177917
 20
159.383102
 10
698.070618
 20
160.002396
 10
696.96283
 20
160.629272
 10
695.854492
 20
161.26445
 10
694.745361
 20
161.90863
 10
693.635376
 20
162.562546
 10
692.524597
 20
163.227066
 10
691.413025
 20
163.903412
 10
690.300964
 20
164.592819
 10
689.188477
 20
165.296524
 10
688.075867
 20
166.015778
 10
686.963196
 20
166.751831
 10
685.851013
 20
167.506088
 10
684.740173
 20
168.280197
 10
683.631531
 20
169.075821
 10
682.526001
 20
169.894623
 10
681.4245
 20
170.738281
 10
680.327942
 20
171.608444
 10
679.237244
 20
172.506729
 10
678.154053
 20
173.434311
 10
677.0802
 20
174.392136
 10
676.0177
 20
175.381134
 10
674.96814
 20
176.401733
 10
673.932922
 20
177.453293
 10
672.913208
 20
178.535049
 10
671.910278
 20
179.64624
 10
670.925293
 20
180.785995
 10
669.959167
 20
181.952301
 10
669.012634
 20
183.142731
 10
668.085205
 20
184.354553
 10
667.174133
 20
185.584381
 10
666.27594
 20
186.828796
 10
665.38739
 20
188.08432
 10
664.505249
 20
189.347504
 10
663.626099
 20
190.614792
 10
662.745422
 20
191.879822
 10
661.857605
 20
193.13327
 10
660.95697
 20
194.365646
 10
660.037659
 20
195.567459
 10
659.094482
 20
196.72905
 10
658.127441
 20
197.838837
 10
657.140198
 20
198.88385
 10
656.136414
 20
199.854095
 10
655.119202
 20
200.755844
 10
654.091431
 20
201.600891
 10
653.055237
 20
202.399704
 10
651.997864
 20
203.153519
  0
LWPOLYLINE
  5
1C1
330
180
100
AcDbEntity
  8
0
  6
Continuous
 62
     0
370
    30
100
AcDbPolyline
 90
       44
 70
     0
 43
0.0
 10
714.464111
 20
167.078308
 10
713.112549
 20
167.774857
 10
711.757629
 20
168.4841
 10
710.400269
 20
169.2052
 10
709.041382
 20
169.937302
 10
707.681763
 20
170.679565
 10
706.322449
 20
171.431137
 10
704.964233
 20
172.191162
 10
703.607971
 20
172.959305
 10
702.253845
 20
173.737839
 10
700.901733
 20
174.529953
 10
699.551758
 20
175.338348
 10
698.204163
 20
176.164459
 10
696.859192
 20
177.009705
 10
695.517578
 20
177.87709
 10
694.179993
 20
178.770432
 10
692.847351
 20
179.693558
 10
691.520447
 20
180.650589
 10
690.200684
 20
181.64711
 10
688.889526
 20
182.689178
 10
687.588562
 20
183.782806
 10
686.299377
 20
184.933807
 10
685.025208
 20
186.145844
 10
683.769958
 20
187.4216
 10
682.537354
 20
188.763199
 10
681.330383
 20
190.166946
 10
680.151428
 20
191.625351
 10
679.001404
 20
193.130096
 10
677.875977
 20
194.669968
 10
676.769531
 20
196.233139
 10
675.673889
 20
197.808624
 10
674.578735
 20
199.386185
 10
673.473755
 20
200.955582
 10
672.348999
 20
202.50618
 10
671.195557
 20
204.026306
 10
670.004883
 20
205.504303
 10
668.774048
 20
206.931091
 10
667.505432
 20
208.300095
 10
666.201538
 20
209.604843
 10
664.86499
 20
210.839096
 10
663.501282
 20
212.001801
 10
662.11853
 20
213.097244
 10
660.725098
 20
214.129944
 10
659.30127
 20
215.123352
  0
LINE
  5
1C2
330
180
100
AcDbEntity
  8
0
  6
Continuous
 62
     0
370
    30
100
AcDbLine
 10
640.397764
 20
231.637221
 30
0.0
 11
660.852407
 21
218.134397
 31
0.0
  0
LINE
  5
1C3
330
180
100
AcDbEntity
  8
0
  6
Continuous
 62
     0
370
    30
100
AcDbLine
 10
628.904562
 20
211.730599
 30
0.0
 11
650.825582
 21
200.767591
 31
0.0
  0
LWPOLYLINE
  5
1C4
330
180
100
AcDbEntity
  8
0
  6
Continuous
 62
     0
370
    30
100
AcDbPolyline
 90
       23
 70
     0
 43
0.0
 10
630.651184
 20
251.724945
 10
629.858521
 20
251.173477
 10
628.997437
 20
250.660751
 10
628.07251
 20
250.189407
 10
627.089417
 20
249.761536
 10
626.054199
 20
249.379166
 10
624.9729
 20
249.044281
 10
623.851318
 20
248.758911
 10
622.695679
 20
248.524963
 10
621.512695
 20
248.343567
 10
620.309509
 20
248.215561
 10
619.09314
 20
248.141739
 10
617.870728
 20
248.122803
 10
616.649353
 20
248.158615
 10
615.436157
 20
248.248596
 10
614.23822
 20
248.392212
 10
613.062622
 20
248.588898
 10
611.916382
 20
248.837936
 10
610.805908
 20
249.137817
 10
609.737366
 20
249.486755
 10
608.716919
 20
249.882935
 10
607.750732
 20
250.32431
 10
606.841736
 20
250.809998
  0
LINE
  5
1C5
330
180
100
AcDbEntity
  8
0
  6
Continuous
 62
     0
370
    30
100
AcDbLine
 10
606.841719
 20
250.810001
 30
0.0
 11
605.45243
 21
251.72499
 31
0.0
  0
LINE
  5
1C6
330
180
100
AcDbEntity
  8
0
  6
Continuous
 62
     0
370
    30
100
AcDbLine
 10
649.551764
 20
268.594711
 30
0.0
 11
649.425894
 21
266.944111
 31
0.0
  0
LWPOLYLINE
  5
1C7
330
180
100
AcDbEntity
  8
0
  6
Continuous
 62
     0
370
    30
100
AcDbPolyline
 90
       47
 70
     0
 43
0.0
 10
597.258545
 20
254.756195
 10
598.411377
 20
254.194061
 10
599.60968
 20
253.664444
 10
600.850281
 20
253.168701
 10
602.130066
 20
252.708206
 10
603.446045
 20
252.284073
 10
604.795105
 20
251.897079
 10
606.174072
 20
251.547974
 10
607.579895
 20
251.237534
 10
609.009521
 20
250.966507
 10
610.459717
 20
250.735687
 10
611.927429
 20
250.545654
 10
613.409241
 20
250.396667
 10
614.901672
 20
250.288818
 10
616.401306
 20
250.222244
 10
617.904663
 20
250.197098
 10
619.408386
 20
250.21347
 10
620.908997
 20
250.27153
 10
622.403015
 20
250.371368
 10
623.887085
 20
250.512924
 10
625.35791
 20
250.695618
 10
626.812134
 20
250.918869
 10
628.24646
 20
251.182083
 10
629.657593
 20
251.48465
 10
631.042236
 20
251.825958
 10
632.397095
 20
252.205429
 10
633.718872
 20
252.622437
 10
635.004517
 20
253.076126
 10
636.251526
 20
253.565308
 10
637.457458
 20
254.08873
 10
638.619629
 20
254.645157
 10
639.735657
 20
255.233383
 10
640.802979
 20
255.852142
 10
641.819031
 20
256.500244
 10
642.781372
 20
257.176422
 10
643.687439
 20
257.879456
 10
644.534851
 20
258.608032
 10
645.321716
 20
259.360565
 10
646.046448
 20
260.135345
 10
646.707275
 20
260.930664
 10
647.30249
 20
261.744873
 10
647.830811
 20
262.576233
 10
648.291016
 20
263.423004
 10
648.682129
 20
264.283447
 10
649.002014
 20
265.15564
 10
649.247681
 20
266.037415
 10
649.428711
 20
266.943665
  0
LWPOLYLINE
  5
1C8
330
180
100
AcDbEntity
  8
0
  6
Continuous
 62
     0
370
    30
100
AcDbPolyline
 90
       25
 70
     0
 43
0.0
 10
597.258545
 20
254.756195
 10
596.443115
 20
255.188812
 10
595.653076
 20
255.638763
 10
594.889465
 20
256.105408
 10
594.153442
 20
256.588074
 10
593.446045
 20
257.08609
 10
592.768372
 20
257.598785
 10
592.121521
 20
258.125549
 10
591.506592
 20
258.665649
 10
590.924622
 20
259.218445
 10
590.376709
 20
259.783264
 10
589.86322
 20
260.359497
 10
589.384521
 20
260.946503
 10
588.940735
 20
261.543671
 10
588.53241
 20
262.15036
 10
588.160767
 20
262.7659
 10
587.827209
 20
263.389648
 10
587.53302
 20
264.020874
 10
587.278809
 20
264.658905
 10
587.062134
 20
265.302734
 10
586.879944
 20
265.951324
 10
586.729858
 20
266.603699
 10
586.628235
 20
267.259247
 10
586.598938
 20
267.917542
 10
586.552063
 20
268.591736
  0
LINE
  5
1C9
330
180
100
AcDbEntity
  8
0
  6
Continuous
 62
     0
370
    30
100
AcDbLine
 10
649.551874
 20
268.593566
 30
0.0
 11
649.551874
 21
284.515249
 31
0.0
  0
LINE
  5
1CA
330
180
100
AcDbEntity
  8
0
  6
Continuous
 62
     0
370
    30
100
AcDbLine
 10
586.551874
 20
268.593566
 30
0.0
 11
586.551874
 21
284.51525
 31
0.0
  0
LWPOLYLINE
  5
1CB
330
180
100
AcDbEntity
  8
0
  6
Continuous
 62
     0
370
    30
100
AcDbPolyline
 90
       25
 70
     0
 43
0.0
 10
499.386597
 20
190.487427
 10
500.169128
 20
189.942825
 10
501.018921
 20
189.436157
 10
501.930603
 20
188.969574
 10
502.89859
 20
188.545105
 10
503.917358
 20
188.164825
 10
504.981323
 20
187.830765
 10
506.084961
 20
187.544998
 10
507.222565
 20
187.309464
 10
508.387756
 20
187.125244
 10
509.573578
 20
186.992798
 10
510.773132
 20
186.912628
 10
511.979492
 20
186.885239
 10
513.185791
 20
186.911118
 10
514.38501
 20
186.990662
 10
515.570557
 20
187.123337
 10
516.73584
 20
187.307877
 10
517.874329
 20
187.543045
 10
518.979492
 20
187.827591
 10
520.044861
 20
188.160248
 10
521.063904
 20
188.539703
 10
522.031372
 20
188.963867
 10
522.942383
 20
189.430374
 10
523.792114
 20
189.936829
 10
524.584656
 20
190.487595
  0
LINE
  5
1CC
330
180
100
AcDbEntity
  8
0
  6
Continuous
 62
     0
370
    30
100
AcDbLine
 10
480.485841
 20
207.356712
 30
0.0
 11
480.611419
 21
205.709111
 31
0.0
  0
LINE
  5
1CD
330
180
100
AcDbEntity
  8
0
  6
Continuous
 62
     0
370
    30
100
AcDbLine
 10
543.485815
 20
207.355289
 30
0.0
 11
543.359836
 21
205.706553
 31
0.0
  0
LWPOLYLINE
  5
1CE
330
180
100
AcDbEntity
  8
0
  6
Continuous
 62
     0
370
    30
100
AcDbPolyline
 90
       49
 70
     0
 43
0.0
 10
488.96582
 20
194.777649
 10
490.061188
 20
194.127487
 10
491.211609
 20
193.509521
 10
492.413788
 20
192.925369
 10
493.664368
 20
192.376709
 10
494.959991
 20
191.865173
 10
496.297363
 20
191.392166
 10
497.673065
 20
190.958618
 10
499.083679
 20
190.565445
 10
500.525818
 20
190.213516
 10
501.996063
 20
189.903763
 10
503.491058
 20
189.63707
 10
505.007263
 20
189.414124
 10
506.540771
 20
189.235229
 10
508.087799
 20
189.100601
 10
509.644409
 20
189.010483
 10
511.206757
 20
188.965118
 10
512.770935
 20
188.964722
 10
514.33313
 20
189.009567
 10
515.889465
 20
189.099823
 10
517.436157
 20
189.235184
 10
518.969482
 20
189.415054
 10
520.485657
 20
189.638809
 10
521.980957
 20
189.905823
 10
523.451721
 20
190.215515
 10
524.894226
 20
190.567245
 10
526.304626
 20
190.960403
 10
527.679504
 20
191.394211
 10
529.015625
 20
191.867477
 10
530.310059
 20
192.378876
 10
531.559753
 20
192.927155
 10
532.761597
 20
193.511002
 10
533.91272
 20
194.12915
 10
535.009949
 20
194.780289
 10
536.050354
 20
195.46312
 10
537.031372
 20
196.176117
 10
537.950928
 20
196.917511
 10
538.806885
 20
197.685562
 10
539.597107
 20
198.4785
 10
540.319519
 20
199.294586
 10
540.971985
 20
200.13205
 10
541.552429
 20
200.98912
 10
542.059387
 20
201.863754
 10
542.491455
 20
202.75383
 10
542.84729
 20
203.657242
 10
543.12561
 20
204.571838
 10
543.325195
 20
205.495087
 10
543.445496
 20
206.423553
 10
543.48584
 20
207.355286
  0
LWPOLYLINE
  5
1CF
330
180
100
AcDbEntity
  8
0
  6
Continuous
 62
     0
370
    30
100
AcDbPolyline
 90
       20
 70
     0
 43
0.0
 10
488.96582
 20
194.777649
 10
488.149689
 20
195.30748
 10
487.368164
 20
195.856628
 10
486.62262
 20
196.424133
 10
485.914398
 20
197.009033
 10
485.244781
 20
197.610352
 10
484.615173
 20
198.227112
 10
484.026855
 20
198.858368
 10
483.481171
 20
199.503143
 10
482.979095
 20
200.160522
 10
482.520996
 20
200.829651
 10
482.10733
 20
201.509659
 10
481.738861
 20
202.199646
 10
481.416809
 20
202.898621
 10
481.142395
 20
203.605591
 10
480.915588
 20
204.319489
 10
480.73056
 20
205.03891
 10
480.593933
 20
205.762482
 10
480.522644
 20
206.489029
 10
480.496277
 20
207.219604
  0
LINE
  5
1D0
330
180
100
AcDbEntity
  8
0
  6
Continuous
 62
     0
370
    30
100
AcDbLine
 10
543.485857
 20
207.356323
 30
0.0
 11
543.485857
 21
223.278006
 31
0.0
  0
LINE
  5
1D1
330
180
100
AcDbEntity
  8
0
  6
Continuous
 62
     0
370
    30
100
AcDbLine
 10
480.485857
 20
207.356323
 30
0.0
 11
480.485857
 21
223.278006
 31
0.0
  0
LINE
  5
1D2
330
180
100
AcDbEntity
  8
0
  6
Continuous
 62
     0
370
    30
100
AcDbLine
 10
592.40191
 20
256.469086
 30
0.0
 11
602.051874
 21
250.897624
 31
0.0
  0
LINE
  5
1D3
330
180
100
AcDbEntity
  8
0
  6
Continuous
 62
     0
370
    30
100
AcDbLine
 10
583.401847
 20
240.880666
 30
0.0
 11
587.341546
 21
238.606057
 31
0.0
  0
LINE
  5
1D4
330
180
100
AcDbEntity
  8
0
  6
Continuous
 62
     0
370
    30
100
AcDbLine
 10
625.341085
 20
215.512103
 30
0.0
 11
626.612842
 21
214.777847
 31
0.0
  0
LINE
  5
1D5
330
180
100
AcDbEntity
  8
0
  6
Continuous
 62
     0
370
    30
100
AcDbLine
 10
633.680375
 20
233.791431
 30
0.0
 11
636.612912
 21
232.098315
 31
0.0
  0
LINE
  5
1D6
330
180
100
AcDbEntity
  8
0
  6
Continuous
 62
     0
370
    30
100
AcDbLine
 10
628.275648
 20
212.12537
 30
0.0
 11
496.81419
 21
136.226061
 31
0.0
  0
LINE
  5
1D7
330
180
100
AcDbEntity
  8
0
  6
Continuous
 62
     0
370
    30
100
AcDbLine
 10
654.923266
 20
227.510379
 30
0.0
 11
650.509517
 21
224.9621
 31
0.0
  0
LINE
  5
1D8
330
180
100
AcDbEntity
  8
0
  6
Continuous
 62
     0
370
    30
100
AcDbLine
 10
475.114189
 20
173.811564
 30
0.0
 11
494.990816
 21
185.287339
 31
0.0
  0
LINE
  5
1D9
330
180
100
AcDbEntity
  8
0
  6
Continuous
 62
     0
370
    30
100
AcDbLine
 10
543.485857
 20
213.285964
 30
0.0
 11
601.056833
 21
246.524583
 31
0.0
  0
ARC
  5
1DA
330
180
100
AcDbEntity
  8
0
  6
Continuous
 62
     0
370
    30
100
AcDbCircle
 10
493.008273
 20
187.495435
 30
0.0
 40
2.978213929677201
100
AcDbArc
 50
311.875711
 51
1.273203
  0
LINE
  5
1DB
330
180
100
AcDbEntity
  8
0
  6
Continuous
 62
     0
370
    30
100
AcDbLine
 10
495.985857
 20
187.56194
 30
0.0
 11
495.985857
 21
191.49763
 31
0.0
  0
LINE
  5
1DC
330
180
100
AcDbEntity
  8
0
  6
Continuous
 62
     0
370
    30
100
AcDbLine
 10
527.985857
 20
187.56194
 30
0.0
 11
527.985857
 21
191.498077
 31
0.0
  0
ARC
  5
1DD
330
180
100
AcDbEntity
  8
0
  6
Continuous
 62
     0
370
    30
100
AcDbCircle
 10
599.07429
 20
248.732679
 30
0.0
 40
2.97821393051128
100
AcDbArc
 50
311.875711
 51
1.273202
  0
LINE
  5
1DE
330
180
100
AcDbEntity
  8
0
  6
Continuous
 62
     0
370
    30
100
AcDbLine
 10
602.051874
 20
248.799184
 30
0.0
 11
602.051874
 21
252.734954
 31
0.0
  0
LINE
  5
1DF
330
180
100
AcDbEntity
  8
0
  6
Continuous
 62
     0
370
    30
100
AcDbLine
 10
634.051874
 20
248.799184
 30
0.0
 11
634.051874
 21
252.735256
 31
0.0
  0
LINE
  5
1E0
330
180
100
AcDbEntity
  8
0
  6
Continuous
 62
     0
370
    30
100
AcDbLine
 10
496.81419
 20
136.226061
 30
0.0
 11
496.402038
 21
136.004565
 31
0.0
  0
LINE
  5
1E1
330
180
100
AcDbEntity
  8
0
  6
Continuous
 62
     0
370
    30
100
AcDbLine
 10
475.114252
 20
173.8116
 30
0.0
 11
474.716321
 21
173.565393
 31
0.0
  0
LWPOLYLINE
  5
1E2
330
180
100
AcDbEntity
  8
0
  6
Continuous
 62
     0
370
    30
100
AcDbPolyline
 90
       38
 70
     0
 43
0.0
 10
647.447693
 20
261.961487
 10
648.314697
 20
261.228394
 10
649.167419
 20
260.445953
 10
650.003174
 20
259.61676
 10
650.819336
 20
258.7435
 10
651.613159
 20
257.828735
 10
652.382019
 20
256.875488
 10
653.123596
 20
255.887177
 10
653.835571
 20
254.867218
 10
654.515564
 20
253.819077
 10
655.161194
 20
252.746246
 10
655.770142
 20
251.652161
 10
656.340149
 20
250.540314
 10
656.869446
 20
249.414429
 10
657.356567
 20
248.278351
 10
657.799988
 20
247.13588
 10
658.19812
 20
245.990845
 10
658.549561
 20
244.847061
 10
658.852722
 20
243.708359
 10
659.106506
 20
242.578415
 10
659.310303
 20
241.460754
 10
659.463623
 20
240.358826
 10
659.565857
 20
239.276169
 10
659.616516
 20
238.216217
 10
659.615051
 20
237.18251
 10
659.560974
 20
236.178452
 10
659.454346
 20
235.207138
 10
659.295471
 20
234.2715
 10
659.084534
 20
233.374496
 10
658.821838
 20
232.519058
 10
658.507629
 20
231.70813
 10
658.142212
 20
230.944656
 10
657.72644
 20
230.231461
 10
657.261292
 20
229.571381
 10
656.747986
 20
228.967209
 10
656.187744
 20
228.421799
 10
655.583557
 20
227.938171
 10
654.923279
 20
227.510376
  0
LINE
  5
1E3
330
180
100
AcDbEntity
  8
0
  6
Continuous
 62
     0
370
    30
100
AcDbLine
 10
628.190967
 20
212.192556
 30
0.0
 11
627.623521
 21
211.861931
 31
0.0
  0
LINE
  5
1E4
330
180
100
AcDbEntity
  8
0
  6
Continuous
 62
     0
370
    30
100
AcDbLine
 10
626.911217
 20
129.035415
 30
0.0
 11
639.576456
 21
114.457536
 31
0.0
  0
LINE
  5
1E5
330
180
100
AcDbEntity
  8
0
  6
Continuous
 62
     0
370
    30
100
AcDbLine
 10
645.783518
 20
145.431642
 30
0.0
 11
658.448757
 21
130.853763
 31
0.0
  0
LWPOLYLINE
  5
1E6
330
180
100
AcDbEntity
  8
0
  6
Continuous
 62
     0
370
    30
100
AcDbPolyline
 90
       27
 70
     0
 43
0.0
 10
626.911194
 20
129.035416
 10
625.467529
 20
130.72139
 10
624.042236
 20
132.452164
 10
622.654724
 20
134.229965
 10
621.312134
 20
136.053223
 10
620.014099
 20
137.917953
 10
618.760315
 20
139.820175
 10
617.551819
 20
141.7565
 10
616.391052
 20
143.724091
 10
615.280457
 20
145.720154
 10
614.222168
 20
147.741669
 10
613.217773
 20
149.785385
 10
612.26886
 20
151.847961
 10
611.376892
 20
153.926102
 10
610.543396
 20
156.016541
 10
609.769836
 20
158.116211
 10
609.057373
 20
160.22229
 10
608.407288
 20
162.33197
 10
607.820679
 20
164.442398
 10
607.298828
 20
166.550797
 10
606.842896
 20
168.654297
 10
606.454163
 20
170.750076
 10
606.133484
 20
172.835205
 10
605.881958
 20
174.906769
 10
605.7005
 20
176.961823
 10
605.590088
 20
178.997452
 10
605.551758
 20
181.065048
  0
LWPOLYLINE
  5
1E7
330
180
100
AcDbEntity
  8
0
  6
Continuous
 62
     0
370
    30
100
AcDbPolyline
 90
       26
 70
     0
 43
0.0
 10
645.783508
 20
145.431641
 10
644.715881
 20
146.669617
 10
643.671387
 20
147.930832
 10
642.652466
 20
149.237534
 10
641.659912
 20
150.583618
 10
640.695984
 20
151.964798
 10
639.763733
 20
153.378357
 10
638.865784
 20
154.820984
 10
638.004456
 20
156.288834
 10
637.182129
 20
157.778046
 10
636.400818
 20
159.284637
 10
635.662292
 20
160.80452
 10
634.968323
 20
162.333603
 10
634.320618
 20
163.867783
 10
633.720886
 20
165.402969
 10
633.170776
 20
166.934937
 10
632.671387
 20
168.459137
 10
632.223755
 20
169.970947
 10
631.828918
 20
171.465683
 10
631.487183
 20
172.938477
 10
631.198669
 20
174.384384
 10
630.963745
 20
175.798477
 10
630.782471
 20
177.175827
 10
630.654297
 20
178.510834
 10
630.577881
 20
179.797241
 10
630.551758
 20
181.065048
  0
LINE
  5
1E8
330
180
100
AcDbEntity
  8
0
  6
Continuous
 62
     0
370
    30
100
AcDbLine
 10
630.551737
 20
210.906823
 30
0.0
 11
630.551737
 21
181.065053
 31
0.0
  0
LINE
  5
1E9
330
180
100
AcDbEntity
  8
0
  6
Continuous
 62
     0
370
    30
100
AcDbLine
 10
605.551737
 20
199.005712
 30
0.0
 11
605.551737
 21
181.065054
 31
0.0
  0
LINE
  5
1EA
330
180
100
AcDbEntity
  8
0
  6
Continuous
 62
     0
370
    30
100
AcDbLine
 10
494.395637
 20
136.745802
 30
0.0
 11
491.699986
 21
136.002691
 31
0.0
  0
LWPOLYLINE
  5
1EB
330
180
100
AcDbEntity
  8
0
  6
Continuous
 62
     0
370
    30
100
AcDbPolyline
 90
       21
 70
     0
 43
0.0
 10
448.109955
 20
159.436615
 10
447.746735
 20
159.53949
 10
447.368195
 20
159.572128
 10
446.989471
 20
159.538757
 10
446.624908
 20
159.443817
 10
446.279236
 20
159.29393
 10
445.950806
 20
159.097168
 10
445.638092
 20
158.860474
 10
445.340668
 20
158.586899
 10
445.058319
 20
158.278671
 10
444.790985
 20
157.938171
 10
444.54007
 20
157.569122
 10
444.307739
 20
157.175827
 10
444.096069
 20
156.762665
 10
443.907227
 20
156.333954
 10
443.743103
 20
155.894379
 10
443.605469
 20
155.448914
 10
443.496063
 20
155.002563
 10
443.416595
 20
154.560333
 10
443.368622
 20
154.126709
 10
443.353271
 20
153.691193
  0
LINE
  5
1EC
330
180
100
AcDbEntity
  8
0
  6
Continuous
 62
     0
370
    30
100
AcDbLine
 10
444.781084
 20
151.075374
 30
0.0
 11
444.632385
 21
151.141925
 31
0.0
  0
ARC
  5
1ED
330
180
100
AcDbEntity
  8
0
  6
Continuous
 62
     0
370
    30
100
AcDbCircle
 10
445.961914
 20
153.417512
 30
0.0
 40
2.622969228496276
100
AcDbArc
 50
174.010738
 51
243.244245
  0
LINE
  5
1EE
330
180
100
AcDbEntity
  8
0
  6
Continuous
 62
     0
370
    30
100
AcDbLine
 10
454.112746
 20
157.049365
 30
0.0
 11
448.109061
 21
159.437093
 31
0.0
  0
LINE
  5
1EF
330
180
100
AcDbEntity
  8
0
  6
Continuous
 62
     0
370
    30
100
AcDbLine
 10
457.396754
 20
146.057618
 30
0.0
 11
444.783058
 21
151.074216
 31
0.0
  0
ARC
  5
1F0
330
180
100
AcDbEntity
  8
0
  6
Continuous
 62
     0
370
    30
100
AcDbCircle
 10
435.351161
 20
238.200087
 30
0.0
 40
119.0937781273277
100
AcDbArc
 50
290.532165
 51
297.129166
  0
ARC
  5
1F1
330
180
100
AcDbEntity
  8
0
  6
Continuous
 62
     0
370
    30
100
AcDbCircle
 10
532.627382
 20
69.691438
 30
0.0
 40
118.97727034941
100
AcDbArc
 50
119.993408
 51
129.471995
  0
ARC
  5
1F2
330
180
100
AcDbEntity
  8
0
  6
Continuous
 62
     0
370
    30
100
AcDbCircle
 10
463.449606
 20
154.172518
 30
0.0
 40
9.791583795184666
100
AcDbArc
 50
131.24842
 51
169.61989
  0
LINE
  5
1F3
330
180
100
AcDbEntity
  8
0
  6
Continuous
 62
     0
370
    30
100
AcDbLine
 10
477.120821
 20
126.671523
 30
0.0
 11
476.777943
 21
126.552232
 31
0.0
  0
LWPOLYLINE
  5
1F4
330
180
100
AcDbEntity
  8
0
  6
Continuous
 62
     0
370
    30
100
AcDbPolyline
 90
       33
 70
     0
 43
0.0
 10
454.067078
 20
147.381866
 10
454.34314
 20
146.275009
 10
454.669189
 20
145.160156
 10
455.043823
 20
144.042023
 10
455.465607
 20
142.925369
 10
455.933105
 20
141.814911
 10
456.444855
 20
140.715408
 10
456.999115
 20
139.631195
 10
457.593353
 20
138.565857
 10
458.225067
 20
137.522858
 10
458.891663
 20
136.505692
 10
459.590576
 20
135.517822
 10
460.319275
 20
134.562744
 10
461.075226
 20
133.643936
 10
461.855835
 20
132.764877
 10
462.658539
 20
131.929062
 10
463.480835
 20
131.139938
 10
464.320068
 20
130.400528
 10
465.173676
 20
129.713013
 10
466.039001
 20
129.079529
 10
466.913422
 20
128.502182
 10
467.794281
 20
127.983093
 10
468.678955
 20
127.524368
 10
469.56485
 20
127.12812
 10
470.44931
 20
126.796471
 10
471.329712
 20
126.53154
 10
472.2034
 20
126.335434
 10
473.067749
 20
126.210236
 10
473.919342
 20
126.157135
 10
474.754028
 20
126.176323
 10
475.567505
 20
126.267937
 10
476.35556
 20
126.432114
 10
477.120819
 20
126.671524
  0
ENDBLK
  5
1F6
330
180
100
AcDbEntity
  8
0
100
AcDbBlockEnd
  0
BLOCK
  5
242
330
1F8
100
AcDbEntity
  8
0
100
AcDbBlockBegin
  2
e
 70
     0
 10
97.976532
 20
0.0
 30
0.0
  3
e
  1

  0
LINE
  5
1F9
330
1F8
100
AcDbEntity
  8
0
  6
Continuous
 62
     0
370
     0
100
AcDbLine
 10
33.074776
 20
432.037823
 30
0.0
 11
20.574776
 21
432.037823
 31
0.0
  0
LINE
  5
1FA
330
1F8
100
AcDbEntity
  8
0
  6
Continuous
 62
     0
370
     0
100
AcDbLine
 10
20.574776
 20
432.037823
 30
0.0
 11
8.074776
 21
432.037823
 31
0.0
  0
LWPOLYLINE
  5
1FB
330
1F8
100
AcDbEntity
  8
0
  6
Continuous
 62
     0
370
     0
100
AcDbPolyline
 90
       27
 70
     0
 43
0.0
 10
8.074777
 20
473.834015
 10
8.100045
 20
473.806061
 10
8.175078
 20
473.723816
 10
8.298382
 20
473.590485
 10
8.46765
 20
473.411072
 10
8.680401
 20
473.191254
 10
8.934052
 20
472.937256
 10
9.226017
 20
472.655334
 10
9.55377
 20
472.351746
 10
9.915671
 20
472.031586
 10
10.310718
 20
471.699341
 10
10.73792
 20
471.359314
 10
11.196372
 20
471.015869
 10
11.685693
 20
470.672729
 10
12.205709
 20
470.333313
 10
12.75625
 20
470.001129
 10
13.337052
 20
469.679688
 10
13.947549
 20
469.372589
 10
14.587106
 20
469.083405
 10
15.255084
 20
468.815826
 10
15.950349
 20
468.573395
 10
16.670918
 20
468.359772
 10
17.414722
 20
468.178558
 10
18.17952
 20
468.033325
 10
18.960407
 20
467.926788
 10
19.750469
 20
467.861084
 10
20.574776
 20
467.83783
  0
LWPOLYLINE
  5
1FC
330
1F8
100
AcDbEntity
  8
0
  6
Continuous
 62
     0
370
     0
100
AcDbPolyline
 90
       27
 70
     0
 43
0.0
 10
20.574776
 20
467.83783
 10
21.368227
 20
467.859314
 10
22.158529
 20
467.92337
 10
22.939926
 20
468.028381
 10
23.705488
 20
468.17218
 10
24.450172
 20
468.352081
 10
25.171696
 20
468.564545
 10
25.867996
 20
468.805908
 10
26.537077
 20
469.072601
 10
27.177763
 20
469.361023
 10
27.789413
 20
469.667511
 10
28.371395
 20
469.988464
 10
28.92313
 20
470.320282
 10
29.444344
 20
470.659454
 10
29.934866
 20
471.002563
 10
30.394518
 20
471.3461
 10
30.822943
 20
471.686401
 10
31.219246
 20
472.019135
 10
31.582447
 20
472.339844
 10
31.911549
 20
472.644073
 10
32.204956
 20
472.926758
 10
32.460152
 20
473.181793
 10
32.674538
 20
473.402985
 10
32.845524
 20
473.584229
 10
32.970627
 20
473.719666
 10
33.047539
 20
473.803986
 10
33.074776
 20
473.834015
  0
LINE
  5
1FD
330
1F8
100
AcDbEntity
  8
0
  6
Continuous
 62
     0
370
     0
100
AcDbLine
 10
-5.299153
 20
391.292353
 30
0.0
 11
0.262414
 21
380.097756
 31
0.0
  0
LWPOLYLINE
  5
1FE
330
1F8
100
AcDbEntity
  8
0
  6
Continuous
 62
     0
370
     0
100
AcDbPolyline
 90
       21
 70
     0
 43
0.0
 10
-10.860719
 20
402.486938
 10
-10.846423
 20
402.45816
 10
-10.802033
 20
402.368835
 10
-10.725543
 20
402.214874
 10
-10.615359
 20
401.993073
 10
-10.470407
 20
401.701294
 10
-10.290222
 20
401.338623
 10
-10.075024
 20
400.905457
 10
-9.825758
 20
400.403717
 10
-9.544109
 20
399.836823
 10
-9.232475
 20
399.209534
 10
-8.893902
 20
398.528046
 10
-8.531988
 20
397.799561
 10
-8.150755
 20
397.032196
 10
-7.754503
 20
396.234589
 10
-7.347661
 20
395.41568
 10
-6.934635
 20
394.58432
 10
-6.519668
 20
393.749054
 10
-6.106723
 20
392.917877
 10
-5.699396
 20
392.097992
 10
-5.299153
 20
391.292358
  0
LINE
  5
1FF
330
1F8
100
AcDbEntity
  8
0
  6
Continuous
 62
     0
370
    30
100
AcDbLine
 10
-17.64894
 20
371.19925
 30
0.0
 11
-23.210507
 21
382.393846
 31
0.0
  0
LINE
  5
200
330
1F8
100
AcDbEntity
  8
0
  6
Continuous
 62
     0
370
    30
100
AcDbLine
 10
-23.210507
 20
382.393846
 30
0.0
 11
-28.772072
 21
393.588442
 31
0.0
  0
ARC
  5
201
330
1F8
100
AcDbEntity
  8
0
  6
Continuous
 62
     0
370
     0
100
AcDbCircle
 10
20.574775
 20
493.537823
 30
0.0
 40
21.00000001192093
100
AcDbArc
 50
270.0
 51
90.0
  0
ARC
  5
202
330
1F8
100
AcDbEntity
  8
0
  6
Continuous
 62
     0
370
     0
100
AcDbCircle
 10
20.574775
 20
493.537823
 30
0.0
 40
21.00000001192093
100
AcDbArc
 50
90.0
 51
270.0
  0
ARC
  5
203
330
1F8
100
AcDbEntity
  8
0
  6
Continuous
 62
     0
370
    30
100
AcDbCircle
 10
20.574775
 20
493.537823
 30
0.0
 40
21.7
100
AcDbArc
 50
90.0
 51
270.0
  0
ARC
  5
204
330
1F8
100
AcDbEntity
  8
0
  6
Continuous
 62
     0
370
    30
100
AcDbCircle
 10
20.574775
 20
493.537823
 30
0.0
 40
21.7
100
AcDbArc
 50
270.0
 51
90.0
  0
ARC
  5
205
330
1F8
100
AcDbEntity
  8
0
  6
Continuous
 62
     0
370
     0
100
AcDbCircle
 10
20.574775
 20
493.537823
 30
0.0
 40
19.19999999999992
100
AcDbArc
 50
90.0
 51
270.0
  0
ARC
  5
206
330
1F8
100
AcDbEntity
  8
0
  6
Continuous
 62
     0
370
     0
100
AcDbCircle
 10
20.574775
 20
493.537823
 30
0.0
 40
19.19999999999992
100
AcDbArc
 50
270.0
 51
90.0
  0
LWPOLYLINE
  5
207
330
1F8
100
AcDbEntity
  8
0
  6
Continuous
 62
     0
370
     0
100
AcDbPolyline
 90
       34
 70
     0
 43
0.0
 10
36.574776
 20
509.677795
 10
36.553467
 20
509.710876
 10
36.490459
 20
509.807709
 10
36.387192
 20
509.964172
 10
36.245888
 20
510.174194
 10
36.069218
 20
510.430664
 10
35.859619
 20
510.726501
 10
35.619175
 20
511.054718
 10
35.349819
 20
511.408813
 10
35.052971
 20
511.784027
 10
34.729904
 20
512.176025
 10
34.381367
 20
512.580688
 10
34.007748
 20
512.994019
 10
33.609337
 20
513.412476
 10
33.186275
 20
513.833801
 10
32.738644
 20
514.255798
 10
32.266327
 20
514.676208
 10
31.769114
 20
515.092773
 10
31.246803
 20
515.502991
 10
30.699188
 20
515.904724
 10
30.126104
 20
516.295471
 10
29.527561
 20
516.672852
 10
28.903608
 20
517.034424
 10
28.254301
 20
517.377686
 10
27.579693
 20
517.700256
 10
26.880203
 20
517.999512
 10
26.156977
 20
518.272644
 10
25.411249
 20
518.516907
 10
24.644258
 20
518.729553
 10
23.857363
 20
518.907715
 10
23.05402
 20
519.049316
 10
22.239443
 20
519.152527
 10
21.418835
 20
519.21582
 10
20.574776
 20
519.237793
  0
LWPOLYLINE
  5
208
330
1F8
100
AcDbEntity
  8
0
  6
Continuous
 62
     0
370
     0
100
AcDbPolyline
 90
       34
 70
     0
 43
0.0
 10
20.574776
 20
519.237854
 10
19.751839
 20
519.216858
 10
18.93115
 20
519.154602
 10
18.116371
 20
519.052307
 10
17.312693
 20
518.911682
 10
16.525347
 20
518.734436
 10
15.75786
 20
518.522583
 10
15.011598
 20
518.279053
 10
14.287782
 20
518.006653
 10
13.587631
 20
517.708191
 10
12.912292
 20
517.386475
 10
12.262224
 20
517.044006
 10
11.637519
 20
516.683105
 10
11.038264
 20
516.306274
 10
10.464553
 20
515.915833
 10
9.916416
 20
515.514099
 10
9.393656
 20
515.103516
 10
8.896008
 20
514.686646
 10
8.42321
 20
514.26593
 10
7.975
 20
513.84375
 10
7.551228
 20
513.422546
 10
7.152023
 20
513.004395
 10
6.777576
 20
512.591614
 10
6.428247
 20
512.187195
 10
6.104486
 20
511.794922
 10
5.807031
 20
511.418884
 10
5.537047
 20
511.06369
 10
5.295869
 20
510.734467
 10
5.085431
 20
510.437683
 10
4.907858
 20
510.180267
 10
4.765587
 20
509.969177
 10
4.661289
 20
509.81134
 10
4.597208
 20
509.712799
 10
4.574777
 20
509.677795
  0
LINE
  5
209
330
1F8
100
AcDbEntity
  8
0
  6
Continuous
 62
     0
370
    30
100
AcDbLine
 10
4.574776
 20
525.237823
 30
0.0
 11
20.574776
 21
525.237823
 31
0.0
  0
LINE
  5
20A
330
1F8
100
AcDbEntity
  8
0
  6
Continuous
 62
     0
370
    30
100
AcDbLine
 10
20.574776
 20
525.237823
 30
0.0
 11
36.574776
 21
525.237823
 31
0.0
  0
LINE
  5
20B
330
1F8
100
AcDbEntity
  8
0
  6
Continuous
 62
     0
370
     0
100
AcDbLine
 10
20.574776
 20
515.237823
 30
0.0
 11
20.574776
 21
519.237823
 31
0.0
  0
LINE
  5
20C
330
1F8
100
AcDbEntity
  8
0
  6
Continuous
 62
     0
370
     0
100
AcDbLine
 10
63.198466
 20
502.538044
 30
0.0
 11
63.198549
 21
484.84486
 31
0.0
  0
LINE
  5
20D
330
1F8
100
AcDbEntity
  8
0
  6
Continuous
 62
     0
370
     0
100
AcDbLine
 10
63.198549
 20
484.84486
 30
0.0
 11
63.19855
 21
484.538044
 31
0.0
  0
LINE
  5
20E
330
1F8
100
AcDbEntity
  8
0
  6
Continuous
 62
     0
370
    30
100
AcDbLine
 10
45.398564
 20
484.537961
 30
0.0
 11
45.398562
 21
484.844777
 31
0.0
  0
LINE
  5
20F
330
1F8
100
AcDbEntity
  8
0
  6
Continuous
 62
     0
370
    30
100
AcDbLine
 10
45.398562
 20
484.844777
 30
0.0
 11
45.39848
 21
502.53796
 31
0.0
  0
LINE
  5
210
330
1F8
100
AcDbEntity
  8
0
  6
Continuous
 62
     0
370
    30
100
AcDbLine
 10
63.398467
 20
502.338045
 30
0.0
 11
63.398548
 21
485.038043
 31
0.0
  0
LINE
  5
211
330
1F8
100
AcDbEntity
  8
0
  6
Continuous
 62
     0
370
    30
100
AcDbLine
 10
-10.925224
 20
558.737823
 30
0.0
 11
22.464974
 21
558.737823
 31
0.0
  0
LINE
  5
212
330
1F8
100
AcDbEntity
  8
0
  6
Continuous
 62
     0
370
    30
100
AcDbLine
 10
22.464974
 20
558.737823
 30
0.0
 11
52.074776
 21
558.737823
 31
0.0
  0
LINE
  5
213
330
1F8
100
AcDbEntity
  8
0
  6
Continuous
 62
     0
370
    30
100
AcDbLine
 10
-10.425224
 20
538.737823
 30
0.0
 11
22.434971
 21
538.737823
 31
0.0
  0
LINE
  5
214
330
1F8
100
AcDbEntity
  8
0
  6
Continuous
 62
     0
370
    30
100
AcDbLine
 10
22.434971
 20
538.737823
 30
0.0
 11
51.574776
 21
538.737823
 31
0.0
  0
LINE
  5
215
330
1F8
100
AcDbEntity
  8
0
  6
Continuous
 62
     0
370
     0
100
AcDbLine
 10
-10.925224
 20
539.237823
 30
0.0
 11
22.464974
 21
539.237823
 31
0.0
  0
LINE
  5
216
330
1F8
100
AcDbEntity
  8
0
  6
Continuous
 62
     0
370
     0
100
AcDbLine
 10
22.464974
 20
539.237823
 30
0.0
 11
52.074776
 21
539.237823
 31
0.0
  0
LINE
  5
217
330
1F8
100
AcDbEntity
  8
0
  6
Continuous
 62
     0
370
     0
100
AcDbLine
 10
4.574776
 20
525.737823
 30
0.0
 11
20.574776
 21
525.737823
 31
0.0
  0
LINE
  5
218
330
1F8
100
AcDbEntity
  8
0
  6
Continuous
 62
     0
370
     0
100
AcDbLine
 10
20.574776
 20
525.737823
 30
0.0
 11
36.574776
 21
525.737823
 31
0.0
  0
LINE
  5
219
330
1F8
100
AcDbEntity
  8
0
  6
Continuous
 62
     0
370
    30
100
AcDbLine
 10
26.14254
 20
538.537823
 30
0.0
 11
36.574776
 21
538.537823
 31
0.0
  0
LINE
  5
21A
330
1F8
100
AcDbEntity
  8
0
  6
Continuous
 62
     0
370
    30
100
AcDbLine
 10
26.14254
 20
528.737823
 30
0.0
 11
26.14254
 21
538.537823
 31
0.0
  0
ARC
  5
21B
330
1F8
100
AcDbEntity
  8
0
  6
Continuous
 62
     0
370
    30
100
AcDbCircle
 10
20.574776
 20
543.737824
 30
0.0
 40
16.00000036122922
100
AcDbArc
 50
270.0
 51
290.364135
  0
ARC
  5
21C
330
1F8
100
AcDbEntity
  8
0
  6
Continuous
 62
     0
370
    30
100
AcDbCircle
 10
20.574776
 20
543.737823
 30
0.0
 40
15.99999963877149
100
AcDbArc
 50
249.635865
 51
269.999996
  0
LINE
  5
21D
330
1F8
100
AcDbEntity
  8
0
  6
Continuous
 62
     0
370
    30
100
AcDbLine
 10
15.007011
 20
538.537823
 30
0.0
 11
15.007011
 21
528.737823
 31
0.0
  0
LINE
  5
21E
330
1F8
100
AcDbEntity
  8
0
  6
Continuous
 62
     0
370
    30
100
AcDbLine
 10
4.574776
 20
538.537823
 30
0.0
 11
15.007011
 21
538.537823
 31
0.0
  0
LINE
  5
21F
330
1F8
100
AcDbEntity
  8
0
  6
Continuous
 62
     0
370
    30
100
AcDbLine
 10
15.610906
 20
538.737823
 30
0.0
 11
15.007011
 21
538.537823
 31
0.0
  0
LINE
  5
220
330
1F8
100
AcDbEntity
  8
0
  6
Continuous
 62
     0
370
    30
100
AcDbLine
 10
26.14254
 20
538.537823
 30
0.0
 11
25.538645
 21
538.737823
 31
0.0
  0
LINE
  5
221
330
1F8
100
AcDbEntity
  8
0
  6
Continuous
 62
     0
370
    30
100
AcDbLine
 10
26.14254
 20
528.737823
 30
0.0
 11
15.007011
 21
528.737823
 31
0.0
  0
LINE
  5
222
330
1F8
100
AcDbEntity
  8
0
  6
Continuous
 62
     0
370
    30
100
AcDbLine
 10
-2.633693
 20
482.037735
 30
0.0
 11
-2.6338
 21
505.036384
 31
0.0
  0
LINE
  5
223
330
1F8
100
AcDbEntity
  8
0
  6
Continuous
 62
     0
370
    30
100
AcDbLine
 10
-32.633793
 20
503.569171
 30
0.0
 11
-32.633699
 21
483.504839
 31
0.0
  0
LWPOLYLINE
  5
224
330
1F8
100
AcDbEntity
  8
0
  6
Continuous
 62
     0
370
    30
100
AcDbPolyline
 90
       17
 70
     0
 43
0.0
 10
-111.551125
 20
473.407104
 10
-111.518295
 20
474.073975
 10
-111.484612
 20
474.759033
 10
-111.450577
 20
475.452576
 10
-111.416733
 20
476.143219
 10
-111.383713
 20
476.818512
 10
-111.352135
 20
477.465515
 10
-111.322639
 20
478.071503
 10
-111.295792
 20
478.624756
 10
-111.272072
 20
479.115295
 10
-111.251846
 20
479.535461
 10
-111.235359
 20
479.880341
 10
-111.222702
 20
480.147827
 10
-111.213829
 20
480.338562
 10
-111.20858
 20
480.455566
 10
-111.206703
 20
480.503845
 10
-111.208015
 20
480.48764
  0
LINE
  5
225
330
1F8
100
AcDbEntity
  8
0
  6
Continuous
 62
     0
370
    30
100
AcDbLine
 10
-111.895514
 20
466.522867
 30
0.0
 11
-111.551124
 21
473.4071
 31
0.0
  0
LINE
  5
226
330
1F8
100
AcDbEntity
  8
0
  6
Continuous
 62
     0
370
    30
100
AcDbLine
 10
-111.551124
 20
473.621681
 30
0.0
 11
-111.561668
 21
473.407619
 31
0.0
  0
LWPOLYLINE
  5
227
330
1F8
100
AcDbEntity
  8
0
  6
Continuous
 62
     0
370
    30
100
AcDbPolyline
 90
       66
 70
     0
 43
0.0
 10
-111.895515
 20
466.522858
 10
-110.607056
 20
466.453278
 10
-109.318283
 20
466.389313
 10
-108.029228
 20
466.330841
 10
-106.739922
 20
466.277863
 10
-105.450378
 20
466.230286
 10
-104.160622
 20
466.187988
 10
-102.870682
 20
466.15097
 10
-101.580589
 20
466.11911
 10
-100.290352
 20
466.092377
 10
-99.000015
 20
466.070679
 10
-97.709587
 20
466.053925
 10
-96.419106
 20
466.042175
 10
-95.128601
 20
466.036041
 10
-93.838127
 20
466.036255
 10
-92.547729
 20
466.043579
 10
-91.257446
 20
466.058746
 10
-89.967323
 20
466.08252
 10
-88.677406
 20
466.115601
 10
-87.387733
 20
466.158752
 10
-86.098373
 20
466.212769
 10
-84.809502
 20
466.278625
 10
-83.521378
 20
466.357452
 10
-82.234253
 20
466.450317
 10
-80.948364
 20
466.55835
 10
-79.663963
 20
466.682678
 10
-78.38131
 20
466.824402
 10
-77.100777
 20
466.984741
 10
-75.822937
 20
467.165161
 10
-74.548386
 20
467.367096
 10
-73.277702
 20
467.592041
 10
-72.011482
 20
467.841461
 10
-70.750435
 20
468.116669
 10
-69.49556
 20
468.418854
 10
-68.247902
 20
468.749054
 10
-67.00853
 20
469.108368
 10
-65.778473
 20
469.497894
 10
-64.558807
 20
469.918671
 10
-63.350548
 20
470.371704
 10
-62.154568
 20
470.856812
 10
-60.971653
 20
471.373291
 10
-59.802578
 20
471.92038
 10
-58.648121
 20
472.497345
 10
-57.509068
 20
473.103485
 10
-56.386196
 20
473.738068
 10
-55.280067
 20
474.400116
 10
-54.189423
 20
475.087006
 10
-53.112106
 20
475.795319
 10
-52.045959
 20
476.521545
 10
-50.988815
 20
477.262207
 10
-49.938519
 20
478.013855
 10
-48.892906
 20
478.77301
 10
-47.849598
 20
479.535828
 10
-46.803959
 20
480.294891
 10
-45.749973
 20
481.040527
 10
-44.681618
 20
481.76297
 10
-43.592865
 20
482.452606
 10
-42.477688
 20
483.099701
 10
-41.331867
 20
483.694305
 10
-40.155827
 20
484.225769
 10
-38.950722
 20
484.683411
 10
-37.719189
 20
485.062958
 10
-36.467171
 20
485.374634
 10
-35.201073
 20
485.630646
 10
-33.926846
 20
485.841034
 10
-32.63372
 20
485.992859
  0
LWPOLYLINE
  5
228
330
1F8
100
AcDbEntity
  8
0
  6
Continuous
 62
     0
370
    30
100
AcDbPolyline
 90
       51
 70
     0
 43
0.0
 10
-111.206734
 20
480.50592
 10
-109.545425
 20
480.416992
 10
-107.883598
 20
480.33783
 10
-106.221313
 20
480.268188
 10
-104.558617
 20
480.207947
 10
-102.895561
 20
480.156891
 10
-101.232216
 20
480.114838
 10
-99.568619
 20
480.081604
 10
-97.904839
 20
480.057068
 10
-96.240936
 20
480.041138
 10
-94.576996
 20
480.035095
 10
-92.913155
 20
480.040863
 10
-91.249535
 20
480.060425
 10
-89.586258
 20
480.095703
 10
-87.923447
 20
480.14859
 10
-86.261269
 20
480.221222
 10
-84.600212
 20
480.316681
 10
-82.940895
 20
480.438446
 10
-81.283928
 20
480.589996
 10
-79.629951
 20
480.774902
 10
-77.980461
 20
480.997681
 10
-76.337883
 20
481.264191
 10
-74.704727
 20
481.580261
 10
-73.083481
 20
481.951782
 10
-71.476952
 20
482.384583
 10
-69.890038
 20
482.884705
 10
-68.328461
 20
483.458008
 10
-66.796265
 20
484.105713
 10
-65.295677
 20
484.824127
 10
-63.828857
 20
485.609314
 10
-62.397644
 20
486.457031
 10
-60.998959
 20
487.357758
 10
-59.62579
 20
488.297821
 10
-58.270828
 20
489.263489
 10
-56.925499
 20
490.242126
 10
-55.5807
 20
491.221466
 10
-54.227337
 20
492.18927
 10
-52.856796
 20
493.133423
 10
-51.463005
 20
494.04245
 10
-50.040676
 20
494.90506
 10
-48.584877
 20
495.710358
 10
-47.095139
 20
496.452087
 10
-45.574135
 20
497.127136
 10
-44.024593
 20
497.732544
 10
-42.449249
 20
498.265289
 10
-40.85088
 20
498.722717
 10
-39.232975
 20
499.10733
 10
-37.599632
 20
499.426025
 10
-35.954964
 20
499.68576
 10
-34.303082
 20
499.893585
 10
-32.633778
 20
500.057709
  0
LINE
  5
229
330
1F8
100
AcDbEntity
  8
0
  6
Continuous
 62
     0
370
    30
100
AcDbLine
 10
-2.633693
 20
482.037735
 30
0.0
 11
-32.633699
 21
483.504839
 31
0.0
  0
LINE
  5
22A
330
1F8
100
AcDbEntity
  8
0
  6
Continuous
 62
     0
370
    30
100
AcDbLine
 10
-2.6338
 20
505.037735
 30
0.0
 11
-32.633793
 21
503.57035
 31
0.0
  0
LINE
  5
22B
330
1F8
100
AcDbEntity
  8
0
  6
Continuous
 62
     0
370
    30
100
AcDbLine
 10
4.574776
 20
525.737823
 30
0.0
 11
4.574776
 21
538.537823
 31
0.0
  0
LINE
  5
22C
330
1F8
100
AcDbEntity
  8
0
  6
Continuous
 62
     0
370
    30
100
AcDbLine
 10
36.574776
 20
525.737823
 30
0.0
 11
36.574776
 21
538.537823
 31
0.0
  0
LINE
  5
22D
330
1F8
100
AcDbEntity
  8
0
  6
Continuous
 62
     0
370
    30
100
AcDbLine
 10
-10.925224
 20
539.237823
 30
0.0
 11
-10.925224
 21
558.737823
 31
0.0
  0
LINE
  5
22E
330
1F8
100
AcDbEntity
  8
0
  6
Continuous
 62
     0
370
    30
100
AcDbLine
 10
52.074776
 20
539.237823
 30
0.0
 11
52.074776
 21
558.737823
 31
0.0
  0
LINE
  5
22F
330
1F8
100
AcDbEntity
  8
0
  6
Continuous
 62
     0
370
    30
100
AcDbLine
 10
45.398498
 20
498.537961
 30
0.0
 11
41.690961
 21
498.537943
 31
0.0
  0
LINE
  5
230
330
1F8
100
AcDbEntity
  8
0
  6
Continuous
 62
     0
370
    30
100
AcDbLine
 10
45.398545
 20
488.537961
 30
0.0
 11
41.691008
 21
488.537943
 31
0.0
  0
LINE
  5
231
330
1F8
100
AcDbEntity
  8
0
  6
Continuous
 62
     0
370
    30
100
AcDbLine
 10
63.398549
 20
484.738017
 30
0.0
 11
63.398548
 21
485.038043
 31
0.0
  0
LINE
  5
232
330
1F8
100
AcDbEntity
  8
0
  6
Continuous
 62
     0
370
    30
100
AcDbLine
 10
63.198466
 20
502.538044
 30
0.0
 11
45.39848
 21
502.53796
 31
0.0
  0
LINE
  5
233
330
1F8
100
AcDbEntity
  8
0
  6
Continuous
 62
     0
370
    30
100
AcDbLine
 10
63.19855
 20
484.538044
 30
0.0
 11
45.398564
 21
484.537961
 31
0.0
  0
LINE
  5
234
330
1F8
100
AcDbEntity
  8
0
  6
Continuous
 62
     0
370
    30
100
AcDbLine
 10
1.316308
 20
483.537754
 30
0.0
 11
-2.6337
 21
483.537736
 31
0.0
  0
LINE
  5
235
330
1F8
100
AcDbEntity
  8
0
  6
Continuous
 62
     0
370
    30
100
AcDbLine
 10
1.316236
 20
503.537754
 30
0.0
 11
-2.633793
 21
503.537736
 31
0.0
  0
ARC
  5
236
330
1F8
100
AcDbEntity
  8
0
  6
Continuous
 62
     0
370
    30
100
AcDbCircle
 10
40.574257
 20
509.67757
 30
0.0
 40
3.999559968102212
100
AcDbArc
 50
179.997583
 51
218.896382
  0
ARC
  5
237
330
1F8
100
AcDbEntity
  8
0
  6
Continuous
 62
     0
370
    30
100
AcDbCircle
 10
0.575295
 20
509.67757
 30
0.0
 40
3.999559968101232
100
AcDbArc
 50
321.103618
 51
0.002417
  0
LINE
  5
238
330
1F8
100
AcDbEntity
  8
0
  6
Continuous
 62
     0
370
    30
100
AcDbLine
 10
36.574776
 20
509.677832
 30
0.0
 11
36.574776
 21
525.237823
 31
0.0
  0
LINE
  5
239
330
1F8
100
AcDbEntity
  8
0
  6
Continuous
 62
     0
370
    30
100
AcDbLine
 10
4.574776
 20
509.677832
 30
0.0
 11
4.574776
 21
525.237823
 31
0.0
  0
ARC
  5
23A
330
1F8
100
AcDbEntity
  8
0
  6
Continuous
 62
     0
370
    30
100
AcDbCircle
 10
4.072816
 20
473.833086
 30
0.0
 40
4.001966035167964
100
AcDbArc
 50
0.01769
 51
50.043986
  0
ARC
  5
23B
330
1F8
100
AcDbEntity
  8
0
  6
Continuous
 62
     0
370
    30
100
AcDbCircle
 10
37.07561
 20
473.83362
 30
0.0
 40
4.000836512191182
100
AcDbArc
 50
129.948904
 51
179.988688
  0
LINE
  5
23C
330
1F8
100
AcDbEntity
  8
0
  6
Continuous
 62
     0
370
    30
100
AcDbLine
 10
0.262414
 20
380.097756
 30
0.0
 11
-17.64894
 21
371.19925
 31
0.0
  0
LINE
  5
23D
330
1F8
100
AcDbEntity
  8
0
  6
Continuous
 62
     0
370
    30
100
AcDbLine
 10
-10.860719
 20
402.486949
 30
0.0
 11
-28.772072
 21
393.588442
 31
0.0
  0
ARC
  5
23E
330
1F8
100
AcDbEntity
  8
0
  6
Continuous
 62
     0
370
    30
100
AcDbCircle
 10
-24.451815
 20
432.044996
 30
0.0
 40
57.52659227696773
100
AcDbArc
 50
295.443066
 51
359.992856
  0
ARC
  5
23F
330
1F8
100
AcDbEntity
  8
0
  6
Continuous
 62
     0
370
    30
100
AcDbCircle
 10
-24.473702
 20
432.051967
 30
0.0
 40
32.54848138484927
100
AcDbArc
 50
294.723339
 51
359.975102
  0
LINE
  5
240
330
1F8
100
AcDbEntity
  8
0
  6
Continuous
 62
     0
370
    30
100
AcDbLine
 10
8.074776
 20
473.833968
 30
0.0
 11
8.074776
 21
432.037823
 31
0.0
  0
LINE
  5
241
330
1F8
100
AcDbEntity
  8
0
  6
Continuous
 62
     0
370
    30
100
AcDbLine
 10
33.074776
 20
473.833968
 30
0.0
 11
33.074776
 21
432.037823
 31
0.0
  0
ENDBLK
  5
243
330
1F8
100
AcDbEntity
  8
0
100
AcDbBlockEnd
  0
ENDSEC
  0
SECTION
  2
ENTITIES
  0
INSERT
  5
E2
330
1F
100
AcDbEntity
  8
0
  6
Continuous
 62
     7
420
 16250871
370
     0
100
AcDbBlockReference
  2
a
 10
92.584801
 20
94.536774
 30
0.0
  0
INSERT
  5
125
330
1F
100
AcDbEntity
  8
0
  6
Continuous
 62
     7
420
 16250871
370
     0
100
AcDbBlockReference
  2
b
 10
92.584801
 20
94.536774
 30
0.0
  0
INSERT
  5
17F
330
1F
100
AcDbEntity
  8
0
  6
Continuous
 62
     7
420
 16250871
370
     0
100
AcDbBlockReference
  2
c
 10
92.584801
 20
94.536774
 30
0.0
  0
INSERT
  5
1F7
330
1F
100
AcDbEntity
  8
0
  6
Continuous
 62
     7
420
 16250871
370
     0
100
AcDbBlockReference
  2
d
 10
92.584801
 20
94.536774
 30
0.0
  0
INSERT
  5
244
330
1F
100
AcDbEntity
  8
0
  6
Continuous
 62
     7
420
 16250871
370
     0
100
AcDbBlockReference
  2
e
 10
97.976532
 20
0.0
 30
0.0
  0
ENDSEC
  0
SECTION
  2
OBJECTS
  0
DICTIONARY
  5
C
330
0
100
AcDbDictionary
281
     1
  3
ACAD_DETAILVIEWSTYLE
350
27C
  3
ACAD_GROUP
350
D
  3
ACAD_LAYOUT
350
1A
  3
ACAD_MATERIAL
350
43
  3
ACAD_MLEADERSTYLE
350
6B
  3
ACAD_MLINESTYLE
350
17
  3
ACAD_PLOTSETTINGS
350
19
  3
ACAD_PLOTSTYLENAME
350
E
  3
ACAD_SCALELIST
350
47
  3
ACAD_SECTIONVIEWSTYLE
350
27D
  3
ACAD_TABLESTYLE
350
69
  3
ACAD_VISUALSTYLE
350
2A
  3
ACDB_RECOMPOSE_DATA
350
279
  3
AcDbVariableDictionary
350
245
  0
SUN
  5
6D
330
29
100
AcDbSun
 90
        1
290
     0
 63
     7
421
 16777215
 40
1.0
291
     1
 91
  2455826
 92
 54000000
292
     0
 70
     2
 71
   256
280
     1
  0
DICTIONARY
  5
27C
102
{ACAD_REACTORS
330
C
102
}
330
C
100
AcDbDictionary
281
     1
  0
DICTIONARY
  5
D
102
{ACAD_REACTORS
330
C
102
}
330
C
100
AcDbDictionary
281
     1
  0
DICTIONARY
  5
1A
102
{ACAD_REACTORS
330
C
102
}
330
C
100
AcDbDictionary
281
     1
  3
Layout1
350
1E
  3
Layout2
350
26
  3
Model
350
22
  0
DICTIONARY
  5
43
102
{ACAD_REACTORS
330
C
102
}
330
C
100
AcDbDictionary
281
     1
  3
ByBlock
350
45
  3
ByLayer
350
44
  3
Global
350
46
  0
DICTIONARY
  5
6B
102
{ACAD_REACTORS
330
C
102
}
330
C
100
AcDbDictionary
281
     1
  3
Standard
350
6C
  0
DICTIONARY
  5
17
102
{ACAD_REACTORS
330
C
102
}
330
C
100
AcDbDictionary
281
     1
  3
Standard
350
18
  0
DICTIONARY
  5
19
102
{ACAD_REACTORS
330
C
102
}
330
C
100
AcDbDictionary
281
     1
  0
ACDBDICTIONARYWDFLT
  5
E
102
{ACAD_REACTORS
330
C
102
}
330
C
100
AcDbDictionary
281
     1
  3
Normal
350
F
100
AcDbDictionaryWithDefault
340
F
  0
DICTIONARY
  5
47
102
{ACAD_REACTORS
330
C
102
}
330
C
100
AcDbDictionary
281
     1
  3
A0
350
48
  3
A1
350
49
  3
A2
350
4A
  3
A3
350
4B
  3
A4
350
4C
  3
A5
350
4D
  3
A6
350
4E
  3
A7
350
4F
  3
A8
350
50
  3
A9
350
51
  3
B0
350
52
  3
B1
350
53
  3
B2
350
54
  3
B3
350
55
  3
B4
350
56
  3
B5
350
57
  3
B6
350
58
  3
B7
350
59
  3
B8
350
5A
  3
B9
350
5B
  3
C0
350
5C
  3
C1
350
5D
  3
C2
350
5E
  3
C3
350
5F
  3
C4
350
60
  3
C5
350
61
  3
C6
350
62
  3
C7
350
63
  3
C8
350
64
  3
C9
350
65
  3
D0
350
66
  3
D1
350
67
  3
D2
350
68
  0
DICTIONARY
  5
27D
102
{ACAD_REACTORS
330
C
102
}
330
C
100
AcDbDictionary
281
     1
  0
DICTIONARY
  5
69
102
{ACAD_REACTORS
330
C
102
}
330
C
100
AcDbDictionary
281
     1
  3
Standard
350
6A
  0
DICTIONARY
  5
2A
102
{ACAD_REACTORS
330
C
102
}
330
C
100
AcDbDictionary
281
     1
  3
2dWireframe
350
2F
  3
Basic
350
32
  3
Brighten
350
36
  3
ColorChange
350
3A
  3
Conceptual
350
34
  3
Dim
350
35
  3
EdgeColorOff
350
3D
  3
Facepattern
350
39
  3
Flat
350
2B
  3
FlatWithEdges
350
2C
  3
Gouraud
350
2D
  3
GouraudWithEdges
350
2E
  3
Hidden
350
31
  3
JitterOff
350
3B
  3
Linepattern
350
38
  3
OverhangOff
350
3C
  3
Realistic
350
33
  3
Shaded
350
42
  3
Shaded with edges
350
41
  3
Shades of Gray
350
3E
  3
Sketchy
350
3F
  3
Thicken
350
37
  3
Wireframe
350
30
  3
X-Ray
350
40
  0
XRECORD
  5
279
102
{ACAD_REACTORS
330
C
102
}
330
C
100
AcDbXrecord
280
     1
 90
        1
330
6A
  0
DICTIONARY
  5
245
102
{ACAD_REACTORS
330
C
102
}
330
C
100
AcDbDictionary
281
     1
  3
CANNOSCALE
350
246
  3
CMLEADERSTYLE
350
27B
  3
CTABLESTYLE
350
27A
  0
LAYOUT
  5
1E
102
{ACAD_REACTORS
330
1A
102
}
330
1A
100
AcDbPlotSettings
  1

  2
none_device
  4

  6

 40
0.0
 41
0.0
 42
0.0
 43
0.0
 44
0.0
 45
0.0
 46
0.0
 47
0.0
 48
0.0
 49
0.0
140
0.0
141
0.0
142
1.0
143
1.0
 70
   688
 72
     1
 73
     0
 74
     5
  7

 75
    16
 76
     0
 77
     2
 78
   300
147
1.0
148
0.0
149
0.0
100
AcDbLayout
  1
Layout1
 70
     1
 71
     1
 10
0.0
 20
0.0
 11
420.0
 21
297.0
 12
0.0
 22
0.0
 32
0.0
 14
1.000000E+20
 24
1.000000E+20
 34
1.000000E+20
 15
-1.000000E+20
 25
-1.000000E+20
 35
-1.000000E+20
146
0.0
 13
0.0
 23
0.0
 33
0.0
 16
1.0
 26
0.0
 36
0.0
 17
0.0
 27
1.0
 37
0.0
 76
     0
330
1B
  0
LAYOUT
  5
26
102
{ACAD_REACTORS
330
1A
102
}
330
1A
100
AcDbPlotSettings
  1

  2
none_device
  4

  6

 40
0.0
 41
0.0
 42
0.0
 43
0.0
 44
0.0
 45
0.0
 46
0.0
 47
0.0
 48
0.0
 49
0.0
140
0.0
141
0.0
142
1.0
143
1.0
 70
   688
 72
     1
 73
     0
 74
     5
  7

 75
    16
 76
     0
 77
     2
 78
   300
147
1.0
148
0.0
149
0.0
100
AcDbLayout
  1
Layout2
 70
     1
 71
     2
 10
0.0
 20
0.0
 11
0.0
 21
0.0
 12
0.0
 22
0.0
 32
0.0
 14
0.0
 24
0.0
 34
0.0
 15
0.0
 25
0.0
 35
0.0
146
0.0
 13
0.0
 23
0.0
 33
0.0
 16
1.0
 26
0.0
 36
0.0
 17
0.0
 27
1.0
 37
0.0
 76
     0
330
23
  0
LAYOUT
  5
22
102
{ACAD_REACTORS
330
1A
102
}
330
1A
100
AcDbPlotSettings
  1

  2
none_device
  4
Letter_(8.50_x_11.00_Inches)
  6

 40
6.35
 41
6.35
 42
6.350005
 43
6.350005
 44
215.9
 45
279.4
 46
0.0
 47
0.0
 48
0.0
 49
0.0
140
0.0
141
0.0
142
1.0
143
1.0
 70
  1712
 72
     1
 73
     0
 74
     0
  7

 75
     0
 76
     0
 77
     2
 78
   300
147
1.0
148
0.0
149
0.0
100
AcDbLayout
  1
Model
 70
     1
 71
     0
 10
0.0
 20
0.0
 11
420.0
 21
297.0
 12
0.0
 22
0.0
 32
0.0
 14
1.000000E+20
 24
1.000000E+20
 34
1.000000E+20
 15
-1.000000E+20
 25
-1.000000E+20
 35
-1.000000E+20
146
0.0
 13
0.0
 23
0.0
 33
0.0
 16
1.0
 26
0.0
 36
0.0
 17
0.0
 27
1.0
 37
0.0
 76
     0
330
1F
331
29
  0
MATERIAL
  5
45
102
{ACAD_REACTORS
330
43
102
}
330
43
100
AcDbMaterial
  1
ByBlock
 72
     1
 94
      127
  0
MATERIAL
  5
44
102
{ACAD_REACTORS
330
43
102
}
330
43
100
AcDbMaterial
  1
ByLayer
 72
     1
 94
      127
  0
MATERIAL
  5
46
102
{ACAD_REACTORS
330
43
102
}
330
43
100
AcDbMaterial
  1
Global
 72
     1
 94
      127
  0
MLEADERSTYLE
  5
6C
102
{ACAD_REACTORS
330
6B
102
}
330
6B
100
AcDbMLeaderStyle
179
     2
170
     2
171
     1
172
     0
 90
        2
 40
0.0
 41
0.0
173
     1
 91
-1056964608
340
14
 92
       -2
290
     1
 42
2.0
291
     1
 43
8.0
  3
Standard
341
0
 44
4.0
300

342
11
174
     1
178
     6
175
     1
176
     0
 93
-1056964608
 45
4.0
292
     0
297
     0
 46
4.0
343
0
 94
-1056964608
 47
1.0
 49
1.0
140
1.0
293
     1
141
0.0
294
     1
177
     0
142
1.0
295
     0
296
     0
143
3.75
271
     0
272
     9
273
     9
  0
MLINESTYLE
  5
18
102
{ACAD_REACTORS
330
17
102
}
330
17
100
AcDbMlineStyle
  2
Standard
 70
     0
  3

 62
   256
 51
90.0
 52
90.0
 71
     2
 49
0.5
 62
   256
  6
BYLAYER
 49
-0.5
 62
   256
  6
BYLAYER
  0
ACDBPLACEHOLDER
  5
F
102
{ACAD_REACTORS
330
E
102
}
330
E
  0
SCALE
  5
48
102
{ACAD_REACTORS
330
47
102
}
330
47
100
AcDbScale
 70
     0
300
1:1
140
1.0
141
1.0
290
     1
  0
SCALE
  5
49
102
{ACAD_REACTORS
330
47
102
}
330
47
100
AcDbScale
 70
     0
300
1:2
140
1.0
141
2.0
290
     0
  0
SCALE
  5
4A
102
{ACAD_REACTORS
330
47
102
}
330
47
100
AcDbScale
 70
     0
300
1:4
140
1.0
141
4.0
290
     0
  0
SCALE
  5
4B
102
{ACAD_REACTORS
330
47
102
}
330
47
100
AcDbScale
 70
     0
300
1:5
140
1.0
141
5.0
290
     0
  0
SCALE
  5
4C
102
{ACAD_REACTORS
330
47
102
}
330
47
100
AcDbScale
 70
     0
300
1:8
140
1.0
141
8.0
290
     0
  0
SCALE
  5
4D
102
{ACAD_REACTORS
330
47
102
}
330
47
100
AcDbScale
 70
     0
300
1:10
140
1.0
141
10.0
290
     0
  0
SCALE
  5
4E
102
{ACAD_REACTORS
330
47
102
}
330
47
100
AcDbScale
 70
     0
300
1:16
140
1.0
141
16.0
290
     0
  0
SCALE
  5
4F
102
{ACAD_REACTORS
330
47
102
}
330
47
100
AcDbScale
 70
     0
300
1:20
140
1.0
141
20.0
290
     0
  0
SCALE
  5
50
102
{ACAD_REACTORS
330
47
102
}
330
47
100
AcDbScale
 70
     0
300
1:30
140
1.0
141
30.0
290
     0
  0
SCALE
  5
51
102
{ACAD_REACTORS
330
47
102
}
330
47
100
AcDbScale
 70
     0
300
1:40
140
1.0
141
40.0
290
     0
  0
SCALE
  5
52
102
{ACAD_REACTORS
330
47
102
}
330
47
100
AcDbScale
 70
     0
300
1:50
140
1.0
141
50.0
290
     0
  0
SCALE
  5
53
102
{ACAD_REACTORS
330
47
102
}
330
47
100
AcDbScale
 70
     0
300
1:100
140
1.0
141
100.0
290
     0
  0
SCALE
  5
54
102
{ACAD_REACTORS
330
47
102
}
330
47
100
AcDbScale
 70
     0
300
2:1
140
2.0
141
1.0
290
     0
  0
SCALE
  5
55
102
{ACAD_REACTORS
330
47
102
}
330
47
100
AcDbScale
 70
     0
300
4:1
140
4.0
141
1.0
290
     0
  0
SCALE
  5
56
102
{ACAD_REACTORS
330
47
102
}
330
47
100
AcDbScale
 70
     0
300
8:1
140
8.0
141
1.0
290
     0
  0
SCALE
  5
57
102
{ACAD_REACTORS
330
47
102
}
330
47
100
AcDbScale
 70
     0
300
10:1
140
10.0
141
1.0
290
     0
  0
SCALE
  5
58
102
{ACAD_REACTORS
330
47
102
}
330
47
100
AcDbScale
 70
     0
300
100:1
140
100.0
141
1.0
290
     0
  0
SCALE
  5
59
102
{ACAD_REACTORS
330
47
102
}
330
47
100
AcDbScale
 70
     0
300
1/128" = 1'-0"
140
0.007812
141
12.0
290
     0
  0
SCALE
  5
5A
102
{ACAD_REACTORS
330
47
102
}
330
47
100
AcDbScale
 70
     0
300
1/64" = 1'-0"
140
0.015625
141
12.0
290
     0
  0
SCALE
  5
5B
102
{ACAD_REACTORS
330
47
102
}
330
47
100
AcDbScale
 70
     0
300
1/32" = 1'-0"
140
0.03125
141
12.0
290
     0
  0
SCALE
  5
5C
102
{ACAD_REACTORS
330
47
102
}
330
47
100
AcDbScale
 70
     0
300
1/16" = 1'-0"
140
0.0625
141
12.0
290
     0
  0
SCALE
  5
5D
102
{ACAD_REACTORS
330
47
102
}
330
47
100
AcDbScale
 70
     0
300
3/32" = 1'-0"
140
0.09375
141
12.0
290
     0
  0
SCALE
  5
5E
102
{ACAD_REACTORS
330
47
102
}
330
47
100
AcDbScale
 70
     0
300
1/8" = 1'-0"
140
0.125
141
12.0
290
     0
  0
SCALE
  5
5F
102
{ACAD_REACTORS
330
47
102
}
330
47
100
AcDbScale
 70
     0
300
3/16" = 1'-0"
140
0.1875
141
12.0
290
     0
  0
SCALE
  5
60
102
{ACAD_REACTORS
330
47
102
}
330
47
100
AcDbScale
 70
     0
300
1/4" = 1'-0"
140
0.25
141
12.0
290
     0
  0
SCALE
  5
61
102
{ACAD_REACTORS
330
47
102
}
330
47
100
AcDbScale
 70
     0
300
3/8" = 1'-0"
140
0.375
141
12.0
290
     0
  0
SCALE
  5
62
102
{ACAD_REACTORS
330
47
102
}
330
47
100
AcDbScale
 70
     0
300
1/2" = 1'-0"
140
0.5
141
12.0
290
     0
  0
SCALE
  5
63
102
{ACAD_REACTORS
330
47
102
}
330
47
100
AcDbScale
 70
     0
300
3/4" = 1'-0"
140
0.75
141
12.0
290
     0
  0
SCALE
  5
64
102
{ACAD_REACTORS
330
47
102
}
330
47
100
AcDbScale
 70
     0
300
1" = 1'-0"
140
1.0
141
12.0
290
     0
  0
SCALE
  5
65
102
{ACAD_REACTORS
330
47
102
}
330
47
100
AcDbScale
 70
     0
300
1-1/2" = 1'-0"
140
1.5
141
12.0
290
     0
  0
SCALE
  5
66
102
{ACAD_REACTORS
330
47
102
}
330
47
100
AcDbScale
 70
     0
300
3" = 1'-0"
140
3.0
141
12.0
290
     0
  0
SCALE
  5
67
102
{ACAD_REACTORS
330
47
102
}
330
47
100
AcDbScale
 70
     0
300
6" = 1'-0"
140
6.0
141
12.0
290
     0
  0
SCALE
  5
68
102
{ACAD_REACTORS
330
47
102
}
330
47
100
AcDbScale
 70
     0
300
1'-0" = 1'-0"
140
12.0
141
12.0
290
     0
  0
TABLESTYLE
  5
6A
102
{ACAD_REACTORS
330
69
102
}
102
{ACAD_XDICTIONARY
360
277
102
}
330
69
100
AcDbTableStyle
  3
Standard
 70
     0
 71
     0
 40
0.06
 41
0.06
280
     0
281
     0
  7
Standard
140
4.5
170
     2
 62
     0
 63
   257
283
     0
 90
        4
 91
        0
  1

274
    -2
284
     1
 64
     0
275
    -2
285
     1
 65
     0
276
    -2
286
     1
 66
     0
277
    -2
287
     1
 67
     0
278
    -2
288
     1
 68
     0
279
    -2
289
     1
 69
     0
  7
Standard
140
6.0
170
     5
 62
     0
 63
   257
283
     0
 90
        4
 91
        0
  1

274
    -2
284
     1
 64
     0
275
    -2
285
     1
 65
     0
276
    -2
286
     1
 66
     0
277
    -2
287
     1
 67
     0
278
    -2
288
     1
 68
     0
279
    -2
289
     1
 69
     0
  7
Standard
140
4.5
170
     5
 62
     0
 63
   257
283
     0
 90
        4
 91
        0
  1

274
    -2
284
     1
 64
     0
275
    -2
285
     1
 65
     0
276
    -2
286
     1
 66
     0
277
    -2
287
     1
 67
     0
278
    -2
288
     1
 68
     0
279
    -2
289
     1
 69
     0
  0
VISUALSTYLE
  5
2F
102
{ACAD_REACTORS
330
2A
102
}
102
{ACAD_XDICTIONARY
360
24F
102
}
330
2A
100
AcDbVisualStyle
  2
2dWireframe
 70
     4
177
     2
291
     0
 71
     0
176
     1
 72
     2
176
     1
 73
     0
176
     1
 90
        0
176
     1
 40
0.6
176
     1
 41
30.0
176
     1
 62
     5
 63
     7
421
 16777215
176
     1
 74
     1
176
     1
 91
        4
176
     1
 64
     7
176
     1
 65
   257
176
     1
 75
     1
176
     1
175
     1
176
     1
 42
1.0
176
     1
 92
        0
176
     1
 66
   257
176
     1
 43
1.0
176
     1
 76
     1
176
     1
 77
     6
176
     1
 78
     2
176
     1
 67
     7
176
     1
 79
     5
176
     1
170
     0
176
     1
171
     0
176
     1
290
     0
176
     1
 93
        1
176
     1
 44
0.0
176
     1
173
     0
176
     1
  0
VISUALSTYLE
  5
32
102
{ACAD_REACTORS
330
2A
102
}
102
{ACAD_XDICTIONARY
360
255
102
}
330
2A
100
AcDbVisualStyle
  2
Basic
 70
     7
177
     2
291
     1
 71
     1
176
     1
 72
     0
176
     1
 73
     1
176
     1
 90
        0
176
     1
 40
0.6
176
     1
 41
30.0
176
     1
 62
     5
 63
     7
421
 16777215
176
     1
 74
     0
176
     1
 91
        4
176
     1
 64
     7
176
     1
 65
   257
176
     1
 75
     1
176
     1
175
     1
176
     1
 42
1.0
176
     1
 92
        8
176
     1
 66
     7
176
     1
 43
1.0
176
     1
 76
     1
176
     1
 77
     6
176
     1
 78
     2
176
     1
 67
     7
176
     1
 79
     5
176
     1
170
     0
176
     1
171
     0
176
     1
290
     0
176
     1
 93
        1
176
     1
 44
0.0
176
     1
173
     0
176
     1
  0
VISUALSTYLE
  5
36
102
{ACAD_REACTORS
330
2A
102
}
102
{ACAD_XDICTIONARY
360
25D
102
}
330
2A
100
AcDbVisualStyle
  2
Brighten
 70
    12
177
     2
291
     1
 71
     2
176
     1
 72
     2
176
     1
 73
     0
176
     1
 90
        0
176
     1
 40
0.6
176
     1
 41
30.0
176
     1
 62
     5
 63
     7
421
 16777215
176
     1
 74
     1
176
     1
 91
        4
176
     1
 64
     7
176
     1
 65
   257
176
     1
 75
     1
176
     1
175
     1
176
     1
 42
1.0
176
     1
 92
        8
176
     1
 66
     7
176
     1
 43
1.0
176
     1
 76
     1
176
     1
 77
     6
176
     1
 78
     2
176
     1
 67
     7
176
     1
 79
     5
176
     1
170
     0
176
     1
171
     0
176
     1
290
     0
176
     1
 93
        1
176
     1
 44
50.0
176
     1
173
     0
176
     1
  0
VISUALSTYLE
  5
3A
102
{ACAD_REACTORS
330
2A
102
}
102
{ACAD_XDICTIONARY
360
265
102
}
330
2A
100
AcDbVisualStyle
  2
ColorChange
 70
    16
177
     2
291
     1
 71
     2
176
     1
 72
     2
176
     1
 73
     3
176
     1
 90
        0
176
     1
 40
0.6
176
     1
 41
30.0
176
     1
 62
     5
 63
     8
421
  8421504
176
     1
 74
     1
176
     1
 91
        4
176
     1
 64
     7
176
     1
 65
   257
176
     1
 75
     1
176
     1
175
     1
176
     1
 42
1.0
176
     1
 92
        8
176
     1
 66
     8
424
  8421504
176
     1
 43
1.0
176
     1
 76
     1
176
     1
 77
     6
176
     1
 78
     2
176
     1
 67
     7
176
     1
 79
     5
176
     1
170
     0
176
     1
171
     0
176
     1
290
     0
176
     1
 93
        1
176
     1
 44
0.0
176
     1
173
     0
176
     1
  0
VISUALSTYLE
  5
34
102
{ACAD_REACTORS
330
2A
102
}
102
{ACAD_XDICTIONARY
360
259
102
}
330
2A
100
AcDbVisualStyle
  2
Conceptual
 70
     9
177
     2
291
     0
 71
     3
176
     1
 72
     2
176
     1
 73
     0
176
     1
 90
        0
176
     1
 40
0.6
176
     1
 41
30.0
176
     1
 62
     5
 63
     7
421
 16777215
176
     1
 74
     2
176
     1
 91
        2
176
     1
 64
     7
176
     1
 65
   257
176
     1
 75
     1
176
     1
175
     1
176
     1
 42
179.0
176
     1
 92
        8
176
     1
 66
     7
176
     1
 43
1.0
176
     1
 76
     1
176
     1
 77
     6
176
     1
 78
     2
176
     1
 67
     7
176
     1
 79
     3
176
     1
170
     0
176
     1
171
     0
176
     1
290
     0
176
     1
 93
        1
176
     1
 44
0.0
176
     1
173
     0
176
     1
  0
VISUALSTYLE
  5
35
102
{ACAD_REACTORS
330
2A
102
}
102
{ACAD_XDICTIONARY
360
25B
102
}
330
2A
100
AcDbVisualStyle
  2
Dim
 70
    11
177
     2
291
     1
 71
     2
176
     1
 72
     2
176
     1
 73
     0
176
     1
 90
        0
176
     1
 40
0.6
176
     1
 41
30.0
176
     1
 62
     5
 63
     7
421
 16777215
176
     1
 74
     1
176
     1
 91
        4
176
     1
 64
     7
176
     1
 65
   257
176
     1
 75
     1
176
     1
175
     1
176
     1
 42
1.0
176
     1
 92
        8
176
     1
 66
     7
176
     1
 43
1.0
176
     1
 76
     1
176
     1
 77
     6
176
     1
 78
     2
176
     1
 67
     7
176
     1
 79
     5
176
     1
170
     0
176
     1
171
     0
176
     1
290
     0
176
     1
 93
        1
176
     1
 44
-50.0
176
     1
173
     0
176
     1
  0
VISUALSTYLE
  5
3D
102
{ACAD_REACTORS
330
2A
102
}
102
{ACAD_XDICTIONARY
360
26B
102
}
330
2A
100
AcDbVisualStyle
  2
EdgeColorOff
 70
    22
177
     2
291
     1
 71
     2
176
     0
 72
     2
176
     0
 73
     0
176
     0
 90
        0
176
     0
 40
0.6
176
     0
 41
30.0
176
     0
 62
     5
 63
     7
421
 16777215
176
     0
 74
     1
176
     0
 91
        4
176
     0
 64
     7
176
     0
 65
   257
176
     0
 75
     1
176
     0
175
     1
176
     0
 42
1.0
176
     0
 92
        8
176
     2
 66
     7
176
     0
 43
1.0
176
     0
 76
     1
176
     0
 77
     6
176
     0
 78
     2
176
     0
 67
     7
176
     0
 79
     5
176
     0
170
     0
176
     0
171
     0
176
     0
290
     0
176
     0
 93
        1
176
     0
 44
0.0
176
     0
173
     0
176
     0
  0
VISUALSTYLE
  5
39
102
{ACAD_REACTORS
330
2A
102
}
102
{ACAD_XDICTIONARY
360
263
102
}
330
2A
100
AcDbVisualStyle
  2
Facepattern
 70
    15
177
     2
291
     1
 71
     2
176
     1
 72
     2
176
     1
 73
     0
176
     1
 90
        0
176
     1
 40
0.6
176
     1
 41
30.0
176
     1
 62
     5
 63
     7
421
 16777215
176
     1
 74
     1
176
     1
 91
        4
176
     1
 64
     7
176
     1
 65
   257
176
     1
 75
     1
176
     1
175
     1
176
     1
 42
1.0
176
     1
 92
        8
176
     1
 66
     7
176
     1
 43
1.0
176
     1
 76
     1
176
     1
 77
     6
176
     1
 78
     2
176
     1
 67
     7
176
     1
 79
     5
176
     1
170
     0
176
     1
171
     0
176
     1
290
     0
176
     1
 93
        1
176
     1
 44
0.0
176
     1
173
     0
176
     1
  0
VISUALSTYLE
  5
2B
102
{ACAD_REACTORS
330
2A
102
}
102
{ACAD_XDICTIONARY
360
247
102
}
330
2A
100
AcDbVisualStyle
  2
Flat
 70
     0
177
     2
291
     1
 71
     2
176
     1
 72
     1
176
     1
 73
     1
176
     1
 90
        2
176
     1
 40
0.6
176
     1
 41
30.0
176
     1
 62
     5
 63
     7
421
 16777215
176
     1
 74
     0
176
     1
 91
        0
176
     1
 64
     7
176
     1
 65
   257
176
     1
 75
     1
176
     1
175
     1
176
     1
 42
1.0
176
     1
 92
        8
176
     1
 66
     7
176
     1
 43
1.0
176
     1
 76
     1
176
     1
 77
     6
176
     1
 78
     2
176
     1
 67
     7
176
     1
 79
     5
176
     1
170
     0
176
     1
171
     0
176
     1
290
     0
176
     1
 93
       13
176
     1
 44
0.0
176
     1
173
     0
176
     1
  0
VISUALSTYLE
  5
2C
102
{ACAD_REACTORS
330
2A
102
}
102
{ACAD_XDICTIONARY
360
249
102
}
330
2A
100
AcDbVisualStyle
  2
FlatWithEdges
 70
     1
177
     2
291
     1
 71
     2
176
     1
 72
     1
176
     1
 73
     1
176
     1
 90
        2
176
     1
 40
0.6
176
     1
 41
30.0
176
     1
 62
     5
 63
     7
421
 16777215
176
     1
 74
     1
176
     1
 91
        0
176
     1
 64
     7
176
     1
 65
   257
176
     1
 75
     1
176
     1
175
     1
176
     1
 42
1.0
176
     1
 92
        0
176
     1
 66
   257
176
     1
 43
1.0
176
     1
 76
     1
176
     1
 77
     6
176
     1
 78
     2
176
     1
 67
     7
176
     1
 79
     5
176
     1
170
     0
176
     1
171
     0
176
     1
290
     0
176
     1
 93
       13
176
     1
 44
0.0
176
     1
173
     0
176
     1
  0
VISUALSTYLE
  5
2D
102
{ACAD_REACTORS
330
2A
102
}
102
{ACAD_XDICTIONARY
360
24B
102
}
330
2A
100
AcDbVisualStyle
  2
Gouraud
 70
     2
177
     2
291
     1
 71
     2
176
     1
 72
     2
176
     1
 73
     1
176
     1
 90
        2
176
     1
 40
0.6
176
     1
 41
30.0
176
     1
 62
     5
 63
     7
421
 16777215
176
     1
 74
     0
176
     1
 91
        0
176
     1
 64
     7
176
     1
 65
   257
176
     1
 75
     1
176
     1
175
     1
176
     1
 42
1.0
176
     1
 92
        0
176
     1
 66
     7
176
     1
 43
1.0
176
     1
 76
     1
176
     1
 77
     6
176
     1
 78
     2
176
     1
 67
     7
176
     1
 79
     5
176
     1
170
     0
176
     1
171
     0
176
     1
290
     0
176
     1
 93
       13
176
     1
 44
0.0
176
     1
173
     0
176
     1
  0
VISUALSTYLE
  5
2E
102
{ACAD_REACTORS
330
2A
102
}
102
{ACAD_XDICTIONARY
360
24D
102
}
330
2A
100
AcDbVisualStyle
  2
GouraudWithEdges
 70
     3
177
     2
291
     1
 71
     2
176
     1
 72
     2
176
     1
 73
     1
176
     1
 90
        2
176
     1
 40
0.6
176
     1
 41
30.0
176
     1
 62
     5
 63
     7
421
 16777215
176
     1
 74
     1
176
     1
 91
        0
176
     1
 64
     7
176
     1
 65
   257
176
     1
 75
     1
176
     1
175
     1
176
     1
 42
1.0
176
     1
 92
        0
176
     1
 66
   257
176
     1
 43
1.0
176
     1
 76
     1
176
     1
 77
     6
176
     1
 78
     2
176
     1
 67
     7
176
     1
 79
     5
176
     1
170
     0
176
     1
171
     0
176
     1
290
     0
176
     1
 93
       13
176
     1
 44
0.0
176
     1
173
     0
176
     1
  0
VISUALSTYLE
  5
31
102
{ACAD_REACTORS
330
2A
102
}
102
{ACAD_XDICTIONARY
360
253
102
}
330
2A
100
AcDbVisualStyle
  2
Hidden
 70
     6
177
     2
291
     0
 71
     1
176
     1
 72
     2
176
     1
 73
     2
176
     1
 90
        0
176
     1
 40
0.6
176
     1
 41
30.0
176
     1
 62
     5
 63
     7
421
 16777215
176
     1
 74
     2
176
     1
 91
        2
176
     1
 64
     7
176
     1
 65
   257
176
     1
 75
     2
176
     1
175
     1
176
     1
 42
40.0
176
     1
 92
        0
176
     1
 66
   257
176
     1
 43
1.0
176
     1
 76
     1
176
     1
 77
     6
176
     1
 78
     2
176
     1
 67
     7
176
     1
 79
     3
176
     1
170
     0
176
     1
171
     0
176
     1
290
     0
176
     1
 93
        1
176
     1
 44
0.0
176
     1
173
     0
176
     1
  0
VISUALSTYLE
  5
3B
102
{ACAD_REACTORS
330
2A
102
}
102
{ACAD_XDICTIONARY
360
267
102
}
330
2A
100
AcDbVisualStyle
  2
JitterOff
 70
    20
177
     2
291
     1
 71
     2
176
     0
 72
     2
176
     0
 73
     0
176
     0
 90
        0
176
     0
 40
0.6
176
     0
 41
30.0
176
     0
 62
     5
 63
     7
421
 16777215
176
     0
 74
     1
176
     0
 91
        4
176
     0
 64
     7
176
     0
 65
   257
176
     0
 75
     1
176
     0
175
     1
176
     0
 42
1.0
176
     0
 92
       10
176
     2
 66
     7
176
     0
 43
1.0
176
     0
 76
     1
176
     0
 77
     6
176
     0
 78
     2
176
     0
 67
     7
176
     0
 79
     5
176
     0
170
     0
176
     0
171
     0
176
     0
290
     0
176
     0
 93
        1
176
     0
 44
0.0
176
     0
173
     0
176
     0
  0
VISUALSTYLE
  5
38
102
{ACAD_REACTORS
330
2A
102
}
102
{ACAD_XDICTIONARY
360
261
102
}
330
2A
100
AcDbVisualStyle
  2
Linepattern
 70
    14
177
     2
291
     1
 71
     2
176
     1
 72
     2
176
     1
 73
     0
176
     1
 90
        0
176
     1
 40
0.6
176
     1
 41
30.0
176
     1
 62
     5
 63
     7
421
 16777215
176
     1
 74
     1
176
     1
 91
        4
176
     1
 64
     7
176
     1
 65
   257
176
     1
 75
     7
176
     1
175
     7
176
     1
 42
1.0
176
     1
 92
        8
176
     1
 66
     7
176
     1
 43
1.0
176
     1
 76
     1
176
     1
 77
     6
176
     1
 78
     2
176
     1
 67
     7
176
     1
 79
     5
176
     1
170
     0
176
     1
171
     0
176
     1
290
     0
176
     1
 93
        1
176
     1
 44
0.0
176
     1
173
     0
176
     1
  0
VISUALSTYLE
  5
3C
102
{ACAD_REACTORS
330
2A
102
}
102
{ACAD_XDICTIONARY
360
269
102
}
330
2A
100
AcDbVisualStyle
  2
OverhangOff
 70
    21
177
     2
291
     1
 71
     2
176
     0
 72
     2
176
     0
 73
     0
176
     0
 90
        0
176
     0
 40
0.6
176
     0
 41
30.0
176
     0
 62
     5
 63
     7
421
 16777215
176
     0
 74
     1
176
     0
 91
        4
176
     0
 64
     7
176
     0
 65
   257
176
     0
 75
     1
176
     0
175
     1
176
     0
 42
1.0
176
     0
 92
        9
176
     2
 66
     7
176
     0
 43
1.0
176
     0
 76
     1
176
     0
 77
     6
176
     0
 78
     2
176
     0
 67
     7
176
     0
 79
     5
176
     0
170
     0
176
     0
171
     0
176
     0
290
     0
176
     0
 93
        1
176
     0
 44
0.0
176
     0
173
     0
176
     0
  0
VISUALSTYLE
  5
33
102
{ACAD_REACTORS
330
2A
102
}
102
{ACAD_XDICTIONARY
360
257
102
}
330
2A
100
AcDbVisualStyle
  2
Realistic
 70
     8
177
     2
291
     0
 71
     2
176
     1
 72
     3
176
     1
 73
     0
176
     1
 90
        2
176
     1
 40
0.6
176
     1
 41
30.0
176
     1
 62
     5
 63
     7
421
 16777215
176
     1
 74
     0
176
     1
 91
        0
176
     1
 64
     7
176
     1
 65
   257
176
     1
 75
     1
176
     1
175
     1
176
     1
 42
1.0
176
     1
 92
        8
176
     1
 66
   257
176
     1
 43
1.0
176
     1
 76
     1
176
     1
 77
     6
176
     1
 78
     2
176
     1
 67
     7
176
     1
 79
     3
176
     1
170
     0
176
     1
171
     0
176
     1
290
     0
176
     1
 93
       13
176
     1
 44
0.0
176
     1
173
     0
176
     1
  0
VISUALSTYLE
  5
42
102
{ACAD_REACTORS
330
2A
102
}
102
{ACAD_XDICTIONARY
360
275
102
}
330
2A
100
AcDbVisualStyle
  2
Shaded
 70
    27
177
     2
291
     0
 71
     2
176
     1
 72
     2
176
     1
 73
     1
176
     1
 90
        2
176
     1
 40
0.6
176
     1
 41
30.0
176
     1
 62
     5
 63
     7
421
 16777215
176
     1
 74
     0
176
     1
 91
        4
176
     1
 64
     7
176
     1
 65
   257
176
     1
 75
     1
176
     1
175
     1
176
     1
 42
1.0
176
     1
 92
        8
176
     1
 66
   257
176
     1
 43
1.0
176
     1
 76
     1
176
     1
 77
     6
176
     1
 78
     2
176
     1
 67
     8
425
  7895160
176
     1
 79
     3
176
     1
170
     0
176
     1
171
     0
176
     1
290
     0
176
     1
 93
        5
176
     1
 44
0.0
176
     1
173
     0
176
     1
  0
VISUALSTYLE
  5
41
102
{ACAD_REACTORS
330
2A
102
}
102
{ACAD_XDICTIONARY
360
273
102
}
330
2A
100
AcDbVisualStyle
  2
Shaded with edges
 70
    26
177
     2
291
     0
 71
     2
176
     1
 72
     2
176
     1
 73
     1
176
     1
 90
        2
176
     1
 40
0.6
176
     1
 41
30.0
176
     1
 62
     5
 63
     7
421
 16777215
176
     1
 74
     1
176
     1
 91
       10
176
     1
 64
     7
176
     1
 65
   257
176
     1
 75
     2
176
     1
175
     1
176
     1
 42
1.0
176
     1
 92
        8
176
     1
 66
   257
176
     1
 43
1.0
176
     1
 76
     1
176
     1
 77
     6
176
     1
 78
     2
176
     1
 67
     7
176
     1
 79
     3
176
     1
170
     0
176
     1
171
     0
176
     1
290
     0
176
     1
 93
        5
176
     1
 44
0.0
176
     1
173
     0
176
     1
  0
VISUALSTYLE
  5
3E
102
{ACAD_REACTORS
330
2A
102
}
102
{ACAD_XDICTIONARY
360
26D
102
}
330
2A
100
AcDbVisualStyle
  2
Shades of Gray
 70
    23
177
     2
291
     0
 71
     2
176
     1
 72
     2
176
     1
 73
     3
176
     1
 90
        0
176
     1
 40
0.6
176
     1
 41
30.0
176
     1
 62
     5
 63
     7
421
 16777215
176
     1
 74
     2
176
     1
 91
        2
176
     1
 64
     7
176
     1
 65
     7
176
     1
 75
     1
176
     1
175
     1
176
     1
 42
40.0
176
     1
 92
        8
176
     1
 66
     7
176
     1
 43
1.0
176
     1
 76
     1
176
     1
 77
     6
176
     1
 78
     2
176
     1
 67
     7
176
     1
 79
     3
176
     1
170
     0
176
     1
171
     0
176
     1
290
     0
176
     1
 93
        1
176
     1
 44
0.0
176
     1
173
     0
176
     1
  0
VISUALSTYLE
  5
3F
102
{ACAD_REACTORS
330
2A
102
}
102
{ACAD_XDICTIONARY
360
26F
102
}
330
2A
100
AcDbVisualStyle
  2
Sketchy
 70
    24
177
     2
291
     0
 71
     1
176
     1
 72
     2
176
     1
 73
     2
176
     1
 90
        0
176
     1
 40
0.6
176
     1
 41
30.0
176
     1
 62
     5
 63
     7
421
 16777215
176
     1
 74
     2
176
     1
 91
        2
176
     1
 64
     7
176
     1
 65
     7
176
     1
 75
     1
176
     1
175
     1
176
     1
 42
40.0
176
     1
 92
       11
176
     1
 66
     7
176
     1
 43
1.0
176
     1
 76
     1
176
     1
 77
     6
176
     1
 78
     2
176
     1
 67
     7
176
     1
 79
     6
176
     1
170
     0
176
     1
171
     0
176
     1
290
     0
176
     1
 93
        1
176
     1
 44
0.0
176
     1
173
     0
176
     1
  0
VISUALSTYLE
  5
37
102
{ACAD_REACTORS
330
2A
102
}
102
{ACAD_XDICTIONARY
360
25F
102
}
330
2A
100
AcDbVisualStyle
  2
Thicken
 70
    13
177
     2
291
     1
 71
     2
176
     1
 72
     2
176
     1
 73
     0
176
     1
 90
        0
176
     1
 40
0.6
176
     1
 41
30.0
176
     1
 62
     5
 63
     7
421
 16777215
176
     1
 74
     1
176
     1
 91
        4
176
     1
 64
     7
176
     1
 65
   257
176
     1
 75
     1
176
     1
175
     1
176
     1
 42
1.0
176
     1
 92
       12
176
     1
 66
     7
176
     1
 43
1.0
176
     1
 76
     1
176
     1
 77
     6
176
     1
 78
     2
176
     1
 67
     7
176
     1
 79
     5
176
     1
170
     0
176
     1
171
     0
176
     1
290
     0
176
     1
 93
        1
176
     1
 44
0.0
176
     1
173
     0
176
     1
  0
VISUALSTYLE
  5
30
102
{ACAD_REACTORS
330
2A
102
}
102
{ACAD_XDICTIONARY
360
251
102
}
330
2A
100
AcDbVisualStyle
  2
Wireframe
 70
     5
177
     2
291
     0
 71
     0
176
     1
 72
     2
176
     1
 73
     0
176
     1
 90
        0
176
     1
 40
0.6
176
     1
 41
30.0
176
     1
 62
     5
 63
     7
421
 16777215
176
     1
 74
     1
176
     1
 91
        4
176
     1
 64
     7
176
     1
 65
   257
176
     1
 75
     1
176
     1
175
     1
176
     1
 42
1.0
176
     1
 92
        0
176
     1
 66
   257
176
     1
 43
1.0
176
     1
 76
     1
176
     1
 77
     6
176
     1
 78
     2
176
     1
 67
     7
176
     1
 79
     3
176
     1
170
     0
176
     1
171
     0
176
     1
290
     0
176
     1
 93
        1
176
     1
 44
0.0
176
     1
173
     0
176
     1
  0
VISUALSTYLE
  5
40
102
{ACAD_REACTORS
330
2A
102
}
102
{ACAD_XDICTIONARY
360
271
102
}
330
2A
100
AcDbVisualStyle
  2
X-Ray
 70
    25
177
     2
291
     0
 71
     2
176
     1
 72
     2
176
     1
 73
     1
176
     1
 90
        1
176
     1
 40
0.5
176
     1
 41
30.0
176
     1
 62
     5
 63
     7
421
 16777215
176
     1
 74
     1
176
     1
 91
        0
176
     1
 64
     7
176
     1
 65
   257
176
     1
 75
     1
176
     1
175
     1
176
     1
 42
1.0
176
     1
 92
        8
176
     1
 66
     7
176
     1
 43
1.0
176
     1
 76
     1
176
     1
 77
     6
176
     1
 78
     2
176
     1
 67
     7
176
     1
 79
     3
176
     1
170
     0
176
     1
171
     0
176
     1
290
     0
176
     1
 93
       13
176
     1
 44
0.0
176
     1
173
     0
176
     1
  0
DICTIONARYVAR
  5
246
102
{ACAD_REACTORS
330
245
102
}
330
245
100
DictionaryVariables
280
     0
  1
1:1
  0
DICTIONARYVAR
  5
27B
102
{ACAD_REACTORS
330
245
102
}
330
245
100
DictionaryVariables
280
     0
  1
Standard
  0
DICTIONARYVAR
  5
27A
102
{ACAD_REACTORS
330
245
102
}
330
245
100
DictionaryVariables
280
     0
  1
Standard
  0
DICTIONARY
  5
277
330
6A
100
AcDbDictionary
280
     1
281
     1
  3
ACAD_ROUNDTRIP_2008_TABLESTYLE_CELLSTYLEMAP
360
278
  0
DICTIONARY
  5
24F
330
2F
100
AcDbDictionary
280
     1
281
     1
  3
ACAD_XREC_ROUNDTRIP
360
250
  0
DICTIONARY
  5
255
330
32
100
AcDbDictionary
280
     1
281
     1
  3
ACAD_XREC_ROUNDTRIP
360
256
  0
DICTIONARY
  5
25D
330
36
100
AcDbDictionary
280
     1
281
     1
  3
ACAD_XREC_ROUNDTRIP
360
25E
  0
DICTIONARY
  5
265
330
3A
100
AcDbDictionary
280
     1
281
     1
  3
ACAD_XREC_ROUNDTRIP
360
266
  0
DICTIONARY
  5
259
330
34
100
AcDbDictionary
280
     1
281
     1
  3
ACAD_XREC_ROUNDTRIP
360
25A
  0
DICTIONARY
  5
25B
330
35
100
AcDbDictionary
280
     1
281
     1
  3
ACAD_XREC_ROUNDTRIP
360
25C
  0
DICTIONARY
  5
26B
330
3D
100
AcDbDictionary
280
     1
281
     1
  3
ACAD_XREC_ROUNDTRIP
360
26C
  0
DICTIONARY
  5
263
330
39
100
AcDbDictionary
280
     1
281
     1
  3
ACAD_XREC_ROUNDTRIP
360
264
  0
DICTIONARY
  5
247
330
2B
100
AcDbDictionary
280
     1
281
     1
  3
ACAD_XREC_ROUNDTRIP
360
248
  0
DICTIONARY
  5
249
330
2C
100
AcDbDictionary
280
     1
281
     1
  3
ACAD_XREC_ROUNDTRIP
360
24A
  0
DICTIONARY
  5
24B
330
2D
100
AcDbDictionary
280
     1
281
     1
  3
ACAD_XREC_ROUNDTRIP
360
24C
  0
DICTIONARY
  5
24D
330
2E
100
AcDbDictionary
280
     1
281
     1
  3
ACAD_XREC_ROUNDTRIP
360
24E
  0
DICTIONARY
  5
253
330
31
100
AcDbDictionary
280
     1
281
     1
  3
ACAD_XREC_ROUNDTRIP
360
254
  0
DICTIONARY
  5
267
330
3B
100
AcDbDictionary
280
     1
281
     1
  3
ACAD_XREC_ROUNDTRIP
360
268
  0
DICTIONARY
  5
261
330
38
100
AcDbDictionary
280
     1
281
     1
  3
ACAD_XREC_ROUNDTRIP
360
262
  0
DICTIONARY
  5
269
330
3C
100
AcDbDictionary
280
     1
281
     1
  3
ACAD_XREC_ROUNDTRIP
360
26A
  0
DICTIONARY
  5
257
330
33
100
AcDbDictionary
280
     1
281
     1
  3
ACAD_XREC_ROUNDTRIP
360
258
  0
DICTIONARY
  5
275
330
42
100
AcDbDictionary
280
     1
281
     1
  3
ACAD_XREC_ROUNDTRIP
360
276
  0
DICTIONARY
  5
273
330
41
100
AcDbDictionary
280
     1
281
     1
  3
ACAD_XREC_ROUNDTRIP
360
274
  0
DICTIONARY
  5
26D
330
3E
100
AcDbDictionary
280
     1
281
     1
  3
ACAD_XREC_ROUNDTRIP
360
26E
  0
DICTIONARY
  5
26F
330
3F
100
AcDbDictionary
280
     1
281
     1
  3
ACAD_XREC_ROUNDTRIP
360
270
  0
DICTIONARY
  5
25F
330
37
100
AcDbDictionary
280
     1
281
     1
  3
ACAD_XREC_ROUNDTRIP
360
260
  0
DICTIONARY
  5
251
330
30
100
AcDbDictionary
280
     1
281
     1
  3
ACAD_XREC_ROUNDTRIP
360
252
  0
DICTIONARY
  5
271
330
40
100
AcDbDictionary
280
     1
281
     1
  3
ACAD_XREC_ROUNDTRIP
360
272
  0
CELLSTYLEMAP
  5
278
102
{ACAD_REACTORS
330
277
102
}
330
277
100
AcDbCellStyleMap
 90
        3
300
CELLSTYLE
  1
TABLEFORMAT_BEGIN
 90
        5
170
     1
 91
        0
 92
    32768
 62
   257
 93
        1
300
CONTENTFORMAT
  1
CONTENTFORMAT_BEGIN
 90
        0
 91
        0
 92
        4
 93
        0
300

 40
0.0
140
1.0
 94
        5
 62
     0
340
11
144
6.0
309
CONTENTFORMAT_END
171
     1
301
MARGIN
  1
CELLMARGIN_BEGIN
 40
1.5
 40
1.5
 40
1.5
 40
1.5
 40
1.5
 40
1.5
309
CELLMARGIN_END
 94
        6
 95
        1
302
GRIDFORMAT
  1
GRIDFORMAT_BEGIN
 90
        0
 91
        1
 62
     0
 92
       -2
340
14
 93
        0
 40
0.045
309
GRIDFORMAT_END
 95
        2
302
GRIDFORMAT
  1
GRIDFORMAT_BEGIN
 90
        0
 91
        1
 62
     0
 92
       -2
340
14
 93
        0
 40
0.045
309
GRIDFORMAT_END
 95
        4
302
GRIDFORMAT
  1
GRIDFORMAT_BEGIN
 90
        0
 91
        1
 62
     0
 92
       -2
340
14
 93
        0
 40
0.045
309
GRIDFORMAT_END
 95
        8
302
GRIDFORMAT
  1
GRIDFORMAT_BEGIN
 90
        0
 91
        1
 62
     0
 92
       -2
340
14
 93
        0
 40
0.045
309
GRIDFORMAT_END
 95
       16
302
GRIDFORMAT
  1
GRIDFORMAT_BEGIN
 90
        0
 91
        1
 62
     0
 92
       -2
340
14
 93
        0
 40
0.045
309
GRIDFORMAT_END
 95
       32
302
GRIDFORMAT
  1
GRIDFORMAT_BEGIN
 90
        0
 91
        1
 62
     0
 92
       -2
340
14
 93
        0
 40
0.045
309
GRIDFORMAT_END
309
TABLEFORMAT_END
  1
CELLSTYLE_BEGIN
 90
        1
 91
        1
300
_TITLE
309
CELLSTYLE_END
300
CELLSTYLE
  1
TABLEFORMAT_BEGIN
 90
        5
170
     1
 91
        0
 92
        0
 62
   257
 93
        1
300
CONTENTFORMAT
  1
CONTENTFORMAT_BEGIN
 90
        0
 91
        0
 92
        4
 93
        0
300

 40
0.0
140
1.0
 94
        5
 62
     0
340
11
144
4.5
309
CONTENTFORMAT_END
171
     1
301
MARGIN
  1
CELLMARGIN_BEGIN
 40
1.5
 40
1.5
 40
1.5
 40
1.5
 40
1.5
 40
1.5
309
CELLMARGIN_END
 94
        6
 95
        1
302
GRIDFORMAT
  1
GRIDFORMAT_BEGIN
 90
        0
 91
        1
 62
     0
 92
       -2
340
14
 93
        0
 40
0.045
309
GRIDFORMAT_END
 95
        2
302
GRIDFORMAT
  1
GRIDFORMAT_BEGIN
 90
        0
 91
        1
 62
     0
 92
       -2
340
14
 93
        0
 40
0.045
309
GRIDFORMAT_END
 95
        4
302
GRIDFORMAT
  1
GRIDFORMAT_BEGIN
 90
        0
 91
        1
 62
     0
 92
       -2
340
14
 93
        0
 40
0.045
309
GRIDFORMAT_END
 95
        8
302
GRIDFORMAT
  1
GRIDFORMAT_BEGIN
 90
        0
 91
        1
 62
     0
 92
       -2
340
14
 93
        0
 40
0.045
309
GRIDFORMAT_END
 95
       16
302
GRIDFORMAT
  1
GRIDFORMAT_BEGIN
 90
        0
 91
        1
 62
     0
 92
       -2
340
14
 93
        0
 40
0.045
309
GRIDFORMAT_END
 95
       32
302
GRIDFORMAT
  1
GRIDFORMAT_BEGIN
 90
        0
 91
        1
 62
     0
 92
       -2
340
14
 93
        0
 40
0.045
309
GRIDFORMAT_END
309
TABLEFORMAT_END
  1
CELLSTYLE_BEGIN
 90
        2
 91
        1
300
_HEADER
309
CELLSTYLE_END
300
CELLSTYLE
  1
TABLEFORMAT_BEGIN
 90
        5
170
     1
 91
        0
 92
        0
 62
   257
 93
        1
300
CONTENTFORMAT
  1
CONTENTFORMAT_BEGIN
 90
        0
 91
        0
 92
        4
 93
        0
300

 40
0.0
140
1.0
 94
        2
 62
     0
340
11
144
4.5
309
CONTENTFORMAT_END
171
     1
301
MARGIN
  1
CELLMARGIN_BEGIN
 40
1.5
 40
1.5
 40
1.5
 40
1.5
 40
1.5
 40
1.5
309
CELLMARGIN_END
 94
        6
 95
        1
302
GRIDFORMAT
  1
GRIDFORMAT_BEGIN
 90
        0
 91
        1
 62
     0
 92
       -2
340
14
 93
        0
 40
0.045
309
GRIDFORMAT_END
 95
        2
302
GRIDFORMAT
  1
GRIDFORMAT_BEGIN
 90
        0
 91
        1
 62
     0
 92
       -2
340
14
 93
        0
 40
0.045
309
GRIDFORMAT_END
 95
        4
302
GRIDFORMAT
  1
GRIDFORMAT_BEGIN
 90
        0
 91
        1
 62
     0
 92
       -2
340
14
 93
        0
 40
0.045
309
GRIDFORMAT_END
 95
        8
302
GRIDFORMAT
  1
GRIDFORMAT_BEGIN
 90
        0
 91
        1
 62
     0
 92
       -2
340
14
 93
        0
 40
0.045
309
GRIDFORMAT_END
 95
       16
302
GRIDFORMAT
  1
GRIDFORMAT_BEGIN
 90
        0
 91
        1
 62
     0
 92
       -2
340
14
 93
        0
 40
0.045
309
GRIDFORMAT_END
 95
       32
302
GRIDFORMAT
  1
GRIDFORMAT_BEGIN
 90
        0
 91
        1
 62
     0
 92
       -2
340
14
 93
        0
 40
0.045
309
GRIDFORMAT_END
309
TABLEFORMAT_END
  1
CELLSTYLE_BEGIN
 90
        3
 91
        2
300
_DATA
309
CELLSTYLE_END
  0
XRECORD
  5
250
102
{ACAD_REACTORS
330
24F
102
}
330
24F
100
AcDbXrecord
280
     1
102
RTVSPost2010Prop28
280
     1
102
RTVSPost2010PropOp28
 70
     1
102
RTVSPost2010Prop29
280
     1
102
RTVSPost2010PropOp29
 70
     1
102
RTVSPost2010Prop30
280
     0
102
RTVSPost2010PropOp30
 70
     1
102
RTVSPost2010Prop31
280
     0
102
RTVSPost2010PropOp31
 70
     1
102
RTVSPost2010Prop32
280
     0
102
RTVSPost2010PropOp32
 70
     1
102
RTVSPost2010Prop33
280
     0
102
RTVSPost2010PropOp33
 70
     1
102
RTVSPost2010Prop34
280
     0
102
RTVSPost2010PropOp34
 70
     1
102
RTVSPost2010Prop35
280
     0
102
RTVSPost2010PropOp35
 70
     1
102
RTVSPost2010Prop36
280
     0
102
RTVSPost2010PropOp36
 70
     1
102
RTVSPost2010Prop37
 90
       50
102
RTVSPost2010PropOp37
 70
     1
102
RTVSPost2010Prop38
140
0.0
102
RTVSPost2010PropOp38
 70
     1
102
RTVSPost2010Prop39
140
1.0
102
RTVSPost2010PropOp39
 70
     1
102
RTVSPost2010Prop40
 90
        0
102
RTVSPost2010PropOp40
 70
     1
102
RTVSPost2010Prop41ColorIndex
 90
       18
102
RTVSPost2010Prop41ColorRGB
 90
        0
102
RTVSPost2010PropOp41
 70
     1
102
RTVSPost2010Prop42
 90
       50
102
RTVSPost2010PropOp42
 70
     1
102
RTVSPost2010Prop43
 90
        3
102
RTVSPost2010PropOp43
 70
     1
102
RTVSPost2010Prop44ColorIndex
 90
        5
102
RTVSPost2010Prop44ColorRGB
 90
      255
102
RTVSPost2010PropOp44
 70
     1
102
RTVSPost2010Prop45
280
     0
102
RTVSPost2010PropOp45
 70
     1
102
RTVSPost2010Prop46
 90
       50
102
RTVSPost2010PropOp46
 70
     1
102
RTVSPost2010Prop47
 90
       50
102
RTVSPost2010PropOp47
 70
     1
102
RTVSPost2010Prop48
 90
       50
102
RTVSPost2010PropOp48
 70
     1
102
RTVSPost2010Prop49
280
     0
102
RTVSPost2010PropOp49
 70
     1
102
RTVSPost2010Prop50
 90
       50
102
RTVSPost2010PropOp50
 70
     1
102
RTVSPost2010Prop51ColorIndex
 90
      256
102
RTVSPost2010Prop51ColorRGB
 90
-16777216
102
RTVSPost2010PropOp51
 70
     0
102
RTVSPost2010Prop52
140
1.0
102
RTVSPost2010PropOp52
 70
     0
102
RTVSPost2010Prop53
 90
        2
102
RTVSPost2010PropOp53
 70
     1
102
RTVSPost2010Prop54
  1
strokes_ogs.tif
102
RTVSPost2010PropOp54
 70
     1
102
RTVSPost2010Prop55
280
     0
102
RTVSPost2010PropOp55
 70
     1
102
RTVSPost2010Prop56
140
1.0
102
RTVSPost2010PropOp56
 70
     1
102
RTVSPost2010Prop57
140
1.0
102
RTVSPost2010PropOp57
 70
     1
  0
XRECORD
  5
256
102
{ACAD_REACTORS
330
255
102
}
330
255
100
AcDbXrecord
280
     1
102
RTVSPost2010Prop28
280
     0
102
RTVSPost2010PropOp28
 70
     1
102
RTVSPost2010Prop29
280
     1
102
RTVSPost2010PropOp29
 70
     1
102
RTVSPost2010Prop30
280
     1
102
RTVSPost2010PropOp30
 70
     1
102
RTVSPost2010Prop31
280
     0
102
RTVSPost2010PropOp31
 70
     1
102
RTVSPost2010Prop32
280
     0
102
RTVSPost2010PropOp32
 70
     1
102
RTVSPost2010Prop33
280
     0
102
RTVSPost2010PropOp33
 70
     1
102
RTVSPost2010Prop34
280
     0
102
RTVSPost2010PropOp34
 70
     1
102
RTVSPost2010Prop35
280
     0
102
RTVSPost2010PropOp35
 70
     1
102
RTVSPost2010Prop36
280
     0
102
RTVSPost2010PropOp36
 70
     1
102
RTVSPost2010Prop37
 90
       50
102
RTVSPost2010PropOp37
 70
     1
102
RTVSPost2010Prop38
140
0.0
102
RTVSPost2010PropOp38
 70
     1
102
RTVSPost2010Prop39
140
1.0
102
RTVSPost2010PropOp39
 70
     1
102
RTVSPost2010Prop40
 90
        0
102
RTVSPost2010PropOp40
 70
     1
102
RTVSPost2010Prop41ColorIndex
 90
       18
102
RTVSPost2010Prop41ColorRGB
 90
        0
102
RTVSPost2010PropOp41
 70
     1
102
RTVSPost2010Prop42
 90
       50
102
RTVSPost2010PropOp42
 70
     1
102
RTVSPost2010Prop43
 90
        3
102
RTVSPost2010PropOp43
 70
     1
102
RTVSPost2010Prop44ColorIndex
 90
        5
102
RTVSPost2010Prop44ColorRGB
 90
      255
102
RTVSPost2010PropOp44
 70
     1
102
RTVSPost2010Prop45
280
     0
102
RTVSPost2010PropOp45
 70
     1
102
RTVSPost2010Prop46
 90
       50
102
RTVSPost2010PropOp46
 70
     1
102
RTVSPost2010Prop47
 90
       50
102
RTVSPost2010PropOp47
 70
     1
102
RTVSPost2010Prop48
 90
       50
102
RTVSPost2010PropOp48
 70
     1
102
RTVSPost2010Prop49
280
     0
102
RTVSPost2010PropOp49
 70
     1
102
RTVSPost2010Prop50
 90
       50
102
RTVSPost2010PropOp50
 70
     1
102
RTVSPost2010Prop51ColorIndex
 90
      256
102
RTVSPost2010Prop51ColorRGB
 90
-16777216
102
RTVSPost2010PropOp51
 70
     0
102
RTVSPost2010Prop52
140
1.0
102
RTVSPost2010PropOp52
 70
     0
102
RTVSPost2010Prop53
 90
        2
102
RTVSPost2010PropOp53
 70
     1
102
RTVSPost2010Prop54
  1
strokes_ogs.tif
102
RTVSPost2010PropOp54
 70
     1
102
RTVSPost2010Prop55
280
     0
102
RTVSPost2010PropOp55
 70
     1
102
RTVSPost2010Prop56
140
1.0
102
RTVSPost2010PropOp56
 70
     1
102
RTVSPost2010Prop57
140
1.0
102
RTVSPost2010PropOp57
 70
     1
  0
XRECORD
  5
25E
102
{ACAD_REACTORS
330
25D
102
}
330
25D
100
AcDbXrecord
280
     1
102
RTVSPost2010Prop28
280
     0
102
RTVSPost2010PropOp28
 70
     1
102
RTVSPost2010Prop29
280
     1
102
RTVSPost2010PropOp29
 70
     1
102
RTVSPost2010Prop30
280
     1
102
RTVSPost2010PropOp30
 70
     1
102
RTVSPost2010Prop31
280
     0
102
RTVSPost2010PropOp31
 70
     1
102
RTVSPost2010Prop32
280
     0
102
RTVSPost2010PropOp32
 70
     1
102
RTVSPost2010Prop33
280
     0
102
RTVSPost2010PropOp33
 70
     1
102
RTVSPost2010Prop34
280
     0
102
RTVSPost2010PropOp34
 70
     1
102
RTVSPost2010Prop35
280
     0
102
RTVSPost2010PropOp35
 70
     1
102
RTVSPost2010Prop36
280
     0
102
RTVSPost2010PropOp36
 70
     1
102
RTVSPost2010Prop37
 90
       50
102
RTVSPost2010PropOp37
 70
     1
102
RTVSPost2010Prop38
140
0.0
102
RTVSPost2010PropOp38
 70
     1
102
RTVSPost2010Prop39
140
1.0
102
RTVSPost2010PropOp39
 70
     1
102
RTVSPost2010Prop40
 90
        0
102
RTVSPost2010PropOp40
 70
     1
102
RTVSPost2010Prop41ColorIndex
 90
       18
102
RTVSPost2010Prop41ColorRGB
 90
        0
102
RTVSPost2010PropOp41
 70
     1
102
RTVSPost2010Prop42
 90
       50
102
RTVSPost2010PropOp42
 70
     1
102
RTVSPost2010Prop43
 90
        3
102
RTVSPost2010PropOp43
 70
     1
102
RTVSPost2010Prop44ColorIndex
 90
        5
102
RTVSPost2010Prop44ColorRGB
 90
      255
102
RTVSPost2010PropOp44
 70
     1
102
RTVSPost2010Prop45
280
     0
102
RTVSPost2010PropOp45
 70
     1
102
RTVSPost2010Prop46
 90
       50
102
RTVSPost2010PropOp46
 70
     1
102
RTVSPost2010Prop47
 90
       50
102
RTVSPost2010PropOp47
 70
     1
102
RTVSPost2010Prop48
 90
       50
102
RTVSPost2010PropOp48
 70
     1
102
RTVSPost2010Prop49
280
     0
102
RTVSPost2010PropOp49
 70
     1
102
RTVSPost2010Prop50
 90
       50
102
RTVSPost2010PropOp50
 70
     1
102
RTVSPost2010Prop51ColorIndex
 90
      256
102
RTVSPost2010Prop51ColorRGB
 90
-16777216
102
RTVSPost2010PropOp51
 70
     0
102
RTVSPost2010Prop52
140
1.0
102
RTVSPost2010PropOp52
 70
     0
102
RTVSPost2010Prop53
 90
        2
102
RTVSPost2010PropOp53
 70
     1
102
RTVSPost2010Prop54
  1
strokes_ogs.tif
102
RTVSPost2010PropOp54
 70
     1
102
RTVSPost2010Prop55
280
     0
102
RTVSPost2010PropOp55
 70
     1
102
RTVSPost2010Prop56
140
1.0
102
RTVSPost2010PropOp56
 70
     1
102
RTVSPost2010Prop57
140
1.0
102
RTVSPost2010PropOp57
 70
     1
  0
XRECORD
  5
266
102
{ACAD_REACTORS
330
265
102
}
330
265
100
AcDbXrecord
280
     1
102
RTVSPost2010Prop28
280
     0
102
RTVSPost2010PropOp28
 70
     1
102
RTVSPost2010Prop29
280
     1
102
RTVSPost2010PropOp29
 70
     1
102
RTVSPost2010Prop30
280
     1
102
RTVSPost2010PropOp30
 70
     1
102
RTVSPost2010Prop31
280
     0
102
RTVSPost2010PropOp31
 70
     1
102
RTVSPost2010Prop32
280
     0
102
RTVSPost2010PropOp32
 70
     1
102
RTVSPost2010Prop33
280
     0
102
RTVSPost2010PropOp33
 70
     1
102
RTVSPost2010Prop34
280
     0
102
RTVSPost2010PropOp34
 70
     1
102
RTVSPost2010Prop35
280
     0
102
RTVSPost2010PropOp35
 70
     1
102
RTVSPost2010Prop36
280
     0
102
RTVSPost2010PropOp36
 70
     1
102
RTVSPost2010Prop37
 90
       50
102
RTVSPost2010PropOp37
 70
     1
102
RTVSPost2010Prop38
140
0.0
102
RTVSPost2010PropOp38
 70
     1
102
RTVSPost2010Prop39
140
1.0
102
RTVSPost2010PropOp39
 70
     1
102
RTVSPost2010Prop40
 90
        0
102
RTVSPost2010PropOp40
 70
     1
102
RTVSPost2010Prop41ColorIndex
 90
       18
102
RTVSPost2010Prop41ColorRGB
 90
        0
102
RTVSPost2010PropOp41
 70
     1
102
RTVSPost2010Prop42
 90
       50
102
RTVSPost2010PropOp42
 70
     1
102
RTVSPost2010Prop43
 90
        3
102
RTVSPost2010PropOp43
 70
     1
102
RTVSPost2010Prop44ColorIndex
 90
        5
102
RTVSPost2010Prop44ColorRGB
 90
      255
102
RTVSPost2010PropOp44
 70
     1
102
RTVSPost2010Prop45
280
     0
102
RTVSPost2010PropOp45
 70
     1
102
RTVSPost2010Prop46
 90
       50
102
RTVSPost2010PropOp46
 70
     1
102
RTVSPost2010Prop47
 90
       50
102
RTVSPost2010PropOp47
 70
     1
102
RTVSPost2010Prop48
 90
       50
102
RTVSPost2010PropOp48
 70
     1
102
RTVSPost2010Prop49
280
     0
102
RTVSPost2010PropOp49
 70
     1
102
RTVSPost2010Prop50
 90
       50
102
RTVSPost2010PropOp50
 70
     1
102
RTVSPost2010Prop51ColorIndex
 90
      256
102
RTVSPost2010Prop51ColorRGB
 90
-16777216
102
RTVSPost2010PropOp51
 70
     0
102
RTVSPost2010Prop52
140
1.0
102
RTVSPost2010PropOp52
 70
     0
102
RTVSPost2010Prop53
 90
        2
102
RTVSPost2010PropOp53
 70
     1
102
RTVSPost2010Prop54
  1
strokes_ogs.tif
102
RTVSPost2010PropOp54
 70
     1
102
RTVSPost2010Prop55
280
     0
102
RTVSPost2010PropOp55
 70
     1
102
RTVSPost2010Prop56
140
1.0
102
RTVSPost2010PropOp56
 70
     1
102
RTVSPost2010Prop57
140
1.0
102
RTVSPost2010PropOp57
 70
     1
  0
XRECORD
  5
25A
102
{ACAD_REACTORS
330
259
102
}
330
259
100
AcDbXrecord
280
     1
102
RTVSPost2010Prop28
280
     0
102
RTVSPost2010PropOp28
 70
     1
102
RTVSPost2010Prop29
280
     1
102
RTVSPost2010PropOp29
 70
     1
102
RTVSPost2010Prop30
280
     1
102
RTVSPost2010PropOp30
 70
     1
102
RTVSPost2010Prop31
280
     0
102
RTVSPost2010PropOp31
 70
     1
102
RTVSPost2010Prop32
280
     0
102
RTVSPost2010PropOp32
 70
     1
102
RTVSPost2010Prop33
280
     0
102
RTVSPost2010PropOp33
 70
     1
102
RTVSPost2010Prop34
280
     0
102
RTVSPost2010PropOp34
 70
     1
102
RTVSPost2010Prop35
280
     0
102
RTVSPost2010PropOp35
 70
     1
102
RTVSPost2010Prop36
280
     0
102
RTVSPost2010PropOp36
 70
     1
102
RTVSPost2010Prop37
 90
       50
102
RTVSPost2010PropOp37
 70
     1
102
RTVSPost2010Prop38
140
0.0
102
RTVSPost2010PropOp38
 70
     1
102
RTVSPost2010Prop39
140
1.0
102
RTVSPost2010PropOp39
 70
     1
102
RTVSPost2010Prop40
 90
        0
102
RTVSPost2010PropOp40
 70
     1
102
RTVSPost2010Prop41ColorIndex
 90
       18
102
RTVSPost2010Prop41ColorRGB
 90
        0
102
RTVSPost2010PropOp41
 70
     1
102
RTVSPost2010Prop42
 90
       50
102
RTVSPost2010PropOp42
 70
     1
102
RTVSPost2010Prop43
 90
        3
102
RTVSPost2010PropOp43
 70
     1
102
RTVSPost2010Prop44ColorIndex
 90
        5
102
RTVSPost2010Prop44ColorRGB
 90
      255
102
RTVSPost2010PropOp44
 70
     1
102
RTVSPost2010Prop45
280
     0
102
RTVSPost2010PropOp45
 70
     1
102
RTVSPost2010Prop46
 90
       50
102
RTVSPost2010PropOp46
 70
     1
102
RTVSPost2010Prop47
 90
       50
102
RTVSPost2010PropOp47
 70
     1
102
RTVSPost2010Prop48
 90
       50
102
RTVSPost2010PropOp48
 70
     1
102
RTVSPost2010Prop49
280
     0
102
RTVSPost2010PropOp49
 70
     1
102
RTVSPost2010Prop50
 90
       50
102
RTVSPost2010PropOp50
 70
     1
102
RTVSPost2010Prop51ColorIndex
 90
      256
102
RTVSPost2010Prop51ColorRGB
 90
-16777216
102
RTVSPost2010PropOp51
 70
     0
102
RTVSPost2010Prop52
140
1.0
102
RTVSPost2010PropOp52
 70
     0
102
RTVSPost2010Prop53
 90
        2
102
RTVSPost2010PropOp53
 70
     1
102
RTVSPost2010Prop54
  1
strokes_ogs.tif
102
RTVSPost2010PropOp54
 70
     1
102
RTVSPost2010Prop55
280
     0
102
RTVSPost2010PropOp55
 70
     1
102
RTVSPost2010Prop56
140
1.0
102
RTVSPost2010PropOp56
 70
     1
102
RTVSPost2010Prop57
140
1.0
102
RTVSPost2010PropOp57
 70
     1
  0
XRECORD
  5
25C
102
{ACAD_REACTORS
330
25B
102
}
330
25B
100
AcDbXrecord
280
     1
102
RTVSPost2010Prop28
280
     0
102
RTVSPost2010PropOp28
 70
     1
102
RTVSPost2010Prop29
280
     1
102
RTVSPost2010PropOp29
 70
     1
102
RTVSPost2010Prop30
280
     1
102
RTVSPost2010PropOp30
 70
     1
102
RTVSPost2010Prop31
280
     0
102
RTVSPost2010PropOp31
 70
     1
102
RTVSPost2010Prop32
280
     0
102
RTVSPost2010PropOp32
 70
     1
102
RTVSPost2010Prop33
280
     0
102
RTVSPost2010PropOp33
 70
     1
102
RTVSPost2010Prop34
280
     0
102
RTVSPost2010PropOp34
 70
     1
102
RTVSPost2010Prop35
280
     0
102
RTVSPost2010PropOp35
 70
     1
102
RTVSPost2010Prop36
280
     0
102
RTVSPost2010PropOp36
 70
     1
102
RTVSPost2010Prop37
 90
       50
102
RTVSPost2010PropOp37
 70
     1
102
RTVSPost2010Prop38
140
0.0
102
RTVSPost2010PropOp38
 70
     1
102
RTVSPost2010Prop39
140
1.0
102
RTVSPost2010PropOp39
 70
     1
102
RTVSPost2010Prop40
 90
        0
102
RTVSPost2010PropOp40
 70
     1
102
RTVSPost2010Prop41ColorIndex
 90
       18
102
RTVSPost2010Prop41ColorRGB
 90
        0
102
RTVSPost2010PropOp41
 70
     1
102
RTVSPost2010Prop42
 90
       50
102
RTVSPost2010PropOp42
 70
     1
102
RTVSPost2010Prop43
 90
        3
102
RTVSPost2010PropOp43
 70
     1
102
RTVSPost2010Prop44ColorIndex
 90
        5
102
RTVSPost2010Prop44ColorRGB
 90
      255
102
RTVSPost2010PropOp44
 70
     1
102
RTVSPost2010Prop45
280
     0
102
RTVSPost2010PropOp45
 70
     1
102
RTVSPost2010Prop46
 90
       50
102
RTVSPost2010PropOp46
 70
     1
102
RTVSPost2010Prop47
 90
       50
102
RTVSPost2010PropOp47
 70
     1
102
RTVSPost2010Prop48
 90
       50
102
RTVSPost2010PropOp48
 70
     1
102
RTVSPost2010Prop49
280
     0
102
RTVSPost2010PropOp49
 70
     1
102
RTVSPost2010Prop50
 90
       50
102
RTVSPost2010PropOp50
 70
     1
102
RTVSPost2010Prop51ColorIndex
 90
      256
102
RTVSPost2010Prop51ColorRGB
 90
-16777216
102
RTVSPost2010PropOp51
 70
     0
102
RTVSPost2010Prop52
140
1.0
102
RTVSPost2010PropOp52
 70
     0
102
RTVSPost2010Prop53
 90
        2
102
RTVSPost2010PropOp53
 70
     1
102
RTVSPost2010Prop54
  1
strokes_ogs.tif
102
RTVSPost2010PropOp54
 70
     1
102
RTVSPost2010Prop55
280
     0
102
RTVSPost2010PropOp55
 70
     1
102
RTVSPost2010Prop56
140
1.0
102
RTVSPost2010PropOp56
 70
     1
102
RTVSPost2010Prop57
140
1.0
102
RTVSPost2010PropOp57
 70
     1
  0
XRECORD
  5
26C
102
{ACAD_REACTORS
330
26B
102
}
330
26B
100
AcDbXrecord
280
     1
102
RTVSPost2010Prop28
280
     0
102
RTVSPost2010PropOp28
 70
     0
102
RTVSPost2010Prop29
280
     1
102
RTVSPost2010PropOp29
 70
     0
102
RTVSPost2010Prop30
280
     1
102
RTVSPost2010PropOp30
 70
     0
102
RTVSPost2010Prop31
280
     0
102
RTVSPost2010PropOp31
 70
     0
102
RTVSPost2010Prop32
280
     0
102
RTVSPost2010PropOp32
 70
     0
102
RTVSPost2010Prop33
280
     0
102
RTVSPost2010PropOp33
 70
     0
102
RTVSPost2010Prop34
280
     0
102
RTVSPost2010PropOp34
 70
     0
102
RTVSPost2010Prop35
280
     0
102
RTVSPost2010PropOp35
 70
     0
102
RTVSPost2010Prop36
280
     0
102
RTVSPost2010PropOp36
 70
     0
102
RTVSPost2010Prop37
 90
       50
102
RTVSPost2010PropOp37
 70
     0
102
RTVSPost2010Prop38
140
0.0
102
RTVSPost2010PropOp38
 70
     0
102
RTVSPost2010Prop39
140
1.0
102
RTVSPost2010PropOp39
 70
     0
102
RTVSPost2010Prop40
 90
        0
102
RTVSPost2010PropOp40
 70
     0
102
RTVSPost2010Prop41ColorIndex
 90
       18
102
RTVSPost2010Prop41ColorRGB
 90
        0
102
RTVSPost2010PropOp41
 70
     0
102
RTVSPost2010Prop42
 90
       50
102
RTVSPost2010PropOp42
 70
     0
102
RTVSPost2010Prop43
 90
        3
102
RTVSPost2010PropOp43
 70
     0
102
RTVSPost2010Prop44ColorIndex
 90
        5
102
RTVSPost2010Prop44ColorRGB
 90
      255
102
RTVSPost2010PropOp44
 70
     0
102
RTVSPost2010Prop45
280
     0
102
RTVSPost2010PropOp45
 70
     0
102
RTVSPost2010Prop46
 90
       50
102
RTVSPost2010PropOp46
 70
     0
102
RTVSPost2010Prop47
 90
       50
102
RTVSPost2010PropOp47
 70
     0
102
RTVSPost2010Prop48
 90
       50
102
RTVSPost2010PropOp48
 70
     0
102
RTVSPost2010Prop49
280
     0
102
RTVSPost2010PropOp49
 70
     0
102
RTVSPost2010Prop50
 90
       50
102
RTVSPost2010PropOp50
 70
     0
102
RTVSPost2010Prop51ColorIndex
 90
      256
102
RTVSPost2010Prop51ColorRGB
 90
-16777216
102
RTVSPost2010PropOp51
 70
     0
102
RTVSPost2010Prop52
140
1.0
102
RTVSPost2010PropOp52
 70
     0
102
RTVSPost2010Prop53
 90
        2
102
RTVSPost2010PropOp53
 70
     0
102
RTVSPost2010Prop54
  1
strokes_ogs.tif
102
RTVSPost2010PropOp54
 70
     0
102
RTVSPost2010Prop55
280
     0
102
RTVSPost2010PropOp55
 70
     0
102
RTVSPost2010Prop56
140
1.0
102
RTVSPost2010PropOp56
 70
     0
102
RTVSPost2010Prop57
140
1.0
102
RTVSPost2010PropOp57
 70
     0
  0
XRECORD
  5
264
102
{ACAD_REACTORS
330
263
102
}
330
263
100
AcDbXrecord
280
     1
102
RTVSPost2010Prop28
280
     0
102
RTVSPost2010PropOp28
 70
     1
102
RTVSPost2010Prop29
280
     1
102
RTVSPost2010PropOp29
 70
     1
102
RTVSPost2010Prop30
280
     1
102
RTVSPost2010PropOp30
 70
     1
102
RTVSPost2010Prop31
280
     0
102
RTVSPost2010PropOp31
 70
     1
102
RTVSPost2010Prop32
280
     0
102
RTVSPost2010PropOp32
 70
     1
102
RTVSPost2010Prop33
280
     0
102
RTVSPost2010PropOp33
 70
     1
102
RTVSPost2010Prop34
280
     0
102
RTVSPost2010PropOp34
 70
     1
102
RTVSPost2010Prop35
280
     0
102
RTVSPost2010PropOp35
 70
     1
102
RTVSPost2010Prop36
280
     0
102
RTVSPost2010PropOp36
 70
     1
102
RTVSPost2010Prop37
 90
       50
102
RTVSPost2010PropOp37
 70
     1
102
RTVSPost2010Prop38
140
0.0
102
RTVSPost2010PropOp38
 70
     1
102
RTVSPost2010Prop39
140
1.0
102
RTVSPost2010PropOp39
 70
     1
102
RTVSPost2010Prop40
 90
        0
102
RTVSPost2010PropOp40
 70
     1
102
RTVSPost2010Prop41ColorIndex
 90
       18
102
RTVSPost2010Prop41ColorRGB
 90
        0
102
RTVSPost2010PropOp41
 70
     1
102
RTVSPost2010Prop42
 90
       50
102
RTVSPost2010PropOp42
 70
     1
102
RTVSPost2010Prop43
 90
        3
102
RTVSPost2010PropOp43
 70
     1
102
RTVSPost2010Prop44ColorIndex
 90
        5
102
RTVSPost2010Prop44ColorRGB
 90
      255
102
RTVSPost2010PropOp44
 70
     1
102
RTVSPost2010Prop45
280
     0
102
RTVSPost2010PropOp45
 70
     1
102
RTVSPost2010Prop46
 90
       50
102
RTVSPost2010PropOp46
 70
     1
102
RTVSPost2010Prop47
 90
       50
102
RTVSPost2010PropOp47
 70
     1
102
RTVSPost2010Prop48
 90
       50
102
RTVSPost2010PropOp48
 70
     1
102
RTVSPost2010Prop49
280
     0
102
RTVSPost2010PropOp49
 70
     1
102
RTVSPost2010Prop50
 90
       50
102
RTVSPost2010PropOp50
 70
     1
102
RTVSPost2010Prop51ColorIndex
 90
      256
102
RTVSPost2010Prop51ColorRGB
 90
-16777216
102
RTVSPost2010PropOp51
 70
     0
102
RTVSPost2010Prop52
140
1.0
102
RTVSPost2010PropOp52
 70
     0
102
RTVSPost2010Prop53
 90
        2
102
RTVSPost2010PropOp53
 70
     1
102
RTVSPost2010Prop54
  1
strokes_ogs.tif
102
RTVSPost2010PropOp54
 70
     1
102
RTVSPost2010Prop55
280
     0
102
RTVSPost2010PropOp55
 70
     1
102
RTVSPost2010Prop56
140
1.0
102
RTVSPost2010PropOp56
 70
     1
102
RTVSPost2010Prop57
140
1.0
102
RTVSPost2010PropOp57
 70
     1
  0
XRECORD
  5
248
102
{ACAD_REACTORS
330
247
102
}
330
247
100
AcDbXrecord
280
     1
102
RTVSPost2010Prop28
280
     0
102
RTVSPost2010PropOp28
 70
     1
102
RTVSPost2010Prop29
280
     1
102
RTVSPost2010PropOp29
 70
     1
102
RTVSPost2010Prop30
280
     1
102
RTVSPost2010PropOp30
 70
     1
102
RTVSPost2010Prop31
280
     0
102
RTVSPost2010PropOp31
 70
     1
102
RTVSPost2010Prop32
280
     0
102
RTVSPost2010PropOp32
 70
     1
102
RTVSPost2010Prop33
280
     0
102
RTVSPost2010PropOp33
 70
     1
102
RTVSPost2010Prop34
280
     0
102
RTVSPost2010PropOp34
 70
     1
102
RTVSPost2010Prop35
280
     0
102
RTVSPost2010PropOp35
 70
     1
102
RTVSPost2010Prop36
280
     0
102
RTVSPost2010PropOp36
 70
     1
102
RTVSPost2010Prop37
 90
       50
102
RTVSPost2010PropOp37
 70
     1
102
RTVSPost2010Prop38
140
0.0
102
RTVSPost2010PropOp38
 70
     1
102
RTVSPost2010Prop39
140
1.0
102
RTVSPost2010PropOp39
 70
     1
102
RTVSPost2010Prop40
 90
        0
102
RTVSPost2010PropOp40
 70
     1
102
RTVSPost2010Prop41ColorIndex
 90
       18
102
RTVSPost2010Prop41ColorRGB
 90
        0
102
RTVSPost2010PropOp41
 70
     1
102
RTVSPost2010Prop42
 90
       50
102
RTVSPost2010PropOp42
 70
     1
102
RTVSPost2010Prop43
 90
        3
102
RTVSPost2010PropOp43
 70
     1
102
RTVSPost2010Prop44ColorIndex
 90
        5
102
RTVSPost2010Prop44ColorRGB
 90
      255
102
RTVSPost2010PropOp44
 70
     1
102
RTVSPost2010Prop45
280
     0
102
RTVSPost2010PropOp45
 70
     1
102
RTVSPost2010Prop46
 90
       50
102
RTVSPost2010PropOp46
 70
     1
102
RTVSPost2010Prop47
 90
       50
102
RTVSPost2010PropOp47
 70
     1
102
RTVSPost2010Prop48
 90
       50
102
RTVSPost2010PropOp48
 70
     1
102
RTVSPost2010Prop49
280
     0
102
RTVSPost2010PropOp49
 70
     1
102
RTVSPost2010Prop50
 90
       50
102
RTVSPost2010PropOp50
 70
     1
102
RTVSPost2010Prop51ColorIndex
 90
      256
102
RTVSPost2010Prop51ColorRGB
 90
-16777216
102
RTVSPost2010PropOp51
 70
     0
102
RTVSPost2010Prop52
140
1.0
102
RTVSPost2010PropOp52
 70
     0
102
RTVSPost2010Prop53
 90
        2
102
RTVSPost2010PropOp53
 70
     1
102
RTVSPost2010Prop54
  1
strokes_ogs.tif
102
RTVSPost2010PropOp54
 70
     1
102
RTVSPost2010Prop55
280
     0
102
RTVSPost2010PropOp55
 70
     1
102
RTVSPost2010Prop56
140
1.0
102
RTVSPost2010PropOp56
 70
     1
102
RTVSPost2010Prop57
140
1.0
102
RTVSPost2010PropOp57
 70
     1
  0
XRECORD
  5
24A
102
{ACAD_REACTORS
330
249
102
}
330
249
100
AcDbXrecord
280
     1
102
RTVSPost2010Prop28
280
     0
102
RTVSPost2010PropOp28
 70
     1
102
RTVSPost2010Prop29
280
     1
102
RTVSPost2010PropOp29
 70
     1
102
RTVSPost2010Prop30
280
     1
102
RTVSPost2010PropOp30
 70
     1
102
RTVSPost2010Prop31
280
     0
102
RTVSPost2010PropOp31
 70
     1
102
RTVSPost2010Prop32
280
     0
102
RTVSPost2010PropOp32
 70
     1
102
RTVSPost2010Prop33
280
     0
102
RTVSPost2010PropOp33
 70
     1
102
RTVSPost2010Prop34
280
     0
102
RTVSPost2010PropOp34
 70
     1
102
RTVSPost2010Prop35
280
     0
102
RTVSPost2010PropOp35
 70
     1
102
RTVSPost2010Prop36
280
     0
102
RTVSPost2010PropOp36
 70
     1
102
RTVSPost2010Prop37
 90
       50
102
RTVSPost2010PropOp37
 70
     1
102
RTVSPost2010Prop38
140
0.0
102
RTVSPost2010PropOp38
 70
     1
102
RTVSPost2010Prop39
140
1.0
102
RTVSPost2010PropOp39
 70
     1
102
RTVSPost2010Prop40
 90
        0
102
RTVSPost2010PropOp40
 70
     1
102
RTVSPost2010Prop41ColorIndex
 90
       18
102
RTVSPost2010Prop41ColorRGB
 90
        0
102
RTVSPost2010PropOp41
 70
     1
102
RTVSPost2010Prop42
 90
       50
102
RTVSPost2010PropOp42
 70
     1
102
RTVSPost2010Prop43
 90
        3
102
RTVSPost2010PropOp43
 70
     1
102
RTVSPost2010Prop44ColorIndex
 90
        5
102
RTVSPost2010Prop44ColorRGB
 90
      255
102
RTVSPost2010PropOp44
 70
     1
102
RTVSPost2010Prop45
280
     0
102
RTVSPost2010PropOp45
 70
     1
102
RTVSPost2010Prop46
 90
       50
102
RTVSPost2010PropOp46
 70
     1
102
RTVSPost2010Prop47
 90
       50
102
RTVSPost2010PropOp47
 70
     1
102
RTVSPost2010Prop48
 90
       50
102
RTVSPost2010PropOp48
 70
     1
102
RTVSPost2010Prop49
280
     0
102
RTVSPost2010PropOp49
 70
     1
102
RTVSPost2010Prop50
 90
       50
102
RTVSPost2010PropOp50
 70
     1
102
RTVSPost2010Prop51ColorIndex
 90
      256
102
RTVSPost2010Prop51ColorRGB
 90
-16777216
102
RTVSPost2010PropOp51
 70
     0
102
RTVSPost2010Prop52
140
1.0
102
RTVSPost2010PropOp52
 70
     0
102
RTVSPost2010Prop53
 90
        2
102
RTVSPost2010PropOp53
 70
     1
102
RTVSPost2010Prop54
  1
strokes_ogs.tif
102
RTVSPost2010PropOp54
 70
     1
102
RTVSPost2010Prop55
280
     0
102
RTVSPost2010PropOp55
 70
     1
102
RTVSPost2010Prop56
140
1.0
102
RTVSPost2010PropOp56
 70
     1
102
RTVSPost2010Prop57
140
1.0
102
RTVSPost2010PropOp57
 70
     1
  0
XRECORD
  5
24C
102
{ACAD_REACTORS
330
24B
102
}
330
24B
100
AcDbXrecord
280
     1
102
RTVSPost2010Prop28
280
     0
102
RTVSPost2010PropOp28
 70
     1
102
RTVSPost2010Prop29
280
     1
102
RTVSPost2010PropOp29
 70
     1
102
RTVSPost2010Prop30
280
     1
102
RTVSPost2010PropOp30
 70
     1
102
RTVSPost2010Prop31
280
     0
102
RTVSPost2010PropOp31
 70
     1
102
RTVSPost2010Prop32
280
     0
102
RTVSPost2010PropOp32
 70
     1
102
RTVSPost2010Prop33
280
     0
102
RTVSPost2010PropOp33
 70
     1
102
RTVSPost2010Prop34
280
     0
102
RTVSPost2010PropOp34
 70
     1
102
RTVSPost2010Prop35
280
     0
102
RTVSPost2010PropOp35
 70
     1
102
RTVSPost2010Prop36
280
     0
102
RTVSPost2010PropOp36
 70
     1
102
RTVSPost2010Prop37
 90
       50
102
RTVSPost2010PropOp37
 70
     1
102
RTVSPost2010Prop38
140
0.0
102
RTVSPost2010PropOp38
 70
     1
102
RTVSPost2010Prop39
140
1.0
102
RTVSPost2010PropOp39
 70
     1
102
RTVSPost2010Prop40
 90
        0
102
RTVSPost2010PropOp40
 70
     1
102
RTVSPost2010Prop41ColorIndex
 90
       18
102
RTVSPost2010Prop41ColorRGB
 90
        0
102
RTVSPost2010PropOp41
 70
     1
102
RTVSPost2010Prop42
 90
       50
102
RTVSPost2010PropOp42
 70
     1
102
RTVSPost2010Prop43
 90
        3
102
RTVSPost2010PropOp43
 70
     1
102
RTVSPost2010Prop44ColorIndex
 90
        5
102
RTVSPost2010Prop44ColorRGB
 90
      255
102
RTVSPost2010PropOp44
 70
     1
102
RTVSPost2010Prop45
280
     0
102
RTVSPost2010PropOp45
 70
     1
102
RTVSPost2010Prop46
 90
       50
102
RTVSPost2010PropOp46
 70
     1
102
RTVSPost2010Prop47
 90
       50
102
RTVSPost2010PropOp47
 70
     1
102
RTVSPost2010Prop48
 90
       50
102
RTVSPost2010PropOp48
 70
     1
102
RTVSPost2010Prop49
280
     0
102
RTVSPost2010PropOp49
 70
     1
102
RTVSPost2010Prop50
 90
       50
102
RTVSPost2010PropOp50
 70
     1
102
RTVSPost2010Prop51ColorIndex
 90
      256
102
RTVSPost2010Prop51ColorRGB
 90
-16777216
102
RTVSPost2010PropOp51
 70
     0
102
RTVSPost2010Prop52
140
1.0
102
RTVSPost2010PropOp52
 70
     0
102
RTVSPost2010Prop53
 90
        2
102
RTVSPost2010PropOp53
 70
     1
102
RTVSPost2010Prop54
  1
strokes_ogs.tif
102
RTVSPost2010PropOp54
 70
     1
102
RTVSPost2010Prop55
280
     0
102
RTVSPost2010PropOp55
 70
     1
102
RTVSPost2010Prop56
140
1.0
102
RTVSPost2010PropOp56
 70
     1
102
RTVSPost2010Prop57
140
1.0
102
RTVSPost2010PropOp57
 70
     1
  0
XRECORD
  5
24E
102
{ACAD_REACTORS
330
24D
102
}
330
24D
100
AcDbXrecord
280
     1
102
RTVSPost2010Prop28
280
     0
102
RTVSPost2010PropOp28
 70
     1
102
RTVSPost2010Prop29
280
     1
102
RTVSPost2010PropOp29
 70
     1
102
RTVSPost2010Prop30
280
     1
102
RTVSPost2010PropOp30
 70
     1
102
RTVSPost2010Prop31
280
     0
102
RTVSPost2010PropOp31
 70
     1
102
RTVSPost2010Prop32
280
     0
102
RTVSPost2010PropOp32
 70
     1
102
RTVSPost2010Prop33
280
     0
102
RTVSPost2010PropOp33
 70
     1
102
RTVSPost2010Prop34
280
     0
102
RTVSPost2010PropOp34
 70
     1
102
RTVSPost2010Prop35
280
     0
102
RTVSPost2010PropOp35
 70
     1
102
RTVSPost2010Prop36
280
     0
102
RTVSPost2010PropOp36
 70
     1
102
RTVSPost2010Prop37
 90
       50
102
RTVSPost2010PropOp37
 70
     1
102
RTVSPost2010Prop38
140
0.0
102
RTVSPost2010PropOp38
 70
     1
102
RTVSPost2010Prop39
140
1.0
102
RTVSPost2010PropOp39
 70
     1
102
RTVSPost2010Prop40
 90
        0
102
RTVSPost2010PropOp40
 70
     1
102
RTVSPost2010Prop41ColorIndex
 90
       18
102
RTVSPost2010Prop41ColorRGB
 90
        0
102
RTVSPost2010PropOp41
 70
     1
102
RTVSPost2010Prop42
 90
       50
102
RTVSPost2010PropOp42
 70
     1
102
RTVSPost2010Prop43
 90
        3
102
RTVSPost2010PropOp43
 70
     1
102
RTVSPost2010Prop44ColorIndex
 90
        5
102
RTVSPost2010Prop44ColorRGB
 90
      255
102
RTVSPost2010PropOp44
 70
     1
102
RTVSPost2010Prop45
280
     0
102
RTVSPost2010PropOp45
 70
     1
102
RTVSPost2010Prop46
 90
       50
102
RTVSPost2010PropOp46
 70
     1
102
RTVSPost2010Prop47
 90
       50
102
RTVSPost2010PropOp47
 70
     1
102
RTVSPost2010Prop48
 90
       50
102
RTVSPost2010PropOp48
 70
     1
102
RTVSPost2010Prop49
280
     0
102
RTVSPost2010PropOp49
 70
     1
102
RTVSPost2010Prop50
 90
       50
102
RTVSPost2010PropOp50
 70
     1
102
RTVSPost2010Prop51ColorIndex
 90
      256
102
RTVSPost2010Prop51ColorRGB
 90
-16777216
102
RTVSPost2010PropOp51
 70
     0
102
RTVSPost2010Prop52
140
1.0
102
RTVSPost2010PropOp52
 70
     0
102
RTVSPost2010Prop53
 90
        2
102
RTVSPost2010PropOp53
 70
     1
102
RTVSPost2010Prop54
  1
strokes_ogs.tif
102
RTVSPost2010PropOp54
 70
     1
102
RTVSPost2010Prop55
280
     0
102
RTVSPost2010PropOp55
 70
     1
102
RTVSPost2010Prop56
140
1.0
102
RTVSPost2010PropOp56
 70
     1
102
RTVSPost2010Prop57
140
1.0
102
RTVSPost2010PropOp57
 70
     1
  0
XRECORD
  5
254
102
{ACAD_REACTORS
330
253
102
}
330
253
100
AcDbXrecord
280
     1
102
RTVSPost2010Prop28
280
     0
102
RTVSPost2010PropOp28
 70
     1
102
RTVSPost2010Prop29
280
     1
102
RTVSPost2010PropOp29
 70
     1
102
RTVSPost2010Prop30
280
     1
102
RTVSPost2010PropOp30
 70
     1
102
RTVSPost2010Prop31
280
     0
102
RTVSPost2010PropOp31
 70
     1
102
RTVSPost2010Prop32
280
     0
102
RTVSPost2010PropOp32
 70
     1
102
RTVSPost2010Prop33
280
     0
102
RTVSPost2010PropOp33
 70
     1
102
RTVSPost2010Prop34
280
     0
102
RTVSPost2010PropOp34
 70
     1
102
RTVSPost2010Prop35
280
     0
102
RTVSPost2010PropOp35
 70
     1
102
RTVSPost2010Prop36
280
     0
102
RTVSPost2010PropOp36
 70
     1
102
RTVSPost2010Prop37
 90
       50
102
RTVSPost2010PropOp37
 70
     1
102
RTVSPost2010Prop38
140
0.0
102
RTVSPost2010PropOp38
 70
     1
102
RTVSPost2010Prop39
140
1.0
102
RTVSPost2010PropOp39
 70
     1
102
RTVSPost2010Prop40
 90
        0
102
RTVSPost2010PropOp40
 70
     1
102
RTVSPost2010Prop41ColorIndex
 90
       18
102
RTVSPost2010Prop41ColorRGB
 90
        0
102
RTVSPost2010PropOp41
 70
     1
102
RTVSPost2010Prop42
 90
       50
102
RTVSPost2010PropOp42
 70
     1
102
RTVSPost2010Prop43
 90
        3
102
RTVSPost2010PropOp43
 70
     1
102
RTVSPost2010Prop44ColorIndex
 90
        5
102
RTVSPost2010Prop44ColorRGB
 90
      255
102
RTVSPost2010PropOp44
 70
     1
102
RTVSPost2010Prop45
280
     0
102
RTVSPost2010PropOp45
 70
     1
102
RTVSPost2010Prop46
 90
       50
102
RTVSPost2010PropOp46
 70
     1
102
RTVSPost2010Prop47
 90
       50
102
RTVSPost2010PropOp47
 70
     1
102
RTVSPost2010Prop48
 90
       50
102
RTVSPost2010PropOp48
 70
     1
102
RTVSPost2010Prop49
280
     0
102
RTVSPost2010PropOp49
 70
     1
102
RTVSPost2010Prop50
 90
       50
102
RTVSPost2010PropOp50
 70
     1
102
RTVSPost2010Prop51ColorIndex
 90
      256
102
RTVSPost2010Prop51ColorRGB
 90
-16777216
102
RTVSPost2010PropOp51
 70
     0
102
RTVSPost2010Prop52
140
1.0
102
RTVSPost2010PropOp52
 70
     0
102
RTVSPost2010Prop53
 90
        2
102
RTVSPost2010PropOp53
 70
     1
102
RTVSPost2010Prop54
  1
strokes_ogs.tif
102
RTVSPost2010PropOp54
 70
     1
102
RTVSPost2010Prop55
280
     0
102
RTVSPost2010PropOp55
 70
     1
102
RTVSPost2010Prop56
140
1.0
102
RTVSPost2010PropOp56
 70
     1
102
RTVSPost2010Prop57
140
1.0
102
RTVSPost2010PropOp57
 70
     1
  0
XRECORD
  5
268
102
{ACAD_REACTORS
330
267
102
}
330
267
100
AcDbXrecord
280
     1
102
RTVSPost2010Prop28
280
     0
102
RTVSPost2010PropOp28
 70
     0
102
RTVSPost2010Prop29
280
     1
102
RTVSPost2010PropOp29
 70
     0
102
RTVSPost2010Prop30
280
     1
102
RTVSPost2010PropOp30
 70
     0
102
RTVSPost2010Prop31
280
     0
102
RTVSPost2010PropOp31
 70
     0
102
RTVSPost2010Prop32
280
     0
102
RTVSPost2010PropOp32
 70
     0
102
RTVSPost2010Prop33
280
     0
102
RTVSPost2010PropOp33
 70
     0
102
RTVSPost2010Prop34
280
     0
102
RTVSPost2010PropOp34
 70
     0
102
RTVSPost2010Prop35
280
     0
102
RTVSPost2010PropOp35
 70
     0
102
RTVSPost2010Prop36
280
     0
102
RTVSPost2010PropOp36
 70
     0
102
RTVSPost2010Prop37
 90
       50
102
RTVSPost2010PropOp37
 70
     0
102
RTVSPost2010Prop38
140
0.0
102
RTVSPost2010PropOp38
 70
     0
102
RTVSPost2010Prop39
140
1.0
102
RTVSPost2010PropOp39
 70
     0
102
RTVSPost2010Prop40
 90
        0
102
RTVSPost2010PropOp40
 70
     0
102
RTVSPost2010Prop41ColorIndex
 90
       18
102
RTVSPost2010Prop41ColorRGB
 90
        0
102
RTVSPost2010PropOp41
 70
     0
102
RTVSPost2010Prop42
 90
       50
102
RTVSPost2010PropOp42
 70
     0
102
RTVSPost2010Prop43
 90
        3
102
RTVSPost2010PropOp43
 70
     0
102
RTVSPost2010Prop44ColorIndex
 90
        5
102
RTVSPost2010Prop44ColorRGB
 90
      255
102
RTVSPost2010PropOp44
 70
     0
102
RTVSPost2010Prop45
280
     0
102
RTVSPost2010PropOp45
 70
     0
102
RTVSPost2010Prop46
 90
       50
102
RTVSPost2010PropOp46
 70
     0
102
RTVSPost2010Prop47
 90
       50
102
RTVSPost2010PropOp47
 70
     0
102
RTVSPost2010Prop48
 90
       50
102
RTVSPost2010PropOp48
 70
     0
102
RTVSPost2010Prop49
280
     0
102
RTVSPost2010PropOp49
 70
     0
102
RTVSPost2010Prop50
 90
       50
102
RTVSPost2010PropOp50
 70
     0
102
RTVSPost2010Prop51ColorIndex
 90
      256
102
RTVSPost2010Prop51ColorRGB
 90
-16777216
102
RTVSPost2010PropOp51
 70
     0
102
RTVSPost2010Prop52
140
1.0
102
RTVSPost2010PropOp52
 70
     0
102
RTVSPost2010Prop53
 90
        2
102
RTVSPost2010PropOp53
 70
     0
102
RTVSPost2010Prop54
  1
strokes_ogs.tif
102
RTVSPost2010PropOp54
 70
     0
102
RTVSPost2010Prop55
280
     0
102
RTVSPost2010PropOp55
 70
     0
102
RTVSPost2010Prop56
140
1.0
102
RTVSPost2010PropOp56
 70
     0
102
RTVSPost2010Prop57
140
1.0
102
RTVSPost2010PropOp57
 70
     0
  0
XRECORD
  5
262
102
{ACAD_REACTORS
330
261
102
}
330
261
100
AcDbXrecord
280
     1
102
RTVSPost2010Prop28
280
     0
102
RTVSPost2010PropOp28
 70
     1
102
RTVSPost2010Prop29
280
     1
102
RTVSPost2010PropOp29
 70
     1
102
RTVSPost2010Prop30
280
     1
102
RTVSPost2010PropOp30
 70
     1
102
RTVSPost2010Prop31
280
     0
102
RTVSPost2010PropOp31
 70
     1
102
RTVSPost2010Prop32
280
     0
102
RTVSPost2010PropOp32
 70
     1
102
RTVSPost2010Prop33
280
     0
102
RTVSPost2010PropOp33
 70
     1
102
RTVSPost2010Prop34
280
     0
102
RTVSPost2010PropOp34
 70
     1
102
RTVSPost2010Prop35
280
     0
102
RTVSPost2010PropOp35
 70
     1
102
RTVSPost2010Prop36
280
     0
102
RTVSPost2010PropOp36
 70
     1
102
RTVSPost2010Prop37
 90
       50
102
RTVSPost2010PropOp37
 70
     1
102
RTVSPost2010Prop38
140
0.0
102
RTVSPost2010PropOp38
 70
     1
102
RTVSPost2010Prop39
140
1.0
102
RTVSPost2010PropOp39
 70
     1
102
RTVSPost2010Prop40
 90
        0
102
RTVSPost2010PropOp40
 70
     1
102
RTVSPost2010Prop41ColorIndex
 90
       18
102
RTVSPost2010Prop41ColorRGB
 90
        0
102
RTVSPost2010PropOp41
 70
     1
102
RTVSPost2010Prop42
 90
       50
102
RTVSPost2010PropOp42
 70
     1
102
RTVSPost2010Prop43
 90
        3
102
RTVSPost2010PropOp43
 70
     1
102
RTVSPost2010Prop44ColorIndex
 90
        5
102
RTVSPost2010Prop44ColorRGB
 90
      255
102
RTVSPost2010PropOp44
 70
     1
102
RTVSPost2010Prop45
280
     0
102
RTVSPost2010PropOp45
 70
     1
102
RTVSPost2010Prop46
 90
       50
102
RTVSPost2010PropOp46
 70
     1
102
RTVSPost2010Prop47
 90
       50
102
RTVSPost2010PropOp47
 70
     1
102
RTVSPost2010Prop48
 90
       50
102
RTVSPost2010PropOp48
 70
     1
102
RTVSPost2010Prop49
280
     0
102
RTVSPost2010PropOp49
 70
     1
102
RTVSPost2010Prop50
 90
       50
102
RTVSPost2010PropOp50
 70
     1
102
RTVSPost2010Prop51ColorIndex
 90
      256
102
RTVSPost2010Prop51ColorRGB
 90
-16777216
102
RTVSPost2010PropOp51
 70
     0
102
RTVSPost2010Prop52
140
1.0
102
RTVSPost2010PropOp52
 70
     0
102
RTVSPost2010Prop53
 90
        2
102
RTVSPost2010PropOp53
 70
     1
102
RTVSPost2010Prop54
  1
strokes_ogs.tif
102
RTVSPost2010PropOp54
 70
     1
102
RTVSPost2010Prop55
280
     0
102
RTVSPost2010PropOp55
 70
     1
102
RTVSPost2010Prop56
140
1.0
102
RTVSPost2010PropOp56
 70
     1
102
RTVSPost2010Prop57
140
1.0
102
RTVSPost2010PropOp57
 70
     1
  0
XRECORD
  5
26A
102
{ACAD_REACTORS
330
269
102
}
330
269
100
AcDbXrecord
280
     1
102
RTVSPost2010Prop28
280
     0
102
RTVSPost2010PropOp28
 70
     0
102
RTVSPost2010Prop29
280
     1
102
RTVSPost2010PropOp29
 70
     0
102
RTVSPost2010Prop30
280
     1
102
RTVSPost2010PropOp30
 70
     0
102
RTVSPost2010Prop31
280
     0
102
RTVSPost2010PropOp31
 70
     0
102
RTVSPost2010Prop32
280
     0
102
RTVSPost2010PropOp32
 70
     0
102
RTVSPost2010Prop33
280
     0
102
RTVSPost2010PropOp33
 70
     0
102
RTVSPost2010Prop34
280
     0
102
RTVSPost2010PropOp34
 70
     0
102
RTVSPost2010Prop35
280
     0
102
RTVSPost2010PropOp35
 70
     0
102
RTVSPost2010Prop36
280
     0
102
RTVSPost2010PropOp36
 70
     0
102
RTVSPost2010Prop37
 90
       50
102
RTVSPost2010PropOp37
 70
     0
102
RTVSPost2010Prop38
140
0.0
102
RTVSPost2010PropOp38
 70
     0
102
RTVSPost2010Prop39
140
1.0
102
RTVSPost2010PropOp39
 70
     0
102
RTVSPost2010Prop40
 90
        0
102
RTVSPost2010PropOp40
 70
     0
102
RTVSPost2010Prop41ColorIndex
 90
       18
102
RTVSPost2010Prop41ColorRGB
 90
        0
102
RTVSPost2010PropOp41
 70
     0
102
RTVSPost2010Prop42
 90
       50
102
RTVSPost2010PropOp42
 70
     0
102
RTVSPost2010Prop43
 90
        3
102
RTVSPost2010PropOp43
 70
     0
102
RTVSPost2010Prop44ColorIndex
 90
        5
102
RTVSPost2010Prop44ColorRGB
 90
      255
102
RTVSPost2010PropOp44
 70
     0
102
RTVSPost2010Prop45
280
     0
102
RTVSPost2010PropOp45
 70
     0
102
RTVSPost2010Prop46
 90
       50
102
RTVSPost2010PropOp46
 70
     0
102
RTVSPost2010Prop47
 90
       50
102
RTVSPost2010PropOp47
 70
     0
102
RTVSPost2010Prop48
 90
       50
102
RTVSPost2010PropOp48
 70
     0
102
RTVSPost2010Prop49
280
     0
102
RTVSPost2010PropOp49
 70
     0
102
RTVSPost2010Prop50
 90
       50
102
RTVSPost2010PropOp50
 70
     0
102
RTVSPost2010Prop51ColorIndex
 90
      256
102
RTVSPost2010Prop51ColorRGB
 90
-16777216
102
RTVSPost2010PropOp51
 70
     0
102
RTVSPost2010Prop52
140
1.0
102
RTVSPost2010PropOp52
 70
     0
102
RTVSPost2010Prop53
 90
        2
102
RTVSPost2010PropOp53
 70
     0
102
RTVSPost2010Prop54
  1
strokes_ogs.tif
102
RTVSPost2010PropOp54
 70
     0
102
RTVSPost2010Prop55
280
     0
102
RTVSPost2010PropOp55
 70
     0
102
RTVSPost2010Prop56
140
1.0
102
RTVSPost2010PropOp56
 70
     0
102
RTVSPost2010Prop57
140
1.0
102
RTVSPost2010PropOp57
 70
     0
  0
XRECORD
  5
258
102
{ACAD_REACTORS
330
257
102
}
330
257
100
AcDbXrecord
280
     1
102
RTVSPost2010Prop28
280
     0
102
RTVSPost2010PropOp28
 70
     1
102
RTVSPost2010Prop29
280
     1
102
RTVSPost2010PropOp29
 70
     1
102
RTVSPost2010Prop30
280
     1
102
RTVSPost2010PropOp30
 70
     1
102
RTVSPost2010Prop31
280
     0
102
RTVSPost2010PropOp31
 70
     1
102
RTVSPost2010Prop32
280
     0
102
RTVSPost2010PropOp32
 70
     1
102
RTVSPost2010Prop33
280
     0
102
RTVSPost2010PropOp33
 70
     1
102
RTVSPost2010Prop34
280
     0
102
RTVSPost2010PropOp34
 70
     1
102
RTVSPost2010Prop35
280
     0
102
RTVSPost2010PropOp35
 70
     1
102
RTVSPost2010Prop36
280
     0
102
RTVSPost2010PropOp36
 70
     1
102
RTVSPost2010Prop37
 90
       50
102
RTVSPost2010PropOp37
 70
     1
102
RTVSPost2010Prop38
140
0.0
102
RTVSPost2010PropOp38
 70
     1
102
RTVSPost2010Prop39
140
1.0
102
RTVSPost2010PropOp39
 70
     1
102
RTVSPost2010Prop40
 90
        0
102
RTVSPost2010PropOp40
 70
     1
102
RTVSPost2010Prop41ColorIndex
 90
       18
102
RTVSPost2010Prop41ColorRGB
 90
        0
102
RTVSPost2010PropOp41
 70
     1
102
RTVSPost2010Prop42
 90
       50
102
RTVSPost2010PropOp42
 70
     1
102
RTVSPost2010Prop43
 90
        3
102
RTVSPost2010PropOp43
 70
     1
102
RTVSPost2010Prop44ColorIndex
 90
        5
102
RTVSPost2010Prop44ColorRGB
 90
      255
102
RTVSPost2010PropOp44
 70
     1
102
RTVSPost2010Prop45
280
     0
102
RTVSPost2010PropOp45
 70
     1
102
RTVSPost2010Prop46
 90
       50
102
RTVSPost2010PropOp46
 70
     1
102
RTVSPost2010Prop47
 90
       50
102
RTVSPost2010PropOp47
 70
     1
102
RTVSPost2010Prop48
 90
       50
102
RTVSPost2010PropOp48
 70
     1
102
RTVSPost2010Prop49
280
     0
102
RTVSPost2010PropOp49
 70
     1
102
RTVSPost2010Prop50
 90
       50
102
RTVSPost2010PropOp50
 70
     1
102
RTVSPost2010Prop51ColorIndex
 90
      256
102
RTVSPost2010Prop51ColorRGB
 90
-16777216
102
RTVSPost2010PropOp51
 70
     0
102
RTVSPost2010Prop52
140
1.0
102
RTVSPost2010PropOp52
 70
     0
102
RTVSPost2010Prop53
 90
        2
102
RTVSPost2010PropOp53
 70
     1
102
RTVSPost2010Prop54
  1
strokes_ogs.tif
102
RTVSPost2010PropOp54
 70
     1
102
RTVSPost2010Prop55
280
     0
102
RTVSPost2010PropOp55
 70
     1
102
RTVSPost2010Prop56
140
1.0
102
RTVSPost2010PropOp56
 70
     1
102
RTVSPost2010Prop57
140
1.0
102
RTVSPost2010PropOp57
 70
     1
  0
XRECORD
  5
276
102
{ACAD_REACTORS
330
275
102
}
330
275
100
AcDbXrecord
280
     1
102
RTVSPost2010Prop28
280
     0
102
RTVSPost2010PropOp28
 70
     1
102
RTVSPost2010Prop29
280
     1
102
RTVSPost2010PropOp29
 70
     1
102
RTVSPost2010Prop30
280
     1
102
RTVSPost2010PropOp30
 70
     1
102
RTVSPost2010Prop31
280
     0
102
RTVSPost2010PropOp31
 70
     1
102
RTVSPost2010Prop32
280
     0
102
RTVSPost2010PropOp32
 70
     1
102
RTVSPost2010Prop33
280
     0
102
RTVSPost2010PropOp33
 70
     1
102
RTVSPost2010Prop34
280
     0
102
RTVSPost2010PropOp34
 70
     1
102
RTVSPost2010Prop35
280
     0
102
RTVSPost2010PropOp35
 70
     1
102
RTVSPost2010Prop36
280
     0
102
RTVSPost2010PropOp36
 70
     1
102
RTVSPost2010Prop37
 90
       50
102
RTVSPost2010PropOp37
 70
     1
102
RTVSPost2010Prop38
140
0.0
102
RTVSPost2010PropOp38
 70
     1
102
RTVSPost2010Prop39
140
1.0
102
RTVSPost2010PropOp39
 70
     1
102
RTVSPost2010Prop40
 90
        0
102
RTVSPost2010PropOp40
 70
     1
102
RTVSPost2010Prop41ColorIndex
 90
       18
102
RTVSPost2010Prop41ColorRGB
 90
        0
102
RTVSPost2010PropOp41
 70
     1
102
RTVSPost2010Prop42
 90
       50
102
RTVSPost2010PropOp42
 70
     1
102
RTVSPost2010Prop43
 90
        3
102
RTVSPost2010PropOp43
 70
     1
102
RTVSPost2010Prop44ColorIndex
 90
        5
102
RTVSPost2010Prop44ColorRGB
 90
      255
102
RTVSPost2010PropOp44
 70
     1
102
RTVSPost2010Prop45
280
     0
102
RTVSPost2010PropOp45
 70
     1
102
RTVSPost2010Prop46
 90
       50
102
RTVSPost2010PropOp46
 70
     1
102
RTVSPost2010Prop47
 90
       50
102
RTVSPost2010PropOp47
 70
     1
102
RTVSPost2010Prop48
 90
       50
102
RTVSPost2010PropOp48
 70
     1
102
RTVSPost2010Prop49
280
     0
102
RTVSPost2010PropOp49
 70
     1
102
RTVSPost2010Prop50
 90
       50
102
RTVSPost2010PropOp50
 70
     1
102
RTVSPost2010Prop51ColorIndex
 90
      256
102
RTVSPost2010Prop51ColorRGB
 90
-16777216
102
RTVSPost2010PropOp51
 70
     0
102
RTVSPost2010Prop52
140
1.0
102
RTVSPost2010PropOp52
 70
     0
102
RTVSPost2010Prop53
 90
        2
102
RTVSPost2010PropOp53
 70
     1
102
RTVSPost2010Prop54
  1
strokes_ogs.tif
102
RTVSPost2010PropOp54
 70
     1
102
RTVSPost2010Prop55
280
     0
102
RTVSPost2010PropOp55
 70
     1
102
RTVSPost2010Prop56
140
1.0
102
RTVSPost2010PropOp56
 70
     1
102
RTVSPost2010Prop57
140
1.0
102
RTVSPost2010PropOp57
 70
     1
  0
XRECORD
  5
274
102
{ACAD_REACTORS
330
273
102
}
330
273
100
AcDbXrecord
280
     1
102
RTVSPost2010Prop28
280
     0
102
RTVSPost2010PropOp28
 70
     1
102
RTVSPost2010Prop29
280
     1
102
RTVSPost2010PropOp29
 70
     1
102
RTVSPost2010Prop30
280
     1
102
RTVSPost2010PropOp30
 70
     1
102
RTVSPost2010Prop31
280
     0
102
RTVSPost2010PropOp31
 70
     1
102
RTVSPost2010Prop32
280
     0
102
RTVSPost2010PropOp32
 70
     1
102
RTVSPost2010Prop33
280
     0
102
RTVSPost2010PropOp33
 70
     1
102
RTVSPost2010Prop34
280
     0
102
RTVSPost2010PropOp34
 70
     1
102
RTVSPost2010Prop35
280
     0
102
RTVSPost2010PropOp35
 70
     1
102
RTVSPost2010Prop36
280
     0
102
RTVSPost2010PropOp36
 70
     1
102
RTVSPost2010Prop37
 90
       50
102
RTVSPost2010PropOp37
 70
     1
102
RTVSPost2010Prop38
140
0.0
102
RTVSPost2010PropOp38
 70
     1
102
RTVSPost2010Prop39
140
1.0
102
RTVSPost2010PropOp39
 70
     1
102
RTVSPost2010Prop40
 90
        0
102
RTVSPost2010PropOp40
 70
     1
102
RTVSPost2010Prop41ColorIndex
 90
       18
102
RTVSPost2010Prop41ColorRGB
 90
        0
102
RTVSPost2010PropOp41
 70
     1
102
RTVSPost2010Prop42
 90
       50
102
RTVSPost2010PropOp42
 70
     1
102
RTVSPost2010Prop43
 90
        3
102
RTVSPost2010PropOp43
 70
     1
102
RTVSPost2010Prop44ColorIndex
 90
        5
102
RTVSPost2010Prop44ColorRGB
 90
      255
102
RTVSPost2010PropOp44
 70
     1
102
RTVSPost2010Prop45
280
     0
102
RTVSPost2010PropOp45
 70
     1
102
RTVSPost2010Prop46
 90
       50
102
RTVSPost2010PropOp46
 70
     1
102
RTVSPost2010Prop47
 90
       50
102
RTVSPost2010PropOp47
 70
     1
102
RTVSPost2010Prop48
 90
       50
102
RTVSPost2010PropOp48
 70
     1
102
RTVSPost2010Prop49
280
     0
102
RTVSPost2010PropOp49
 70
     1
102
RTVSPost2010Prop50
 90
       50
102
RTVSPost2010PropOp50
 70
     1
102
RTVSPost2010Prop51ColorIndex
 90
      256
102
RTVSPost2010Prop51ColorRGB
 90
-16777216
102
RTVSPost2010PropOp51
 70
     0
102
RTVSPost2010Prop52
140
1.0
102
RTVSPost2010PropOp52
 70
     0
102
RTVSPost2010Prop53
 90
        2
102
RTVSPost2010PropOp53
 70
     1
102
RTVSPost2010Prop54
  1
strokes_ogs.tif
102
RTVSPost2010PropOp54
 70
     1
102
RTVSPost2010Prop55
280
     0
102
RTVSPost2010PropOp55
 70
     1
102
RTVSPost2010Prop56
140
1.0
102
RTVSPost2010PropOp56
 70
     1
102
RTVSPost2010Prop57
140
1.0
102
RTVSPost2010PropOp57
 70
     1
  0
XRECORD
  5
26E
102
{ACAD_REACTORS
330
26D
102
}
330
26D
100
AcDbXrecord
280
     1
102
RTVSPost2010Prop28
280
     0
102
RTVSPost2010PropOp28
 70
     1
102
RTVSPost2010Prop29
280
     1
102
RTVSPost2010PropOp29
 70
     1
102
RTVSPost2010Prop30
280
     1
102
RTVSPost2010PropOp30
 70
     1
102
RTVSPost2010Prop31
280
     0
102
RTVSPost2010PropOp31
 70
     1
102
RTVSPost2010Prop32
280
     0
102
RTVSPost2010PropOp32
 70
     1
102
RTVSPost2010Prop33
280
     0
102
RTVSPost2010PropOp33
 70
     1
102
RTVSPost2010Prop34
280
     0
102
RTVSPost2010PropOp34
 70
     1
102
RTVSPost2010Prop35
280
     0
102
RTVSPost2010PropOp35
 70
     1
102
RTVSPost2010Prop36
280
     0
102
RTVSPost2010PropOp36
 70
     1
102
RTVSPost2010Prop37
 90
       50
102
RTVSPost2010PropOp37
 70
     1
102
RTVSPost2010Prop38
140
0.0
102
RTVSPost2010PropOp38
 70
     1
102
RTVSPost2010Prop39
140
1.0
102
RTVSPost2010PropOp39
 70
     1
102
RTVSPost2010Prop40
 90
        0
102
RTVSPost2010PropOp40
 70
     1
102
RTVSPost2010Prop41ColorIndex
 90
       18
102
RTVSPost2010Prop41ColorRGB
 90
        0
102
RTVSPost2010PropOp41
 70
     1
102
RTVSPost2010Prop42
 90
       50
102
RTVSPost2010PropOp42
 70
     1
102
RTVSPost2010Prop43
 90
        3
102
RTVSPost2010PropOp43
 70
     1
102
RTVSPost2010Prop44ColorIndex
 90
        5
102
RTVSPost2010Prop44ColorRGB
 90
      255
102
RTVSPost2010PropOp44
 70
     1
102
RTVSPost2010Prop45
280
     0
102
RTVSPost2010PropOp45
 70
     1
102
RTVSPost2010Prop46
 90
       50
102
RTVSPost2010PropOp46
 70
     1
102
RTVSPost2010Prop47
 90
       50
102
RTVSPost2010PropOp47
 70
     1
102
RTVSPost2010Prop48
 90
       50
102
RTVSPost2010PropOp48
 70
     1
102
RTVSPost2010Prop49
280
     0
102
RTVSPost2010PropOp49
 70
     1
102
RTVSPost2010Prop50
 90
       50
102
RTVSPost2010PropOp50
 70
     1
102
RTVSPost2010Prop51ColorIndex
 90
      256
102
RTVSPost2010Prop51ColorRGB
 90
-16777216
102
RTVSPost2010PropOp51
 70
     0
102
RTVSPost2010Prop52
140
1.0
102
RTVSPost2010PropOp52
 70
     0
102
RTVSPost2010Prop53
 90
        2
102
RTVSPost2010PropOp53
 70
     1
102
RTVSPost2010Prop54
  1
strokes_ogs.tif
102
RTVSPost2010PropOp54
 70
     1
102
RTVSPost2010Prop55
280
     0
102
RTVSPost2010PropOp55
 70
     1
102
RTVSPost2010Prop56
140
1.0
102
RTVSPost2010PropOp56
 70
     1
102
RTVSPost2010Prop57
140
1.0
102
RTVSPost2010PropOp57
 70
     1
  0
XRECORD
  5
270
102
{ACAD_REACTORS
330
26F
102
}
330
26F
100
AcDbXrecord
280
     1
102
RTVSPost2010Prop28
280
     0
102
RTVSPost2010PropOp28
 70
     1
102
RTVSPost2010Prop29
280
     1
102
RTVSPost2010PropOp29
 70
     1
102
RTVSPost2010Prop30
280
     1
102
RTVSPost2010PropOp30
 70
     1
102
RTVSPost2010Prop31
280
     0
102
RTVSPost2010PropOp31
 70
     1
102
RTVSPost2010Prop32
280
     0
102
RTVSPost2010PropOp32
 70
     1
102
RTVSPost2010Prop33
280
     0
102
RTVSPost2010PropOp33
 70
     1
102
RTVSPost2010Prop34
280
     0
102
RTVSPost2010PropOp34
 70
     1
102
RTVSPost2010Prop35
280
     0
102
RTVSPost2010PropOp35
 70
     1
102
RTVSPost2010Prop36
280
     0
102
RTVSPost2010PropOp36
 70
     1
102
RTVSPost2010Prop37
 90
       50
102
RTVSPost2010PropOp37
 70
     1
102
RTVSPost2010Prop38
140
0.0
102
RTVSPost2010PropOp38
 70
     1
102
RTVSPost2010Prop39
140
1.0
102
RTVSPost2010PropOp39
 70
     1
102
RTVSPost2010Prop40
 90
        0
102
RTVSPost2010PropOp40
 70
     1
102
RTVSPost2010Prop41ColorIndex
 90
       18
102
RTVSPost2010Prop41ColorRGB
 90
        0
102
RTVSPost2010PropOp41
 70
     1
102
RTVSPost2010Prop42
 90
       50
102
RTVSPost2010PropOp42
 70
     1
102
RTVSPost2010Prop43
 90
        3
102
RTVSPost2010PropOp43
 70
     1
102
RTVSPost2010Prop44ColorIndex
 90
        5
102
RTVSPost2010Prop44ColorRGB
 90
      255
102
RTVSPost2010PropOp44
 70
     1
102
RTVSPost2010Prop45
280
     0
102
RTVSPost2010PropOp45
 70
     1
102
RTVSPost2010Prop46
 90
       50
102
RTVSPost2010PropOp46
 70
     1
102
RTVSPost2010Prop47
 90
       50
102
RTVSPost2010PropOp47
 70
     1
102
RTVSPost2010Prop48
 90
       50
102
RTVSPost2010PropOp48
 70
     1
102
RTVSPost2010Prop49
280
     0
102
RTVSPost2010PropOp49
 70
     1
102
RTVSPost2010Prop50
 90
       50
102
RTVSPost2010PropOp50
 70
     1
102
RTVSPost2010Prop51ColorIndex
 90
      256
102
RTVSPost2010Prop51ColorRGB
 90
-16777216
102
RTVSPost2010PropOp51
 70
     0
102
RTVSPost2010Prop52
140
1.0
102
RTVSPost2010PropOp52
 70
     0
102
RTVSPost2010Prop53
 90
        2
102
RTVSPost2010PropOp53
 70
     1
102
RTVSPost2010Prop54
  1
strokes_ogs.tif
102
RTVSPost2010PropOp54
 70
     1
102
RTVSPost2010Prop55
280
     0
102
RTVSPost2010PropOp55
 70
     1
102
RTVSPost2010Prop56
140
1.0
102
RTVSPost2010PropOp56
 70
     1
102
RTVSPost2010Prop57
140
1.0
102
RTVSPost2010PropOp57
 70
     1
  0
XRECORD
  5
260
102
{ACAD_REACTORS
330
25F
102
}
330
25F
100
AcDbXrecord
280
     1
102
RTVSPost2010Prop28
280
     0
102
RTVSPost2010PropOp28
 70
     1
102
RTVSPost2010Prop29
280
     1
102
RTVSPost2010PropOp29
 70
     1
102
RTVSPost2010Prop30
280
     1
102
RTVSPost2010PropOp30
 70
     1
102
RTVSPost2010Prop31
280
     0
102
RTVSPost2010PropOp31
 70
     1
102
RTVSPost2010Prop32
280
     0
102
RTVSPost2010PropOp32
 70
     1
102
RTVSPost2010Prop33
280
     0
102
RTVSPost2010PropOp33
 70
     1
102
RTVSPost2010Prop34
280
     0
102
RTVSPost2010PropOp34
 70
     1
102
RTVSPost2010Prop35
280
     0
102
RTVSPost2010PropOp35
 70
     1
102
RTVSPost2010Prop36
280
     0
102
RTVSPost2010PropOp36
 70
     1
102
RTVSPost2010Prop37
 90
       50
102
RTVSPost2010PropOp37
 70
     1
102
RTVSPost2010Prop38
140
0.0
102
RTVSPost2010PropOp38
 70
     1
102
RTVSPost2010Prop39
140
1.0
102
RTVSPost2010PropOp39
 70
     1
102
RTVSPost2010Prop40
 90
        0
102
RTVSPost2010PropOp40
 70
     1
102
RTVSPost2010Prop41ColorIndex
 90
       18
102
RTVSPost2010Prop41ColorRGB
 90
        0
102
RTVSPost2010PropOp41
 70
     1
102
RTVSPost2010Prop42
 90
       50
102
RTVSPost2010PropOp42
 70
     1
102
RTVSPost2010Prop43
 90
        3
102
RTVSPost2010PropOp43
 70
     1
102
RTVSPost2010Prop44ColorIndex
 90
        5
102
RTVSPost2010Prop44ColorRGB
 90
      255
102
RTVSPost2010PropOp44
 70
     1
102
RTVSPost2010Prop45
280
     0
102
RTVSPost2010PropOp45
 70
     1
102
RTVSPost2010Prop46
 90
       50
102
RTVSPost2010PropOp46
 70
     1
102
RTVSPost2010Prop47
 90
       50
102
RTVSPost2010PropOp47
 70
     1
102
RTVSPost2010Prop48
 90
       50
102
RTVSPost2010PropOp48
 70
     1
102
RTVSPost2010Prop49
280
     0
102
RTVSPost2010PropOp49
 70
     1
102
RTVSPost2010Prop50
 90
       50
102
RTVSPost2010PropOp50
 70
     1
102
RTVSPost2010Prop51ColorIndex
 90
      256
102
RTVSPost2010Prop51ColorRGB
 90
-16777216
102
RTVSPost2010PropOp51
 70
     0
102
RTVSPost2010Prop52
140
1.0
102
RTVSPost2010PropOp52
 70
     0
102
RTVSPost2010Prop53
 90
        2
102
RTVSPost2010PropOp53
 70
     1
102
RTVSPost2010Prop54
  1
strokes_ogs.tif
102
RTVSPost2010PropOp54
 70
     1
102
RTVSPost2010Prop55
280
     0
102
RTVSPost2010PropOp55
 70
     1
102
RTVSPost2010Prop56
140
1.0
102
RTVSPost2010PropOp56
 70
     1
102
RTVSPost2010Prop57
140
1.0
102
RTVSPost2010PropOp57
 70
     1
  0
XRECORD
  5
252
102
{ACAD_REACTORS
330
251
102
}
330
251
100
AcDbXrecord
280
     1
102
RTVSPost2010Prop28
280
     0
102
RTVSPost2010PropOp28
 70
     1
102
RTVSPost2010Prop29
280
     1
102
RTVSPost2010PropOp29
 70
     1
102
RTVSPost2010Prop30
280
     1
102
RTVSPost2010PropOp30
 70
     1
102
RTVSPost2010Prop31
280
     0
102
RTVSPost2010PropOp31
 70
     1
102
RTVSPost2010Prop32
280
     0
102
RTVSPost2010PropOp32
 70
     1
102
RTVSPost2010Prop33
280
     0
102
RTVSPost2010PropOp33
 70
     1
102
RTVSPost2010Prop34
280
     0
102
RTVSPost2010PropOp34
 70
     1
102
RTVSPost2010Prop35
280
     0
102
RTVSPost2010PropOp35
 70
     1
102
RTVSPost2010Prop36
280
     0
102
RTVSPost2010PropOp36
 70
     1
102
RTVSPost2010Prop37
 90
       50
102
RTVSPost2010PropOp37
 70
     1
102
RTVSPost2010Prop38
140
0.0
102
RTVSPost2010PropOp38
 70
     1
102
RTVSPost2010Prop39
140
1.0
102
RTVSPost2010PropOp39
 70
     1
102
RTVSPost2010Prop40
 90
        0
102
RTVSPost2010PropOp40
 70
     1
102
RTVSPost2010Prop41ColorIndex
 90
       18
102
RTVSPost2010Prop41ColorRGB
 90
        0
102
RTVSPost2010PropOp41
 70
     1
102
RTVSPost2010Prop42
 90
       50
102
RTVSPost2010PropOp42
 70
     1
102
RTVSPost2010Prop43
 90
        3
102
RTVSPost2010PropOp43
 70
     1
102
RTVSPost2010Prop44ColorIndex
 90
        5
102
RTVSPost2010Prop44ColorRGB
 90
      255
102
RTVSPost2010PropOp44
 70
     1
102
RTVSPost2010Prop45
280
     0
102
RTVSPost2010PropOp45
 70
     1
102
RTVSPost2010Prop46
 90
       50
102
RTVSPost2010PropOp46
 70
     1
102
RTVSPost2010Prop47
 90
       50
102
RTVSPost2010PropOp47
 70
     1
102
RTVSPost2010Prop48
 90
       50
102
RTVSPost2010PropOp48
 70
     1
102
RTVSPost2010Prop49
280
     0
102
RTVSPost2010PropOp49
 70
     1
102
RTVSPost2010Prop50
 90
       50
102
RTVSPost2010PropOp50
 70
     1
102
RTVSPost2010Prop51ColorIndex
 90
      256
102
RTVSPost2010Prop51ColorRGB
 90
-16777216
102
RTVSPost2010PropOp51
 70
     0
102
RTVSPost2010Prop52
140
1.0
102
RTVSPost2010PropOp52
 70
     0
102
RTVSPost2010Prop53
 90
        2
102
RTVSPost2010PropOp53
 70
     1
102
RTVSPost2010Prop54
  1
strokes_ogs.tif
102
RTVSPost2010PropOp54
 70
     1
102
RTVSPost2010Prop55
280
     0
102
RTVSPost2010PropOp55
 70
     1
102
RTVSPost2010Prop56
140
1.0
102
RTVSPost2010PropOp56
 70
     1
102
RTVSPost2010Prop57
140
1.0
102
RTVSPost2010PropOp57
 70
     1
  0
XRECORD
  5
272
102
{ACAD_REACTORS
330
271
102
}
330
271
100
AcDbXrecord
280
     1
102
RTVSPost2010Prop28
280
     0
102
RTVSPost2010PropOp28
 70
     1
102
RTVSPost2010Prop29
280
     1
102
RTVSPost2010PropOp29
 70
     1
102
RTVSPost2010Prop30
280
     1
102
RTVSPost2010PropOp30
 70
     1
102
RTVSPost2010Prop31
280
     0
102
RTVSPost2010PropOp31
 70
     1
102
RTVSPost2010Prop32
280
     0
102
RTVSPost2010PropOp32
 70
     1
102
RTVSPost2010Prop33
280
     0
102
RTVSPost2010PropOp33
 70
     1
102
RTVSPost2010Prop34
280
     0
102
RTVSPost2010PropOp34
 70
     1
102
RTVSPost2010Prop35
280
     0
102
RTVSPost2010PropOp35
 70
     1
102
RTVSPost2010Prop36
280
     0
102
RTVSPost2010PropOp36
 70
     1
102
RTVSPost2010Prop37
 90
       50
102
RTVSPost2010PropOp37
 70
     1
102
RTVSPost2010Prop38
140
0.0
102
RTVSPost2010PropOp38
 70
     1
102
RTVSPost2010Prop39
140
1.0
102
RTVSPost2010PropOp39
 70
     1
102
RTVSPost2010Prop40
 90
        0
102
RTVSPost2010PropOp40
 70
     1
102
RTVSPost2010Prop41ColorIndex
 90
       18
102
RTVSPost2010Prop41ColorRGB
 90
        0
102
RTVSPost2010PropOp41
 70
     1
102
RTVSPost2010Prop42
 90
       50
102
RTVSPost2010PropOp42
 70
     1
102
RTVSPost2010Prop43
 90
        3
102
RTVSPost2010PropOp43
 70
     1
102
RTVSPost2010Prop44ColorIndex
 90
        5
102
RTVSPost2010Prop44ColorRGB
 90
      255
102
RTVSPost2010PropOp44
 70
     1
102
RTVSPost2010Prop45
280
     0
102
RTVSPost2010PropOp45
 70
     1
102
RTVSPost2010Prop46
 90
       50
102
RTVSPost2010PropOp46
 70
     1
102
RTVSPost2010Prop47
 90
       50
102
RTVSPost2010PropOp47
 70
     1
102
RTVSPost2010Prop48
 90
       50
102
RTVSPost2010PropOp48
 70
     1
102
RTVSPost2010Prop49
280
     0
102
RTVSPost2010PropOp49
 70
     1
102
RTVSPost2010Prop50
 90
       50
102
RTVSPost2010PropOp50
 70
     1
102
RTVSPost2010Prop51ColorIndex
 90
      256
102
RTVSPost2010Prop51ColorRGB
 90
-16777216
102
RTVSPost2010PropOp51
 70
     0
102
RTVSPost2010Prop52
140
1.0
102
RTVSPost2010PropOp52
 70
     0
102
RTVSPost2010Prop53
 90
        2
102
RTVSPost2010PropOp53
 70
     1
102
RTVSPost2010Prop54
  1
strokes_ogs.tif
102
RTVSPost2010PropOp54
 70
     1
102
RTVSPost2010Prop55
280
     0
102
RTVSPost2010PropOp55
 70
     1
102
RTVSPost2010Prop56
140
1.0
102
RTVSPost2010PropOp56
 70
     1
102
RTVSPost2010Prop57
140
1.0
102
RTVSPost2010PropOp57
 70
     1
  0
ENDSEC
  0
EOF
