  0
SECTION
  2
HEADER
  9
$ACADVER
  1
AC1024
  9
$ACADMAINTVER
 70
     6
  9
$DWGCODEPAGE
  3
ANSI_1252
  9
$INSBASE
 10
0.0
 20
0.0
 30
0.0
  9
$EXTMIN
 10
1.000000E+20
 20
1.000000E+20
 30
1.000000E+20
  9
$EXTMAX
 10
-1.000000E+20
 20
-1.000000E+20
 30
-1.000000E+20
  9
$LIMMIN
 10
0.0
 20
0.0
  9
$LIMMAX
 10
420.0
 20
297.0
  9
$ORTHOMODE
 70
     0
  9
$REGENMODE
 70
     1
  9
$FILLMODE
 70
     1
  9
$QTEXTMODE
 70
     0
  9
$MIRRTEXT
 70
     1
  9
$LTSCALE
 40
1.0
  9
$ATTMODE
 70
     1
  9
$TEXTSIZE
 40
2.5
  9
$TRACEWID
 40
1.0
  9
$TEXTSTYLE
  7
Standard
  9
$CLAYER
  8
0
  9
$CELTYPE
  6
ByLayer
  9
$CECOLOR
 62
   256
  9
$CELTSCALE
 40
1.0
  9
$DISPSILH
 70
     0
  9
$DIMSCALE
 40
1.0
  9
$DIMASZ
 40
2.5
  9
$DIMEXO
 40
0.625
  9
$DIMDLI
 40
3.75
  9
$DIMRND
 40
0.0
  9
$DIMDLE
 40
0.0
  9
$DIMEXE
 40
1.25
  9
$DIMTP
 40
0.0
  9
$DIMTM
 40
0.0
  9
$DIMTXT
 40
2.5
  9
$DIMCEN
 40
2.5
  9
$DIMTSZ
 40
0.0
  9
$DIMTOL
 70
     0
  9
$DIMLIM
 70
     0
  9
$DIMTIH
 70
     0
  9
$DIMTOH
 70
     0
  9
$DIMSE1
 70
     0
  9
$DIMSE2
 70
     0
  9
$DIMTAD
 70
     1
  9
$DIMZIN
 70
     8
  9
$DIMBLK
  1

  9
$DIMASO
 70
     1
  9
$DIMSHO
 70
     1
  9
$DIMPOST
  1

  9
$DIMAPOST
  1

  9
$DIMALT
 70
     0
  9
$DIMALTD
 70
     3
  9
$DIMALTF
 40
0.03937
  9
$DIMLFAC
 40
1.0
  9
$DIMTOFL
 70
     1
  9
$DIMTVP
 40
0.0
  9
$DIMTIX
 70
     0
  9
$DIMSOXD
 70
     0
  9
$DIMSAH
 70
     0
  9
$DIMBLK1
  1

  9
$DIMBLK2
  1

  9
$DIMSTYLE
  2
ISO-25
  9
$DIMCLRD
 70
     0
  9
$DIMCLRE
 70
     0
  9
$DIMCLRT
 70
     0
  9
$DIMTFAC
 40
1.0
  9
$DIMGAP
 40
0.625
  9
$DIMJUST
 70
     0
  9
$DIMSD1
 70
     0
  9
$DIMSD2
 70
     0
  9
$DIMTOLJ
 70
     0
  9
$DIMTZIN
 70
     8
  9
$DIMALTZ
 70
     0
  9
$DIMALTTZ
 70
     0
  9
$DIMUPT
 70
     0
  9
$DIMDEC
 70
     2
  9
$DIMTDEC
 70
     2
  9
$DIMALTU
 70
     2
  9
$DIMALTTD
 70
     3
  9
$DIMTXSTY
  7
Standard
  9
$DIMAUNIT
 70
     0
  9
$DIMADEC
 70
     0
  9
$DIMALTRND
 40
0.0
  9
$DIMAZIN
 70
     0
  9
$DIMDSEP
 70
    44
  9
$DIMATFIT
 70
     3
  9
$DIMFRAC
 70
     0
  9
$DIMLDRBLK
  1

  9
$DIMLUNIT
 70
     2
  9
$DIMLWD
 70
    -2
  9
$DIMLWE
 70
    -2
  9
$DIMTMOVE
 70
     0
  9
$DIMFXL
 40
1.0
  9
$DIMFXLON
 70
     0
  9
$DIMJOGANG
 40
0.785398
  9
$DIMTFILL
 70
     0
  9
$DIMTFILLCLR
 70
     0
  9
$DIMARCSYM
 70
     0
  9
$DIMLTYPE
  6

  9
$DIMLTEX1
  6

  9
$DIMLTEX2
  6

  9
$DIMTXTDIRECTION
 70
     0
  9
$LUNITS
 70
     2
  9
$LUPREC
 70
     4
  9
$SKETCHINC
 40
1.0
  9
$FILLETRAD
 40
10.0
  9
$AUNITS
 70
     0
  9
$AUPREC
 70
     0
  9
$MENU
  1
.
  9
$ELEVATION
 40
0.0
  9
$PELEVATION
 40
0.0
  9
$THICKNESS
 40
0.0
  9
$LIMCHECK
 70
     0
  9
$CHAMFERA
 40
0.0
  9
$CHAMFERB
 40
0.0
  9
$CHAMFERC
 40
0.0
  9
$CHAMFERD
 40
0.0
  9
$SKPOLY
 70
     0
  9
$TDCREATE
 40
2457823.367766516
  9
$TDUCREATE
 40
2457823.326099849
  9
$TDUPDATE
 40
2457823.36776706
  9
$TDUUPDATE
 40
2457823.326100394
  9
$TDINDWG
 40
0.0000000116
  9
$TDUSRTIMER
 40
0.0000000116
  9
$USRTIMER
 70
     1
  9
$ANGBASE
 50
0.0
  9
$ANGDIR
 70
     0
  9
$PDMODE
 70
     0
  9
$PDSIZE
 40
0.0
  9
$PLINEWID
 40
0.0
  9
$SPLFRAME
 70
     0
  9
$SPLINETYPE
 70
     6
  9
$SPLINESEGS
 70
     8
  9
$HANDSEED
  5
20A
  9
$SURFTAB1
 70
     6
  9
$SURFTAB2
 70
     6
  9
$SURFTYPE
 70
     6
  9
$SURFU
 70
     6
  9
$SURFV
 70
     6
  9
$UCSBASE
  2

  9
$UCSNAME
  2

  9
$UCSORG
 10
0.0
 20
0.0
 30
0.0
  9
$UCSXDIR
 10
1.0
 20
0.0
 30
0.0
  9
$UCSYDIR
 10
0.0
 20
1.0
 30
0.0
  9
$UCSORTHOREF
  2

  9
$UCSORTHOVIEW
 70
     0
  9
$UCSORGTOP
 10
0.0
 20
0.0
 30
0.0
  9
$UCSORGBOTTOM
 10
0.0
 20
0.0
 30
0.0
  9
$UCSORGLEFT
 10
0.0
 20
0.0
 30
0.0
  9
$UCSORGRIGHT
 10
0.0
 20
0.0
 30
0.0
  9
$UCSORGFRONT
 10
0.0
 20
0.0
 30
0.0
  9
$UCSORGBACK
 10
0.0
 20
0.0
 30
0.0
  9
$PUCSBASE
  2

  9
$PUCSNAME
  2

  9
$PUCSORG
 10
0.0
 20
0.0
 30
0.0
  9
$PUCSXDIR
 10
1.0
 20
0.0
 30
0.0
  9
$PUCSYDIR
 10
0.0
 20
1.0
 30
0.0
  9
$PUCSORTHOREF
  2

  9
$PUCSORTHOVIEW
 70
     0
  9
$PUCSORGTOP
 10
0.0
 20
0.0
 30
0.0
  9
$PUCSORGBOTTOM
 10
0.0
 20
0.0
 30
0.0
  9
$PUCSORGLEFT
 10
0.0
 20
0.0
 30
0.0
  9
$PUCSORGRIGHT
 10
0.0
 20
0.0
 30
0.0
  9
$PUCSORGFRONT
 10
0.0
 20
0.0
 30
0.0
  9
$PUCSORGBACK
 10
0.0
 20
0.0
 30
0.0
  9
$USERI1
 70
     0
  9
$USERI2
 70
     0
  9
$USERI3
 70
     0
  9
$USERI4
 70
     0
  9
$USERI5
 70
     0
  9
$USERR1
 40
0.0
  9
$USERR2
 40
0.0
  9
$USERR3
 40
0.0
  9
$USERR4
 40
0.0
  9
$USERR5
 40
0.0
  9
$WORLDVIEW
 70
     1
  9
$SHADEDGE
 70
     3
  9
$SHADEDIF
 70
    70
  9
$TILEMODE
 70
     1
  9
$MAXACTVP
 70
    64
  9
$PINSBASE
 10
0.0
 20
0.0
 30
0.0
  9
$PLIMCHECK
 70
     0
  9
$PEXTMIN
 10
1.000000E+20
 20
1.000000E+20
 30
1.000000E+20
  9
$PEXTMAX
 10
-1.000000E+20
 20
-1.000000E+20
 30
-1.000000E+20
  9
$PLIMMIN
 10
0.0
 20
0.0
  9
$PLIMMAX
 10
420.0
 20
297.0
  9
$UNITMODE
 70
     0
  9
$VISRETAIN
 70
     1
  9
$PLINEGEN
 70
     0
  9
$PSLTSCALE
 70
     1
  9
$TREEDEPTH
 70
  3020
  9
$CMLSTYLE
  2
Standard
  9
$CMLJUST
 70
     0
  9
$CMLSCALE
 40
20.0
  9
$PROXYGRAPHICS
 70
     1
  9
$MEASUREMENT
 70
     1
  9
$CELWEIGHT
370
    -1
  9
$ENDCAPS
280
     0
  9
$JOINSTYLE
280
     0
  9
$LWDISPLAY
290
     0
  9
$INSUNITS
 70
     4
  9
$HYPERLINKBASE
  1

  9
$STYLESHEET
  1

  9
$XEDIT
290
     1
  9
$CEPSNTYPE
380
     0
  9
$PSTYLEMODE
290
     1
  9
$FINGERPRINTGUID
  2
{870D77A9-DEAB-409E-8BA9-CD438B922BC7}
  9
$VERSIONGUID
  2
{FAEB1C32-E019-11D5-929B-00C0DF256EC4}
  9
$EXTNAMES
290
     1
  9
$PSVPSCALE
 40
0.0
  9
$OLESTARTUP
290
     0
  9
$SORTENTS
280
   127
  9
$INDEXCTL
280
     0
  9
$HIDETEXT
280
     1
  9
$XCLIPFRAME
280
     2
  9
$HALOGAP
280
     0
  9
$OBSCOLOR
 70
   257
  9
$OBSLTYPE
280
     0
  9
$INTERSECTIONDISPLAY
280
     0
  9
$INTERSECTIONCOLOR
 70
   257
  9
$DIMASSOC
280
     2
  9
$PROJECTNAME
  1

  9
$CAMERADISPLAY
290
     0
  9
$LENSLENGTH
 40
50.0
  9
$CAMERAHEIGHT
 40
0.0
  9
$STEPSPERSEC
 40
2.0
  9
$STEPSIZE
 40
6.0
  9
$3DDWFPREC
 40
2.0
  9
$PSOLWIDTH
 40
5.0
  9
$PSOLHEIGHT
 40
80.0
  9
$LOFTANG1
 40
1.570796
  9
$LOFTANG2
 40
1.570796
  9
$LOFTMAG1
 40
0.0
  9
$LOFTMAG2
 40
0.0
  9
$LOFTPARAM
 70
     7
  9
$LOFTNORMALS
280
     1
  9
$LATITUDE
 40
37.795
  9
$LONGITUDE
 40
-122.394
  9
$NORTHDIRECTION
 40
0.0
  9
$TIMEZONE
 70
 -8000
  9
$LIGHTGLYPHDISPLAY
280
     1
  9
$TILEMODELIGHTSYNCH
280
     1
  9
$CMATERIAL
347
44
  9
$SOLIDHIST
280
     0
  9
$SHOWHIST
280
     1
  9
$DWFFRAME
280
     2
  9
$DGNFRAME
280
     2
  9
$REALWORLDSCALE
290
     1
  9
$INTERFERECOLOR
 62
   256
  9
$CSHADOW
280
     0
  9
$SHADOWPLANELOCATION
 40
0.0
  0
ENDSEC
  0
SECTION
  2
CLASSES
  0
CLASS
  1
ACDBDICTIONARYWDFLT
  2
AcDbDictionaryWithDefault
  3
ObjectDBX Classes
 90
        0
 91
        4
280
     0
281
     0
  0
CLASS
  1
VISUALSTYLE
  2
AcDbVisualStyle
  3
ObjectDBX Classes
 90
     4095
 91
        4
280
     0
281
     0
  0
CLASS
  1
MATERIAL
  2
AcDbMaterial
  3
ObjectDBX Classes
 90
     1153
 91
        4
280
     0
281
     0
  0
CLASS
  1
SCALE
  2
AcDbScale
  3
ObjectDBX Classes
 90
     1153
 91
        4
280
     0
281
     0
  0
CLASS
  1
TABLESTYLE
  2
AcDbTableStyle
  3
ObjectDBX Classes
 90
     4095
 91
        4
280
     0
281
     0
  0
CLASS
  1
MLEADERSTYLE
  2
AcDbMLeaderStyle
  3
ACDB_MLEADERSTYLE_CLASS
 90
     4095
 91
        4
280
     0
281
     0
  0
CLASS
  1
SUN
  2
AcDbSun
  3
SCENEOE
 90
     1153
 91
        4
280
     0
281
     0
  0
CLASS
  1
DICTIONARYVAR
  2
AcDbDictionaryVar
  3
ObjectDBX Classes
 90
        0
 91
        4
280
     0
281
     0
  0
CLASS
  1
CELLSTYLEMAP
  2
AcDbCellStyleMap
  3
ObjectDBX Classes
 90
     1152
 91
        4
280
     0
281
     0
  0
ENDSEC
  0
SECTION
  2
TABLES
  0
TABLE
  2
VPORT
  5
8
330
0
100
AcDbSymbolTable
 70
     1
  0
VPORT
  5
29
330
8
100
AcDbSymbolTableRecord
100
AcDbViewportTableRecord
  2
*Active
 70
     0
 10
0.0
 20
0.0
 11
1.0
 21
1.0
 12
344.186916
 22
148.5
 13
0.0
 23
0.0
 14
10.0
 24
10.0
 15
10.0
 25
10.0
 16
0.0
 26
0.0
 36
1.0
 17
0.0
 27
0.0
 37
0.0
 40
297.0
 41
1.972973
 42
50.0
 43
0.0
 44
0.0
 50
0.0
 51
0.0
 71
     0
 72
   100
 73
     1
 74
     3
 75
     0
 76
     0
 77
     0
 78
     0
281
     0
 65
     1
110
0.0
120
0.0
130
0.0
111
1.0
121
0.0
131
0.0
112
0.0
122
1.0
132
0.0
 79
     0
146
0.0
348
2F
 60
     3
 61
     5
292
     1
282
     1
141
0.0
142
0.0
 63
   250
361
6D
  0
ENDTAB
  0
TABLE
  2
LTYPE
  5
5
330
0
100
AcDbSymbolTable
 70
     1
  0
LTYPE
  5
14
330
5
100
AcDbSymbolTableRecord
100
AcDbLinetypeTableRecord
  2
ByBlock
 70
     0
  3

 72
    65
 73
     0
 40
0.0
  0
LTYPE
  5
15
330
5
100
AcDbSymbolTableRecord
100
AcDbLinetypeTableRecord
  2
ByLayer
 70
     0
  3

 72
    65
 73
     0
 40
0.0
  0
LTYPE
  5
16
330
5
100
AcDbSymbolTableRecord
100
AcDbLinetypeTableRecord
  2
Continuous
 70
     0
  3
Solid line
 72
    65
 73
     0
 40
0.0
  0
ENDTAB
  0
TABLE
  2
LAYER
  5
2
330
0
100
AcDbSymbolTable
 70
     1
  0
LAYER
  5
10
330
2
100
AcDbSymbolTableRecord
100
AcDbLayerTableRecord
  2
0
 70
     0
 62
   106
  6
Continuous
370
     0
390
F
347
46
  0
ENDTAB
  0
TABLE
  2
STYLE
  5
3
330
0
100
AcDbSymbolTable
 70
     4
  0
STYLE
  5
11
330
3
100
AcDbSymbolTableRecord
100
AcDbTextStyleTableRecord
  2
Standard
 70
     0
 40
0.0
 41
1.0
 50
0.0
 71
     0
 42
2.5
  3
txt
  4

  0
STYLE
  5
6E
330
3
100
AcDbSymbolTableRecord
100
AcDbTextStyleTableRecord
  2
Default
 70
     0
 40
0.0
 41
1.0
 50
0.0
 71
     0
 42
2.5
  3

  4

1001
ACAD
1000
txt
1071
        0
  0
STYLE
  5
6F
330
3
100
AcDbSymbolTableRecord
100
AcDbTextStyleTableRecord
  2
ISO
 70
     0
 40
0.0
 41
1.0
 50
0.0
 71
     0
 42
2.5
  3

  4

1001
ACAD
1000
txt
1071
        0
  0
STYLE
  5
70
330
3
100
AcDbSymbolTableRecord
100
AcDbTextStyleTableRecord
  2
zucchetti
 70
     0
 40
0.0
 41
1.0
 50
0.0
 71
     0
 42
2.5
  3

  4

1001
ACAD
1000
Arial
1071
        0
  0
ENDTAB
  0
TABLE
  2
VIEW
  5
6
330
0
100
AcDbSymbolTable
 70
     0
  0
ENDTAB
  0
TABLE
  2
UCS
  5
7
330
0
100
AcDbSymbolTable
 70
     0
  0
ENDTAB
  0
TABLE
  2
APPID
  5
9
330
0
100
AcDbSymbolTable
 70
     1
  0
APPID
  5
12
330
9
100
AcDbSymbolTableRecord
100
AcDbRegAppTableRecord
  2
ACAD
 70
     0
  0
ENDTAB
  0
TABLE
  2
DIMSTYLE
  5
A
330
0
100
AcDbSymbolTable
 70
     4
100
AcDbDimStyleTable
  0
DIMSTYLE
105
27
330
A
100
AcDbSymbolTableRecord
100
AcDbDimStyleTableRecord
  2
ISO-25
 70
     0
 41
2.5
 42
0.625
 43
3.75
 44
1.25
 73
     0
 74
     0
 77
     1
 78
     8
140
2.5
141
2.5
143
0.03937
147
0.625
171
     3
172
     1
178
     0
271
     2
272
     2
274
     3
278
    44
283
     0
284
     8
340
11
  0
DIMSTYLE
105
71
330
A
100
AcDbSymbolTableRecord
100
AcDbDimStyleTableRecord
  2
Default
 70
     0
  3
<>
 41
4.375
 42
1.05
 44
2.1
 49
10.01
 73
     0
 74
     0
 77
     1
 78
     8
140
3.5
146
0.4
147
1.75
172
     1
271
     2
178
     3
271
     2
272
     3
284
     8
340
6E
341
72
342
72
  0
DIMSTYLE
105
79
330
A
100
AcDbSymbolTableRecord
100
AcDbDimStyleTableRecord
  2
ISO
 70
     0
  3
<>
 41
4.375
 42
1.05
 44
2.1
 49
10.01
 73
     0
 74
     0
 77
     1
 78
     8
140
3.5
146
0.4
147
1.75
172
     1
271
     2
178
     3
271
     2
272
     3
284
     8
340
6F
341
72
342
72
  0
DIMSTYLE
105
7A
330
A
100
AcDbSymbolTableRecord
100
AcDbDimStyleTableRecord
  2
zucchetti
 70
     0
  3
<>
 41
3.0
 42
0.9
 44
1.8
 49
8.58
 73
     0
 74
     0
 77
     1
 78
     8
140
3.0
146
0.6
147
1.5
172
     1
176
     3
177
     3
271
     2
178
     3
271
     2
272
     2
284
     8
340
70
  0
ENDTAB
  0
TABLE
  2
BLOCK_RECORD
  5
1
330
0
100
AcDbSymbolTable
 70
     7
  0
BLOCK_RECORD
  5
1F
330
1
100
AcDbSymbolTableRecord
100
AcDbBlockTableRecord
  2
*Model_Space
340
22
 70
     0
280
     1
281
     0
  0
BLOCK_RECORD
  5
1B
330
1
100
AcDbSymbolTableRecord
100
AcDbBlockTableRecord
  2
*Paper_Space
340
1E
 70
     0
280
     1
281
     0
  0
BLOCK_RECORD
  5
23
330
1
100
AcDbSymbolTableRecord
100
AcDbBlockTableRecord
  2
*Paper_Space0
340
26
 70
     0
280
     1
281
     0
  0
BLOCK_RECORD
  5
72
330
1
100
AcDbSymbolTableRecord
100
AcDbBlockTableRecord
  2
_CLOSED
340
0
 70
     0
280
     1
281
     0
  0
BLOCK_RECORD
  5
7B
330
1
100
AcDbSymbolTableRecord
100
AcDbBlockTableRecord
  2
a
340
0
102
{BLKREFS
331
CC
102
}
 70
     0
280
     1
281
     0
  0
BLOCK_RECORD
  5
CD
330
1
100
AcDbSymbolTableRecord
100
AcDbBlockTableRecord
  2
b
340
0
102
{BLKREFS
331
EA
102
}
 70
     0
280
     1
281
     0
  0
BLOCK_RECORD
  5
EB
330
1
100
AcDbSymbolTableRecord
100
AcDbBlockTableRecord
  2
c
340
0
102
{BLKREFS
331
136
102
}
 70
     0
280
     1
281
     0
  0
BLOCK_RECORD
  5
137
330
1
100
AcDbSymbolTableRecord
100
AcDbBlockTableRecord
  2
d
340
0
102
{BLKREFS
331
18B
102
}
 70
     0
280
     1
281
     0
  0
BLOCK_RECORD
  5
18C
330
1
100
AcDbSymbolTableRecord
100
AcDbBlockTableRecord
  2
e
340
0
102
{BLKREFS
331
1D0
102
}
 70
     0
280
     1
281
     0
  0
ENDTAB
  0
ENDSEC
  0
SECTION
  2
BLOCKS
  0
BLOCK
  5
20
330
1F
100
AcDbEntity
  8
0
100
AcDbBlockBegin
  2
*Model_Space
 70
     0
 10
0.0
 20
0.0
 30
0.0
  3
*Model_Space
  1

  0
ENDBLK
  5
21
330
1F
100
AcDbEntity
  8
0
100
AcDbBlockEnd
  0
BLOCK
  5
1C
330
1B
100
AcDbEntity
 67
     1
  8
0
100
AcDbBlockBegin
  2
*Paper_Space
 70
     0
 10
0.0
 20
0.0
 30
0.0
  3
*Paper_Space
  1

  0
ENDBLK
  5
1D
330
1B
100
AcDbEntity
 67
     1
  8
0
100
AcDbBlockEnd
  0
BLOCK
  5
24
330
23
100
AcDbEntity
  8
0
100
AcDbBlockBegin
  2
*Paper_Space0
 70
     0
 10
0.0
 20
0.0
 30
0.0
  3
*Paper_Space0
  1

  0
ENDBLK
  5
25
330
23
100
AcDbEntity
  8
0
100
AcDbBlockEnd
  0
BLOCK
  5
73
330
72
100
AcDbEntity
  8
0
100
AcDbBlockBegin
  2
_CLOSED
 70
     0
 10
0.0
 20
0.0
 30
0.0
  3
_CLOSED
  1

  0
LINE
  5
75
330
72
100
AcDbEntity
  8
0
  6
ByBlock
 62
     0
370
    -2
100
AcDbLine
 10
-1.0
 20
0.166667
 30
0.0
 11
0.0
 21
0.0
 31
0.0
  0
LINE
  5
76
330
72
100
AcDbEntity
  8
0
  6
ByBlock
 62
     0
370
    -2
100
AcDbLine
 10
0.0
 20
0.0
 30
0.0
 11
-1.0
 21
-0.166667
 31
0.0
  0
LINE
  5
77
330
72
100
AcDbEntity
  8
0
  6
ByBlock
 62
     0
370
    -2
100
AcDbLine
 10
-1.0
 20
0.166667
 30
0.0
 11
-1.0
 21
-0.166667
 31
0.0
  0
LINE
  5
78
330
72
100
AcDbEntity
  8
0
  6
ByBlock
 62
     0
370
    -2
100
AcDbLine
 10
0.0
 20
0.0
 30
0.0
 11
-1.0
 21
0.0
 31
0.0
  0
ENDBLK
  5
74
330
72
100
AcDbEntity
  8
0
100
AcDbBlockEnd
  0
BLOCK
  5
CA
330
7B
100
AcDbEntity
  8
0
100
AcDbBlockBegin
  2
a
 70
     0
 10
405.216705
 20
191.04628
 30
0.0
  3
a
  1

  0
LINE
  5
7C
330
7B
100
AcDbEntity
  8
0
  6
Continuous
 62
     0
370
    30
100
AcDbLine
 10
547.120712
 20
705.213165
 30
0.0
 11
472.120712
 21
705.213165
 31
0.0
  0
LINE
  5
7D
330
7B
100
AcDbEntity
  8
0
  6
Continuous
 62
     0
370
    30
100
AcDbLine
 10
547.120712
 20
705.213165
 30
0.0
 11
547.120712
 21
695.213165
 31
0.0
  0
LINE
  5
7E
330
7B
100
AcDbEntity
  8
0
  6
Continuous
 62
     0
370
    30
100
AcDbLine
 10
472.120712
 20
695.213165
 30
0.0
 11
547.120712
 21
695.213165
 31
0.0
  0
LINE
  5
7F
330
7B
100
AcDbEntity
  8
0
  6
Continuous
 62
     0
370
    30
100
AcDbLine
 10
472.120712
 20
705.213165
 30
0.0
 11
472.120712
 21
695.213165
 31
0.0
  0
LINE
  5
80
330
7B
100
AcDbEntity
  8
0
  6
Continuous
 62
     0
370
     0
100
AcDbLine
 10
514.706981
 20
600.386995
 30
0.0
 11
514.706891
 21
638.9367
 31
0.0
  0
LINE
  5
81
330
7B
100
AcDbEntity
  8
0
  6
Continuous
 62
     0
370
     0
100
AcDbLine
 10
514.706891
 20
638.9367
 30
0.0
 11
484.109805
 21
633.541609
 31
0.0
  0
LWPOLYLINE
  5
82
330
7B
100
AcDbEntity
  8
0
  6
Continuous
 62
     0
370
     0
100
AcDbPolyline
 90
       32
 70
     0
 43
0.0
 10
484.109802
 20
633.541626
 10
484.296539
 20
632.453308
 10
484.489777
 20
631.366333
 10
484.685242
 20
630.280762
 10
484.877777
 20
629.202576
 10
485.065094
 20
628.140747
 10
485.248352
 20
627.098206
 10
485.429504
 20
626.071411
 10
485.60849
 20
625.058777
 10
485.784058
 20
624.064026
 10
485.955231
 20
623.093933
 10
486.121368
 20
622.15332
 10
486.282166
 20
621.244019
 10
486.437317
 20
620.366333
 10
486.586609
 20
619.521179
 10
486.729736
 20
618.710938
 10
486.866364
 20
617.938232
 10
486.995636
 20
617.206116
 10
487.116608
 20
616.517334
 10
487.229431
 20
615.87323
 10
487.334778
 20
615.274109
 10
487.433014
 20
614.720642
 10
487.523987
 20
614.213745
 10
487.606781
 20
613.755615
 10
487.677979
 20
613.35144
 10
487.73468
 20
613.005798
 10
487.780396
 20
612.71521
 10
487.823456
 20
612.470337
 10
487.86731
 20
612.266357
 10
487.903198
 20
612.115723
 10
487.917694
 20
612.039001
 10
487.908752
 20
612.024414
  0
LINE
  5
83
330
7B
100
AcDbEntity
  8
0
  6
Continuous
 62
     0
370
    30
100
AcDbLine
 10
503.406751
 20
600.887055
 30
0.0
 11
503.406892
 21
600.3862
 31
0.0
  0
LWPOLYLINE
  5
84
330
7B
100
AcDbEntity
  8
0
  6
Continuous
 62
     0
370
    30
100
AcDbPolyline
 90
       32
 70
     0
 43
0.0
 10
487.908752
 20
612.024414
 10
488.657959
 20
612.156494
 10
489.407227
 20
612.288391
 10
490.156494
 20
612.420227
 10
490.905762
 20
612.552124
 10
491.654846
 20
612.68512
 10
492.403442
 20
612.820618
 10
493.151459
 20
612.959351
 10
493.900848
 20
613.090515
 10
494.655273
 20
613.187866
 10
495.415192
 20
613.222961
 10
496.175262
 20
613.185425
 10
496.928314
 20
613.076599
 10
497.668274
 20
612.896606
 10
498.388031
 20
612.646912
 10
499.080444
 20
612.329773
 10
499.73941
 20
611.948303
 10
500.359192
 20
611.50592
 10
500.934082
 20
611.006653
 10
501.458893
 20
610.454956
 10
501.929138
 20
609.85614
 10
502.340454
 20
609.215332
 10
502.688446
 20
608.537842
 10
502.970215
 20
607.830261
 10
503.18338
 20
607.099731
 10
503.323608
 20
606.352112
 10
503.396027
 20
605.594727
 10
503.417786
 20
604.834229
 10
503.413055
 20
604.073486
 10
503.405365
 20
603.312805
 10
503.403198
 20
602.552063
 10
503.404816
 20
601.777039
  0
LINE
  5
85
330
7B
100
AcDbEntity
  8
0
  6
Continuous
 62
     0
370
     0
100
AcDbLine
 10
503.406892
 20
600.3862
 30
0.0
 11
514.706909
 21
600.386886
 31
0.0
  0
LINE
  5
86
330
7B
100
AcDbEntity
  8
0
  6
Continuous
 62
     0
370
    30
100
AcDbLine
 10
526.006892
 20
670.922743
 30
0.0
 11
526.006893
 21
640.929195
 31
0.0
  0
LINE
  5
87
330
7B
100
AcDbEntity
  8
0
  6
Continuous
 62
     0
370
    30
100
AcDbLine
 10
526.006892
 20
600.408063
 30
0.0
 11
526.006892
 21
590.60789
 31
0.0
  0
LINE
  5
88
330
7B
100
AcDbEntity
  8
0
  6
Continuous
 62
     0
370
     0
100
AcDbLine
 10
514.706971
 20
590.60789
 30
0.0
 11
514.706981
 21
600.386886
 31
0.0
  0
LINE
  5
89
330
7B
100
AcDbEntity
  8
0
  6
Continuous
 62
     0
370
    30
100
AcDbLine
 10
526.006892
 20
590.60789
 30
0.0
 11
514.706971
 21
590.60789
 31
0.0
  0
LINE
  5
8A
330
7B
100
AcDbEntity
  8
0
  6
Continuous
 62
     0
370
     0
100
AcDbLine
 10
514.706981
 20
600.386995
 30
0.0
 11
526.006892
 21
600.408063
 31
0.0
  0
LINE
  5
8B
330
7B
100
AcDbEntity
  8
0
  6
Continuous
 62
     0
370
    30
100
AcDbLine
 10
526.006893
 20
640.929195
 30
0.0
 11
526.006892
 21
600.408063
 31
0.0
  0
LINE
  5
8C
330
7B
100
AcDbEntity
  8
0
  6
Continuous
 62
     0
370
     0
100
AcDbLine
 10
514.706891
 20
638.9367
 30
0.0
 11
526.006893
 21
640.929195
 31
0.0
  0
LINE
  5
8D
330
7B
100
AcDbEntity
  8
0
  6
Continuous
 62
     0
370
     0
100
AcDbLine
 10
514.706898
 20
671.929196
 30
0.0
 11
526.006892
 21
671.929416
 31
0.0
  0
LINE
  5
8E
330
7B
100
AcDbEntity
  8
0
  6
Continuous
 62
     0
370
     0
100
AcDbLine
 10
514.706891
 20
638.9367
 30
0.0
 11
514.706898
 21
671.929196
 31
0.0
  0
LWPOLYLINE
  5
8F
330
7B
100
AcDbEntity
  8
0
  6
Continuous
 62
     0
370
    30
100
AcDbPolyline
 90
       22
 70
     0
 43
0.0
 10
503.40387
 20
590.60791
 10
503.417938
 20
590.608032
 10
503.494873
 20
590.607971
 10
503.644653
 20
590.607849
 10
503.87207
 20
590.607788
 10
504.170563
 20
590.607849
 10
504.530884
 20
590.607849
 10
504.944855
 20
590.60791
 10
505.408875
 20
590.607849
 10
505.920929
 20
590.60791
 10
506.479431
 20
590.607971
 10
507.082275
 20
590.607971
 10
507.726196
 20
590.60791
 10
508.406708
 20
590.60791
 10
509.118835
 20
590.60791
 10
509.858856
 20
590.60791
 10
510.624298
 20
590.60791
 10
511.411194
 20
590.607971
 10
512.215393
 20
590.60791
 10
513.032776
 20
590.607727
 10
513.860413
 20
590.607727
 10
514.706909
 20
590.60791
  0
LINE
  5
90
330
7B
100
AcDbEntity
  8
0
  6
Continuous
 62
     0
370
    30
100
AcDbLine
 10
486.365202
 20
611.760289
 30
0.0
 11
487.908764
 21
612.02439
 31
0.0
  0
LINE
  5
91
330
7B
100
AcDbEntity
  8
0
  6
Continuous
 62
     0
370
    30
100
AcDbLine
 10
467.972799
 20
608.509148
 30
0.0
 11
468.591452
 21
608.618233
 31
0.0
  0
LINE
  5
92
330
7B
100
AcDbEntity
  8
0
  6
Continuous
 62
     0
370
     0
100
AcDbLine
 10
484.109804
 20
633.541609
 30
0.0
 11
464.178586
 21
630.027199
 31
0.0
  0
LINE
  5
93
330
7B
100
AcDbEntity
  8
0
  6
Continuous
 62
     0
370
    30
100
AcDbLine
 10
464.178586
 20
630.027199
 30
0.0
 11
467.974856
 21
608.497589
 31
0.0
  0
LINE
  5
94
330
7B
100
AcDbEntity
  8
0
  6
Continuous
 62
     0
370
     0
100
AcDbLine
 10
484.109804
 20
633.541609
 30
0.0
 11
480.365913
 21
654.797679
 31
0.0
  0
LINE
  5
95
330
7B
100
AcDbEntity
  8
0
  6
Continuous
 62
     0
370
     0
100
AcDbLine
 10
480.365913
 20
654.797679
 30
0.0
 11
480.320347
 21
655.060491
 31
0.0
  0
LINE
  5
96
330
7B
100
AcDbEntity
  8
0
  6
Continuous
 62
     0
370
    30
100
AcDbLine
 10
480.320347
 20
655.060491
 30
0.0
 11
460.384374
 21
651.545246
 31
0.0
  0
LWPOLYLINE
  5
97
330
7B
100
AcDbEntity
  8
0
  6
Continuous
 62
     0
370
    30
100
AcDbPolyline
 90
       27
 70
     0
 43
0.0
 10
460.384369
 20
651.545227
 10
460.391235
 20
651.506348
 10
460.411926
 20
651.388977
 10
460.44635
 20
651.193787
 10
460.494324
 20
650.921631
 10
460.555695
 20
650.573669
 10
460.630157
 20
650.151367
 10
460.717468
 20
649.65625
 10
460.817352
 20
649.089783
 10
460.929443
 20
648.453979
 10
461.053345
 20
647.751282
 10
461.188629
 20
646.98407
 10
461.334869
 20
646.154785
 10
461.491486
 20
645.266479
 10
461.65799
 20
644.322327
 10
461.83374
 20
643.325439
 10
462.018219
 20
642.279297
 10
462.210632
 20
641.187927
 10
462.410339
 20
640.055481
 10
462.616547
 20
638.885986
 10
462.828552
 20
637.683594
 10
463.045654
 20
636.452332
 10
463.267151
 20
635.196106
 10
463.49231
 20
633.91925
 10
463.720032
 20
632.627808
 10
463.949005
 20
631.329224
 10
464.178589
 20
630.027222
  0
LINE
  5
98
330
7B
100
AcDbEntity
  8
0
  6
Continuous
 62
     0
370
     0
100
AcDbLine
 10
493.206892
 20
671.929196
 30
0.0
 11
493.558567
 21
671.928613
 31
0.0
  0
LINE
  5
99
330
7B
100
AcDbEntity
  8
0
  6
Continuous
 62
     0
370
     0
100
AcDbLine
 10
493.558567
 20
671.928613
 30
0.0
 11
514.70689
 21
671.929196
 31
0.0
  0
LINE
  5
9A
330
7B
100
AcDbEntity
  8
0
  6
Continuous
 62
     0
370
     0
100
AcDbLine
 10
514.70689
 20
671.929196
 30
0.0
 11
514.706889
 21
695.213165
 31
0.0
  0
LINE
  5
9B
330
7B
100
AcDbEntity
  8
0
  6
Continuous
 62
     0
370
    30
100
AcDbLine
 10
493.206892
 20
695.213165
 30
0.0
 11
493.206892
 21
671.929196
 31
0.0
  0
LINE
  5
9C
330
7B
100
AcDbEntity
  8
0
  6
Continuous
 62
     0
370
     0
100
AcDbLine
 10
526.006892
 20
695.213165
 30
0.0
 11
526.006892
 21
682.715189
 31
0.0
  0
LWPOLYLINE
  5
9D
330
7B
100
AcDbEntity
  8
0
  6
Continuous
 62
     0
370
    30
100
AcDbPolyline
 90
       30
 70
     0
 43
0.0
 10
493.558228
 20
671.915222
 10
493.552185
 20
671.050964
 10
493.507568
 20
670.187866
 10
493.462219
 20
669.324768
 10
493.434021
 20
668.460999
 10
493.409271
 20
667.597046
 10
493.389008
 20
666.733032
 10
493.370331
 20
665.868652
 10
493.329346
 20
665.00531
 10
493.235931
 20
664.145752
 10
493.075958
 20
663.295471
 10
492.844849
 20
662.461792
 10
492.542053
 20
661.651367
 10
492.169647
 20
660.870361
 10
491.730194
 20
660.125061
 10
491.226379
 20
659.421753
 10
490.662109
 20
658.765869
 10
490.042389
 20
658.162048
 10
489.372162
 20
657.614929
 10
488.656219
 20
657.129089
 10
487.899963
 20
656.708679
 10
487.10968
 20
656.356873
 10
486.29245
 20
656.073303
 10
485.456635
 20
655.851135
 10
484.610443
 20
655.675537
 10
483.761475
 20
655.513428
 10
482.916107
 20
655.33374
 10
482.074493
 20
655.137024
 10
481.229462
 20
654.955627
 10
480.365906
 20
654.797668
  0
LINE
  5
9E
330
7B
100
AcDbEntity
  8
0
  6
Continuous
 62
     0
370
    30
100
AcDbLine
 10
526.006892
 20
682.715189
 30
0.0
 11
526.011078
 21
671.929413
 31
0.0
  0
LINE
  5
9F
330
7B
100
AcDbEntity
  8
0
  6
Continuous
 62
     0
370
    30
100
AcDbLine
 10
486.365246
 20
611.760298
 30
0.0
 11
467.974061
 21
608.497373
 31
0.0
  0
LINE
  5
A0
330
7B
100
AcDbEntity
  8
0
  6
Continuous
 62
     0
370
    30
100
AcDbLine
 10
503.402472
 20
590.607964
 30
0.0
 11
503.406892
 21
600.3862
 31
0.0
  0
LINE
  5
A1
330
7B
100
AcDbEntity
  8
0
  6
Continuous
 62
     0
370
    30
100
AcDbLine
 10
526.006892
 20
670.922743
 30
0.0
 11
526.011078
 21
671.929413
 31
0.0
  0
ARC
  5
A2
330
7B
100
AcDbEntity
  8
0
  6
Continuous
 62
     0
370
    30
100
AcDbCircle
 10
495.07019
 20
604.832125
 30
0.0
 40
8.485148203822888
100
AcDbArc
 50
29.69794
 51
68.567042
  0
LINE
  5
A3
330
7B
100
AcDbEntity
  8
0
  6
Continuous
 62
     0
370
    30
100
AcDbLine
 10
503.404052
 20
601.777051
 30
0.0
 11
503.403509
 21
602.26917
 31
0.0
  0
LWPOLYLINE
  5
A4
330
7B
100
AcDbEntity
  8
0
  6
Continuous
 62
     0
370
    30
100
AcDbPolyline
 90
       13
 70
     0
 43
0.0
 10
503.406708
 20
600.887085
 10
503.406769
 20
600.851929
 10
503.406799
 20
600.883667
 10
503.406738
 20
600.964417
 10
503.406586
 20
601.076111
 10
503.406342
 20
601.200806
 10
503.405945
 20
601.320496
 10
503.405426
 20
601.420959
 10
503.404877
 20
601.503906
 10
503.404388
 20
601.575134
 10
503.404144
 20
601.640381
 10
503.404205
 20
601.705505
 10
503.404755
 20
601.777039
  0
LINE
  5
A5
330
7B
100
AcDbEntity
  8
0
  6
Continuous
 62
     0
370
     0
100
AcDbLine
 10
514.564285
 20
564.607888
 30
0.0
 11
503.710972
 21
564.607888
 31
0.0
  0
LINE
  5
A6
330
7B
100
AcDbEntity
  8
0
  6
Continuous
 62
     0
370
     0
100
AcDbLine
 10
525.710972
 20
564.607888
 30
0.0
 11
514.564285
 21
564.607888
 31
0.0
  0
ELLIPSE
  5
A7
330
7B
100
AcDbEntity
  8
0
  6
Continuous
 62
     0
370
     0
100
AcDbEllipse
 10
564.737996
 20
490.43318
 30
0.0
 11
-4.120987531683031
 21
-10.19889512465507
 31
0.0
210
0.0
220
0.0
230
-1.0
 40
0.012364
 41
6.283148652711713
 42
7.848985791702675
  0
ELLIPSE
  5
A8
330
7B
100
AcDbEntity
  8
0
  6
Continuous
 62
     0
370
     0
100
AcDbEllipse
 10
564.737996
 20
490.43318
 30
0.0
 11
-4.120987531683031
 21
-10.19889512465507
 31
0.0
210
0.0
220
0.0
230
-1.0
 40
0.012364
 41
1.565800484523089
 42
3.141627445533756
  0
ELLIPSE
  5
A9
330
7B
100
AcDbEntity
  8
0
  6
Continuous
 62
     0
370
    30
100
AcDbEllipse
 10
577.717415
 20
485.188688
 30
0.0
 11
4.120987531683031
 21
10.19889512465507
 31
0.0
210
0.0
220
0.0
230
1.0
 40
0.012364
 41
1.575792169066704
 42
4.717384822656498
  0
ELLIPSE
  5
AA
330
7B
100
AcDbEntity
  8
0
  6
Continuous
 62
     0
370
    30
100
AcDbEllipse
 10
577.717415
 20
485.188688
 30
0.0
 11
4.120987531683031
 21
10.19889512465507
 31
0.0
210
0.0
220
0.0
230
1.0
 40
0.012364
 41
4.717384822656498
 42
7.858977476246291
  0
LINE
  5
AB
330
7B
100
AcDbEntity
  8
0
  6
Continuous
 62
     0
370
    30
100
AcDbLine
 10
573.596428
 20
474.989793
 30
0.0
 11
560.617008
 21
480.234285
 31
0.0
  0
LINE
  5
AC
330
7B
100
AcDbEntity
  8
0
  6
Continuous
 62
     0
370
    30
100
AcDbLine
 10
581.838403
 20
495.387583
 30
0.0
 11
568.858983
 21
500.632075
 31
0.0
  0
ARC
  5
AD
330
7B
100
AcDbEntity
  8
0
  6
Continuous
 62
     0
370
    30
100
AcDbCircle
 10
594.712807
 20
564.607329
 30
0.0
 40
69.00183573549306
100
AcDbArc
 50
179.999535
 51
247.99527
  0
ARC
  5
AE
330
7B
100
AcDbEntity
  8
0
  6
Continuous
 62
     0
370
    30
100
AcDbCircle
 10
594.713396
 20
564.607726
 30
0.0
 40
91.00242399313291
100
AcDbArc
 50
179.999898
 51
247.995736
  0
LINE
  5
AF
330
7B
100
AcDbEntity
  8
0
  6
Continuous
 62
     0
370
    30
100
AcDbLine
 10
503.710972
 20
564.607888
 30
0.0
 11
503.710972
 21
590.607891
 31
0.0
  0
LINE
  5
B0
330
7B
100
AcDbEntity
  8
0
  6
Continuous
 62
     0
370
    30
100
AcDbLine
 10
525.710972
 20
564.607888
 30
0.0
 11
525.710972
 21
590.607891
 31
0.0
  0
LINE
  5
B1
330
7B
100
AcDbEntity
  8
0
  6
Continuous
 62
     0
370
    30
100
AcDbLine
 10
451.918233
 20
643.123155
 30
0.0
 11
451.689065
 21
644.422829
 31
0.0
  0
LINE
  5
B2
330
7B
100
AcDbEntity
  8
0
  6
Continuous
 62
     0
370
    30
100
AcDbLine
 10
464.793566
 20
610.990766
 30
0.0
 11
467.504691
 21
611.163906
 31
0.0
  0
ARC
  5
B3
330
7B
100
AcDbEntity
  8
0
  6
Continuous
 62
     0
370
    30
100
AcDbCircle
 10
465.27351
 20
629.065093
 30
0.0
 40
20.50359024609546
100
AcDbArc
 50
102.547188
 51
131.493863
  0
LINE
  5
B4
330
7B
100
AcDbEntity
  8
0
  6
Continuous
 62
     0
370
    30
100
AcDbLine
 10
461.554331
 20
629.36138
 30
0.0
 11
465.331179
 21
607.941811
 31
0.0
  0
LINE
  5
B5
330
7B
100
AcDbEntity
  8
0
  6
Continuous
 62
     0
370
     0
100
AcDbLine
 10
434.86109
 20
644.189307
 30
0.0
 11
441.451871
 21
606.811125
 31
0.0
  0
ARC
  5
B6
330
7B
100
AcDbEntity
  8
0
  6
Continuous
 62
     0
370
    30
100
AcDbCircle
 10
442.678738
 20
607.350375
 30
0.0
 40
1.340160038723768
100
AcDbArc
 50
203.729428
 51
270.85525
  0
LINE
  5
B7
330
7B
100
AcDbEntity
  8
0
  6
Continuous
 62
     0
370
     0
100
AcDbLine
 10
435.762662
 20
645.346834
 30
0.0
 11
442.698744
 21
606.010353
 31
0.0
  0
LINE
  5
B8
330
7B
100
AcDbEntity
  8
0
  6
Continuous
 62
     0
370
    30
100
AcDbLine
 10
461.554331
 20
629.36138
 30
0.0
 11
447.977834
 21
648.750628
 31
0.0
  0
ARC
  5
B9
330
7B
100
AcDbEntity
  8
0
  6
Continuous
 62
     0
370
    30
100
AcDbCircle
 10
436.128161
 20
773.560363
 30
0.0
 40
168.1734848484853
100
AcDbArc
 50
273.584885
 51
279.999999
  0
LINE
  5
BA
330
7B
100
AcDbEntity
  8
0
  6
Continuous
 62
     0
370
    30
100
AcDbLine
 10
446.643582
 20
605.71595
 30
0.0
 11
442.69875
 21
606.010366
 31
0.0
  0
LWPOLYLINE
  5
BB
330
7B
100
AcDbEntity
  8
0
  6
Continuous
 62
     0
370
    30
100
AcDbPolyline
 90
       38
 70
     0
 43
0.0
 10
437.643585
 20
617.324341
 10
437.65625
 20
617.280945
 10
437.691437
 20
617.16095
 10
437.743317
 20
616.985168
 10
437.806763
 20
616.772095
 10
437.878387
 20
616.533936
 10
437.955994
 20
616.278748
 10
438.0383
 20
616.011169
 10
438.124359
 20
615.73468
 10
438.213593
 20
615.451355
 10
438.305603
 20
615.16272
 10
438.400116
 20
614.869873
 10
438.496918
 20
614.573608
 10
438.595795
 20
614.274536
 10
438.696655
 20
613.973145
 10
438.799438
 20
613.669739
 10
438.903992
 20
613.364746
 10
439.010284
 20
613.05835
 10
439.118256
 20
612.750732
 10
439.227875
 20
612.442139
 10
439.339081
 20
612.132629
 10
439.451843
 20
611.822388
 10
439.566132
 20
611.511414
 10
439.681946
 20
611.19989
 10
439.799225
 20
610.887939
 10
439.917938
 20
610.575623
 10
440.038116
 20
610.263
 10
440.159698
 20
609.950073
 10
440.282654
 20
609.636963
 10
440.407013
 20
609.323608
 10
440.532745
 20
609.010193
 10
440.659821
 20
608.696716
 10
440.788239
 20
608.383179
 10
440.917938
 20
608.069702
 10
441.04892
 20
607.756287
 10
441.181152
 20
607.442993
 10
441.314606
 20
607.129944
 10
441.451874
 20
606.811096
  0
ARC
  5
BC
330
7B
100
AcDbEntity
  8
0
  6
Continuous
 62
     0
370
    30
100
AcDbCircle
 10
516.754775
 20
639.094707
 30
0.0
 40
82.0519999999998
100
AcDbArc
 50
189.999999
 51
195.386224
  0
ARC
  5
BD
330
7B
100
AcDbEntity
  8
0
  6
Continuous
 62
     0
370
    30
100
AcDbCircle
 10
442.143582
 20
610.475943
 30
0.0
 40
15.0
100
AcDbArc
 50
256.164776
 51
269.999999
  0
LINE
  5
BE
330
7B
100
AcDbEntity
  8
0
  6
Continuous
 62
     0
370
     0
100
AcDbLine
 10
438.556626
 20
595.911131
 30
0.0
 11
445.730539
 21
595.911131
 31
0.0
  0
LINE
  5
BF
330
7B
100
AcDbEntity
  8
0
  6
Continuous
 62
     0
370
    30
100
AcDbLine
 10
437.643582
 20
597.076316
 30
0.0
 11
437.643583
 21
617.324317
 31
0.0
  0
LINE
  5
C0
330
7B
100
AcDbEntity
  8
0
  6
Continuous
 62
     0
370
     0
100
AcDbLine
 10
437.643582
 20
597.076316
 30
0.0
 11
446.643582
 21
597.076316
 31
0.0
  0
ARC
  5
C1
330
7B
100
AcDbEntity
  8
0
  6
Continuous
 62
     0
370
    30
100
AcDbCircle
 10
438.843582
 20
597.076316
 30
0.0
 40
1.200000047683726
100
AcDbArc
 50
179.999999
 51
256.164776
  0
ARC
  5
C2
330
7B
100
AcDbEntity
  8
0
  6
Continuous
 62
     0
370
    30
100
AcDbCircle
 10
445.441253
 20
597.078141
 30
0.0
 40
1.202330930645392
100
AcDbArc
 50
283.922211
 51
359.913012
  0
LINE
  5
C3
330
7B
100
AcDbEntity
  8
0
  6
Continuous
 62
     0
370
    30
100
AcDbLine
 10
446.643582
 20
605.71595
 30
0.0
 11
446.643582
 21
597.076316
 31
0.0
  0
ARC
  5
C4
330
7B
100
AcDbEntity
  8
0
  6
Continuous
 62
     0
370
    30
100
AcDbCircle
 10
442.14284
 20
610.482058
 30
0.0
 40
15.00611560400472
100
AcDbArc
 50
270.004212
 51
283.83239
  0
LINE
  5
C5
330
7B
100
AcDbEntity
  8
0
  6
Continuous
 62
     0
370
    30
100
AcDbLine
 10
442.143582
 20
595.475943
 30
0.0
 11
441.701887
 21
595.482447
 31
0.0
  0
ARC
  5
C6
330
7B
100
AcDbEntity
  8
0
  6
Continuous
 62
     0
370
    30
100
AcDbCircle
 10
516.75801
 20
639.094889
 30
0.0
 40
82.05521722780998
100
AcDbArc
 50
176.440488
 51
189.99838
  0
LINE
  5
C7
330
7B
100
AcDbEntity
  8
0
  6
Continuous
 62
     0
370
    30
100
AcDbLine
 10
435.94933
 20
624.846527
 30
0.0
 11
436.057476
 21
624.246254
 31
0.0
  0
ARC
  5
C8
330
7B
100
AcDbEntity
  8
0
  6
Continuous
 62
     0
370
    30
100
AcDbCircle
 10
487.359998
 20
483.800508
 30
0.0
 40
169.5862626084491
100
AcDbArc
 50
103.428213
 51
107.713302
  0
ARC
  5
C9
330
7B
100
AcDbEntity
  8
0
  6
Continuous
 62
     0
370
    30
100
AcDbCircle
 10
436.15994
 20
644.107532
 30
0.0
 40
1.301421537421968
100
AcDbArc
 50
107.774079
 51
176.397221
  0
ENDBLK
  5
CB
330
7B
100
AcDbEntity
  8
0
100
AcDbBlockEnd
  0
BLOCK
  5
E8
330
CD
100
AcDbEntity
  8
0
100
AcDbBlockBegin
  2
b
 70
     0
 10
405.216705
 20
191.04628
 30
0.0
  3
b
  1

  0
ARC
  5
CE
330
CD
100
AcDbEntity
  8
0
  6
Continuous
 62
     0
370
    30
100
AcDbCircle
 10
509.620704
 20
225.277113
 30
0.0
 40
37.50000000000243
100
AcDbArc
 50
180.0
 51
0.0
  0
ARC
  5
CF
330
CD
100
AcDbEntity
  8
0
  6
Continuous
 62
     0
370
    30
100
AcDbCircle
 10
509.620704
 20
225.277113
 30
0.0
 40
37.50000000000243
100
AcDbArc
 50
0.0
 51
180.0
  0
LINE
  5
D0
330
CD
100
AcDbEntity
  8
0
  6
Continuous
 62
     0
370
     0
100
AcDbLine
 10
472.120704
 20
225.276197
 30
0.0
 11
460.384366
 21
225.276197
 31
0.0
  0
LWPOLYLINE
  5
D1
330
CD
100
AcDbEntity
  8
0
  6
Continuous
 62
     0
370
    30
100
AcDbPolyline
 90
       29
 70
     0
 43
0.0
 10
460.384369
 20
225.276199
 10
460.390259
 20
224.051804
 10
460.408112
 20
222.829468
 10
460.437775
 20
221.613113
 10
460.479156
 20
220.407852
 10
460.532104
 20
219.218521
 10
460.596436
 20
218.048676
 10
460.671936
 20
216.901566
 10
460.758362
 20
215.780426
 10
460.85553
 20
214.688553
 10
460.963104
 20
213.629272
 10
461.080719
 20
212.605988
 10
461.208069
 20
211.62207
 10
461.344788
 20
210.680801
 10
461.490448
 20
209.785141
 10
461.644592
 20
208.937897
 10
461.806793
 20
208.141937
 10
461.976532
 20
207.399979
 10
462.15329
 20
206.714417
 10
462.336487
 20
206.087509
 10
462.525543
 20
205.521515
 10
462.719849
 20
205.018661
 10
462.918854
 20
204.580811
 10
463.121979
 20
204.209808
 10
463.328705
 20
203.907471
 10
463.538361
 20
203.675674
 10
463.749969
 20
203.516586
 10
463.962555
 20
203.432465
 10
464.178589
 20
203.426086
  0
LWPOLYLINE
  5
D2
330
CD
100
AcDbEntity
  8
0
  6
Continuous
 62
     0
370
    30
100
AcDbPolyline
 90
       29
 70
     0
 43
0.0
 10
460.384369
 20
225.276276
 10
460.390259
 20
226.500671
 10
460.408112
 20
227.723007
 10
460.437775
 20
228.939362
 10
460.479156
 20
230.144623
 10
460.532104
 20
231.333954
 10
460.596436
 20
232.503799
 10
460.671936
 20
233.650909
 10
460.758392
 20
234.772034
 10
460.85553
 20
235.863922
 10
460.963104
 20
236.923203
 10
461.080719
 20
237.946487
 10
461.208069
 20
238.930405
 10
461.344788
 20
239.871658
 10
461.490448
 20
240.767334
 10
461.644592
 20
241.614563
 10
461.806793
 20
242.410538
 10
461.976532
 20
243.152481
 10
462.15329
 20
243.838043
 10
462.336487
 20
244.464966
 10
462.525543
 20
245.030945
 10
462.719849
 20
245.533798
 10
462.918854
 20
245.971649
 10
463.121979
 20
246.342651
 10
463.328705
 20
246.644989
 10
463.538361
 20
246.876785
 10
463.749969
 20
247.035873
 10
463.962555
 20
247.119995
 10
464.178589
 20
247.126373
  0
LINE
  5
D3
330
CD
100
AcDbEntity
  8
0
  6
Continuous
 62
     0
370
    30
100
AcDbLine
 10
479.166854
 20
247.158912
 30
0.0
 11
464.086779
 21
247.133559
 31
0.0
  0
LINE
  5
D4
330
CD
100
AcDbEntity
  8
0
  6
Continuous
 62
     0
370
    30
100
AcDbLine
 10
479.16813
 20
203.393545
 30
0.0
 11
464.086778
 21
203.418894
 31
0.0
  0
LINE
  5
D5
330
CD
100
AcDbEntity
  8
0
  6
Continuous
 62
     0
370
    30
100
AcDbLine
 10
545.594596
 20
235.866223
 30
0.0
 11
564.884675
 21
235.608963
 31
0.0
  0
ELLIPSE
  5
D6
330
CD
100
AcDbEntity
  8
0
  6
Continuous
 62
     0
370
     0
100
AcDbEllipse
 10
564.737988
 20
224.609945
 30
0.0
 11
-0.1466865879279931
 21
-10.9990219131031
 31
0.0
210
0.0
220
0.0
230
1.0
 40
0.374607
 41
-0.0000000471400599
 42
3.141592606449734
  0
LINE
  5
D7
330
CD
100
AcDbEntity
  8
0
  6
Continuous
 62
     0
370
    30
100
AcDbLine
 10
564.884675
 20
235.608967
 30
0.0
 11
577.864094
 21
235.435869
 31
0.0
  0
ELLIPSE
  5
D8
330
CD
100
AcDbEntity
  8
0
  6
Continuous
 62
     0
370
    30
100
AcDbEllipse
 10
577.717408
 20
224.436847
 30
0.0
 11
0.1466865879279931
 21
10.9990219131031
 31
0.0
210
0.0
220
0.0
230
-1.0
 40
0.374607
 41
0.000000047140058
 42
3.141592700729851
  0
LINE
  5
D9
330
CD
100
AcDbEntity
  8
0
  6
Continuous
 62
     0
370
    30
100
AcDbLine
 10
577.570721
 20
213.437825
 30
0.0
 11
564.591301
 21
213.610923
 31
0.0
  0
LINE
  5
DA
330
CD
100
AcDbEntity
  8
0
  6
Continuous
 62
     0
370
    30
100
AcDbLine
 10
545.342874
 20
213.867626
 30
0.0
 11
564.591301
 21
213.610923
 31
0.0
  0
ELLIPSE
  5
DB
330
CD
100
AcDbEntity
  8
0
  6
Continuous
 62
     0
370
    30
100
AcDbEllipse
 10
454.51084
 20
225.423177
 30
0.0
 11
-1.077397840171477E-7
 21
-16.25
 31
0.0
210
0.0
220
0.0
230
-1.0
 40
0.173648
 41
0.3369704079208783
 42
3.033343495347822
  0
ELLIPSE
  5
DC
330
CD
100
AcDbEntity
  8
0
  6
Continuous
 62
     0
370
    30
100
AcDbEllipse
 10
461.554324
 20
225.077116
 30
0.0
 11
1.676380528003494E-7
 21
21.75
 31
0.0
210
0.0
220
0.0
230
1.0
 40
0.173648
 41
5.954271666134061
 42
6.283185351565293
  0
LINE
  5
DD
330
CD
100
AcDbEntity
  8
0
  6
Continuous
 62
     0
370
    30
100
AcDbLine
 10
461.554324
 20
244.391039
 30
0.0
 11
461.554324
 21
246.827116
 31
0.0
  0
LINE
  5
DE
330
CD
100
AcDbEntity
  8
0
  6
Continuous
 62
     0
370
    30
100
AcDbLine
 10
461.554324
 20
203.327116
 30
0.0
 11
461.554324
 21
206.455314
 31
0.0
  0
ELLIPSE
  5
DF
330
CD
100
AcDbEntity
  8
0
  6
Continuous
 62
     0
370
    30
100
AcDbEllipse
 10
461.554324
 20
225.077116
 30
0.0
 11
1.676380528003494E-7
 21
21.75
 31
0.0
210
0.0
220
0.0
230
1.0
 40
0.173648
 41
3.141592697975498
 42
3.496863536509641
  0
ELLIPSE
  5
E0
330
CD
100
AcDbEntity
  8
0
  6
Continuous
 62
     0
370
     0
100
AcDbEllipse
 10
438.201706
 20
225.077116
 30
0.0
 11
1.482759735413882E-7
 21
19.2378900294556
 31
0.0
210
0.0
220
0.0
230
1.0
 40
0.173648
 41
0.0028149925089167
 42
3.13877774985229
  0
ELLIPSE
  5
E1
330
CD
100
AcDbEntity
  8
0
  6
Continuous
 62
     0
370
     0
100
AcDbEllipse
 10
439.274042
 20
225.077116
 30
0.0
 11
1.558554108974923E-7
 21
20.22127512455449
 31
0.0
210
0.0
220
0.0
230
1.0
 40
0.173648
 41
0.023940020016763
 42
3.117652532504236
  0
LWPOLYLINE
  5
E2
330
CD
100
AcDbEntity
  8
0
  6
Continuous
 62
     0
370
    30
100
AcDbPolyline
 90
       51
 70
     0
 43
0.0
 10
461.554321
 20
203.327118
 10
460.736053
 20
203.366669
 10
459.920258
 20
203.485245
 10
459.109558
 20
203.682739
 10
458.306396
 20
203.958878
 10
457.513428
 20
204.31311
 10
456.733215
 20
204.744888
 10
455.968414
 20
205.253647
 10
455.22168
 20
205.838486
 10
454.495819
 20
206.498169
 10
453.793579
 20
207.231461
 10
453.117767
 20
208.037003
 10
452.471283
 20
208.912613
 10
451.857025
 20
209.85582
 10
451.277893
 20
210.864166
 10
450.736847
 20
211.935028
 10
450.236633
 20
213.064713
 10
449.78006
 20
214.249161
 10
449.369873
 20
215.484161
 10
449.008575
 20
216.764694
 10
448.698547
 20
218.085464
 10
448.441833
 20
219.440567
 10
448.240051
 20
220.823563
 10
448.094849
 20
222.227936
 10
448.007263
 20
223.64682
 10
447.977814
 20
225.072968
 10
448.006927
 20
226.4991
 10
448.094208
 20
227.91803
 10
448.239014
 20
229.322586
 10
448.44043
 20
230.705734
 10
448.69693
 20
232.060959
 10
449.006622
 20
233.381958
 10
449.367676
 20
234.662613
 10
449.777588
 20
235.897827
 10
450.233826
 20
237.082809
 10
450.733765
 20
238.212814
 10
451.274658
 20
239.28392
 10
451.853577
 20
240.292938
 10
452.467621
 20
241.236679
 10
453.113922
 20
242.112473
 10
453.789551
 20
242.918243
 10
454.491669
 20
243.651993
 10
455.217407
 20
244.312119
 10
455.963989
 20
244.8974
 10
456.728699
 20
245.406601
 10
457.50885
 20
245.838882
 10
458.301758
 20
246.193604
 10
459.104828
 20
246.470139
 10
459.915497
 20
246.66806
 10
460.731293
 20
246.787109
 10
461.554321
 20
246.827118
  0
ARC
  5
E3
330
CD
100
AcDbEntity
  8
0
  6
Continuous
 62
     0
370
    30
100
AcDbCircle
 10
516.783216
 20
225.077115
 30
0.0
 40
82.08008153751204
100
AcDbArc
 50
170.798222
 51
189.20188
  0
ARC
  5
E4
330
CD
100
AcDbEntity
  8
0
  6
Continuous
 62
     0
370
    30
100
AcDbCircle
 10
461.55344
 20
367.052254
 30
0.0
 40
163.7251384083997
100
AcDbArc
 50
262.149343
 51
270.00031
  0
ARC
  5
E5
330
CD
100
AcDbEntity
  8
0
  6
Continuous
 62
     0
370
    30
100
AcDbCircle
 10
461.553439
 20
83.101973
 30
0.0
 40
163.7251424258705
100
AcDbArc
 50
89.99969
 51
97.850656
  0
LWPOLYLINE
  5
E6
330
CD
100
AcDbEntity
  8
0
  6
Continuous
 62
     0
370
    30
100
AcDbPolyline
 90
       21
 70
     0
 43
0.0
 10
435.759338
 20
211.951828
 10
435.855438
 20
211.384048
 10
435.956238
 20
210.837112
 10
436.061523
 20
210.311508
 10
436.171173
 20
209.807648
 10
436.284943
 20
209.326019
 10
436.40274
 20
208.86705
 10
436.524292
 20
208.431213
 10
436.649506
 20
208.018951
 10
436.778137
 20
207.630707
 10
436.910553
 20
207.266678
 10
437.049194
 20
206.925903
 10
437.197083
 20
206.607117
 10
437.357269
 20
206.309052
 10
437.532776
 20
206.030441
 10
437.726654
 20
205.77002
 10
437.942108
 20
205.526718
 10
438.187256
 20
205.303848
 10
438.475098
 20
205.10939
 10
438.809052
 20
204.956024
 10
439.189972
 20
204.861694
  0
LWPOLYLINE
  5
E7
330
CD
100
AcDbEntity
  8
0
  6
Continuous
 62
     0
370
    30
100
AcDbPolyline
 90
       21
 70
     0
 43
0.0
 10
435.759338
 20
238.202408
 10
435.855438
 20
238.770187
 10
435.956238
 20
239.317108
 10
436.061523
 20
239.842728
 10
436.171173
 20
240.346573
 10
436.284943
 20
240.828217
 10
436.40274
 20
241.28717
 10
436.524292
 20
241.723022
 10
436.649506
 20
242.135284
 10
436.778137
 20
242.523529
 10
436.910553
 20
242.887558
 10
437.049194
 20
243.228333
 10
437.197083
 20
243.547119
 10
437.357269
 20
243.845184
 10
437.532776
 20
244.123795
 10
437.726654
 20
244.384216
 10
437.942108
 20
244.627518
 10
438.187256
 20
244.850372
 10
438.475098
 20
245.044846
 10
438.809052
 20
245.198212
 10
439.189972
 20
245.292542
  0
ENDBLK
  5
E9
330
CD
100
AcDbEntity
  8
0
100
AcDbBlockEnd
  0
BLOCK
  5
134
330
EB
100
AcDbEntity
  8
0
100
AcDbBlockBegin
  2
c
 70
     0
 10
405.216705
 20
191.04628
 30
0.0
  3
c
  1

  0
LINE
  5
EC
330
EB
100
AcDbEntity
  8
0
  6
Continuous
 62
     0
370
    30
100
AcDbLine
 10
702.887655
 20
705.213165
 30
0.0
 11
665.387657
 21
705.213165
 31
0.0
  0
LINE
  5
ED
330
EB
100
AcDbEntity
  8
0
  6
Continuous
 62
     0
370
    30
100
AcDbLine
 10
665.387657
 20
705.213165
 30
0.0
 11
627.887655
 21
705.213165
 31
0.0
  0
LINE
  5
EE
330
EB
100
AcDbEntity
  8
0
  6
Continuous
 62
     0
370
    30
100
AcDbLine
 10
627.887655
 20
695.213165
 30
0.0
 11
665.387657
 21
695.213165
 31
0.0
  0
LINE
  5
EF
330
EB
100
AcDbEntity
  8
0
  6
Continuous
 62
     0
370
    30
100
AcDbLine
 10
665.387657
 20
695.213165
 30
0.0
 11
702.887655
 21
695.213165
 31
0.0
  0
LINE
  5
F0
330
EB
100
AcDbEntity
  8
0
  6
Continuous
 62
     0
370
    30
100
AcDbLine
 10
702.887655
 20
705.213165
 30
0.0
 11
702.887655
 21
695.213165
 31
0.0
  0
LINE
  5
F1
330
EB
100
AcDbEntity
  8
0
  6
Continuous
 62
     0
370
    30
100
AcDbLine
 10
627.887655
 20
705.213165
 30
0.0
 11
627.887655
 21
695.213165
 31
0.0
  0
LINE
  5
F2
330
EB
100
AcDbEntity
  8
0
  6
Continuous
 62
     0
370
     0
100
AcDbLine
 10
676.688375
 20
600.386995
 30
0.0
 11
676.696697
 21
601.33974
 31
0.0
  0
LINE
  5
F3
330
EB
100
AcDbEntity
  8
0
  6
Continuous
 62
     0
370
     0
100
AcDbLine
 10
670.087656
 20
600.356775
 30
0.0
 11
676.688372
 21
600.386886
 31
0.0
  0
LINE
  5
F4
330
EB
100
AcDbEntity
  8
0
  6
Continuous
 62
     0
370
     0
100
AcDbLine
 10
661.087656
 20
600.36516
 30
0.0
 11
654.088751
 21
600.386873
 31
0.0
  0
LINE
  5
F5
330
EB
100
AcDbEntity
  8
0
  6
Continuous
 62
     0
370
     0
100
AcDbLine
 10
654.088748
 20
600.386982
 30
0.0
 11
654.080425
 21
601.339727
 31
0.0
  0
LINE
  5
F6
330
EB
100
AcDbEntity
  8
0
  6
Continuous
 62
     0
370
     0
100
AcDbLine
 10
654.088376
 20
590.60789
 30
0.0
 11
654.088751
 21
600.386873
 31
0.0
  0
LINE
  5
F7
330
EB
100
AcDbEntity
  8
0
  6
Continuous
 62
     0
370
    30
100
AcDbLine
 10
665.388402
 20
590.60789
 30
0.0
 11
654.088376
 21
590.60789
 31
0.0
  0
LINE
  5
F8
330
EB
100
AcDbEntity
  8
0
  6
Continuous
 62
     0
370
     0
100
AcDbLine
 10
665.38724
 20
595.477246
 30
0.0
 11
665.388402
 21
590.60789
 31
0.0
  0
LINE
  5
F9
330
EB
100
AcDbEntity
  8
0
  6
Continuous
 62
     0
370
     0
100
AcDbLine
 10
676.687619
 20
590.60789
 30
0.0
 11
676.688373
 21
600.386886
 31
0.0
  0
LINE
  5
FA
330
EB
100
AcDbEntity
  8
0
  6
Continuous
 62
     0
370
    30
100
AcDbLine
 10
665.388406
 20
590.60789
 30
0.0
 11
676.688756
 21
590.60789
 31
0.0
  0
LWPOLYLINE
  5
FB
330
EB
100
AcDbEntity
  8
0
  6
Continuous
 62
     0
370
    30
100
AcDbPolyline
 90
        6
 70
     0
 43
0.0
 10
643.538513
 20
630.027161
 10
643.589172
 20
628.92749
 10
643.680786
 20
627.830078
 10
643.819092
 20
626.737732
 10
644.013
 20
625.653748
 10
644.304932
 20
624.442139
  0
ARC
  5
FC
330
EB
100
AcDbEntity
  8
0
  6
Continuous
 62
     0
370
     0
100
AcDbCircle
 10
665.509544
 20
633.207553
 30
0.0
 40
21.84070888841665
100
AcDbArc
 50
10.828631
 51
81.312481
  0
LINE
  5
FD
330
EB
100
AcDbEntity
  8
0
  6
Continuous
 62
     0
370
     0
100
AcDbLine
 10
668.808484
 20
654.797679
 30
0.0
 11
665.388575
 21
655.060491
 31
0.0
  0
LINE
  5
FE
330
EB
100
AcDbEntity
  8
0
  6
Continuous
 62
     0
370
     0
100
AcDbLine
 10
665.388575
 20
655.060491
 30
0.0
 11
665.388576
 21
651.545246
 31
0.0
  0
ARC
  5
FF
330
EB
100
AcDbEntity
  8
0
  6
Continuous
 62
     0
370
    30
100
AcDbCircle
 10
665.634465
 20
629.906339
 30
0.0
 40
21.6403048113248
100
AcDbArc
 50
3.626928
 51
90.651041
  0
ARC
  5
100
330
EB
100
AcDbEntity
  8
0
  6
Continuous
 62
     0
370
    30
100
AcDbCircle
 10
665.105349
 20
629.980108
 30
0.0
 40
21.56699697516614
100
AcDbArc
 50
89.247762
 51
179.874959
  0
LINE
  5
101
330
EB
100
AcDbEntity
  8
0
  6
Continuous
 62
     0
370
     0
100
AcDbLine
 10
661.927714
 20
654.791283
 30
0.0
 11
665.38849
 21
655.060491
 31
0.0
  0
ARC
  5
102
330
EB
100
AcDbEntity
  8
0
  6
Continuous
 62
     0
370
     0
100
AcDbCircle
 10
665.267198
 20
633.207779
 30
0.0
 40
21.84032500345659
100
AcDbArc
 50
98.795285
 51
169.171844
  0
LINE
  5
103
330
EB
100
AcDbEntity
  8
0
  6
Continuous
 62
     0
370
     0
100
AcDbLine
 10
665.388574
 20
671.929196
 30
0.0
 11
668.808396
 21
671.928613
 31
0.0
  0
LINE
  5
104
330
EB
100
AcDbEntity
  8
0
  6
Continuous
 62
     0
370
     0
100
AcDbLine
 10
668.808396
 20
671.928613
 30
0.0
 11
681.795888
 21
671.928393
 31
0.0
  0
LINE
  5
105
330
EB
100
AcDbEntity
  8
0
  6
Continuous
 62
     0
370
     0
100
AcDbLine
 10
665.388574
 20
695.213165
 30
0.0
 11
665.388574
 21
671.929196
 31
0.0
  0
LINE
  5
106
330
EB
100
AcDbEntity
  8
0
  6
Continuous
 62
     0
370
     0
100
AcDbLine
 10
661.927777
 20
671.928898
 30
0.0
 11
648.981161
 21
671.928374
 31
0.0
  0
LINE
  5
107
330
EB
100
AcDbEntity
  8
0
  6
Continuous
 62
     0
370
     0
100
AcDbLine
 10
665.388471
 20
671.929196
 30
0.0
 11
661.927777
 21
671.928898
 31
0.0
  0
LINE
  5
108
330
EB
100
AcDbEntity
  8
0
  6
Continuous
 62
     0
370
    30
100
AcDbLine
 10
668.808484
 20
671.915251
 30
0.0
 11
668.808484
 21
654.797679
 31
0.0
  0
LINE
  5
109
330
EB
100
AcDbEntity
  8
0
  6
Continuous
 62
     0
370
    30
100
AcDbLine
 10
661.927713
 20
671.916828
 30
0.0
 11
661.927714
 21
654.791283
 31
0.0
  0
LWPOLYLINE
  5
10A
330
EB
100
AcDbEntity
  8
0
  6
Continuous
 62
     0
370
    30
100
AcDbPolyline
 90
       47
 70
     0
 43
0.0
 10
643.815796
 20
637.311523
 10
643.983826
 20
638.147522
 10
644.177856
 20
638.957092
 10
644.386719
 20
639.718018
 10
644.599121
 20
640.40979
 10
644.803772
 20
641.023682
 10
644.993835
 20
641.563354
 10
645.171021
 20
642.045715
 10
645.338074
 20
642.489258
 10
645.497559
 20
642.910034
 10
645.651489
 20
643.317383
 10
645.801819
 20
643.719238
 10
645.950439
 20
644.123657
 10
646.098999
 20
644.537964
 10
646.247803
 20
644.966003
 10
646.39679
 20
645.410828
 10
646.545898
 20
645.875427
 10
646.695007
 20
646.362976
 10
646.843933
 20
646.876221
 10
646.992004
 20
647.417847
 10
647.138733
 20
647.990356
 10
647.283264
 20
648.596191
 10
647.42511
 20
649.237976
 10
647.563477
 20
649.917969
 10
647.698059
 20
650.636719
 10
647.828552
 20
651.393311
 10
647.954712
 20
652.186951
 10
648.076233
 20
653.016724
 10
648.192932
 20
653.881836
 10
648.304382
 20
654.781067
 10
648.410034
 20
655.710327
 10
648.508911
 20
656.66394
 10
648.600159
 20
657.636169
 10
648.6828
 20
658.622681
 10
648.755798
 20
659.620911
 10
648.818115
 20
660.628479
 10
648.868591
 20
661.642944
 10
648.907043
 20
662.66217
 10
648.934875
 20
663.685059
 10
648.953674
 20
664.710449
 10
648.964966
 20
665.737793
 10
648.970154
 20
666.766541
 10
648.972229
 20
667.796448
 10
648.975952
 20
668.827515
 10
648.982483
 20
669.859619
 10
648.97229
 20
670.893005
 10
648.981018
 20
671.927979
  0
LWPOLYLINE
  5
10B
330
EB
100
AcDbEntity
  8
0
  6
Continuous
 62
     0
370
    30
100
AcDbPolyline
 90
       47
 70
     0
 43
0.0
 10
686.961182
 20
637.312134
 10
686.793152
 20
638.148071
 10
686.599121
 20
638.957458
 10
686.390259
 20
639.718262
 10
686.177917
 20
640.409973
 10
685.973267
 20
641.023865
 10
685.783203
 20
641.563538
 10
685.605957
 20
642.045898
 10
685.438965
 20
642.48938
 10
685.27948
 20
642.910156
 10
685.125549
 20
643.317505
 10
684.97522
 20
643.71936
 10
684.826599
 20
644.123779
 10
684.67804
 20
644.538086
 10
684.529236
 20
644.966064
 10
684.380249
 20
645.410889
 10
684.23114
 20
645.875549
 10
684.082092
 20
646.363037
 10
683.933167
 20
646.876343
 10
683.785034
 20
647.417969
 10
683.638367
 20
647.990417
 10
683.493774
 20
648.596252
 10
683.35199
 20
649.238037
 10
683.213562
 20
649.91803
 10
683.078979
 20
650.63678
 10
682.948486
 20
651.393433
 10
682.822327
 20
652.187073
 10
682.700806
 20
653.016907
 10
682.584167
 20
653.881958
 10
682.472656
 20
654.781189
 10
682.367065
 20
655.710388
 10
682.268188
 20
656.66394
 10
682.176941
 20
657.636169
 10
682.094238
 20
658.622681
 10
682.021301
 20
659.620911
 10
681.958984
 20
660.628479
 10
681.908447
 20
661.642883
 10
681.869995
 20
662.66217
 10
681.842224
 20
663.684998
 10
681.823364
 20
664.710388
 10
681.812073
 20
665.737671
 10
681.806885
 20
666.766418
 10
681.804871
 20
667.796387
 10
681.801208
 20
668.827393
 10
681.794556
 20
669.859497
 10
681.804749
 20
670.892822
 10
681.796021
 20
671.92804
  0
LINE
  5
10C
330
EB
100
AcDbEntity
  8
0
  6
Continuous
 62
     0
370
    30
100
AcDbLine
 10
648.981119
 20
671.928386
 30
0.0
 11
648.985274
 21
695.213165
 31
0.0
  0
LINE
  5
10D
330
EB
100
AcDbEntity
  8
0
  6
Continuous
 62
     0
370
    30
100
AcDbLine
 10
681.795925
 20
671.928405
 30
0.0
 11
681.791744
 21
695.213165
 31
0.0
  0
LWPOLYLINE
  5
10E
330
EB
100
AcDbEntity
  8
0
  6
Continuous
 62
     0
370
    30
100
AcDbPolyline
 90
       52
 70
     0
 43
0.0
 10
643.815735
 20
637.310791
 10
643.755127
 20
636.955627
 10
643.697876
 20
636.579163
 10
643.647583
 20
636.196594
 10
643.605103
 20
635.815125
 10
643.57074
 20
635.44043
 10
643.544739
 20
635.078186
 10
643.527283
 20
634.737488
 10
643.51709
 20
634.443604
 10
643.512512
 20
634.221497
 10
643.510681
 20
634.078491
 10
643.509888
 20
634.001282
 10
643.509583
 20
633.959961
 10
643.509338
 20
633.924011
 10
643.50885
 20
633.871521
 10
643.508118
 20
633.802429
 10
643.507324
 20
633.720093
 10
643.50647
 20
633.628052
 10
643.505676
 20
633.529663
 10
643.505066
 20
633.428284
 10
643.504761
 20
633.32605
 10
643.504578
 20
633.223267
 10
643.5047
 20
633.120117
 10
643.504944
 20
633.016785
 10
643.505371
 20
632.913696
 10
643.505981
 20
632.811096
 10
643.506714
 20
632.709412
 10
643.507568
 20
632.608948
 10
643.508484
 20
632.510071
 10
643.509521
 20
632.412781
 10
643.51062
 20
632.316956
 10
643.51178
 20
632.222473
 10
643.512939
 20
632.129211
 10
643.51416
 20
632.036987
 10
643.515381
 20
631.945618
 10
643.516602
 20
631.85498
 10
643.517761
 20
631.764893
 10
643.518982
 20
631.675293
 10
643.520081
 20
631.585999
 10
643.521179
 20
631.496948
 10
643.522278
 20
631.408081
 10
643.523315
 20
631.319214
 10
643.524292
 20
631.230347
 10
643.525269
 20
631.141357
 10
643.526184
 20
631.052185
 10
643.5271
 20
630.962708
 10
643.527954
 20
630.872864
 10
643.528748
 20
630.782532
 10
643.529541
 20
630.69165
 10
643.530273
 20
630.600098
 10
643.531006
 20
630.507874
 10
643.531677
 20
630.414673
  0
LWPOLYLINE
  5
10F
330
EB
100
AcDbEntity
  8
0
  6
Continuous
 62
     0
370
    30
100
AcDbPolyline
 90
       45
 70
     0
 43
0.0
 10
686.961365
 20
637.310791
 10
687.021423
 20
636.959045
 10
687.078247
 20
636.586243
 10
687.128235
 20
636.207153
 10
687.170532
 20
635.829102
 10
687.204956
 20
635.457458
 10
687.23114
 20
635.097778
 10
687.248962
 20
634.758362
 10
687.25946
 20
634.463013
 10
687.264343
 20
634.236938
 10
687.266296
 20
634.088501
 10
687.267151
 20
634.006958
 10
687.267456
 20
633.963745
 10
687.2677
 20
633.929077
 10
687.268127
 20
633.879333
 10
687.26886
 20
633.812866
 10
687.269653
 20
633.732971
 10
687.270508
 20
633.643005
 10
687.271301
 20
633.546265
 10
687.271912
 20
633.446106
 10
687.272278
 20
633.34491
 10
687.272461
 20
633.243164
 10
687.272461
 20
633.140991
 10
687.272217
 20
633.038635
 10
687.27179
 20
632.936401
 10
687.27124
 20
632.834656
 10
687.270569
 20
632.733704
 10
687.269775
 20
632.633789
 10
687.26886
 20
632.5354
 10
687.267822
 20
632.438599
 10
687.266785
 20
632.343262
 10
687.265686
 20
632.249329
 10
687.264526
 20
632.156555
 10
687.263306
 20
632.06488
 10
687.262085
 20
631.974121
 10
687.260925
 20
631.884094
 10
687.259705
 20
631.794678
 10
687.258545
 20
631.70575
 10
687.257385
 20
631.617188
 10
687.256287
 20
631.52887
 10
687.255188
 20
631.440796
 10
687.25415
 20
631.352722
 10
687.253174
 20
631.264709
 10
687.252197
 20
631.176575
 10
687.251282
 20
631.08783
  0
LWPOLYLINE
  5
110
330
EB
100
AcDbEntity
  8
0
  6
Continuous
 62
     0
370
    30
100
AcDbPolyline
 90
        6
 70
     0
 43
0.0
 10
654.080444
 20
601.339722
 10
654.041931
 20
602.955566
 10
653.947083
 20
604.598816
 10
653.788208
 20
606.257874
 10
653.56781
 20
607.910767
 10
653.268738
 20
609.640686
  0
LWPOLYLINE
  5
111
330
EB
100
AcDbEntity
  8
0
  6
Continuous
 62
     0
370
    30
100
AcDbPolyline
 90
        6
 70
     0
 43
0.0
 10
676.696716
 20
601.339722
 10
676.731689
 20
602.865662
 10
676.816406
 20
604.416321
 10
676.958252
 20
605.983093
 10
677.155518
 20
607.547668
 10
677.441589
 20
609.288269
  0
LINE
  5
112
330
EB
100
AcDbEntity
  8
0
  6
Continuous
 62
     0
370
     0
100
AcDbLine
 10
676.386677
 20
564.607888
 30
0.0
 11
654.387655
 21
564.607888
 31
0.0
  0
ELLIPSE
  5
113
330
EB
100
AcDbEntity
  8
0
  6
Continuous
 62
     0
370
     0
100
AcDbEllipse
 10
666.05483
 20
490.43318
 30
0.0
 11
-10.99401336652885
 21
-0.3628637438282792
 31
0.0
210
0.0
220
0.0
230
1.0
 40
0.927101
 41
0.0000001235535763
 42
3.106006856612869
  0
ELLIPSE
  5
114
330
EB
100
AcDbEntity
  8
0
  6
Continuous
 62
     0
370
     0
100
AcDbEllipse
 10
666.05483
 20
490.43318
 30
0.0
 11
-10.99401336652885
 21
-0.3628637438282792
 31
0.0
210
0.0
220
0.0
230
1.0
 40
0.927101
 41
3.106006856612869
 42
3.141592774609692
  0
ELLIPSE
  5
115
330
EB
100
AcDbEntity
  8
0
  6
Continuous
 62
     0
370
    30
100
AcDbEllipse
 10
666.227928
 20
485.188688
 30
0.0
 11
10.99401336652885
 21
0.3628637438282792
 31
0.0
210
0.0
220
0.0
230
-1.0
 40
0.927101
 41
0.0355857969769238
 42
3.141592537030654
  0
ELLIPSE
  5
116
330
EB
100
AcDbEntity
  8
0
  6
Continuous
 62
     0
370
    30
100
AcDbEllipse
 10
666.227928
 20
485.188688
 30
0.0
 11
10.99401336652885
 21
0.3628637438282792
 31
0.0
210
0.0
220
0.0
230
-1.0
 40
0.927101
 41
6.283185190620444
 42
6.31877110415651
  0
LINE
  5
117
330
EB
100
AcDbEntity
  8
0
  6
Continuous
 62
     0
370
    30
100
AcDbLine
 10
655.233915
 20
484.825823
 30
0.0
 11
655.060817
 21
490.070315
 31
0.0
  0
LINE
  5
118
330
EB
100
AcDbEntity
  8
0
  6
Continuous
 62
     0
370
    30
100
AcDbLine
 10
677.221941
 20
485.551553
 30
0.0
 11
677.048844
 21
490.796045
 31
0.0
  0
ARC
  5
119
330
EB
100
AcDbEntity
  8
0
  6
Continuous
 62
     0
370
    30
100
AcDbCircle
 10
3666.027899
 20
554.479491
 30
0.0
 40
2989.657401012885
100
AcDbArc
 50
179.805892
 51
181.220564
  0
ARC
  5
11A
330
EB
100
AcDbEntity
  8
0
  6
Continuous
 62
     0
370
    30
100
AcDbCircle
 10
3652.500229
 20
554.412558
 30
0.0
 40
2998.129909537478
100
AcDbArc
 50
179.805162
 51
181.229707
  0
LINE
  5
11B
330
EB
100
AcDbEntity
  8
0
  6
Continuous
 62
     0
370
    30
100
AcDbLine
 10
654.387655
 20
564.607888
 30
0.0
 11
654.387655
 21
590.607891
 31
0.0
  0
LINE
  5
11C
330
EB
100
AcDbEntity
  8
0
  6
Continuous
 62
     0
370
    30
100
AcDbLine
 10
676.387655
 20
564.607888
 30
0.0
 11
676.387655
 21
590.607891
 31
0.0
  0
ELLIPSE
  5
11D
330
EB
100
AcDbEntity
  8
0
  6
Continuous
 62
     0
370
    30
100
AcDbEllipse
 10
665.241597
 20
630.121455
 30
0.0
 11
19.24999999999938
 21
4.889684631563619E-6
 31
0.0
210
0.0
220
0.0
230
1.0
 40
0.984808
 41
1.221810879967743
 42
2.063654656582697
  0
ELLIPSE
  5
11E
330
EB
100
AcDbEntity
  8
0
  6
Continuous
 62
     0
370
    30
100
AcDbEllipse
 10
665.587658
 20
629.36138
 30
0.0
 11
-21.74999999999933
 21
-5.391816643887531E-6
 31
0.0
210
0.0
220
0.0
230
-1.0
 40
0.984808
 41
5.803553399983579
 42
6.283185558903454
  0
ELLIPSE
  5
11F
330
EB
100
AcDbEntity
  8
0
  6
Continuous
 62
     0
370
    30
100
AcDbEllipse
 10
665.587658
 20
629.36138
 30
0.0
 11
-21.74999999999933
 21
-5.391816643887531E-6
 31
0.0
210
0.0
220
0.0
230
-1.0
 40
0.984808
 41
3.141592905313658
 42
3.621225064233508
  0
ELLIPSE
  5
120
330
EB
100
AcDbEntity
  8
0
  6
Continuous
 62
     0
370
     0
100
AcDbEllipse
 10
665.587659
 20
625.243684
 30
0.0
 11
-19.23789002945501
 21
-4.769065547314789E-6
 31
0.0
210
0.0
220
0.0
230
-1.0
 40
0.984808
 41
4.945643626122827
 42
10.76231919568632
  0
LINE
  5
121
330
EB
100
AcDbEntity
  8
0
  6
Continuous
 62
     0
370
    30
100
AcDbLine
 10
670.034187
 20
606.811071
 30
0.0
 11
670.087574
 21
606.12254
 31
0.0
  0
ELLIPSE
  5
122
330
EB
100
AcDbEntity
  8
0
  6
Continuous
 62
     0
370
     0
100
AcDbEllipse
 10
665.587659
 20
625.432765
 30
0.0
 11
-20.22127512455387
 21
-5.012846334583991E-6
 31
0.0
210
0.0
220
0.0
230
-1.0
 40
0.984808
 41
4.935057177067006
 42
10.77290363531076
  0
LINE
  5
123
330
EB
100
AcDbEntity
  8
0
  6
Continuous
 62
     0
370
    30
100
AcDbLine
 10
661.087912
 20
606.104602
 30
0.0
 11
661.141028
 21
606.811114
 31
0.0
  0
LWPOLYLINE
  5
124
330
EB
100
AcDbEntity
  8
0
  6
Continuous
 62
     0
370
    30
100
AcDbPolyline
 90
       53
 70
     0
 43
0.0
 10
687.337646
 20
629.361389
 10
687.301086
 20
630.484863
 10
687.191528
 20
631.605225
 10
687.008972
 20
632.719177
 10
686.753723
 20
633.823486
 10
686.426147
 20
634.914917
 10
686.026855
 20
635.990112
 10
685.556274
 20
637.045837
 10
685.015137
 20
638.078674
 10
684.404419
 20
639.085144
 10
683.725281
 20
640.061646
 10
682.978882
 20
641.0047
 10
682.166687
 20
641.910706
 10
681.291016
 20
642.77594
 10
680.354004
 20
643.59668
 10
679.357849
 20
644.369324
 10
678.305176
 20
645.090149
 10
677.199585
 20
645.755676
 10
676.044678
 20
646.362305
 10
674.844421
 20
646.906677
 10
673.603333
 20
647.385681
 10
672.326233
 20
647.796387
 10
671.018494
 20
648.13623
 10
669.685852
 20
648.403259
 10
668.334167
 20
648.595398
 10
666.969543
 20
648.711365
 10
665.598389
 20
648.75061
 10
664.227295
 20
648.712585
 10
662.862488
 20
648.597717
 10
661.510498
 20
648.40686
 10
660.17749
 20
648.141052
 10
658.869385
 20
647.802246
 10
657.591736
 20
647.392639
 10
656.350159
 20
646.914673
 10
655.149292
 20
646.371277
 10
653.993469
 20
645.765625
 10
652.886963
 20
645.101074
 10
651.833618
 20
644.381042
 10
650.836426
 20
643.609192
 10
649.898132
 20
642.789124
 10
649.021545
 20
641.924561
 10
648.208679
 20
641.019165
 10
647.461243
 20
640.07666
 10
646.781006
 20
639.100647
 10
646.16925
 20
638.094666
 10
645.626953
 20
637.062256
 10
645.155273
 20
636.006836
 10
644.754822
 20
634.931885
 10
644.426147
 20
633.840698
 10
644.1698
 20
632.736572
 10
643.986145
 20
631.622803
 10
643.875366
 20
630.502441
 10
643.837646
 20
629.361389
  0
LWPOLYLINE
  5
125
330
EB
100
AcDbEntity
  8
0
  6
Continuous
 62
     0
370
    30
100
AcDbPolyline
 90
       38
 70
     0
 43
0.0
 10
665.587646
 20
617.324341
 10
665.92511
 20
617.280884
 10
666.242188
 20
617.16095
 10
666.529846
 20
616.985168
 10
666.788574
 20
616.772034
 10
667.0224
 20
616.533813
 10
667.235352
 20
616.278625
 10
667.430786
 20
616.010986
 10
667.611572
 20
615.734436
 10
667.779907
 20
615.451172
 10
667.937256
 20
615.162476
 10
668.085083
 20
614.869568
 10
668.224426
 20
614.573303
 10
668.356079
 20
614.274231
 10
668.480713
 20
613.972778
 10
668.598877
 20
613.669373
 10
668.711121
 20
613.364319
 10
668.817749
 20
613.057922
 10
668.919067
 20
612.750244
 10
669.015503
 20
612.44165
 10
669.107117
 20
612.13208
 10
669.194092
 20
611.821777
 10
669.276611
 20
611.510803
 10
669.354858
 20
611.19928
 10
669.428894
 20
610.887329
 10
669.498901
 20
610.574951
 10
669.56488
 20
610.262268
 10
669.626892
 20
609.949341
 10
669.684998
 20
609.636169
 10
669.739197
 20
609.322815
 10
669.789612
 20
609.009399
 10
669.836182
 20
608.695862
 10
669.878906
 20
608.382324
 10
669.917847
 20
608.068787
 10
669.95282
 20
607.755371
 10
669.983826
 20
607.442078
 10
670.010925
 20
607.128967
 10
670.034302
 20
606.811096
  0
LWPOLYLINE
  5
126
330
EB
100
AcDbEntity
  8
0
  6
Continuous
 62
     0
370
    30
100
AcDbPolyline
 90
       38
 70
     0
 43
0.0
 10
661.140991
 20
606.811096
 10
661.164001
 20
607.124023
 10
661.19104
 20
607.437134
 10
661.222046
 20
607.750427
 10
661.256958
 20
608.063843
 10
661.295776
 20
608.37738
 10
661.33844
 20
608.690918
 10
661.384949
 20
609.004456
 10
661.435303
 20
609.317932
 10
661.489441
 20
609.631287
 10
661.547485
 20
609.944458
 10
661.609436
 20
610.257446
 10
661.675354
 20
610.570129
 10
661.7453
 20
610.882507
 10
661.819275
 20
611.194519
 10
661.897461
 20
611.506042
 10
661.97998
 20
611.817017
 10
662.066956
 20
612.12738
 10
662.158447
 20
612.43689
 10
662.254761
 20
612.745605
 10
662.356018
 20
613.053284
 10
662.462524
 20
613.359741
 10
662.574646
 20
613.664856
 10
662.692749
 20
613.968262
 10
662.817383
 20
614.269714
 10
662.948914
 20
614.568848
 10
663.088135
 20
614.865234
 10
663.235779
 20
615.158203
 10
663.393066
 20
615.44696
 10
663.561218
 20
615.730347
 10
663.74176
 20
616.00708
 10
663.937012
 20
616.274719
 10
664.149719
 20
616.530273
 10
664.383179
 20
616.768738
 10
664.641602
 20
616.9823
 10
664.928833
 20
617.158752
 10
665.245483
 20
617.279724
 10
665.587646
 20
617.324341
  0
LINE
  5
127
330
EB
100
AcDbEntity
  8
0
  6
Continuous
 62
     0
370
    30
100
AcDbLine
 10
665.587659
 20
595.475943
 30
0.0
 11
665.587659
 21
595.911131
 31
0.0
  0
LINE
  5
128
330
EB
100
AcDbEntity
  8
0
  6
Continuous
 62
     0
370
     0
100
AcDbLine
 10
662.000702
 20
595.911131
 30
0.0
 11
665.587659
 21
595.911131
 31
0.0
  0
LINE
  5
129
330
EB
100
AcDbEntity
  8
0
  6
Continuous
 62
     0
370
     0
100
AcDbLine
 10
665.587659
 20
595.911131
 30
0.0
 11
669.174615
 21
595.911131
 31
0.0
  0
LINE
  5
12A
330
EB
100
AcDbEntity
  8
0
  6
Continuous
 62
     0
370
     0
100
AcDbLine
 10
665.587659
 20
597.076316
 30
0.0
 11
670.087659
 21
597.076316
 31
0.0
  0
LINE
  5
12B
330
EB
100
AcDbEntity
  8
0
  6
Continuous
 62
     0
370
     0
100
AcDbLine
 10
661.087659
 20
597.076316
 30
0.0
 11
665.587659
 21
597.076316
 31
0.0
  0
ARC
  5
12C
330
EB
100
AcDbEntity
  8
0
  6
Continuous
 62
     0
370
    30
100
AcDbCircle
 10
662.29
 20
597.07815
 30
0.0
 40
1.202342452429769
100
AcDbArc
 50
180.087409
 51
256.072195
  0
ARC
  5
12D
330
EB
100
AcDbEntity
  8
0
  6
Continuous
 62
     0
370
    30
100
AcDbCircle
 10
668.885318
 20
597.07815
 30
0.0
 40
1.202342452382662
100
AcDbArc
 50
283.927805
 51
359.912591
  0
LINE
  5
12E
330
EB
100
AcDbEntity
  8
0
  6
Continuous
 62
     0
370
    30
100
AcDbLine
 10
661.087659
 20
606.1228
 30
0.0
 11
661.087659
 21
597.076316
 31
0.0
  0
LINE
  5
12F
330
EB
100
AcDbEntity
  8
0
  6
Continuous
 62
     0
370
    30
100
AcDbLine
 10
670.087659
 20
606.122838
 30
0.0
 11
670.087659
 21
597.076316
 31
0.0
  0
ARC
  5
130
330
EB
100
AcDbEntity
  8
0
  6
Continuous
 62
     0
370
    30
100
AcDbCircle
 10
665.586987
 20
610.481472
 30
0.0
 40
15.00552922044293
100
AcDbArc
 50
270.017741
 51
283.832665
  0
ARC
  5
131
330
EB
100
AcDbEntity
  8
0
  6
Continuous
 62
     0
370
    30
100
AcDbCircle
 10
665.58833
 20
610.481472
 30
0.0
 40
15.00552922511192
100
AcDbArc
 50
256.167335
 51
269.982259
  0
ARC
  5
132
330
EB
100
AcDbEntity
  8
0
  6
Continuous
 62
     0
370
    30
100
AcDbCircle
 10
662.442254
 20
629.133389
 30
0.0
 40
24.8964482856941
100
AcDbArc
 50
310.137483
 51
0.524696
  0
ARC
  5
133
330
EB
100
AcDbEntity
  8
0
  6
Continuous
 62
     0
370
    30
100
AcDbCircle
 10
668.733064
 20
629.133392
 30
0.0
 40
24.89645030222978
100
AcDbArc
 50
179.475309
 51
229.86252
  0
ENDBLK
  5
135
330
EB
100
AcDbEntity
  8
0
100
AcDbBlockEnd
  0
BLOCK
  5
189
330
137
100
AcDbEntity
  8
0
100
AcDbBlockBegin
  2
d
 70
     0
 10
405.216705
 20
191.04628
 30
0.0
  3
d
  1

  0
ELLIPSE
  5
138
330
137
100
AcDbEntity
  8
0
  6
Continuous
 62
     0
370
    30
100
AcDbEllipse
 10
696.334102
 20
393.756095
 30
0.0
 11
37.50000000000243
 21
0.0
 31
0.0
210
0.0
220
0.0
230
-1.0
 40
0.57735
 41
5.497787143782138
 42
8.63937979737193
  0
ELLIPSE
  5
139
330
137
100
AcDbEntity
  8
0
  6
Continuous
 62
     0
370
    30
100
AcDbEllipse
 10
696.334102
 20
393.756095
 30
0.0
 11
37.50000000000243
 21
0.0
 31
0.0
210
0.0
220
0.0
230
-1.0
 40
0.57735
 41
2.356194490192345
 42
5.497787143782138
  0
ELLIPSE
  5
13A
330
137
100
AcDbEntity
  8
0
  6
Continuous
 62
     0
370
    30
100
AcDbEllipse
 10
696.334102
 20
385.591129
 30
0.0
 11
-37.50000000000243
 21
0.0
 31
0.0
210
0.0
220
0.0
230
1.0
 40
0.57735
 41
-0.0000000086396863
 42
0.7853981633974483
  0
ELLIPSE
  5
13B
330
137
100
AcDbEntity
  8
0
  6
Continuous
 62
     0
370
    30
100
AcDbEllipse
 10
696.334102
 20
385.591129
 30
0.0
 11
-37.50000000000243
 21
0.0
 31
0.0
210
0.0
220
0.0
230
1.0
 40
0.57735
 41
0.7853981633974483
 42
3.141592644950107
  0
LINE
  5
13C
330
137
100
AcDbEntity
  8
0
  6
Continuous
 62
     0
370
    30
100
AcDbLine
 10
733.834102
 20
393.756095
 30
0.0
 11
733.834102
 21
385.591129
 31
0.0
  0
LINE
  5
13D
330
137
100
AcDbEntity
  8
0
  6
Continuous
 62
     0
370
    30
100
AcDbLine
 10
658.834102
 20
393.756095
 30
0.0
 11
658.834102
 21
385.59113
 31
0.0
  0
LWPOLYLINE
  5
13E
330
137
100
AcDbEntity
  8
0
  6
Continuous
 62
     0
370
     0
100
AcDbPolyline
 90
       16
 70
     0
 43
0.0
 10
707.921448
 20
305.628845
 10
707.943604
 20
307.722809
 10
708.013245
 20
309.788971
 10
708.137512
 20
311.819427
 10
708.312134
 20
313.816284
 10
708.536804
 20
315.777649
 10
708.813171
 20
317.701202
 10
709.141907
 20
319.584656
 10
709.478088
 20
321.461182
 10
709.785828
 20
323.361176
 10
710.064331
 20
325.282471
 10
710.314331
 20
327.225464
 10
710.535278
 20
329.192047
 10
710.725098
 20
331.172913
 10
710.889099
 20
333.183594
 10
711.026733
 20
335.311646
  0
LWPOLYLINE
  5
13F
330
137
100
AcDbEntity
  8
0
  6
Continuous
 62
     0
370
     0
100
AcDbPolyline
 90
       15
 70
     0
 43
0.0
 10
711.026733
 20
335.311646
 10
710.112244
 20
333.840149
 10
709.148132
 20
332.361633
 10
708.131714
 20
330.907043
 10
707.065186
 20
329.466125
 10
705.949524
 20
328.036591
 10
704.784668
 20
326.623199
 10
703.572021
 20
325.225891
 10
702.311523
 20
323.845184
 10
701.0047
 20
322.482086
 10
699.653564
 20
321.137146
 10
698.2547
 20
319.812897
 10
696.811768
 20
318.509033
 10
695.333679
 20
317.220947
 10
693.735413
 20
315.907318
  0
LWPOLYLINE
  5
140
330
137
100
AcDbEntity
  8
0
  6
Continuous
 62
     0
370
     0
100
AcDbPolyline
 90
       16
 70
     0
 43
0.0
 10
693.735413
 20
315.907318
 10
693.807556
 20
315.180542
 10
693.881653
 20
314.458435
 10
693.953003
 20
313.740692
 10
693.988464
 20
313.046265
 10
693.96637
 20
312.391479
 10
693.890991
 20
311.77774
 10
693.778625
 20
311.195831
 10
693.640747
 20
310.637451
 10
693.477478
 20
310.102448
 10
693.283203
 20
309.597015
 10
693.053162
 20
309.127716
 10
692.786621
 20
308.697205
 10
692.485779
 20
308.30484
 10
692.153381
 20
307.949066
 10
691.777771
 20
307.618164
  0
LINE
  5
141
330
137
100
AcDbEntity
  8
0
  6
Continuous
 62
     0
370
     0
100
AcDbLine
 10
691.933006
 20
307.731828
 30
0.0
 11
691.940922
 21
305.628077
 31
0.0
  0
LWPOLYLINE
  5
142
330
137
100
AcDbEntity
  8
0
  6
Continuous
 62
     0
370
     0
100
AcDbPolyline
 90
       20
 70
     0
 43
0.0
 10
691.940918
 20
305.628082
 10
692.608337
 20
305.291412
 10
693.31897
 20
304.944336
 10
694.090637
 20
304.620667
 10
694.918213
 20
304.342407
 10
695.783936
 20
304.118652
 10
696.674744
 20
303.947144
 10
697.582947
 20
303.823425
 10
698.504272
 20
303.743622
 10
699.434998
 20
303.704437
 10
700.369812
 20
303.704315
 10
701.303162
 20
303.743988
 10
702.228699
 20
303.8255
 10
703.137817
 20
303.950806
 10
704.021423
 20
304.121704
 10
704.872375
 20
304.33847
 10
705.686523
 20
304.599548
 10
706.461792
 20
304.903046
 10
707.197327
 20
305.243469
 10
707.921387
 20
305.628723
  0
LINE
  5
143
330
137
100
AcDbEntity
  8
0
  6
Continuous
 62
     0
370
     0
100
AcDbLine
 10
691.940895
 20
305.628092
 30
0.0
 11
690.507577
 21
306.597282
 31
0.0
  0
LWPOLYLINE
  5
144
330
137
100
AcDbEntity
  8
0
  6
Continuous
 62
     0
370
    30
100
AcDbPolyline
 90
       12
 70
     0
 43
0.0
 10
691.93866
 20
297.642944
 10
691.406128
 20
297.994354
 10
690.923096
 20
298.369049
 10
690.486816
 20
298.761993
 10
690.103699
 20
299.173248
 10
689.77594
 20
299.600159
 10
689.50177
 20
300.039368
 10
689.276794
 20
300.487793
 10
689.10022
 20
300.94342
 10
688.973572
 20
301.404602
 10
688.89917
 20
301.869507
 10
688.88031
 20
302.370911
  0
LINE
  5
145
330
137
100
AcDbEntity
  8
0
  6
Continuous
 62
     0
370
     0
100
AcDbLine
 10
691.940868
 20
305.628108
 30
0.0
 11
691.938649
 21
297.642954
 31
0.0
  0
LINE
  5
146
330
137
100
AcDbEntity
  8
0
  6
Continuous
 62
     0
370
     0
100
AcDbLine
 10
707.920912
 20
297.644545
 30
0.0
 11
707.921452
 21
305.628758
 31
0.0
  0
LWPOLYLINE
  5
147
330
137
100
AcDbEntity
  8
0
  6
Continuous
 62
     0
370
    30
100
AcDbPolyline
 90
       11
 70
     0
 43
0.0
 10
711.26001
 20
302.242523
 10
711.230286
 20
301.733551
 10
711.132446
 20
301.227386
 10
710.966858
 20
300.727142
 10
710.734253
 20
300.235901
 10
710.435425
 20
299.756897
 10
710.070679
 20
299.293304
 10
709.640198
 20
298.848389
 10
709.14447
 20
298.42572
 10
708.585754
 20
298.030548
 10
707.920898
 20
297.644531
  0
ARC
  5
148
330
137
100
AcDbEntity
  8
0
  6
Continuous
 62
     0
370
     0
100
AcDbCircle
 10
705.612166
 20
310.776763
 30
0.0
 40
5.642149894344122
100
AcDbArc
 50
294.160369
 51
354.772011
  0
ARC
  5
149
330
137
100
AcDbEntity
  8
0
  6
Continuous
 62
     0
370
     0
100
AcDbCircle
 10
703.02648
 20
340.928515
 30
0.0
 40
9.775148688343629
100
AcDbArc
 50
324.927809
 51
354.860099
  0
ARC
  5
14A
330
137
100
AcDbEntity
  8
0
  6
Continuous
 62
     0
370
     0
100
AcDbCircle
 10
706.28561
 20
366.929224
 30
0.0
 40
6.57882837719208
100
AcDbArc
 50
315.188181
 51
353.146748
  0
LWPOLYLINE
  5
14B
330
137
100
AcDbEntity
  8
0
  6
Continuous
 62
     0
370
     0
100
AcDbPolyline
 90
       10
 70
     0
 43
0.0
 10
711.026733
 20
335.311646
 10
711.161987
 20
338.2211
 10
711.236084
 20
341.165497
 10
711.249878
 20
344.14621
 10
711.205627
 20
347.162201
 10
711.113159
 20
350.206818
 10
711.017883
 20
353.254791
 10
710.966187
 20
356.283386
 10
710.953735
 20
359.286316
 10
710.95282
 20
362.292603
  0
LWPOLYLINE
  5
14C
330
137
100
AcDbEntity
  8
0
  6
Continuous
 62
     0
370
    30
100
AcDbPolyline
 90
       19
 70
     0
 43
0.0
 10
691.93866
 20
297.642944
 10
692.64624
 20
297.252625
 10
693.413879
 20
296.899536
 10
694.241333
 20
296.595367
 10
695.120667
 20
296.34491
 10
696.037903
 20
296.144775
 10
696.979919
 20
295.991364
 10
697.940063
 20
295.883148
 10
698.912598
 20
295.820892
 10
699.890747
 20
295.806366
 10
700.867432
 20
295.840271
 10
701.835754
 20
295.921387
 10
702.789612
 20
296.046936
 10
703.723999
 20
296.214844
 10
704.634033
 20
296.424347
 10
705.513489
 20
296.673798
 10
706.356018
 20
296.961273
 10
707.158752
 20
297.284241
 10
707.921692
 20
297.644043
  0
LINE
  5
14D
330
137
100
AcDbEntity
  8
0
  6
Continuous
 62
     0
370
     0
100
AcDbLine
 10
693.735388
 20
315.907314
 30
0.0
 11
679.652599
 21
304.89474
 31
0.0
  0
LWPOLYLINE
  5
14E
330
137
100
AcDbEntity
  8
0
  6
Continuous
 62
     0
370
    30
100
AcDbPolyline
 90
       15
 70
     0
 43
0.0
 10
679.652588
 20
304.894745
 10
679.763062
 20
304.012024
 10
679.837158
 20
303.152496
 10
679.868408
 20
302.322449
 10
679.848083
 20
301.529999
 10
679.773621
 20
300.779694
 10
679.648132
 20
300.07196
 10
679.474731
 20
299.407043
 10
679.253784
 20
298.786987
 10
678.985168
 20
298.214233
 10
678.669678
 20
297.690918
 10
678.308167
 20
297.218903
 10
677.901428
 20
296.799408
 10
677.450562
 20
296.433441
 10
676.921326
 20
296.102234
  0
LWPOLYLINE
  5
14F
330
137
100
AcDbEntity
  8
0
  6
Continuous
 62
     0
370
     0
100
AcDbPolyline
 90
       26
 70
     0
 43
0.0
 10
693.735413
 20
315.907318
 10
693.592285
 20
316.806274
 10
693.383789
 20
317.740967
 10
693.116394
 20
318.704712
 10
692.795349
 20
319.691925
 10
692.424561
 20
320.697601
 10
692.007263
 20
321.717377
 10
691.546082
 20
322.747162
 10
691.043091
 20
323.783295
 10
690.500366
 20
324.822235
 10
689.919739
 20
325.860535
 10
689.302979
 20
326.894928
 10
688.652039
 20
327.92218
 10
687.96875
 20
328.939087
 10
687.255188
 20
329.942505
 10
686.513428
 20
330.929291
 10
685.745789
 20
331.896393
 10
684.954529
 20
332.84079
 10
684.142212
 20
333.759491
 10
683.311279
 20
334.649567
 10
682.464355
 20
335.50824
 10
681.604187
 20
336.332733
 10
680.733459
 20
337.120453
 10
679.85498
 20
337.868835
 10
678.971619
 20
338.575562
 10
678.066711
 20
339.252258
  0
LINE
  5
150
330
137
100
AcDbEntity
  8
0
  6
Continuous
 62
     0
370
     0
100
AcDbLine
 10
678.066726
 20
339.252254
 30
0.0
 11
675.616264
 21
340.844409
 31
0.0
  0
LINE
  5
151
330
137
100
AcDbEntity
  8
0
  6
Continuous
 62
     0
370
     0
100
AcDbLine
 10
675.616264
 20
340.844409
 30
0.0
 11
661.519403
 21
329.835397
 31
0.0
  0
LWPOLYLINE
  5
152
330
137
100
AcDbEntity
  8
0
  6
Continuous
 62
     0
370
    30
100
AcDbPolyline
 90
       26
 70
     0
 43
0.0
 10
661.519409
 20
329.835388
 10
662.494629
 20
329.244019
 10
663.478333
 20
328.590759
 10
664.466064
 20
327.878571
 10
665.452698
 20
327.111145
 10
666.433777
 20
326.291962
 10
667.405762
 20
325.424164
 10
668.365295
 20
324.510834
 10
669.308899
 20
323.555206
 10
670.232849
 20
322.561066
 10
671.133545
 20
321.532288
 10
672.007263
 20
320.47287
 10
672.850403
 20
319.386902
 10
673.659729
 20
318.278595
 10
674.431946
 20
317.152313
 10
675.163757
 20
316.012329
 10
675.852295
 20
314.863281
 10
676.494629
 20
313.7099
 10
677.087952
 20
312.556976
 10
677.629517
 20
311.409149
 10
678.116943
 20
310.270844
 10
678.547852
 20
309.146484
 10
678.9198
 20
308.040558
 10
679.22998
 20
306.959106
 10
679.475159
 20
305.909515
 10
679.65271
 20
304.894684
  0
LWPOLYLINE
  5
153
330
137
100
AcDbEntity
  8
0
  6
Continuous
 62
     0
370
    30
100
AcDbPolyline
 90
       25
 70
     0
 43
0.0
 10
661.519348
 20
329.835419
 10
660.604187
 20
330.338348
 10
659.700378
 20
330.783417
 10
658.811279
 20
331.169037
 10
657.941162
 20
331.493408
 10
657.093689
 20
331.755035
 10
656.271667
 20
331.953308
 10
655.477539
 20
332.087738
 10
654.713989
 20
332.157745
 10
653.983582
 20
332.163177
 10
653.288818
 20
332.104034
 10
652.632385
 20
331.980377
 10
652.016724
 20
331.792297
 10
651.444153
 20
331.540405
 10
650.916626
 20
331.225555
 10
650.436218
 20
330.848663
 10
650.004883
 20
330.410736
 10
649.624084
 20
329.913422
 10
649.29541
 20
329.358521
 10
649.020142
 20
328.747894
 10
648.799683
 20
328.083435
 10
648.635193
 20
327.367035
 10
648.527588
 20
326.600677
 10
648.478027
 20
325.786407
 10
648.487976
 20
324.918427
  0
LINE
  5
154
330
137
100
AcDbEntity
  8
0
  6
Continuous
 62
     0
370
     0
100
AcDbLine
 10
673.202077
 20
342.056551
 30
0.0
 11
675.616205
 21
340.844443
 31
0.0
  0
LWPOLYLINE
  5
155
330
137
100
AcDbEntity
  8
0
  6
Continuous
 62
     0
370
     0
100
AcDbPolyline
 90
       13
 70
     0
 43
0.0
 10
664.944092
 20
342.124054
 10
665.435486
 20
342.4422
 10
665.968262
 20
342.7034
 10
666.54071
 20
342.906708
 10
667.151184
 20
343.051422
 10
667.797668
 20
343.137024
 10
668.47821
 20
343.163177
 10
669.190552
 20
343.129791
 10
669.932434
 20
343.036987
 10
670.701538
 20
342.88501
 10
671.495239
 20
342.674377
 10
672.311096
 20
342.405762
 10
673.202087
 20
342.056549
  0
LINE
  5
156
330
137
100
AcDbEntity
  8
0
  6
Continuous
 62
     0
370
     0
100
AcDbLine
 10
684.728428
 20
359.878559
 30
0.0
 11
687.395279
 21
358.625518
 31
0.0
  0
LWPOLYLINE
  5
157
330
137
100
AcDbEntity
  8
0
  6
Continuous
 62
     0
370
     0
100
AcDbPolyline
 90
       25
 70
     0
 43
0.0
 10
687.395264
 20
358.625519
 10
688.375793
 20
358.2883
 10
689.397522
 20
357.987976
 10
690.451721
 20
357.727722
 10
691.533569
 20
357.511383
 10
692.638855
 20
357.340607
 10
693.762207
 20
357.215271
 10
694.898071
 20
357.13501
 10
696.040894
 20
357.100067
 10
697.185059
 20
357.111023
 10
698.325134
 20
357.168182
 10
699.455444
 20
357.271423
 10
700.570557
 20
357.420105
 10
701.664978
 20
357.613373
 10
702.733337
 20
357.85025
 10
703.770386
 20
358.129669
 10
704.771118
 20
358.450256
 10
705.730713
 20
358.810333
 10
706.644409
 20
359.207977
 10
707.507751
 20
359.641205
 10
708.31665
 20
360.108337
 10
709.066833
 20
360.607971
 10
709.755676
 20
361.13736
 10
710.378906
 20
361.692291
 10
710.95282
 20
362.292603
  0
LINE
  5
158
330
137
100
AcDbEntity
  8
0
  6
Continuous
 62
     0
370
     0
100
AcDbLine
 10
710.952794
 20
362.29259
 30
0.0
 11
710.952793
 21
365.65336
 31
0.0
  0
LINE
  5
159
330
137
100
AcDbEntity
  8
0
  6
Continuous
 62
     0
370
     0
100
AcDbLine
 10
684.728428
 20
365.003444
 30
0.0
 11
684.728428
 21
359.878559
 31
0.0
  0
ARC
  5
15A
330
137
100
AcDbEntity
  8
0
  6
Continuous
 62
     0
370
     0
100
AcDbCircle
 10
687.061603
 20
367.021349
 30
0.0
 40
7.186931813630697
100
AcDbArc
 50
187.192417
 51
230.972177
  0
LINE
  5
15B
330
137
100
AcDbEntity
  8
0
  6
Continuous
 62
     0
370
     0
100
AcDbLine
 10
684.728355
 20
359.878601
 30
0.0
 11
682.536009
 21
361.438251
 31
0.0
  0
LWPOLYLINE
  5
15C
330
137
100
AcDbEntity
  8
0
  6
Continuous
 62
     0
370
    30
100
AcDbPolyline
 90
       25
 70
     0
 43
0.0
 10
687.395081
 20
358.614441
 10
687.386353
 20
357.757111
 10
687.344482
 20
356.881683
 10
687.313843
 20
356.012299
 10
687.29248
 20
355.14798
 10
687.274902
 20
354.285522
 10
687.257507
 20
353.422729
 10
687.208801
 20
352.544067
 10
687.097534
 20
351.636505
 10
686.914368
 20
350.704224
 10
686.657166
 20
349.755829
 10
686.328369
 20
348.801819
 10
685.931152
 20
347.852997
 10
685.469421
 20
346.920288
 10
684.948914
 20
346.014038
 10
684.375793
 20
345.144562
 10
683.756104
 20
344.321869
 10
683.096924
 20
343.555603
 10
682.406494
 20
342.853546
 10
681.694641
 20
342.214569
 10
680.971558
 20
341.625
 10
680.246765
 20
341.043762
 10
679.526855
 20
340.440277
 10
678.806335
 20
339.838226
 10
678.066711
 20
339.252258
  0
LWPOLYLINE
  5
15D
330
137
100
AcDbEntity
  8
0
  6
Continuous
 62
     0
370
    30
100
AcDbPolyline
 90
       25
 70
     0
 43
0.0
 10
682.535767
 20
361.428314
 10
682.526855
 20
360.570587
 10
682.48468
 20
359.694977
 10
682.453857
 20
358.825348
 10
682.43219
 20
357.960388
 10
682.413879
 20
357.097595
 10
682.395447
 20
356.234467
 10
682.346069
 20
355.355225
 10
682.234436
 20
354.447235
 10
682.051025
 20
353.514648
 10
681.79364
 20
352.56604
 10
681.464722
 20
351.611847
 10
681.067444
 20
350.662872
 10
680.605591
 20
349.730011
 10
680.084961
 20
348.823639
 10
679.511902
 20
347.953857
 10
678.892334
 20
347.130859
 10
678.233215
 20
346.364166
 10
677.542847
 20
345.66153
 10
676.830933
 20
345.021912
 10
676.108032
 20
344.431488
 10
675.383362
 20
343.849609
 10
674.662964
 20
343.246033
 10
673.942505
 20
342.643372
 10
673.202087
 20
342.056549
  0
LWPOLYLINE
  5
15E
330
137
100
AcDbEntity
  8
0
  6
Continuous
 62
     0
370
    30
100
AcDbPolyline
 90
       30
 70
     0
 43
0.0
 10
664.944275
 20
342.124298
 10
665.78302
 20
342.741058
 10
666.60199
 20
343.349152
 10
667.414307
 20
343.96933
 10
668.231506
 20
344.620575
 10
669.053833
 20
345.309448
 10
669.87677
 20
346.037231
 10
670.694946
 20
346.80304
 10
671.501465
 20
347.602692
 10
672.289429
 20
348.43158
 10
673.052124
 20
349.285309
 10
673.784973
 20
350.16095
 10
674.48468
 20
351.056519
 10
675.147888
 20
351.969971
 10
675.771545
 20
352.899078
 10
676.353821
 20
353.840332
 10
676.89325
 20
354.789795
 10
677.38855
 20
355.743347
 10
677.838257
 20
356.697052
 10
678.24115
 20
357.64682
 10
678.595764
 20
358.588684
 10
678.902588
 20
359.518982
 10
679.164795
 20
360.434418
 10
679.383911
 20
361.326965
 10
679.56012
 20
362.185028
 10
679.696899
 20
363.009399
 10
679.796631
 20
363.800293
 10
679.859497
 20
364.551971
 10
679.89386
 20
365.299744
 10
679.912598
 20
366.12677
  0
LINE
  5
15F
330
137
100
AcDbEntity
  8
0
  6
Continuous
 62
     0
370
    30
100
AcDbLine
 10
664.944085
 20
342.124058
 30
0.0
 11
650.648885
 21
331.027822
 31
0.0
  0
LINE
  5
160
330
137
100
AcDbEntity
  8
0
  6
Continuous
 62
     0
370
    30
100
AcDbLine
 10
691.779057
 20
307.616501
 30
0.0
 11
677.590236
 21
296.537211
 31
0.0
  0
LWPOLYLINE
  5
161
330
137
100
AcDbEntity
  8
0
  6
Continuous
 62
     0
370
    30
100
AcDbPolyline
 90
       22
 70
     0
 43
0.0
 10
712.84375
 20
366.151642
 10
712.866882
 20
364.965515
 10
712.89093
 20
363.729889
 10
712.914062
 20
362.495575
 10
712.937927
 20
361.266937
 10
712.963257
 20
360.038696
 10
712.990173
 20
358.805725
 10
713.01886
 20
357.562958
 10
713.049194
 20
356.305786
 10
713.079102
 20
355.035004
 10
713.105408
 20
353.754852
 10
713.124817
 20
352.469635
 10
713.134155
 20
351.183716
 10
713.132263
 20
349.902252
 10
713.118896
 20
348.630768
 10
713.094116
 20
347.372864
 10
713.058838
 20
346.127197
 10
713.014099
 20
344.891724
 10
712.960876
 20
343.669525
 10
712.900696
 20
342.466644
 10
712.835754
 20
341.283203
 10
712.762329
 20
340.052765
  0
LWPOLYLINE
  5
162
330
137
100
AcDbEntity
  8
0
  6
Continuous
 62
     0
370
    30
100
AcDbPolyline
 90
       36
 70
     0
 43
0.0
 10
712.762146
 20
340.050415
 10
712.69928
 20
339.111938
 10
712.630737
 20
338.194031
 10
712.557922
 20
337.288483
 10
712.482483
 20
336.395782
 10
712.405518
 20
335.518005
 10
712.326233
 20
334.649353
 10
712.243469
 20
333.783142
 10
712.158081
 20
332.924469
 10
712.071655
 20
332.082092
 10
711.984802
 20
331.256897
 10
711.897522
 20
330.446014
 10
711.810608
 20
329.648804
 10
711.725098
 20
328.866028
 10
711.64209
 20
328.09848
 10
711.562561
 20
327.346497
 10
711.485901
 20
326.601776
 10
711.409851
 20
325.848511
 10
711.334839
 20
325.089935
 10
711.264038
 20
324.351379
 10
711.200439
 20
323.638947
 10
711.146484
 20
322.931366
 10
711.10321
 20
322.200897
 10
711.069702
 20
321.426605
 10
711.045715
 20
320.612518
 10
711.030884
 20
319.764893
 10
711.024414
 20
318.889557
 10
711.02533
 20
317.992218
 10
711.032776
 20
317.077881
 10
711.046265
 20
316.150055
 10
711.065125
 20
315.210938
 10
711.089172
 20
314.260071
 10
711.118103
 20
313.298737
 10
711.152344
 20
312.336823
 10
711.192871
 20
311.372986
 10
711.230835
 20
310.262665
  0
LINE
  5
163
330
137
100
AcDbEntity
  8
0
  6
Continuous
 62
     0
370
    30
100
AcDbLine
 10
711.230844
 20
310.262651
 30
0.0
 11
711.260149
 21
302.200963
 31
0.0
  0
LINE
  5
164
330
137
100
AcDbEntity
  8
0
  6
Continuous
 62
     0
370
    30
100
AcDbLine
 10
688.880322
 20
302.37092
 30
0.0
 11
688.895016
 21
305.319919
 31
0.0
  0
LWPOLYLINE
  5
165
330
137
100
AcDbEntity
  8
0
  6
Continuous
 62
     0
370
    30
100
AcDbPolyline
 90
       18
 70
     0
 43
0.0
 10
691.658691
 20
307.526398
 10
692.181641
 20
307.918701
 10
692.692261
 20
308.304199
 10
693.189758
 20
308.681061
 10
693.673279
 20
309.047455
 10
694.142029
 20
309.401611
 10
694.595093
 20
309.741669
 10
695.031677
 20
310.065826
 10
695.450928
 20
310.372253
 10
695.850098
 20
310.658234
 10
696.224182
 20
310.920258
 10
696.568298
 20
311.154572
 10
696.877319
 20
311.357574
 10
697.145935
 20
311.525909
 10
697.367126
 20
311.657715
 10
697.533203
 20
311.751526
 10
697.63678
 20
311.805939
 10
697.672424
 20
311.822601
  0
ELLIPSE
  5
166
330
137
100
AcDbEntity
  8
0
  6
Continuous
 62
     0
370
     0
100
AcDbEllipse
 10
699.933459
 20
281.030457
 30
0.0
 11
11.0
 21
-6.106226635438361E-16
 31
0.0
210
0.0
220
0.0
230
-1.0
 40
0.57735
 41
0.7987337206678746
 42
3.141592662229479
  0
ELLIPSE
  5
167
330
137
100
AcDbEntity
  8
0
  6
Continuous
 62
     0
370
     0
100
AcDbEllipse
 10
699.933459
 20
281.030457
 30
0.0
 11
11.0
 21
-6.106226635438361E-16
 31
0.0
210
0.0
220
0.0
230
-1.0
 40
0.57735
 41
0.0000000086396102
 42
0.7987337206678746
  0
ELLIPSE
  5
168
330
137
100
AcDbEntity
  8
0
  6
Continuous
 62
     0
370
    30
100
AcDbEllipse
 10
699.933459
 20
302.25937
 30
0.0
 11
-11.0
 21
6.106226635438361E-16
 31
0.0
210
0.0
220
0.0
230
1.0
 40
0.57735
 41
6.265878594018341
 42
6.321635520508639
  0
ELLIPSE
  5
169
330
137
100
AcDbEntity
  8
0
  6
Continuous
 62
     0
370
     0
100
AcDbEllipse
 10
735.779673
 20
240.618134
 30
0.0
 11
1.113209660918937
 21
-10.94352613424196
 31
0.0
210
0.0
220
0.0
230
1.0
 40
0.744403
 41
0.0000000392351476
 42
1.067710242976581
  0
ELLIPSE
  5
16A
330
137
100
AcDbEntity
  8
0
  6
Continuous
 62
     0
370
     0
100
AcDbEllipse
 10
735.779673
 20
240.618134
 30
0.0
 11
1.113209660918937
 21
-10.94352613424196
 31
0.0
210
0.0
220
0.0
230
1.0
 40
0.744403
 41
1.067710242976581
 42
3.141594150357629
  0
ELLIPSE
  5
16B
330
137
100
AcDbEntity
  8
0
  6
Continuous
 62
     0
370
    30
100
AcDbEllipse
 10
745.079907
 20
241.564183
 30
0.0
 11
-1.113209660918937
 21
10.94352613424196
 31
0.0
210
0.0
220
0.0
230
-1.0
 40
0.744403
 41
2.073882410613213
 42
3.141592614354646
  0
ELLIPSE
  5
16C
330
137
100
AcDbEntity
  8
0
  6
Continuous
 62
     0
370
    30
100
AcDbEllipse
 10
745.079907
 20
241.564183
 30
0.0
 11
-1.113209660918937
 21
10.94352613424196
 31
0.0
210
0.0
220
0.0
230
-1.0
 40
0.744403
 41
-0.0000000392351476
 42
2.073882410613213
  0
LINE
  5
16D
330
137
100
AcDbEntity
  8
0
  6
Continuous
 62
     0
370
    30
100
AcDbLine
 10
746.193117
 20
230.620657
 30
0.0
 11
736.892883
 21
229.674608
 31
0.0
  0
LINE
  5
16E
330
137
100
AcDbEntity
  8
0
  6
Continuous
 62
     0
370
    30
100
AcDbLine
 10
743.966697
 20
252.507709
 30
0.0
 11
734.666463
 21
251.56166
 31
0.0
  0
LWPOLYLINE
  5
16F
330
137
100
AcDbEntity
  8
0
  6
Continuous
 62
     0
370
    30
100
AcDbPolyline
 90
       36
 70
     0
 43
0.0
 10
710.933472
 20
281.030457
 10
710.960388
 20
279.198303
 10
711.040771
 20
277.41214
 10
711.173767
 20
275.675476
 10
711.358459
 20
273.991608
 10
711.593262
 20
272.363037
 10
711.87616
 20
270.791962
 10
712.2052
 20
269.280518
 10
712.578491
 20
267.830933
 10
712.99408
 20
266.445374
 10
713.449951
 20
265.125977
 10
713.943848
 20
263.873993
 10
714.472961
 20
262.689758
 10
715.034607
 20
261.573578
 10
715.626038
 20
260.525726
 10
716.244812
 20
259.545898
 10
716.889221
 20
258.632294
 10
717.5578
 20
257.782928
 10
718.24884
 20
256.99588
 10
718.961243
 20
256.269012
 10
719.695496
 20
255.599854
 10
720.452759
 20
254.985687
 10
721.234375
 20
254.423828
 10
722.041565
 20
253.911652
 10
722.876831
 20
253.447372
 10
723.743347
 20
253.029755
 10
724.644531
 20
252.657623
 10
725.582886
 20
252.331207
 10
726.56073
 20
252.051941
 10
727.580139
 20
251.821381
 10
728.643311
 20
251.641022
 10
729.75238
 20
251.51239
 10
730.908142
 20
251.437454
 10
732.109741
 20
251.418655
 10
733.356079
 20
251.458527
 10
734.666443
 20
251.561661
  0
LWPOLYLINE
  5
170
330
137
100
AcDbEntity
  8
0
  6
Continuous
 62
     0
370
    30
100
AcDbPolyline
 90
       45
 70
     0
 43
0.0
 10
688.933472
 20
281.030457
 10
688.958923
 20
278.957977
 10
689.035522
 20
276.906525
 10
689.163635
 20
274.877472
 10
689.343506
 20
272.872284
 10
689.5755
 20
270.892395
 10
689.859924
 20
268.939148
 10
690.197144
 20
267.013885
 10
690.587402
 20
265.117737
 10
691.031189
 20
263.252014
 10
691.528687
 20
261.417877
 10
692.080322
 20
259.616577
 10
692.68634
 20
257.849335
 10
693.347107
 20
256.117615
 10
694.062744
 20
254.42305
 10
694.833435
 20
252.76738
 10
695.659302
 20
251.152298
 10
696.540466
 20
249.579498
 10
697.477051
 20
248.050781
 10
698.468567
 20
246.568222
 10
699.514404
 20
245.133987
 10
700.614075
 20
243.750244
 10
701.766968
 20
242.419159
 10
702.972534
 20
241.142899
 10
704.229431
 20
239.923569
 10
705.536011
 20
238.763245
 10
706.890442
 20
237.663986
 10
708.290955
 20
236.627869
 10
709.735779
 20
235.656952
 10
711.2229
 20
234.753082
 10
712.749756
 20
233.917404
 10
714.31366
 20
233.15097
 10
715.911926
 20
232.454849
 10
717.54187
 20
231.830063
 10
719.200867
 20
231.277573
 10
720.886536
 20
230.797485
 10
722.596497
 20
230.389465
 10
724.328552
 20
230.053223
 10
726.080261
 20
229.788437
 10
727.849487
 20
229.594772
 10
729.63385
 20
229.471939
 10
731.431213
 20
229.419388
 10
733.239807
 20
229.436172
 10
735.057861
 20
229.521255
 10
736.892883
 20
229.674606
  0
LINE
  5
171
330
137
100
AcDbEntity
  8
0
  6
Continuous
 62
     0
370
    30
100
AcDbLine
 10
688.933459
 20
281.030457
 30
0.0
 11
688.933459
 21
302.259371
 31
0.0
  0
LINE
  5
172
330
137
100
AcDbEntity
  8
0
  6
Continuous
 62
     0
370
    30
100
AcDbLine
 10
710.933459
 20
281.030457
 30
0.0
 11
710.933459
 21
300.646247
 31
0.0
  0
ELLIPSE
  5
173
330
137
100
AcDbEntity
  8
0
  6
Continuous
 62
     0
370
    30
100
AcDbEllipse
 10
664.086633
 20
313.945143
 30
0.0
 11
11.84836952278724
 21
-15.17163931984565
 31
0.0
210
0.0
220
0.0
230
1.0
 40
0.468323
 41
0.4956410536198055
 42
1.049088364421284
  0
ELLIPSE
  5
174
330
137
100
AcDbEntity
  8
0
  6
Continuous
 62
     0
370
    30
100
AcDbEllipse
 10
664.086633
 20
313.945143
 30
0.0
 11
11.84836952278724
 21
-15.17163931984565
 31
0.0
210
0.0
220
0.0
230
1.0
 40
0.468323
 41
1.049088364421284
 42
3.165155897260961
  0
ARC
  5
175
330
137
100
AcDbEntity
  8
0
  6
Continuous
 62
     0
370
    30
100
AcDbCircle
 10
665.310484
 20
313.686335
 30
0.0
 40
20.22752931018868
100
AcDbArc
 50
130.871808
 51
146.843056
  0
ELLIPSE
  5
176
330
137
100
AcDbEntity
  8
0
  6
Continuous
 62
     0
370
    30
100
AcDbEllipse
 10
662.48746
 20
312.118704
 30
0.0
 11
-13.38711869894693
 21
17.14198217652514
 31
0.0
210
0.0
220
0.0
230
-1.0
 40
0.468323
 41
2.429474738214101
 42
3.141599282550009
  0
ELLIPSE
  5
177
330
137
100
AcDbEntity
  8
0
  6
Continuous
 62
     0
370
     0
100
AcDbEllipse
 10
645.974666
 20
299.222953
 30
0.0
 11
-11.84091573984413
 21
15.16209508040821
 31
0.0
210
0.0
220
0.0
230
-1.0
 40
0.468323
 41
4.296570982051648
 42
10.05020102858676
  0
ARC
  5
178
330
137
100
AcDbEntity
  8
0
  6
Continuous
 62
     0
370
    30
100
AcDbCircle
 10
651.909111
 20
283.927692
 30
0.0
 40
0.5489316672626521
100
AcDbArc
 50
206.31171
 51
299.010313
  0
ELLIPSE
  5
179
330
137
100
AcDbEntity
  8
0
  6
Continuous
 62
     0
370
     0
100
AcDbEllipse
 10
646.732921
 20
299.815116
 30
0.0
 11
-12.4461889809873
 21
15.93713736881491
 31
0.0
210
0.0
220
0.0
230
-1.0
 40
0.468323
 41
6.20875222877909
 42
9.507110556676253
  0
LWPOLYLINE
  5
17A
330
137
100
AcDbEntity
  8
0
  6
Continuous
 62
     0
370
    30
100
AcDbPolyline
 90
       42
 70
     0
 43
0.0
 10
677.867004
 20
303.239319
 10
677.298218
 20
303.83667
 10
676.681519
 20
304.460999
 10
676.018372
 20
305.110657
 10
675.310486
 20
305.783936
 10
674.559692
 20
306.479034
 10
673.767761
 20
307.194183
 10
672.936646
 20
307.92749
 10
672.068298
 20
308.677063
 10
671.164978
 20
309.440796
 10
670.229065
 20
310.216492
 10
669.262939
 20
311.002014
 10
668.269165
 20
311.794983
 10
667.250854
 20
312.592804
 10
666.211182
 20
313.392792
 10
665.15332
 20
314.192291
 10
664.080566
 20
314.988556
 10
662.996704
 20
315.778534
 10
661.905884
 20
316.559082
 10
660.812134
 20
317.327026
 10
659.719788
 20
318.079163
 10
658.633362
 20
318.812164
 10
657.557556
 20
319.522705
 10
656.49707
 20
320.207581
 10
655.456726
 20
320.863525
 10
654.441162
 20
321.487457
 10
653.455017
 20
322.076508
 10
652.502869
 20
322.627899
 10
651.58905
 20
323.139069
 10
650.717407
 20
323.607971
 10
649.891785
 20
324.032562
 10
649.115723
 20
324.411194
 10
648.391907
 20
324.742676
 10
647.723022
 20
325.026031
 10
647.111511
 20
325.260437
 10
646.558899
 20
325.445679
 10
646.066528
 20
325.581787
 10
645.635742
 20
325.668732
 10
645.267212
 20
325.706848
 10
644.961243
 20
325.696838
 10
644.718018
 20
325.639465
 10
644.536804
 20
325.534882
  0
LWPOLYLINE
  5
17B
330
137
100
AcDbEntity
  8
0
  6
Continuous
 62
     0
370
    30
100
AcDbPolyline
 90
       28
 70
     0
 43
0.0
 10
645.580017
 20
292.528961
 10
645.920471
 20
292.286163
 10
646.255737
 20
291.971924
 10
646.569275
 20
291.625488
 10
646.860901
 20
291.266754
 10
647.134033
 20
290.904297
 10
647.392334
 20
290.541901
 10
647.638672
 20
290.181274
 10
647.875
 20
289.823212
 10
648.102966
 20
289.468201
 10
648.323853
 20
289.116425
 10
648.538452
 20
288.768005
 10
648.747559
 20
288.423035
 10
648.951721
 20
288.081573
 10
649.151367
 20
287.743561
 10
649.346802
 20
287.409119
 10
649.538269
 20
287.078247
 10
649.726074
 20
286.750977
 10
649.910278
 20
286.427338
 10
650.091064
 20
286.107361
 10
650.268433
 20
285.791107
 10
650.442505
 20
285.478607
 10
650.61322
 20
285.169891
 10
650.780762
 20
284.865021
 10
650.944885
 20
284.564148
 10
651.10553
 20
284.267365
 10
651.262573
 20
283.974823
 10
651.417114
 20
283.684357
  0
LWPOLYLINE
  5
17C
330
137
100
AcDbEntity
  8
0
  6
Continuous
 62
     0
370
    30
100
AcDbPolyline
 90
       17
 70
     0
 43
0.0
 10
644.261963
 20
290.997131
 10
644.264709
 20
291.164337
 10
644.273071
 20
291.32843
 10
644.287598
 20
291.489044
 10
644.308594
 20
291.645721
 10
644.33667
 20
291.797821
 10
644.372559
 20
291.944641
 10
644.417175
 20
292.085083
 10
644.47168
 20
292.217804
 10
644.537415
 20
292.341248
 10
644.616516
 20
292.45285
 10
644.71167
 20
292.549103
 10
644.826111
 20
292.625244
 10
644.964783
 20
292.673706
 10
645.133118
 20
292.683868
 10
645.335938
 20
292.641388
 10
645.580017
 20
292.528961
  0
ELLIPSE
  5
17D
330
137
100
AcDbEntity
  8
0
  6
Continuous
 62
     0
370
     0
100
AcDbEllipse
 10
648.761988
 20
277.833655
 30
0.0
 11
-4.499999999999987
 21
3.793317010503105E-8
 31
0.0
210
0.0
220
0.0
230
1.0
 40
0.57735
 41
0.7853981682642814
 42
3.141592644950108
  0
ELLIPSE
  5
17E
330
137
100
AcDbEntity
  8
0
  6
Continuous
 62
     0
370
     0
100
AcDbEllipse
 10
648.761988
 20
277.833655
 30
0.0
 11
-4.499999999999987
 21
3.793317010503105E-8
 31
0.0
210
0.0
220
0.0
230
1.0
 40
0.57735
 41
-0.0000000086396845
 42
0.7853981682642761
  0
ARC
  5
17F
330
137
100
AcDbEntity
  8
0
  6
Continuous
 62
     0
370
    30
100
AcDbCircle
 10
647.076662
 20
277.97405
 30
0.0
 40
2.818270578993582
100
AcDbArc
 50
182.894233
 51
243.712222
  0
LINE
  5
180
330
137
100
AcDbEntity
  8
0
  6
Continuous
 62
     0
370
    30
100
AcDbLine
 10
653.261988
 20
277.833613
 30
0.0
 11
653.25596
 21
277.668089
 31
0.0
  0
LWPOLYLINE
  5
181
330
137
100
AcDbEntity
  8
0
  6
Continuous
 62
     0
370
    30
100
AcDbPolyline
 90
       21
 70
     0
 43
0.0
 10
645.828491
 20
275.447235
 10
646.221558
 20
275.246185
 10
646.646729
 20
275.076538
 10
647.098022
 20
274.939301
 10
647.569153
 20
274.83548
 10
648.054138
 20
274.765991
 10
648.546753
 20
274.731873
 10
649.040955
 20
274.733948
 10
649.531311
 20
274.772003
 10
650.012695
 20
274.845245
 10
650.47998
 20
274.95282
 10
650.92804
 20
275.093964
 10
651.351746
 20
275.267822
 10
651.746155
 20
275.474304
 10
652.106567
 20
275.71463
 10
652.428345
 20
275.990356
 10
652.706848
 20
276.302887
 10
652.936462
 20
276.64975
 10
653.110229
 20
277.02301
 10
653.221069
 20
277.414337
 10
653.261963
 20
277.833618
  0
LINE
  5
182
330
137
100
AcDbEntity
  8
0
  6
Continuous
 62
     0
370
    30
100
AcDbLine
 10
644.261988
 20
290.997134
 30
0.0
 11
644.261988
 21
277.833655
 31
0.0
  0
LINE
  5
183
330
137
100
AcDbEntity
  8
0
  6
Continuous
 62
     0
370
    30
100
AcDbLine
 10
653.261988
 20
282.968312
 30
0.0
 11
653.261988
 21
277.833655
 31
0.0
  0
ARC
  5
184
330
137
100
AcDbEntity
  8
0
  6
Continuous
 62
     0
370
    30
100
AcDbCircle
 10
592.280658
 20
402.003998
 30
0.0
 40
135.8042023538346
100
AcDbArc
 50
299.236597
 51
307.991705
  0
ARC
  5
185
330
137
100
AcDbEntity
  8
0
  6
Continuous
 62
     0
370
    30
100
AcDbCircle
 10
732.651615
 20
222.252784
 30
0.0
 40
135.7623674042734
100
AcDbArc
 50
130.46905
 51
136.740353
  0
LWPOLYLINE
  5
186
330
137
100
AcDbEntity
  8
0
  6
Continuous
 62
     0
370
    30
100
AcDbPolyline
 90
       27
 70
     0
 43
0.0
 10
638.71991
 20
293.80957
 10
638.040161
 20
294.713745
 10
637.387207
 20
295.633575
 10
636.763
 20
296.56601
 10
636.169495
 20
297.508118
 10
635.608704
 20
298.456818
 10
635.082581
 20
299.409149
 10
634.592834
 20
300.362213
 10
634.140869
 20
301.313171
 10
633.728149
 20
302.259247
 10
633.355896
 20
303.197662
 10
633.025574
 20
304.12558
 10
632.738464
 20
305.040375
 10
632.495361
 20
305.939667
 10
632.296997
 20
306.821228
 10
632.144165
 20
307.682831
 10
632.037598
 20
308.522186
 10
631.978149
 20
309.337219
 10
631.967224
 20
310.126526
 10
632.006287
 20
310.888855
 10
632.096985
 20
311.622925
 10
632.240662
 20
312.327423
 10
632.438049
 20
312.999329
 10
632.689148
 20
313.634277
 10
632.994019
 20
314.227905
 10
633.352722
 20
314.775848
 10
633.782166
 20
315.291748
  0
LINE
  5
187
330
137
100
AcDbEntity
  8
0
  6
Continuous
 62
     0
370
    30
100
AcDbLine
 10
658.609554
 20
283.499743
 30
0.0
 11
658.397489
 21
283.387009
 31
0.0
  0
ARC
  5
188
330
137
100
AcDbEntity
  8
0
  6
Continuous
 62
     0
370
    30
100
AcDbCircle
 10
655.068254
 20
291.088699
 30
0.0
 40
8.37454775282427
100
AcDbArc
 50
246.470141
 51
295.015574
  0
ENDBLK
  5
18A
330
137
100
AcDbEntity
  8
0
100
AcDbBlockEnd
  0
BLOCK
  5
1CE
330
18C
100
AcDbEntity
  8
0
100
AcDbBlockBegin
  2
e
 70
     0
 10
413.680237
 20
0.0
 30
0.0
  3
e
  1

  0
LINE
  5
18D
330
18C
100
AcDbEntity
  8
0
  6
Continuous
 62
     0
370
    30
100
AcDbLine
 10
330.823071
 20
705.213211
 30
0.0
 11
293.323073
 21
705.213211
 31
0.0
  0
LINE
  5
18E
330
18C
100
AcDbEntity
  8
0
  6
Continuous
 62
     0
370
    30
100
AcDbLine
 10
368.323073
 20
705.213211
 30
0.0
 11
330.823071
 21
705.213211
 31
0.0
  0
LINE
  5
18F
330
18C
100
AcDbEntity
  8
0
  6
Continuous
 62
     0
370
    30
100
AcDbLine
 10
330.823071
 20
695.213211
 30
0.0
 11
368.323073
 21
695.213211
 31
0.0
  0
LINE
  5
190
330
18C
100
AcDbEntity
  8
0
  6
Continuous
 62
     0
370
    30
100
AcDbLine
 10
293.323073
 20
695.213211
 30
0.0
 11
330.823071
 21
695.213211
 31
0.0
  0
LINE
  5
191
330
18C
100
AcDbEntity
  8
0
  6
Continuous
 62
     0
370
    30
100
AcDbLine
 10
293.323073
 20
705.213211
 30
0.0
 11
293.323073
 21
695.213211
 31
0.0
  0
LINE
  5
192
330
18C
100
AcDbEntity
  8
0
  6
Continuous
 62
     0
370
    30
100
AcDbLine
 10
368.323073
 20
705.213211
 30
0.0
 11
368.323073
 21
695.213211
 31
0.0
  0
LWPOLYLINE
  5
193
330
18C
100
AcDbEntity
  8
0
  6
Continuous
 62
     0
370
     0
100
AcDbPolyline
 90
       17
 70
     0
 43
0.0
 10
319.522339
 20
600.387024
 10
319.493683
 20
602.812012
 10
319.408966
 20
605.235657
 10
319.253937
 20
607.655823
 10
319.035858
 20
610.071167
 10
318.755432
 20
612.47998
 10
318.411285
 20
614.880615
 10
318.000183
 20
617.270569
 10
317.54657
 20
619.652893
 10
317.116241
 20
622.039551
 10
316.725372
 20
624.432983
 10
316.367584
 20
626.831543
 10
316.048309
 20
629.235535
 10
315.76593
 20
631.644165
 10
315.514832
 20
634.056213
 10
315.310547
 20
636.472717
 10
315.130707
 20
638.936768
  0
LWPOLYLINE
  5
194
330
18C
100
AcDbEntity
  8
0
  6
Continuous
 62
     0
370
     0
100
AcDbPolyline
 90
       17
 70
     0
 43
0.0
 10
315.130707
 20
638.936768
 10
314.428619
 20
638.626831
 10
313.768982
 20
638.288452
 10
313.150452
 20
637.95813
 10
312.573334
 20
637.632019
 10
312.0383
 20
637.30011
 10
311.545654
 20
636.965027
 10
311.095551
 20
636.629578
 10
310.687988
 20
636.29248
 10
310.323944
 20
635.95343
 10
310.003204
 20
635.612976
 10
309.723877
 20
635.27179
 10
309.489044
 20
634.929382
 10
309.302094
 20
634.586426
 10
309.152924
 20
634.242432
 10
309.042908
 20
633.896057
 10
308.987305
 20
633.541626
  0
LWPOLYLINE
  5
195
330
18C
100
AcDbEntity
  8
0
  6
Continuous
 62
     0
370
     0
100
AcDbPolyline
 90
       20
 70
     0
 43
0.0
 10
308.987305
 20
633.541626
 10
309.054291
 20
632.585632
 10
309.125153
 20
631.630859
 10
309.198639
 20
630.676636
 10
309.308746
 20
629.725891
 10
309.485413
 20
628.784485
 10
309.729584
 20
627.857544
 10
310.024567
 20
626.945129
 10
310.354156
 20
626.044373
 10
310.712708
 20
625.154419
 10
311.10376
 20
624.277832
 10
311.533783
 20
623.419128
 10
312.006287
 20
622.582336
 10
312.519989
 20
621.769287
 10
313.071838
 20
620.980469
 10
313.658295
 20
620.216187
 10
314.2771
 20
619.477234
 10
314.927643
 20
618.76532
 10
315.609467
 20
618.082214
 10
316.35376
 20
617.402039
  0
LWPOLYLINE
  5
196
330
18C
100
AcDbEntity
  8
0
  6
Continuous
 62
     0
370
     0
100
AcDbPolyline
 90
       20
 70
     0
 43
0.0
 10
352.657074
 20
633.541626
 10
352.590057
 20
632.585632
 10
352.519226
 20
631.630859
 10
352.44574
 20
630.676575
 10
352.335632
 20
629.725891
 10
352.158936
 20
628.784424
 10
351.914764
 20
627.857544
 10
351.619812
 20
626.945068
 10
351.290222
 20
626.044312
 10
350.931671
 20
625.154419
 10
350.540588
 20
624.277832
 10
350.110596
 20
623.419128
 10
349.638092
 20
622.582336
 10
349.124359
 20
621.769287
 10
348.57251
 20
620.980469
 10
347.986053
 20
620.216187
 10
347.367279
 20
619.477234
 10
346.716705
 20
618.765259
 10
346.034882
 20
618.082214
 10
345.290588
 20
617.402039
  0
LWPOLYLINE
  5
197
330
18C
100
AcDbEntity
  8
0
  6
Continuous
 62
     0
370
     0
100
AcDbPolyline
 90
       17
 70
     0
 43
0.0
 10
346.513641
 20
638.936707
 10
347.215759
 20
638.62677
 10
347.875397
 20
638.288452
 10
348.493927
 20
637.95813
 10
349.071014
 20
637.631958
 10
349.606079
 20
637.300049
 10
350.098694
 20
636.965027
 10
350.548828
 20
636.629517
 10
350.95639
 20
636.29248
 10
351.320435
 20
635.953369
 10
351.641174
 20
635.612976
 10
351.920502
 20
635.271729
 10
352.155334
 20
634.929382
 10
352.342255
 20
634.586426
 10
352.491425
 20
634.242371
 10
352.601471
 20
633.896057
 10
352.657074
 20
633.541626
  0
LWPOLYLINE
  5
198
330
18C
100
AcDbEntity
  8
0
  6
Continuous
 62
     0
370
     0
100
AcDbPolyline
 90
       17
 70
     0
 43
0.0
 10
342.121979
 20
600.387024
 10
342.150635
 20
602.812012
 10
342.235382
 20
605.235596
 10
342.390411
 20
607.655823
 10
342.60849
 20
610.071106
 10
342.888916
 20
612.47998
 10
343.233063
 20
614.880554
 10
343.644165
 20
617.270569
 10
344.097809
 20
619.652893
 10
344.528107
 20
622.03949
 10
344.918976
 20
624.432922
 10
345.276794
 20
626.831543
 10
345.596069
 20
629.235535
 10
345.878448
 20
631.644165
 10
346.129547
 20
634.056213
 10
346.333832
 20
636.472656
 10
346.513641
 20
638.936707
  0
LINE
  5
199
330
18C
100
AcDbEntity
  8
0
  6
Continuous
 62
     0
370
     0
100
AcDbLine
 10
346.40911
 20
671.929224
 30
0.0
 11
330.822256
 21
671.929462
 31
0.0
  0
LINE
  5
19A
330
18C
100
AcDbEntity
  8
0
  6
Continuous
 62
     0
370
     0
100
AcDbLine
 10
330.822256
 20
671.929462
 30
0.0
 11
330.822222
 21
640.92924
 31
0.0
  0
LWPOLYLINE
  5
19B
330
18C
100
AcDbEntity
  8
0
  6
Continuous
 62
     0
370
     0
100
AcDbPolyline
 90
       19
 70
     0
 43
0.0
 10
330.822235
 20
640.92926
 10
331.973022
 20
640.922241
 10
333.118134
 20
640.901184
 10
334.251953
 20
640.866272
 10
335.368896
 20
640.817627
 10
336.46344
 20
640.755493
 10
337.530212
 20
640.680115
 10
338.563873
 20
640.59198
 10
339.559265
 20
640.491455
 10
340.511536
 20
640.379028
 10
341.416046
 20
640.25531
 10
342.268433
 20
640.12085
 10
343.064545
 20
639.976379
 10
343.800476
 20
639.822571
 10
344.47226
 20
639.660156
 10
345.075775
 20
639.489807
 10
345.606537
 20
639.312439
 10
346.070282
 20
639.129395
 10
346.513641
 20
638.936707
  0
LWPOLYLINE
  5
19C
330
18C
100
AcDbEntity
  8
0
  6
Continuous
 62
     0
370
     0
100
AcDbPolyline
 90
       12
 70
     0
 43
0.0
 10
346.513641
 20
638.936707
 10
346.675995
 20
641.905212
 10
346.784088
 20
644.876038
 10
346.836792
 20
647.849121
 10
346.835815
 20
650.824219
 10
346.773926
 20
653.794312
 10
346.658539
 20
656.75592
 10
346.531982
 20
659.717224
 10
346.443634
 20
662.689331
 10
346.410614
 20
665.673584
 10
346.408875
 20
668.654358
 10
346.409119
 20
671.929199
  0
LINE
  5
19D
330
18C
100
AcDbEntity
  8
0
  6
Continuous
 62
     0
370
     0
100
AcDbLine
 10
342.122351
 20
590.607936
 30
0.0
 11
342.122385
 21
590.934446
 31
0.0
  0
LINE
  5
19E
330
18C
100
AcDbEntity
  8
0
  6
Continuous
 62
     0
370
     0
100
AcDbLine
 10
342.121979
 20
600.387028
 30
0.0
 11
330.822176
 21
600.408109
 31
0.0
  0
LINE
  5
19F
330
18C
100
AcDbEntity
  8
0
  6
Continuous
 62
     0
370
     0
100
AcDbLine
 10
330.822176
 20
600.408109
 30
0.0
 11
330.822157
 21
590.607936
 31
0.0
  0
LINE
  5
1A0
330
18C
100
AcDbEntity
  8
0
  6
Continuous
 62
     0
370
    30
100
AcDbLine
 10
330.822157
 20
590.607936
 30
0.0
 11
342.13428
 21
590.60793
 31
0.0
  0
LINE
  5
1A1
330
18C
100
AcDbEntity
  8
0
  6
Continuous
 62
     0
370
     0
100
AcDbLine
 10
319.523108
 20
590.607936
 30
0.0
 11
319.523265
 21
590.934407
 31
0.0
  0
LINE
  5
1A2
330
18C
100
AcDbEntity
  8
0
  6
Continuous
 62
     0
370
    30
100
AcDbLine
 10
330.822155
 20
590.607936
 30
0.0
 11
319.512071
 21
590.607931
 31
0.0
  0
LINE
  5
1A3
330
18C
100
AcDbEntity
  8
0
  6
Continuous
 62
     0
370
     0
100
AcDbLine
 10
319.522352
 20
600.387041
 30
0.0
 11
330.822154
 21
600.408109
 31
0.0
  0
LINE
  5
1A4
330
18C
100
AcDbEntity
  8
0
  6
Continuous
 62
     0
370
     0
100
AcDbLine
 10
330.822154
 20
640.92924
 30
0.0
 11
330.822154
 21
600.408109
 31
0.0
  0
LWPOLYLINE
  5
1A5
330
18C
100
AcDbEntity
  8
0
  6
Continuous
 62
     0
370
     0
100
AcDbPolyline
 90
       19
 70
     0
 43
0.0
 10
315.130707
 20
638.936768
 10
315.557648
 20
639.122498
 10
316.019348
 20
639.305664
 10
316.547363
 20
639.483337
 10
317.148193
 20
639.653931
 10
317.817505
 20
639.81665
 10
318.551117
 20
639.970825
 10
319.345062
 20
640.115662
 10
320.195404
 20
640.250488
 10
321.098022
 20
640.374573
 10
322.048615
 20
640.487427
 10
323.042511
 20
640.58844
 10
324.074829
 20
640.677063
 10
325.140442
 20
640.752869
 10
326.23407
 20
640.815552
 10
327.350281
 20
640.864685
 10
328.483521
 20
640.900146
 10
329.628296
 20
640.921692
 10
330.822144
 20
640.92926
  0
LINE
  5
1A6
330
18C
100
AcDbEntity
  8
0
  6
Continuous
 62
     0
370
     0
100
AcDbLine
 10
315.235301
 20
671.929242
 30
0.0
 11
330.822154
 21
671.929462
 31
0.0
  0
LWPOLYLINE
  5
1A7
330
18C
100
AcDbEntity
  8
0
  6
Continuous
 62
     0
370
     0
100
AcDbPolyline
 90
       12
 70
     0
 43
0.0
 10
315.130707
 20
638.936768
 10
314.968384
 20
641.905212
 10
314.860291
 20
644.876038
 10
314.807587
 20
647.849121
 10
314.808563
 20
650.824219
 10
314.870453
 20
653.794312
 10
314.98587
 20
656.755981
 10
315.112396
 20
659.717224
 10
315.200775
 20
662.689331
 10
315.233795
 20
665.673584
 10
315.235535
 20
668.654419
 10
315.235291
 20
671.92926
  0
LINE
  5
1A8
330
18C
100
AcDbEntity
  8
0
  6
Continuous
 62
     0
370
     0
100
AcDbLine
 10
308.987303
 20
633.541655
 30
0.0
 11
308.972156
 21
630.027245
 31
0.0
  0
LWPOLYLINE
  5
1A9
330
18C
100
AcDbEntity
  8
0
  6
Continuous
 62
     0
370
    30
100
AcDbPolyline
 90
       18
 70
     0
 43
0.0
 10
308.972168
 20
630.027222
 10
309.0289
 20
628.834229
 10
309.13446
 20
627.644104
 10
309.296539
 20
626.460632
 10
309.526215
 20
625.288025
 10
309.826691
 20
624.130737
 10
310.193787
 20
622.991821
 10
310.622528
 20
621.874207
 10
311.11145
 20
620.780945
 10
311.660187
 20
619.715393
 10
312.267303
 20
618.681091
 10
312.931091
 20
617.681458
 10
313.649994
 20
616.718933
 10
314.422211
 20
615.795959
 10
315.245026
 20
614.915222
 10
316.115326
 20
614.079773
 10
317.029968
 20
613.29248
 10
318.033142
 20
612.521912
  0
LWPOLYLINE
  5
1AA
330
18C
100
AcDbEntity
  8
0
  6
Continuous
 62
     0
370
    30
100
AcDbPolyline
 90
       18
 70
     0
 43
0.0
 10
352.672211
 20
630.027222
 10
352.615448
 20
628.834167
 10
352.509918
 20
627.644104
 10
352.347809
 20
626.460571
 10
352.118164
 20
625.288025
 10
351.817657
 20
624.130676
 10
351.450562
 20
622.991821
 10
351.021851
 20
621.874146
 10
350.532898
 20
620.780884
 10
349.984161
 20
619.715393
 10
349.377075
 20
618.681091
 10
348.713257
 20
617.681396
 10
347.994354
 20
616.718933
 10
347.222137
 20
615.795959
 10
346.399323
 20
614.915222
 10
345.529053
 20
614.079773
 10
344.61438
 20
613.29248
 10
343.611206
 20
612.521912
  0
LINE
  5
1AB
330
18C
100
AcDbEntity
  8
0
  6
Continuous
 62
     0
370
     0
100
AcDbLine
 10
352.657068
 20
633.541631
 30
0.0
 11
352.672213
 21
630.027221
 31
0.0
  0
ARC
  5
1AC
330
18C
100
AcDbEntity
  8
0
  6
Continuous
 62
     0
370
     0
100
AcDbCircle
 10
325.683887
 20
634.274445
 30
0.0
 40
16.71265713159512
100
AcDbArc
 50
169.527702
 51
182.513018
  0
ARC
  5
1AD
330
18C
100
AcDbEntity
  8
0
  6
Continuous
 62
     0
370
     0
100
AcDbCircle
 10
335.960817
 20
634.27445
 30
0.0
 40
16.71232597793608
100
AcDbArc
 50
357.486829
 51
10.47051
  0
LWPOLYLINE
  5
1AE
330
18C
100
AcDbEntity
  8
0
  6
Continuous
 62
     0
370
     0
100
AcDbPolyline
 90
        6
 70
     0
 43
0.0
 10
314.414795
 20
671.928467
 10
314.446777
 20
671.928467
 10
314.542267
 20
671.929688
 10
314.69986
 20
671.931702
 10
314.920685
 20
671.932312
 10
315.235291
 20
671.92926
  0
LINE
  5
1AF
330
18C
100
AcDbEntity
  8
0
  6
Continuous
 62
     0
370
     0
100
AcDbLine
 10
315.235298
 20
671.929242
 30
0.0
 11
315.2353
 21
695.213211
 31
0.0
  0
LINE
  5
1B0
330
18C
100
AcDbEntity
  8
0
  6
Continuous
 62
     0
370
     0
100
AcDbLine
 10
330.822258
 20
695.213211
 30
0.0
 11
330.822154
 21
671.929462
 31
0.0
  0
LINE
  5
1B1
330
18C
100
AcDbEntity
  8
0
  6
Continuous
 62
     0
370
     0
100
AcDbLine
 10
346.40911
 20
671.929224
 30
0.0
 11
346.409118
 21
695.213211
 31
0.0
  0
LWPOLYLINE
  5
1B2
330
18C
100
AcDbEntity
  8
0
  6
Continuous
 62
     0
370
     0
100
AcDbPolyline
 90
        6
 70
     0
 43
0.0
 10
347.229614
 20
671.928406
 10
347.197632
 20
671.928467
 10
347.102142
 20
671.929688
 10
346.94455
 20
671.931702
 10
346.723724
 20
671.932312
 10
346.409119
 20
671.929199
  0
LWPOLYLINE
  5
1B3
330
18C
100
AcDbEntity
  8
0
  6
Continuous
 62
     0
370
    30
100
AcDbPolyline
 90
       47
 70
     0
 43
0.0
 10
352.394928
 20
637.311584
 10
352.226898
 20
638.147583
 10
352.032837
 20
638.957092
 10
351.824005
 20
639.718079
 10
351.611633
 20
640.409851
 10
351.406952
 20
641.023743
 10
351.216888
 20
641.563416
 10
351.039703
 20
642.045776
 10
350.87262
 20
642.489319
 10
350.713165
 20
642.910095
 10
350.559235
 20
643.317383
 10
350.408905
 20
643.719299
 10
350.260284
 20
644.123718
 10
350.111694
 20
644.537964
 10
349.962891
 20
644.966003
 10
349.813934
 20
645.410828
 10
349.664856
 20
645.875488
 10
349.515747
 20
646.363037
 10
349.366821
 20
646.876282
 10
349.218689
 20
647.417908
 10
349.072021
 20
647.990356
 10
348.92746
 20
648.596252
 10
348.785645
 20
649.237976
 10
348.647247
 20
649.91803
 10
348.512665
 20
650.636719
 10
348.382172
 20
651.393372
 10
348.256012
 20
652.187012
 10
348.13446
 20
653.016785
 10
348.017822
 20
653.881897
 10
347.906342
 20
654.781128
 10
347.80072
 20
655.710388
 10
347.701843
 20
656.664001
 10
347.610596
 20
657.63623
 10
347.527924
 20
658.622742
 10
347.454926
 20
659.620972
 10
347.392639
 20
660.62854
 10
347.342133
 20
661.643005
 10
347.30368
 20
662.662231
 10
347.275879
 20
663.685059
 10
347.25705
 20
664.71051
 10
347.245728
 20
665.737793
 10
347.24054
 20
666.766602
 10
347.238495
 20
667.796509
 10
347.234772
 20
668.827515
 10
347.228271
 20
669.85968
 10
347.238434
 20
670.893005
 10
347.229706
 20
671.92804
  0
LWPOLYLINE
  5
1B4
330
18C
100
AcDbEntity
  8
0
  6
Continuous
 62
     0
370
    30
100
AcDbPolyline
 90
       47
 70
     0
 43
0.0
 10
309.249542
 20
637.312134
 10
309.417572
 20
638.148132
 10
309.611633
 20
638.95752
 10
309.820435
 20
639.718323
 10
310.032806
 20
640.410034
 10
310.237488
 20
641.023926
 10
310.427551
 20
641.563599
 10
310.604736
 20
642.045959
 10
310.77179
 20
642.489441
 10
310.931274
 20
642.910217
 10
311.085205
 20
643.317566
 10
311.235504
 20
643.719421
 10
311.384125
 20
644.12384
 10
311.532715
 20
644.538086
 10
311.681519
 20
644.966125
 10
311.830475
 20
645.41095
 10
311.979553
 20
645.87561
 10
312.128662
 20
646.363098
 10
312.277588
 20
646.876404
 10
312.42569
 20
647.417969
 10
312.572388
 20
647.990479
 10
312.716949
 20
648.596313
 10
312.858765
 20
649.238037
 10
312.997162
 20
649.918091
 10
313.131744
 20
650.636841
 10
313.262238
 20
651.393494
 10
313.388397
 20
652.187134
 10
313.509918
 20
653.016968
 10
313.626587
 20
653.882019
 10
313.738068
 20
654.781189
 10
313.843689
 20
655.710449
 10
313.942566
 20
656.664001
 10
314.033813
 20
657.63623
 10
314.116455
 20
658.622742
 10
314.189453
 20
659.620972
 10
314.25174
 20
660.62854
 10
314.302277
 20
661.642944
 10
314.340698
 20
662.662231
 10
314.36853
 20
663.685059
 10
314.38736
 20
664.710449
 10
314.398682
 20
665.737732
 10
314.40387
 20
666.766479
 10
314.405884
 20
667.796387
 10
314.409546
 20
668.827454
 10
314.416168
 20
669.859497
 10
314.406006
 20
670.892883
 10
314.414703
 20
671.92804
  0
LINE
  5
1B5
330
18C
100
AcDbEntity
  8
0
  6
Continuous
 62
     0
370
    30
100
AcDbLine
 10
347.229609
 20
671.928432
 30
0.0
 11
347.225454
 21
695.213211
 31
0.0
  0
LINE
  5
1B6
330
18C
100
AcDbEntity
  8
0
  6
Continuous
 62
     0
370
    30
100
AcDbLine
 10
314.414803
 20
671.92845
 30
0.0
 11
314.418984
 21
695.213211
 31
0.0
  0
LINE
  5
1B7
330
18C
100
AcDbEntity
  8
0
  6
Continuous
 62
     0
370
    30
100
AcDbLine
 10
319.522352
 20
600.387041
 30
0.0
 11
319.512059
 21
590.607929
 31
0.0
  0
LINE
  5
1B8
330
18C
100
AcDbEntity
  8
0
  6
Continuous
 62
     0
370
    30
100
AcDbLine
 10
342.121979
 20
600.387028
 30
0.0
 11
342.1343
 21
590.607927
 31
0.0
  0
LWPOLYLINE
  5
1B9
330
18C
100
AcDbEntity
  8
0
  6
Continuous
 62
     0
370
    30
100
AcDbPolyline
 90
       37
 70
     0
 43
0.0
 10
342.13031
 20
601.339783
 10
342.139679
 20
601.969666
 10
342.156219
 20
602.604065
 10
342.180939
 20
603.242859
 10
342.214783
 20
603.885803
 10
342.258606
 20
604.532532
 10
342.312347
 20
605.182007
 10
342.375854
 20
605.832703
 10
342.448914
 20
606.483337
 10
342.531372
 20
607.132629
 10
342.623047
 20
607.779114
 10
342.723785
 20
608.421631
 10
342.833466
 20
609.059631
 10
342.952057
 20
609.692261
 10
343.079437
 20
610.318909
 10
343.215576
 20
610.939026
 10
343.360382
 20
611.551758
 10
343.513641
 20
612.156555
 10
343.674683
 20
612.75238
 10
343.842957
 20
613.338501
 10
344.017731
 20
613.914001
 10
344.198395
 20
614.477905
 10
344.384277
 20
615.029419
 10
344.574646
 20
615.567444
 10
344.767914
 20
616.089661
 10
344.962036
 20
616.592957
 10
345.154938
 20
617.074158
 10
345.344574
 20
617.530212
 10
345.52887
 20
617.958008
 10
345.70578
 20
618.35437
 10
345.87326
 20
618.716309
 10
346.028809
 20
619.039978
 10
346.167969
 20
619.319275
 10
346.28598
 20
619.547485
 10
346.37793
 20
619.717712
 10
346.43808
 20
619.824097
 10
346.459869
 20
619.861328
  0
LWPOLYLINE
  5
1BA
330
18C
100
AcDbEntity
  8
0
  6
Continuous
 62
     0
370
    30
100
AcDbPolyline
 90
       37
 70
     0
 43
0.0
 10
319.514038
 20
601.339783
 10
319.504639
 20
601.969727
 10
319.488098
 20
602.604126
 10
319.463409
 20
603.242859
 10
319.429535
 20
603.885803
 10
319.385742
 20
604.532593
 10
319.332001
 20
605.182007
 10
319.268494
 20
605.832703
 10
319.195435
 20
606.483398
 10
319.112946
 20
607.132629
 10
319.021301
 20
607.779114
 10
318.920563
 20
608.421692
 10
318.810883
 20
609.059631
 10
318.692291
 20
609.692261
 10
318.564911
 20
610.31897
 10
318.428741
 20
610.939026
 10
318.283936
 20
611.551758
 10
318.130707
 20
612.156555
 10
317.969635
 20
612.752441
 10
317.801392
 20
613.338501
 10
317.626617
 20
613.914001
 10
317.445953
 20
614.477905
 10
317.260071
 20
615.029419
 10
317.069702
 20
615.567444
 10
316.876434
 20
616.089661
 10
316.682312
 20
616.592957
 10
316.48941
 20
617.074158
 10
316.299774
 20
617.530212
 10
316.115479
 20
617.958008
 10
315.938568
 20
618.354431
 10
315.771088
 20
618.716309
 10
315.61557
 20
619.040039
 10
315.476379
 20
619.319336
 10
315.358368
 20
619.547485
 10
315.266418
 20
619.717712
 10
315.206299
 20
619.824097
 10
315.184479
 20
619.861389
  0
LINE
  5
1BB
330
18C
100
AcDbEntity
  8
0
  6
Continuous
 62
     0
370
     0
100
AcDbLine
 10
341.822094
 20
564.607934
 30
0.0
 11
319.823072
 21
564.607934
 31
0.0
  0
ELLIPSE
  5
1BC
330
18C
100
AcDbEntity
  8
0
  6
Continuous
 62
     0
370
     0
100
AcDbEllipse
 10
330.155892
 20
490.433226
 30
0.0
 11
-10.99401328810492
 21
0.362866119901546
 31
0.0
210
0.0
220
0.0
230
-1.0
 40
0.927101
 41
3.106006623494591
 42
3.141592537030655
  0
ELLIPSE
  5
1BD
330
18C
100
AcDbEntity
  8
0
  6
Continuous
 62
     0
370
     0
100
AcDbEllipse
 10
330.155892
 20
490.433226
 30
0.0
 11
-10.99401328810492
 21
0.362866119901546
 31
0.0
210
0.0
220
0.0
230
-1.0
 40
0.927101
 41
6.283185190620448
 42
9.389191930674178
  0
ELLIPSE
  5
1BE
330
18C
100
AcDbEntity
  8
0
  6
Continuous
 62
     0
370
    30
100
AcDbEllipse
 10
329.982794
 20
485.188734
 30
0.0
 11
10.99401328810492
 21
-0.362866119901546
 31
0.0
210
0.0
220
0.0
230
1.0
 40
0.927101
 41
3.177178683684994
 42
6.318771337274788
  0
ELLIPSE
  5
1BF
330
18C
100
AcDbEntity
  8
0
  6
Continuous
 62
     0
370
    30
100
AcDbEllipse
 10
329.982794
 20
485.188734
 30
0.0
 11
10.99401328810492
 21
-0.362866119901546
 31
0.0
210
0.0
220
0.0
230
1.0
 40
0.927101
 41
0.0355860300952022
 42
3.177178683684995
  0
LINE
  5
1C0
330
18C
100
AcDbEntity
  8
0
  6
Continuous
 62
     0
370
    30
100
AcDbLine
 10
340.976807
 20
484.825869
 30
0.0
 11
341.149906
 21
490.070361
 31
0.0
  0
LINE
  5
1C1
330
18C
100
AcDbEntity
  8
0
  6
Continuous
 62
     0
370
    30
100
AcDbLine
 10
318.98878
 20
485.551598
 30
0.0
 11
319.161879
 21
490.796091
 31
0.0
  0
ARC
  5
1C2
330
18C
100
AcDbEntity
  8
0
  6
Continuous
 62
     0
370
    30
100
AcDbCircle
 10
-2669.797296
 20
554.479536
 30
0.0
 40
2989.637524775299
100
AcDbArc
 50
358.779428
 51
0.194109
  0
ARC
  5
1C3
330
18C
100
AcDbEntity
  8
0
  6
Continuous
 62
     0
370
    30
100
AcDbCircle
 10
-2703.15516
 20
554.668556
 30
0.0
 40
3044.994454574331
100
AcDbArc
 50
358.79123
 51
0.187023
  0
LINE
  5
1C4
330
18C
100
AcDbEntity
  8
0
  6
Continuous
 62
     0
370
    30
100
AcDbLine
 10
341.823072
 20
564.607934
 30
0.0
 11
341.823072
 21
590.607937
 31
0.0
  0
LINE
  5
1C5
330
18C
100
AcDbEntity
  8
0
  6
Continuous
 62
     0
370
    30
100
AcDbLine
 10
319.823072
 20
564.607934
 30
0.0
 11
319.823072
 21
590.607937
 31
0.0
  0
ELLIPSE
  5
1C6
330
18C
100
AcDbEntity
  8
0
  6
Continuous
 62
     0
370
    30
100
AcDbEllipse
 10
330.623074
 20
629.361426
 30
0.0
 11
-21.74999999999933
 21
-5.391816643887531E-6
 31
0.0
210
0.0
220
0.0
230
1.0
 40
0.984808
 41
2.204294180490884
 42
2.755570152704421
  0
LINE
  5
1C7
330
18C
100
AcDbEntity
  8
0
  6
Continuous
 62
     0
370
    30
100
AcDbLine
 10
308.873074
 20
629.361426
 30
0.0
 11
308.998087
 21
629.361426
 31
0.0
  0
ELLIPSE
  5
1C8
330
18C
100
AcDbEntity
  8
0
  6
Continuous
 62
     0
370
    30
100
AcDbEllipse
 10
330.623074
 20
629.361426
 30
0.0
 11
-21.74999999999933
 21
-5.391816643887531E-6
 31
0.0
210
0.0
220
0.0
230
1.0
 40
0.984808
 41
6.283185055455718
 42
7.24789690516749
  0
ELLIPSE
  5
1C9
330
18C
100
AcDbEntity
  8
0
  6
Continuous
 62
     0
370
     0
100
AcDbEllipse
 10
330.623075
 20
625.432811
 30
0.0
 11
-20.22127512455387
 21
-5.012846334583991E-6
 31
0.0
210
0.0
220
0.0
230
1.0
 40
0.984808
 41
0.303707455614644
 42
0.9442804557845044
  0
ELLIPSE
  5
1CA
330
18C
100
AcDbEntity
  8
0
  6
Continuous
 62
     0
370
     0
100
AcDbEllipse
 10
330.623075
 20
625.432811
 30
0.0
 11
-20.22127512455387
 21
-5.012846334583991E-6
 31
0.0
210
0.0
220
0.0
230
1.0
 40
0.984808
 41
2.225856484224989
 42
2.837884694527394
  0
LINE
  5
1CB
330
18C
100
AcDbEntity
  8
0
  6
Continuous
 62
     0
370
    30
100
AcDbLine
 10
308.873074
 20
629.361426
 30
0.0
 11
308.886035
 21
630.030581
 31
0.0
  0
ARC
  5
1CC
330
18C
100
AcDbEntity
  8
0
  6
Continuous
 62
     0
370
    30
100
AcDbCircle
 10
333.76848
 20
629.133437
 30
0.0
 40
24.89645028148111
100
AcDbArc
 50
179.475309
 51
229.86252
  0
ARC
  5
1CD
330
18C
100
AcDbEntity
  8
0
  6
Continuous
 62
     0
370
    30
100
AcDbCircle
 10
327.869286
 20
628.866578
 30
0.0
 40
24.44032277390049
100
AcDbArc
 50
309.838889
 51
349.570329
  0
ENDBLK
  5
1CF
330
18C
100
AcDbEntity
  8
0
100
AcDbBlockEnd
  0
ENDSEC
  0
SECTION
  2
ENTITIES
  0
INSERT
  5
CC
330
1F
100
AcDbEntity
  8
0
  6
Continuous
 62
     7
420
 16250871
370
     0
100
AcDbBlockReference
  2
a
 10
405.216705
 20
191.04628
 30
0.0
  0
INSERT
  5
EA
330
1F
100
AcDbEntity
  8
0
  6
Continuous
 62
     7
420
 16250871
370
     0
100
AcDbBlockReference
  2
b
 10
405.216705
 20
191.04628
 30
0.0
  0
INSERT
  5
136
330
1F
100
AcDbEntity
  8
0
  6
Continuous
 62
     7
420
 16250871
370
     0
100
AcDbBlockReference
  2
c
 10
405.216705
 20
191.04628
 30
0.0
  0
INSERT
  5
18B
330
1F
100
AcDbEntity
  8
0
  6
Continuous
 62
     7
420
 16250871
370
     0
100
AcDbBlockReference
  2
d
 10
405.216705
 20
191.04628
 30
0.0
  0
INSERT
  5
1D0
330
1F
100
AcDbEntity
  8
0
  6
Continuous
 62
     7
420
 16250871
370
     0
100
AcDbBlockReference
  2
e
 10
413.680237
 20
0.0
 30
0.0
  0
ENDSEC
  0
SECTION
  2
OBJECTS
  0
DICTIONARY
  5
C
330
0
100
AcDbDictionary
281
     1
  3
ACAD_DETAILVIEWSTYLE
350
208
  3
ACAD_GROUP
350
D
  3
ACAD_LAYOUT
350
1A
  3
ACAD_MATERIAL
350
43
  3
ACAD_MLEADERSTYLE
350
6B
  3
ACAD_MLINESTYLE
350
17
  3
ACAD_PLOTSETTINGS
350
19
  3
ACAD_PLOTSTYLENAME
350
E
  3
ACAD_SCALELIST
350
47
  3
ACAD_SECTIONVIEWSTYLE
350
209
  3
ACAD_TABLESTYLE
350
69
  3
ACAD_VISUALSTYLE
350
2A
  3
ACDB_RECOMPOSE_DATA
350
205
  3
AcDbVariableDictionary
350
1D1
  0
SUN
  5
6D
330
29
100
AcDbSun
 90
        1
290
     0
 63
     7
421
 16777215
 40
1.0
291
     1
 91
  2455826
 92
 54000000
292
     0
 70
     2
 71
   256
280
     1
  0
DICTIONARY
  5
208
102
{ACAD_REACTORS
330
C
102
}
330
C
100
AcDbDictionary
281
     1
  0
DICTIONARY
  5
D
102
{ACAD_REACTORS
330
C
102
}
330
C
100
AcDbDictionary
281
     1
  0
DICTIONARY
  5
1A
102
{ACAD_REACTORS
330
C
102
}
330
C
100
AcDbDictionary
281
     1
  3
Layout1
350
1E
  3
Layout2
350
26
  3
Model
350
22
  0
DICTIONARY
  5
43
102
{ACAD_REACTORS
330
C
102
}
330
C
100
AcDbDictionary
281
     1
  3
ByBlock
350
45
  3
ByLayer
350
44
  3
Global
350
46
  0
DICTIONARY
  5
6B
102
{ACAD_REACTORS
330
C
102
}
330
C
100
AcDbDictionary
281
     1
  3
Standard
350
6C
  0
DICTIONARY
  5
17
102
{ACAD_REACTORS
330
C
102
}
330
C
100
AcDbDictionary
281
     1
  3
Standard
350
18
  0
DICTIONARY
  5
19
102
{ACAD_REACTORS
330
C
102
}
330
C
100
AcDbDictionary
281
     1
  0
ACDBDICTIONARYWDFLT
  5
E
102
{ACAD_REACTORS
330
C
102
}
330
C
100
AcDbDictionary
281
     1
  3
Normal
350
F
100
AcDbDictionaryWithDefault
340
F
  0
DICTIONARY
  5
47
102
{ACAD_REACTORS
330
C
102
}
330
C
100
AcDbDictionary
281
     1
  3
A0
350
48
  3
A1
350
49
  3
A2
350
4A
  3
A3
350
4B
  3
A4
350
4C
  3
A5
350
4D
  3
A6
350
4E
  3
A7
350
4F
  3
A8
350
50
  3
A9
350
51
  3
B0
350
52
  3
B1
350
53
  3
B2
350
54
  3
B3
350
55
  3
B4
350
56
  3
B5
350
57
  3
B6
350
58
  3
B7
350
59
  3
B8
350
5A
  3
B9
350
5B
  3
C0
350
5C
  3
C1
350
5D
  3
C2
350
5E
  3
C3
350
5F
  3
C4
350
60
  3
C5
350
61
  3
C6
350
62
  3
C7
350
63
  3
C8
350
64
  3
C9
350
65
  3
D0
350
66
  3
D1
350
67
  3
D2
350
68
  0
DICTIONARY
  5
209
102
{ACAD_REACTORS
330
C
102
}
330
C
100
AcDbDictionary
281
     1
  0
DICTIONARY
  5
69
102
{ACAD_REACTORS
330
C
102
}
330
C
100
AcDbDictionary
281
     1
  3
Standard
350
6A
  0
DICTIONARY
  5
2A
102
{ACAD_REACTORS
330
C
102
}
330
C
100
AcDbDictionary
281
     1
  3
2dWireframe
350
2F
  3
Basic
350
32
  3
Brighten
350
36
  3
ColorChange
350
3A
  3
Conceptual
350
34
  3
Dim
350
35
  3
EdgeColorOff
350
3D
  3
Facepattern
350
39
  3
Flat
350
2B
  3
FlatWithEdges
350
2C
  3
Gouraud
350
2D
  3
GouraudWithEdges
350
2E
  3
Hidden
350
31
  3
JitterOff
350
3B
  3
Linepattern
350
38
  3
OverhangOff
350
3C
  3
Realistic
350
33
  3
Shaded
350
42
  3
Shaded with edges
350
41
  3
Shades of Gray
350
3E
  3
Sketchy
350
3F
  3
Thicken
350
37
  3
Wireframe
350
30
  3
X-Ray
350
40
  0
XRECORD
  5
205
102
{ACAD_REACTORS
330
C
102
}
330
C
100
AcDbXrecord
280
     1
 90
        1
330
6A
  0
DICTIONARY
  5
1D1
102
{ACAD_REACTORS
330
C
102
}
330
C
100
AcDbDictionary
281
     1
  3
CANNOSCALE
350
1D2
  3
CMLEADERSTYLE
350
207
  3
CTABLESTYLE
350
206
  0
LAYOUT
  5
1E
102
{ACAD_REACTORS
330
1A
102
}
330
1A
100
AcDbPlotSettings
  1

  2
none_device
  4

  6

 40
0.0
 41
0.0
 42
0.0
 43
0.0
 44
0.0
 45
0.0
 46
0.0
 47
0.0
 48
0.0
 49
0.0
140
0.0
141
0.0
142
1.0
143
1.0
 70
   688
 72
     1
 73
     0
 74
     5
  7

 75
    16
 76
     0
 77
     2
 78
   300
147
1.0
148
0.0
149
0.0
100
AcDbLayout
  1
Layout1
 70
     1
 71
     1
 10
0.0
 20
0.0
 11
420.0
 21
297.0
 12
0.0
 22
0.0
 32
0.0
 14
1.000000E+20
 24
1.000000E+20
 34
1.000000E+20
 15
-1.000000E+20
 25
-1.000000E+20
 35
-1.000000E+20
146
0.0
 13
0.0
 23
0.0
 33
0.0
 16
1.0
 26
0.0
 36
0.0
 17
0.0
 27
1.0
 37
0.0
 76
     0
330
1B
  0
LAYOUT
  5
26
102
{ACAD_REACTORS
330
1A
102
}
330
1A
100
AcDbPlotSettings
  1

  2
none_device
  4

  6

 40
0.0
 41
0.0
 42
0.0
 43
0.0
 44
0.0
 45
0.0
 46
0.0
 47
0.0
 48
0.0
 49
0.0
140
0.0
141
0.0
142
1.0
143
1.0
 70
   688
 72
     1
 73
     0
 74
     5
  7

 75
    16
 76
     0
 77
     2
 78
   300
147
1.0
148
0.0
149
0.0
100
AcDbLayout
  1
Layout2
 70
     1
 71
     2
 10
0.0
 20
0.0
 11
0.0
 21
0.0
 12
0.0
 22
0.0
 32
0.0
 14
0.0
 24
0.0
 34
0.0
 15
0.0
 25
0.0
 35
0.0
146
0.0
 13
0.0
 23
0.0
 33
0.0
 16
1.0
 26
0.0
 36
0.0
 17
0.0
 27
1.0
 37
0.0
 76
     0
330
23
  0
LAYOUT
  5
22
102
{ACAD_REACTORS
330
1A
102
}
330
1A
100
AcDbPlotSettings
  1

  2
none_device
  4
Letter_(8.50_x_11.00_Inches)
  6

 40
6.35
 41
6.35
 42
6.350005
 43
6.350005
 44
215.9
 45
279.4
 46
0.0
 47
0.0
 48
0.0
 49
0.0
140
0.0
141
0.0
142
1.0
143
1.0
 70
  1712
 72
     1
 73
     0
 74
     0
  7

 75
     0
 76
     0
 77
     2
 78
   300
147
1.0
148
0.0
149
0.0
100
AcDbLayout
  1
Model
 70
     1
 71
     0
 10
0.0
 20
0.0
 11
420.0
 21
297.0
 12
0.0
 22
0.0
 32
0.0
 14
1.000000E+20
 24
1.000000E+20
 34
1.000000E+20
 15
-1.000000E+20
 25
-1.000000E+20
 35
-1.000000E+20
146
0.0
 13
0.0
 23
0.0
 33
0.0
 16
1.0
 26
0.0
 36
0.0
 17
0.0
 27
1.0
 37
0.0
 76
     0
330
1F
331
29
  0
MATERIAL
  5
45
102
{ACAD_REACTORS
330
43
102
}
330
43
100
AcDbMaterial
  1
ByBlock
 72
     1
 94
      127
  0
MATERIAL
  5
44
102
{ACAD_REACTORS
330
43
102
}
330
43
100
AcDbMaterial
  1
ByLayer
 72
     1
 94
      127
  0
MATERIAL
  5
46
102
{ACAD_REACTORS
330
43
102
}
330
43
100
AcDbMaterial
  1
Global
 72
     1
 94
      127
  0
MLEADERSTYLE
  5
6C
102
{ACAD_REACTORS
330
6B
102
}
330
6B
100
AcDbMLeaderStyle
179
     2
170
     2
171
     1
172
     0
 90
        2
 40
0.0
 41
0.0
173
     1
 91
-1056964608
340
14
 92
       -2
290
     1
 42
2.0
291
     1
 43
8.0
  3
Standard
341
0
 44
4.0
300

342
11
174
     1
178
     6
175
     1
176
     0
 93
-1056964608
 45
4.0
292
     0
297
     0
 46
4.0
343
0
 94
-1056964608
 47
1.0
 49
1.0
140
1.0
293
     1
141
0.0
294
     1
177
     0
142
1.0
295
     0
296
     0
143
3.75
271
     0
272
     9
273
     9
  0
MLINESTYLE
  5
18
102
{ACAD_REACTORS
330
17
102
}
330
17
100
AcDbMlineStyle
  2
Standard
 70
     0
  3

 62
   256
 51
90.0
 52
90.0
 71
     2
 49
0.5
 62
   256
  6
BYLAYER
 49
-0.5
 62
   256
  6
BYLAYER
  0
ACDBPLACEHOLDER
  5
F
102
{ACAD_REACTORS
330
E
102
}
330
E
  0
SCALE
  5
48
102
{ACAD_REACTORS
330
47
102
}
330
47
100
AcDbScale
 70
     0
300
1:1
140
1.0
141
1.0
290
     1
  0
SCALE
  5
49
102
{ACAD_REACTORS
330
47
102
}
330
47
100
AcDbScale
 70
     0
300
1:2
140
1.0
141
2.0
290
     0
  0
SCALE
  5
4A
102
{ACAD_REACTORS
330
47
102
}
330
47
100
AcDbScale
 70
     0
300
1:4
140
1.0
141
4.0
290
     0
  0
SCALE
  5
4B
102
{ACAD_REACTORS
330
47
102
}
330
47
100
AcDbScale
 70
     0
300
1:5
140
1.0
141
5.0
290
     0
  0
SCALE
  5
4C
102
{ACAD_REACTORS
330
47
102
}
330
47
100
AcDbScale
 70
     0
300
1:8
140
1.0
141
8.0
290
     0
  0
SCALE
  5
4D
102
{ACAD_REACTORS
330
47
102
}
330
47
100
AcDbScale
 70
     0
300
1:10
140
1.0
141
10.0
290
     0
  0
SCALE
  5
4E
102
{ACAD_REACTORS
330
47
102
}
330
47
100
AcDbScale
 70
     0
300
1:16
140
1.0
141
16.0
290
     0
  0
SCALE
  5
4F
102
{ACAD_REACTORS
330
47
102
}
330
47
100
AcDbScale
 70
     0
300
1:20
140
1.0
141
20.0
290
     0
  0
SCALE
  5
50
102
{ACAD_REACTORS
330
47
102
}
330
47
100
AcDbScale
 70
     0
300
1:30
140
1.0
141
30.0
290
     0
  0
SCALE
  5
51
102
{ACAD_REACTORS
330
47
102
}
330
47
100
AcDbScale
 70
     0
300
1:40
140
1.0
141
40.0
290
     0
  0
SCALE
  5
52
102
{ACAD_REACTORS
330
47
102
}
330
47
100
AcDbScale
 70
     0
300
1:50
140
1.0
141
50.0
290
     0
  0
SCALE
  5
53
102
{ACAD_REACTORS
330
47
102
}
330
47
100
AcDbScale
 70
     0
300
1:100
140
1.0
141
100.0
290
     0
  0
SCALE
  5
54
102
{ACAD_REACTORS
330
47
102
}
330
47
100
AcDbScale
 70
     0
300
2:1
140
2.0
141
1.0
290
     0
  0
SCALE
  5
55
102
{ACAD_REACTORS
330
47
102
}
330
47
100
AcDbScale
 70
     0
300
4:1
140
4.0
141
1.0
290
     0
  0
SCALE
  5
56
102
{ACAD_REACTORS
330
47
102
}
330
47
100
AcDbScale
 70
     0
300
8:1
140
8.0
141
1.0
290
     0
  0
SCALE
  5
57
102
{ACAD_REACTORS
330
47
102
}
330
47
100
AcDbScale
 70
     0
300
10:1
140
10.0
141
1.0
290
     0
  0
SCALE
  5
58
102
{ACAD_REACTORS
330
47
102
}
330
47
100
AcDbScale
 70
     0
300
100:1
140
100.0
141
1.0
290
     0
  0
SCALE
  5
59
102
{ACAD_REACTORS
330
47
102
}
330
47
100
AcDbScale
 70
     0
300
1/128" = 1'-0"
140
0.007812
141
12.0
290
     0
  0
SCALE
  5
5A
102
{ACAD_REACTORS
330
47
102
}
330
47
100
AcDbScale
 70
     0
300
1/64" = 1'-0"
140
0.015625
141
12.0
290
     0
  0
SCALE
  5
5B
102
{ACAD_REACTORS
330
47
102
}
330
47
100
AcDbScale
 70
     0
300
1/32" = 1'-0"
140
0.03125
141
12.0
290
     0
  0
SCALE
  5
5C
102
{ACAD_REACTORS
330
47
102
}
330
47
100
AcDbScale
 70
     0
300
1/16" = 1'-0"
140
0.0625
141
12.0
290
     0
  0
SCALE
  5
5D
102
{ACAD_REACTORS
330
47
102
}
330
47
100
AcDbScale
 70
     0
300
3/32" = 1'-0"
140
0.09375
141
12.0
290
     0
  0
SCALE
  5
5E
102
{ACAD_REACTORS
330
47
102
}
330
47
100
AcDbScale
 70
     0
300
1/8" = 1'-0"
140
0.125
141
12.0
290
     0
  0
SCALE
  5
5F
102
{ACAD_REACTORS
330
47
102
}
330
47
100
AcDbScale
 70
     0
300
3/16" = 1'-0"
140
0.1875
141
12.0
290
     0
  0
SCALE
  5
60
102
{ACAD_REACTORS
330
47
102
}
330
47
100
AcDbScale
 70
     0
300
1/4" = 1'-0"
140
0.25
141
12.0
290
     0
  0
SCALE
  5
61
102
{ACAD_REACTORS
330
47
102
}
330
47
100
AcDbScale
 70
     0
300
3/8" = 1'-0"
140
0.375
141
12.0
290
     0
  0
SCALE
  5
62
102
{ACAD_REACTORS
330
47
102
}
330
47
100
AcDbScale
 70
     0
300
1/2" = 1'-0"
140
0.5
141
12.0
290
     0
  0
SCALE
  5
63
102
{ACAD_REACTORS
330
47
102
}
330
47
100
AcDbScale
 70
     0
300
3/4" = 1'-0"
140
0.75
141
12.0
290
     0
  0
SCALE
  5
64
102
{ACAD_REACTORS
330
47
102
}
330
47
100
AcDbScale
 70
     0
300
1" = 1'-0"
140
1.0
141
12.0
290
     0
  0
SCALE
  5
65
102
{ACAD_REACTORS
330
47
102
}
330
47
100
AcDbScale
 70
     0
300
1-1/2" = 1'-0"
140
1.5
141
12.0
290
     0
  0
SCALE
  5
66
102
{ACAD_REACTORS
330
47
102
}
330
47
100
AcDbScale
 70
     0
300
3" = 1'-0"
140
3.0
141
12.0
290
     0
  0
SCALE
  5
67
102
{ACAD_REACTORS
330
47
102
}
330
47
100
AcDbScale
 70
     0
300
6" = 1'-0"
140
6.0
141
12.0
290
     0
  0
SCALE
  5
68
102
{ACAD_REACTORS
330
47
102
}
330
47
100
AcDbScale
 70
     0
300
1'-0" = 1'-0"
140
12.0
141
12.0
290
     0
  0
TABLESTYLE
  5
6A
102
{ACAD_REACTORS
330
69
102
}
102
{ACAD_XDICTIONARY
360
203
102
}
330
69
100
AcDbTableStyle
  3
Standard
 70
     0
 71
     0
 40
0.06
 41
0.06
280
     0
281
     0
  7
Standard
140
4.5
170
     2
 62
     0
 63
   257
283
     0
 90
        4
 91
        0
  1

274
    -2
284
     1
 64
     0
275
    -2
285
     1
 65
     0
276
    -2
286
     1
 66
     0
277
    -2
287
     1
 67
     0
278
    -2
288
     1
 68
     0
279
    -2
289
     1
 69
     0
  7
Standard
140
6.0
170
     5
 62
     0
 63
   257
283
     0
 90
        4
 91
        0
  1

274
    -2
284
     1
 64
     0
275
    -2
285
     1
 65
     0
276
    -2
286
     1
 66
     0
277
    -2
287
     1
 67
     0
278
    -2
288
     1
 68
     0
279
    -2
289
     1
 69
     0
  7
Standard
140
4.5
170
     5
 62
     0
 63
   257
283
     0
 90
        4
 91
        0
  1

274
    -2
284
     1
 64
     0
275
    -2
285
     1
 65
     0
276
    -2
286
     1
 66
     0
277
    -2
287
     1
 67
     0
278
    -2
288
     1
 68
     0
279
    -2
289
     1
 69
     0
  0
VISUALSTYLE
  5
2F
102
{ACAD_REACTORS
330
2A
102
}
102
{ACAD_XDICTIONARY
360
1DB
102
}
330
2A
100
AcDbVisualStyle
  2
2dWireframe
 70
     4
177
     2
291
     0
 71
     0
176
     1
 72
     2
176
     1
 73
     0
176
     1
 90
        0
176
     1
 40
0.6
176
     1
 41
30.0
176
     1
 62
     5
 63
     7
421
 16777215
176
     1
 74
     1
176
     1
 91
        4
176
     1
 64
     7
176
     1
 65
   257
176
     1
 75
     1
176
     1
175
     1
176
     1
 42
1.0
176
     1
 92
        0
176
     1
 66
   257
176
     1
 43
1.0
176
     1
 76
     1
176
     1
 77
     6
176
     1
 78
     2
176
     1
 67
     7
176
     1
 79
     5
176
     1
170
     0
176
     1
171
     0
176
     1
290
     0
176
     1
 93
        1
176
     1
 44
0.0
176
     1
173
     0
176
     1
  0
VISUALSTYLE
  5
32
102
{ACAD_REACTORS
330
2A
102
}
102
{ACAD_XDICTIONARY
360
1E1
102
}
330
2A
100
AcDbVisualStyle
  2
Basic
 70
     7
177
     2
291
     1
 71
     1
176
     1
 72
     0
176
     1
 73
     1
176
     1
 90
        0
176
     1
 40
0.6
176
     1
 41
30.0
176
     1
 62
     5
 63
     7
421
 16777215
176
     1
 74
     0
176
     1
 91
        4
176
     1
 64
     7
176
     1
 65
   257
176
     1
 75
     1
176
     1
175
     1
176
     1
 42
1.0
176
     1
 92
        8
176
     1
 66
     7
176
     1
 43
1.0
176
     1
 76
     1
176
     1
 77
     6
176
     1
 78
     2
176
     1
 67
     7
176
     1
 79
     5
176
     1
170
     0
176
     1
171
     0
176
     1
290
     0
176
     1
 93
        1
176
     1
 44
0.0
176
     1
173
     0
176
     1
  0
VISUALSTYLE
  5
36
102
{ACAD_REACTORS
330
2A
102
}
102
{ACAD_XDICTIONARY
360
1E9
102
}
330
2A
100
AcDbVisualStyle
  2
Brighten
 70
    12
177
     2
291
     1
 71
     2
176
     1
 72
     2
176
     1
 73
     0
176
     1
 90
        0
176
     1
 40
0.6
176
     1
 41
30.0
176
     1
 62
     5
 63
     7
421
 16777215
176
     1
 74
     1
176
     1
 91
        4
176
     1
 64
     7
176
     1
 65
   257
176
     1
 75
     1
176
     1
175
     1
176
     1
 42
1.0
176
     1
 92
        8
176
     1
 66
     7
176
     1
 43
1.0
176
     1
 76
     1
176
     1
 77
     6
176
     1
 78
     2
176
     1
 67
     7
176
     1
 79
     5
176
     1
170
     0
176
     1
171
     0
176
     1
290
     0
176
     1
 93
        1
176
     1
 44
50.0
176
     1
173
     0
176
     1
  0
VISUALSTYLE
  5
3A
102
{ACAD_REACTORS
330
2A
102
}
102
{ACAD_XDICTIONARY
360
1F1
102
}
330
2A
100
AcDbVisualStyle
  2
ColorChange
 70
    16
177
     2
291
     1
 71
     2
176
     1
 72
     2
176
     1
 73
     3
176
     1
 90
        0
176
     1
 40
0.6
176
     1
 41
30.0
176
     1
 62
     5
 63
     8
421
  8421504
176
     1
 74
     1
176
     1
 91
        4
176
     1
 64
     7
176
     1
 65
   257
176
     1
 75
     1
176
     1
175
     1
176
     1
 42
1.0
176
     1
 92
        8
176
     1
 66
     8
424
  8421504
176
     1
 43
1.0
176
     1
 76
     1
176
     1
 77
     6
176
     1
 78
     2
176
     1
 67
     7
176
     1
 79
     5
176
     1
170
     0
176
     1
171
     0
176
     1
290
     0
176
     1
 93
        1
176
     1
 44
0.0
176
     1
173
     0
176
     1
  0
VISUALSTYLE
  5
34
102
{ACAD_REACTORS
330
2A
102
}
102
{ACAD_XDICTIONARY
360
1E5
102
}
330
2A
100
AcDbVisualStyle
  2
Conceptual
 70
     9
177
     2
291
     0
 71
     3
176
     1
 72
     2
176
     1
 73
     0
176
     1
 90
        0
176
     1
 40
0.6
176
     1
 41
30.0
176
     1
 62
     5
 63
     7
421
 16777215
176
     1
 74
     2
176
     1
 91
        2
176
     1
 64
     7
176
     1
 65
   257
176
     1
 75
     1
176
     1
175
     1
176
     1
 42
179.0
176
     1
 92
        8
176
     1
 66
     7
176
     1
 43
1.0
176
     1
 76
     1
176
     1
 77
     6
176
     1
 78
     2
176
     1
 67
     7
176
     1
 79
     3
176
     1
170
     0
176
     1
171
     0
176
     1
290
     0
176
     1
 93
        1
176
     1
 44
0.0
176
     1
173
     0
176
     1
  0
VISUALSTYLE
  5
35
102
{ACAD_REACTORS
330
2A
102
}
102
{ACAD_XDICTIONARY
360
1E7
102
}
330
2A
100
AcDbVisualStyle
  2
Dim
 70
    11
177
     2
291
     1
 71
     2
176
     1
 72
     2
176
     1
 73
     0
176
     1
 90
        0
176
     1
 40
0.6
176
     1
 41
30.0
176
     1
 62
     5
 63
     7
421
 16777215
176
     1
 74
     1
176
     1
 91
        4
176
     1
 64
     7
176
     1
 65
   257
176
     1
 75
     1
176
     1
175
     1
176
     1
 42
1.0
176
     1
 92
        8
176
     1
 66
     7
176
     1
 43
1.0
176
     1
 76
     1
176
     1
 77
     6
176
     1
 78
     2
176
     1
 67
     7
176
     1
 79
     5
176
     1
170
     0
176
     1
171
     0
176
     1
290
     0
176
     1
 93
        1
176
     1
 44
-50.0
176
     1
173
     0
176
     1
  0
VISUALSTYLE
  5
3D
102
{ACAD_REACTORS
330
2A
102
}
102
{ACAD_XDICTIONARY
360
1F7
102
}
330
2A
100
AcDbVisualStyle
  2
EdgeColorOff
 70
    22
177
     2
291
     1
 71
     2
176
     0
 72
     2
176
     0
 73
     0
176
     0
 90
        0
176
     0
 40
0.6
176
     0
 41
30.0
176
     0
 62
     5
 63
     7
421
 16777215
176
     0
 74
     1
176
     0
 91
        4
176
     0
 64
     7
176
     0
 65
   257
176
     0
 75
     1
176
     0
175
     1
176
     0
 42
1.0
176
     0
 92
        8
176
     2
 66
     7
176
     0
 43
1.0
176
     0
 76
     1
176
     0
 77
     6
176
     0
 78
     2
176
     0
 67
     7
176
     0
 79
     5
176
     0
170
     0
176
     0
171
     0
176
     0
290
     0
176
     0
 93
        1
176
     0
 44
0.0
176
     0
173
     0
176
     0
  0
VISUALSTYLE
  5
39
102
{ACAD_REACTORS
330
2A
102
}
102
{ACAD_XDICTIONARY
360
1EF
102
}
330
2A
100
AcDbVisualStyle
  2
Facepattern
 70
    15
177
     2
291
     1
 71
     2
176
     1
 72
     2
176
     1
 73
     0
176
     1
 90
        0
176
     1
 40
0.6
176
     1
 41
30.0
176
     1
 62
     5
 63
     7
421
 16777215
176
     1
 74
     1
176
     1
 91
        4
176
     1
 64
     7
176
     1
 65
   257
176
     1
 75
     1
176
     1
175
     1
176
     1
 42
1.0
176
     1
 92
        8
176
     1
 66
     7
176
     1
 43
1.0
176
     1
 76
     1
176
     1
 77
     6
176
     1
 78
     2
176
     1
 67
     7
176
     1
 79
     5
176
     1
170
     0
176
     1
171
     0
176
     1
290
     0
176
     1
 93
        1
176
     1
 44
0.0
176
     1
173
     0
176
     1
  0
VISUALSTYLE
  5
2B
102
{ACAD_REACTORS
330
2A
102
}
102
{ACAD_XDICTIONARY
360
1D3
102
}
330
2A
100
AcDbVisualStyle
  2
Flat
 70
     0
177
     2
291
     1
 71
     2
176
     1
 72
     1
176
     1
 73
     1
176
     1
 90
        2
176
     1
 40
0.6
176
     1
 41
30.0
176
     1
 62
     5
 63
     7
421
 16777215
176
     1
 74
     0
176
     1
 91
        0
176
     1
 64
     7
176
     1
 65
   257
176
     1
 75
     1
176
     1
175
     1
176
     1
 42
1.0
176
     1
 92
        8
176
     1
 66
     7
176
     1
 43
1.0
176
     1
 76
     1
176
     1
 77
     6
176
     1
 78
     2
176
     1
 67
     7
176
     1
 79
     5
176
     1
170
     0
176
     1
171
     0
176
     1
290
     0
176
     1
 93
       13
176
     1
 44
0.0
176
     1
173
     0
176
     1
  0
VISUALSTYLE
  5
2C
102
{ACAD_REACTORS
330
2A
102
}
102
{ACAD_XDICTIONARY
360
1D5
102
}
330
2A
100
AcDbVisualStyle
  2
FlatWithEdges
 70
     1
177
     2
291
     1
 71
     2
176
     1
 72
     1
176
     1
 73
     1
176
     1
 90
        2
176
     1
 40
0.6
176
     1
 41
30.0
176
     1
 62
     5
 63
     7
421
 16777215
176
     1
 74
     1
176
     1
 91
        0
176
     1
 64
     7
176
     1
 65
   257
176
     1
 75
     1
176
     1
175
     1
176
     1
 42
1.0
176
     1
 92
        0
176
     1
 66
   257
176
     1
 43
1.0
176
     1
 76
     1
176
     1
 77
     6
176
     1
 78
     2
176
     1
 67
     7
176
     1
 79
     5
176
     1
170
     0
176
     1
171
     0
176
     1
290
     0
176
     1
 93
       13
176
     1
 44
0.0
176
     1
173
     0
176
     1
  0
VISUALSTYLE
  5
2D
102
{ACAD_REACTORS
330
2A
102
}
102
{ACAD_XDICTIONARY
360
1D7
102
}
330
2A
100
AcDbVisualStyle
  2
Gouraud
 70
     2
177
     2
291
     1
 71
     2
176
     1
 72
     2
176
     1
 73
     1
176
     1
 90
        2
176
     1
 40
0.6
176
     1
 41
30.0
176
     1
 62
     5
 63
     7
421
 16777215
176
     1
 74
     0
176
     1
 91
        0
176
     1
 64
     7
176
     1
 65
   257
176
     1
 75
     1
176
     1
175
     1
176
     1
 42
1.0
176
     1
 92
        0
176
     1
 66
     7
176
     1
 43
1.0
176
     1
 76
     1
176
     1
 77
     6
176
     1
 78
     2
176
     1
 67
     7
176
     1
 79
     5
176
     1
170
     0
176
     1
171
     0
176
     1
290
     0
176
     1
 93
       13
176
     1
 44
0.0
176
     1
173
     0
176
     1
  0
VISUALSTYLE
  5
2E
102
{ACAD_REACTORS
330
2A
102
}
102
{ACAD_XDICTIONARY
360
1D9
102
}
330
2A
100
AcDbVisualStyle
  2
GouraudWithEdges
 70
     3
177
     2
291
     1
 71
     2
176
     1
 72
     2
176
     1
 73
     1
176
     1
 90
        2
176
     1
 40
0.6
176
     1
 41
30.0
176
     1
 62
     5
 63
     7
421
 16777215
176
     1
 74
     1
176
     1
 91
        0
176
     1
 64
     7
176
     1
 65
   257
176
     1
 75
     1
176
     1
175
     1
176
     1
 42
1.0
176
     1
 92
        0
176
     1
 66
   257
176
     1
 43
1.0
176
     1
 76
     1
176
     1
 77
     6
176
     1
 78
     2
176
     1
 67
     7
176
     1
 79
     5
176
     1
170
     0
176
     1
171
     0
176
     1
290
     0
176
     1
 93
       13
176
     1
 44
0.0
176
     1
173
     0
176
     1
  0
VISUALSTYLE
  5
31
102
{ACAD_REACTORS
330
2A
102
}
102
{ACAD_XDICTIONARY
360
1DF
102
}
330
2A
100
AcDbVisualStyle
  2
Hidden
 70
     6
177
     2
291
     0
 71
     1
176
     1
 72
     2
176
     1
 73
     2
176
     1
 90
        0
176
     1
 40
0.6
176
     1
 41
30.0
176
     1
 62
     5
 63
     7
421
 16777215
176
     1
 74
     2
176
     1
 91
        2
176
     1
 64
     7
176
     1
 65
   257
176
     1
 75
     2
176
     1
175
     1
176
     1
 42
40.0
176
     1
 92
        0
176
     1
 66
   257
176
     1
 43
1.0
176
     1
 76
     1
176
     1
 77
     6
176
     1
 78
     2
176
     1
 67
     7
176
     1
 79
     3
176
     1
170
     0
176
     1
171
     0
176
     1
290
     0
176
     1
 93
        1
176
     1
 44
0.0
176
     1
173
     0
176
     1
  0
VISUALSTYLE
  5
3B
102
{ACAD_REACTORS
330
2A
102
}
102
{ACAD_XDICTIONARY
360
1F3
102
}
330
2A
100
AcDbVisualStyle
  2
JitterOff
 70
    20
177
     2
291
     1
 71
     2
176
     0
 72
     2
176
     0
 73
     0
176
     0
 90
        0
176
     0
 40
0.6
176
     0
 41
30.0
176
     0
 62
     5
 63
     7
421
 16777215
176
     0
 74
     1
176
     0
 91
        4
176
     0
 64
     7
176
     0
 65
   257
176
     0
 75
     1
176
     0
175
     1
176
     0
 42
1.0
176
     0
 92
       10
176
     2
 66
     7
176
     0
 43
1.0
176
     0
 76
     1
176
     0
 77
     6
176
     0
 78
     2
176
     0
 67
     7
176
     0
 79
     5
176
     0
170
     0
176
     0
171
     0
176
     0
290
     0
176
     0
 93
        1
176
     0
 44
0.0
176
     0
173
     0
176
     0
  0
VISUALSTYLE
  5
38
102
{ACAD_REACTORS
330
2A
102
}
102
{ACAD_XDICTIONARY
360
1ED
102
}
330
2A
100
AcDbVisualStyle
  2
Linepattern
 70
    14
177
     2
291
     1
 71
     2
176
     1
 72
     2
176
     1
 73
     0
176
     1
 90
        0
176
     1
 40
0.6
176
     1
 41
30.0
176
     1
 62
     5
 63
     7
421
 16777215
176
     1
 74
     1
176
     1
 91
        4
176
     1
 64
     7
176
     1
 65
   257
176
     1
 75
     7
176
     1
175
     7
176
     1
 42
1.0
176
     1
 92
        8
176
     1
 66
     7
176
     1
 43
1.0
176
     1
 76
     1
176
     1
 77
     6
176
     1
 78
     2
176
     1
 67
     7
176
     1
 79
     5
176
     1
170
     0
176
     1
171
     0
176
     1
290
     0
176
     1
 93
        1
176
     1
 44
0.0
176
     1
173
     0
176
     1
  0
VISUALSTYLE
  5
3C
102
{ACAD_REACTORS
330
2A
102
}
102
{ACAD_XDICTIONARY
360
1F5
102
}
330
2A
100
AcDbVisualStyle
  2
OverhangOff
 70
    21
177
     2
291
     1
 71
     2
176
     0
 72
     2
176
     0
 73
     0
176
     0
 90
        0
176
     0
 40
0.6
176
     0
 41
30.0
176
     0
 62
     5
 63
     7
421
 16777215
176
     0
 74
     1
176
     0
 91
        4
176
     0
 64
     7
176
     0
 65
   257
176
     0
 75
     1
176
     0
175
     1
176
     0
 42
1.0
176
     0
 92
        9
176
     2
 66
     7
176
     0
 43
1.0
176
     0
 76
     1
176
     0
 77
     6
176
     0
 78
     2
176
     0
 67
     7
176
     0
 79
     5
176
     0
170
     0
176
     0
171
     0
176
     0
290
     0
176
     0
 93
        1
176
     0
 44
0.0
176
     0
173
     0
176
     0
  0
VISUALSTYLE
  5
33
102
{ACAD_REACTORS
330
2A
102
}
102
{ACAD_XDICTIONARY
360
1E3
102
}
330
2A
100
AcDbVisualStyle
  2
Realistic
 70
     8
177
     2
291
     0
 71
     2
176
     1
 72
     3
176
     1
 73
     0
176
     1
 90
        2
176
     1
 40
0.6
176
     1
 41
30.0
176
     1
 62
     5
 63
     7
421
 16777215
176
     1
 74
     0
176
     1
 91
        0
176
     1
 64
     7
176
     1
 65
   257
176
     1
 75
     1
176
     1
175
     1
176
     1
 42
1.0
176
     1
 92
        8
176
     1
 66
   257
176
     1
 43
1.0
176
     1
 76
     1
176
     1
 77
     6
176
     1
 78
     2
176
     1
 67
     7
176
     1
 79
     3
176
     1
170
     0
176
     1
171
     0
176
     1
290
     0
176
     1
 93
       13
176
     1
 44
0.0
176
     1
173
     0
176
     1
  0
VISUALSTYLE
  5
42
102
{ACAD_REACTORS
330
2A
102
}
102
{ACAD_XDICTIONARY
360
201
102
}
330
2A
100
AcDbVisualStyle
  2
Shaded
 70
    27
177
     2
291
     0
 71
     2
176
     1
 72
     2
176
     1
 73
     1
176
     1
 90
        2
176
     1
 40
0.6
176
     1
 41
30.0
176
     1
 62
     5
 63
     7
421
 16777215
176
     1
 74
     0
176
     1
 91
        4
176
     1
 64
     7
176
     1
 65
   257
176
     1
 75
     1
176
     1
175
     1
176
     1
 42
1.0
176
     1
 92
        8
176
     1
 66
   257
176
     1
 43
1.0
176
     1
 76
     1
176
     1
 77
     6
176
     1
 78
     2
176
     1
 67
     8
425
  7895160
176
     1
 79
     3
176
     1
170
     0
176
     1
171
     0
176
     1
290
     0
176
     1
 93
        5
176
     1
 44
0.0
176
     1
173
     0
176
     1
  0
VISUALSTYLE
  5
41
102
{ACAD_REACTORS
330
2A
102
}
102
{ACAD_XDICTIONARY
360
1FF
102
}
330
2A
100
AcDbVisualStyle
  2
Shaded with edges
 70
    26
177
     2
291
     0
 71
     2
176
     1
 72
     2
176
     1
 73
     1
176
     1
 90
        2
176
     1
 40
0.6
176
     1
 41
30.0
176
     1
 62
     5
 63
     7
421
 16777215
176
     1
 74
     1
176
     1
 91
       10
176
     1
 64
     7
176
     1
 65
   257
176
     1
 75
     2
176
     1
175
     1
176
     1
 42
1.0
176
     1
 92
        8
176
     1
 66
   257
176
     1
 43
1.0
176
     1
 76
     1
176
     1
 77
     6
176
     1
 78
     2
176
     1
 67
     7
176
     1
 79
     3
176
     1
170
     0
176
     1
171
     0
176
     1
290
     0
176
     1
 93
        5
176
     1
 44
0.0
176
     1
173
     0
176
     1
  0
VISUALSTYLE
  5
3E
102
{ACAD_REACTORS
330
2A
102
}
102
{ACAD_XDICTIONARY
360
1F9
102
}
330
2A
100
AcDbVisualStyle
  2
Shades of Gray
 70
    23
177
     2
291
     0
 71
     2
176
     1
 72
     2
176
     1
 73
     3
176
     1
 90
        0
176
     1
 40
0.6
176
     1
 41
30.0
176
     1
 62
     5
 63
     7
421
 16777215
176
     1
 74
     2
176
     1
 91
        2
176
     1
 64
     7
176
     1
 65
     7
176
     1
 75
     1
176
     1
175
     1
176
     1
 42
40.0
176
     1
 92
        8
176
     1
 66
     7
176
     1
 43
1.0
176
     1
 76
     1
176
     1
 77
     6
176
     1
 78
     2
176
     1
 67
     7
176
     1
 79
     3
176
     1
170
     0
176
     1
171
     0
176
     1
290
     0
176
     1
 93
        1
176
     1
 44
0.0
176
     1
173
     0
176
     1
  0
VISUALSTYLE
  5
3F
102
{ACAD_REACTORS
330
2A
102
}
102
{ACAD_XDICTIONARY
360
1FB
102
}
330
2A
100
AcDbVisualStyle
  2
Sketchy
 70
    24
177
     2
291
     0
 71
     1
176
     1
 72
     2
176
     1
 73
     2
176
     1
 90
        0
176
     1
 40
0.6
176
     1
 41
30.0
176
     1
 62
     5
 63
     7
421
 16777215
176
     1
 74
     2
176
     1
 91
        2
176
     1
 64
     7
176
     1
 65
     7
176
     1
 75
     1
176
     1
175
     1
176
     1
 42
40.0
176
     1
 92
       11
176
     1
 66
     7
176
     1
 43
1.0
176
     1
 76
     1
176
     1
 77
     6
176
     1
 78
     2
176
     1
 67
     7
176
     1
 79
     6
176
     1
170
     0
176
     1
171
     0
176
     1
290
     0
176
     1
 93
        1
176
     1
 44
0.0
176
     1
173
     0
176
     1
  0
VISUALSTYLE
  5
37
102
{ACAD_REACTORS
330
2A
102
}
102
{ACAD_XDICTIONARY
360
1EB
102
}
330
2A
100
AcDbVisualStyle
  2
Thicken
 70
    13
177
     2
291
     1
 71
     2
176
     1
 72
     2
176
     1
 73
     0
176
     1
 90
        0
176
     1
 40
0.6
176
     1
 41
30.0
176
     1
 62
     5
 63
     7
421
 16777215
176
     1
 74
     1
176
     1
 91
        4
176
     1
 64
     7
176
     1
 65
   257
176
     1
 75
     1
176
     1
175
     1
176
     1
 42
1.0
176
     1
 92
       12
176
     1
 66
     7
176
     1
 43
1.0
176
     1
 76
     1
176
     1
 77
     6
176
     1
 78
     2
176
     1
 67
     7
176
     1
 79
     5
176
     1
170
     0
176
     1
171
     0
176
     1
290
     0
176
     1
 93
        1
176
     1
 44
0.0
176
     1
173
     0
176
     1
  0
VISUALSTYLE
  5
30
102
{ACAD_REACTORS
330
2A
102
}
102
{ACAD_XDICTIONARY
360
1DD
102
}
330
2A
100
AcDbVisualStyle
  2
Wireframe
 70
     5
177
     2
291
     0
 71
     0
176
     1
 72
     2
176
     1
 73
     0
176
     1
 90
        0
176
     1
 40
0.6
176
     1
 41
30.0
176
     1
 62
     5
 63
     7
421
 16777215
176
     1
 74
     1
176
     1
 91
        4
176
     1
 64
     7
176
     1
 65
   257
176
     1
 75
     1
176
     1
175
     1
176
     1
 42
1.0
176
     1
 92
        0
176
     1
 66
   257
176
     1
 43
1.0
176
     1
 76
     1
176
     1
 77
     6
176
     1
 78
     2
176
     1
 67
     7
176
     1
 79
     3
176
     1
170
     0
176
     1
171
     0
176
     1
290
     0
176
     1
 93
        1
176
     1
 44
0.0
176
     1
173
     0
176
     1
  0
VISUALSTYLE
  5
40
102
{ACAD_REACTORS
330
2A
102
}
102
{ACAD_XDICTIONARY
360
1FD
102
}
330
2A
100
AcDbVisualStyle
  2
X-Ray
 70
    25
177
     2
291
     0
 71
     2
176
     1
 72
     2
176
     1
 73
     1
176
     1
 90
        1
176
     1
 40
0.5
176
     1
 41
30.0
176
     1
 62
     5
 63
     7
421
 16777215
176
     1
 74
     1
176
     1
 91
        0
176
     1
 64
     7
176
     1
 65
   257
176
     1
 75
     1
176
     1
175
     1
176
     1
 42
1.0
176
     1
 92
        8
176
     1
 66
     7
176
     1
 43
1.0
176
     1
 76
     1
176
     1
 77
     6
176
     1
 78
     2
176
     1
 67
     7
176
     1
 79
     3
176
     1
170
     0
176
     1
171
     0
176
     1
290
     0
176
     1
 93
       13
176
     1
 44
0.0
176
     1
173
     0
176
     1
  0
DICTIONARYVAR
  5
1D2
102
{ACAD_REACTORS
330
1D1
102
}
330
1D1
100
DictionaryVariables
280
     0
  1
1:1
  0
DICTIONARYVAR
  5
207
102
{ACAD_REACTORS
330
1D1
102
}
330
1D1
100
DictionaryVariables
280
     0
  1
Standard
  0
DICTIONARYVAR
  5
206
102
{ACAD_REACTORS
330
1D1
102
}
330
1D1
100
DictionaryVariables
280
     0
  1
Standard
  0
DICTIONARY
  5
203
330
6A
100
AcDbDictionary
280
     1
281
     1
  3
ACAD_ROUNDTRIP_2008_TABLESTYLE_CELLSTYLEMAP
360
204
  0
DICTIONARY
  5
1DB
330
2F
100
AcDbDictionary
280
     1
281
     1
  3
ACAD_XREC_ROUNDTRIP
360
1DC
  0
DICTIONARY
  5
1E1
330
32
100
AcDbDictionary
280
     1
281
     1
  3
ACAD_XREC_ROUNDTRIP
360
1E2
  0
DICTIONARY
  5
1E9
330
36
100
AcDbDictionary
280
     1
281
     1
  3
ACAD_XREC_ROUNDTRIP
360
1EA
  0
DICTIONARY
  5
1F1
330
3A
100
AcDbDictionary
280
     1
281
     1
  3
ACAD_XREC_ROUNDTRIP
360
1F2
  0
DICTIONARY
  5
1E5
330
34
100
AcDbDictionary
280
     1
281
     1
  3
ACAD_XREC_ROUNDTRIP
360
1E6
  0
DICTIONARY
  5
1E7
330
35
100
AcDbDictionary
280
     1
281
     1
  3
ACAD_XREC_ROUNDTRIP
360
1E8
  0
DICTIONARY
  5
1F7
330
3D
100
AcDbDictionary
280
     1
281
     1
  3
ACAD_XREC_ROUNDTRIP
360
1F8
  0
DICTIONARY
  5
1EF
330
39
100
AcDbDictionary
280
     1
281
     1
  3
ACAD_XREC_ROUNDTRIP
360
1F0
  0
DICTIONARY
  5
1D3
330
2B
100
AcDbDictionary
280
     1
281
     1
  3
ACAD_XREC_ROUNDTRIP
360
1D4
  0
DICTIONARY
  5
1D5
330
2C
100
AcDbDictionary
280
     1
281
     1
  3
ACAD_XREC_ROUNDTRIP
360
1D6
  0
DICTIONARY
  5
1D7
330
2D
100
AcDbDictionary
280
     1
281
     1
  3
ACAD_XREC_ROUNDTRIP
360
1D8
  0
DICTIONARY
  5
1D9
330
2E
100
AcDbDictionary
280
     1
281
     1
  3
ACAD_XREC_ROUNDTRIP
360
1DA
  0
DICTIONARY
  5
1DF
330
31
100
AcDbDictionary
280
     1
281
     1
  3
ACAD_XREC_ROUNDTRIP
360
1E0
  0
DICTIONARY
  5
1F3
330
3B
100
AcDbDictionary
280
     1
281
     1
  3
ACAD_XREC_ROUNDTRIP
360
1F4
  0
DICTIONARY
  5
1ED
330
38
100
AcDbDictionary
280
     1
281
     1
  3
ACAD_XREC_ROUNDTRIP
360
1EE
  0
DICTIONARY
  5
1F5
330
3C
100
AcDbDictionary
280
     1
281
     1
  3
ACAD_XREC_ROUNDTRIP
360
1F6
  0
DICTIONARY
  5
1E3
330
33
100
AcDbDictionary
280
     1
281
     1
  3
ACAD_XREC_ROUNDTRIP
360
1E4
  0
DICTIONARY
  5
201
330
42
100
AcDbDictionary
280
     1
281
     1
  3
ACAD_XREC_ROUNDTRIP
360
202
  0
DICTIONARY
  5
1FF
330
41
100
AcDbDictionary
280
     1
281
     1
  3
ACAD_XREC_ROUNDTRIP
360
200
  0
DICTIONARY
  5
1F9
330
3E
100
AcDbDictionary
280
     1
281
     1
  3
ACAD_XREC_ROUNDTRIP
360
1FA
  0
DICTIONARY
  5
1FB
330
3F
100
AcDbDictionary
280
     1
281
     1
  3
ACAD_XREC_ROUNDTRIP
360
1FC
  0
DICTIONARY
  5
1EB
330
37
100
AcDbDictionary
280
     1
281
     1
  3
ACAD_XREC_ROUNDTRIP
360
1EC
  0
DICTIONARY
  5
1DD
330
30
100
AcDbDictionary
280
     1
281
     1
  3
ACAD_XREC_ROUNDTRIP
360
1DE
  0
DICTIONARY
  5
1FD
330
40
100
AcDbDictionary
280
     1
281
     1
  3
ACAD_XREC_ROUNDTRIP
360
1FE
  0
CELLSTYLEMAP
  5
204
102
{ACAD_REACTORS
330
203
102
}
330
203
100
AcDbCellStyleMap
 90
        3
300
CELLSTYLE
  1
TABLEFORMAT_BEGIN
 90
        5
170
     1
 91
        0
 92
    32768
 62
   257
 93
        1
300
CONTENTFORMAT
  1
CONTENTFORMAT_BEGIN
 90
        0
 91
        0
 92
        4
 93
        0
300

 40
0.0
140
1.0
 94
        5
 62
     0
340
11
144
6.0
309
CONTENTFORMAT_END
171
     1
301
MARGIN
  1
CELLMARGIN_BEGIN
 40
1.5
 40
1.5
 40
1.5
 40
1.5
 40
1.5
 40
1.5
309
CELLMARGIN_END
 94
        6
 95
        1
302
GRIDFORMAT
  1
GRIDFORMAT_BEGIN
 90
        0
 91
        1
 62
     0
 92
       -2
340
14
 93
        0
 40
0.045
309
GRIDFORMAT_END
 95
        2
302
GRIDFORMAT
  1
GRIDFORMAT_BEGIN
 90
        0
 91
        1
 62
     0
 92
       -2
340
14
 93
        0
 40
0.045
309
GRIDFORMAT_END
 95
        4
302
GRIDFORMAT
  1
GRIDFORMAT_BEGIN
 90
        0
 91
        1
 62
     0
 92
       -2
340
14
 93
        0
 40
0.045
309
GRIDFORMAT_END
 95
        8
302
GRIDFORMAT
  1
GRIDFORMAT_BEGIN
 90
        0
 91
        1
 62
     0
 92
       -2
340
14
 93
        0
 40
0.045
309
GRIDFORMAT_END
 95
       16
302
GRIDFORMAT
  1
GRIDFORMAT_BEGIN
 90
        0
 91
        1
 62
     0
 92
       -2
340
14
 93
        0
 40
0.045
309
GRIDFORMAT_END
 95
       32
302
GRIDFORMAT
  1
GRIDFORMAT_BEGIN
 90
        0
 91
        1
 62
     0
 92
       -2
340
14
 93
        0
 40
0.045
309
GRIDFORMAT_END
309
TABLEFORMAT_END
  1
CELLSTYLE_BEGIN
 90
        1
 91
        1
300
_TITLE
309
CELLSTYLE_END
300
CELLSTYLE
  1
TABLEFORMAT_BEGIN
 90
        5
170
     1
 91
        0
 92
        0
 62
   257
 93
        1
300
CONTENTFORMAT
  1
CONTENTFORMAT_BEGIN
 90
        0
 91
        0
 92
        4
 93
        0
300

 40
0.0
140
1.0
 94
        5
 62
     0
340
11
144
4.5
309
CONTENTFORMAT_END
171
     1
301
MARGIN
  1
CELLMARGIN_BEGIN
 40
1.5
 40
1.5
 40
1.5
 40
1.5
 40
1.5
 40
1.5
309
CELLMARGIN_END
 94
        6
 95
        1
302
GRIDFORMAT
  1
GRIDFORMAT_BEGIN
 90
        0
 91
        1
 62
     0
 92
       -2
340
14
 93
        0
 40
0.045
309
GRIDFORMAT_END
 95
        2
302
GRIDFORMAT
  1
GRIDFORMAT_BEGIN
 90
        0
 91
        1
 62
     0
 92
       -2
340
14
 93
        0
 40
0.045
309
GRIDFORMAT_END
 95
        4
302
GRIDFORMAT
  1
GRIDFORMAT_BEGIN
 90
        0
 91
        1
 62
     0
 92
       -2
340
14
 93
        0
 40
0.045
309
GRIDFORMAT_END
 95
        8
302
GRIDFORMAT
  1
GRIDFORMAT_BEGIN
 90
        0
 91
        1
 62
     0
 92
       -2
340
14
 93
        0
 40
0.045
309
GRIDFORMAT_END
 95
       16
302
GRIDFORMAT
  1
GRIDFORMAT_BEGIN
 90
        0
 91
        1
 62
     0
 92
       -2
340
14
 93
        0
 40
0.045
309
GRIDFORMAT_END
 95
       32
302
GRIDFORMAT
  1
GRIDFORMAT_BEGIN
 90
        0
 91
        1
 62
     0
 92
       -2
340
14
 93
        0
 40
0.045
309
GRIDFORMAT_END
309
TABLEFORMAT_END
  1
CELLSTYLE_BEGIN
 90
        2
 91
        1
300
_HEADER
309
CELLSTYLE_END
300
CELLSTYLE
  1
TABLEFORMAT_BEGIN
 90
        5
170
     1
 91
        0
 92
        0
 62
   257
 93
        1
300
CONTENTFORMAT
  1
CONTENTFORMAT_BEGIN
 90
        0
 91
        0
 92
        4
 93
        0
300

 40
0.0
140
1.0
 94
        2
 62
     0
340
11
144
4.5
309
CONTENTFORMAT_END
171
     1
301
MARGIN
  1
CELLMARGIN_BEGIN
 40
1.5
 40
1.5
 40
1.5
 40
1.5
 40
1.5
 40
1.5
309
CELLMARGIN_END
 94
        6
 95
        1
302
GRIDFORMAT
  1
GRIDFORMAT_BEGIN
 90
        0
 91
        1
 62
     0
 92
       -2
340
14
 93
        0
 40
0.045
309
GRIDFORMAT_END
 95
        2
302
GRIDFORMAT
  1
GRIDFORMAT_BEGIN
 90
        0
 91
        1
 62
     0
 92
       -2
340
14
 93
        0
 40
0.045
309
GRIDFORMAT_END
 95
        4
302
GRIDFORMAT
  1
GRIDFORMAT_BEGIN
 90
        0
 91
        1
 62
     0
 92
       -2
340
14
 93
        0
 40
0.045
309
GRIDFORMAT_END
 95
        8
302
GRIDFORMAT
  1
GRIDFORMAT_BEGIN
 90
        0
 91
        1
 62
     0
 92
       -2
340
14
 93
        0
 40
0.045
309
GRIDFORMAT_END
 95
       16
302
GRIDFORMAT
  1
GRIDFORMAT_BEGIN
 90
        0
 91
        1
 62
     0
 92
       -2
340
14
 93
        0
 40
0.045
309
GRIDFORMAT_END
 95
       32
302
GRIDFORMAT
  1
GRIDFORMAT_BEGIN
 90
        0
 91
        1
 62
     0
 92
       -2
340
14
 93
        0
 40
0.045
309
GRIDFORMAT_END
309
TABLEFORMAT_END
  1
CELLSTYLE_BEGIN
 90
        3
 91
        2
300
_DATA
309
CELLSTYLE_END
  0
XRECORD
  5
1DC
102
{ACAD_REACTORS
330
1DB
102
}
330
1DB
100
AcDbXrecord
280
     1
102
RTVSPost2010Prop28
280
     1
102
RTVSPost2010PropOp28
 70
     1
102
RTVSPost2010Prop29
280
     1
102
RTVSPost2010PropOp29
 70
     1
102
RTVSPost2010Prop30
280
     0
102
RTVSPost2010PropOp30
 70
     1
102
RTVSPost2010Prop31
280
     0
102
RTVSPost2010PropOp31
 70
     1
102
RTVSPost2010Prop32
280
     0
102
RTVSPost2010PropOp32
 70
     1
102
RTVSPost2010Prop33
280
     0
102
RTVSPost2010PropOp33
 70
     1
102
RTVSPost2010Prop34
280
     0
102
RTVSPost2010PropOp34
 70
     1
102
RTVSPost2010Prop35
280
     0
102
RTVSPost2010PropOp35
 70
     1
102
RTVSPost2010Prop36
280
     0
102
RTVSPost2010PropOp36
 70
     1
102
RTVSPost2010Prop37
 90
       50
102
RTVSPost2010PropOp37
 70
     1
102
RTVSPost2010Prop38
140
0.0
102
RTVSPost2010PropOp38
 70
     1
102
RTVSPost2010Prop39
140
1.0
102
RTVSPost2010PropOp39
 70
     1
102
RTVSPost2010Prop40
 90
        0
102
RTVSPost2010PropOp40
 70
     1
102
RTVSPost2010Prop41ColorIndex
 90
       18
102
RTVSPost2010Prop41ColorRGB
 90
        0
102
RTVSPost2010PropOp41
 70
     1
102
RTVSPost2010Prop42
 90
       50
102
RTVSPost2010PropOp42
 70
     1
102
RTVSPost2010Prop43
 90
        3
102
RTVSPost2010PropOp43
 70
     1
102
RTVSPost2010Prop44ColorIndex
 90
        5
102
RTVSPost2010Prop44ColorRGB
 90
      255
102
RTVSPost2010PropOp44
 70
     1
102
RTVSPost2010Prop45
280
     0
102
RTVSPost2010PropOp45
 70
     1
102
RTVSPost2010Prop46
 90
       50
102
RTVSPost2010PropOp46
 70
     1
102
RTVSPost2010Prop47
 90
       50
102
RTVSPost2010PropOp47
 70
     1
102
RTVSPost2010Prop48
 90
       50
102
RTVSPost2010PropOp48
 70
     1
102
RTVSPost2010Prop49
280
     0
102
RTVSPost2010PropOp49
 70
     1
102
RTVSPost2010Prop50
 90
       50
102
RTVSPost2010PropOp50
 70
     1
102
RTVSPost2010Prop51ColorIndex
 90
      256
102
RTVSPost2010Prop51ColorRGB
 90
-16777216
102
RTVSPost2010PropOp51
 70
     0
102
RTVSPost2010Prop52
140
1.0
102
RTVSPost2010PropOp52
 70
     0
102
RTVSPost2010Prop53
 90
        2
102
RTVSPost2010PropOp53
 70
     1
102
RTVSPost2010Prop54
  1
strokes_ogs.tif
102
RTVSPost2010PropOp54
 70
     1
102
RTVSPost2010Prop55
280
     0
102
RTVSPost2010PropOp55
 70
     1
102
RTVSPost2010Prop56
140
1.0
102
RTVSPost2010PropOp56
 70
     1
102
RTVSPost2010Prop57
140
1.0
102
RTVSPost2010PropOp57
 70
     1
  0
XRECORD
  5
1E2
102
{ACAD_REACTORS
330
1E1
102
}
330
1E1
100
AcDbXrecord
280
     1
102
RTVSPost2010Prop28
280
     0
102
RTVSPost2010PropOp28
 70
     1
102
RTVSPost2010Prop29
280
     1
102
RTVSPost2010PropOp29
 70
     1
102
RTVSPost2010Prop30
280
     1
102
RTVSPost2010PropOp30
 70
     1
102
RTVSPost2010Prop31
280
     0
102
RTVSPost2010PropOp31
 70
     1
102
RTVSPost2010Prop32
280
     0
102
RTVSPost2010PropOp32
 70
     1
102
RTVSPost2010Prop33
280
     0
102
RTVSPost2010PropOp33
 70
     1
102
RTVSPost2010Prop34
280
     0
102
RTVSPost2010PropOp34
 70
     1
102
RTVSPost2010Prop35
280
     0
102
RTVSPost2010PropOp35
 70
     1
102
RTVSPost2010Prop36
280
     0
102
RTVSPost2010PropOp36
 70
     1
102
RTVSPost2010Prop37
 90
       50
102
RTVSPost2010PropOp37
 70
     1
102
RTVSPost2010Prop38
140
0.0
102
RTVSPost2010PropOp38
 70
     1
102
RTVSPost2010Prop39
140
1.0
102
RTVSPost2010PropOp39
 70
     1
102
RTVSPost2010Prop40
 90
        0
102
RTVSPost2010PropOp40
 70
     1
102
RTVSPost2010Prop41ColorIndex
 90
       18
102
RTVSPost2010Prop41ColorRGB
 90
        0
102
RTVSPost2010PropOp41
 70
     1
102
RTVSPost2010Prop42
 90
       50
102
RTVSPost2010PropOp42
 70
     1
102
RTVSPost2010Prop43
 90
        3
102
RTVSPost2010PropOp43
 70
     1
102
RTVSPost2010Prop44ColorIndex
 90
        5
102
RTVSPost2010Prop44ColorRGB
 90
      255
102
RTVSPost2010PropOp44
 70
     1
102
RTVSPost2010Prop45
280
     0
102
RTVSPost2010PropOp45
 70
     1
102
RTVSPost2010Prop46
 90
       50
102
RTVSPost2010PropOp46
 70
     1
102
RTVSPost2010Prop47
 90
       50
102
RTVSPost2010PropOp47
 70
     1
102
RTVSPost2010Prop48
 90
       50
102
RTVSPost2010PropOp48
 70
     1
102
RTVSPost2010Prop49
280
     0
102
RTVSPost2010PropOp49
 70
     1
102
RTVSPost2010Prop50
 90
       50
102
RTVSPost2010PropOp50
 70
     1
102
RTVSPost2010Prop51ColorIndex
 90
      256
102
RTVSPost2010Prop51ColorRGB
 90
-16777216
102
RTVSPost2010PropOp51
 70
     0
102
RTVSPost2010Prop52
140
1.0
102
RTVSPost2010PropOp52
 70
     0
102
RTVSPost2010Prop53
 90
        2
102
RTVSPost2010PropOp53
 70
     1
102
RTVSPost2010Prop54
  1
strokes_ogs.tif
102
RTVSPost2010PropOp54
 70
     1
102
RTVSPost2010Prop55
280
     0
102
RTVSPost2010PropOp55
 70
     1
102
RTVSPost2010Prop56
140
1.0
102
RTVSPost2010PropOp56
 70
     1
102
RTVSPost2010Prop57
140
1.0
102
RTVSPost2010PropOp57
 70
     1
  0
XRECORD
  5
1EA
102
{ACAD_REACTORS
330
1E9
102
}
330
1E9
100
AcDbXrecord
280
     1
102
RTVSPost2010Prop28
280
     0
102
RTVSPost2010PropOp28
 70
     1
102
RTVSPost2010Prop29
280
     1
102
RTVSPost2010PropOp29
 70
     1
102
RTVSPost2010Prop30
280
     1
102
RTVSPost2010PropOp30
 70
     1
102
RTVSPost2010Prop31
280
     0
102
RTVSPost2010PropOp31
 70
     1
102
RTVSPost2010Prop32
280
     0
102
RTVSPost2010PropOp32
 70
     1
102
RTVSPost2010Prop33
280
     0
102
RTVSPost2010PropOp33
 70
     1
102
RTVSPost2010Prop34
280
     0
102
RTVSPost2010PropOp34
 70
     1
102
RTVSPost2010Prop35
280
     0
102
RTVSPost2010PropOp35
 70
     1
102
RTVSPost2010Prop36
280
     0
102
RTVSPost2010PropOp36
 70
     1
102
RTVSPost2010Prop37
 90
       50
102
RTVSPost2010PropOp37
 70
     1
102
RTVSPost2010Prop38
140
0.0
102
RTVSPost2010PropOp38
 70
     1
102
RTVSPost2010Prop39
140
1.0
102
RTVSPost2010PropOp39
 70
     1
102
RTVSPost2010Prop40
 90
        0
102
RTVSPost2010PropOp40
 70
     1
102
RTVSPost2010Prop41ColorIndex
 90
       18
102
RTVSPost2010Prop41ColorRGB
 90
        0
102
RTVSPost2010PropOp41
 70
     1
102
RTVSPost2010Prop42
 90
       50
102
RTVSPost2010PropOp42
 70
     1
102
RTVSPost2010Prop43
 90
        3
102
RTVSPost2010PropOp43
 70
     1
102
RTVSPost2010Prop44ColorIndex
 90
        5
102
RTVSPost2010Prop44ColorRGB
 90
      255
102
RTVSPost2010PropOp44
 70
     1
102
RTVSPost2010Prop45
280
     0
102
RTVSPost2010PropOp45
 70
     1
102
RTVSPost2010Prop46
 90
       50
102
RTVSPost2010PropOp46
 70
     1
102
RTVSPost2010Prop47
 90
       50
102
RTVSPost2010PropOp47
 70
     1
102
RTVSPost2010Prop48
 90
       50
102
RTVSPost2010PropOp48
 70
     1
102
RTVSPost2010Prop49
280
     0
102
RTVSPost2010PropOp49
 70
     1
102
RTVSPost2010Prop50
 90
       50
102
RTVSPost2010PropOp50
 70
     1
102
RTVSPost2010Prop51ColorIndex
 90
      256
102
RTVSPost2010Prop51ColorRGB
 90
-16777216
102
RTVSPost2010PropOp51
 70
     0
102
RTVSPost2010Prop52
140
1.0
102
RTVSPost2010PropOp52
 70
     0
102
RTVSPost2010Prop53
 90
        2
102
RTVSPost2010PropOp53
 70
     1
102
RTVSPost2010Prop54
  1
strokes_ogs.tif
102
RTVSPost2010PropOp54
 70
     1
102
RTVSPost2010Prop55
280
     0
102
RTVSPost2010PropOp55
 70
     1
102
RTVSPost2010Prop56
140
1.0
102
RTVSPost2010PropOp56
 70
     1
102
RTVSPost2010Prop57
140
1.0
102
RTVSPost2010PropOp57
 70
     1
  0
XRECORD
  5
1F2
102
{ACAD_REACTORS
330
1F1
102
}
330
1F1
100
AcDbXrecord
280
     1
102
RTVSPost2010Prop28
280
     0
102
RTVSPost2010PropOp28
 70
     1
102
RTVSPost2010Prop29
280
     1
102
RTVSPost2010PropOp29
 70
     1
102
RTVSPost2010Prop30
280
     1
102
RTVSPost2010PropOp30
 70
     1
102
RTVSPost2010Prop31
280
     0
102
RTVSPost2010PropOp31
 70
     1
102
RTVSPost2010Prop32
280
     0
102
RTVSPost2010PropOp32
 70
     1
102
RTVSPost2010Prop33
280
     0
102
RTVSPost2010PropOp33
 70
     1
102
RTVSPost2010Prop34
280
     0
102
RTVSPost2010PropOp34
 70
     1
102
RTVSPost2010Prop35
280
     0
102
RTVSPost2010PropOp35
 70
     1
102
RTVSPost2010Prop36
280
     0
102
RTVSPost2010PropOp36
 70
     1
102
RTVSPost2010Prop37
 90
       50
102
RTVSPost2010PropOp37
 70
     1
102
RTVSPost2010Prop38
140
0.0
102
RTVSPost2010PropOp38
 70
     1
102
RTVSPost2010Prop39
140
1.0
102
RTVSPost2010PropOp39
 70
     1
102
RTVSPost2010Prop40
 90
        0
102
RTVSPost2010PropOp40
 70
     1
102
RTVSPost2010Prop41ColorIndex
 90
       18
102
RTVSPost2010Prop41ColorRGB
 90
        0
102
RTVSPost2010PropOp41
 70
     1
102
RTVSPost2010Prop42
 90
       50
102
RTVSPost2010PropOp42
 70
     1
102
RTVSPost2010Prop43
 90
        3
102
RTVSPost2010PropOp43
 70
     1
102
RTVSPost2010Prop44ColorIndex
 90
        5
102
RTVSPost2010Prop44ColorRGB
 90
      255
102
RTVSPost2010PropOp44
 70
     1
102
RTVSPost2010Prop45
280
     0
102
RTVSPost2010PropOp45
 70
     1
102
RTVSPost2010Prop46
 90
       50
102
RTVSPost2010PropOp46
 70
     1
102
RTVSPost2010Prop47
 90
       50
102
RTVSPost2010PropOp47
 70
     1
102
RTVSPost2010Prop48
 90
       50
102
RTVSPost2010PropOp48
 70
     1
102
RTVSPost2010Prop49
280
     0
102
RTVSPost2010PropOp49
 70
     1
102
RTVSPost2010Prop50
 90
       50
102
RTVSPost2010PropOp50
 70
     1
102
RTVSPost2010Prop51ColorIndex
 90
      256
102
RTVSPost2010Prop51ColorRGB
 90
-16777216
102
RTVSPost2010PropOp51
 70
     0
102
RTVSPost2010Prop52
140
1.0
102
RTVSPost2010PropOp52
 70
     0
102
RTVSPost2010Prop53
 90
        2
102
RTVSPost2010PropOp53
 70
     1
102
RTVSPost2010Prop54
  1
strokes_ogs.tif
102
RTVSPost2010PropOp54
 70
     1
102
RTVSPost2010Prop55
280
     0
102
RTVSPost2010PropOp55
 70
     1
102
RTVSPost2010Prop56
140
1.0
102
RTVSPost2010PropOp56
 70
     1
102
RTVSPost2010Prop57
140
1.0
102
RTVSPost2010PropOp57
 70
     1
  0
XRECORD
  5
1E6
102
{ACAD_REACTORS
330
1E5
102
}
330
1E5
100
AcDbXrecord
280
     1
102
RTVSPost2010Prop28
280
     0
102
RTVSPost2010PropOp28
 70
     1
102
RTVSPost2010Prop29
280
     1
102
RTVSPost2010PropOp29
 70
     1
102
RTVSPost2010Prop30
280
     1
102
RTVSPost2010PropOp30
 70
     1
102
RTVSPost2010Prop31
280
     0
102
RTVSPost2010PropOp31
 70
     1
102
RTVSPost2010Prop32
280
     0
102
RTVSPost2010PropOp32
 70
     1
102
RTVSPost2010Prop33
280
     0
102
RTVSPost2010PropOp33
 70
     1
102
RTVSPost2010Prop34
280
     0
102
RTVSPost2010PropOp34
 70
     1
102
RTVSPost2010Prop35
280
     0
102
RTVSPost2010PropOp35
 70
     1
102
RTVSPost2010Prop36
280
     0
102
RTVSPost2010PropOp36
 70
     1
102
RTVSPost2010Prop37
 90
       50
102
RTVSPost2010PropOp37
 70
     1
102
RTVSPost2010Prop38
140
0.0
102
RTVSPost2010PropOp38
 70
     1
102
RTVSPost2010Prop39
140
1.0
102
RTVSPost2010PropOp39
 70
     1
102
RTVSPost2010Prop40
 90
        0
102
RTVSPost2010PropOp40
 70
     1
102
RTVSPost2010Prop41ColorIndex
 90
       18
102
RTVSPost2010Prop41ColorRGB
 90
        0
102
RTVSPost2010PropOp41
 70
     1
102
RTVSPost2010Prop42
 90
       50
102
RTVSPost2010PropOp42
 70
     1
102
RTVSPost2010Prop43
 90
        3
102
RTVSPost2010PropOp43
 70
     1
102
RTVSPost2010Prop44ColorIndex
 90
        5
102
RTVSPost2010Prop44ColorRGB
 90
      255
102
RTVSPost2010PropOp44
 70
     1
102
RTVSPost2010Prop45
280
     0
102
RTVSPost2010PropOp45
 70
     1
102
RTVSPost2010Prop46
 90
       50
102
RTVSPost2010PropOp46
 70
     1
102
RTVSPost2010Prop47
 90
       50
102
RTVSPost2010PropOp47
 70
     1
102
RTVSPost2010Prop48
 90
       50
102
RTVSPost2010PropOp48
 70
     1
102
RTVSPost2010Prop49
280
     0
102
RTVSPost2010PropOp49
 70
     1
102
RTVSPost2010Prop50
 90
       50
102
RTVSPost2010PropOp50
 70
     1
102
RTVSPost2010Prop51ColorIndex
 90
      256
102
RTVSPost2010Prop51ColorRGB
 90
-16777216
102
RTVSPost2010PropOp51
 70
     0
102
RTVSPost2010Prop52
140
1.0
102
RTVSPost2010PropOp52
 70
     0
102
RTVSPost2010Prop53
 90
        2
102
RTVSPost2010PropOp53
 70
     1
102
RTVSPost2010Prop54
  1
strokes_ogs.tif
102
RTVSPost2010PropOp54
 70
     1
102
RTVSPost2010Prop55
280
     0
102
RTVSPost2010PropOp55
 70
     1
102
RTVSPost2010Prop56
140
1.0
102
RTVSPost2010PropOp56
 70
     1
102
RTVSPost2010Prop57
140
1.0
102
RTVSPost2010PropOp57
 70
     1
  0
XRECORD
  5
1E8
102
{ACAD_REACTORS
330
1E7
102
}
330
1E7
100
AcDbXrecord
280
     1
102
RTVSPost2010Prop28
280
     0
102
RTVSPost2010PropOp28
 70
     1
102
RTVSPost2010Prop29
280
     1
102
RTVSPost2010PropOp29
 70
     1
102
RTVSPost2010Prop30
280
     1
102
RTVSPost2010PropOp30
 70
     1
102
RTVSPost2010Prop31
280
     0
102
RTVSPost2010PropOp31
 70
     1
102
RTVSPost2010Prop32
280
     0
102
RTVSPost2010PropOp32
 70
     1
102
RTVSPost2010Prop33
280
     0
102
RTVSPost2010PropOp33
 70
     1
102
RTVSPost2010Prop34
280
     0
102
RTVSPost2010PropOp34
 70
     1
102
RTVSPost2010Prop35
280
     0
102
RTVSPost2010PropOp35
 70
     1
102
RTVSPost2010Prop36
280
     0
102
RTVSPost2010PropOp36
 70
     1
102
RTVSPost2010Prop37
 90
       50
102
RTVSPost2010PropOp37
 70
     1
102
RTVSPost2010Prop38
140
0.0
102
RTVSPost2010PropOp38
 70
     1
102
RTVSPost2010Prop39
140
1.0
102
RTVSPost2010PropOp39
 70
     1
102
RTVSPost2010Prop40
 90
        0
102
RTVSPost2010PropOp40
 70
     1
102
RTVSPost2010Prop41ColorIndex
 90
       18
102
RTVSPost2010Prop41ColorRGB
 90
        0
102
RTVSPost2010PropOp41
 70
     1
102
RTVSPost2010Prop42
 90
       50
102
RTVSPost2010PropOp42
 70
     1
102
RTVSPost2010Prop43
 90
        3
102
RTVSPost2010PropOp43
 70
     1
102
RTVSPost2010Prop44ColorIndex
 90
        5
102
RTVSPost2010Prop44ColorRGB
 90
      255
102
RTVSPost2010PropOp44
 70
     1
102
RTVSPost2010Prop45
280
     0
102
RTVSPost2010PropOp45
 70
     1
102
RTVSPost2010Prop46
 90
       50
102
RTVSPost2010PropOp46
 70
     1
102
RTVSPost2010Prop47
 90
       50
102
RTVSPost2010PropOp47
 70
     1
102
RTVSPost2010Prop48
 90
       50
102
RTVSPost2010PropOp48
 70
     1
102
RTVSPost2010Prop49
280
     0
102
RTVSPost2010PropOp49
 70
     1
102
RTVSPost2010Prop50
 90
       50
102
RTVSPost2010PropOp50
 70
     1
102
RTVSPost2010Prop51ColorIndex
 90
      256
102
RTVSPost2010Prop51ColorRGB
 90
-16777216
102
RTVSPost2010PropOp51
 70
     0
102
RTVSPost2010Prop52
140
1.0
102
RTVSPost2010PropOp52
 70
     0
102
RTVSPost2010Prop53
 90
        2
102
RTVSPost2010PropOp53
 70
     1
102
RTVSPost2010Prop54
  1
strokes_ogs.tif
102
RTVSPost2010PropOp54
 70
     1
102
RTVSPost2010Prop55
280
     0
102
RTVSPost2010PropOp55
 70
     1
102
RTVSPost2010Prop56
140
1.0
102
RTVSPost2010PropOp56
 70
     1
102
RTVSPost2010Prop57
140
1.0
102
RTVSPost2010PropOp57
 70
     1
  0
XRECORD
  5
1F8
102
{ACAD_REACTORS
330
1F7
102
}
330
1F7
100
AcDbXrecord
280
     1
102
RTVSPost2010Prop28
280
     0
102
RTVSPost2010PropOp28
 70
     0
102
RTVSPost2010Prop29
280
     1
102
RTVSPost2010PropOp29
 70
     0
102
RTVSPost2010Prop30
280
     1
102
RTVSPost2010PropOp30
 70
     0
102
RTVSPost2010Prop31
280
     0
102
RTVSPost2010PropOp31
 70
     0
102
RTVSPost2010Prop32
280
     0
102
RTVSPost2010PropOp32
 70
     0
102
RTVSPost2010Prop33
280
     0
102
RTVSPost2010PropOp33
 70
     0
102
RTVSPost2010Prop34
280
     0
102
RTVSPost2010PropOp34
 70
     0
102
RTVSPost2010Prop35
280
     0
102
RTVSPost2010PropOp35
 70
     0
102
RTVSPost2010Prop36
280
     0
102
RTVSPost2010PropOp36
 70
     0
102
RTVSPost2010Prop37
 90
       50
102
RTVSPost2010PropOp37
 70
     0
102
RTVSPost2010Prop38
140
0.0
102
RTVSPost2010PropOp38
 70
     0
102
RTVSPost2010Prop39
140
1.0
102
RTVSPost2010PropOp39
 70
     0
102
RTVSPost2010Prop40
 90
        0
102
RTVSPost2010PropOp40
 70
     0
102
RTVSPost2010Prop41ColorIndex
 90
       18
102
RTVSPost2010Prop41ColorRGB
 90
        0
102
RTVSPost2010PropOp41
 70
     0
102
RTVSPost2010Prop42
 90
       50
102
RTVSPost2010PropOp42
 70
     0
102
RTVSPost2010Prop43
 90
        3
102
RTVSPost2010PropOp43
 70
     0
102
RTVSPost2010Prop44ColorIndex
 90
        5
102
RTVSPost2010Prop44ColorRGB
 90
      255
102
RTVSPost2010PropOp44
 70
     0
102
RTVSPost2010Prop45
280
     0
102
RTVSPost2010PropOp45
 70
     0
102
RTVSPost2010Prop46
 90
       50
102
RTVSPost2010PropOp46
 70
     0
102
RTVSPost2010Prop47
 90
       50
102
RTVSPost2010PropOp47
 70
     0
102
RTVSPost2010Prop48
 90
       50
102
RTVSPost2010PropOp48
 70
     0
102
RTVSPost2010Prop49
280
     0
102
RTVSPost2010PropOp49
 70
     0
102
RTVSPost2010Prop50
 90
       50
102
RTVSPost2010PropOp50
 70
     0
102
RTVSPost2010Prop51ColorIndex
 90
      256
102
RTVSPost2010Prop51ColorRGB
 90
-16777216
102
RTVSPost2010PropOp51
 70
     0
102
RTVSPost2010Prop52
140
1.0
102
RTVSPost2010PropOp52
 70
     0
102
RTVSPost2010Prop53
 90
        2
102
RTVSPost2010PropOp53
 70
     0
102
RTVSPost2010Prop54
  1
strokes_ogs.tif
102
RTVSPost2010PropOp54
 70
     0
102
RTVSPost2010Prop55
280
     0
102
RTVSPost2010PropOp55
 70
     0
102
RTVSPost2010Prop56
140
1.0
102
RTVSPost2010PropOp56
 70
     0
102
RTVSPost2010Prop57
140
1.0
102
RTVSPost2010PropOp57
 70
     0
  0
XRECORD
  5
1F0
102
{ACAD_REACTORS
330
1EF
102
}
330
1EF
100
AcDbXrecord
280
     1
102
RTVSPost2010Prop28
280
     0
102
RTVSPost2010PropOp28
 70
     1
102
RTVSPost2010Prop29
280
     1
102
RTVSPost2010PropOp29
 70
     1
102
RTVSPost2010Prop30
280
     1
102
RTVSPost2010PropOp30
 70
     1
102
RTVSPost2010Prop31
280
     0
102
RTVSPost2010PropOp31
 70
     1
102
RTVSPost2010Prop32
280
     0
102
RTVSPost2010PropOp32
 70
     1
102
RTVSPost2010Prop33
280
     0
102
RTVSPost2010PropOp33
 70
     1
102
RTVSPost2010Prop34
280
     0
102
RTVSPost2010PropOp34
 70
     1
102
RTVSPost2010Prop35
280
     0
102
RTVSPost2010PropOp35
 70
     1
102
RTVSPost2010Prop36
280
     0
102
RTVSPost2010PropOp36
 70
     1
102
RTVSPost2010Prop37
 90
       50
102
RTVSPost2010PropOp37
 70
     1
102
RTVSPost2010Prop38
140
0.0
102
RTVSPost2010PropOp38
 70
     1
102
RTVSPost2010Prop39
140
1.0
102
RTVSPost2010PropOp39
 70
     1
102
RTVSPost2010Prop40
 90
        0
102
RTVSPost2010PropOp40
 70
     1
102
RTVSPost2010Prop41ColorIndex
 90
       18
102
RTVSPost2010Prop41ColorRGB
 90
        0
102
RTVSPost2010PropOp41
 70
     1
102
RTVSPost2010Prop42
 90
       50
102
RTVSPost2010PropOp42
 70
     1
102
RTVSPost2010Prop43
 90
        3
102
RTVSPost2010PropOp43
 70
     1
102
RTVSPost2010Prop44ColorIndex
 90
        5
102
RTVSPost2010Prop44ColorRGB
 90
      255
102
RTVSPost2010PropOp44
 70
     1
102
RTVSPost2010Prop45
280
     0
102
RTVSPost2010PropOp45
 70
     1
102
RTVSPost2010Prop46
 90
       50
102
RTVSPost2010PropOp46
 70
     1
102
RTVSPost2010Prop47
 90
       50
102
RTVSPost2010PropOp47
 70
     1
102
RTVSPost2010Prop48
 90
       50
102
RTVSPost2010PropOp48
 70
     1
102
RTVSPost2010Prop49
280
     0
102
RTVSPost2010PropOp49
 70
     1
102
RTVSPost2010Prop50
 90
       50
102
RTVSPost2010PropOp50
 70
     1
102
RTVSPost2010Prop51ColorIndex
 90
      256
102
RTVSPost2010Prop51ColorRGB
 90
-16777216
102
RTVSPost2010PropOp51
 70
     0
102
RTVSPost2010Prop52
140
1.0
102
RTVSPost2010PropOp52
 70
     0
102
RTVSPost2010Prop53
 90
        2
102
RTVSPost2010PropOp53
 70
     1
102
RTVSPost2010Prop54
  1
strokes_ogs.tif
102
RTVSPost2010PropOp54
 70
     1
102
RTVSPost2010Prop55
280
     0
102
RTVSPost2010PropOp55
 70
     1
102
RTVSPost2010Prop56
140
1.0
102
RTVSPost2010PropOp56
 70
     1
102
RTVSPost2010Prop57
140
1.0
102
RTVSPost2010PropOp57
 70
     1
  0
XRECORD
  5
1D4
102
{ACAD_REACTORS
330
1D3
102
}
330
1D3
100
AcDbXrecord
280
     1
102
RTVSPost2010Prop28
280
     0
102
RTVSPost2010PropOp28
 70
     1
102
RTVSPost2010Prop29
280
     1
102
RTVSPost2010PropOp29
 70
     1
102
RTVSPost2010Prop30
280
     1
102
RTVSPost2010PropOp30
 70
     1
102
RTVSPost2010Prop31
280
     0
102
RTVSPost2010PropOp31
 70
     1
102
RTVSPost2010Prop32
280
     0
102
RTVSPost2010PropOp32
 70
     1
102
RTVSPost2010Prop33
280
     0
102
RTVSPost2010PropOp33
 70
     1
102
RTVSPost2010Prop34
280
     0
102
RTVSPost2010PropOp34
 70
     1
102
RTVSPost2010Prop35
280
     0
102
RTVSPost2010PropOp35
 70
     1
102
RTVSPost2010Prop36
280
     0
102
RTVSPost2010PropOp36
 70
     1
102
RTVSPost2010Prop37
 90
       50
102
RTVSPost2010PropOp37
 70
     1
102
RTVSPost2010Prop38
140
0.0
102
RTVSPost2010PropOp38
 70
     1
102
RTVSPost2010Prop39
140
1.0
102
RTVSPost2010PropOp39
 70
     1
102
RTVSPost2010Prop40
 90
        0
102
RTVSPost2010PropOp40
 70
     1
102
RTVSPost2010Prop41ColorIndex
 90
       18
102
RTVSPost2010Prop41ColorRGB
 90
        0
102
RTVSPost2010PropOp41
 70
     1
102
RTVSPost2010Prop42
 90
       50
102
RTVSPost2010PropOp42
 70
     1
102
RTVSPost2010Prop43
 90
        3
102
RTVSPost2010PropOp43
 70
     1
102
RTVSPost2010Prop44ColorIndex
 90
        5
102
RTVSPost2010Prop44ColorRGB
 90
      255
102
RTVSPost2010PropOp44
 70
     1
102
RTVSPost2010Prop45
280
     0
102
RTVSPost2010PropOp45
 70
     1
102
RTVSPost2010Prop46
 90
       50
102
RTVSPost2010PropOp46
 70
     1
102
RTVSPost2010Prop47
 90
       50
102
RTVSPost2010PropOp47
 70
     1
102
RTVSPost2010Prop48
 90
       50
102
RTVSPost2010PropOp48
 70
     1
102
RTVSPost2010Prop49
280
     0
102
RTVSPost2010PropOp49
 70
     1
102
RTVSPost2010Prop50
 90
       50
102
RTVSPost2010PropOp50
 70
     1
102
RTVSPost2010Prop51ColorIndex
 90
      256
102
RTVSPost2010Prop51ColorRGB
 90
-16777216
102
RTVSPost2010PropOp51
 70
     0
102
RTVSPost2010Prop52
140
1.0
102
RTVSPost2010PropOp52
 70
     0
102
RTVSPost2010Prop53
 90
        2
102
RTVSPost2010PropOp53
 70
     1
102
RTVSPost2010Prop54
  1
strokes_ogs.tif
102
RTVSPost2010PropOp54
 70
     1
102
RTVSPost2010Prop55
280
     0
102
RTVSPost2010PropOp55
 70
     1
102
RTVSPost2010Prop56
140
1.0
102
RTVSPost2010PropOp56
 70
     1
102
RTVSPost2010Prop57
140
1.0
102
RTVSPost2010PropOp57
 70
     1
  0
XRECORD
  5
1D6
102
{ACAD_REACTORS
330
1D5
102
}
330
1D5
100
AcDbXrecord
280
     1
102
RTVSPost2010Prop28
280
     0
102
RTVSPost2010PropOp28
 70
     1
102
RTVSPost2010Prop29
280
     1
102
RTVSPost2010PropOp29
 70
     1
102
RTVSPost2010Prop30
280
     1
102
RTVSPost2010PropOp30
 70
     1
102
RTVSPost2010Prop31
280
     0
102
RTVSPost2010PropOp31
 70
     1
102
RTVSPost2010Prop32
280
     0
102
RTVSPost2010PropOp32
 70
     1
102
RTVSPost2010Prop33
280
     0
102
RTVSPost2010PropOp33
 70
     1
102
RTVSPost2010Prop34
280
     0
102
RTVSPost2010PropOp34
 70
     1
102
RTVSPost2010Prop35
280
     0
102
RTVSPost2010PropOp35
 70
     1
102
RTVSPost2010Prop36
280
     0
102
RTVSPost2010PropOp36
 70
     1
102
RTVSPost2010Prop37
 90
       50
102
RTVSPost2010PropOp37
 70
     1
102
RTVSPost2010Prop38
140
0.0
102
RTVSPost2010PropOp38
 70
     1
102
RTVSPost2010Prop39
140
1.0
102
RTVSPost2010PropOp39
 70
     1
102
RTVSPost2010Prop40
 90
        0
102
RTVSPost2010PropOp40
 70
     1
102
RTVSPost2010Prop41ColorIndex
 90
       18
102
RTVSPost2010Prop41ColorRGB
 90
        0
102
RTVSPost2010PropOp41
 70
     1
102
RTVSPost2010Prop42
 90
       50
102
RTVSPost2010PropOp42
 70
     1
102
RTVSPost2010Prop43
 90
        3
102
RTVSPost2010PropOp43
 70
     1
102
RTVSPost2010Prop44ColorIndex
 90
        5
102
RTVSPost2010Prop44ColorRGB
 90
      255
102
RTVSPost2010PropOp44
 70
     1
102
RTVSPost2010Prop45
280
     0
102
RTVSPost2010PropOp45
 70
     1
102
RTVSPost2010Prop46
 90
       50
102
RTVSPost2010PropOp46
 70
     1
102
RTVSPost2010Prop47
 90
       50
102
RTVSPost2010PropOp47
 70
     1
102
RTVSPost2010Prop48
 90
       50
102
RTVSPost2010PropOp48
 70
     1
102
RTVSPost2010Prop49
280
     0
102
RTVSPost2010PropOp49
 70
     1
102
RTVSPost2010Prop50
 90
       50
102
RTVSPost2010PropOp50
 70
     1
102
RTVSPost2010Prop51ColorIndex
 90
      256
102
RTVSPost2010Prop51ColorRGB
 90
-16777216
102
RTVSPost2010PropOp51
 70
     0
102
RTVSPost2010Prop52
140
1.0
102
RTVSPost2010PropOp52
 70
     0
102
RTVSPost2010Prop53
 90
        2
102
RTVSPost2010PropOp53
 70
     1
102
RTVSPost2010Prop54
  1
strokes_ogs.tif
102
RTVSPost2010PropOp54
 70
     1
102
RTVSPost2010Prop55
280
     0
102
RTVSPost2010PropOp55
 70
     1
102
RTVSPost2010Prop56
140
1.0
102
RTVSPost2010PropOp56
 70
     1
102
RTVSPost2010Prop57
140
1.0
102
RTVSPost2010PropOp57
 70
     1
  0
XRECORD
  5
1D8
102
{ACAD_REACTORS
330
1D7
102
}
330
1D7
100
AcDbXrecord
280
     1
102
RTVSPost2010Prop28
280
     0
102
RTVSPost2010PropOp28
 70
     1
102
RTVSPost2010Prop29
280
     1
102
RTVSPost2010PropOp29
 70
     1
102
RTVSPost2010Prop30
280
     1
102
RTVSPost2010PropOp30
 70
     1
102
RTVSPost2010Prop31
280
     0
102
RTVSPost2010PropOp31
 70
     1
102
RTVSPost2010Prop32
280
     0
102
RTVSPost2010PropOp32
 70
     1
102
RTVSPost2010Prop33
280
     0
102
RTVSPost2010PropOp33
 70
     1
102
RTVSPost2010Prop34
280
     0
102
RTVSPost2010PropOp34
 70
     1
102
RTVSPost2010Prop35
280
     0
102
RTVSPost2010PropOp35
 70
     1
102
RTVSPost2010Prop36
280
     0
102
RTVSPost2010PropOp36
 70
     1
102
RTVSPost2010Prop37
 90
       50
102
RTVSPost2010PropOp37
 70
     1
102
RTVSPost2010Prop38
140
0.0
102
RTVSPost2010PropOp38
 70
     1
102
RTVSPost2010Prop39
140
1.0
102
RTVSPost2010PropOp39
 70
     1
102
RTVSPost2010Prop40
 90
        0
102
RTVSPost2010PropOp40
 70
     1
102
RTVSPost2010Prop41ColorIndex
 90
       18
102
RTVSPost2010Prop41ColorRGB
 90
        0
102
RTVSPost2010PropOp41
 70
     1
102
RTVSPost2010Prop42
 90
       50
102
RTVSPost2010PropOp42
 70
     1
102
RTVSPost2010Prop43
 90
        3
102
RTVSPost2010PropOp43
 70
     1
102
RTVSPost2010Prop44ColorIndex
 90
        5
102
RTVSPost2010Prop44ColorRGB
 90
      255
102
RTVSPost2010PropOp44
 70
     1
102
RTVSPost2010Prop45
280
     0
102
RTVSPost2010PropOp45
 70
     1
102
RTVSPost2010Prop46
 90
       50
102
RTVSPost2010PropOp46
 70
     1
102
RTVSPost2010Prop47
 90
       50
102
RTVSPost2010PropOp47
 70
     1
102
RTVSPost2010Prop48
 90
       50
102
RTVSPost2010PropOp48
 70
     1
102
RTVSPost2010Prop49
280
     0
102
RTVSPost2010PropOp49
 70
     1
102
RTVSPost2010Prop50
 90
       50
102
RTVSPost2010PropOp50
 70
     1
102
RTVSPost2010Prop51ColorIndex
 90
      256
102
RTVSPost2010Prop51ColorRGB
 90
-16777216
102
RTVSPost2010PropOp51
 70
     0
102
RTVSPost2010Prop52
140
1.0
102
RTVSPost2010PropOp52
 70
     0
102
RTVSPost2010Prop53
 90
        2
102
RTVSPost2010PropOp53
 70
     1
102
RTVSPost2010Prop54
  1
strokes_ogs.tif
102
RTVSPost2010PropOp54
 70
     1
102
RTVSPost2010Prop55
280
     0
102
RTVSPost2010PropOp55
 70
     1
102
RTVSPost2010Prop56
140
1.0
102
RTVSPost2010PropOp56
 70
     1
102
RTVSPost2010Prop57
140
1.0
102
RTVSPost2010PropOp57
 70
     1
  0
XRECORD
  5
1DA
102
{ACAD_REACTORS
330
1D9
102
}
330
1D9
100
AcDbXrecord
280
     1
102
RTVSPost2010Prop28
280
     0
102
RTVSPost2010PropOp28
 70
     1
102
RTVSPost2010Prop29
280
     1
102
RTVSPost2010PropOp29
 70
     1
102
RTVSPost2010Prop30
280
     1
102
RTVSPost2010PropOp30
 70
     1
102
RTVSPost2010Prop31
280
     0
102
RTVSPost2010PropOp31
 70
     1
102
RTVSPost2010Prop32
280
     0
102
RTVSPost2010PropOp32
 70
     1
102
RTVSPost2010Prop33
280
     0
102
RTVSPost2010PropOp33
 70
     1
102
RTVSPost2010Prop34
280
     0
102
RTVSPost2010PropOp34
 70
     1
102
RTVSPost2010Prop35
280
     0
102
RTVSPost2010PropOp35
 70
     1
102
RTVSPost2010Prop36
280
     0
102
RTVSPost2010PropOp36
 70
     1
102
RTVSPost2010Prop37
 90
       50
102
RTVSPost2010PropOp37
 70
     1
102
RTVSPost2010Prop38
140
0.0
102
RTVSPost2010PropOp38
 70
     1
102
RTVSPost2010Prop39
140
1.0
102
RTVSPost2010PropOp39
 70
     1
102
RTVSPost2010Prop40
 90
        0
102
RTVSPost2010PropOp40
 70
     1
102
RTVSPost2010Prop41ColorIndex
 90
       18
102
RTVSPost2010Prop41ColorRGB
 90
        0
102
RTVSPost2010PropOp41
 70
     1
102
RTVSPost2010Prop42
 90
       50
102
RTVSPost2010PropOp42
 70
     1
102
RTVSPost2010Prop43
 90
        3
102
RTVSPost2010PropOp43
 70
     1
102
RTVSPost2010Prop44ColorIndex
 90
        5
102
RTVSPost2010Prop44ColorRGB
 90
      255
102
RTVSPost2010PropOp44
 70
     1
102
RTVSPost2010Prop45
280
     0
102
RTVSPost2010PropOp45
 70
     1
102
RTVSPost2010Prop46
 90
       50
102
RTVSPost2010PropOp46
 70
     1
102
RTVSPost2010Prop47
 90
       50
102
RTVSPost2010PropOp47
 70
     1
102
RTVSPost2010Prop48
 90
       50
102
RTVSPost2010PropOp48
 70
     1
102
RTVSPost2010Prop49
280
     0
102
RTVSPost2010PropOp49
 70
     1
102
RTVSPost2010Prop50
 90
       50
102
RTVSPost2010PropOp50
 70
     1
102
RTVSPost2010Prop51ColorIndex
 90
      256
102
RTVSPost2010Prop51ColorRGB
 90
-16777216
102
RTVSPost2010PropOp51
 70
     0
102
RTVSPost2010Prop52
140
1.0
102
RTVSPost2010PropOp52
 70
     0
102
RTVSPost2010Prop53
 90
        2
102
RTVSPost2010PropOp53
 70
     1
102
RTVSPost2010Prop54
  1
strokes_ogs.tif
102
RTVSPost2010PropOp54
 70
     1
102
RTVSPost2010Prop55
280
     0
102
RTVSPost2010PropOp55
 70
     1
102
RTVSPost2010Prop56
140
1.0
102
RTVSPost2010PropOp56
 70
     1
102
RTVSPost2010Prop57
140
1.0
102
RTVSPost2010PropOp57
 70
     1
  0
XRECORD
  5
1E0
102
{ACAD_REACTORS
330
1DF
102
}
330
1DF
100
AcDbXrecord
280
     1
102
RTVSPost2010Prop28
280
     0
102
RTVSPost2010PropOp28
 70
     1
102
RTVSPost2010Prop29
280
     1
102
RTVSPost2010PropOp29
 70
     1
102
RTVSPost2010Prop30
280
     1
102
RTVSPost2010PropOp30
 70
     1
102
RTVSPost2010Prop31
280
     0
102
RTVSPost2010PropOp31
 70
     1
102
RTVSPost2010Prop32
280
     0
102
RTVSPost2010PropOp32
 70
     1
102
RTVSPost2010Prop33
280
     0
102
RTVSPost2010PropOp33
 70
     1
102
RTVSPost2010Prop34
280
     0
102
RTVSPost2010PropOp34
 70
     1
102
RTVSPost2010Prop35
280
     0
102
RTVSPost2010PropOp35
 70
     1
102
RTVSPost2010Prop36
280
     0
102
RTVSPost2010PropOp36
 70
     1
102
RTVSPost2010Prop37
 90
       50
102
RTVSPost2010PropOp37
 70
     1
102
RTVSPost2010Prop38
140
0.0
102
RTVSPost2010PropOp38
 70
     1
102
RTVSPost2010Prop39
140
1.0
102
RTVSPost2010PropOp39
 70
     1
102
RTVSPost2010Prop40
 90
        0
102
RTVSPost2010PropOp40
 70
     1
102
RTVSPost2010Prop41ColorIndex
 90
       18
102
RTVSPost2010Prop41ColorRGB
 90
        0
102
RTVSPost2010PropOp41
 70
     1
102
RTVSPost2010Prop42
 90
       50
102
RTVSPost2010PropOp42
 70
     1
102
RTVSPost2010Prop43
 90
        3
102
RTVSPost2010PropOp43
 70
     1
102
RTVSPost2010Prop44ColorIndex
 90
        5
102
RTVSPost2010Prop44ColorRGB
 90
      255
102
RTVSPost2010PropOp44
 70
     1
102
RTVSPost2010Prop45
280
     0
102
RTVSPost2010PropOp45
 70
     1
102
RTVSPost2010Prop46
 90
       50
102
RTVSPost2010PropOp46
 70
     1
102
RTVSPost2010Prop47
 90
       50
102
RTVSPost2010PropOp47
 70
     1
102
RTVSPost2010Prop48
 90
       50
102
RTVSPost2010PropOp48
 70
     1
102
RTVSPost2010Prop49
280
     0
102
RTVSPost2010PropOp49
 70
     1
102
RTVSPost2010Prop50
 90
       50
102
RTVSPost2010PropOp50
 70
     1
102
RTVSPost2010Prop51ColorIndex
 90
      256
102
RTVSPost2010Prop51ColorRGB
 90
-16777216
102
RTVSPost2010PropOp51
 70
     0
102
RTVSPost2010Prop52
140
1.0
102
RTVSPost2010PropOp52
 70
     0
102
RTVSPost2010Prop53
 90
        2
102
RTVSPost2010PropOp53
 70
     1
102
RTVSPost2010Prop54
  1
strokes_ogs.tif
102
RTVSPost2010PropOp54
 70
     1
102
RTVSPost2010Prop55
280
     0
102
RTVSPost2010PropOp55
 70
     1
102
RTVSPost2010Prop56
140
1.0
102
RTVSPost2010PropOp56
 70
     1
102
RTVSPost2010Prop57
140
1.0
102
RTVSPost2010PropOp57
 70
     1
  0
XRECORD
  5
1F4
102
{ACAD_REACTORS
330
1F3
102
}
330
1F3
100
AcDbXrecord
280
     1
102
RTVSPost2010Prop28
280
     0
102
RTVSPost2010PropOp28
 70
     0
102
RTVSPost2010Prop29
280
     1
102
RTVSPost2010PropOp29
 70
     0
102
RTVSPost2010Prop30
280
     1
102
RTVSPost2010PropOp30
 70
     0
102
RTVSPost2010Prop31
280
     0
102
RTVSPost2010PropOp31
 70
     0
102
RTVSPost2010Prop32
280
     0
102
RTVSPost2010PropOp32
 70
     0
102
RTVSPost2010Prop33
280
     0
102
RTVSPost2010PropOp33
 70
     0
102
RTVSPost2010Prop34
280
     0
102
RTVSPost2010PropOp34
 70
     0
102
RTVSPost2010Prop35
280
     0
102
RTVSPost2010PropOp35
 70
     0
102
RTVSPost2010Prop36
280
     0
102
RTVSPost2010PropOp36
 70
     0
102
RTVSPost2010Prop37
 90
       50
102
RTVSPost2010PropOp37
 70
     0
102
RTVSPost2010Prop38
140
0.0
102
RTVSPost2010PropOp38
 70
     0
102
RTVSPost2010Prop39
140
1.0
102
RTVSPost2010PropOp39
 70
     0
102
RTVSPost2010Prop40
 90
        0
102
RTVSPost2010PropOp40
 70
     0
102
RTVSPost2010Prop41ColorIndex
 90
       18
102
RTVSPost2010Prop41ColorRGB
 90
        0
102
RTVSPost2010PropOp41
 70
     0
102
RTVSPost2010Prop42
 90
       50
102
RTVSPost2010PropOp42
 70
     0
102
RTVSPost2010Prop43
 90
        3
102
RTVSPost2010PropOp43
 70
     0
102
RTVSPost2010Prop44ColorIndex
 90
        5
102
RTVSPost2010Prop44ColorRGB
 90
      255
102
RTVSPost2010PropOp44
 70
     0
102
RTVSPost2010Prop45
280
     0
102
RTVSPost2010PropOp45
 70
     0
102
RTVSPost2010Prop46
 90
       50
102
RTVSPost2010PropOp46
 70
     0
102
RTVSPost2010Prop47
 90
       50
102
RTVSPost2010PropOp47
 70
     0
102
RTVSPost2010Prop48
 90
       50
102
RTVSPost2010PropOp48
 70
     0
102
RTVSPost2010Prop49
280
     0
102
RTVSPost2010PropOp49
 70
     0
102
RTVSPost2010Prop50
 90
       50
102
RTVSPost2010PropOp50
 70
     0
102
RTVSPost2010Prop51ColorIndex
 90
      256
102
RTVSPost2010Prop51ColorRGB
 90
-16777216
102
RTVSPost2010PropOp51
 70
     0
102
RTVSPost2010Prop52
140
1.0
102
RTVSPost2010PropOp52
 70
     0
102
RTVSPost2010Prop53
 90
        2
102
RTVSPost2010PropOp53
 70
     0
102
RTVSPost2010Prop54
  1
strokes_ogs.tif
102
RTVSPost2010PropOp54
 70
     0
102
RTVSPost2010Prop55
280
     0
102
RTVSPost2010PropOp55
 70
     0
102
RTVSPost2010Prop56
140
1.0
102
RTVSPost2010PropOp56
 70
     0
102
RTVSPost2010Prop57
140
1.0
102
RTVSPost2010PropOp57
 70
     0
  0
XRECORD
  5
1EE
102
{ACAD_REACTORS
330
1ED
102
}
330
1ED
100
AcDbXrecord
280
     1
102
RTVSPost2010Prop28
280
     0
102
RTVSPost2010PropOp28
 70
     1
102
RTVSPost2010Prop29
280
     1
102
RTVSPost2010PropOp29
 70
     1
102
RTVSPost2010Prop30
280
     1
102
RTVSPost2010PropOp30
 70
     1
102
RTVSPost2010Prop31
280
     0
102
RTVSPost2010PropOp31
 70
     1
102
RTVSPost2010Prop32
280
     0
102
RTVSPost2010PropOp32
 70
     1
102
RTVSPost2010Prop33
280
     0
102
RTVSPost2010PropOp33
 70
     1
102
RTVSPost2010Prop34
280
     0
102
RTVSPost2010PropOp34
 70
     1
102
RTVSPost2010Prop35
280
     0
102
RTVSPost2010PropOp35
 70
     1
102
RTVSPost2010Prop36
280
     0
102
RTVSPost2010PropOp36
 70
     1
102
RTVSPost2010Prop37
 90
       50
102
RTVSPost2010PropOp37
 70
     1
102
RTVSPost2010Prop38
140
0.0
102
RTVSPost2010PropOp38
 70
     1
102
RTVSPost2010Prop39
140
1.0
102
RTVSPost2010PropOp39
 70
     1
102
RTVSPost2010Prop40
 90
        0
102
RTVSPost2010PropOp40
 70
     1
102
RTVSPost2010Prop41ColorIndex
 90
       18
102
RTVSPost2010Prop41ColorRGB
 90
        0
102
RTVSPost2010PropOp41
 70
     1
102
RTVSPost2010Prop42
 90
       50
102
RTVSPost2010PropOp42
 70
     1
102
RTVSPost2010Prop43
 90
        3
102
RTVSPost2010PropOp43
 70
     1
102
RTVSPost2010Prop44ColorIndex
 90
        5
102
RTVSPost2010Prop44ColorRGB
 90
      255
102
RTVSPost2010PropOp44
 70
     1
102
RTVSPost2010Prop45
280
     0
102
RTVSPost2010PropOp45
 70
     1
102
RTVSPost2010Prop46
 90
       50
102
RTVSPost2010PropOp46
 70
     1
102
RTVSPost2010Prop47
 90
       50
102
RTVSPost2010PropOp47
 70
     1
102
RTVSPost2010Prop48
 90
       50
102
RTVSPost2010PropOp48
 70
     1
102
RTVSPost2010Prop49
280
     0
102
RTVSPost2010PropOp49
 70
     1
102
RTVSPost2010Prop50
 90
       50
102
RTVSPost2010PropOp50
 70
     1
102
RTVSPost2010Prop51ColorIndex
 90
      256
102
RTVSPost2010Prop51ColorRGB
 90
-16777216
102
RTVSPost2010PropOp51
 70
     0
102
RTVSPost2010Prop52
140
1.0
102
RTVSPost2010PropOp52
 70
     0
102
RTVSPost2010Prop53
 90
        2
102
RTVSPost2010PropOp53
 70
     1
102
RTVSPost2010Prop54
  1
strokes_ogs.tif
102
RTVSPost2010PropOp54
 70
     1
102
RTVSPost2010Prop55
280
     0
102
RTVSPost2010PropOp55
 70
     1
102
RTVSPost2010Prop56
140
1.0
102
RTVSPost2010PropOp56
 70
     1
102
RTVSPost2010Prop57
140
1.0
102
RTVSPost2010PropOp57
 70
     1
  0
XRECORD
  5
1F6
102
{ACAD_REACTORS
330
1F5
102
}
330
1F5
100
AcDbXrecord
280
     1
102
RTVSPost2010Prop28
280
     0
102
RTVSPost2010PropOp28
 70
     0
102
RTVSPost2010Prop29
280
     1
102
RTVSPost2010PropOp29
 70
     0
102
RTVSPost2010Prop30
280
     1
102
RTVSPost2010PropOp30
 70
     0
102
RTVSPost2010Prop31
280
     0
102
RTVSPost2010PropOp31
 70
     0
102
RTVSPost2010Prop32
280
     0
102
RTVSPost2010PropOp32
 70
     0
102
RTVSPost2010Prop33
280
     0
102
RTVSPost2010PropOp33
 70
     0
102
RTVSPost2010Prop34
280
     0
102
RTVSPost2010PropOp34
 70
     0
102
RTVSPost2010Prop35
280
     0
102
RTVSPost2010PropOp35
 70
     0
102
RTVSPost2010Prop36
280
     0
102
RTVSPost2010PropOp36
 70
     0
102
RTVSPost2010Prop37
 90
       50
102
RTVSPost2010PropOp37
 70
     0
102
RTVSPost2010Prop38
140
0.0
102
RTVSPost2010PropOp38
 70
     0
102
RTVSPost2010Prop39
140
1.0
102
RTVSPost2010PropOp39
 70
     0
102
RTVSPost2010Prop40
 90
        0
102
RTVSPost2010PropOp40
 70
     0
102
RTVSPost2010Prop41ColorIndex
 90
       18
102
RTVSPost2010Prop41ColorRGB
 90
        0
102
RTVSPost2010PropOp41
 70
     0
102
RTVSPost2010Prop42
 90
       50
102
RTVSPost2010PropOp42
 70
     0
102
RTVSPost2010Prop43
 90
        3
102
RTVSPost2010PropOp43
 70
     0
102
RTVSPost2010Prop44ColorIndex
 90
        5
102
RTVSPost2010Prop44ColorRGB
 90
      255
102
RTVSPost2010PropOp44
 70
     0
102
RTVSPost2010Prop45
280
     0
102
RTVSPost2010PropOp45
 70
     0
102
RTVSPost2010Prop46
 90
       50
102
RTVSPost2010PropOp46
 70
     0
102
RTVSPost2010Prop47
 90
       50
102
RTVSPost2010PropOp47
 70
     0
102
RTVSPost2010Prop48
 90
       50
102
RTVSPost2010PropOp48
 70
     0
102
RTVSPost2010Prop49
280
     0
102
RTVSPost2010PropOp49
 70
     0
102
RTVSPost2010Prop50
 90
       50
102
RTVSPost2010PropOp50
 70
     0
102
RTVSPost2010Prop51ColorIndex
 90
      256
102
RTVSPost2010Prop51ColorRGB
 90
-16777216
102
RTVSPost2010PropOp51
 70
     0
102
RTVSPost2010Prop52
140
1.0
102
RTVSPost2010PropOp52
 70
     0
102
RTVSPost2010Prop53
 90
        2
102
RTVSPost2010PropOp53
 70
     0
102
RTVSPost2010Prop54
  1
strokes_ogs.tif
102
RTVSPost2010PropOp54
 70
     0
102
RTVSPost2010Prop55
280
     0
102
RTVSPost2010PropOp55
 70
     0
102
RTVSPost2010Prop56
140
1.0
102
RTVSPost2010PropOp56
 70
     0
102
RTVSPost2010Prop57
140
1.0
102
RTVSPost2010PropOp57
 70
     0
  0
XRECORD
  5
1E4
102
{ACAD_REACTORS
330
1E3
102
}
330
1E3
100
AcDbXrecord
280
     1
102
RTVSPost2010Prop28
280
     0
102
RTVSPost2010PropOp28
 70
     1
102
RTVSPost2010Prop29
280
     1
102
RTVSPost2010PropOp29
 70
     1
102
RTVSPost2010Prop30
280
     1
102
RTVSPost2010PropOp30
 70
     1
102
RTVSPost2010Prop31
280
     0
102
RTVSPost2010PropOp31
 70
     1
102
RTVSPost2010Prop32
280
     0
102
RTVSPost2010PropOp32
 70
     1
102
RTVSPost2010Prop33
280
     0
102
RTVSPost2010PropOp33
 70
     1
102
RTVSPost2010Prop34
280
     0
102
RTVSPost2010PropOp34
 70
     1
102
RTVSPost2010Prop35
280
     0
102
RTVSPost2010PropOp35
 70
     1
102
RTVSPost2010Prop36
280
     0
102
RTVSPost2010PropOp36
 70
     1
102
RTVSPost2010Prop37
 90
       50
102
RTVSPost2010PropOp37
 70
     1
102
RTVSPost2010Prop38
140
0.0
102
RTVSPost2010PropOp38
 70
     1
102
RTVSPost2010Prop39
140
1.0
102
RTVSPost2010PropOp39
 70
     1
102
RTVSPost2010Prop40
 90
        0
102
RTVSPost2010PropOp40
 70
     1
102
RTVSPost2010Prop41ColorIndex
 90
       18
102
RTVSPost2010Prop41ColorRGB
 90
        0
102
RTVSPost2010PropOp41
 70
     1
102
RTVSPost2010Prop42
 90
       50
102
RTVSPost2010PropOp42
 70
     1
102
RTVSPost2010Prop43
 90
        3
102
RTVSPost2010PropOp43
 70
     1
102
RTVSPost2010Prop44ColorIndex
 90
        5
102
RTVSPost2010Prop44ColorRGB
 90
      255
102
RTVSPost2010PropOp44
 70
     1
102
RTVSPost2010Prop45
280
     0
102
RTVSPost2010PropOp45
 70
     1
102
RTVSPost2010Prop46
 90
       50
102
RTVSPost2010PropOp46
 70
     1
102
RTVSPost2010Prop47
 90
       50
102
RTVSPost2010PropOp47
 70
     1
102
RTVSPost2010Prop48
 90
       50
102
RTVSPost2010PropOp48
 70
     1
102
RTVSPost2010Prop49
280
     0
102
RTVSPost2010PropOp49
 70
     1
102
RTVSPost2010Prop50
 90
       50
102
RTVSPost2010PropOp50
 70
     1
102
RTVSPost2010Prop51ColorIndex
 90
      256
102
RTVSPost2010Prop51ColorRGB
 90
-16777216
102
RTVSPost2010PropOp51
 70
     0
102
RTVSPost2010Prop52
140
1.0
102
RTVSPost2010PropOp52
 70
     0
102
RTVSPost2010Prop53
 90
        2
102
RTVSPost2010PropOp53
 70
     1
102
RTVSPost2010Prop54
  1
strokes_ogs.tif
102
RTVSPost2010PropOp54
 70
     1
102
RTVSPost2010Prop55
280
     0
102
RTVSPost2010PropOp55
 70
     1
102
RTVSPost2010Prop56
140
1.0
102
RTVSPost2010PropOp56
 70
     1
102
RTVSPost2010Prop57
140
1.0
102
RTVSPost2010PropOp57
 70
     1
  0
XRECORD
  5
202
102
{ACAD_REACTORS
330
201
102
}
330
201
100
AcDbXrecord
280
     1
102
RTVSPost2010Prop28
280
     0
102
RTVSPost2010PropOp28
 70
     1
102
RTVSPost2010Prop29
280
     1
102
RTVSPost2010PropOp29
 70
     1
102
RTVSPost2010Prop30
280
     1
102
RTVSPost2010PropOp30
 70
     1
102
RTVSPost2010Prop31
280
     0
102
RTVSPost2010PropOp31
 70
     1
102
RTVSPost2010Prop32
280
     0
102
RTVSPost2010PropOp32
 70
     1
102
RTVSPost2010Prop33
280
     0
102
RTVSPost2010PropOp33
 70
     1
102
RTVSPost2010Prop34
280
     0
102
RTVSPost2010PropOp34
 70
     1
102
RTVSPost2010Prop35
280
     0
102
RTVSPost2010PropOp35
 70
     1
102
RTVSPost2010Prop36
280
     0
102
RTVSPost2010PropOp36
 70
     1
102
RTVSPost2010Prop37
 90
       50
102
RTVSPost2010PropOp37
 70
     1
102
RTVSPost2010Prop38
140
0.0
102
RTVSPost2010PropOp38
 70
     1
102
RTVSPost2010Prop39
140
1.0
102
RTVSPost2010PropOp39
 70
     1
102
RTVSPost2010Prop40
 90
        0
102
RTVSPost2010PropOp40
 70
     1
102
RTVSPost2010Prop41ColorIndex
 90
       18
102
RTVSPost2010Prop41ColorRGB
 90
        0
102
RTVSPost2010PropOp41
 70
     1
102
RTVSPost2010Prop42
 90
       50
102
RTVSPost2010PropOp42
 70
     1
102
RTVSPost2010Prop43
 90
        3
102
RTVSPost2010PropOp43
 70
     1
102
RTVSPost2010Prop44ColorIndex
 90
        5
102
RTVSPost2010Prop44ColorRGB
 90
      255
102
RTVSPost2010PropOp44
 70
     1
102
RTVSPost2010Prop45
280
     0
102
RTVSPost2010PropOp45
 70
     1
102
RTVSPost2010Prop46
 90
       50
102
RTVSPost2010PropOp46
 70
     1
102
RTVSPost2010Prop47
 90
       50
102
RTVSPost2010PropOp47
 70
     1
102
RTVSPost2010Prop48
 90
       50
102
RTVSPost2010PropOp48
 70
     1
102
RTVSPost2010Prop49
280
     0
102
RTVSPost2010PropOp49
 70
     1
102
RTVSPost2010Prop50
 90
       50
102
RTVSPost2010PropOp50
 70
     1
102
RTVSPost2010Prop51ColorIndex
 90
      256
102
RTVSPost2010Prop51ColorRGB
 90
-16777216
102
RTVSPost2010PropOp51
 70
     0
102
RTVSPost2010Prop52
140
1.0
102
RTVSPost2010PropOp52
 70
     0
102
RTVSPost2010Prop53
 90
        2
102
RTVSPost2010PropOp53
 70
     1
102
RTVSPost2010Prop54
  1
strokes_ogs.tif
102
RTVSPost2010PropOp54
 70
     1
102
RTVSPost2010Prop55
280
     0
102
RTVSPost2010PropOp55
 70
     1
102
RTVSPost2010Prop56
140
1.0
102
RTVSPost2010PropOp56
 70
     1
102
RTVSPost2010Prop57
140
1.0
102
RTVSPost2010PropOp57
 70
     1
  0
XRECORD
  5
200
102
{ACAD_REACTORS
330
1FF
102
}
330
1FF
100
AcDbXrecord
280
     1
102
RTVSPost2010Prop28
280
     0
102
RTVSPost2010PropOp28
 70
     1
102
RTVSPost2010Prop29
280
     1
102
RTVSPost2010PropOp29
 70
     1
102
RTVSPost2010Prop30
280
     1
102
RTVSPost2010PropOp30
 70
     1
102
RTVSPost2010Prop31
280
     0
102
RTVSPost2010PropOp31
 70
     1
102
RTVSPost2010Prop32
280
     0
102
RTVSPost2010PropOp32
 70
     1
102
RTVSPost2010Prop33
280
     0
102
RTVSPost2010PropOp33
 70
     1
102
RTVSPost2010Prop34
280
     0
102
RTVSPost2010PropOp34
 70
     1
102
RTVSPost2010Prop35
280
     0
102
RTVSPost2010PropOp35
 70
     1
102
RTVSPost2010Prop36
280
     0
102
RTVSPost2010PropOp36
 70
     1
102
RTVSPost2010Prop37
 90
       50
102
RTVSPost2010PropOp37
 70
     1
102
RTVSPost2010Prop38
140
0.0
102
RTVSPost2010PropOp38
 70
     1
102
RTVSPost2010Prop39
140
1.0
102
RTVSPost2010PropOp39
 70
     1
102
RTVSPost2010Prop40
 90
        0
102
RTVSPost2010PropOp40
 70
     1
102
RTVSPost2010Prop41ColorIndex
 90
       18
102
RTVSPost2010Prop41ColorRGB
 90
        0
102
RTVSPost2010PropOp41
 70
     1
102
RTVSPost2010Prop42
 90
       50
102
RTVSPost2010PropOp42
 70
     1
102
RTVSPost2010Prop43
 90
        3
102
RTVSPost2010PropOp43
 70
     1
102
RTVSPost2010Prop44ColorIndex
 90
        5
102
RTVSPost2010Prop44ColorRGB
 90
      255
102
RTVSPost2010PropOp44
 70
     1
102
RTVSPost2010Prop45
280
     0
102
RTVSPost2010PropOp45
 70
     1
102
RTVSPost2010Prop46
 90
       50
102
RTVSPost2010PropOp46
 70
     1
102
RTVSPost2010Prop47
 90
       50
102
RTVSPost2010PropOp47
 70
     1
102
RTVSPost2010Prop48
 90
       50
102
RTVSPost2010PropOp48
 70
     1
102
RTVSPost2010Prop49
280
     0
102
RTVSPost2010PropOp49
 70
     1
102
RTVSPost2010Prop50
 90
       50
102
RTVSPost2010PropOp50
 70
     1
102
RTVSPost2010Prop51ColorIndex
 90
      256
102
RTVSPost2010Prop51ColorRGB
 90
-16777216
102
RTVSPost2010PropOp51
 70
     0
102
RTVSPost2010Prop52
140
1.0
102
RTVSPost2010PropOp52
 70
     0
102
RTVSPost2010Prop53
 90
        2
102
RTVSPost2010PropOp53
 70
     1
102
RTVSPost2010Prop54
  1
strokes_ogs.tif
102
RTVSPost2010PropOp54
 70
     1
102
RTVSPost2010Prop55
280
     0
102
RTVSPost2010PropOp55
 70
     1
102
RTVSPost2010Prop56
140
1.0
102
RTVSPost2010PropOp56
 70
     1
102
RTVSPost2010Prop57
140
1.0
102
RTVSPost2010PropOp57
 70
     1
  0
XRECORD
  5
1FA
102
{ACAD_REACTORS
330
1F9
102
}
330
1F9
100
AcDbXrecord
280
     1
102
RTVSPost2010Prop28
280
     0
102
RTVSPost2010PropOp28
 70
     1
102
RTVSPost2010Prop29
280
     1
102
RTVSPost2010PropOp29
 70
     1
102
RTVSPost2010Prop30
280
     1
102
RTVSPost2010PropOp30
 70
     1
102
RTVSPost2010Prop31
280
     0
102
RTVSPost2010PropOp31
 70
     1
102
RTVSPost2010Prop32
280
     0
102
RTVSPost2010PropOp32
 70
     1
102
RTVSPost2010Prop33
280
     0
102
RTVSPost2010PropOp33
 70
     1
102
RTVSPost2010Prop34
280
     0
102
RTVSPost2010PropOp34
 70
     1
102
RTVSPost2010Prop35
280
     0
102
RTVSPost2010PropOp35
 70
     1
102
RTVSPost2010Prop36
280
     0
102
RTVSPost2010PropOp36
 70
     1
102
RTVSPost2010Prop37
 90
       50
102
RTVSPost2010PropOp37
 70
     1
102
RTVSPost2010Prop38
140
0.0
102
RTVSPost2010PropOp38
 70
     1
102
RTVSPost2010Prop39
140
1.0
102
RTVSPost2010PropOp39
 70
     1
102
RTVSPost2010Prop40
 90
        0
102
RTVSPost2010PropOp40
 70
     1
102
RTVSPost2010Prop41ColorIndex
 90
       18
102
RTVSPost2010Prop41ColorRGB
 90
        0
102
RTVSPost2010PropOp41
 70
     1
102
RTVSPost2010Prop42
 90
       50
102
RTVSPost2010PropOp42
 70
     1
102
RTVSPost2010Prop43
 90
        3
102
RTVSPost2010PropOp43
 70
     1
102
RTVSPost2010Prop44ColorIndex
 90
        5
102
RTVSPost2010Prop44ColorRGB
 90
      255
102
RTVSPost2010PropOp44
 70
     1
102
RTVSPost2010Prop45
280
     0
102
RTVSPost2010PropOp45
 70
     1
102
RTVSPost2010Prop46
 90
       50
102
RTVSPost2010PropOp46
 70
     1
102
RTVSPost2010Prop47
 90
       50
102
RTVSPost2010PropOp47
 70
     1
102
RTVSPost2010Prop48
 90
       50
102
RTVSPost2010PropOp48
 70
     1
102
RTVSPost2010Prop49
280
     0
102
RTVSPost2010PropOp49
 70
     1
102
RTVSPost2010Prop50
 90
       50
102
RTVSPost2010PropOp50
 70
     1
102
RTVSPost2010Prop51ColorIndex
 90
      256
102
RTVSPost2010Prop51ColorRGB
 90
-16777216
102
RTVSPost2010PropOp51
 70
     0
102
RTVSPost2010Prop52
140
1.0
102
RTVSPost2010PropOp52
 70
     0
102
RTVSPost2010Prop53
 90
        2
102
RTVSPost2010PropOp53
 70
     1
102
RTVSPost2010Prop54
  1
strokes_ogs.tif
102
RTVSPost2010PropOp54
 70
     1
102
RTVSPost2010Prop55
280
     0
102
RTVSPost2010PropOp55
 70
     1
102
RTVSPost2010Prop56
140
1.0
102
RTVSPost2010PropOp56
 70
     1
102
RTVSPost2010Prop57
140
1.0
102
RTVSPost2010PropOp57
 70
     1
  0
XRECORD
  5
1FC
102
{ACAD_REACTORS
330
1FB
102
}
330
1FB
100
AcDbXrecord
280
     1
102
RTVSPost2010Prop28
280
     0
102
RTVSPost2010PropOp28
 70
     1
102
RTVSPost2010Prop29
280
     1
102
RTVSPost2010PropOp29
 70
     1
102
RTVSPost2010Prop30
280
     1
102
RTVSPost2010PropOp30
 70
     1
102
RTVSPost2010Prop31
280
     0
102
RTVSPost2010PropOp31
 70
     1
102
RTVSPost2010Prop32
280
     0
102
RTVSPost2010PropOp32
 70
     1
102
RTVSPost2010Prop33
280
     0
102
RTVSPost2010PropOp33
 70
     1
102
RTVSPost2010Prop34
280
     0
102
RTVSPost2010PropOp34
 70
     1
102
RTVSPost2010Prop35
280
     0
102
RTVSPost2010PropOp35
 70
     1
102
RTVSPost2010Prop36
280
     0
102
RTVSPost2010PropOp36
 70
     1
102
RTVSPost2010Prop37
 90
       50
102
RTVSPost2010PropOp37
 70
     1
102
RTVSPost2010Prop38
140
0.0
102
RTVSPost2010PropOp38
 70
     1
102
RTVSPost2010Prop39
140
1.0
102
RTVSPost2010PropOp39
 70
     1
102
RTVSPost2010Prop40
 90
        0
102
RTVSPost2010PropOp40
 70
     1
102
RTVSPost2010Prop41ColorIndex
 90
       18
102
RTVSPost2010Prop41ColorRGB
 90
        0
102
RTVSPost2010PropOp41
 70
     1
102
RTVSPost2010Prop42
 90
       50
102
RTVSPost2010PropOp42
 70
     1
102
RTVSPost2010Prop43
 90
        3
102
RTVSPost2010PropOp43
 70
     1
102
RTVSPost2010Prop44ColorIndex
 90
        5
102
RTVSPost2010Prop44ColorRGB
 90
      255
102
RTVSPost2010PropOp44
 70
     1
102
RTVSPost2010Prop45
280
     0
102
RTVSPost2010PropOp45
 70
     1
102
RTVSPost2010Prop46
 90
       50
102
RTVSPost2010PropOp46
 70
     1
102
RTVSPost2010Prop47
 90
       50
102
RTVSPost2010PropOp47
 70
     1
102
RTVSPost2010Prop48
 90
       50
102
RTVSPost2010PropOp48
 70
     1
102
RTVSPost2010Prop49
280
     0
102
RTVSPost2010PropOp49
 70
     1
102
RTVSPost2010Prop50
 90
       50
102
RTVSPost2010PropOp50
 70
     1
102
RTVSPost2010Prop51ColorIndex
 90
      256
102
RTVSPost2010Prop51ColorRGB
 90
-16777216
102
RTVSPost2010PropOp51
 70
     0
102
RTVSPost2010Prop52
140
1.0
102
RTVSPost2010PropOp52
 70
     0
102
RTVSPost2010Prop53
 90
        2
102
RTVSPost2010PropOp53
 70
     1
102
RTVSPost2010Prop54
  1
strokes_ogs.tif
102
RTVSPost2010PropOp54
 70
     1
102
RTVSPost2010Prop55
280
     0
102
RTVSPost2010PropOp55
 70
     1
102
RTVSPost2010Prop56
140
1.0
102
RTVSPost2010PropOp56
 70
     1
102
RTVSPost2010Prop57
140
1.0
102
RTVSPost2010PropOp57
 70
     1
  0
XRECORD
  5
1EC
102
{ACAD_REACTORS
330
1EB
102
}
330
1EB
100
AcDbXrecord
280
     1
102
RTVSPost2010Prop28
280
     0
102
RTVSPost2010PropOp28
 70
     1
102
RTVSPost2010Prop29
280
     1
102
RTVSPost2010PropOp29
 70
     1
102
RTVSPost2010Prop30
280
     1
102
RTVSPost2010PropOp30
 70
     1
102
RTVSPost2010Prop31
280
     0
102
RTVSPost2010PropOp31
 70
     1
102
RTVSPost2010Prop32
280
     0
102
RTVSPost2010PropOp32
 70
     1
102
RTVSPost2010Prop33
280
     0
102
RTVSPost2010PropOp33
 70
     1
102
RTVSPost2010Prop34
280
     0
102
RTVSPost2010PropOp34
 70
     1
102
RTVSPost2010Prop35
280
     0
102
RTVSPost2010PropOp35
 70
     1
102
RTVSPost2010Prop36
280
     0
102
RTVSPost2010PropOp36
 70
     1
102
RTVSPost2010Prop37
 90
       50
102
RTVSPost2010PropOp37
 70
     1
102
RTVSPost2010Prop38
140
0.0
102
RTVSPost2010PropOp38
 70
     1
102
RTVSPost2010Prop39
140
1.0
102
RTVSPost2010PropOp39
 70
     1
102
RTVSPost2010Prop40
 90
        0
102
RTVSPost2010PropOp40
 70
     1
102
RTVSPost2010Prop41ColorIndex
 90
       18
102
RTVSPost2010Prop41ColorRGB
 90
        0
102
RTVSPost2010PropOp41
 70
     1
102
RTVSPost2010Prop42
 90
       50
102
RTVSPost2010PropOp42
 70
     1
102
RTVSPost2010Prop43
 90
        3
102
RTVSPost2010PropOp43
 70
     1
102
RTVSPost2010Prop44ColorIndex
 90
        5
102
RTVSPost2010Prop44ColorRGB
 90
      255
102
RTVSPost2010PropOp44
 70
     1
102
RTVSPost2010Prop45
280
     0
102
RTVSPost2010PropOp45
 70
     1
102
RTVSPost2010Prop46
 90
       50
102
RTVSPost2010PropOp46
 70
     1
102
RTVSPost2010Prop47
 90
       50
102
RTVSPost2010PropOp47
 70
     1
102
RTVSPost2010Prop48
 90
       50
102
RTVSPost2010PropOp48
 70
     1
102
RTVSPost2010Prop49
280
     0
102
RTVSPost2010PropOp49
 70
     1
102
RTVSPost2010Prop50
 90
       50
102
RTVSPost2010PropOp50
 70
     1
102
RTVSPost2010Prop51ColorIndex
 90
      256
102
RTVSPost2010Prop51ColorRGB
 90
-16777216
102
RTVSPost2010PropOp51
 70
     0
102
RTVSPost2010Prop52
140
1.0
102
RTVSPost2010PropOp52
 70
     0
102
RTVSPost2010Prop53
 90
        2
102
RTVSPost2010PropOp53
 70
     1
102
RTVSPost2010Prop54
  1
strokes_ogs.tif
102
RTVSPost2010PropOp54
 70
     1
102
RTVSPost2010Prop55
280
     0
102
RTVSPost2010PropOp55
 70
     1
102
RTVSPost2010Prop56
140
1.0
102
RTVSPost2010PropOp56
 70
     1
102
RTVSPost2010Prop57
140
1.0
102
RTVSPost2010PropOp57
 70
     1
  0
XRECORD
  5
1DE
102
{ACAD_REACTORS
330
1DD
102
}
330
1DD
100
AcDbXrecord
280
     1
102
RTVSPost2010Prop28
280
     0
102
RTVSPost2010PropOp28
 70
     1
102
RTVSPost2010Prop29
280
     1
102
RTVSPost2010PropOp29
 70
     1
102
RTVSPost2010Prop30
280
     1
102
RTVSPost2010PropOp30
 70
     1
102
RTVSPost2010Prop31
280
     0
102
RTVSPost2010PropOp31
 70
     1
102
RTVSPost2010Prop32
280
     0
102
RTVSPost2010PropOp32
 70
     1
102
RTVSPost2010Prop33
280
     0
102
RTVSPost2010PropOp33
 70
     1
102
RTVSPost2010Prop34
280
     0
102
RTVSPost2010PropOp34
 70
     1
102
RTVSPost2010Prop35
280
     0
102
RTVSPost2010PropOp35
 70
     1
102
RTVSPost2010Prop36
280
     0
102
RTVSPost2010PropOp36
 70
     1
102
RTVSPost2010Prop37
 90
       50
102
RTVSPost2010PropOp37
 70
     1
102
RTVSPost2010Prop38
140
0.0
102
RTVSPost2010PropOp38
 70
     1
102
RTVSPost2010Prop39
140
1.0
102
RTVSPost2010PropOp39
 70
     1
102
RTVSPost2010Prop40
 90
        0
102
RTVSPost2010PropOp40
 70
     1
102
RTVSPost2010Prop41ColorIndex
 90
       18
102
RTVSPost2010Prop41ColorRGB
 90
        0
102
RTVSPost2010PropOp41
 70
     1
102
RTVSPost2010Prop42
 90
       50
102
RTVSPost2010PropOp42
 70
     1
102
RTVSPost2010Prop43
 90
        3
102
RTVSPost2010PropOp43
 70
     1
102
RTVSPost2010Prop44ColorIndex
 90
        5
102
RTVSPost2010Prop44ColorRGB
 90
      255
102
RTVSPost2010PropOp44
 70
     1
102
RTVSPost2010Prop45
280
     0
102
RTVSPost2010PropOp45
 70
     1
102
RTVSPost2010Prop46
 90
       50
102
RTVSPost2010PropOp46
 70
     1
102
RTVSPost2010Prop47
 90
       50
102
RTVSPost2010PropOp47
 70
     1
102
RTVSPost2010Prop48
 90
       50
102
RTVSPost2010PropOp48
 70
     1
102
RTVSPost2010Prop49
280
     0
102
RTVSPost2010PropOp49
 70
     1
102
RTVSPost2010Prop50
 90
       50
102
RTVSPost2010PropOp50
 70
     1
102
RTVSPost2010Prop51ColorIndex
 90
      256
102
RTVSPost2010Prop51ColorRGB
 90
-16777216
102
RTVSPost2010PropOp51
 70
     0
102
RTVSPost2010Prop52
140
1.0
102
RTVSPost2010PropOp52
 70
     0
102
RTVSPost2010Prop53
 90
        2
102
RTVSPost2010PropOp53
 70
     1
102
RTVSPost2010Prop54
  1
strokes_ogs.tif
102
RTVSPost2010PropOp54
 70
     1
102
RTVSPost2010Prop55
280
     0
102
RTVSPost2010PropOp55
 70
     1
102
RTVSPost2010Prop56
140
1.0
102
RTVSPost2010PropOp56
 70
     1
102
RTVSPost2010Prop57
140
1.0
102
RTVSPost2010PropOp57
 70
     1
  0
XRECORD
  5
1FE
102
{ACAD_REACTORS
330
1FD
102
}
330
1FD
100
AcDbXrecord
280
     1
102
RTVSPost2010Prop28
280
     0
102
RTVSPost2010PropOp28
 70
     1
102
RTVSPost2010Prop29
280
     1
102
RTVSPost2010PropOp29
 70
     1
102
RTVSPost2010Prop30
280
     1
102
RTVSPost2010PropOp30
 70
     1
102
RTVSPost2010Prop31
280
     0
102
RTVSPost2010PropOp31
 70
     1
102
RTVSPost2010Prop32
280
     0
102
RTVSPost2010PropOp32
 70
     1
102
RTVSPost2010Prop33
280
     0
102
RTVSPost2010PropOp33
 70
     1
102
RTVSPost2010Prop34
280
     0
102
RTVSPost2010PropOp34
 70
     1
102
RTVSPost2010Prop35
280
     0
102
RTVSPost2010PropOp35
 70
     1
102
RTVSPost2010Prop36
280
     0
102
RTVSPost2010PropOp36
 70
     1
102
RTVSPost2010Prop37
 90
       50
102
RTVSPost2010PropOp37
 70
     1
102
RTVSPost2010Prop38
140
0.0
102
RTVSPost2010PropOp38
 70
     1
102
RTVSPost2010Prop39
140
1.0
102
RTVSPost2010PropOp39
 70
     1
102
RTVSPost2010Prop40
 90
        0
102
RTVSPost2010PropOp40
 70
     1
102
RTVSPost2010Prop41ColorIndex
 90
       18
102
RTVSPost2010Prop41ColorRGB
 90
        0
102
RTVSPost2010PropOp41
 70
     1
102
RTVSPost2010Prop42
 90
       50
102
RTVSPost2010PropOp42
 70
     1
102
RTVSPost2010Prop43
 90
        3
102
RTVSPost2010PropOp43
 70
     1
102
RTVSPost2010Prop44ColorIndex
 90
        5
102
RTVSPost2010Prop44ColorRGB
 90
      255
102
RTVSPost2010PropOp44
 70
     1
102
RTVSPost2010Prop45
280
     0
102
RTVSPost2010PropOp45
 70
     1
102
RTVSPost2010Prop46
 90
       50
102
RTVSPost2010PropOp46
 70
     1
102
RTVSPost2010Prop47
 90
       50
102
RTVSPost2010PropOp47
 70
     1
102
RTVSPost2010Prop48
 90
       50
102
RTVSPost2010PropOp48
 70
     1
102
RTVSPost2010Prop49
280
     0
102
RTVSPost2010PropOp49
 70
     1
102
RTVSPost2010Prop50
 90
       50
102
RTVSPost2010PropOp50
 70
     1
102
RTVSPost2010Prop51ColorIndex
 90
      256
102
RTVSPost2010Prop51ColorRGB
 90
-16777216
102
RTVSPost2010PropOp51
 70
     0
102
RTVSPost2010Prop52
140
1.0
102
RTVSPost2010PropOp52
 70
     0
102
RTVSPost2010Prop53
 90
        2
102
RTVSPost2010PropOp53
 70
     1
102
RTVSPost2010Prop54
  1
strokes_ogs.tif
102
RTVSPost2010PropOp54
 70
     1
102
RTVSPost2010Prop55
280
     0
102
RTVSPost2010PropOp55
 70
     1
102
RTVSPost2010Prop56
140
1.0
102
RTVSPost2010PropOp56
 70
     1
102
RTVSPost2010Prop57
140
1.0
102
RTVSPost2010PropOp57
 70
     1
  0
ENDSEC
  0
EOF
