  0
SECTION
  2
HEADER
  9
$ACADVER
  1
AC1024
  9
$ACADMAINTVER
 70
     6
  9
$DWGCODEPAGE
  3
ANSI_1252
  9
$INSBASE
 10
0.0
 20
0.0
 30
0.0
  9
$EXTMIN
 10
1.000000E+20
 20
1.000000E+20
 30
1.000000E+20
  9
$EXTMAX
 10
-1.000000E+20
 20
-1.000000E+20
 30
-1.000000E+20
  9
$LIMMIN
 10
0.0
 20
0.0
  9
$LIMMAX
 10
420.0
 20
297.0
  9
$ORTHOMODE
 70
     0
  9
$REGENMODE
 70
     1
  9
$FILLMODE
 70
     1
  9
$QTEXTMODE
 70
     0
  9
$MIRRTEXT
 70
     1
  9
$LTSCALE
 40
1.0
  9
$ATTMODE
 70
     1
  9
$TEXTSIZE
 40
2.5
  9
$TRACEWID
 40
1.0
  9
$TEXTSTYLE
  7
Standard
  9
$CLAYER
  8
0
  9
$CELTYPE
  6
ByLayer
  9
$CECOLOR
 62
   256
  9
$CELTSCALE
 40
1.0
  9
$DISPSILH
 70
     0
  9
$DIMSCALE
 40
1.0
  9
$DIMASZ
 40
2.5
  9
$DIMEXO
 40
0.625
  9
$DIMDLI
 40
3.75
  9
$DIMRND
 40
0.0
  9
$DIMDLE
 40
0.0
  9
$DIMEXE
 40
1.25
  9
$DIMTP
 40
0.0
  9
$DIMTM
 40
0.0
  9
$DIMTXT
 40
2.5
  9
$DIMCEN
 40
2.5
  9
$DIMTSZ
 40
0.0
  9
$DIMTOL
 70
     0
  9
$DIMLIM
 70
     0
  9
$DIMTIH
 70
     0
  9
$DIMTOH
 70
     0
  9
$DIMSE1
 70
     0
  9
$DIMSE2
 70
     0
  9
$DIMTAD
 70
     1
  9
$DIMZIN
 70
     8
  9
$DIMBLK
  1

  9
$DIMASO
 70
     1
  9
$DIMSHO
 70
     1
  9
$DIMPOST
  1

  9
$DIMAPOST
  1

  9
$DIMALT
 70
     0
  9
$DIMALTD
 70
     3
  9
$DIMALTF
 40
0.03937
  9
$DIMLFAC
 40
1.0
  9
$DIMTOFL
 70
     1
  9
$DIMTVP
 40
0.0
  9
$DIMTIX
 70
     0
  9
$DIMSOXD
 70
     0
  9
$DIMSAH
 70
     0
  9
$DIMBLK1
  1

  9
$DIMBLK2
  1

  9
$DIMSTYLE
  2
ISO-25
  9
$DIMCLRD
 70
     0
  9
$DIMCLRE
 70
     0
  9
$DIMCLRT
 70
     0
  9
$DIMTFAC
 40
1.0
  9
$DIMGAP
 40
0.625
  9
$DIMJUST
 70
     0
  9
$DIMSD1
 70
     0
  9
$DIMSD2
 70
     0
  9
$DIMTOLJ
 70
     0
  9
$DIMTZIN
 70
     8
  9
$DIMALTZ
 70
     0
  9
$DIMALTTZ
 70
     0
  9
$DIMUPT
 70
     0
  9
$DIMDEC
 70
     2
  9
$DIMTDEC
 70
     2
  9
$DIMALTU
 70
     2
  9
$DIMALTTD
 70
     3
  9
$DIMTXSTY
  7
Standard
  9
$DIMAUNIT
 70
     0
  9
$DIMADEC
 70
     0
  9
$DIMALTRND
 40
0.0
  9
$DIMAZIN
 70
     0
  9
$DIMDSEP
 70
    44
  9
$DIMATFIT
 70
     3
  9
$DIMFRAC
 70
     0
  9
$DIMLDRBLK
  1

  9
$DIMLUNIT
 70
     2
  9
$DIMLWD
 70
    -2
  9
$DIMLWE
 70
    -2
  9
$DIMTMOVE
 70
     0
  9
$DIMFXL
 40
1.0
  9
$DIMFXLON
 70
     0
  9
$DIMJOGANG
 40
0.785398
  9
$DIMTFILL
 70
     0
  9
$DIMTFILLCLR
 70
     0
  9
$DIMARCSYM
 70
     0
  9
$DIMLTYPE
  6

  9
$DIMLTEX1
  6

  9
$DIMLTEX2
  6

  9
$DIMTXTDIRECTION
 70
     0
  9
$LUNITS
 70
     2
  9
$LUPREC
 70
     4
  9
$SKETCHINC
 40
1.0
  9
$FILLETRAD
 40
10.0
  9
$AUNITS
 70
     0
  9
$AUPREC
 70
     0
  9
$MENU
  1
.
  9
$ELEVATION
 40
0.0
  9
$PELEVATION
 40
0.0
  9
$THICKNESS
 40
0.0
  9
$LIMCHECK
 70
     0
  9
$CHAMFERA
 40
0.0
  9
$CHAMFERB
 40
0.0
  9
$CHAMFERC
 40
0.0
  9
$CHAMFERD
 40
0.0
  9
$SKPOLY
 70
     0
  9
$TDCREATE
 40
2457823.363099688
  9
$TDUCREATE
 40
2457823.321433021
  9
$TDUPDATE
 40
2457823.363100232
  9
$TDUUPDATE
 40
2457823.321433565
  9
$TDINDWG
 40
0.0000000116
  9
$TDUSRTIMER
 40
0.0000000116
  9
$USRTIMER
 70
     1
  9
$ANGBASE
 50
0.0
  9
$ANGDIR
 70
     0
  9
$PDMODE
 70
     0
  9
$PDSIZE
 40
0.0
  9
$PLINEWID
 40
0.0
  9
$SPLFRAME
 70
     0
  9
$SPLINETYPE
 70
     6
  9
$SPLINESEGS
 70
     8
  9
$HANDSEED
  5
233
  9
$SURFTAB1
 70
     6
  9
$SURFTAB2
 70
     6
  9
$SURFTYPE
 70
     6
  9
$SURFU
 70
     6
  9
$SURFV
 70
     6
  9
$UCSBASE
  2

  9
$UCSNAME
  2

  9
$UCSORG
 10
0.0
 20
0.0
 30
0.0
  9
$UCSXDIR
 10
1.0
 20
0.0
 30
0.0
  9
$UCSYDIR
 10
0.0
 20
1.0
 30
0.0
  9
$UCSORTHOREF
  2

  9
$UCSORTHOVIEW
 70
     0
  9
$UCSORGTOP
 10
0.0
 20
0.0
 30
0.0
  9
$UCSORGBOTTOM
 10
0.0
 20
0.0
 30
0.0
  9
$UCSORGLEFT
 10
0.0
 20
0.0
 30
0.0
  9
$UCSORGRIGHT
 10
0.0
 20
0.0
 30
0.0
  9
$UCSORGFRONT
 10
0.0
 20
0.0
 30
0.0
  9
$UCSORGBACK
 10
0.0
 20
0.0
 30
0.0
  9
$PUCSBASE
  2

  9
$PUCSNAME
  2

  9
$PUCSORG
 10
0.0
 20
0.0
 30
0.0
  9
$PUCSXDIR
 10
1.0
 20
0.0
 30
0.0
  9
$PUCSYDIR
 10
0.0
 20
1.0
 30
0.0
  9
$PUCSORTHOREF
  2

  9
$PUCSORTHOVIEW
 70
     0
  9
$PUCSORGTOP
 10
0.0
 20
0.0
 30
0.0
  9
$PUCSORGBOTTOM
 10
0.0
 20
0.0
 30
0.0
  9
$PUCSORGLEFT
 10
0.0
 20
0.0
 30
0.0
  9
$PUCSORGRIGHT
 10
0.0
 20
0.0
 30
0.0
  9
$PUCSORGFRONT
 10
0.0
 20
0.0
 30
0.0
  9
$PUCSORGBACK
 10
0.0
 20
0.0
 30
0.0
  9
$USERI1
 70
     0
  9
$USERI2
 70
     0
  9
$USERI3
 70
     0
  9
$USERI4
 70
     0
  9
$USERI5
 70
     0
  9
$USERR1
 40
0.0
  9
$USERR2
 40
0.0
  9
$USERR3
 40
0.0
  9
$USERR4
 40
0.0
  9
$USERR5
 40
0.0
  9
$WORLDVIEW
 70
     1
  9
$SHADEDGE
 70
     3
  9
$SHADEDIF
 70
    70
  9
$TILEMODE
 70
     1
  9
$MAXACTVP
 70
    64
  9
$PINSBASE
 10
0.0
 20
0.0
 30
0.0
  9
$PLIMCHECK
 70
     0
  9
$PEXTMIN
 10
1.000000E+20
 20
1.000000E+20
 30
1.000000E+20
  9
$PEXTMAX
 10
-1.000000E+20
 20
-1.000000E+20
 30
-1.000000E+20
  9
$PLIMMIN
 10
0.0
 20
0.0
  9
$PLIMMAX
 10
420.0
 20
297.0
  9
$UNITMODE
 70
     0
  9
$VISRETAIN
 70
     1
  9
$PLINEGEN
 70
     0
  9
$PSLTSCALE
 70
     1
  9
$TREEDEPTH
 70
  3020
  9
$CMLSTYLE
  2
Standard
  9
$CMLJUST
 70
     0
  9
$CMLSCALE
 40
20.0
  9
$PROXYGRAPHICS
 70
     1
  9
$MEASUREMENT
 70
     1
  9
$CELWEIGHT
370
    -1
  9
$ENDCAPS
280
     0
  9
$JOINSTYLE
280
     0
  9
$LWDISPLAY
290
     0
  9
$INSUNITS
 70
     4
  9
$HYPERLINKBASE
  1

  9
$STYLESHEET
  1

  9
$XEDIT
290
     1
  9
$CEPSNTYPE
380
     0
  9
$PSTYLEMODE
290
     1
  9
$FINGERPRINTGUID
  2
{2379A615-C353-48EC-8855-791FF8241A8F}
  9
$VERSIONGUID
  2
{FAEB1C32-E019-11D5-929B-00C0DF256EC4}
  9
$EXTNAMES
290
     1
  9
$PSVPSCALE
 40
0.0
  9
$OLESTARTUP
290
     0
  9
$SORTENTS
280
   127
  9
$INDEXCTL
280
     0
  9
$HIDETEXT
280
     1
  9
$XCLIPFRAME
280
     2
  9
$HALOGAP
280
     0
  9
$OBSCOLOR
 70
   257
  9
$OBSLTYPE
280
     0
  9
$INTERSECTIONDISPLAY
280
     0
  9
$INTERSECTIONCOLOR
 70
   257
  9
$DIMASSOC
280
     2
  9
$PROJECTNAME
  1

  9
$CAMERADISPLAY
290
     0
  9
$LENSLENGTH
 40
50.0
  9
$CAMERAHEIGHT
 40
0.0
  9
$STEPSPERSEC
 40
2.0
  9
$STEPSIZE
 40
6.0
  9
$3DDWFPREC
 40
2.0
  9
$PSOLWIDTH
 40
5.0
  9
$PSOLHEIGHT
 40
80.0
  9
$LOFTANG1
 40
1.570796
  9
$LOFTANG2
 40
1.570796
  9
$LOFTMAG1
 40
0.0
  9
$LOFTMAG2
 40
0.0
  9
$LOFTPARAM
 70
     7
  9
$LOFTNORMALS
280
     1
  9
$LATITUDE
 40
37.795
  9
$LONGITUDE
 40
-122.394
  9
$NORTHDIRECTION
 40
0.0
  9
$TIMEZONE
 70
 -8000
  9
$LIGHTGLYPHDISPLAY
280
     1
  9
$TILEMODELIGHTSYNCH
280
     1
  9
$CMATERIAL
347
44
  9
$SOLIDHIST
280
     0
  9
$SHOWHIST
280
     1
  9
$DWFFRAME
280
     2
  9
$DGNFRAME
280
     2
  9
$REALWORLDSCALE
290
     1
  9
$INTERFERECOLOR
 62
   256
  9
$CSHADOW
280
     0
  9
$SHADOWPLANELOCATION
 40
0.0
  0
ENDSEC
  0
SECTION
  2
CLASSES
  0
CLASS
  1
ACDBDICTIONARYWDFLT
  2
AcDbDictionaryWithDefault
  3
ObjectDBX Classes
 90
        0
 91
        4
280
     0
281
     0
  0
CLASS
  1
VISUALSTYLE
  2
AcDbVisualStyle
  3
ObjectDBX Classes
 90
     4095
 91
        4
280
     0
281
     0
  0
CLASS
  1
MATERIAL
  2
AcDbMaterial
  3
ObjectDBX Classes
 90
     1153
 91
        4
280
     0
281
     0
  0
CLASS
  1
SCALE
  2
AcDbScale
  3
ObjectDBX Classes
 90
     1153
 91
        4
280
     0
281
     0
  0
CLASS
  1
TABLESTYLE
  2
AcDbTableStyle
  3
ObjectDBX Classes
 90
     4095
 91
        4
280
     0
281
     0
  0
CLASS
  1
MLEADERSTYLE
  2
AcDbMLeaderStyle
  3
ACDB_MLEADERSTYLE_CLASS
 90
     4095
 91
        4
280
     0
281
     0
  0
CLASS
  1
SUN
  2
AcDbSun
  3
SCENEOE
 90
     1153
 91
        4
280
     0
281
     0
  0
CLASS
  1
DICTIONARYVAR
  2
AcDbDictionaryVar
  3
ObjectDBX Classes
 90
        0
 91
        4
280
     0
281
     0
  0
CLASS
  1
CELLSTYLEMAP
  2
AcDbCellStyleMap
  3
ObjectDBX Classes
 90
     1152
 91
        4
280
     0
281
     0
  0
ENDSEC
  0
SECTION
  2
TABLES
  0
TABLE
  2
VPORT
  5
8
330
0
100
AcDbSymbolTable
 70
     1
  0
VPORT
  5
29
330
8
100
AcDbSymbolTableRecord
100
AcDbViewportTableRecord
  2
*Active
 70
     0
 10
0.0
 20
0.0
 11
1.0
 21
1.0
 12
344.186916
 22
148.5
 13
0.0
 23
0.0
 14
10.0
 24
10.0
 15
10.0
 25
10.0
 16
0.0
 26
0.0
 36
1.0
 17
0.0
 27
0.0
 37
0.0
 40
297.0
 41
1.972973
 42
50.0
 43
0.0
 44
0.0
 50
0.0
 51
0.0
 71
     0
 72
   100
 73
     1
 74
     3
 75
     0
 76
     0
 77
     0
 78
     0
281
     0
 65
     1
110
0.0
120
0.0
130
0.0
111
1.0
121
0.0
131
0.0
112
0.0
122
1.0
132
0.0
 79
     0
146
0.0
348
2F
 60
     3
 61
     5
292
     1
282
     1
141
0.0
142
0.0
 63
   250
361
6D
  0
ENDTAB
  0
TABLE
  2
LTYPE
  5
5
330
0
100
AcDbSymbolTable
 70
     1
  0
LTYPE
  5
14
330
5
100
AcDbSymbolTableRecord
100
AcDbLinetypeTableRecord
  2
ByBlock
 70
     0
  3

 72
    65
 73
     0
 40
0.0
  0
LTYPE
  5
15
330
5
100
AcDbSymbolTableRecord
100
AcDbLinetypeTableRecord
  2
ByLayer
 70
     0
  3

 72
    65
 73
     0
 40
0.0
  0
LTYPE
  5
16
330
5
100
AcDbSymbolTableRecord
100
AcDbLinetypeTableRecord
  2
Continuous
 70
     0
  3
Solid line
 72
    65
 73
     0
 40
0.0
  0
ENDTAB
  0
TABLE
  2
LAYER
  5
2
330
0
100
AcDbSymbolTable
 70
     1
  0
LAYER
  5
10
330
2
100
AcDbSymbolTableRecord
100
AcDbLayerTableRecord
  2
0
 70
     0
 62
   106
  6
Continuous
370
     0
390
F
347
46
  0
ENDTAB
  0
TABLE
  2
STYLE
  5
3
330
0
100
AcDbSymbolTable
 70
     4
  0
STYLE
  5
11
330
3
100
AcDbSymbolTableRecord
100
AcDbTextStyleTableRecord
  2
Standard
 70
     0
 40
0.0
 41
1.0
 50
0.0
 71
     0
 42
2.5
  3
txt
  4

  0
STYLE
  5
6E
330
3
100
AcDbSymbolTableRecord
100
AcDbTextStyleTableRecord
  2
Default
 70
     0
 40
0.0
 41
1.0
 50
0.0
 71
     0
 42
2.5
  3

  4

1001
ACAD
1000
txt
1071
        0
  0
STYLE
  5
6F
330
3
100
AcDbSymbolTableRecord
100
AcDbTextStyleTableRecord
  2
ISO
 70
     0
 40
0.0
 41
1.0
 50
0.0
 71
     0
 42
2.5
  3

  4

1001
ACAD
1000
txt
1071
        0
  0
STYLE
  5
70
330
3
100
AcDbSymbolTableRecord
100
AcDbTextStyleTableRecord
  2
zucchetti
 70
     0
 40
0.0
 41
1.0
 50
0.0
 71
     0
 42
2.5
  3

  4

1001
ACAD
1000
Arial
1071
        0
  0
ENDTAB
  0
TABLE
  2
VIEW
  5
6
330
0
100
AcDbSymbolTable
 70
     0
  0
ENDTAB
  0
TABLE
  2
UCS
  5
7
330
0
100
AcDbSymbolTable
 70
     0
  0
ENDTAB
  0
TABLE
  2
APPID
  5
9
330
0
100
AcDbSymbolTable
 70
     1
  0
APPID
  5
12
330
9
100
AcDbSymbolTableRecord
100
AcDbRegAppTableRecord
  2
ACAD
 70
     0
  0
ENDTAB
  0
TABLE
  2
DIMSTYLE
  5
A
330
0
100
AcDbSymbolTable
 70
     4
100
AcDbDimStyleTable
  0
DIMSTYLE
105
27
330
A
100
AcDbSymbolTableRecord
100
AcDbDimStyleTableRecord
  2
ISO-25
 70
     0
 41
2.5
 42
0.625
 43
3.75
 44
1.25
 73
     0
 74
     0
 77
     1
 78
     8
140
2.5
141
2.5
143
0.03937
147
0.625
171
     3
172
     1
178
     0
271
     2
272
     2
274
     3
278
    44
283
     0
284
     8
340
11
  0
DIMSTYLE
105
71
330
A
100
AcDbSymbolTableRecord
100
AcDbDimStyleTableRecord
  2
Default
 70
     0
  3
<>
 41
4.375
 42
1.05
 44
2.1
 49
10.01
 73
     0
 74
     0
 77
     1
 78
     8
140
3.5
146
0.4
147
1.75
172
     1
271
     2
178
     3
271
     2
272
     3
284
     8
340
6E
341
72
342
72
  0
DIMSTYLE
105
79
330
A
100
AcDbSymbolTableRecord
100
AcDbDimStyleTableRecord
  2
ISO
 70
     0
  3
<>
 41
4.375
 42
1.05
 44
2.1
 49
10.01
 73
     0
 74
     0
 77
     1
 78
     8
140
3.5
146
0.4
147
1.75
172
     1
271
     2
178
     3
271
     2
272
     3
284
     8
340
6F
341
72
342
72
  0
DIMSTYLE
105
7A
330
A
100
AcDbSymbolTableRecord
100
AcDbDimStyleTableRecord
  2
zucchetti
 70
     0
  3
<>
 41
3.0
 42
0.9
 44
1.8
 49
8.58
 73
     0
 74
     0
 77
     1
 78
     8
140
3.0
146
0.6
147
1.5
172
     1
176
     3
177
     3
271
     2
178
     3
271
     2
272
     2
284
     8
340
70
  0
ENDTAB
  0
TABLE
  2
BLOCK_RECORD
  5
1
330
0
100
AcDbSymbolTable
 70
     7
  0
BLOCK_RECORD
  5
1F
330
1
100
AcDbSymbolTableRecord
100
AcDbBlockTableRecord
  2
*Model_Space
340
22
 70
     0
280
     1
281
     0
  0
BLOCK_RECORD
  5
1B
330
1
100
AcDbSymbolTableRecord
100
AcDbBlockTableRecord
  2
*Paper_Space
340
1E
 70
     0
280
     1
281
     0
  0
BLOCK_RECORD
  5
23
330
1
100
AcDbSymbolTableRecord
100
AcDbBlockTableRecord
  2
*Paper_Space0
340
26
 70
     0
280
     1
281
     0
  0
BLOCK_RECORD
  5
72
330
1
100
AcDbSymbolTableRecord
100
AcDbBlockTableRecord
  2
_CLOSED
340
0
 70
     0
280
     1
281
     0
  0
BLOCK_RECORD
  5
7B
330
1
100
AcDbSymbolTableRecord
100
AcDbBlockTableRecord
  2
a
340
0
102
{BLKREFS
331
D5
102
}
 70
     0
280
     1
281
     0
  0
BLOCK_RECORD
  5
D6
330
1
100
AcDbSymbolTableRecord
100
AcDbBlockTableRecord
  2
b
340
0
102
{BLKREFS
331
115
102
}
 70
     0
280
     1
281
     0
  0
BLOCK_RECORD
  5
116
330
1
100
AcDbSymbolTableRecord
100
AcDbBlockTableRecord
  2
c
340
0
102
{BLKREFS
331
158
102
}
 70
     0
280
     1
281
     0
  0
BLOCK_RECORD
  5
159
330
1
100
AcDbSymbolTableRecord
100
AcDbBlockTableRecord
  2
d
340
0
102
{BLKREFS
331
1C4
102
}
 70
     0
280
     1
281
     0
  0
BLOCK_RECORD
  5
1C5
330
1
100
AcDbSymbolTableRecord
100
AcDbBlockTableRecord
  2
e
340
0
102
{BLKREFS
331
1F9
102
}
 70
     0
280
     1
281
     0
  0
ENDTAB
  0
ENDSEC
  0
SECTION
  2
BLOCKS
  0
BLOCK
  5
20
330
1F
100
AcDbEntity
  8
0
100
AcDbBlockBegin
  2
*Model_Space
 70
     0
 10
0.0
 20
0.0
 30
0.0
  3
*Model_Space
  1

  0
ENDBLK
  5
21
330
1F
100
AcDbEntity
  8
0
100
AcDbBlockEnd
  0
BLOCK
  5
1C
330
1B
100
AcDbEntity
 67
     1
  8
0
100
AcDbBlockBegin
  2
*Paper_Space
 70
     0
 10
0.0
 20
0.0
 30
0.0
  3
*Paper_Space
  1

  0
ENDBLK
  5
1D
330
1B
100
AcDbEntity
 67
     1
  8
0
100
AcDbBlockEnd
  0
BLOCK
  5
24
330
23
100
AcDbEntity
  8
0
100
AcDbBlockBegin
  2
*Paper_Space0
 70
     0
 10
0.0
 20
0.0
 30
0.0
  3
*Paper_Space0
  1

  0
ENDBLK
  5
25
330
23
100
AcDbEntity
  8
0
100
AcDbBlockEnd
  0
BLOCK
  5
73
330
72
100
AcDbEntity
  8
0
100
AcDbBlockBegin
  2
_CLOSED
 70
     0
 10
0.0
 20
0.0
 30
0.0
  3
_CLOSED
  1

  0
LINE
  5
75
330
72
100
AcDbEntity
  8
0
  6
ByBlock
 62
     0
370
    -2
100
AcDbLine
 10
-1.0
 20
0.166667
 30
0.0
 11
0.0
 21
0.0
 31
0.0
  0
LINE
  5
76
330
72
100
AcDbEntity
  8
0
  6
ByBlock
 62
     0
370
    -2
100
AcDbLine
 10
0.0
 20
0.0
 30
0.0
 11
-1.0
 21
-0.166667
 31
0.0
  0
LINE
  5
77
330
72
100
AcDbEntity
  8
0
  6
ByBlock
 62
     0
370
    -2
100
AcDbLine
 10
-1.0
 20
0.166667
 30
0.0
 11
-1.0
 21
-0.166667
 31
0.0
  0
LINE
  5
78
330
72
100
AcDbEntity
  8
0
  6
ByBlock
 62
     0
370
    -2
100
AcDbLine
 10
0.0
 20
0.0
 30
0.0
 11
-1.0
 21
0.0
 31
0.0
  0
ENDBLK
  5
74
330
72
100
AcDbEntity
  8
0
100
AcDbBlockEnd
  0
BLOCK
  5
D3
330
7B
100
AcDbEntity
  8
0
100
AcDbBlockBegin
  2
a
 70
     0
 10
126.344063
 20
161.406113
 30
0.0
  3
a
  1

  0
LINE
  5
7C
330
7B
100
AcDbEntity
  8
0
  6
Continuous
 62
     0
370
     0
100
AcDbLine
 10
227.97932
 20
435.838046
 30
0.0
 11
211.97932
 21
435.838046
 31
0.0
  0
LINE
  5
7D
330
7B
100
AcDbEntity
  8
0
  6
Continuous
 62
     0
370
     0
100
AcDbLine
 10
243.97932
 20
435.838046
 30
0.0
 11
227.97932
 21
435.838046
 31
0.0
  0
LINE
  5
7E
330
7B
100
AcDbEntity
  8
0
  6
Continuous
 62
     0
370
    30
100
AcDbLine
 10
222.411556
 20
432.838046
 30
0.0
 11
222.411556
 21
423.038046
 31
0.0
  0
ARC
  5
7F
330
7B
100
AcDbEntity
  8
0
  6
Continuous
 62
     0
370
    30
100
AcDbCircle
 10
227.97932
 20
417.838046
 30
0.0
 40
15.99999999999989
100
AcDbArc
 50
90.0
 51
110.364135
  0
ARC
  5
80
330
7B
100
AcDbEntity
  8
0
  6
Continuous
 62
     0
370
    30
100
AcDbCircle
 10
227.97932
 20
417.838046
 30
0.0
 40
16.00000000000093
100
AcDbArc
 50
69.635865
 51
90.0
  0
LINE
  5
81
330
7B
100
AcDbEntity
  8
0
  6
Continuous
 62
     0
370
    30
100
AcDbLine
 10
233.547084
 20
423.038046
 30
0.0
 11
233.547084
 21
432.838046
 31
0.0
  0
LINE
  5
82
330
7B
100
AcDbEntity
  8
0
  6
Continuous
 62
     0
370
    30
100
AcDbLine
 10
222.411556
 20
432.838046
 30
0.0
 11
233.547084
 21
432.838046
 31
0.0
  0
LINE
  5
83
330
7B
100
AcDbEntity
  8
0
  6
Continuous
 62
     0
370
    30
100
AcDbLine
 10
243.97932
 20
435.838046
 30
0.0
 11
243.97932
 21
423.038046
 31
0.0
  0
LINE
  5
84
330
7B
100
AcDbEntity
  8
0
  6
Continuous
 62
     0
370
    30
100
AcDbLine
 10
211.97932
 20
435.838046
 30
0.0
 11
211.97932
 21
423.038046
 31
0.0
  0
LINE
  5
85
330
7B
100
AcDbEntity
  8
0
  6
Continuous
 62
     0
370
     0
100
AcDbLine
 10
377.97932
 20
435.838046
 30
0.0
 11
361.97932
 21
435.838046
 31
0.0
  0
LINE
  5
86
330
7B
100
AcDbEntity
  8
0
  6
Continuous
 62
     0
370
     0
100
AcDbLine
 10
393.97932
 20
435.838046
 30
0.0
 11
377.97932
 21
435.838046
 31
0.0
  0
LINE
  5
87
330
7B
100
AcDbEntity
  8
0
  6
Continuous
 62
     0
370
    30
100
AcDbLine
 10
372.411556
 20
432.838046
 30
0.0
 11
372.411556
 21
423.038046
 31
0.0
  0
ARC
  5
88
330
7B
100
AcDbEntity
  8
0
  6
Continuous
 62
     0
370
    30
100
AcDbCircle
 10
377.97932
 20
417.838046
 30
0.0
 40
16.00000000000106
100
AcDbArc
 50
90.0
 51
110.364135
  0
ARC
  5
89
330
7B
100
AcDbEntity
  8
0
  6
Continuous
 62
     0
370
    30
100
AcDbCircle
 10
377.97932
 20
417.838046
 30
0.0
 40
15.99999999999862
100
AcDbArc
 50
69.635865
 51
90.0
  0
LINE
  5
8A
330
7B
100
AcDbEntity
  8
0
  6
Continuous
 62
     0
370
    30
100
AcDbLine
 10
383.547084
 20
423.038046
 30
0.0
 11
383.547084
 21
432.838046
 31
0.0
  0
LINE
  5
8B
330
7B
100
AcDbEntity
  8
0
  6
Continuous
 62
     0
370
    30
100
AcDbLine
 10
372.411556
 20
432.838046
 30
0.0
 11
383.547084
 21
432.838046
 31
0.0
  0
LINE
  5
8C
330
7B
100
AcDbEntity
  8
0
  6
Continuous
 62
     0
370
    30
100
AcDbLine
 10
393.97932
 20
435.838046
 30
0.0
 11
393.97932
 21
423.038046
 31
0.0
  0
LINE
  5
8D
330
7B
100
AcDbEntity
  8
0
  6
Continuous
 62
     0
370
    30
100
AcDbLine
 10
361.97932
 20
435.838046
 30
0.0
 11
361.97932
 21
423.038046
 31
0.0
  0
LINE
  5
8E
330
7B
100
AcDbEntity
  8
0
  6
Continuous
 62
     0
370
    30
100
AcDbLine
 10
409.47932
 20
403.038046
 30
0.0
 11
346.47932
 21
403.038046
 31
0.0
  0
LINE
  5
8F
330
7B
100
AcDbEntity
  8
0
  6
Continuous
 62
     0
370
    30
100
AcDbLine
 10
408.97932
 20
423.038046
 30
0.0
 11
346.97932
 21
423.038046
 31
0.0
  0
LINE
  5
90
330
7B
100
AcDbEntity
  8
0
  6
Continuous
 62
     0
370
    30
100
AcDbLine
 10
346.47932
 20
422.538046
 30
0.0
 11
346.47932
 21
403.038046
 31
0.0
  0
LINE
  5
91
330
7B
100
AcDbEntity
  8
0
  6
Continuous
 62
     0
370
     0
100
AcDbLine
 10
409.47932
 20
422.538046
 30
0.0
 11
346.47932
 21
422.538046
 31
0.0
  0
ARC
  5
92
330
7B
100
AcDbEntity
  8
0
  6
Continuous
 62
     0
370
    30
100
AcDbCircle
 10
346.97932
 20
422.538046
 30
0.0
 40
0.5
100
AcDbArc
 50
90.0
 51
180.0
  0
LINE
  5
93
330
7B
100
AcDbEntity
  8
0
  6
Continuous
 62
     0
370
    30
100
AcDbLine
 10
409.47932
 20
422.538046
 30
0.0
 11
409.47932
 21
403.038046
 31
0.0
  0
LINE
  5
94
330
7B
100
AcDbEntity
  8
0
  6
Continuous
 62
     0
370
    30
100
AcDbLine
 10
259.47932
 20
403.038046
 30
0.0
 11
196.47932
 21
403.038046
 31
0.0
  0
LINE
  5
95
330
7B
100
AcDbEntity
  8
0
  6
Continuous
 62
     0
370
    30
100
AcDbLine
 10
258.97932
 20
423.038046
 30
0.0
 11
196.97932
 21
423.038046
 31
0.0
  0
LINE
  5
96
330
7B
100
AcDbEntity
  8
0
  6
Continuous
 62
     0
370
    30
100
AcDbLine
 10
196.47932
 20
422.538046
 30
0.0
 11
196.47932
 21
403.038046
 31
0.0
  0
LINE
  5
97
330
7B
100
AcDbEntity
  8
0
  6
Continuous
 62
     0
370
     0
100
AcDbLine
 10
259.47932
 20
422.538046
 30
0.0
 11
196.47932
 21
422.538046
 31
0.0
  0
ARC
  5
98
330
7B
100
AcDbEntity
  8
0
  6
Continuous
 62
     0
370
    30
100
AcDbCircle
 10
196.97932
 20
422.538046
 30
0.0
 40
0.5
100
AcDbArc
 50
90.0
 51
180.0
  0
LINE
  5
99
330
7B
100
AcDbEntity
  8
0
  6
Continuous
 62
     0
370
    30
100
AcDbLine
 10
259.47932
 20
422.538046
 30
0.0
 11
259.47932
 21
403.038046
 31
0.0
  0
ARC
  5
9A
330
7B
100
AcDbEntity
  8
0
  6
Continuous
 62
     0
370
    30
100
AcDbCircle
 10
191.86557
 20
467.93497
 30
0.0
 40
20.49999999999997
100
AcDbArc
 50
93.877412
 51
104.409948
  0
ARC
  5
9B
330
7B
100
AcDbEntity
  8
0
  6
Continuous
 62
     0
370
    30
100
AcDbCircle
 10
191.881526
 20
468.216384
 30
0.0
 40
20.57617139077081
100
AcDbArc
 50
251.217044
 51
266.092432
  0
LINE
  5
9C
330
7B
100
AcDbEntity
  8
0
  6
Continuous
 62
     0
370
    30
100
AcDbLine
 10
190.47932
 20
489.538046
 30
0.0
 11
190.47932
 21
446.538046
 31
0.0
  0
LINE
  5
9D
330
7B
100
AcDbEntity
  8
0
  6
Continuous
 62
     0
370
    30
100
AcDbLine
 10
415.47932
 20
488.938046
 30
0.0
 11
415.47932
 21
447.138046
 31
0.0
  0
ARC
  5
9E
330
7B
100
AcDbEntity
  8
0
  6
Continuous
 62
     0
370
    30
100
AcDbCircle
 10
414.87932
 20
488.938046
 30
0.0
 40
0.6000000238418581
100
AcDbArc
 50
0.0
 51
90.0
  0
LINE
  5
9F
330
7B
100
AcDbEntity
  8
0
  6
Continuous
 62
     0
370
     0
100
AcDbLine
 10
414.87932
 20
489.538046
 30
0.0
 11
414.87932
 21
446.538046
 31
0.0
  0
LINE
  5
A0
330
7B
100
AcDbEntity
  8
0
  6
Continuous
 62
     0
370
    30
100
AcDbLine
 10
393.97932
 20
436.338046
 30
0.0
 11
361.97932
 21
436.338046
 31
0.0
  0
LINE
  5
A1
330
7B
100
AcDbEntity
  8
0
  6
Continuous
 62
     0
370
    30
100
AcDbLine
 10
393.97932
 20
436.338046
 30
0.0
 11
393.97932
 21
442.538046
 31
0.0
  0
LWPOLYLINE
  5
A2
330
7B
100
AcDbEntity
  8
0
  6
Continuous
 62
     0
370
     0
100
AcDbPolyline
 90
       60
 70
     0
 43
0.0
 10
361.97937
 20
442.538116
 10
362.004669
 20
442.562927
 10
362.08017
 20
442.63681
 10
362.205261
 20
442.758972
 10
362.37851
 20
442.927521
 10
362.598267
 20
443.140228
 10
362.86264
 20
443.394531
 10
363.169464
 20
443.687347
 10
363.516418
 20
444.015411
 10
363.901306
 20
444.375397
 10
364.322052
 20
444.763824
 10
364.776459
 20
445.177216
 10
365.262695
 20
445.612061
 10
365.779205
 20
446.064941
 10
366.324493
 20
446.53241
 10
366.897186
 20
447.010986
 10
367.49646
 20
447.496918
 10
368.121735
 20
447.986359
 10
368.772461
 20
448.475403
 10
369.448151
 20
448.960022
 10
370.148804
 20
449.435425
 10
370.874542
 20
449.896393
 10
371.625549
 20
450.336945
 10
372.401855
 20
450.750641
 10
373.203217
 20
451.1297
 10
374.029205
 20
451.466034
 10
374.878052
 20
451.750702
 10
375.747284
 20
451.974609
 10
376.632721
 20
452.129395
 10
377.528534
 20
452.20871
 10
378.42804
 20
452.20874
 10
379.323944
 20
452.1297
 10
380.209381
 20
451.975037
 10
381.078461
 20
451.75119
 10
381.927551
 20
451.466675
 10
382.753571
 20
451.130615
 10
383.554993
 20
450.751617
 10
384.33139
 20
450.337891
 10
385.082428
 20
449.897369
 10
385.808228
 20
449.436493
 10
386.508942
 20
448.961151
 10
387.184692
 20
448.476471
 10
387.835449
 20
447.987396
 10
388.460815
 20
447.497955
 10
389.060181
 20
447.012054
 10
389.632874
 20
446.533478
 10
390.178192
 20
446.065979
 10
390.694763
 20
445.613098
 10
391.181122
 20
445.178192
 10
391.63562
 20
444.76474
 10
392.056396
 20
444.376251
 10
392.441406
 20
444.016174
 10
392.788483
 20
443.688019
 10
393.095367
 20
443.395142
 10
393.359833
 20
443.140747
 10
393.579712
 20
442.927887
 10
393.753082
 20
442.759247
 10
393.878235
 20
442.637024
 10
393.953888
 20
442.562988
 10
393.979309
 20
442.538055
  0
ARC
  5
A3
330
7B
100
AcDbEntity
  8
0
  6
Continuous
 62
     0
370
    30
100
AcDbCircle
 10
397.97932
 20
442.538046
 30
0.0
 40
4.0
100
AcDbArc
 50
90.0
 51
180.0
  0
LWPOLYLINE
  5
A4
330
7B
100
AcDbEntity
  8
0
  6
Continuous
 62
     0
370
     0
100
AcDbPolyline
 90
       58
 70
     0
 43
0.0
 10
357.97937
 20
446.538086
 10
358.013275
 20
446.560516
 10
358.114349
 20
446.627228
 10
358.281769
 20
446.737488
 10
358.513458
 20
446.889435
 10
358.807068
 20
447.080933
 10
359.159943
 20
447.309601
 10
359.569031
 20
447.572418
 10
360.031158
 20
447.866333
 10
360.543304
 20
448.188232
 10
361.102509
 20
448.534821
 10
361.705933
 20
448.902863
 10
362.351105
 20
449.289062
 10
363.03598
 20
449.690247
 10
363.758514
 20
450.10321
 10
364.51712
 20
450.524567
 10
365.310883
 20
450.950745
 10
366.139099
 20
451.378113
 10
367.000946
 20
451.802979
 10
367.89621
 20
452.221191
 10
368.824982
 20
452.627991
 10
369.787506
 20
453.018005
 10
370.783936
 20
453.385345
 10
371.814056
 20
453.723083
 10
372.877319
 20
454.023651
 10
373.97168
 20
454.278839
 10
375.093811
 20
454.480133
 10
376.23819
 20
454.619629
 10
377.396942
 20
454.691162
 10
378.56076
 20
454.691101
 10
379.719635
 20
454.619751
 10
380.863953
 20
454.480255
 10
381.985901
 20
454.278931
 10
383.080505
 20
454.023834
 10
384.143768
 20
453.72345
 10
385.17392
 20
453.385681
 10
386.17041
 20
453.01825
 10
387.132965
 20
452.628235
 10
388.061768
 20
452.221527
 10
388.957031
 20
451.803314
 10
389.818909
 20
451.378387
 10
390.647156
 20
450.951019
 10
391.44101
 20
450.524872
 10
392.199615
 20
450.103516
 10
392.922089
 20
449.690582
 10
393.606964
 20
449.289398
 10
394.252228
 20
448.903137
 10
394.855743
 20
448.535095
 10
395.414917
 20
448.188477
 10
395.927094
 20
447.866577
 10
396.389313
 20
447.572601
 10
396.798401
 20
447.309753
 10
397.151337
 20
447.081116
 10
397.445068
 20
446.889496
 10
397.676788
 20
446.737518
 10
397.844177
 20
446.627289
 10
397.945374
 20
446.560516
 10
397.979309
 20
446.538055
  0
LINE
  5
A5
330
7B
100
AcDbEntity
  8
0
  6
Continuous
 62
     0
370
    30
100
AcDbLine
 10
243.97932
 20
436.338046
 30
0.0
 11
211.97932
 21
436.338046
 31
0.0
  0
LINE
  5
A6
330
7B
100
AcDbEntity
  8
0
  6
Continuous
 62
     0
370
    30
100
AcDbLine
 10
414.87932
 20
489.538046
 30
0.0
 11
190.47932
 21
489.538046
 31
0.0
  0
LWPOLYLINE
  5
A7
330
7B
100
AcDbEntity
  8
0
  6
Continuous
 62
     0
370
     0
100
AcDbPolyline
 90
       58
 70
     0
 43
0.0
 10
207.97937
 20
446.538086
 10
208.013275
 20
446.560516
 10
208.114349
 20
446.627228
 10
208.281754
 20
446.737488
 10
208.513443
 20
446.889435
 10
208.807053
 20
447.080933
 10
209.159958
 20
447.309601
 10
209.569046
 20
447.572418
 10
210.031174
 20
447.866333
 10
210.543304
 20
448.188232
 10
211.102509
 20
448.534821
 10
211.705917
 20
448.902863
 10
212.351089
 20
449.289062
 10
213.035965
 20
449.690247
 10
213.758514
 20
450.10321
 10
214.51712
 20
450.524567
 10
215.310898
 20
450.950745
 10
216.139099
 20
451.378113
 10
217.000961
 20
451.802979
 10
217.89621
 20
452.221191
 10
218.824982
 20
452.627991
 10
219.787506
 20
453.018005
 10
220.783936
 20
453.385345
 10
221.814072
 20
453.723083
 10
222.877335
 20
454.023651
 10
223.97168
 20
454.278839
 10
225.093811
 20
454.480133
 10
226.23819
 20
454.619629
 10
227.396957
 20
454.691162
 10
228.560776
 20
454.691101
 10
229.71962
 20
454.619751
 10
230.863953
 20
454.480255
 10
231.985901
 20
454.278931
 10
233.080521
 20
454.023834
 10
234.143768
 20
453.72345
 10
235.17392
 20
453.385681
 10
236.17041
 20
453.01825
 10
237.132965
 20
452.628235
 10
238.061768
 20
452.221527
 10
238.957031
 20
451.803314
 10
239.818893
 20
451.378387
 10
240.647141
 20
450.951019
 10
241.44101
 20
450.524872
 10
242.199615
 20
450.103516
 10
242.922104
 20
449.690582
 10
243.606964
 20
449.289398
 10
244.252243
 20
448.903137
 10
244.855759
 20
448.535095
 10
245.414932
 20
448.188477
 10
245.927094
 20
447.866577
 10
246.389297
 20
447.572601
 10
246.798416
 20
447.309753
 10
247.151352
 20
447.081116
 10
247.445068
 20
446.889496
 10
247.676788
 20
446.737518
 10
247.844177
 20
446.627289
 10
247.945358
 20
446.560516
 10
247.979324
 20
446.538055
  0
LINE
  5
A8
330
7B
100
AcDbEntity
  8
0
  6
Continuous
 62
     0
370
    30
100
AcDbLine
 10
243.97932
 20
436.338046
 30
0.0
 11
243.97932
 21
442.538046
 31
0.0
  0
LWPOLYLINE
  5
A9
330
7B
100
AcDbEntity
  8
0
  6
Continuous
 62
     0
370
     0
100
AcDbPolyline
 90
       60
 70
     0
 43
0.0
 10
211.97937
 20
442.538116
 10
212.004684
 20
442.562927
 10
212.08017
 20
442.63681
 10
212.205261
 20
442.758972
 10
212.378525
 20
442.927521
 10
212.598267
 20
443.140228
 10
212.86264
 20
443.394531
 10
213.169449
 20
443.687347
 10
213.516418
 20
444.015411
 10
213.901321
 20
444.375397
 10
214.322037
 20
444.763824
 10
214.776474
 20
445.177216
 10
215.262711
 20
445.612061
 10
215.779205
 20
446.064941
 10
216.324509
 20
446.53241
 10
216.897202
 20
447.010986
 10
217.49646
 20
447.496918
 10
218.121735
 20
447.986359
 10
218.772446
 20
448.475403
 10
219.448151
 20
448.960022
 10
220.148819
 20
449.435425
 10
220.874557
 20
449.896393
 10
221.625534
 20
450.336945
 10
222.40184
 20
450.750641
 10
223.203232
 20
451.1297
 10
224.029205
 20
451.466034
 10
224.878052
 20
451.750702
 10
225.747284
 20
451.974609
 10
226.632706
 20
452.129395
 10
227.528534
 20
452.20871
 10
228.42804
 20
452.20874
 10
229.323944
 20
452.1297
 10
230.209366
 20
451.975037
 10
231.078461
 20
451.75119
 10
231.927536
 20
451.466675
 10
232.753571
 20
451.130615
 10
233.555008
 20
450.751617
 10
234.33139
 20
450.337891
 10
235.082428
 20
449.897369
 10
235.808228
 20
449.436493
 10
236.508942
 20
448.961151
 10
237.184692
 20
448.476471
 10
237.835464
 20
447.987396
 10
238.460831
 20
447.497955
 10
239.060165
 20
447.012054
 10
239.632874
 20
446.533478
 10
240.178192
 20
446.065979
 10
240.694748
 20
445.613098
 10
241.181122
 20
445.178192
 10
241.635635
 20
444.76474
 10
242.056396
 20
444.376251
 10
242.441406
 20
444.016174
 10
242.788483
 20
443.688019
 10
243.095367
 20
443.395142
 10
243.359833
 20
443.140747
 10
243.579727
 20
442.927887
 10
243.753098
 20
442.759247
 10
243.878235
 20
442.637024
 10
243.953888
 20
442.562988
 10
243.979324
 20
442.538055
  0
ARC
  5
AA
330
7B
100
AcDbEntity
  8
0
  6
Continuous
 62
     0
370
    30
100
AcDbCircle
 10
247.97932
 20
442.538046
 30
0.0
 40
4.0
100
AcDbArc
 50
90.0
 51
180.0
  0
ARC
  5
AB
330
7B
100
AcDbEntity
  8
0
  6
Continuous
 62
     0
370
    30
100
AcDbCircle
 10
207.978718
 20
442.537449
 30
0.0
 40
4.00064458906747
100
AcDbArc
 50
0.00936
 51
89.990594
  0
LINE
  5
AC
330
7B
100
AcDbEntity
  8
0
  6
Continuous
 62
     0
370
    30
100
AcDbLine
 10
211.97932
 20
442.538103
 30
0.0
 11
211.97932
 21
436.338046
 31
0.0
  0
LINE
  5
AD
330
7B
100
AcDbEntity
  8
0
  6
Continuous
 62
     0
370
    30
100
AcDbLine
 10
190.47932
 20
446.538046
 30
0.0
 11
207.979375
 21
446.538046
 31
0.0
  0
LINE
  5
AE
330
7B
100
AcDbEntity
  8
0
  6
Continuous
 62
     0
370
    30
100
AcDbLine
 10
247.97932
 20
446.538046
 30
0.0
 11
357.979375
 21
446.538046
 31
0.0
  0
LINE
  5
AF
330
7B
100
AcDbEntity
  8
0
  6
Continuous
 62
     0
370
    30
100
AcDbLine
 10
397.97932
 20
446.538046
 30
0.0
 11
414.87932
 21
446.538046
 31
0.0
  0
ARC
  5
B0
330
7B
100
AcDbEntity
  8
0
  6
Continuous
 62
     0
370
    30
100
AcDbCircle
 10
357.978718
 20
442.537449
 30
0.0
 40
4.000644589065699
100
AcDbArc
 50
0.00936
 51
89.990594
  0
LINE
  5
B1
330
7B
100
AcDbEntity
  8
0
  6
Continuous
 62
     0
370
    30
100
AcDbLine
 10
361.97932
 20
442.538103
 30
0.0
 11
361.97932
 21
436.338046
 31
0.0
  0
ARC
  5
B2
330
7B
100
AcDbEntity
  8
0
  6
Continuous
 62
     0
370
    30
100
AcDbCircle
 10
414.879157
 20
447.138209
 30
0.0
 40
0.6001634581304199
100
AcDbArc
 50
270.0156
 51
359.9844
  0
LINE
  5
B3
330
7B
100
AcDbEntity
  8
0
  6
Continuous
 62
     0
370
    30
100
AcDbLine
 10
186.76398
 20
489.788046
 30
0.0
 11
186.76398
 21
480.810877
 31
0.0
  0
LINE
  5
B4
330
7B
100
AcDbEntity
  8
0
  6
Continuous
 62
     0
370
    30
100
AcDbLine
 10
186.76398
 20
480.810877
 30
0.0
 11
186.76398
 21
450.433578
 31
0.0
  0
ELLIPSE
  5
B5
330
7B
100
AcDbEntity
  8
0
  6
Continuous
 62
     0
370
     0
100
AcDbEllipse
 10
161.83955
 20
485.404059
 30
0.0
 11
3.435439594686824
 21
1.031509378141751
 31
0.0
210
0.0
220
0.0
230
-1.0
 40
0.797104
 41
0.2349159725728905
 42
3.376508626162671
  0
ELLIPSE
  5
B6
330
7B
100
AcDbEntity
  8
0
  6
Continuous
 62
     0
370
     0
100
AcDbEllipse
 10
161.83955
 20
485.404059
 30
0.0
 11
3.435439594686824
 21
1.031509378141751
 31
0.0
210
0.0
220
0.0
230
-1.0
 40
0.797104
 41
3.376508626162681
 42
6.518101279752477
  0
ELLIPSE
  5
B7
330
7B
100
AcDbEntity
  8
0
  6
Continuous
 62
     0
370
     0
100
AcDbEllipse
 10
162.041882
 20
484.730192
 30
0.0
 11
4.309915175264235
 21
1.294075415896205
 31
0.0
210
0.0
220
0.0
230
-1.0
 40
0.797104
 41
0.2349159725728928
 42
3.376508626162688
  0
ELLIPSE
  5
B8
330
7B
100
AcDbEntity
  8
0
  6
Continuous
 62
     0
370
     0
100
AcDbEllipse
 10
162.041882
 20
484.730192
 30
0.0
 11
4.309915175264235
 21
1.294075415896205
 31
0.0
210
0.0
220
0.0
230
-1.0
 40
0.797104
 41
6.25352212934417
 42
6.518101279752479
  0
ELLIPSE
  5
B9
330
7B
100
AcDbEntity
  8
0
  6
Continuous
 62
     0
370
     0
100
AcDbEllipse
 10
162.041882
 20
484.730192
 30
0.0
 11
4.309915175264235
 21
1.294075415896205
 31
0.0
210
0.0
220
0.0
230
-1.0
 40
0.797104
 41
3.376508626162692
 42
3.409850242920177
  0
LWPOLYLINE
  5
BA
330
7B
100
AcDbEntity
  8
0
  6
Continuous
 62
     0
370
    30
100
AcDbPolyline
 90
       18
 70
     0
 43
0.0
 10
186.763977
 20
450.433563
 10
186.199539
 20
449.750793
 10
185.636612
 20
449.125977
 10
185.076736
 20
448.560974
 10
184.521439
 20
448.057587
 10
183.972275
 20
447.617401
 10
183.430832
 20
447.242096
 10
182.898666
 20
446.933228
 10
182.37738
 20
446.692383
 10
181.868668
 20
446.520874
 10
181.374176
 20
446.419983
 10
180.895584
 20
446.391052
 10
180.434616
 20
446.43515
 10
179.993011
 20
446.552948
 10
179.57254
 20
446.744995
 10
179.174942
 20
447.011871
 10
178.802002
 20
447.354034
 10
178.45433
 20
447.772675
  0
LWPOLYLINE
  5
BB
330
7B
100
AcDbEntity
  8
0
  6
Continuous
 62
     0
370
     0
100
AcDbPolyline
 90
       18
 70
     0
 43
0.0
 10
161.893112
 20
475.811035
 10
161.816742
 20
475.500732
 10
161.743973
 20
475.198181
 10
161.67485
 20
474.903564
 10
161.609375
 20
474.617188
 10
161.547577
 20
474.339478
 10
161.489487
 20
474.070923
 10
161.435089
 20
473.812164
 10
161.384415
 20
473.564087
 10
161.337463
 20
473.327759
 10
161.29425
 20
473.104584
 10
161.254791
 20
472.896484
 10
161.219086
 20
472.705994
 10
161.187149
 20
472.536774
 10
161.158997
 20
472.39389
 10
161.134674
 20
472.285095
 10
161.114273
 20
472.222443
 10
161.097855
 20
472.226074
  0
LWPOLYLINE
  5
BC
330
7B
100
AcDbEntity
  8
0
  6
Continuous
 62
     0
370
     0
100
AcDbPolyline
 90
        8
 70
     0
 43
0.0
 10
163.703262
 20
476.863495
 10
163.325592
 20
476.790283
 10
162.972153
 20
476.692108
 10
162.652603
 20
476.572723
 10
162.377335
 20
476.428772
 10
162.154922
 20
476.256744
 10
161.992172
 20
476.052948
 10
161.893112
 20
475.811035
  0
LWPOLYLINE
  5
BD
330
7B
100
AcDbEntity
  8
0
  6
Continuous
 62
     0
370
     0
100
AcDbPolyline
 90
       16
 70
     0
 43
0.0
 10
163.703262
 20
476.863495
 10
164.110031
 20
476.928833
 10
164.513016
 20
477.022339
 10
164.909241
 20
477.149323
 10
165.294891
 20
477.314667
 10
165.665771
 20
477.516327
 10
166.018433
 20
477.749268
 10
166.349319
 20
478.011139
 10
166.654953
 20
478.298706
 10
166.931824
 20
478.608612
 10
167.176605
 20
478.936798
 10
167.385818
 20
479.28009
 10
167.55748
 20
479.628693
 10
167.689651
 20
479.974854
 10
167.776901
 20
480.32959
 10
167.811111
 20
480.734222
  0
LINE
  5
BE
330
7B
100
AcDbEntity
  8
0
  6
Continuous
 62
     0
370
     0
100
AcDbLine
 10
167.811118
 20
480.734207
 30
0.0
 11
167.669383
 21
481.636052
 31
0.0
  0
LINE
  5
BF
330
7B
100
AcDbEntity
  8
0
  6
Continuous
 62
     0
370
     0
100
AcDbLine
 10
164.139989
 20
474.622603
 30
0.0
 11
164.139989
 21
447.816771
 31
0.0
  0
LWPOLYLINE
  5
C0
330
7B
100
AcDbEntity
  8
0
  6
Continuous
 62
     0
370
     0
100
AcDbPolyline
 90
        7
 70
     0
 43
0.0
 10
164.139984
 20
474.622589
 10
163.892166
 20
474.540771
 10
163.6595
 20
474.472321
 10
163.45192
 20
474.404724
 10
163.277863
 20
474.331055
 10
163.144226
 20
474.237976
 10
163.051117
 20
474.097687
  0
LINE
  5
C1
330
7B
100
AcDbEntity
  8
0
  6
Continuous
 62
     0
370
     0
100
AcDbLine
 10
163.051111
 20
474.09768
 30
0.0
 11
163.051111
 21
448.800156
 31
0.0
  0
LWPOLYLINE
  5
C2
330
7B
100
AcDbEntity
  8
0
  6
Continuous
 62
     0
370
     0
100
AcDbPolyline
 90
       30
 70
     0
 43
0.0
 10
163.051117
 20
474.097687
 10
162.948914
 20
473.912201
 10
162.848923
 20
473.731354
 10
162.751129
 20
473.555176
 10
162.655579
 20
473.383759
 10
162.562271
 20
473.217163
 10
162.471222
 20
473.055542
 10
162.382462
 20
472.899017
 10
162.295975
 20
472.747772
 10
162.211807
 20
472.601929
 10
162.129959
 20
472.461792
 10
162.050461
 20
472.327606
 10
161.973328
 20
472.199707
 10
161.89856
 20
472.07843
 10
161.826218
 20
471.964264
 10
161.756287
 20
471.857758
 10
161.688843
 20
471.759552
 10
161.623901
 20
471.670441
 10
161.561508
 20
471.5914
 10
161.501724
 20
471.523682
 10
161.444656
 20
471.468811
 10
161.390381
 20
471.428711
 10
161.339066
 20
471.405945
 10
161.290924
 20
471.403809
 10
161.246262
 20
471.426819
 10
161.205551
 20
471.481018
 10
161.169525
 20
471.574677
 10
161.139343
 20
471.718719
 10
161.116714
 20
471.926086
 10
161.103729
 20
472.214874
  0
LWPOLYLINE
  5
C3
330
7B
100
AcDbEntity
  8
0
  6
Continuous
 62
     0
370
     0
100
AcDbPolyline
 90
       30
 70
     0
 43
0.0
 10
164.139984
 20
474.622589
 10
164.432281
 20
474.690063
 10
164.724503
 20
474.774139
 10
165.00856
 20
474.873505
 10
165.285919
 20
474.986633
 10
165.556763
 20
475.112152
 10
165.82132
 20
475.248657
 10
166.079742
 20
475.39505
 10
166.331512
 20
475.550964
 10
166.5755
 20
475.716492
 10
166.810471
 20
475.891815
 10
167.035812
 20
476.076477
 10
167.251099
 20
476.269745
 10
167.45575
 20
476.4711
 10
167.649185
 20
476.679993
 10
167.830902
 20
476.895813
 10
168.000397
 20
477.117859
 10
168.157242
 20
477.34549
 10
168.300842
 20
477.578033
 10
168.430649
 20
477.814758
 10
168.546692
 20
478.054901
 10
168.648849
 20
478.297699
 10
168.734619
 20
478.542511
 10
168.801483
 20
478.788574
 10
168.849182
 20
479.034637
 10
168.879227
 20
479.279755
 10
168.895569
 20
479.523468
 10
168.902206
 20
479.765808
 10
168.902954
 20
480.006958
 10
168.90213
 20
480.252258
  0
LWPOLYLINE
  5
C4
330
7B
100
AcDbEntity
  8
0
  6
Continuous
 62
     0
370
     0
100
AcDbPolyline
 90
       10
 70
     0
 43
0.0
 10
168.90213
 20
480.252258
 10
168.902328
 20
480.715912
 10
168.881088
 20
481.163818
 10
168.807983
 20
481.592499
 10
168.662445
 20
481.99588
 10
168.451996
 20
482.369659
 10
168.187836
 20
482.712189
 10
167.871933
 20
483.020966
 10
167.50824
 20
483.294312
 10
167.100357
 20
483.531219
  0
ELLIPSE
  5
C5
330
7B
100
AcDbEntity
  8
0
  6
Continuous
 62
     0
370
     0
100
AcDbEllipse
 10
168.795926
 20
480.836183
 30
0.0
 11
-0.999999999999994
 21
7.115488160555380E-15
 31
0.0
210
0.0
220
0.0
230
-1.0
 40
0.587257
 41
4.605977450910105
 42
6.108652381980144
  0
ELLIPSE
  5
C6
330
7B
100
AcDbEntity
  8
0
  6
Continuous
 62
     0
370
     0
100
AcDbEllipse
 10
163.870934
 20
475.267933
 30
0.0
 11
0.3332674461892559
 21
-1.972037730194453
 31
0.0
210
0.0
220
0.0
230
-1.0
 40
0.083895
 41
3.784097312629211
 42
5.059912941551557
  0
ELLIPSE
  5
C7
330
7B
100
AcDbEntity
  8
0
  6
Continuous
 62
     0
370
     0
100
AcDbEllipse
 10
161.10686
 20
474.245383
 30
0.0
 11
-1.752342422954221
 21
0.9640000169683197
 31
0.0
210
0.0
220
0.0
230
1.0
 40
0.875847
 41
3.620834165046819
 42
4.745265452037811
  0
CIRCLE
  5
C8
330
7B
100
AcDbEntity
  8
0
  6
Continuous
 62
     0
370
    30
100
AcDbCircle
 10
161.10543
 20
472.164015
 30
0.0
 40
0.0424211367054296
  0
ARC
  5
C9
330
7B
100
AcDbEntity
  8
0
  6
Continuous
 62
     0
370
    30
100
AcDbCircle
 10
186.764349
 20
614.46585
 30
0.0
 40
168.177814721984
100
AcDbArc
 50
262.268764
 51
267.980061
  0
ARC
  5
CA
330
7B
100
AcDbEntity
  8
0
  6
Continuous
 62
     0
370
    30
100
AcDbCircle
 10
186.764134
 20
321.612269
 30
0.0
 40
168.1757768076505
100
AcDbArc
 50
90.000053
 51
97.695506
  0
ARC
  5
CB
330
7B
100
AcDbEntity
  8
0
  6
Continuous
 62
     0
370
    30
100
AcDbCircle
 10
242.819197
 20
468.038428
 30
0.0
 40
82.05521722800412
100
AcDbArc
 50
180.00162
 51
193.559512
  0
LINE
  5
CC
330
7B
100
AcDbEntity
  8
0
  6
Continuous
 62
     0
370
    30
100
AcDbLine
 10
160.76398
 20
468.038046
 30
0.0
 11
160.90607
 21
472.864775
 31
0.0
  0
ARC
  5
CD
330
7B
100
AcDbEntity
  8
0
  6
Continuous
 62
     0
370
    30
100
AcDbCircle
 10
164.316028
 20
449.106269
 30
0.0
 40
1.3014214055414
100
AcDbArc
 50
193.602873
 51
262.225945
  0
LINE
  5
CE
330
7B
100
AcDbEntity
  8
0
  6
Continuous
 62
     0
370
    30
100
AcDbLine
 10
161.097847
 20
472.226062
 30
0.0
 11
157.731967
 21
483.436117
 31
0.0
  0
LINE
  5
CF
330
7B
100
AcDbEntity
  8
0
  6
Continuous
 62
     0
370
    30
100
AcDbLine
 10
167.673538
 20
481.622212
 30
0.0
 11
166.351797
 21
486.024268
 31
0.0
  0
LINE
  5
D0
330
7B
100
AcDbEntity
  8
0
  6
Continuous
 62
     0
370
    30
100
AcDbLine
 10
157.731984
 20
483.436022
 30
0.0
 11
157.5921
 21
484.393669
 31
0.0
  0
LINE
  5
D1
330
7B
100
AcDbEntity
  8
0
  6
Continuous
 62
     0
370
    30
100
AcDbLine
 10
166.351283
 20
486.025053
 30
0.0
 11
166.279466
 21
486.237734
 31
0.0
  0
LWPOLYLINE
  5
D2
330
7B
100
AcDbEntity
  8
0
  6
Continuous
 62
     0
370
    30
100
AcDbPolyline
 90
       24
 70
     0
 43
0.0
 10
157.592102
 20
484.393677
 10
157.629272
 20
484.8909
 10
157.738312
 20
485.384674
 10
157.915451
 20
485.866089
 10
158.156967
 20
486.326172
 10
158.458847
 20
486.756439
 10
158.815292
 20
487.15155
 10
159.21962
 20
487.507629
 10
159.665161
 20
487.820862
 10
160.145218
 20
488.087402
 10
160.653107
 20
488.303436
 10
161.182083
 20
488.465271
 10
161.724548
 20
488.570862
 10
162.272507
 20
488.618958
 10
162.817963
 20
488.608398
 10
163.352951
 20
488.53833
 10
163.869766
 20
488.409393
 10
164.360748
 20
488.222656
 10
164.818222
 20
487.979156
 10
165.23465
 20
487.681061
 10
165.602768
 20
487.332672
 10
165.915314
 20
486.938721
 10
166.165237
 20
486.504639
 10
166.351288
 20
486.025055
  0
ENDBLK
  5
D4
330
7B
100
AcDbEntity
  8
0
100
AcDbBlockEnd
  0
BLOCK
  5
113
330
D6
100
AcDbEntity
  8
0
100
AcDbBlockBegin
  2
b
 70
     0
 10
126.344063
 20
161.406113
 30
0.0
  3
b
  1

  0
ARC
  5
D7
330
D6
100
AcDbEntity
  8
0
  6
Continuous
 62
     0
370
     0
100
AcDbCircle
 10
377.97932
 20
188.702209
 30
0.0
 40
31.0
100
AcDbArc
 50
223.911655
 51
316.088345
  0
ARC
  5
D8
330
D6
100
AcDbEntity
  8
0
  6
Continuous
 62
     0
370
     0
100
AcDbCircle
 10
377.97932
 20
188.702209
 30
0.0
 40
31.0
100
AcDbArc
 50
43.911655
 51
69.704126
  0
ARC
  5
D9
330
D6
100
AcDbEntity
  8
0
  6
Continuous
 62
     0
370
     0
100
AcDbCircle
 10
377.97932
 20
188.702209
 30
0.0
 40
31.0
100
AcDbArc
 50
110.295874
 51
136.088345
  0
ARC
  5
DA
330
D6
100
AcDbEntity
  8
0
  6
Continuous
 62
     0
370
    30
100
AcDbCircle
 10
377.97932
 20
188.702209
 30
0.0
 40
31.5
100
AcDbArc
 50
43.042423
 51
70.091409
  0
ARC
  5
DB
330
D6
100
AcDbEntity
  8
0
  6
Continuous
 62
     0
370
    30
100
AcDbCircle
 10
377.97932
 20
188.702209
 30
0.0
 40
31.5
100
AcDbArc
 50
109.908591
 51
136.957577
  0
ARC
  5
DC
330
D6
100
AcDbEntity
  8
0
  6
Continuous
 62
     0
370
    30
100
AcDbCircle
 10
377.97932
 20
188.702209
 30
0.0
 40
31.5
100
AcDbArc
 50
223.042423
 51
316.957577
  0
ARC
  5
DD
330
D6
100
AcDbEntity
  8
0
  6
Continuous
 62
     0
370
     0
100
AcDbCircle
 10
227.97932
 20
188.702209
 30
0.0
 40
31.0
100
AcDbArc
 50
223.911655
 51
316.088345
  0
ARC
  5
DE
330
D6
100
AcDbEntity
  8
0
  6
Continuous
 62
     0
370
     0
100
AcDbCircle
 10
227.97932
 20
188.702209
 30
0.0
 40
31.0
100
AcDbArc
 50
43.911655
 51
136.088345
  0
ARC
  5
DF
330
D6
100
AcDbEntity
  8
0
  6
Continuous
 62
     0
370
    30
100
AcDbCircle
 10
227.97932
 20
188.702209
 30
0.0
 40
31.5
100
AcDbArc
 50
43.042423
 51
136.957577
  0
ARC
  5
E0
330
D6
100
AcDbEntity
  8
0
  6
Continuous
 62
     0
370
    30
100
AcDbCircle
 10
227.97932
 20
188.702209
 30
0.0
 40
31.5
100
AcDbArc
 50
223.042423
 51
316.957577
  0
ARC
  5
E1
330
D6
100
AcDbEntity
  8
0
  6
Continuous
 62
     0
370
    30
100
AcDbCircle
 10
191.876596
 20
188.848318
 30
0.0
 40
20.54368366234707
100
AcDbArc
 50
255.589607
 51
266.100025
  0
ARC
  5
E2
330
D6
100
AcDbEntity
  8
0
  6
Continuous
 62
     0
370
    30
100
AcDbCircle
 10
191.875326
 20
188.563057
 30
0.0
 40
20.53665248333396
100
AcDbArc
 50
93.897762
 51
115.629528
  0
LINE
  5
E3
330
D6
100
AcDbEntity
  8
0
  6
Continuous
 62
     0
370
    30
100
AcDbLine
 10
190.47932
 20
210.202207
 30
0.0
 11
190.47932
 21
188.702206
 31
0.0
  0
LINE
  5
E4
330
D6
100
AcDbEntity
  8
0
  6
Continuous
 62
     0
370
    30
100
AcDbLine
 10
190.47932
 20
188.702206
 30
0.0
 11
190.47932
 21
167.202207
 31
0.0
  0
LINE
  5
E5
330
D6
100
AcDbEntity
  8
0
  6
Continuous
 62
     0
370
    30
100
AcDbLine
 10
415.47932
 20
188.702206
 30
0.0
 11
415.47932
 21
167.802207
 31
0.0
  0
LINE
  5
E6
330
D6
100
AcDbEntity
  8
0
  6
Continuous
 62
     0
370
    30
100
AcDbLine
 10
415.47932
 20
209.602207
 30
0.0
 11
415.47932
 21
188.702206
 31
0.0
  0
LINE
  5
E7
330
D6
100
AcDbEntity
  8
0
  6
Continuous
 62
     0
370
     0
100
AcDbLine
 10
414.87932
 20
188.702206
 30
0.0
 11
414.87932
 21
167.202207
 31
0.0
  0
LINE
  5
E8
330
D6
100
AcDbEntity
  8
0
  6
Continuous
 62
     0
370
     0
100
AcDbLine
 10
414.87932
 20
210.202207
 30
0.0
 11
414.87932
 21
188.702206
 31
0.0
  0
LWPOLYLINE
  5
E9
330
D6
100
AcDbEntity
  8
0
  6
Continuous
 62
     0
370
    30
100
AcDbPolyline
 90
       23
 70
     0
 43
0.0
 10
365.729309
 20
210.202209
 10
365.761475
 20
210.183899
 10
365.85849
 20
210.128876
 10
366.019318
 20
210.038223
 10
366.241943
 20
209.914261
 10
366.524139
 20
209.759491
 10
366.863464
 20
209.576813
 10
367.256927
 20
209.369934
 10
367.701721
 20
209.142746
 10
368.195038
 20
208.899216
 10
368.734253
 20
208.643463
 10
369.317139
 20
208.37999
 10
369.941589
 20
208.113327
 10
370.605438
 20
207.848007
 10
371.306671
 20
207.58902
 10
372.043335
 20
207.341507
 10
372.813416
 20
207.110718
 10
373.614563
 20
206.902176
 10
374.443817
 20
206.721481
 10
375.296875
 20
206.573639
 10
376.169098
 20
206.463516
 10
377.055206
 20
206.395187
 10
377.979309
 20
206.371033
  0
LWPOLYLINE
  5
EA
330
D6
100
AcDbEntity
  8
0
  6
Continuous
 62
     0
370
    30
100
AcDbPolyline
 90
       23
 70
     0
 43
0.0
 10
377.979309
 20
206.371033
 10
378.872131
 20
206.393616
 10
379.758453
 20
206.460403
 10
380.631073
 20
206.569
 10
381.484619
 20
206.715378
 10
382.314209
 20
206.89502
 10
383.116058
 20
207.102585
 10
383.886993
 20
207.33255
 10
384.624786
 20
207.579468
 10
385.327209
 20
207.837891
 10
385.992188
 20
208.102814
 10
386.617798
 20
208.369492
 10
387.202026
 20
208.633194
 10
387.742889
 20
208.889221
 10
388.237946
 20
209.13324
 10
388.68457
 20
209.361099
 10
389.080048
 20
209.568741
 10
389.421478
 20
209.752396
 10
389.706024
 20
209.908371
 10
389.931122
 20
210.033646
 10
390.094574
 20
210.125717
 10
390.194305
 20
210.182266
 10
390.229309
 20
210.202209
  0
LINE
  5
EB
330
D6
100
AcDbEntity
  8
0
  6
Continuous
 62
     0
370
    30
100
AcDbLine
 10
190.47932
 20
167.202207
 30
0.0
 11
414.87932
 21
167.202207
 31
0.0
  0
LINE
  5
EC
330
D6
100
AcDbEntity
  8
0
  6
Continuous
 62
     0
370
    30
100
AcDbLine
 10
190.47932
 20
210.202207
 30
0.0
 11
365.729447
 21
210.202207
 31
0.0
  0
LINE
  5
ED
330
D6
100
AcDbEntity
  8
0
  6
Continuous
 62
     0
370
    30
100
AcDbLine
 10
390.229203
 20
210.202207
 30
0.0
 11
414.87932
 21
210.202207
 31
0.0
  0
ARC
  5
EE
330
D6
100
AcDbEntity
  8
0
  6
Continuous
 62
     0
370
    30
100
AcDbCircle
 10
414.879157
 20
209.602044
 30
0.0
 40
0.6001627897965429
100
AcDbArc
 50
0.019383
 51
89.984464
  0
ARC
  5
EF
330
D6
100
AcDbEntity
  8
0
  6
Continuous
 62
     0
370
    30
100
AcDbCircle
 10
414.879157
 20
167.80237
 30
0.0
 40
0.6001627898052992
100
AcDbArc
 50
270.015536
 51
359.980617
  0
LINE
  5
F0
330
D6
100
AcDbEntity
  8
0
  6
Continuous
 62
     0
370
    30
100
AcDbLine
 10
367.946565
 20
232.502207
 30
0.0
 11
377.97932
 21
232.502207
 31
0.0
  0
LINE
  5
F1
330
D6
100
AcDbEntity
  8
0
  6
Continuous
 62
     0
370
    30
100
AcDbLine
 10
377.97932
 20
232.502207
 30
0.0
 11
388.012075
 21
232.502207
 31
0.0
  0
LINE
  5
F2
330
D6
100
AcDbEntity
  8
0
  6
Continuous
 62
     0
370
    30
100
AcDbLine
 10
389.132345
 20
209.596618
 30
0.0
 11
388.012075
 21
232.502207
 31
0.0
  0
LINE
  5
F3
330
D6
100
AcDbEntity
  8
0
  6
Continuous
 62
     0
370
    30
100
AcDbLine
 10
366.826296
 20
209.596639
 30
0.0
 11
367.946565
 21
232.502207
 31
0.0
  0
LINE
  5
F4
330
D6
100
AcDbEntity
  8
0
  6
Continuous
 62
     0
370
    30
100
AcDbLine
 10
186.76398
 20
201.475038
 30
0.0
 11
186.76398
 21
171.097739
 31
0.0
  0
LINE
  5
F5
330
D6
100
AcDbEntity
  8
0
  6
Continuous
 62
     0
370
    30
100
AcDbLine
 10
186.76398
 20
171.097739
 30
0.0
 11
186.76398
 21
166.952207
 31
0.0
  0
ELLIPSE
  5
F6
330
D6
100
AcDbEntity
  8
0
  6
Continuous
 62
     0
370
     0
100
AcDbEllipse
 10
161.83955
 20
164.767072
 30
0.0
 11
-3.504755940305571
 21
0.763506781128474
 31
0.0
210
0.0
220
0.0
230
-1.0
 40
0.578335
 41
3.016263470935611
 42
6.157856124525393
  0
ELLIPSE
  5
F7
330
D6
100
AcDbEntity
  8
0
  6
Continuous
 62
     0
370
     0
100
AcDbEllipse
 10
161.83955
 20
164.767072
 30
0.0
 11
-3.504755940305571
 21
0.763506781128474
 31
0.0
210
0.0
220
0.0
230
-1.0
 40
0.578335
 41
6.157856124525403
 42
9.299448778115197
  0
ELLIPSE
  5
F8
330
D6
100
AcDbEntity
  8
0
  6
Continuous
 62
     0
370
     0
100
AcDbEllipse
 10
162.041882
 20
165.695846
 30
0.0
 11
-4.396875682542009
 21
0.9578539723102999
 31
0.0
210
0.0
220
0.0
230
-1.0
 40
0.578335
 41
3.016263470935603
 42
3.159699265958169
  0
ELLIPSE
  5
F9
330
D6
100
AcDbEntity
  8
0
  6
Continuous
 62
     0
370
     0
100
AcDbEllipse
 10
162.041882
 20
165.695846
 30
0.0
 11
-4.396875682542009
 21
0.9578539723102999
 31
0.0
210
0.0
220
0.0
230
-1.0
 40
0.578335
 41
6.157856124525404
 42
9.29944877811519
  0
LWPOLYLINE
  5
FA
330
D6
100
AcDbEntity
  8
0
  6
Continuous
 62
     0
370
    30
100
AcDbPolyline
 90
       18
 70
     0
 43
0.0
 10
178.624466
 20
210.255112
 10
178.9729
 20
210.236542
 10
179.345337
 20
210.14711
 10
179.740189
 20
209.988174
 10
180.155853
 20
209.761154
 10
180.590744
 20
209.467728
 10
181.043274
 20
209.109756
 10
181.511841
 20
208.689117
 10
181.994888
 20
208.207809
 10
182.490921
 20
207.667938
 10
182.998383
 20
207.071579
 10
183.515778
 20
206.420898
 10
184.041687
 20
205.71814
 10
184.574631
 20
204.965515
 10
185.113174
 20
204.165298
 10
185.655945
 20
203.319717
 10
186.201569
 20
202.431046
 10
186.763977
 20
201.475037
  0
LINE
  5
FB
330
D6
100
AcDbEntity
  8
0
  6
Continuous
 62
     0
370
     0
100
AcDbLine
 10
167.769312
 20
170.845927
 30
0.0
 11
167.811118
 21
171.20341
 31
0.0
  0
LWPOLYLINE
  5
FC
330
D6
100
AcDbEntity
  8
0
  6
Continuous
 62
     0
370
     0
100
AcDbPolyline
 90
       16
 70
     0
 43
0.0
 10
167.811111
 20
171.203415
 10
167.781128
 20
171.470764
 10
167.69722
 20
171.713959
 10
167.56781
 20
171.953735
 10
167.39859
 20
172.206482
 10
167.191681
 20
172.465363
 10
166.948914
 20
172.718246
 10
166.673782
 20
172.962265
 10
166.369629
 20
173.19313
 10
166.039948
 20
173.407257
 10
165.688232
 20
173.600952
 10
165.318039
 20
173.77153
 10
164.932816
 20
173.91275
 10
164.536743
 20
174.021515
 10
164.133316
 20
174.103683
 10
163.703262
 20
174.16951
  0
ARC
  5
FD
330
D6
100
AcDbEntity
  8
0
  6
Continuous
 62
     0
370
     0
100
AcDbCircle
 10
163.900812
 20
176.206613
 30
0.0
 40
2.046664053778696
100
AcDbArc
 50
191.199028
 51
264.460843
  0
LWPOLYLINE
  5
FE
330
D6
100
AcDbEntity
  8
0
  6
Continuous
 62
     0
370
     0
100
AcDbPolyline
 90
       34
 70
     0
 43
0.0
 10
161.079651
 20
182.254059
 10
161.080841
 20
182.383331
 10
161.084305
 20
182.441116
 10
161.089783
 20
182.43692
 10
161.097031
 20
182.383682
 10
161.105896
 20
182.292892
 10
161.116241
 20
182.17334
 10
161.128006
 20
182.031433
 10
161.141144
 20
181.87175
 10
161.155624
 20
181.697662
 10
161.171432
 20
181.511673
 10
161.188553
 20
181.315659
 10
161.206985
 20
181.111099
 10
161.22673
 20
180.899109
 10
161.247772
 20
180.680603
 10
161.270111
 20
180.456314
 10
161.293747
 20
180.226837
 10
161.31868
 20
179.992676
 10
161.34491
 20
179.754227
 10
161.372437
 20
179.511856
 10
161.401245
 20
179.265839
 10
161.431351
 20
179.016418
 10
161.462738
 20
178.76384
 10
161.495407
 20
178.50827
 10
161.529373
 20
178.249878
 10
161.564606
 20
177.988785
 10
161.601105
 20
177.725128
 10
161.638901
 20
177.459015
 10
161.677948
 20
177.190552
 10
161.718262
 20
176.9198
 10
161.759842
 20
176.646835
 10
161.802689
 20
176.371735
 10
161.846771
 20
176.094543
 10
161.893112
 20
175.809113
  0
LINE
  5
FF
330
D6
100
AcDbEntity
  8
0
  6
Continuous
 62
     0
370
     0
100
AcDbLine
 10
164.139989
 20
208.923482
 30
0.0
 11
164.139989
 21
176.510676
 31
0.0
  0
LINE
  5
100
330
D6
100
AcDbEntity
  8
0
  6
Continuous
 62
     0
370
     0
100
AcDbLine
 10
163.051111
 20
207.940097
 30
0.0
 11
163.051111
 21
177.276695
 31
0.0
  0
LWPOLYLINE
  5
101
330
D6
100
AcDbEntity
  8
0
  6
Continuous
 62
     0
370
     0
100
AcDbPolyline
 90
        7
 70
     0
 43
0.0
 10
163.051117
 20
177.276688
 10
163.134689
 20
177.087296
 10
163.263992
 20
176.934677
 10
163.43399
 20
176.809097
 10
163.637985
 20
176.70163
 10
163.867798
 20
176.608032
 10
164.139984
 20
176.510681
  0
ELLIPSE
  5
102
330
D6
100
AcDbEntity
  8
0
  6
Continuous
 62
     0
370
    30
100
AcDbEllipse
 10
242.81598
 20
188.702207
 30
0.0
 11
82.05199999999979
 21
0.0
 31
0.0
210
0.0
220
0.0
230
-1.0
 40
0.809401
 41
3.050818574384449
 42
3.141592653589798
  0
LWPOLYLINE
  5
103
330
D6
100
AcDbEntity
  8
0
  6
Continuous
 62
     0
370
     0
100
AcDbPolyline
 90
       33
 70
     0
 43
0.0
 10
161.101807
 20
182.681915
 10
161.106995
 20
182.883972
 10
161.121811
 20
183.007614
 10
161.144501
 20
183.061691
 10
161.173325
 20
183.059967
 10
161.206985
 20
183.015091
 10
161.244629
 20
182.936844
 10
161.28566
 20
182.832382
 10
161.329712
 20
182.706909
 10
161.376511
 20
182.564285
 10
161.425873
 20
182.407318
 10
161.477676
 20
182.238205
 10
161.53183
 20
182.058609
 10
161.588242
 20
181.869843
 10
161.646866
 20
181.672958
 10
161.707657
 20
181.468826
 10
161.770584
 20
181.258118
 10
161.835602
 20
181.041412
 10
161.90271
 20
180.819199
 10
161.971863
 20
180.591858
 10
162.04306
 20
180.359772
 10
162.116272
 20
180.123184
 10
162.191498
 20
179.88237
 10
162.268707
 20
179.637543
 10
162.3479
 20
179.38887
 10
162.429047
 20
179.13652
 10
162.512161
 20
178.88063
 10
162.597198
 20
178.621338
 10
162.684174
 20
178.358719
 10
162.773071
 20
178.09288
 10
162.863861
 20
177.823883
 10
162.956543
 20
177.551804
 10
163.051117
 20
177.276688
  0
LWPOLYLINE
  5
104
330
D6
100
AcDbEntity
  8
0
  6
Continuous
 62
     0
370
     0
100
AcDbPolyline
 90
        9
 70
     0
 43
0.0
 10
167.564148
 20
169.9039
 10
167.914169
 20
170.054611
 10
168.217926
 20
170.233658
 10
168.471664
 20
170.440994
 10
168.673706
 20
170.675751
 10
168.812469
 20
170.938156
 10
168.881989
 20
171.225906
 10
168.902374
 20
171.534576
 10
168.90213
 20
171.867676
  0
LWPOLYLINE
  5
105
330
D6
100
AcDbEntity
  8
0
  6
Continuous
 62
     0
370
     0
100
AcDbPolyline
 90
       25
 70
     0
 43
0.0
 10
168.90213
 20
171.867676
 10
168.903046
 20
172.078812
 10
168.900482
 20
172.294174
 10
168.887146
 20
172.513565
 10
168.856171
 20
172.737381
 10
168.800461
 20
172.965469
 10
168.716766
 20
173.19664
 10
168.606186
 20
173.429214
 10
168.473465
 20
173.661926
 10
168.32077
 20
173.893631
 10
168.147903
 20
174.123093
 10
167.955765
 20
174.349167
 10
167.745316
 20
174.570663
 10
167.517334
 20
174.786499
 10
167.272751
 20
174.995529
 10
167.012527
 20
175.196762
 10
166.737671
 20
175.389206
 10
166.449066
 20
175.571655
 10
166.148026
 20
175.743729
 10
165.836594
 20
175.905487
 10
165.517792
 20
176.055832
 10
165.187378
 20
176.194077
 10
164.842636
 20
176.318436
 10
164.514084
 20
176.420349
 10
164.139984
 20
176.510681
  0
ELLIPSE
  5
106
330
D6
100
AcDbEntity
  8
0
  6
Continuous
 62
     0
370
     0
100
AcDbEllipse
 10
168.795926
 20
171.06286
 30
0.0
 11
-0.999999999999994
 21
9.807096725732408E-15
 31
0.0
210
0.0
220
0.0
230
1.0
 40
0.809401
 41
4.605977450910117
 42
6.108652381980154
  0
LINE
  5
107
330
D6
100
AcDbEntity
  8
0
  6
Continuous
 62
     0
370
     0
100
AcDbLine
 10
164.096086
 20
176.518892
 30
0.0
 11
163.657987
 21
174.177978
 31
0.0
  0
ELLIPSE
  5
108
330
D6
100
AcDbEntity
  8
0
  6
Continuous
 62
     0
370
     0
100
AcDbEllipse
 10
161.10686
 20
176.998201
 30
0.0
 11
1.890489736775896
 21
0.6527239501849428
 31
0.0
210
0.0
220
0.0
230
1.0
 40
0.701438
 41
4.89090329481713
 42
6.015334581808132
  0
LWPOLYLINE
  5
109
330
D6
100
AcDbEntity
  8
0
  6
Continuous
 62
     0
370
    30
100
AcDbPolyline
 90
        6
 70
     0
 43
0.0
 10
161.110031
 20
182.534866
 10
161.110168
 20
182.580902
 10
161.110474
 20
182.607605
 10
161.110855
 20
182.613495
 10
161.110764
 20
182.596298
 10
161.100769
 20
182.528152
  0
ARC
  5
10A
330
D6
100
AcDbEntity
  8
0
  6
Continuous
 62
     0
370
    30
100
AcDbCircle
 10
186.764425
 20
335.1327
 30
0.0
 40
168.180492630633
100
AcDbArc
 50
263.309583
 51
269.999848
  0
ARC
  5
10B
330
D6
100
AcDbEntity
  8
0
  6
Continuous
 62
     0
370
    30
100
AcDbCircle
 10
186.76414
 20
42.27698
 30
0.0
 40
168.1752326472338
100
AcDbArc
 50
92.772582
 51
97.731284
  0
ARC
  5
10C
330
D6
100
AcDbEntity
  8
0
  6
Continuous
 62
     0
370
    30
100
AcDbCircle
 10
242.819197
 20
188.701825
 30
0.0
 40
82.05521722822607
100
AcDbArc
 50
166.440488
 51
179.99838
  0
LINE
  5
10D
330
D6
100
AcDbEntity
  8
0
  6
Continuous
 62
     0
370
    30
100
AcDbLine
 10
160.76398
 20
188.70027
 30
0.0
 11
161.018234
 21
182.249218
 31
0.0
  0
ARC
  5
10E
330
D6
100
AcDbEntity
  8
0
  6
Continuous
 62
     0
370
    30
100
AcDbCircle
 10
164.316028
 20
207.63397
 30
0.0
 40
1.301421071459468
100
AcDbArc
 50
97.774037
 51
166.397103
  0
LINE
  5
10F
330
D6
100
AcDbEntity
  8
0
  6
Continuous
 62
     0
370
    30
100
AcDbLine
 10
167.770725
 20
170.852175
 30
0.0
 11
166.508004
 21
165.055854
 31
0.0
  0
LINE
  5
110
330
D6
100
AcDbEntity
  8
0
  6
Continuous
 62
     0
370
    30
100
AcDbLine
 10
161.084513
 20
182.442208
 30
0.0
 11
157.645006
 21
166.6537
 31
0.0
  0
LWPOLYLINE
  5
111
330
D6
100
AcDbEntity
  8
0
  6
Continuous
 62
     0
370
    30
100
AcDbPolyline
 90
       26
 70
     0
 43
0.0
 10
166.438782
 20
164.73909
 10
166.310577
 20
164.334915
 10
166.111465
 20
163.957932
 10
165.850143
 20
163.621613
 10
165.536011
 20
163.329681
 10
165.178574
 20
163.082932
 10
164.784973
 20
162.881287
 10
164.360046
 20
162.72374
 10
163.908478
 20
162.609253
 10
163.434998
 20
162.536774
 10
162.944351
 20
162.505264
 10
162.4422
 20
162.513824
 10
161.934982
 20
162.561737
 10
161.429153
 20
162.648209
 10
160.931198
 20
162.772491
 10
160.447235
 20
162.933121
 10
159.983002
 20
163.128006
 10
159.54422
 20
163.35495
 10
159.136597
 20
163.611877
 10
158.765411
 20
163.897583
 10
158.435547
 20
164.211731
 10
158.15181
 20
164.554001
 10
157.919113
 20
164.924011
 10
157.743454
 20
165.31813
 10
157.632034
 20
165.729309
 10
157.592102
 20
166.159668
  0
LINE
  5
112
330
D6
100
AcDbEntity
  8
0
  6
Continuous
 62
     0
370
    30
100
AcDbLine
 10
157.645082
 20
166.653856
 30
0.0
 11
157.5921
 21
166.159667
 31
0.0
  0
ENDBLK
  5
114
330
D6
100
AcDbEntity
  8
0
100
AcDbBlockEnd
  0
BLOCK
  5
156
330
116
100
AcDbEntity
  8
0
100
AcDbBlockBegin
  2
c
 70
     0
 10
126.344063
 20
161.406113
 30
0.0
  3
c
  1

  0
LINE
  5
117
330
116
100
AcDbEntity
  8
0
  6
Continuous
 62
     0
370
    30
100
AcDbLine
 10
524.273322
 20
422.838046
 30
0.0
 11
494.273322
 21
422.838046
 31
0.0
  0
LINE
  5
118
330
116
100
AcDbEntity
  8
0
  6
Continuous
 62
     0
370
    30
100
AcDbLine
 10
524.273322
 20
423.038046
 30
0.0
 11
524.273322
 21
422.838046
 31
0.0
  0
LINE
  5
119
330
116
100
AcDbEntity
  8
0
  6
Continuous
 62
     0
370
    30
100
AcDbLine
 10
524.273322
 20
423.038046
 30
0.0
 11
494.273322
 21
423.038046
 31
0.0
  0
LINE
  5
11A
330
116
100
AcDbEntity
  8
0
  6
Continuous
 62
     0
370
    30
100
AcDbLine
 10
494.273322
 20
422.838046
 30
0.0
 11
494.273322
 21
423.038046
 31
0.0
  0
ARC
  5
11B
330
116
100
AcDbEntity
  8
0
  6
Continuous
 62
     0
370
    30
100
AcDbCircle
 10
493.773322
 20
435.838046
 30
0.0
 40
0.5
100
AcDbArc
 50
90.0
 51
180.0
  0
LINE
  5
11C
330
116
100
AcDbEntity
  8
0
  6
Continuous
 62
     0
370
     0
100
AcDbLine
 10
525.273322
 20
435.838046
 30
0.0
 11
493.273322
 21
435.838046
 31
0.0
  0
LINE
  5
11D
330
116
100
AcDbEntity
  8
0
  6
Continuous
 62
     0
370
    30
100
AcDbLine
 10
493.273322
 20
435.838046
 30
0.0
 11
493.273322
 21
433.838046
 31
0.0
  0
LINE
  5
11E
330
116
100
AcDbEntity
  8
0
  6
Continuous
 62
     0
370
    30
100
AcDbLine
 10
494.273322
 20
432.838046
 30
0.0
 11
493.273322
 21
433.838046
 31
0.0
  0
LINE
  5
11F
330
116
100
AcDbEntity
  8
0
  6
Continuous
 62
     0
370
    30
100
AcDbLine
 10
494.273322
 20
423.038046
 30
0.0
 11
494.273322
 21
432.838046
 31
0.0
  0
LINE
  5
120
330
116
100
AcDbEntity
  8
0
  6
Continuous
 62
     0
370
    30
100
AcDbLine
 10
524.273322
 20
432.838046
 30
0.0
 11
524.273322
 21
423.038046
 31
0.0
  0
LWPOLYLINE
  5
121
330
116
100
AcDbEntity
  8
0
  6
Continuous
 62
     0
370
    30
100
AcDbPolyline
 90
        7
 70
     0
 43
0.0
 10
525.273315
 20
433.838043
 10
525.245483
 20
433.810181
 10
525.16156
 20
433.726288
 10
525.021667
 20
433.586365
 10
524.826294
 20
433.391022
 10
524.57666
 20
433.141418
 10
524.273315
 20
432.838043
  0
LINE
  5
122
330
116
100
AcDbEntity
  8
0
  6
Continuous
 62
     0
370
    30
100
AcDbLine
 10
525.273322
 20
435.838046
 30
0.0
 11
525.273322
 21
433.838046
 31
0.0
  0
LINE
  5
123
330
116
100
AcDbEntity
  8
0
  6
Continuous
 62
     0
370
    30
100
AcDbLine
 10
509.273323
 20
403.038046
 30
0.0
 11
477.773322
 21
403.038046
 31
0.0
  0
LINE
  5
124
330
116
100
AcDbEntity
  8
0
  6
Continuous
 62
     0
370
    30
100
AcDbLine
 10
540.773322
 20
403.038046
 30
0.0
 11
509.273323
 21
403.038046
 31
0.0
  0
LINE
  5
125
330
116
100
AcDbEntity
  8
0
  6
Continuous
 62
     0
370
     0
100
AcDbLine
 10
509.273323
 20
422.538046
 30
0.0
 11
477.773322
 21
422.538046
 31
0.0
  0
LINE
  5
126
330
116
100
AcDbEntity
  8
0
  6
Continuous
 62
     0
370
     0
100
AcDbLine
 10
540.773322
 20
422.538046
 30
0.0
 11
509.273323
 21
422.538046
 31
0.0
  0
LINE
  5
127
330
116
100
AcDbEntity
  8
0
  6
Continuous
 62
     0
370
    30
100
AcDbLine
 10
477.773322
 20
422.538046
 30
0.0
 11
477.773322
 21
403.038046
 31
0.0
  0
LINE
  5
128
330
116
100
AcDbEntity
  8
0
  6
Continuous
 62
     0
370
    30
100
AcDbLine
 10
540.773322
 20
422.538046
 30
0.0
 11
540.773322
 21
403.038046
 31
0.0
  0
LINE
  5
129
330
116
100
AcDbEntity
  8
0
  6
Continuous
 62
     0
370
    30
100
AcDbLine
 10
525.273322
 20
436.338046
 30
0.0
 11
509.273323
 21
436.338046
 31
0.0
  0
LINE
  5
12A
330
116
100
AcDbEntity
  8
0
  6
Continuous
 62
     0
370
    30
100
AcDbLine
 10
509.273323
 20
436.338046
 30
0.0
 11
493.273322
 21
436.338046
 31
0.0
  0
LWPOLYLINE
  5
12B
330
116
100
AcDbEntity
  8
0
  6
Continuous
 62
     0
370
     0
100
AcDbPolyline
 90
       33
 70
     0
 43
0.0
 10
509.273315
 20
442.538116
 10
510.102112
 20
442.559204
 10
510.927368
 20
442.622009
 10
511.745483
 20
442.726044
 10
512.553284
 20
442.869904
 10
513.3479
 20
443.05188
 10
514.126282
 20
443.270111
 10
514.886353
 20
443.522369
 10
515.626099
 20
443.806061
 10
516.343872
 20
444.118652
 10
517.038147
 20
444.45752
 10
517.708191
 20
444.819916
 10
518.353027
 20
445.203094
 10
518.972046
 20
445.604309
 10
519.564941
 20
446.020905
 10
520.131348
 20
446.450165
 10
520.671082
 20
446.889404
 10
521.183899
 20
447.335724
 10
521.669556
 20
447.786102
 10
522.127869
 20
448.237518
 10
522.558655
 20
448.686859
 10
522.961609
 20
449.130768
 10
523.336243
 20
449.565338
 10
523.681824
 20
449.986267
 10
523.997559
 20
450.388824
 10
524.28241
 20
450.767822
 10
524.534912
 20
451.117126
 10
524.753601
 20
451.430389
 10
524.936523
 20
451.700623
 10
525.081787
 20
451.920685
 10
525.187378
 20
452.083832
 10
525.251587
 20
452.184448
 10
525.273315
 20
452.218689
  0
LWPOLYLINE
  5
12C
330
116
100
AcDbEntity
  8
0
  6
Continuous
 62
     0
370
     0
100
AcDbPolyline
 90
       33
 70
     0
 43
0.0
 10
493.273315
 20
452.21875
 10
493.2948
 20
452.184845
 10
493.358765
 20
452.084625
 10
493.464142
 20
451.921661
 10
493.60907
 20
451.702087
 10
493.791718
 20
451.432373
 10
494.010162
 20
451.119354
 10
494.262543
 20
450.770111
 10
494.54715
 20
450.391357
 10
494.86264
 20
449.988983
 10
495.208038
 20
449.568176
 10
495.582428
 20
449.133698
 10
495.985107
 20
448.690033
 10
496.41571
 20
448.240692
 10
496.873932
 20
447.789062
 10
497.359467
 20
447.338562
 10
497.87207
 20
446.892365
 10
498.41153
 20
446.453247
 10
498.977661
 20
446.023956
 10
499.570282
 20
445.607239
 10
500.189148
 20
445.205841
 10
500.833893
 20
444.82251
 10
501.503723
 20
444.459961
 10
502.197754
 20
444.120972
 10
502.915192
 20
443.808228
 10
503.654938
 20
443.524414
 10
504.414978
 20
443.272034
 10
505.193146
 20
443.053436
 10
505.987305
 20
442.871033
 10
506.795044
 20
442.727051
 10
507.613129
 20
442.622772
 10
508.438263
 20
442.559448
 10
509.273315
 20
442.538116
  0
LINE
  5
12D
330
116
100
AcDbEntity
  8
0
  6
Continuous
 62
     0
370
    30
100
AcDbLine
 10
525.273302
 20
452.21869
 30
0.0
 11
525.505207
 21
453.560877
 31
0.0
  0
ARC
  5
12E
330
116
100
AcDbEntity
  8
0
  6
Continuous
 62
     0
370
    30
100
AcDbCircle
 10
489.273508
 20
452.218815
 30
0.0
 40
3.999815788400866
100
AcDbArc
 50
359.999073
 51
38.343647
  0
LINE
  5
12F
330
116
100
AcDbEntity
  8
0
  6
Continuous
 62
     0
370
    30
100
AcDbLine
 10
525.273322
 20
452.218629
 30
0.0
 11
525.273322
 21
436.338046
 31
0.0
  0
LINE
  5
130
330
116
100
AcDbEntity
  8
0
  6
Continuous
 62
     0
370
    30
100
AcDbLine
 10
493.273322
 20
452.218629
 30
0.0
 11
493.273322
 21
436.338046
 31
0.0
  0
LINE
  5
131
330
116
100
AcDbEntity
  8
0
  6
Continuous
 62
     0
370
    30
100
AcDbLine
 10
490.722821
 20
479.305708
 30
0.0
 11
465.473316
 21
478.070801
 31
0.0
  0
LINE
  5
132
330
116
100
AcDbEntity
  8
0
  6
Continuous
 62
     0
370
    30
100
AcDbLine
 10
465.473316
 20
458.005291
 30
0.0
 11
465.473316
 21
478.070801
 31
0.0
  0
LINE
  5
133
330
116
100
AcDbEntity
  8
0
  6
Continuous
 62
     0
370
    30
100
AcDbLine
 10
490.969835
 20
456.758303
 30
0.0
 11
465.473316
 21
458.005291
 31
0.0
  0
ARC
  5
134
330
116
100
AcDbEntity
  8
0
  6
Continuous
 62
     0
370
    30
100
AcDbCircle
 10
509.273324
 20
468.038046
 30
0.0
 40
21.75
100
AcDbArc
 50
47.903113
 51
125.962569
  0
ARC
  5
135
330
116
100
AcDbEntity
  8
0
  6
Continuous
 62
     0
370
    30
100
AcDbCircle
 10
509.273324
 20
468.038046
 30
0.0
 40
21.75
100
AcDbArc
 50
305.962569
 51
24.022025
  0
ELLIPSE
  5
136
330
116
100
AcDbEntity
  8
0
  6
Continuous
 62
     0
370
     0
100
AcDbEllipse
 10
533.208459
 20
485.404059
 30
0.0
 11
2.106463858001048
 21
-2.903285521761801
 31
0.0
210
0.0
220
0.0
230
-1.0
 40
0.173648
 41
5.485166325817435
 42
7.853981607908678
  0
ELLIPSE
  5
137
330
116
100
AcDbEntity
  8
0
  6
Continuous
 62
     0
370
     0
100
AcDbEllipse
 10
533.208459
 20
485.404059
 30
0.0
 11
2.106463858001048
 21
-2.903285521761801
 31
0.0
210
0.0
220
0.0
230
-1.0
 40
0.173648
 41
1.570796300729102
 42
3.975245592191562
  0
ELLIPSE
  5
138
330
116
100
AcDbEntity
  8
0
  6
Continuous
 62
     0
370
     0
100
AcDbEllipse
 10
532.279685
 20
484.730192
 30
0.0
 11
2.642654687273581
 21
-3.642303694618402
 31
0.0
210
0.0
220
0.0
230
-1.0
 40
0.173648
 41
6.283160919921496
 42
7.853981607908688
  0
ELLIPSE
  5
139
330
116
100
AcDbEntity
  8
0
  6
Continuous
 62
     0
370
     0
100
AcDbEllipse
 10
532.279685
 20
484.730192
 30
0.0
 11
2.642654687273581
 21
-3.642303694618402
 31
0.0
210
0.0
220
0.0
230
-1.0
 40
0.173648
 41
1.570796300729106
 42
3.141629287449649
  0
ARC
  5
13A
330
116
100
AcDbEntity
  8
0
  6
Continuous
 62
     0
370
    30
100
AcDbCircle
 10
509.516024
 20
468.214136
 30
0.0
 40
21.75206681924593
100
AcDbArc
 50
126.752414
 51
305.172724
  0
LWPOLYLINE
  5
13B
330
116
100
AcDbEntity
  8
0
  6
Continuous
 62
     0
370
    30
100
AcDbPolyline
 90
       18
 70
     0
 43
0.0
 10
492.26712
 20
455.69928
 10
492.030151
 20
456.039001
 10
491.81369
 20
456.37558
 10
491.624573
 20
456.696564
 10
491.46756
 20
456.990417
 10
491.34613
 20
457.24649
 10
491.26297
 20
457.455048
 10
491.218933
 20
457.6091
 10
491.2146
 20
457.702087
 10
491.249664
 20
457.730316
 10
491.323029
 20
457.69281
 10
491.433075
 20
457.590088
 10
491.576904
 20
457.427185
 10
491.751343
 20
457.210236
 10
491.952057
 20
456.947418
 10
492.173431
 20
456.649414
 10
492.409515
 20
456.327148
 10
492.659241
 20
455.983795
  0
LWPOLYLINE
  5
13C
330
116
100
AcDbEntity
  8
0
  6
Continuous
 62
     0
370
    30
100
AcDbPolyline
 90
       18
 70
     0
 43
0.0
 10
492.659241
 20
455.983795
 10
492.902069
 20
455.648315
 10
493.135864
 20
455.323059
 10
493.351166
 20
455.019318
 10
493.539398
 20
454.746155
 10
493.692383
 20
454.512115
 10
493.803925
 20
454.323456
 10
493.868439
 20
454.18576
 10
493.882507
 20
454.103088
 10
493.845978
 20
454.077179
 10
493.759705
 20
454.109039
 10
493.62796
 20
454.197418
 10
493.456207
 20
454.34024
 10
493.250885
 20
454.53421
 10
493.02063
 20
454.773743
 10
492.774261
 20
455.052643
 10
492.521423
 20
455.362457
 10
492.26712
 20
455.69928
  0
LWPOLYLINE
  5
13D
330
116
100
AcDbEntity
  8
0
  6
Continuous
 62
     0
370
     0
100
AcDbPolyline
 90
       35
 70
     0
 43
0.0
 10
527.012329
 20
475.811035
 10
526.684143
 20
475.632904
 10
526.354492
 20
475.457275
 10
526.023438
 20
475.28418
 10
525.69104
 20
475.113647
 10
525.357239
 20
474.945709
 10
525.022156
 20
474.780457
 10
524.685852
 20
474.61795
 10
524.348267
 20
474.458282
 10
524.00946
 20
474.301483
 10
523.669556
 20
474.147705
 10
523.32843
 20
473.99707
 10
522.986206
 20
473.849701
 10
522.642944
 20
473.70575
 10
522.298645
 20
473.56543
 10
521.953308
 20
473.428894
 10
521.607056
 20
473.296448
 10
521.259949
 20
473.168365
 10
520.911926
 20
473.044983
 10
520.563232
 20
472.926697
 10
520.213806
 20
472.814026
 10
519.863892
 20
472.707489
 10
519.513672
 20
472.607849
 10
519.163269
 20
472.515961
 10
518.813049
 20
472.432922
 10
518.46344
 20
472.360046
 10
518.115173
 20
472.299133
 10
517.769104
 20
472.252411
 10
517.426697
 20
472.222839
 10
517.090332
 20
472.214355
 10
516.763489
 20
472.232269
 10
516.452209
 20
472.283386
 10
516.16571
 20
472.375946
 10
515.917603
 20
472.518005
 10
515.721497
 20
472.716461
  0
LINE
  5
13E
330
116
100
AcDbEntity
  8
0
  6
Continuous
 62
     0
370
     0
100
AcDbLine
 10
529.006632
 20
476.795849
 30
0.0
 11
527.012339
 21
475.811024
 31
0.0
  0
LINE
  5
13F
330
116
100
AcDbEntity
  8
0
  6
Continuous
 62
     0
370
     0
100
AcDbLine
 10
522.166417
 20
482.490035
 30
0.0
 11
523.72139
 21
484.080362
 31
0.0
  0
LWPOLYLINE
  5
140
330
116
100
AcDbEntity
  8
0
  6
Continuous
 62
     0
370
     0
100
AcDbPolyline
 90
       35
 70
     0
 43
0.0
 10
515.721497
 20
472.716461
 10
515.594971
 20
472.960693
 10
515.53595
 20
473.240265
 10
515.536133
 20
473.541138
 10
515.583496
 20
473.852814
 10
515.667419
 20
474.169006
 10
515.77948
 20
474.486206
 10
515.913574
 20
474.802521
 10
516.065125
 20
475.117035
 10
516.230957
 20
475.429291
 10
516.408508
 20
475.739044
 10
516.596008
 20
476.046234
 10
516.791931
 20
476.350891
 10
516.995239
 20
476.652985
 10
517.204956
 20
476.952606
 10
517.42041
 20
477.249817
 10
517.640991
 20
477.544678
 10
517.866211
 20
477.83725
 10
518.095581
 20
478.127563
 10
518.328918
 20
478.41568
 10
518.565735
 20
478.701599
 10
518.805969
 20
478.985413
 10
519.049255
 20
479.26712
 10
519.295471
 20
479.546753
 10
519.544495
 20
479.82431
 10
519.796082
 20
480.099792
 10
520.050232
 20
480.37326
 10
520.306763
 20
480.644653
 10
520.565552
 20
480.914001
 10
520.826599
 20
481.181305
 10
521.089722
 20
481.446503
 10
521.35498
 20
481.709656
 10
521.622192
 20
481.970703
 10
521.891418
 20
482.229614
 10
522.166443
 20
482.490021
  0
ARC
  5
141
330
116
100
AcDbEntity
  8
0
  6
Continuous
 62
     0
370
     0
100
AcDbCircle
 10
509.273325
 20
468.038046
 30
0.0
 40
20.22127512455449
100
AcDbArc
 50
52.921681
 51
19.003457
  0
LINE
  5
142
330
116
100
AcDbEntity
  8
0
  6
Continuous
 62
     0
370
     0
100
AcDbLine
 10
528.392519
 20
474.622603
 30
0.0
 11
527.531946
 21
474.09768
 31
0.0
  0
ARC
  5
143
330
116
100
AcDbEntity
  8
0
  6
Continuous
 62
     0
370
     0
100
AcDbCircle
 10
509.273325
 20
468.038046
 30
0.0
 40
19.2378900294556
100
AcDbArc
 50
53.565269
 51
18.359869
  0
LINE
  5
144
330
116
100
AcDbEntity
  8
0
  6
Continuous
 62
     0
370
     0
100
AcDbLine
 10
520.698836
 20
483.515581
 30
0.0
 11
521.464856
 21
484.170824
 31
0.0
  0
LWPOLYLINE
  5
145
330
116
100
AcDbEntity
  8
0
  6
Continuous
 62
     0
370
     0
100
AcDbPolyline
 90
       35
 70
     0
 43
0.0
 10
527.531921
 20
474.097687
 10
527.192688
 20
473.936127
 10
526.851379
 20
473.778076
 10
526.507996
 20
473.623535
 10
526.162659
 20
473.472565
 10
525.815369
 20
473.325226
 10
525.466125
 20
473.18158
 10
525.114929
 20
473.041687
 10
524.761841
 20
472.90567
 10
524.406921
 20
472.773651
 10
524.05011
 20
472.645691
 10
523.691467
 20
472.521973
 10
523.330933
 20
472.402649
 10
522.968628
 20
472.287964
 10
522.604492
 20
472.17807
 10
522.238525
 20
472.073273
 10
521.870789
 20
471.973846
 10
521.50116
 20
471.880157
 10
521.129761
 20
471.792664
 10
520.756592
 20
471.711792
 10
520.381592
 20
471.638184
 10
520.004822
 20
471.57254
 10
519.626404
 20
471.515717
 10
519.246338
 20
471.468781
 10
518.864807
 20
471.432983
 10
518.481995
 20
471.410034
 10
518.098328
 20
471.401917
 10
517.714417
 20
471.411346
 10
517.33136
 20
471.441803
 10
516.950928
 20
471.497742
 10
516.576111
 20
471.585144
 10
516.212341
 20
471.711395
 10
515.868408
 20
471.885162
 10
515.558044
 20
472.113831
 10
515.29364
 20
472.406036
  0
LWPOLYLINE
  5
146
330
116
100
AcDbEntity
  8
0
  6
Continuous
 62
     0
370
     0
100
AcDbPolyline
 90
       35
 70
     0
 43
0.0
 10
515.29364
 20
472.406036
 10
515.101318
 20
472.740265
 10
514.978699
 20
473.105774
 10
514.919006
 20
473.48645
 10
514.910828
 20
473.87146
 10
514.943237
 20
474.254913
 10
515.007446
 20
474.634064
 10
515.096863
 20
475.007812
 10
515.206604
 20
475.375824
 10
515.333008
 20
475.738159
 10
515.473328
 20
476.095062
 10
515.625488
 20
476.446777
 10
515.787842
 20
476.79361
 10
515.959106
 20
477.135864
 10
516.138245
 20
477.473724
 10
516.324402
 20
477.807465
 10
516.516907
 20
478.137238
 10
516.71521
 20
478.463257
 10
516.918823
 20
478.785614
 10
517.127319
 20
479.104492
 10
517.340393
 20
479.419952
 10
517.557739
 20
479.732086
 10
517.779114
 20
480.041016
 10
518.004333
 20
480.346771
 10
518.233154
 20
480.649414
 10
518.465393
 20
480.948975
 10
518.700989
 20
481.245483
 10
518.939758
 20
481.539001
 10
519.181641
 20
481.829529
 10
519.426453
 20
482.117035
 10
519.674255
 20
482.401581
 10
519.924866
 20
482.683105
 10
520.178223
 20
482.961639
 10
520.434326
 20
483.237122
 10
520.698853
 20
483.515594
  0
LINE
  5
147
330
116
100
AcDbEntity
  8
0
  6
Continuous
 62
     0
370
     0
100
AcDbLine
 10
528.392519
 20
474.622603
 30
0.0
 11
528.318426
 21
475.71218
 31
0.0
  0
LINE
  5
148
330
116
100
AcDbEntity
  8
0
  6
Continuous
 62
     0
370
     0
100
AcDbLine
 10
522.315246
 20
483.854452
 30
0.0
 11
521.464856
 21
484.170824
 31
0.0
  0
ARC
  5
149
330
116
100
AcDbEntity
  8
0
  6
Continuous
 62
     0
370
     0
100
AcDbCircle
 10
522.667967
 20
485.693364
 30
0.0
 40
1.940516036535165
100
AcDbArc
 50
231.684183
 51
302.953879
  0
ARC
  5
14A
330
116
100
AcDbEntity
  8
0
  6
Continuous
 62
     0
370
     0
100
AcDbCircle
 10
530.213762
 20
475.293879
 30
0.0
 40
1.941014973369836
100
AcDbArc
 50
131.989826
 51
200.232964
  0
ELLIPSE
  5
14B
330
116
100
AcDbEntity
  8
0
  6
Continuous
 62
     0
370
     0
100
AcDbEllipse
 10
527.976996
 20
474.245383
 30
0.0
 11
-0.8695121285540935
 21
1.801096515541941
 31
0.0
210
0.0
220
0.0
230
-1.0
 40
0.232608
 41
4.742631178325555
 42
5.867062465316545
  0
LINE
  5
14C
330
116
100
AcDbEntity
  8
0
  6
Continuous
 62
     0
370
     0
100
AcDbLine
 10
515.72147
 20
472.716464
 30
0.0
 11
515.293624
 21
472.406043
 31
0.0
  0
ELLIPSE
  5
14D
330
116
100
AcDbEntity
  8
0
  6
Continuous
 62
     0
370
     0
100
AcDbEllipse
 10
520.977331
 20
483.892843
 30
0.0
 11
-1.442441640465783
 21
1.385410449596225
 31
0.0
210
0.0
220
0.0
230
-1.0
 40
0.232608
 41
3.557715547407256
 42
4.682146834398257
  0
LINE
  5
14E
330
116
100
AcDbEntity
  8
0
  6
Continuous
 62
     0
370
    30
100
AcDbLine
 10
523.716081
 20
484.076549
 30
0.0
 11
522.851396
 21
483.761291
 31
0.0
  0
LINE
  5
14F
330
116
100
AcDbEntity
  8
0
  6
Continuous
 62
     0
370
    30
100
AcDbLine
 10
528.433372
 20
476.067757
 30
0.0
 11
528.517027
 21
476.236757
 31
0.0
  0
LINE
  5
150
330
116
100
AcDbEntity
  8
0
  6
Continuous
 62
     0
370
    30
100
AcDbLine
 10
529.001359
 20
476.791984
 30
0.0
 11
528.43338
 21
476.067775
 31
0.0
  0
LINE
  5
151
330
116
100
AcDbEntity
  8
0
  6
Continuous
 62
     0
370
    30
100
AcDbLine
 10
529.001655
 20
476.792166
 30
0.0
 11
534.92234
 21
481.087889
 31
0.0
  0
LINE
  5
152
330
116
100
AcDbEntity
  8
0
  6
Continuous
 62
     0
370
    30
100
AcDbLine
 10
523.716346
 20
484.076774
 30
0.0
 11
529.637031
 21
488.372496
 31
0.0
  0
ARC
  5
153
330
116
100
AcDbEntity
  8
0
  6
Continuous
 62
     0
370
    30
100
AcDbCircle
 10
533.505311
 20
482.431302
 30
0.0
 40
1.952594061824771
100
AcDbArc
 50
316.523219
 51
38.152935
  0
ARC
  5
154
330
116
100
AcDbEntity
  8
0
  6
Continuous
 62
     0
370
    30
100
AcDbCircle
 10
530.474503
 20
486.608588
 30
0.0
 40
1.952593958403558
100
AcDbArc
 50
33.772203
 51
115.401922
  0
ARC
  5
155
330
116
100
AcDbEntity
  8
0
  6
Continuous
 62
     0
370
    30
100
AcDbCircle
 10
521.577306
 20
476.965239
 30
0.0
 40
15.02612091514103
100
AcDbArc
 50
26.368969
 51
45.195891
  0
ENDBLK
  5
157
330
116
100
AcDbEntity
  8
0
100
AcDbBlockEnd
  0
BLOCK
  5
1C2
330
159
100
AcDbEntity
  8
0
100
AcDbBlockBegin
  2
d
 70
     0
 10
126.344063
 20
161.406113
 30
0.0
  3
d
  1

  0
ELLIPSE
  5
15A
330
159
100
AcDbEntity
  8
0
  6
Continuous
 62
     0
370
    30
100
AcDbEllipse
 10
534.875142
 20
214.578941
 30
0.0
 11
16.00000000000011
 21
0.0
 31
0.0
210
0.0
220
0.0
230
-1.0
 40
0.57735
 41
0.0000000086396865
 42
0.4299769617073047
  0
ELLIPSE
  5
15B
330
159
100
AcDbEntity
  8
0
  6
Continuous
 62
     0
370
    30
100
AcDbEllipse
 10
534.875142
 20
214.578941
 30
0.0
 11
16.00000000000011
 21
0.0
 31
0.0
210
0.0
220
0.0
230
-1.0
 40
0.57735
 41
1.140819365087613
 42
3.14159266222948
  0
ELLIPSE
  5
15C
330
159
100
AcDbEntity
  8
0
  6
Continuous
 62
     0
370
     0
100
AcDbEllipse
 10
534.875142
 20
225.030097
 30
0.0
 11
16.00000000000011
 21
0.0
 31
0.0
210
0.0
220
0.0
230
-1.0
 40
0.57735
 41
0.7853981633974554
 42
2.468581389166769
  0
ELLIPSE
  5
15D
330
159
100
AcDbEntity
  8
0
  6
Continuous
 62
     0
370
     0
100
AcDbEllipse
 10
534.875142
 20
225.030097
 30
0.0
 11
16.00000000000011
 21
0.0
 31
0.0
210
0.0
220
0.0
230
-1.0
 40
0.57735
 41
6.261086431447361
 42
7.068583470577042
  0
LINE
  5
15E
330
159
100
AcDbEntity
  8
0
  6
Continuous
 62
     0
370
    30
100
AcDbLine
 10
541.54474
 20
214.183853
 30
0.0
 11
541.54474
 21
206.182187
 31
0.0
  0
LINE
  5
15F
330
159
100
AcDbEntity
  8
0
  6
Continuous
 62
     0
370
    30
100
AcDbLine
 10
546.188851
 20
216.865132
 30
0.0
 11
541.54474
 21
214.183853
 31
0.0
  0
LINE
  5
160
330
159
100
AcDbEntity
  8
0
  6
Continuous
 62
     0
370
    30
100
AcDbLine
 10
549.418748
 20
218.729914
 30
0.0
 11
546.188851
 21
216.865132
 31
0.0
  0
LINE
  5
161
330
159
100
AcDbEntity
  8
0
  6
Continuous
 62
     0
370
    30
100
AcDbLine
 10
549.418748
 20
210.728247
 30
0.0
 11
549.418748
 21
218.729914
 31
0.0
  0
LINE
  5
162
330
159
100
AcDbEntity
  8
0
  6
Continuous
 62
     0
370
    30
100
AcDbLine
 10
550.875142
 20
225.030097
 30
0.0
 11
550.875142
 21
214.578941
 31
0.0
  0
LINE
  5
163
330
159
100
AcDbEntity
  8
0
  6
Continuous
 62
     0
370
    30
100
AcDbLine
 10
518.875142
 20
217.263353
 30
0.0
 11
518.875142
 21
214.578941
 31
0.0
  0
LINE
  5
164
330
159
100
AcDbEntity
  8
0
  6
Continuous
 62
     0
370
    30
100
AcDbLine
 10
550.875142
 20
225.030097
 30
0.0
 11
550.871336
 21
225.236874
 31
0.0
  0
ELLIPSE
  5
165
330
159
100
AcDbEntity
  8
0
  6
Continuous
 62
     0
370
    30
100
AcDbEllipse
 10
640.941159
 20
275.816185
 30
0.0
 11
16.00000000000011
 21
0.0
 31
0.0
210
0.0
220
0.0
230
-1.0
 40
0.57735
 41
0.0000000086396868
 42
0.429976961707293
  0
ELLIPSE
  5
166
330
159
100
AcDbEntity
  8
0
  6
Continuous
 62
     0
370
    30
100
AcDbEllipse
 10
640.941159
 20
275.816185
 30
0.0
 11
16.00000000000011
 21
0.0
 31
0.0
210
0.0
220
0.0
230
-1.0
 40
0.57735
 41
1.140819365087605
 42
3.141592662229479
  0
ELLIPSE
  5
167
330
159
100
AcDbEntity
  8
0
  6
Continuous
 62
     0
370
     0
100
AcDbEllipse
 10
640.941159
 20
286.267341
 30
0.0
 11
16.00000000000011
 21
0.0
 31
0.0
210
0.0
220
0.0
230
-1.0
 40
0.57735
 41
0.7853981633974518
 42
2.46858138916684
  0
ELLIPSE
  5
168
330
159
100
AcDbEntity
  8
0
  6
Continuous
 62
     0
370
     0
100
AcDbEllipse
 10
640.941159
 20
286.267341
 30
0.0
 11
16.00000000000011
 21
0.0
 31
0.0
210
0.0
220
0.0
230
-1.0
 40
0.57735
 41
6.261086431447493
 42
7.068583470577038
  0
LINE
  5
169
330
159
100
AcDbEntity
  8
0
  6
Continuous
 62
     0
370
    30
100
AcDbLine
 10
647.610757
 20
275.421097
 30
0.0
 11
647.610757
 21
267.41943
 31
0.0
  0
LINE
  5
16A
330
159
100
AcDbEntity
  8
0
  6
Continuous
 62
     0
370
    30
100
AcDbLine
 10
652.254868
 20
278.102375
 30
0.0
 11
647.610757
 21
275.421097
 31
0.0
  0
LINE
  5
16B
330
159
100
AcDbEntity
  8
0
  6
Continuous
 62
     0
370
    30
100
AcDbLine
 10
655.484765
 20
279.967157
 30
0.0
 11
652.254868
 21
278.102375
 31
0.0
  0
LINE
  5
16C
330
159
100
AcDbEntity
  8
0
  6
Continuous
 62
     0
370
    30
100
AcDbLine
 10
655.484765
 20
271.965491
 30
0.0
 11
655.484765
 21
279.967157
 31
0.0
  0
LINE
  5
16D
330
159
100
AcDbEntity
  8
0
  6
Continuous
 62
     0
370
    30
100
AcDbLine
 10
656.941159
 20
286.267341
 30
0.0
 11
656.941159
 21
275.816185
 31
0.0
  0
LINE
  5
16E
330
159
100
AcDbEntity
  8
0
  6
Continuous
 62
     0
370
    30
100
AcDbLine
 10
624.941159
 20
278.494864
 30
0.0
 11
624.941159
 21
275.816185
 31
0.0
  0
LINE
  5
16F
330
159
100
AcDbEntity
  8
0
  6
Continuous
 62
     0
370
    30
100
AcDbLine
 10
656.941159
 20
286.267341
 30
0.0
 11
656.937353
 21
286.474118
 31
0.0
  0
ELLIPSE
  5
170
330
159
100
AcDbEntity
  8
0
  6
Continuous
 62
     0
370
    30
100
AcDbEllipse
 10
640.941159
 20
259.486253
 30
0.0
 11
31.5
 21
0.0
 31
0.0
210
0.0
220
0.0
230
-1.0
 40
0.57735
 41
2.356194490192353
 42
3.141592662229479
  0
ELLIPSE
  5
171
330
159
100
AcDbEntity
  8
0
  6
Continuous
 62
     0
370
    30
100
AcDbEllipse
 10
640.941159
 20
259.486253
 30
0.0
 11
31.5
 21
0.0
 31
0.0
210
0.0
220
0.0
230
-1.0
 40
0.57735
 41
0.0000000086396865
 42
2.356194490192345
  0
ELLIPSE
  5
172
330
159
100
AcDbEntity
  8
0
  6
Continuous
 62
     0
370
     0
100
AcDbEllipse
 10
640.941159
 20
275.816185
 30
0.0
 11
31.0
 21
0.0
 31
0.0
210
0.0
220
0.0
230
-1.0
 40
0.57735
 41
5.497787143782145
 42
8.63937979737193
  0
ELLIPSE
  5
173
330
159
100
AcDbEntity
  8
0
  6
Continuous
 62
     0
370
     0
100
AcDbEllipse
 10
640.941159
 20
275.816185
 30
0.0
 11
31.0
 21
0.0
 31
0.0
210
0.0
220
0.0
230
-1.0
 40
0.57735
 41
5.254714291799228
 42
5.497787143782145
  0
ELLIPSE
  5
174
330
159
100
AcDbEntity
  8
0
  6
Continuous
 62
     0
370
     0
100
AcDbEllipse
 10
640.941159
 20
275.816185
 30
0.0
 11
31.0
 21
0.0
 31
0.0
210
0.0
220
0.0
230
-1.0
 40
0.57735
 41
2.356194490192352
 42
2.846377445185078
  0
ELLIPSE
  5
175
330
159
100
AcDbEntity
  8
0
  6
Continuous
 62
     0
370
     0
100
AcDbEllipse
 10
640.941159
 20
275.407937
 30
0.0
 11
31.5
 21
0.0
 31
0.0
210
0.0
220
0.0
230
-1.0
 40
0.57735
 41
2.356194490192353
 42
2.855923275812382
  0
ELLIPSE
  5
176
330
159
100
AcDbEntity
  8
0
  6
Continuous
 62
     0
370
     0
100
AcDbEllipse
 10
640.941159
 20
275.407937
 30
0.0
 11
31.5
 21
0.0
 31
0.0
210
0.0
220
0.0
230
-1.0
 40
0.57735
 41
5.497787143782145
 42
8.63937979737193
  0
LINE
  5
177
330
159
100
AcDbEntity
  8
0
  6
Continuous
 62
     0
370
    30
100
AcDbLine
 10
672.441159
 20
275.408107
 30
0.0
 11
672.421098
 21
276.066349
 31
0.0
  0
LINE
  5
178
330
159
100
AcDbEntity
  8
0
  6
Continuous
 62
     0
370
    30
100
AcDbLine
 10
609.441159
 20
269.545934
 30
0.0
 11
609.441159
 21
259.486253
 31
0.0
  0
LINE
  5
179
330
159
100
AcDbEntity
  8
0
  6
Continuous
 62
     0
370
    30
100
AcDbLine
 10
672.441159
 20
275.407936
 30
0.0
 11
672.441159
 21
259.486253
 31
0.0
  0
ELLIPSE
  5
17A
330
159
100
AcDbEntity
  8
0
  6
Continuous
 62
     0
370
    30
100
AcDbEllipse
 10
534.875142
 20
198.24901
 30
0.0
 11
31.5
 21
0.0
 31
0.0
210
0.0
220
0.0
230
-1.0
 40
0.57735
 41
2.356194490192353
 42
3.141592662229479
  0
ELLIPSE
  5
17B
330
159
100
AcDbEntity
  8
0
  6
Continuous
 62
     0
370
    30
100
AcDbEllipse
 10
534.875142
 20
198.24901
 30
0.0
 11
31.5
 21
0.0
 31
0.0
210
0.0
220
0.0
230
-1.0
 40
0.57735
 41
0.0000000086396856
 42
2.356194490192345
  0
ELLIPSE
  5
17C
330
159
100
AcDbEntity
  8
0
  6
Continuous
 62
     0
370
     0
100
AcDbEllipse
 10
534.875142
 20
214.578941
 30
0.0
 11
31.0
 21
0.0
 31
0.0
210
0.0
220
0.0
230
-1.0
 40
0.57735
 41
5.497787143782145
 42
8.63937979737193
  0
ELLIPSE
  5
17D
330
159
100
AcDbEntity
  8
0
  6
Continuous
 62
     0
370
     0
100
AcDbEllipse
 10
534.875142
 20
214.578941
 30
0.0
 11
31.0
 21
0.0
 31
0.0
210
0.0
220
0.0
230
-1.0
 40
0.57735
 41
5.254714291799226
 42
5.497787143782145
  0
ELLIPSE
  5
17E
330
159
100
AcDbEntity
  8
0
  6
Continuous
 62
     0
370
     0
100
AcDbEllipse
 10
534.875142
 20
214.578941
 30
0.0
 11
31.0
 21
0.0
 31
0.0
210
0.0
220
0.0
230
-1.0
 40
0.57735
 41
2.356194490192352
 42
2.870247367259569
  0
ELLIPSE
  5
17F
330
159
100
AcDbEntity
  8
0
  6
Continuous
 62
     0
370
     0
100
AcDbEllipse
 10
534.875142
 20
214.170693
 30
0.0
 11
31.5
 21
0.0
 31
0.0
210
0.0
220
0.0
230
-1.0
 40
0.57735
 41
2.356194490192353
 42
2.883260359435283
  0
ELLIPSE
  5
180
330
159
100
AcDbEntity
  8
0
  6
Continuous
 62
     0
370
     0
100
AcDbEllipse
 10
534.875142
 20
214.170693
 30
0.0
 11
31.5
 21
0.0
 31
0.0
210
0.0
220
0.0
230
-1.0
 40
0.57735
 41
5.497787143782145
 42
8.63937979737193
  0
LINE
  5
181
330
159
100
AcDbEntity
  8
0
  6
Continuous
 62
     0
370
    30
100
AcDbLine
 10
566.375142
 20
214.170863
 30
0.0
 11
566.355081
 21
214.829106
 31
0.0
  0
LINE
  5
182
330
159
100
AcDbEntity
  8
0
  6
Continuous
 62
     0
370
    30
100
AcDbLine
 10
503.375142
 20
209.077447
 30
0.0
 11
503.375142
 21
198.24901
 31
0.0
  0
LINE
  5
183
330
159
100
AcDbEntity
  8
0
  6
Continuous
 62
     0
370
    30
100
AcDbLine
 10
566.375142
 20
214.170693
 30
0.0
 11
566.375142
 21
198.249009
 31
0.0
  0
ELLIPSE
  5
184
330
159
100
AcDbEntity
  8
0
  6
Continuous
 62
     0
370
    30
100
AcDbEllipse
 10
508.358638
 20
236.011977
 30
0.0
 11
-10.175
 21
17.62361696701332
 31
0.0
210
0.0
220
0.0
230
-1.0
 40
0.57735
 41
0.7853981633974484
 42
2.99454659534762
  0
ELLIPSE
  5
185
330
159
100
AcDbEntity
  8
0
  6
Continuous
 62
     0
370
    30
100
AcDbEllipse
 10
508.358638
 20
236.011977
 30
0.0
 11
-10.175
 21
17.62361696701332
 31
0.0
210
0.0
220
0.0
230
-1.0
 40
0.57735
 41
0.1470459952625328
 42
0.785398163397448
  0
ELLIPSE
  5
186
330
159
100
AcDbEntity
  8
0
  6
Continuous
 62
     0
370
    30
100
AcDbEllipse
 10
508.358638
 20
236.011977
 30
0.0
 11
-10.75
 21
18.61954618136543
 31
0.0
210
0.0
220
0.0
230
-1.0
 40
0.57735
 41
6.208780841644642
 42
7.068583470577035
  0
ELLIPSE
  5
187
330
159
100
AcDbEntity
  8
0
  6
Continuous
 62
     0
370
    30
100
AcDbEllipse
 10
508.358638
 20
236.011977
 30
0.0
 11
-10.75
 21
18.61954618136543
 31
0.0
210
0.0
220
0.0
230
-1.0
 40
0.57735
 41
0.7853981633974488
 42
3.215997056145095
  0
ELLIPSE
  5
188
330
159
100
AcDbEntity
  8
0
  6
Continuous
 62
     0
370
     0
100
AcDbEllipse
 10
667.033399
 20
327.622893
 30
0.0
 11
-10.75
 21
18.61954618136543
 31
0.0
210
0.0
220
0.0
230
-1.0
 40
0.57735
 41
0.7853981633974491
 42
3.14159262209995
  0
ELLIPSE
  5
189
330
159
100
AcDbEntity
  8
0
  6
Continuous
 62
     0
370
     0
100
AcDbEllipse
 10
667.033399
 20
327.622893
 30
0.0
 11
-10.75
 21
18.61954618136543
 31
0.0
210
0.0
220
0.0
230
-1.0
 40
0.57735
 41
-0.0000000314898392
 42
0.7853981633974484
  0
ELLIPSE
  5
18A
330
159
100
AcDbEntity
  8
0
  6
Continuous
 62
     0
370
    30
100
AcDbEllipse
 10
640.941159
 20
286.675589
 30
0.0
 11
16.0
 21
0.0
 31
0.0
210
0.0
220
0.0
230
-1.0
 40
0.57735
 41
0.0000000086396865
 42
2.356194490192352
  0
ELLIPSE
  5
18B
330
159
100
AcDbEntity
  8
0
  6
Continuous
 62
     0
370
    30
100
AcDbEllipse
 10
640.941159
 20
286.675589
 30
0.0
 11
16.0
 21
0.0
 31
0.0
210
0.0
220
0.0
230
-1.0
 40
0.57735
 41
2.356194490192352
 42
2.437183459101901
  0
LWPOLYLINE
  5
18C
330
159
100
AcDbEntity
  8
0
  6
Continuous
 62
     0
370
     0
100
AcDbPolyline
 90
       35
 70
     0
 43
0.0
 10
634.750122
 20
284.158051
 10
635.632385
 20
284.25766
 10
636.52356
 20
284.420441
 10
637.420593
 20
284.642181
 10
638.320496
 20
284.918549
 10
639.220886
 20
285.245178
 10
640.120056
 20
285.617737
 10
641.016357
 20
286.031952
 10
641.908386
 20
286.483398
 10
642.795471
 20
286.967743
 10
643.676819
 20
287.480591
 10
644.551636
 20
288.017487
 10
645.419434
 20
288.573547
 10
646.279663
 20
289.143463
 10
647.131287
 20
289.721344
 10
647.973022
 20
290.300476
 10
648.802856
 20
290.873077
 10
649.617676
 20
291.43045
 10
650.412964
 20
291.962952
 10
651.182922
 20
292.46051
 10
651.920593
 20
292.91394
 10
652.618408
 20
293.315979
 10
653.269714
 20
293.662933
 10
653.869263
 20
293.954712
 10
654.414001
 20
294.194885
 10
654.903076
 20
294.389801
 10
655.336548
 20
294.546417
 10
655.715576
 20
294.672302
 10
656.041626
 20
294.774933
 10
656.31604
 20
294.860992
 10
656.539978
 20
294.936493
 10
656.714233
 20
295.006714
 10
656.839294
 20
295.07663
 10
656.9151
 20
295.150146
 10
656.941223
 20
295.233154
  0
LWPOLYLINE
  5
18D
330
159
100
AcDbEntity
  8
0
  6
Continuous
 62
     0
370
     0
100
AcDbPolyline
 90
       16
 70
     0
 43
0.0
 10
645.564148
 20
290.40155
 10
646.57843
 20
290.995483
 10
647.586609
 20
291.599609
 10
648.586426
 20
292.207611
 10
649.574585
 20
292.812225
 10
650.546021
 20
293.404999
 10
651.493958
 20
293.977081
 10
652.409973
 20
294.519562
 10
653.285034
 20
295.024902
 10
654.110657
 20
295.488373
 10
654.879883
 20
295.907928
 10
655.588379
 20
296.285126
 10
656.234741
 20
296.624268
 10
656.818298
 20
296.930298
 10
657.340149
 20
297.209198
 10
657.816589
 20
297.475494
  0
ELLIPSE
  5
18E
330
159
100
AcDbEntity
  8
0
  6
Continuous
 62
     0
370
    30
100
AcDbEllipse
 10
534.875142
 20
225.438346
 30
0.0
 11
16.0
 21
0.0
 31
0.0
210
0.0
220
0.0
230
-1.0
 40
0.57735
 41
0.0000000086396861
 42
2.356194490192351
  0
ELLIPSE
  5
18F
330
159
100
AcDbEntity
  8
0
  6
Continuous
 62
     0
370
    30
100
AcDbEllipse
 10
534.875142
 20
225.438346
 30
0.0
 11
16.0
 21
0.0
 31
0.0
210
0.0
220
0.0
230
-1.0
 40
0.57735
 41
2.356194490192351
 42
2.437183459101828
  0
LWPOLYLINE
  5
190
330
159
100
AcDbEntity
  8
0
  6
Continuous
 62
     0
370
     0
100
AcDbPolyline
 90
       16
 70
     0
 43
0.0
 10
539.498108
 20
229.164322
 10
540.51239
 20
229.758224
 10
541.520569
 20
230.362381
 10
542.520386
 20
230.970367
 10
543.508545
 20
231.574966
 10
544.47998
 20
232.16777
 10
545.427917
 20
232.739822
 10
546.343994
 20
233.282333
 10
547.218994
 20
233.787659
 10
548.044617
 20
234.251114
 10
548.813843
 20
234.670685
 10
549.522339
 20
235.047882
 10
550.168701
 20
235.387024
 10
550.752258
 20
235.693069
 10
551.274109
 20
235.971954
 10
551.750549
 20
236.238251
  0
LWPOLYLINE
  5
191
330
159
100
AcDbEntity
  8
0
  6
Continuous
 62
     0
370
     0
100
AcDbPolyline
 90
       35
 70
     0
 43
0.0
 10
528.684082
 20
222.920822
 10
529.566345
 20
223.020416
 10
530.457581
 20
223.183212
 10
531.354614
 20
223.404953
 10
532.254456
 20
223.681305
 10
533.154907
 20
224.007935
 10
534.054077
 20
224.380508
 10
534.950317
 20
224.794693
 10
535.842407
 20
225.246155
 10
536.729431
 20
225.730499
 10
537.610779
 20
226.243347
 10
538.485657
 20
226.780258
 10
539.353455
 20
227.336304
 10
540.213623
 20
227.906219
 10
541.065247
 20
228.4841
 10
541.907043
 20
229.063232
 10
542.736816
 20
229.635818
 10
543.551636
 20
230.193222
 10
544.346924
 20
230.725708
 10
545.116943
 20
231.223267
 10
545.854553
 20
231.676712
 10
546.552429
 20
232.078735
 10
547.203735
 20
232.42569
 10
547.803284
 20
232.717484
 10
548.347961
 20
232.957626
 10
548.837097
 20
233.152557
 10
549.270508
 20
233.309174
 10
549.649536
 20
233.435043
 10
549.975586
 20
233.537674
 10
550.250061
 20
233.623749
 10
550.473999
 20
233.699249
 10
550.648193
 20
233.769485
 10
550.773315
 20
233.839386
 10
550.84906
 20
233.912903
 10
550.875183
 20
233.995911
  0
ARC
  5
192
330
159
100
AcDbEntity
  8
0
  6
Continuous
 62
     0
370
    30
100
AcDbCircle
 10
553.94183
 20
234.046795
 30
0.0
 40
3.067040597999438
100
AcDbArc
 50
132.572841
 51
180.950666
  0
LINE
  5
193
330
159
100
AcDbEntity
  8
0
  6
Continuous
 62
     0
370
    30
100
AcDbLine
 10
550.875142
 20
233.996037
 30
0.0
 11
550.875142
 21
225.438346
 31
0.0
  0
LINE
  5
194
330
159
100
AcDbEntity
  8
0
  6
Continuous
 62
     0
370
    30
100
AcDbLine
 10
519.108638
 20
217.392431
 30
0.0
 11
539.506495
 21
229.169138
 31
0.0
  0
LINE
  5
195
330
159
100
AcDbEntity
  8
0
  6
Continuous
 62
     0
370
    30
100
AcDbLine
 10
551.743749
 20
236.234321
 30
0.0
 11
645.572512
 21
290.406382
 31
0.0
  0
LINE
  5
196
330
159
100
AcDbEntity
  8
0
  6
Continuous
 62
     0
370
    30
100
AcDbLine
 10
657.809766
 20
297.471564
 30
0.0
 11
677.7834
 21
309.003347
 31
0.0
  0
LINE
  5
197
330
159
100
AcDbEntity
  8
0
  6
Continuous
 62
     0
370
    30
100
AcDbLine
 10
497.608637
 20
254.631522
 30
0.0
 11
656.283399
 21
346.242439
 31
0.0
  0
ARC
  5
198
330
159
100
AcDbEntity
  8
0
  6
Continuous
 62
     0
370
    30
100
AcDbCircle
 10
660.007847
 20
295.284039
 30
0.0
 40
3.067040598014271
100
AcDbArc
 50
132.572841
 51
180.950666
  0
LINE
  5
199
330
159
100
AcDbEntity
  8
0
  6
Continuous
 62
     0
370
    30
100
AcDbLine
 10
656.941159
 20
295.23328
 30
0.0
 11
656.941159
 21
286.675589
 31
0.0
  0
LWPOLYLINE
  5
19A
330
159
100
AcDbEntity
  8
0
  6
Continuous
 62
     0
370
    30
100
AcDbPolyline
 90
       41
 70
     0
 43
0.0
 10
667.333374
 20
345.207275
 10
668.227966
 20
344.66037
 10
669.118652
 20
344.055084
 10
670.002014
 20
343.393738
 10
670.874939
 20
342.67868
 10
671.734619
 20
341.912598
 10
672.578247
 20
341.098206
 10
673.403015
 20
340.238129
 10
674.206238
 20
339.335144
 10
674.985107
 20
338.392059
 10
675.737183
 20
337.412292
 10
676.460022
 20
336.399414
 10
677.151184
 20
335.356964
 10
677.80835
 20
334.288452
 10
678.429077
 20
333.197449
 10
679.010925
 20
332.087524
 10
679.552002
 20
330.962402
 10
680.050781
 20
329.826019
 10
680.505676
 20
328.682281
 10
680.9151
 20
327.535126
 10
681.277588
 20
326.388489
 10
681.591431
 20
325.246246
 10
681.85553
 20
324.112274
 10
682.069153
 20
322.990143
 10
682.23175
 20
321.883514
 10
682.342773
 20
320.79599
 10
682.401672
 20
319.73114
 10
682.407959
 20
318.692566
 10
682.361023
 20
317.683868
 10
682.261047
 20
316.708221
 10
682.108276
 20
315.768677
 10
681.903076
 20
314.868256
 10
681.64563
 20
314.009949
 10
681.336426
 20
313.196777
 10
680.975708
 20
312.431793
 10
680.564331
 20
311.717804
 10
680.103516
 20
311.057648
 10
679.59436
 20
310.45401
 10
679.038208
 20
309.90979
 10
678.437988
 20
309.427887
 10
677.783386
 20
309.003357
  0
LWPOLYLINE
  5
19B
330
159
100
AcDbEntity
  8
0
  6
Continuous
 62
     0
370
    30
100
AcDbPolyline
 90
       15
 70
     0
 43
0.0
 10
667.333374
 20
345.207275
 10
666.482544
 20
345.670654
 10
665.63031
 20
346.079224
 10
664.779602
 20
346.431549
 10
663.933289
 20
346.726227
 10
663.094238
 20
346.961761
 10
662.265381
 20
347.13678
 10
661.449646
 20
347.249756
 10
660.64978
 20
347.299561
 10
659.868286
 20
347.28595
 10
659.107666
 20
347.208771
 10
658.3703
 20
347.067993
 10
657.65863
 20
346.863525
 10
656.975769
 20
346.595947
 10
656.283447
 20
346.242462
  0
ELLIPSE
  5
19C
330
159
100
AcDbEntity
  8
0
  6
Continuous
 62
     0
370
    30
100
AcDbEllipse
 10
609.969882
 20
330.439806
 30
0.0
 11
-5.016377608687326
 21
-8.688620888197315
 31
0.0
210
0.0
220
0.0
230
-1.0
 40
0.57735
 41
0.0345902099820873
 42
2.356194490192345
  0
ELLIPSE
  5
19D
330
159
100
AcDbEntity
  8
0
  6
Continuous
 62
     0
370
    30
100
AcDbEllipse
 10
609.969882
 20
330.439806
 30
0.0
 11
-5.016377608687326
 21
-8.688620888197315
 31
0.0
210
0.0
220
0.0
230
-1.0
 40
0.57735
 41
2.356194490192345
 42
3.107002489308025
  0
LINE
  5
19E
330
159
100
AcDbEntity
  8
0
  6
Continuous
 62
     0
370
    30
100
AcDbLine
 10
630.518736
 20
331.367203
 30
0.0
 11
614.809776
 21
339.22339
 31
0.0
  0
LINE
  5
19F
330
159
100
AcDbEntity
  8
0
  6
Continuous
 62
     0
370
    30
100
AcDbLine
 10
609.104598
 20
319.003744
 30
0.0
 11
604.783022
 21
321.856543
 31
0.0
  0
ELLIPSE
  5
1A0
330
159
100
AcDbEntity
  8
0
  6
Continuous
 62
     0
370
    30
100
AcDbEllipse
 10
505.731496
 20
234.495195
 30
0.0
 11
-10.875
 21
18.83605253231154
 31
0.0
210
0.0
220
0.0
230
-1.0
 40
0.57735
 41
0.1577329268214922
 42
1.72852925361639
  0
ELLIPSE
  5
1A1
330
159
100
AcDbEntity
  8
0
  6
Continuous
 62
     0
370
    30
100
AcDbEllipse
 10
505.731496
 20
234.495195
 30
0.0
 11
-10.875
 21
18.83605253231154
 31
0.0
210
0.0
220
0.0
230
-1.0
 40
0.57735
 41
1.72852925361639
 42
3.29932558041129
  0
ELLIPSE
  5
1A2
330
159
100
AcDbEntity
  8
0
  6
Continuous
 62
     0
370
     0
100
AcDbEllipse
 10
505.031958
 20
228.727652
 30
0.0
 11
0.6086062520131852
 21
-3.534947699181251
 31
0.0
210
0.0
220
0.0
230
-1.0
 40
0.894366
 41
4.421599743783771
 42
7.563192397373554
  0
ELLIPSE
  5
1A3
330
159
100
AcDbEntity
  8
0
  6
Continuous
 62
     0
370
     0
100
AcDbEllipse
 10
505.031958
 20
228.727652
 30
0.0
 11
0.6086062520131852
 21
-3.534947699181251
 31
0.0
210
0.0
220
0.0
230
-1.0
 40
0.894366
 41
1.280007090193977
 42
4.421599743783771
  0
ELLIPSE
  5
1A4
330
159
100
AcDbEntity
  8
0
  6
Continuous
 62
     0
370
     0
100
AcDbEllipse
 10
504.518286
 20
228.639214
 30
0.0
 11
0.7635242154654707
 21
-4.434752616820663
 31
0.0
210
0.0
220
0.0
230
-1.0
 40
0.894366
 41
4.421599743783764
 42
7.563192397373559
  0
ELLIPSE
  5
1A5
330
159
100
AcDbEntity
  8
0
  6
Continuous
 62
     0
370
     0
100
AcDbEllipse
 10
504.518286
 20
228.639214
 30
0.0
 11
0.7635242154654707
 21
-4.434752616820663
 31
0.0
210
0.0
220
0.0
230
-1.0
 40
0.894366
 41
1.280007090193978
 42
4.421599743783764
  0
LWPOLYLINE
  5
1A6
330
159
100
AcDbEntity
  8
0
  6
Continuous
 62
     0
370
    30
100
AcDbPolyline
 90
        4
 70
     0
 43
0.0
 10
493.594269
 20
252.592148
 10
494.554565
 20
253.126892
 10
495.546173
 20
253.607529
 10
496.699738
 20
254.083664
  0
LWPOLYLINE
  5
1A7
330
159
100
AcDbEntity
  8
0
  6
Continuous
 62
     0
370
     0
100
AcDbPolyline
 90
       28
 70
     0
 43
0.0
 10
500.688507
 20
223.446396
 10
500.35733
 20
223.409882
 10
500.025879
 20
223.378281
 10
499.694153
 20
223.351624
 10
499.362274
 20
223.329956
 10
499.030273
 20
223.31337
 10
498.698212
 20
223.301941
 10
498.366089
 20
223.295792
 10
498.034027
 20
223.295029
 10
497.702026
 20
223.29985
 10
497.370178
 20
223.310455
 10
497.038483
 20
223.327072
 10
496.707031
 20
223.350021
 10
496.375885
 20
223.379654
 10
496.045135
 20
223.416443
 10
495.714874
 20
223.460892
 10
495.385223
 20
223.513718
 10
495.056396
 20
223.57576
 10
494.728638
 20
223.648071
 10
494.402344
 20
223.73204
 10
494.078094
 20
223.829437
 10
493.756836
 20
223.942596
 10
493.440155
 20
224.074646
 10
493.130737
 20
224.229767
 10
492.833466
 20
224.413376
 10
492.557129
 20
224.631821
 10
492.317078
 20
224.890015
 10
492.129456
 20
225.197083
  0
LINE
  5
1A8
330
159
100
AcDbEntity
  8
0
  6
Continuous
 62
     0
370
     0
100
AcDbLine
 10
501.624189
 20
223.574735
 30
0.0
 11
500.688518
 21
223.446397
 31
0.0
  0
LINE
  5
1A9
330
159
100
AcDbEntity
  8
0
  6
Continuous
 62
     0
370
     0
100
AcDbLine
 10
500.470415
 20
232.508506
 30
0.0
 11
499.701272
 21
232.279957
 31
0.0
  0
LINE
  5
1AA
330
159
100
AcDbEntity
  8
0
  6
Continuous
 62
     0
370
     0
100
AcDbLine
 10
497.261934
 20
230.878126
 30
0.0
 11
499.701272
 21
232.279957
 31
0.0
  0
LWPOLYLINE
  5
1AB
330
159
100
AcDbEntity
  8
0
  6
Continuous
 62
     0
370
     0
100
AcDbPolyline
 90
       29
 70
     0
 43
0.0
 10
492.129456
 20
225.197083
 10
492.02829
 20
225.503189
 10
491.998199
 20
225.809448
 10
492.026367
 20
226.104111
 10
492.098053
 20
226.383362
 10
492.201782
 20
226.647568
 10
492.329529
 20
226.898438
 10
492.47583
 20
227.137772
 10
492.636932
 20
227.367203
 10
492.810181
 20
227.588043
 10
492.993652
 20
227.801392
 10
493.185944
 20
228.008102
 10
493.385956
 20
228.208878
 10
493.592834
 20
228.404312
 10
493.805908
 20
228.594833
 10
494.024628
 20
228.780853
 10
494.248627
 20
228.962677
 10
494.477509
 20
229.140549
 10
494.710968
 20
229.314697
 10
494.948761
 20
229.485275
 10
495.190674
 20
229.652435
 10
495.436584
 20
229.816299
 10
495.686279
 20
229.976944
 10
495.939636
 20
230.13446
 10
496.196564
 20
230.288864
 10
496.45694
 20
230.440231
 10
496.720703
 20
230.588547
 10
496.987762
 20
230.733841
 10
497.261932
 20
230.878128
  0
ELLIPSE
  5
1AC
330
159
100
AcDbEntity
  8
0
  6
Continuous
 62
     0
370
     0
100
AcDbEllipse
 10
489.733918
 20
225.25899
 30
0.0
 11
-10.11063756227725
 21
17.51213795477853
 31
0.0
210
0.0
220
0.0
230
-1.0
 40
0.57735
 41
6.173335447500224
 42
7.71572221280225
  0
ELLIPSE
  5
1AD
330
159
100
AcDbEntity
  8
0
  6
Continuous
 62
     0
370
     0
100
AcDbEllipse
 10
489.733918
 20
225.25899
 30
0.0
 11
-10.11063756227725
 21
17.51213795477853
 31
0.0
210
0.0
220
0.0
230
-1.0
 40
0.57735
 41
2.024521601610121
 42
3.251448435006144
  0
LWPOLYLINE
  5
1AE
330
159
100
AcDbEntity
  8
0
  6
Continuous
 62
     0
370
     0
100
AcDbPolyline
 90
        7
 70
     0
 43
0.0
 10
503.253235
 20
222.82988
 10
503.056213
 20
222.677292
 10
502.831299
 20
222.563629
 10
502.591278
 20
222.47934
 10
502.347839
 20
222.419083
 10
502.114075
 20
222.3703
 10
501.874756
 20
222.308075
  0
ELLIPSE
  5
1AF
330
159
100
AcDbEntity
  8
0
  6
Continuous
 62
     0
370
     0
100
AcDbEllipse
 10
488.963965
 20
224.814457
 30
0.0
 11
-9.618945014727801
 21
16.66050148071991
 31
0.0
210
0.0
220
0.0
230
-1.0
 40
0.57735
 41
2.035754321404641
 42
7.70448949300773
  0
LINE
  5
1B0
330
159
100
AcDbEntity
  8
0
  6
Continuous
 62
     0
370
     0
100
AcDbLine
 10
497.043022
 20
232.787366
 30
0.0
 11
498.354632
 21
233.454177
 31
0.0
  0
LWPOLYLINE
  5
1B1
330
159
100
AcDbEntity
  8
0
  6
Continuous
 62
     0
370
     0
100
AcDbPolyline
 90
       29
 70
     0
 43
0.0
 10
501.874756
 20
222.308075
 10
501.507141
 20
222.272552
 10
501.13913
 20
222.243469
 10
500.770752
 20
222.220871
 10
500.402069
 20
222.204803
 10
500.033112
 20
222.195374
 10
499.663971
 20
222.192657
 10
499.294678
 20
222.196808
 10
498.925201
 20
222.207977
 10
498.555664
 20
222.226349
 10
498.186035
 20
222.252182
 10
497.816345
 20
222.285751
 10
497.446625
 20
222.327408
 10
497.076904
 20
222.377563
 10
496.707214
 20
222.436722
 10
496.337585
 20
222.505493
 10
495.968018
 20
222.584656
 10
495.598633
 20
222.675095
 10
495.229523
 20
222.777985
 10
494.860809
 20
222.89476
 10
494.492798
 20
223.027267
 10
494.125916
 20
223.177902
 10
493.760986
 20
223.349731
 10
493.399353
 20
223.54686
 10
493.043549
 20
223.774628
 10
492.698303
 20
224.039856
 10
492.372406
 20
224.350082
 10
492.081512
 20
224.710312
 10
491.84259
 20
225.127335
  0
LWPOLYLINE
  5
1B2
330
159
100
AcDbEntity
  8
0
  6
Continuous
 62
     0
370
     0
100
AcDbPolyline
 90
       30
 70
     0
 43
0.0
 10
491.84259
 20
225.127335
 10
491.692688
 20
225.541916
 10
491.617767
 20
225.954376
 10
491.60672
 20
226.349701
 10
491.644989
 20
226.723236
 10
491.72052
 20
227.075638
 10
491.824463
 20
227.409271
 10
491.950775
 20
227.72673
 10
492.095093
 20
228.030258
 10
492.254364
 20
228.321732
 10
492.426331
 20
228.602692
 10
492.609283
 20
228.874374
 10
492.801941
 20
229.137772
 10
493.003296
 20
229.393707
 10
493.212524
 20
229.642853
 10
493.429016
 20
229.885742
 10
493.652191
 20
230.122833
 10
493.881683
 20
230.354492
 10
494.117065
 20
230.581039
 10
494.358093
 20
230.802734
 10
494.604523
 20
231.019775
 10
494.856079
 20
231.23233
 10
495.11261
 20
231.440567
 10
495.373962
 20
231.644577
 10
495.639984
 20
231.844452
 10
495.910583
 20
232.040253
 10
496.185608
 20
232.23204
 10
496.465027
 20
232.41983
 10
496.748749
 20
232.603638
 10
497.04303
 20
232.787369
  0
LINE
  5
1B3
330
159
100
AcDbEntity
  8
0
  6
Continuous
 62
     0
370
     0
100
AcDbLine
 10
503.25323
 20
222.829879
 30
0.0
 11
504.478648
 21
224.066182
 31
0.0
  0
LWPOLYLINE
  5
1B4
330
159
100
AcDbEntity
  8
0
  6
Continuous
 62
     0
370
     0
100
AcDbPolyline
 90
       18
 70
     0
 43
0.0
 10
502.924225
 20
232.930969
 10
502.679871
 20
233.076416
 10
502.428406
 20
233.207977
 10
502.170685
 20
233.325409
 10
501.90744
 20
233.428497
 10
501.639557
 20
233.51712
 10
501.367828
 20
233.591171
 10
501.093079
 20
233.650665
 10
500.816132
 20
233.695358
 10
500.537811
 20
233.725266
 10
500.258698
 20
233.741211
 10
499.979828
 20
233.74408
 10
499.703033
 20
233.734375
 10
499.427399
 20
233.7108
 10
499.149078
 20
233.670273
 10
498.879028
 20
233.615524
 10
498.631073
 20
233.550522
 10
498.354645
 20
233.454178
  0
ELLIPSE
  5
1B5
330
159
100
AcDbEntity
  8
0
  6
Continuous
 62
     0
370
     0
100
AcDbEllipse
 10
499.009269
 20
234.147518
 30
0.0
 11
0.7795830707420623
 21
-1.841806242744436
 31
0.0
210
0.0
220
0.0
230
1.0
 40
0.444804
 41
4.905246581952269
 42
6.181062210874627
  0
ELLIPSE
  5
1B6
330
159
100
AcDbEntity
  8
0
  6
Continuous
 62
     0
370
     0
100
AcDbEllipse
 10
504.387962
 20
222.481969
 30
0.0
 11
1.108978288625982
 21
-1.664381913911643
 31
0.0
210
0.0
220
0.0
230
1.0
 40
0.422967
 41
3.546173374118513
 42
4.235112013342688
  0
ELLIPSE
  5
1B7
330
159
100
AcDbEntity
  8
0
  6
Continuous
 62
     0
370
     0
100
AcDbEllipse
 10
500.814665
 20
221.453247
 30
0.0
 11
-0.2097061740943408
 21
1.988975444933071
 31
0.0
210
0.0
220
0.0
230
1.0
 40
0.615496
 41
5.090840243473663
 42
6.215271530464652
  0
ELLIPSE
  5
1B8
330
159
100
AcDbEntity
  8
0
  6
Continuous
 62
     0
370
     0
100
AcDbEllipse
 10
490.537961
 20
224.341221
 30
0.0
 11
-1.816238924706513
 21
-0.8374223357308342
 31
0.0
210
0.0
220
0.0
230
1.0
 40
0.128255
 41
3.588440252275452
 42
3.853747256680256
  0
ELLIPSE
  5
1B9
330
159
100
AcDbEntity
  8
0
  6
Continuous
 62
     0
370
     0
100
AcDbEllipse
 10
495.865154
 20
232.187967
 30
0.0
 11
-1.044852852260042
 21
1.705368733477921
 31
0.0
210
0.0
220
0.0
230
1.0
 40
0.659643
 41
3.535808582167828
 42
4.660239869158826
  0
ARC
  5
1BA
330
159
100
AcDbEntity
  8
0
  6
Continuous
 62
     0
370
    30
100
AcDbCircle
 10
457.106137
 20
318.689536
 30
0.0
 40
118.9771180359513
100
AcDbArc
 50
290.528009
 51
300.006562
  0
ARC
  5
1BB
330
159
100
AcDbEntity
  8
0
  6
Continuous
 62
     0
370
    30
100
AcDbCircle
 10
554.306376
 20
150.323944
 30
0.0
 40
118.9316901944084
100
AcDbArc
 50
120.687294
 51
129.473215
  0
LINE
  5
1BC
330
159
100
AcDbEntity
  8
0
  6
Continuous
 62
     0
370
    30
100
AcDbLine
 10
498.826758
 20
207.267186
 30
0.0
 11
498.483914
 21
207.147901
 31
0.0
  0
LINE
  5
1BD
330
159
100
AcDbEntity
  8
0
  6
Continuous
 62
     0
370
    30
100
AcDbLine
 10
478.699205
 20
242.129668
 30
0.0
 11
478.424134
 21
241.892106
 31
0.0
  0
LINE
  5
1BE
330
159
100
AcDbEntity
  8
0
  6
Continuous
 62
     0
370
    30
100
AcDbLine
 10
501.622691
 20
223.574477
 30
0.0
 11
505.28181
 21
224.204462
 31
0.0
  0
LINE
  5
1BF
330
159
100
AcDbEntity
  8
0
  6
Continuous
 62
     0
370
    30
100
AcDbLine
 10
500.459851
 20
232.506687
 30
0.0
 11
503.754762
 21
233.073967
 31
0.0
  0
LINE
  5
1C0
330
159
100
AcDbEntity
  8
0
  6
Continuous
 62
     0
370
    30
100
AcDbLine
 10
505.280605
 20
224.204267
 30
0.0
 11
505.608344
 21
224.275552
 31
0.0
  0
LINE
  5
1C1
330
159
100
AcDbEntity
  8
0
  6
Continuous
 62
     0
370
    30
100
AcDbLine
 10
503.757038
 20
233.074151
 30
0.0
 11
504.090749
 21
233.116626
 31
0.0
  0
ENDBLK
  5
1C3
330
159
100
AcDbEntity
  8
0
100
AcDbBlockEnd
  0
BLOCK
  5
1F7
330
1C5
100
AcDbEntity
  8
0
100
AcDbBlockBegin
  2
e
 70
     0
 10
114.470398
 20
0.0
 30
0.0
  3
e
  1

  0
ARC
  5
1C6
330
1C5
100
AcDbEntity
  8
0
  6
Continuous
 62
     0
370
    30
100
AcDbCircle
 10
53.592305
 20
435.838031
 30
0.0
 40
0.5
100
AcDbArc
 50
0.0
 51
90.0
  0
LINE
  5
1C7
330
1C5
100
AcDbEntity
  8
0
  6
Continuous
 62
     0
370
     0
100
AcDbLine
 10
54.092305
 20
435.838031
 30
0.0
 11
22.092305
 21
435.838031
 31
0.0
  0
LINE
  5
1C8
330
1C5
100
AcDbEntity
  8
0
  6
Continuous
 62
     0
370
    30
100
AcDbLine
 10
54.092305
 20
435.838031
 30
0.0
 11
54.092305
 21
433.838031
 31
0.0
  0
LINE
  5
1C9
330
1C5
100
AcDbEntity
  8
0
  6
Continuous
 62
     0
370
    30
100
AcDbLine
 10
23.092305
 20
432.838031
 30
0.0
 11
22.092305
 21
433.838031
 31
0.0
  0
LINE
  5
1CA
330
1C5
100
AcDbEntity
  8
0
  6
Continuous
 62
     0
370
    30
100
AcDbLine
 10
23.092305
 20
423.038031
 30
0.0
 11
23.092305
 21
432.838031
 31
0.0
  0
LINE
  5
1CB
330
1C5
100
AcDbEntity
  8
0
  6
Continuous
 62
     0
370
    30
100
AcDbLine
 10
53.092305
 20
423.038031
 30
0.0
 11
53.092305
 21
432.838031
 31
0.0
  0
LINE
  5
1CC
330
1C5
100
AcDbEntity
  8
0
  6
Continuous
 62
     0
370
    30
100
AcDbLine
 10
53.092305
 20
432.838031
 30
0.0
 11
54.092305
 21
433.838031
 31
0.0
  0
LINE
  5
1CD
330
1C5
100
AcDbEntity
  8
0
  6
Continuous
 62
     0
370
    30
100
AcDbLine
 10
22.092305
 20
435.838031
 30
0.0
 11
22.092305
 21
433.838031
 31
0.0
  0
ARC
  5
1CE
330
1C5
100
AcDbEntity
  8
0
  6
Continuous
 62
     0
370
    30
100
AcDbCircle
 10
38.092303
 20
468.038031
 30
0.0
 40
18.94999999999992
100
AcDbArc
 50
180.0
 51
360.0
  0
ARC
  5
1CF
330
1C5
100
AcDbEntity
  8
0
  6
Continuous
 62
     0
370
    30
100
AcDbCircle
 10
38.092303
 20
468.038031
 30
0.0
 40
18.94999999999992
100
AcDbArc
 50
0.0
 51
180.0
  0
ARC
  5
1D0
330
1C5
100
AcDbEntity
  8
0
  6
Continuous
 62
     0
370
     0
100
AcDbCircle
 10
38.092303
 20
468.038031
 30
0.0
 40
18.44999999999992
100
AcDbArc
 50
0.0
 51
180.0
  0
ARC
  5
1D1
330
1C5
100
AcDbEntity
  8
0
  6
Continuous
 62
     0
370
     0
100
AcDbCircle
 10
38.092303
 20
468.038031
 30
0.0
 40
18.44999999999992
100
AcDbArc
 50
180.0
 51
360.0
  0
LINE
  5
1D2
330
1C5
100
AcDbEntity
  8
0
  6
Continuous
 62
     0
370
    30
100
AcDbLine
 10
69.592305
 20
403.038031
 30
0.0
 11
38.092303
 21
403.038031
 31
0.0
  0
LINE
  5
1D3
330
1C5
100
AcDbEntity
  8
0
  6
Continuous
 62
     0
370
    30
100
AcDbLine
 10
38.092303
 20
403.038031
 30
0.0
 11
6.592305
 21
403.038031
 31
0.0
  0
LINE
  5
1D4
330
1C5
100
AcDbEntity
  8
0
  6
Continuous
 62
     0
370
    30
100
AcDbLine
 10
38.092304
 20
423.038031
 30
0.0
 11
7.092305
 21
423.038031
 31
0.0
  0
LINE
  5
1D5
330
1C5
100
AcDbEntity
  8
0
  6
Continuous
 62
     0
370
    30
100
AcDbLine
 10
69.092305
 20
423.038031
 30
0.0
 11
38.092304
 21
423.038031
 31
0.0
  0
LINE
  5
1D6
330
1C5
100
AcDbEntity
  8
0
  6
Continuous
 62
     0
370
     0
100
AcDbLine
 10
69.592305
 20
422.538031
 30
0.0
 11
38.092303
 21
422.538031
 31
0.0
  0
LINE
  5
1D7
330
1C5
100
AcDbEntity
  8
0
  6
Continuous
 62
     0
370
     0
100
AcDbLine
 10
38.092303
 20
422.538031
 30
0.0
 11
6.592305
 21
422.538031
 31
0.0
  0
LINE
  5
1D8
330
1C5
100
AcDbEntity
  8
0
  6
Continuous
 62
     0
370
    30
100
AcDbLine
 10
69.592305
 20
422.538031
 30
0.0
 11
69.592305
 21
403.038031
 31
0.0
  0
LINE
  5
1D9
330
1C5
100
AcDbEntity
  8
0
  6
Continuous
 62
     0
370
    30
100
AcDbLine
 10
6.592305
 20
422.538031
 30
0.0
 11
6.592305
 21
403.038031
 31
0.0
  0
ARC
  5
1DA
330
1C5
100
AcDbEntity
  8
0
  6
Continuous
 62
     0
370
     0
100
AcDbCircle
 10
38.092303
 20
468.038031
 30
0.0
 40
20.89999997615815
100
AcDbArc
 50
90.0
 51
270.0
  0
ARC
  5
1DB
330
1C5
100
AcDbEntity
  8
0
  6
Continuous
 62
     0
370
     0
100
AcDbCircle
 10
38.092303
 20
468.038031
 30
0.0
 40
20.89999997615815
100
AcDbArc
 50
270.0
 51
90.0
  0
ARC
  5
1DC
330
1C5
100
AcDbEntity
  8
0
  6
Continuous
 62
     0
370
    30
100
AcDbCircle
 10
38.092303
 20
468.038031
 30
0.0
 40
19.2
100
AcDbArc
 50
270.0
 51
90.0
  0
ARC
  5
1DD
330
1C5
100
AcDbEntity
  8
0
  6
Continuous
 62
     0
370
    30
100
AcDbCircle
 10
38.092303
 20
468.038031
 30
0.0
 40
19.2
100
AcDbArc
 50
90.0
 51
270.0
  0
ARC
  5
1DE
330
1C5
100
AcDbEntity
  8
0
  6
Continuous
 62
     0
370
    30
100
AcDbCircle
 10
38.092303
 20
468.038031
 30
0.0
 40
21.5
100
AcDbArc
 50
90.0
 51
270.0
  0
ARC
  5
1DF
330
1C5
100
AcDbEntity
  8
0
  6
Continuous
 62
     0
370
    30
100
AcDbCircle
 10
38.092303
 20
468.038031
 30
0.0
 40
21.5
100
AcDbArc
 50
270.0
 51
90.0
  0
LINE
  5
1E0
330
1C5
100
AcDbEntity
  8
0
  6
Continuous
 62
     0
370
    30
100
AcDbLine
 10
38.092304
 20
436.338031
 30
0.0
 11
22.092305
 21
436.338031
 31
0.0
  0
LINE
  5
1E1
330
1C5
100
AcDbEntity
  8
0
  6
Continuous
 62
     0
370
    30
100
AcDbLine
 10
54.092305
 20
436.338031
 30
0.0
 11
38.092304
 21
436.338031
 31
0.0
  0
LWPOLYLINE
  5
1E2
330
1C5
100
AcDbEntity
  8
0
  6
Continuous
 62
     0
370
     0
100
AcDbPolyline
 90
       33
 70
     0
 43
0.0
 10
22.092325
 20
452.218689
 10
22.11377
 20
452.184875
 10
22.177753
 20
452.084625
 10
22.283089
 20
451.921814
 10
22.428125
 20
451.701965
 10
22.610863
 20
451.432037
 10
22.829283
 20
451.119171
 10
23.081646
 20
450.769989
 10
23.366371
 20
450.391022
 10
23.681978
 20
449.988495
 10
24.027426
 20
449.567657
 10
24.401867
 20
449.133179
 10
24.804707
 20
448.68927
 10
25.235432
 20
448.239838
 10
25.693666
 20
447.788391
 10
26.179213
 20
447.337982
 10
26.691877
 20
446.891632
 10
27.231472
 20
446.452362
 10
27.797785
 20
446.02301
 10
28.39056
 20
445.606323
 10
29.009542
 20
445.204956
 10
29.654306
 20
444.821655
 10
30.324211
 20
444.459137
 10
31.018547
 20
444.120148
 10
31.736195
 20
443.807373
 10
32.475853
 20
443.523529
 10
33.235935
 20
443.271149
 10
34.014355
 20
443.052704
 10
34.808876
 20
442.870514
 10
35.616722
 20
442.726501
 10
36.43491
 20
442.622375
 10
37.260181
 20
442.559326
 10
38.092304
 20
442.538025
  0
LWPOLYLINE
  5
1E3
330
1C5
100
AcDbEntity
  8
0
  6
Continuous
 62
     0
370
     0
100
AcDbPolyline
 90
       33
 70
     0
 43
0.0
 10
38.092304
 20
442.538025
 10
38.921013
 20
442.559143
 10
39.746178
 20
442.62204
 10
40.56432
 20
442.725922
 10
41.372135
 20
442.869751
 10
42.166569
 20
443.051758
 10
42.944729
 20
443.270081
 10
43.704575
 20
443.522339
 10
44.444347
 20
443.805969
 10
45.162289
 20
444.118439
 10
45.856716
 20
444.457184
 10
46.526646
 20
444.819519
 10
47.171432
 20
445.202698
 10
47.790447
 20
445.603912
 10
48.383244
 20
446.020447
 10
48.949593
 20
446.449615
 10
49.489292
 20
446.888672
 10
50.002132
 20
447.334961
 10
50.487881
 20
447.785492
 10
50.946274
 20
448.23703
 10
51.377052
 20
448.68631
 10
51.779945
 20
449.130005
 10
52.15456
 20
449.564514
 10
52.500175
 20
449.985443
 10
52.815998
 20
450.388123
 10
53.100876
 20
450.767151
 10
53.35342
 20
451.116425
 10
53.572144
 20
451.429749
 10
53.755157
 20
451.700043
 10
53.900467
 20
451.920166
 10
54.006142
 20
452.083527
 10
54.070438
 20
452.184204
 10
54.092304
 20
452.21875
  0
ARC
  5
1E4
330
1C5
100
AcDbEntity
  8
0
  6
Continuous
 62
     0
370
    30
100
AcDbCircle
 10
18.092342
 20
452.218678
 30
0.0
 40
3.999982458357775
100
AcDbArc
 50
359.999957
 51
38.341891
  0
ARC
  5
1E5
330
1C5
100
AcDbEntity
  8
0
  6
Continuous
 62
     0
370
    30
100
AcDbCircle
 10
58.092119
 20
452.2188
 30
0.0
 40
3.999815787641303
100
AcDbArc
 50
141.656353
 51
180.000927
  0
LINE
  5
1E6
330
1C5
100
AcDbEntity
  8
0
  6
Continuous
 62
     0
370
    30
100
AcDbLine
 10
22.092305
 20
452.218613
 30
0.0
 11
22.092305
 21
436.338031
 31
0.0
  0
LINE
  5
1E7
330
1C5
100
AcDbEntity
  8
0
  6
Continuous
 62
     0
370
    30
100
AcDbLine
 10
54.092305
 20
452.218613
 30
0.0
 11
54.092305
 21
436.338031
 31
0.0
  0
LINE
  5
1E8
330
1C5
100
AcDbEntity
  8
0
  6
Continuous
 62
     0
370
    30
100
AcDbLine
 10
56.395785
 20
479.317774
 30
0.0
 11
81.892305
 21
478.070786
 31
0.0
  0
LINE
  5
1E9
330
1C5
100
AcDbEntity
  8
0
  6
Continuous
 62
     0
370
    30
100
AcDbLine
 10
81.892305
 20
478.070786
 30
0.0
 11
81.892305
 21
458.005275
 31
0.0
  0
LINE
  5
1EA
330
1C5
100
AcDbEntity
  8
0
  6
Continuous
 62
     0
370
    30
100
AcDbLine
 10
56.395785
 20
456.758288
 30
0.0
 11
81.892305
 21
458.005275
 31
0.0
  0
ARC
  5
1EB
330
1C5
100
AcDbEntity
  8
0
  6
Continuous
 62
     0
370
    30
100
AcDbCircle
 10
38.092313
 20
468.038031
 30
0.0
 40
21.75
100
AcDbArc
 50
54.037431
 51
144.037431
  0
ARC
  5
1EC
330
1C5
100
AcDbEntity
  8
0
  6
Continuous
 62
     0
370
    30
100
AcDbCircle
 10
38.092313
 20
468.038031
 30
0.0
 40
21.75
100
AcDbArc
 50
144.037431
 51
221.729673
  0
LINE
  5
1ED
330
1C5
100
AcDbEntity
  8
0
  6
Continuous
 62
     0
370
    30
100
AcDbLine
 10
50.865144
 20
485.642498
 30
0.0
 11
50.71833
 21
485.440148
 31
0.0
  0
ELLIPSE
  5
1EE
330
1C5
100
AcDbEntity
  8
0
  6
Continuous
 62
     0
370
     0
100
AcDbEllipse
 10
14.15718
 20
485.404044
 30
0.0
 11
2.106463884283206
 21
2.903285502692916
 31
0.0
210
0.0
220
0.0
230
1.0
 40
0.173648
 41
1.570796352860703
 42
2.827433414296611
  0
ELLIPSE
  5
1EF
330
1C5
100
AcDbEntity
  8
0
  6
Continuous
 62
     0
370
     0
100
AcDbEllipse
 10
14.15718
 20
485.404044
 30
0.0
 11
2.106463884283206
 21
2.903285502692916
 31
0.0
210
0.0
220
0.0
230
1.0
 40
0.173648
 41
0.7961304549569466
 42
1.570796352860703
  0
ELLIPSE
  5
1F0
330
1C5
100
AcDbEntity
  8
0
  6
Continuous
 62
     0
370
     0
100
AcDbEllipse
 10
15.085954
 20
484.730177
 30
0.0
 11
2.642654720245742
 21
3.642303670695619
 31
0.0
210
0.0
220
0.0
230
1.0
 40
0.173648
 41
1.570796352860699
 42
3.14159267965559
  0
ELLIPSE
  5
1F1
330
1C5
100
AcDbEntity
  8
0
  6
Continuous
 62
     0
370
     0
100
AcDbEllipse
 10
15.085954
 20
484.730177
 30
0.0
 11
2.642654720245742
 21
3.642303670695619
 31
0.0
210
0.0
220
0.0
230
1.0
 40
0.173648
 41
0.0000000260658011
 42
1.570796352860699
  0
ARC
  5
1F2
330
1C5
100
AcDbEntity
  8
0
  6
Continuous
 62
     0
370
    30
100
AcDbCircle
 10
38.414231
 20
468.487886
 30
0.0
 40
21.19683818225567
100
AcDbArc
 50
30.687146
 51
54.027646
  0
LINE
  5
1F3
330
1C5
100
AcDbEntity
  8
0
  6
Continuous
 62
     0
370
    30
100
AcDbLine
 10
18.226103
 20
476.89219
 30
0.0
 11
12.443299
 21
481.087873
 31
0.0
  0
LINE
  5
1F4
330
1C5
100
AcDbEntity
  8
0
  6
Continuous
 62
     0
370
    30
100
AcDbLine
 10
23.511412
 20
484.176797
 30
0.0
 11
17.728609
 21
488.372481
 31
0.0
  0
ARC
  5
1F5
330
1C5
100
AcDbEntity
  8
0
  6
Continuous
 62
     0
370
    30
100
AcDbCircle
 10
13.860328
 20
482.431287
 30
0.0
 40
1.952594140233294
100
AcDbArc
 50
141.847071
 51
223.476784
  0
ARC
  5
1F6
330
1C5
100
AcDbEntity
  8
0
  6
Continuous
 62
     0
370
    30
100
AcDbCircle
 10
16.891136
 20
486.608572
 30
0.0
 40
1.952594242739193
100
AcDbArc
 50
64.598081
 51
146.227792
  0
ENDBLK
  5
1F8
330
1C5
100
AcDbEntity
  8
0
100
AcDbBlockEnd
  0
ENDSEC
  0
SECTION
  2
ENTITIES
  0
INSERT
  5
D5
330
1F
100
AcDbEntity
  8
0
  6
Continuous
 62
     7
420
 16250871
370
     0
100
AcDbBlockReference
  2
a
 10
126.344063
 20
161.406113
 30
0.0
  0
INSERT
  5
115
330
1F
100
AcDbEntity
  8
0
  6
Continuous
 62
     7
420
 16250871
370
     0
100
AcDbBlockReference
  2
b
 10
126.344063
 20
161.406113
 30
0.0
  0
INSERT
  5
158
330
1F
100
AcDbEntity
  8
0
  6
Continuous
 62
     7
420
 16250871
370
     0
100
AcDbBlockReference
  2
c
 10
126.344063
 20
161.406113
 30
0.0
  0
INSERT
  5
1C4
330
1F
100
AcDbEntity
  8
0
  6
Continuous
 62
     7
420
 16250871
370
     0
100
AcDbBlockReference
  2
d
 10
126.344063
 20
161.406113
 30
0.0
  0
INSERT
  5
1F9
330
1F
100
AcDbEntity
  8
0
  6
Continuous
 62
     7
420
 16250871
370
     0
100
AcDbBlockReference
  2
e
 10
114.470398
 20
0.0
 30
0.0
  0
ENDSEC
  0
SECTION
  2
OBJECTS
  0
DICTIONARY
  5
C
330
0
100
AcDbDictionary
281
     1
  3
ACAD_DETAILVIEWSTYLE
350
231
  3
ACAD_GROUP
350
D
  3
ACAD_LAYOUT
350
1A
  3
ACAD_MATERIAL
350
43
  3
ACAD_MLEADERSTYLE
350
6B
  3
ACAD_MLINESTYLE
350
17
  3
ACAD_PLOTSETTINGS
350
19
  3
ACAD_PLOTSTYLENAME
350
E
  3
ACAD_SCALELIST
350
47
  3
ACAD_SECTIONVIEWSTYLE
350
232
  3
ACAD_TABLESTYLE
350
69
  3
ACAD_VISUALSTYLE
350
2A
  3
ACDB_RECOMPOSE_DATA
350
22E
  3
AcDbVariableDictionary
350
1FA
  0
SUN
  5
6D
330
29
100
AcDbSun
 90
        1
290
     0
 63
     7
421
 16777215
 40
1.0
291
     1
 91
  2455826
 92
 54000000
292
     0
 70
     2
 71
   256
280
     1
  0
DICTIONARY
  5
231
102
{ACAD_REACTORS
330
C
102
}
330
C
100
AcDbDictionary
281
     1
  0
DICTIONARY
  5
D
102
{ACAD_REACTORS
330
C
102
}
330
C
100
AcDbDictionary
281
     1
  0
DICTIONARY
  5
1A
102
{ACAD_REACTORS
330
C
102
}
330
C
100
AcDbDictionary
281
     1
  3
Layout1
350
1E
  3
Layout2
350
26
  3
Model
350
22
  0
DICTIONARY
  5
43
102
{ACAD_REACTORS
330
C
102
}
330
C
100
AcDbDictionary
281
     1
  3
ByBlock
350
45
  3
ByLayer
350
44
  3
Global
350
46
  0
DICTIONARY
  5
6B
102
{ACAD_REACTORS
330
C
102
}
330
C
100
AcDbDictionary
281
     1
  3
Standard
350
6C
  0
DICTIONARY
  5
17
102
{ACAD_REACTORS
330
C
102
}
330
C
100
AcDbDictionary
281
     1
  3
Standard
350
18
  0
DICTIONARY
  5
19
102
{ACAD_REACTORS
330
C
102
}
330
C
100
AcDbDictionary
281
     1
  0
ACDBDICTIONARYWDFLT
  5
E
102
{ACAD_REACTORS
330
C
102
}
330
C
100
AcDbDictionary
281
     1
  3
Normal
350
F
100
AcDbDictionaryWithDefault
340
F
  0
DICTIONARY
  5
47
102
{ACAD_REACTORS
330
C
102
}
330
C
100
AcDbDictionary
281
     1
  3
A0
350
48
  3
A1
350
49
  3
A2
350
4A
  3
A3
350
4B
  3
A4
350
4C
  3
A5
350
4D
  3
A6
350
4E
  3
A7
350
4F
  3
A8
350
50
  3
A9
350
51
  3
B0
350
52
  3
B1
350
53
  3
B2
350
54
  3
B3
350
55
  3
B4
350
56
  3
B5
350
57
  3
B6
350
58
  3
B7
350
59
  3
B8
350
5A
  3
B9
350
5B
  3
C0
350
5C
  3
C1
350
5D
  3
C2
350
5E
  3
C3
350
5F
  3
C4
350
60
  3
C5
350
61
  3
C6
350
62
  3
C7
350
63
  3
C8
350
64
  3
C9
350
65
  3
D0
350
66
  3
D1
350
67
  3
D2
350
68
  0
DICTIONARY
  5
232
102
{ACAD_REACTORS
330
C
102
}
330
C
100
AcDbDictionary
281
     1
  0
DICTIONARY
  5
69
102
{ACAD_REACTORS
330
C
102
}
330
C
100
AcDbDictionary
281
     1
  3
Standard
350
6A
  0
DICTIONARY
  5
2A
102
{ACAD_REACTORS
330
C
102
}
330
C
100
AcDbDictionary
281
     1
  3
2dWireframe
350
2F
  3
Basic
350
32
  3
Brighten
350
36
  3
ColorChange
350
3A
  3
Conceptual
350
34
  3
Dim
350
35
  3
EdgeColorOff
350
3D
  3
Facepattern
350
39
  3
Flat
350
2B
  3
FlatWithEdges
350
2C
  3
Gouraud
350
2D
  3
GouraudWithEdges
350
2E
  3
Hidden
350
31
  3
JitterOff
350
3B
  3
Linepattern
350
38
  3
OverhangOff
350
3C
  3
Realistic
350
33
  3
Shaded
350
42
  3
Shaded with edges
350
41
  3
Shades of Gray
350
3E
  3
Sketchy
350
3F
  3
Thicken
350
37
  3
Wireframe
350
30
  3
X-Ray
350
40
  0
XRECORD
  5
22E
102
{ACAD_REACTORS
330
C
102
}
330
C
100
AcDbXrecord
280
     1
 90
        1
330
6A
  0
DICTIONARY
  5
1FA
102
{ACAD_REACTORS
330
C
102
}
330
C
100
AcDbDictionary
281
     1
  3
CANNOSCALE
350
1FB
  3
CMLEADERSTYLE
350
230
  3
CTABLESTYLE
350
22F
  0
LAYOUT
  5
1E
102
{ACAD_REACTORS
330
1A
102
}
330
1A
100
AcDbPlotSettings
  1

  2
none_device
  4

  6

 40
0.0
 41
0.0
 42
0.0
 43
0.0
 44
0.0
 45
0.0
 46
0.0
 47
0.0
 48
0.0
 49
0.0
140
0.0
141
0.0
142
1.0
143
1.0
 70
   688
 72
     1
 73
     0
 74
     5
  7

 75
    16
 76
     0
 77
     2
 78
   300
147
1.0
148
0.0
149
0.0
100
AcDbLayout
  1
Layout1
 70
     1
 71
     1
 10
0.0
 20
0.0
 11
420.0
 21
297.0
 12
0.0
 22
0.0
 32
0.0
 14
1.000000E+20
 24
1.000000E+20
 34
1.000000E+20
 15
-1.000000E+20
 25
-1.000000E+20
 35
-1.000000E+20
146
0.0
 13
0.0
 23
0.0
 33
0.0
 16
1.0
 26
0.0
 36
0.0
 17
0.0
 27
1.0
 37
0.0
 76
     0
330
1B
  0
LAYOUT
  5
26
102
{ACAD_REACTORS
330
1A
102
}
330
1A
100
AcDbPlotSettings
  1

  2
none_device
  4

  6

 40
0.0
 41
0.0
 42
0.0
 43
0.0
 44
0.0
 45
0.0
 46
0.0
 47
0.0
 48
0.0
 49
0.0
140
0.0
141
0.0
142
1.0
143
1.0
 70
   688
 72
     1
 73
     0
 74
     5
  7

 75
    16
 76
     0
 77
     2
 78
   300
147
1.0
148
0.0
149
0.0
100
AcDbLayout
  1
Layout2
 70
     1
 71
     2
 10
0.0
 20
0.0
 11
0.0
 21
0.0
 12
0.0
 22
0.0
 32
0.0
 14
0.0
 24
0.0
 34
0.0
 15
0.0
 25
0.0
 35
0.0
146
0.0
 13
0.0
 23
0.0
 33
0.0
 16
1.0
 26
0.0
 36
0.0
 17
0.0
 27
1.0
 37
0.0
 76
     0
330
23
  0
LAYOUT
  5
22
102
{ACAD_REACTORS
330
1A
102
}
330
1A
100
AcDbPlotSettings
  1

  2
none_device
  4
Letter_(8.50_x_11.00_Inches)
  6

 40
6.35
 41
6.35
 42
6.350005
 43
6.350005
 44
215.9
 45
279.4
 46
0.0
 47
0.0
 48
0.0
 49
0.0
140
0.0
141
0.0
142
1.0
143
1.0
 70
  1712
 72
     1
 73
     0
 74
     0
  7

 75
     0
 76
     0
 77
     2
 78
   300
147
1.0
148
0.0
149
0.0
100
AcDbLayout
  1
Model
 70
     1
 71
     0
 10
0.0
 20
0.0
 11
420.0
 21
297.0
 12
0.0
 22
0.0
 32
0.0
 14
1.000000E+20
 24
1.000000E+20
 34
1.000000E+20
 15
-1.000000E+20
 25
-1.000000E+20
 35
-1.000000E+20
146
0.0
 13
0.0
 23
0.0
 33
0.0
 16
1.0
 26
0.0
 36
0.0
 17
0.0
 27
1.0
 37
0.0
 76
     0
330
1F
331
29
  0
MATERIAL
  5
45
102
{ACAD_REACTORS
330
43
102
}
330
43
100
AcDbMaterial
  1
ByBlock
 72
     1
 94
      127
  0
MATERIAL
  5
44
102
{ACAD_REACTORS
330
43
102
}
330
43
100
AcDbMaterial
  1
ByLayer
 72
     1
 94
      127
  0
MATERIAL
  5
46
102
{ACAD_REACTORS
330
43
102
}
330
43
100
AcDbMaterial
  1
Global
 72
     1
 94
      127
  0
MLEADERSTYLE
  5
6C
102
{ACAD_REACTORS
330
6B
102
}
330
6B
100
AcDbMLeaderStyle
179
     2
170
     2
171
     1
172
     0
 90
        2
 40
0.0
 41
0.0
173
     1
 91
-1056964608
340
14
 92
       -2
290
     1
 42
2.0
291
     1
 43
8.0
  3
Standard
341
0
 44
4.0
300

342
11
174
     1
178
     6
175
     1
176
     0
 93
-1056964608
 45
4.0
292
     0
297
     0
 46
4.0
343
0
 94
-1056964608
 47
1.0
 49
1.0
140
1.0
293
     1
141
0.0
294
     1
177
     0
142
1.0
295
     0
296
     0
143
3.75
271
     0
272
     9
273
     9
  0
MLINESTYLE
  5
18
102
{ACAD_REACTORS
330
17
102
}
330
17
100
AcDbMlineStyle
  2
Standard
 70
     0
  3

 62
   256
 51
90.0
 52
90.0
 71
     2
 49
0.5
 62
   256
  6
BYLAYER
 49
-0.5
 62
   256
  6
BYLAYER
  0
ACDBPLACEHOLDER
  5
F
102
{ACAD_REACTORS
330
E
102
}
330
E
  0
SCALE
  5
48
102
{ACAD_REACTORS
330
47
102
}
330
47
100
AcDbScale
 70
     0
300
1:1
140
1.0
141
1.0
290
     1
  0
SCALE
  5
49
102
{ACAD_REACTORS
330
47
102
}
330
47
100
AcDbScale
 70
     0
300
1:2
140
1.0
141
2.0
290
     0
  0
SCALE
  5
4A
102
{ACAD_REACTORS
330
47
102
}
330
47
100
AcDbScale
 70
     0
300
1:4
140
1.0
141
4.0
290
     0
  0
SCALE
  5
4B
102
{ACAD_REACTORS
330
47
102
}
330
47
100
AcDbScale
 70
     0
300
1:5
140
1.0
141
5.0
290
     0
  0
SCALE
  5
4C
102
{ACAD_REACTORS
330
47
102
}
330
47
100
AcDbScale
 70
     0
300
1:8
140
1.0
141
8.0
290
     0
  0
SCALE
  5
4D
102
{ACAD_REACTORS
330
47
102
}
330
47
100
AcDbScale
 70
     0
300
1:10
140
1.0
141
10.0
290
     0
  0
SCALE
  5
4E
102
{ACAD_REACTORS
330
47
102
}
330
47
100
AcDbScale
 70
     0
300
1:16
140
1.0
141
16.0
290
     0
  0
SCALE
  5
4F
102
{ACAD_REACTORS
330
47
102
}
330
47
100
AcDbScale
 70
     0
300
1:20
140
1.0
141
20.0
290
     0
  0
SCALE
  5
50
102
{ACAD_REACTORS
330
47
102
}
330
47
100
AcDbScale
 70
     0
300
1:30
140
1.0
141
30.0
290
     0
  0
SCALE
  5
51
102
{ACAD_REACTORS
330
47
102
}
330
47
100
AcDbScale
 70
     0
300
1:40
140
1.0
141
40.0
290
     0
  0
SCALE
  5
52
102
{ACAD_REACTORS
330
47
102
}
330
47
100
AcDbScale
 70
     0
300
1:50
140
1.0
141
50.0
290
     0
  0
SCALE
  5
53
102
{ACAD_REACTORS
330
47
102
}
330
47
100
AcDbScale
 70
     0
300
1:100
140
1.0
141
100.0
290
     0
  0
SCALE
  5
54
102
{ACAD_REACTORS
330
47
102
}
330
47
100
AcDbScale
 70
     0
300
2:1
140
2.0
141
1.0
290
     0
  0
SCALE
  5
55
102
{ACAD_REACTORS
330
47
102
}
330
47
100
AcDbScale
 70
     0
300
4:1
140
4.0
141
1.0
290
     0
  0
SCALE
  5
56
102
{ACAD_REACTORS
330
47
102
}
330
47
100
AcDbScale
 70
     0
300
8:1
140
8.0
141
1.0
290
     0
  0
SCALE
  5
57
102
{ACAD_REACTORS
330
47
102
}
330
47
100
AcDbScale
 70
     0
300
10:1
140
10.0
141
1.0
290
     0
  0
SCALE
  5
58
102
{ACAD_REACTORS
330
47
102
}
330
47
100
AcDbScale
 70
     0
300
100:1
140
100.0
141
1.0
290
     0
  0
SCALE
  5
59
102
{ACAD_REACTORS
330
47
102
}
330
47
100
AcDbScale
 70
     0
300
1/128" = 1'-0"
140
0.007812
141
12.0
290
     0
  0
SCALE
  5
5A
102
{ACAD_REACTORS
330
47
102
}
330
47
100
AcDbScale
 70
     0
300
1/64" = 1'-0"
140
0.015625
141
12.0
290
     0
  0
SCALE
  5
5B
102
{ACAD_REACTORS
330
47
102
}
330
47
100
AcDbScale
 70
     0
300
1/32" = 1'-0"
140
0.03125
141
12.0
290
     0
  0
SCALE
  5
5C
102
{ACAD_REACTORS
330
47
102
}
330
47
100
AcDbScale
 70
     0
300
1/16" = 1'-0"
140
0.0625
141
12.0
290
     0
  0
SCALE
  5
5D
102
{ACAD_REACTORS
330
47
102
}
330
47
100
AcDbScale
 70
     0
300
3/32" = 1'-0"
140
0.09375
141
12.0
290
     0
  0
SCALE
  5
5E
102
{ACAD_REACTORS
330
47
102
}
330
47
100
AcDbScale
 70
     0
300
1/8" = 1'-0"
140
0.125
141
12.0
290
     0
  0
SCALE
  5
5F
102
{ACAD_REACTORS
330
47
102
}
330
47
100
AcDbScale
 70
     0
300
3/16" = 1'-0"
140
0.1875
141
12.0
290
     0
  0
SCALE
  5
60
102
{ACAD_REACTORS
330
47
102
}
330
47
100
AcDbScale
 70
     0
300
1/4" = 1'-0"
140
0.25
141
12.0
290
     0
  0
SCALE
  5
61
102
{ACAD_REACTORS
330
47
102
}
330
47
100
AcDbScale
 70
     0
300
3/8" = 1'-0"
140
0.375
141
12.0
290
     0
  0
SCALE
  5
62
102
{ACAD_REACTORS
330
47
102
}
330
47
100
AcDbScale
 70
     0
300
1/2" = 1'-0"
140
0.5
141
12.0
290
     0
  0
SCALE
  5
63
102
{ACAD_REACTORS
330
47
102
}
330
47
100
AcDbScale
 70
     0
300
3/4" = 1'-0"
140
0.75
141
12.0
290
     0
  0
SCALE
  5
64
102
{ACAD_REACTORS
330
47
102
}
330
47
100
AcDbScale
 70
     0
300
1" = 1'-0"
140
1.0
141
12.0
290
     0
  0
SCALE
  5
65
102
{ACAD_REACTORS
330
47
102
}
330
47
100
AcDbScale
 70
     0
300
1-1/2" = 1'-0"
140
1.5
141
12.0
290
     0
  0
SCALE
  5
66
102
{ACAD_REACTORS
330
47
102
}
330
47
100
AcDbScale
 70
     0
300
3" = 1'-0"
140
3.0
141
12.0
290
     0
  0
SCALE
  5
67
102
{ACAD_REACTORS
330
47
102
}
330
47
100
AcDbScale
 70
     0
300
6" = 1'-0"
140
6.0
141
12.0
290
     0
  0
SCALE
  5
68
102
{ACAD_REACTORS
330
47
102
}
330
47
100
AcDbScale
 70
     0
300
1'-0" = 1'-0"
140
12.0
141
12.0
290
     0
  0
TABLESTYLE
  5
6A
102
{ACAD_REACTORS
330
69
102
}
102
{ACAD_XDICTIONARY
360
22C
102
}
330
69
100
AcDbTableStyle
  3
Standard
 70
     0
 71
     0
 40
0.06
 41
0.06
280
     0
281
     0
  7
Standard
140
4.5
170
     2
 62
     0
 63
   257
283
     0
 90
        4
 91
        0
  1

274
    -2
284
     1
 64
     0
275
    -2
285
     1
 65
     0
276
    -2
286
     1
 66
     0
277
    -2
287
     1
 67
     0
278
    -2
288
     1
 68
     0
279
    -2
289
     1
 69
     0
  7
Standard
140
6.0
170
     5
 62
     0
 63
   257
283
     0
 90
        4
 91
        0
  1

274
    -2
284
     1
 64
     0
275
    -2
285
     1
 65
     0
276
    -2
286
     1
 66
     0
277
    -2
287
     1
 67
     0
278
    -2
288
     1
 68
     0
279
    -2
289
     1
 69
     0
  7
Standard
140
4.5
170
     5
 62
     0
 63
   257
283
     0
 90
        4
 91
        0
  1

274
    -2
284
     1
 64
     0
275
    -2
285
     1
 65
     0
276
    -2
286
     1
 66
     0
277
    -2
287
     1
 67
     0
278
    -2
288
     1
 68
     0
279
    -2
289
     1
 69
     0
  0
VISUALSTYLE
  5
2F
102
{ACAD_REACTORS
330
2A
102
}
102
{ACAD_XDICTIONARY
360
204
102
}
330
2A
100
AcDbVisualStyle
  2
2dWireframe
 70
     4
177
     2
291
     0
 71
     0
176
     1
 72
     2
176
     1
 73
     0
176
     1
 90
        0
176
     1
 40
0.6
176
     1
 41
30.0
176
     1
 62
     5
 63
     7
421
 16777215
176
     1
 74
     1
176
     1
 91
        4
176
     1
 64
     7
176
     1
 65
   257
176
     1
 75
     1
176
     1
175
     1
176
     1
 42
1.0
176
     1
 92
        0
176
     1
 66
   257
176
     1
 43
1.0
176
     1
 76
     1
176
     1
 77
     6
176
     1
 78
     2
176
     1
 67
     7
176
     1
 79
     5
176
     1
170
     0
176
     1
171
     0
176
     1
290
     0
176
     1
 93
        1
176
     1
 44
0.0
176
     1
173
     0
176
     1
  0
VISUALSTYLE
  5
32
102
{ACAD_REACTORS
330
2A
102
}
102
{ACAD_XDICTIONARY
360
20A
102
}
330
2A
100
AcDbVisualStyle
  2
Basic
 70
     7
177
     2
291
     1
 71
     1
176
     1
 72
     0
176
     1
 73
     1
176
     1
 90
        0
176
     1
 40
0.6
176
     1
 41
30.0
176
     1
 62
     5
 63
     7
421
 16777215
176
     1
 74
     0
176
     1
 91
        4
176
     1
 64
     7
176
     1
 65
   257
176
     1
 75
     1
176
     1
175
     1
176
     1
 42
1.0
176
     1
 92
        8
176
     1
 66
     7
176
     1
 43
1.0
176
     1
 76
     1
176
     1
 77
     6
176
     1
 78
     2
176
     1
 67
     7
176
     1
 79
     5
176
     1
170
     0
176
     1
171
     0
176
     1
290
     0
176
     1
 93
        1
176
     1
 44
0.0
176
     1
173
     0
176
     1
  0
VISUALSTYLE
  5
36
102
{ACAD_REACTORS
330
2A
102
}
102
{ACAD_XDICTIONARY
360
212
102
}
330
2A
100
AcDbVisualStyle
  2
Brighten
 70
    12
177
     2
291
     1
 71
     2
176
     1
 72
     2
176
     1
 73
     0
176
     1
 90
        0
176
     1
 40
0.6
176
     1
 41
30.0
176
     1
 62
     5
 63
     7
421
 16777215
176
     1
 74
     1
176
     1
 91
        4
176
     1
 64
     7
176
     1
 65
   257
176
     1
 75
     1
176
     1
175
     1
176
     1
 42
1.0
176
     1
 92
        8
176
     1
 66
     7
176
     1
 43
1.0
176
     1
 76
     1
176
     1
 77
     6
176
     1
 78
     2
176
     1
 67
     7
176
     1
 79
     5
176
     1
170
     0
176
     1
171
     0
176
     1
290
     0
176
     1
 93
        1
176
     1
 44
50.0
176
     1
173
     0
176
     1
  0
VISUALSTYLE
  5
3A
102
{ACAD_REACTORS
330
2A
102
}
102
{ACAD_XDICTIONARY
360
21A
102
}
330
2A
100
AcDbVisualStyle
  2
ColorChange
 70
    16
177
     2
291
     1
 71
     2
176
     1
 72
     2
176
     1
 73
     3
176
     1
 90
        0
176
     1
 40
0.6
176
     1
 41
30.0
176
     1
 62
     5
 63
     8
421
  8421504
176
     1
 74
     1
176
     1
 91
        4
176
     1
 64
     7
176
     1
 65
   257
176
     1
 75
     1
176
     1
175
     1
176
     1
 42
1.0
176
     1
 92
        8
176
     1
 66
     8
424
  8421504
176
     1
 43
1.0
176
     1
 76
     1
176
     1
 77
     6
176
     1
 78
     2
176
     1
 67
     7
176
     1
 79
     5
176
     1
170
     0
176
     1
171
     0
176
     1
290
     0
176
     1
 93
        1
176
     1
 44
0.0
176
     1
173
     0
176
     1
  0
VISUALSTYLE
  5
34
102
{ACAD_REACTORS
330
2A
102
}
102
{ACAD_XDICTIONARY
360
20E
102
}
330
2A
100
AcDbVisualStyle
  2
Conceptual
 70
     9
177
     2
291
     0
 71
     3
176
     1
 72
     2
176
     1
 73
     0
176
     1
 90
        0
176
     1
 40
0.6
176
     1
 41
30.0
176
     1
 62
     5
 63
     7
421
 16777215
176
     1
 74
     2
176
     1
 91
        2
176
     1
 64
     7
176
     1
 65
   257
176
     1
 75
     1
176
     1
175
     1
176
     1
 42
179.0
176
     1
 92
        8
176
     1
 66
     7
176
     1
 43
1.0
176
     1
 76
     1
176
     1
 77
     6
176
     1
 78
     2
176
     1
 67
     7
176
     1
 79
     3
176
     1
170
     0
176
     1
171
     0
176
     1
290
     0
176
     1
 93
        1
176
     1
 44
0.0
176
     1
173
     0
176
     1
  0
VISUALSTYLE
  5
35
102
{ACAD_REACTORS
330
2A
102
}
102
{ACAD_XDICTIONARY
360
210
102
}
330
2A
100
AcDbVisualStyle
  2
Dim
 70
    11
177
     2
291
     1
 71
     2
176
     1
 72
     2
176
     1
 73
     0
176
     1
 90
        0
176
     1
 40
0.6
176
     1
 41
30.0
176
     1
 62
     5
 63
     7
421
 16777215
176
     1
 74
     1
176
     1
 91
        4
176
     1
 64
     7
176
     1
 65
   257
176
     1
 75
     1
176
     1
175
     1
176
     1
 42
1.0
176
     1
 92
        8
176
     1
 66
     7
176
     1
 43
1.0
176
     1
 76
     1
176
     1
 77
     6
176
     1
 78
     2
176
     1
 67
     7
176
     1
 79
     5
176
     1
170
     0
176
     1
171
     0
176
     1
290
     0
176
     1
 93
        1
176
     1
 44
-50.0
176
     1
173
     0
176
     1
  0
VISUALSTYLE
  5
3D
102
{ACAD_REACTORS
330
2A
102
}
102
{ACAD_XDICTIONARY
360
220
102
}
330
2A
100
AcDbVisualStyle
  2
EdgeColorOff
 70
    22
177
     2
291
     1
 71
     2
176
     0
 72
     2
176
     0
 73
     0
176
     0
 90
        0
176
     0
 40
0.6
176
     0
 41
30.0
176
     0
 62
     5
 63
     7
421
 16777215
176
     0
 74
     1
176
     0
 91
        4
176
     0
 64
     7
176
     0
 65
   257
176
     0
 75
     1
176
     0
175
     1
176
     0
 42
1.0
176
     0
 92
        8
176
     2
 66
     7
176
     0
 43
1.0
176
     0
 76
     1
176
     0
 77
     6
176
     0
 78
     2
176
     0
 67
     7
176
     0
 79
     5
176
     0
170
     0
176
     0
171
     0
176
     0
290
     0
176
     0
 93
        1
176
     0
 44
0.0
176
     0
173
     0
176
     0
  0
VISUALSTYLE
  5
39
102
{ACAD_REACTORS
330
2A
102
}
102
{ACAD_XDICTIONARY
360
218
102
}
330
2A
100
AcDbVisualStyle
  2
Facepattern
 70
    15
177
     2
291
     1
 71
     2
176
     1
 72
     2
176
     1
 73
     0
176
     1
 90
        0
176
     1
 40
0.6
176
     1
 41
30.0
176
     1
 62
     5
 63
     7
421
 16777215
176
     1
 74
     1
176
     1
 91
        4
176
     1
 64
     7
176
     1
 65
   257
176
     1
 75
     1
176
     1
175
     1
176
     1
 42
1.0
176
     1
 92
        8
176
     1
 66
     7
176
     1
 43
1.0
176
     1
 76
     1
176
     1
 77
     6
176
     1
 78
     2
176
     1
 67
     7
176
     1
 79
     5
176
     1
170
     0
176
     1
171
     0
176
     1
290
     0
176
     1
 93
        1
176
     1
 44
0.0
176
     1
173
     0
176
     1
  0
VISUALSTYLE
  5
2B
102
{ACAD_REACTORS
330
2A
102
}
102
{ACAD_XDICTIONARY
360
1FC
102
}
330
2A
100
AcDbVisualStyle
  2
Flat
 70
     0
177
     2
291
     1
 71
     2
176
     1
 72
     1
176
     1
 73
     1
176
     1
 90
        2
176
     1
 40
0.6
176
     1
 41
30.0
176
     1
 62
     5
 63
     7
421
 16777215
176
     1
 74
     0
176
     1
 91
        0
176
     1
 64
     7
176
     1
 65
   257
176
     1
 75
     1
176
     1
175
     1
176
     1
 42
1.0
176
     1
 92
        8
176
     1
 66
     7
176
     1
 43
1.0
176
     1
 76
     1
176
     1
 77
     6
176
     1
 78
     2
176
     1
 67
     7
176
     1
 79
     5
176
     1
170
     0
176
     1
171
     0
176
     1
290
     0
176
     1
 93
       13
176
     1
 44
0.0
176
     1
173
     0
176
     1
  0
VISUALSTYLE
  5
2C
102
{ACAD_REACTORS
330
2A
102
}
102
{ACAD_XDICTIONARY
360
1FE
102
}
330
2A
100
AcDbVisualStyle
  2
FlatWithEdges
 70
     1
177
     2
291
     1
 71
     2
176
     1
 72
     1
176
     1
 73
     1
176
     1
 90
        2
176
     1
 40
0.6
176
     1
 41
30.0
176
     1
 62
     5
 63
     7
421
 16777215
176
     1
 74
     1
176
     1
 91
        0
176
     1
 64
     7
176
     1
 65
   257
176
     1
 75
     1
176
     1
175
     1
176
     1
 42
1.0
176
     1
 92
        0
176
     1
 66
   257
176
     1
 43
1.0
176
     1
 76
     1
176
     1
 77
     6
176
     1
 78
     2
176
     1
 67
     7
176
     1
 79
     5
176
     1
170
     0
176
     1
171
     0
176
     1
290
     0
176
     1
 93
       13
176
     1
 44
0.0
176
     1
173
     0
176
     1
  0
VISUALSTYLE
  5
2D
102
{ACAD_REACTORS
330
2A
102
}
102
{ACAD_XDICTIONARY
360
200
102
}
330
2A
100
AcDbVisualStyle
  2
Gouraud
 70
     2
177
     2
291
     1
 71
     2
176
     1
 72
     2
176
     1
 73
     1
176
     1
 90
        2
176
     1
 40
0.6
176
     1
 41
30.0
176
     1
 62
     5
 63
     7
421
 16777215
176
     1
 74
     0
176
     1
 91
        0
176
     1
 64
     7
176
     1
 65
   257
176
     1
 75
     1
176
     1
175
     1
176
     1
 42
1.0
176
     1
 92
        0
176
     1
 66
     7
176
     1
 43
1.0
176
     1
 76
     1
176
     1
 77
     6
176
     1
 78
     2
176
     1
 67
     7
176
     1
 79
     5
176
     1
170
     0
176
     1
171
     0
176
     1
290
     0
176
     1
 93
       13
176
     1
 44
0.0
176
     1
173
     0
176
     1
  0
VISUALSTYLE
  5
2E
102
{ACAD_REACTORS
330
2A
102
}
102
{ACAD_XDICTIONARY
360
202
102
}
330
2A
100
AcDbVisualStyle
  2
GouraudWithEdges
 70
     3
177
     2
291
     1
 71
     2
176
     1
 72
     2
176
     1
 73
     1
176
     1
 90
        2
176
     1
 40
0.6
176
     1
 41
30.0
176
     1
 62
     5
 63
     7
421
 16777215
176
     1
 74
     1
176
     1
 91
        0
176
     1
 64
     7
176
     1
 65
   257
176
     1
 75
     1
176
     1
175
     1
176
     1
 42
1.0
176
     1
 92
        0
176
     1
 66
   257
176
     1
 43
1.0
176
     1
 76
     1
176
     1
 77
     6
176
     1
 78
     2
176
     1
 67
     7
176
     1
 79
     5
176
     1
170
     0
176
     1
171
     0
176
     1
290
     0
176
     1
 93
       13
176
     1
 44
0.0
176
     1
173
     0
176
     1
  0
VISUALSTYLE
  5
31
102
{ACAD_REACTORS
330
2A
102
}
102
{ACAD_XDICTIONARY
360
208
102
}
330
2A
100
AcDbVisualStyle
  2
Hidden
 70
     6
177
     2
291
     0
 71
     1
176
     1
 72
     2
176
     1
 73
     2
176
     1
 90
        0
176
     1
 40
0.6
176
     1
 41
30.0
176
     1
 62
     5
 63
     7
421
 16777215
176
     1
 74
     2
176
     1
 91
        2
176
     1
 64
     7
176
     1
 65
   257
176
     1
 75
     2
176
     1
175
     1
176
     1
 42
40.0
176
     1
 92
        0
176
     1
 66
   257
176
     1
 43
1.0
176
     1
 76
     1
176
     1
 77
     6
176
     1
 78
     2
176
     1
 67
     7
176
     1
 79
     3
176
     1
170
     0
176
     1
171
     0
176
     1
290
     0
176
     1
 93
        1
176
     1
 44
0.0
176
     1
173
     0
176
     1
  0
VISUALSTYLE
  5
3B
102
{ACAD_REACTORS
330
2A
102
}
102
{ACAD_XDICTIONARY
360
21C
102
}
330
2A
100
AcDbVisualStyle
  2
JitterOff
 70
    20
177
     2
291
     1
 71
     2
176
     0
 72
     2
176
     0
 73
     0
176
     0
 90
        0
176
     0
 40
0.6
176
     0
 41
30.0
176
     0
 62
     5
 63
     7
421
 16777215
176
     0
 74
     1
176
     0
 91
        4
176
     0
 64
     7
176
     0
 65
   257
176
     0
 75
     1
176
     0
175
     1
176
     0
 42
1.0
176
     0
 92
       10
176
     2
 66
     7
176
     0
 43
1.0
176
     0
 76
     1
176
     0
 77
     6
176
     0
 78
     2
176
     0
 67
     7
176
     0
 79
     5
176
     0
170
     0
176
     0
171
     0
176
     0
290
     0
176
     0
 93
        1
176
     0
 44
0.0
176
     0
173
     0
176
     0
  0
VISUALSTYLE
  5
38
102
{ACAD_REACTORS
330
2A
102
}
102
{ACAD_XDICTIONARY
360
216
102
}
330
2A
100
AcDbVisualStyle
  2
Linepattern
 70
    14
177
     2
291
     1
 71
     2
176
     1
 72
     2
176
     1
 73
     0
176
     1
 90
        0
176
     1
 40
0.6
176
     1
 41
30.0
176
     1
 62
     5
 63
     7
421
 16777215
176
     1
 74
     1
176
     1
 91
        4
176
     1
 64
     7
176
     1
 65
   257
176
     1
 75
     7
176
     1
175
     7
176
     1
 42
1.0
176
     1
 92
        8
176
     1
 66
     7
176
     1
 43
1.0
176
     1
 76
     1
176
     1
 77
     6
176
     1
 78
     2
176
     1
 67
     7
176
     1
 79
     5
176
     1
170
     0
176
     1
171
     0
176
     1
290
     0
176
     1
 93
        1
176
     1
 44
0.0
176
     1
173
     0
176
     1
  0
VISUALSTYLE
  5
3C
102
{ACAD_REACTORS
330
2A
102
}
102
{ACAD_XDICTIONARY
360
21E
102
}
330
2A
100
AcDbVisualStyle
  2
OverhangOff
 70
    21
177
     2
291
     1
 71
     2
176
     0
 72
     2
176
     0
 73
     0
176
     0
 90
        0
176
     0
 40
0.6
176
     0
 41
30.0
176
     0
 62
     5
 63
     7
421
 16777215
176
     0
 74
     1
176
     0
 91
        4
176
     0
 64
     7
176
     0
 65
   257
176
     0
 75
     1
176
     0
175
     1
176
     0
 42
1.0
176
     0
 92
        9
176
     2
 66
     7
176
     0
 43
1.0
176
     0
 76
     1
176
     0
 77
     6
176
     0
 78
     2
176
     0
 67
     7
176
     0
 79
     5
176
     0
170
     0
176
     0
171
     0
176
     0
290
     0
176
     0
 93
        1
176
     0
 44
0.0
176
     0
173
     0
176
     0
  0
VISUALSTYLE
  5
33
102
{ACAD_REACTORS
330
2A
102
}
102
{ACAD_XDICTIONARY
360
20C
102
}
330
2A
100
AcDbVisualStyle
  2
Realistic
 70
     8
177
     2
291
     0
 71
     2
176
     1
 72
     3
176
     1
 73
     0
176
     1
 90
        2
176
     1
 40
0.6
176
     1
 41
30.0
176
     1
 62
     5
 63
     7
421
 16777215
176
     1
 74
     0
176
     1
 91
        0
176
     1
 64
     7
176
     1
 65
   257
176
     1
 75
     1
176
     1
175
     1
176
     1
 42
1.0
176
     1
 92
        8
176
     1
 66
   257
176
     1
 43
1.0
176
     1
 76
     1
176
     1
 77
     6
176
     1
 78
     2
176
     1
 67
     7
176
     1
 79
     3
176
     1
170
     0
176
     1
171
     0
176
     1
290
     0
176
     1
 93
       13
176
     1
 44
0.0
176
     1
173
     0
176
     1
  0
VISUALSTYLE
  5
42
102
{ACAD_REACTORS
330
2A
102
}
102
{ACAD_XDICTIONARY
360
22A
102
}
330
2A
100
AcDbVisualStyle
  2
Shaded
 70
    27
177
     2
291
     0
 71
     2
176
     1
 72
     2
176
     1
 73
     1
176
     1
 90
        2
176
     1
 40
0.6
176
     1
 41
30.0
176
     1
 62
     5
 63
     7
421
 16777215
176
     1
 74
     0
176
     1
 91
        4
176
     1
 64
     7
176
     1
 65
   257
176
     1
 75
     1
176
     1
175
     1
176
     1
 42
1.0
176
     1
 92
        8
176
     1
 66
   257
176
     1
 43
1.0
176
     1
 76
     1
176
     1
 77
     6
176
     1
 78
     2
176
     1
 67
     8
425
  7895160
176
     1
 79
     3
176
     1
170
     0
176
     1
171
     0
176
     1
290
     0
176
     1
 93
        5
176
     1
 44
0.0
176
     1
173
     0
176
     1
  0
VISUALSTYLE
  5
41
102
{ACAD_REACTORS
330
2A
102
}
102
{ACAD_XDICTIONARY
360
228
102
}
330
2A
100
AcDbVisualStyle
  2
Shaded with edges
 70
    26
177
     2
291
     0
 71
     2
176
     1
 72
     2
176
     1
 73
     1
176
     1
 90
        2
176
     1
 40
0.6
176
     1
 41
30.0
176
     1
 62
     5
 63
     7
421
 16777215
176
     1
 74
     1
176
     1
 91
       10
176
     1
 64
     7
176
     1
 65
   257
176
     1
 75
     2
176
     1
175
     1
176
     1
 42
1.0
176
     1
 92
        8
176
     1
 66
   257
176
     1
 43
1.0
176
     1
 76
     1
176
     1
 77
     6
176
     1
 78
     2
176
     1
 67
     7
176
     1
 79
     3
176
     1
170
     0
176
     1
171
     0
176
     1
290
     0
176
     1
 93
        5
176
     1
 44
0.0
176
     1
173
     0
176
     1
  0
VISUALSTYLE
  5
3E
102
{ACAD_REACTORS
330
2A
102
}
102
{ACAD_XDICTIONARY
360
222
102
}
330
2A
100
AcDbVisualStyle
  2
Shades of Gray
 70
    23
177
     2
291
     0
 71
     2
176
     1
 72
     2
176
     1
 73
     3
176
     1
 90
        0
176
     1
 40
0.6
176
     1
 41
30.0
176
     1
 62
     5
 63
     7
421
 16777215
176
     1
 74
     2
176
     1
 91
        2
176
     1
 64
     7
176
     1
 65
     7
176
     1
 75
     1
176
     1
175
     1
176
     1
 42
40.0
176
     1
 92
        8
176
     1
 66
     7
176
     1
 43
1.0
176
     1
 76
     1
176
     1
 77
     6
176
     1
 78
     2
176
     1
 67
     7
176
     1
 79
     3
176
     1
170
     0
176
     1
171
     0
176
     1
290
     0
176
     1
 93
        1
176
     1
 44
0.0
176
     1
173
     0
176
     1
  0
VISUALSTYLE
  5
3F
102
{ACAD_REACTORS
330
2A
102
}
102
{ACAD_XDICTIONARY
360
224
102
}
330
2A
100
AcDbVisualStyle
  2
Sketchy
 70
    24
177
     2
291
     0
 71
     1
176
     1
 72
     2
176
     1
 73
     2
176
     1
 90
        0
176
     1
 40
0.6
176
     1
 41
30.0
176
     1
 62
     5
 63
     7
421
 16777215
176
     1
 74
     2
176
     1
 91
        2
176
     1
 64
     7
176
     1
 65
     7
176
     1
 75
     1
176
     1
175
     1
176
     1
 42
40.0
176
     1
 92
       11
176
     1
 66
     7
176
     1
 43
1.0
176
     1
 76
     1
176
     1
 77
     6
176
     1
 78
     2
176
     1
 67
     7
176
     1
 79
     6
176
     1
170
     0
176
     1
171
     0
176
     1
290
     0
176
     1
 93
        1
176
     1
 44
0.0
176
     1
173
     0
176
     1
  0
VISUALSTYLE
  5
37
102
{ACAD_REACTORS
330
2A
102
}
102
{ACAD_XDICTIONARY
360
214
102
}
330
2A
100
AcDbVisualStyle
  2
Thicken
 70
    13
177
     2
291
     1
 71
     2
176
     1
 72
     2
176
     1
 73
     0
176
     1
 90
        0
176
     1
 40
0.6
176
     1
 41
30.0
176
     1
 62
     5
 63
     7
421
 16777215
176
     1
 74
     1
176
     1
 91
        4
176
     1
 64
     7
176
     1
 65
   257
176
     1
 75
     1
176
     1
175
     1
176
     1
 42
1.0
176
     1
 92
       12
176
     1
 66
     7
176
     1
 43
1.0
176
     1
 76
     1
176
     1
 77
     6
176
     1
 78
     2
176
     1
 67
     7
176
     1
 79
     5
176
     1
170
     0
176
     1
171
     0
176
     1
290
     0
176
     1
 93
        1
176
     1
 44
0.0
176
     1
173
     0
176
     1
  0
VISUALSTYLE
  5
30
102
{ACAD_REACTORS
330
2A
102
}
102
{ACAD_XDICTIONARY
360
206
102
}
330
2A
100
AcDbVisualStyle
  2
Wireframe
 70
     5
177
     2
291
     0
 71
     0
176
     1
 72
     2
176
     1
 73
     0
176
     1
 90
        0
176
     1
 40
0.6
176
     1
 41
30.0
176
     1
 62
     5
 63
     7
421
 16777215
176
     1
 74
     1
176
     1
 91
        4
176
     1
 64
     7
176
     1
 65
   257
176
     1
 75
     1
176
     1
175
     1
176
     1
 42
1.0
176
     1
 92
        0
176
     1
 66
   257
176
     1
 43
1.0
176
     1
 76
     1
176
     1
 77
     6
176
     1
 78
     2
176
     1
 67
     7
176
     1
 79
     3
176
     1
170
     0
176
     1
171
     0
176
     1
290
     0
176
     1
 93
        1
176
     1
 44
0.0
176
     1
173
     0
176
     1
  0
VISUALSTYLE
  5
40
102
{ACAD_REACTORS
330
2A
102
}
102
{ACAD_XDICTIONARY
360
226
102
}
330
2A
100
AcDbVisualStyle
  2
X-Ray
 70
    25
177
     2
291
     0
 71
     2
176
     1
 72
     2
176
     1
 73
     1
176
     1
 90
        1
176
     1
 40
0.5
176
     1
 41
30.0
176
     1
 62
     5
 63
     7
421
 16777215
176
     1
 74
     1
176
     1
 91
        0
176
     1
 64
     7
176
     1
 65
   257
176
     1
 75
     1
176
     1
175
     1
176
     1
 42
1.0
176
     1
 92
        8
176
     1
 66
     7
176
     1
 43
1.0
176
     1
 76
     1
176
     1
 77
     6
176
     1
 78
     2
176
     1
 67
     7
176
     1
 79
     3
176
     1
170
     0
176
     1
171
     0
176
     1
290
     0
176
     1
 93
       13
176
     1
 44
0.0
176
     1
173
     0
176
     1
  0
DICTIONARYVAR
  5
1FB
102
{ACAD_REACTORS
330
1FA
102
}
330
1FA
100
DictionaryVariables
280
     0
  1
1:1
  0
DICTIONARYVAR
  5
230
102
{ACAD_REACTORS
330
1FA
102
}
330
1FA
100
DictionaryVariables
280
     0
  1
Standard
  0
DICTIONARYVAR
  5
22F
102
{ACAD_REACTORS
330
1FA
102
}
330
1FA
100
DictionaryVariables
280
     0
  1
Standard
  0
DICTIONARY
  5
22C
330
6A
100
AcDbDictionary
280
     1
281
     1
  3
ACAD_ROUNDTRIP_2008_TABLESTYLE_CELLSTYLEMAP
360
22D
  0
DICTIONARY
  5
204
330
2F
100
AcDbDictionary
280
     1
281
     1
  3
ACAD_XREC_ROUNDTRIP
360
205
  0
DICTIONARY
  5
20A
330
32
100
AcDbDictionary
280
     1
281
     1
  3
ACAD_XREC_ROUNDTRIP
360
20B
  0
DICTIONARY
  5
212
330
36
100
AcDbDictionary
280
     1
281
     1
  3
ACAD_XREC_ROUNDTRIP
360
213
  0
DICTIONARY
  5
21A
330
3A
100
AcDbDictionary
280
     1
281
     1
  3
ACAD_XREC_ROUNDTRIP
360
21B
  0
DICTIONARY
  5
20E
330
34
100
AcDbDictionary
280
     1
281
     1
  3
ACAD_XREC_ROUNDTRIP
360
20F
  0
DICTIONARY
  5
210
330
35
100
AcDbDictionary
280
     1
281
     1
  3
ACAD_XREC_ROUNDTRIP
360
211
  0
DICTIONARY
  5
220
330
3D
100
AcDbDictionary
280
     1
281
     1
  3
ACAD_XREC_ROUNDTRIP
360
221
  0
DICTIONARY
  5
218
330
39
100
AcDbDictionary
280
     1
281
     1
  3
ACAD_XREC_ROUNDTRIP
360
219
  0
DICTIONARY
  5
1FC
330
2B
100
AcDbDictionary
280
     1
281
     1
  3
ACAD_XREC_ROUNDTRIP
360
1FD
  0
DICTIONARY
  5
1FE
330
2C
100
AcDbDictionary
280
     1
281
     1
  3
ACAD_XREC_ROUNDTRIP
360
1FF
  0
DICTIONARY
  5
200
330
2D
100
AcDbDictionary
280
     1
281
     1
  3
ACAD_XREC_ROUNDTRIP
360
201
  0
DICTIONARY
  5
202
330
2E
100
AcDbDictionary
280
     1
281
     1
  3
ACAD_XREC_ROUNDTRIP
360
203
  0
DICTIONARY
  5
208
330
31
100
AcDbDictionary
280
     1
281
     1
  3
ACAD_XREC_ROUNDTRIP
360
209
  0
DICTIONARY
  5
21C
330
3B
100
AcDbDictionary
280
     1
281
     1
  3
ACAD_XREC_ROUNDTRIP
360
21D
  0
DICTIONARY
  5
216
330
38
100
AcDbDictionary
280
     1
281
     1
  3
ACAD_XREC_ROUNDTRIP
360
217
  0
DICTIONARY
  5
21E
330
3C
100
AcDbDictionary
280
     1
281
     1
  3
ACAD_XREC_ROUNDTRIP
360
21F
  0
DICTIONARY
  5
20C
330
33
100
AcDbDictionary
280
     1
281
     1
  3
ACAD_XREC_ROUNDTRIP
360
20D
  0
DICTIONARY
  5
22A
330
42
100
AcDbDictionary
280
     1
281
     1
  3
ACAD_XREC_ROUNDTRIP
360
22B
  0
DICTIONARY
  5
228
330
41
100
AcDbDictionary
280
     1
281
     1
  3
ACAD_XREC_ROUNDTRIP
360
229
  0
DICTIONARY
  5
222
330
3E
100
AcDbDictionary
280
     1
281
     1
  3
ACAD_XREC_ROUNDTRIP
360
223
  0
DICTIONARY
  5
224
330
3F
100
AcDbDictionary
280
     1
281
     1
  3
ACAD_XREC_ROUNDTRIP
360
225
  0
DICTIONARY
  5
214
330
37
100
AcDbDictionary
280
     1
281
     1
  3
ACAD_XREC_ROUNDTRIP
360
215
  0
DICTIONARY
  5
206
330
30
100
AcDbDictionary
280
     1
281
     1
  3
ACAD_XREC_ROUNDTRIP
360
207
  0
DICTIONARY
  5
226
330
40
100
AcDbDictionary
280
     1
281
     1
  3
ACAD_XREC_ROUNDTRIP
360
227
  0
CELLSTYLEMAP
  5
22D
102
{ACAD_REACTORS
330
22C
102
}
330
22C
100
AcDbCellStyleMap
 90
        3
300
CELLSTYLE
  1
TABLEFORMAT_BEGIN
 90
        5
170
     1
 91
        0
 92
    32768
 62
   257
 93
        1
300
CONTENTFORMAT
  1
CONTENTFORMAT_BEGIN
 90
        0
 91
        0
 92
        4
 93
        0
300

 40
0.0
140
1.0
 94
        5
 62
     0
340
11
144
6.0
309
CONTENTFORMAT_END
171
     1
301
MARGIN
  1
CELLMARGIN_BEGIN
 40
1.5
 40
1.5
 40
1.5
 40
1.5
 40
1.5
 40
1.5
309
CELLMARGIN_END
 94
        6
 95
        1
302
GRIDFORMAT
  1
GRIDFORMAT_BEGIN
 90
        0
 91
        1
 62
     0
 92
       -2
340
14
 93
        0
 40
0.045
309
GRIDFORMAT_END
 95
        2
302
GRIDFORMAT
  1
GRIDFORMAT_BEGIN
 90
        0
 91
        1
 62
     0
 92
       -2
340
14
 93
        0
 40
0.045
309
GRIDFORMAT_END
 95
        4
302
GRIDFORMAT
  1
GRIDFORMAT_BEGIN
 90
        0
 91
        1
 62
     0
 92
       -2
340
14
 93
        0
 40
0.045
309
GRIDFORMAT_END
 95
        8
302
GRIDFORMAT
  1
GRIDFORMAT_BEGIN
 90
        0
 91
        1
 62
     0
 92
       -2
340
14
 93
        0
 40
0.045
309
GRIDFORMAT_END
 95
       16
302
GRIDFORMAT
  1
GRIDFORMAT_BEGIN
 90
        0
 91
        1
 62
     0
 92
       -2
340
14
 93
        0
 40
0.045
309
GRIDFORMAT_END
 95
       32
302
GRIDFORMAT
  1
GRIDFORMAT_BEGIN
 90
        0
 91
        1
 62
     0
 92
       -2
340
14
 93
        0
 40
0.045
309
GRIDFORMAT_END
309
TABLEFORMAT_END
  1
CELLSTYLE_BEGIN
 90
        1
 91
        1
300
_TITLE
309
CELLSTYLE_END
300
CELLSTYLE
  1
TABLEFORMAT_BEGIN
 90
        5
170
     1
 91
        0
 92
        0
 62
   257
 93
        1
300
CONTENTFORMAT
  1
CONTENTFORMAT_BEGIN
 90
        0
 91
        0
 92
        4
 93
        0
300

 40
0.0
140
1.0
 94
        5
 62
     0
340
11
144
4.5
309
CONTENTFORMAT_END
171
     1
301
MARGIN
  1
CELLMARGIN_BEGIN
 40
1.5
 40
1.5
 40
1.5
 40
1.5
 40
1.5
 40
1.5
309
CELLMARGIN_END
 94
        6
 95
        1
302
GRIDFORMAT
  1
GRIDFORMAT_BEGIN
 90
        0
 91
        1
 62
     0
 92
       -2
340
14
 93
        0
 40
0.045
309
GRIDFORMAT_END
 95
        2
302
GRIDFORMAT
  1
GRIDFORMAT_BEGIN
 90
        0
 91
        1
 62
     0
 92
       -2
340
14
 93
        0
 40
0.045
309
GRIDFORMAT_END
 95
        4
302
GRIDFORMAT
  1
GRIDFORMAT_BEGIN
 90
        0
 91
        1
 62
     0
 92
       -2
340
14
 93
        0
 40
0.045
309
GRIDFORMAT_END
 95
        8
302
GRIDFORMAT
  1
GRIDFORMAT_BEGIN
 90
        0
 91
        1
 62
     0
 92
       -2
340
14
 93
        0
 40
0.045
309
GRIDFORMAT_END
 95
       16
302
GRIDFORMAT
  1
GRIDFORMAT_BEGIN
 90
        0
 91
        1
 62
     0
 92
       -2
340
14
 93
        0
 40
0.045
309
GRIDFORMAT_END
 95
       32
302
GRIDFORMAT
  1
GRIDFORMAT_BEGIN
 90
        0
 91
        1
 62
     0
 92
       -2
340
14
 93
        0
 40
0.045
309
GRIDFORMAT_END
309
TABLEFORMAT_END
  1
CELLSTYLE_BEGIN
 90
        2
 91
        1
300
_HEADER
309
CELLSTYLE_END
300
CELLSTYLE
  1
TABLEFORMAT_BEGIN
 90
        5
170
     1
 91
        0
 92
        0
 62
   257
 93
        1
300
CONTENTFORMAT
  1
CONTENTFORMAT_BEGIN
 90
        0
 91
        0
 92
        4
 93
        0
300

 40
0.0
140
1.0
 94
        2
 62
     0
340
11
144
4.5
309
CONTENTFORMAT_END
171
     1
301
MARGIN
  1
CELLMARGIN_BEGIN
 40
1.5
 40
1.5
 40
1.5
 40
1.5
 40
1.5
 40
1.5
309
CELLMARGIN_END
 94
        6
 95
        1
302
GRIDFORMAT
  1
GRIDFORMAT_BEGIN
 90
        0
 91
        1
 62
     0
 92
       -2
340
14
 93
        0
 40
0.045
309
GRIDFORMAT_END
 95
        2
302
GRIDFORMAT
  1
GRIDFORMAT_BEGIN
 90
        0
 91
        1
 62
     0
 92
       -2
340
14
 93
        0
 40
0.045
309
GRIDFORMAT_END
 95
        4
302
GRIDFORMAT
  1
GRIDFORMAT_BEGIN
 90
        0
 91
        1
 62
     0
 92
       -2
340
14
 93
        0
 40
0.045
309
GRIDFORMAT_END
 95
        8
302
GRIDFORMAT
  1
GRIDFORMAT_BEGIN
 90
        0
 91
        1
 62
     0
 92
       -2
340
14
 93
        0
 40
0.045
309
GRIDFORMAT_END
 95
       16
302
GRIDFORMAT
  1
GRIDFORMAT_BEGIN
 90
        0
 91
        1
 62
     0
 92
       -2
340
14
 93
        0
 40
0.045
309
GRIDFORMAT_END
 95
       32
302
GRIDFORMAT
  1
GRIDFORMAT_BEGIN
 90
        0
 91
        1
 62
     0
 92
       -2
340
14
 93
        0
 40
0.045
309
GRIDFORMAT_END
309
TABLEFORMAT_END
  1
CELLSTYLE_BEGIN
 90
        3
 91
        2
300
_DATA
309
CELLSTYLE_END
  0
XRECORD
  5
205
102
{ACAD_REACTORS
330
204
102
}
330
204
100
AcDbXrecord
280
     1
102
RTVSPost2010Prop28
280
     1
102
RTVSPost2010PropOp28
 70
     1
102
RTVSPost2010Prop29
280
     1
102
RTVSPost2010PropOp29
 70
     1
102
RTVSPost2010Prop30
280
     0
102
RTVSPost2010PropOp30
 70
     1
102
RTVSPost2010Prop31
280
     0
102
RTVSPost2010PropOp31
 70
     1
102
RTVSPost2010Prop32
280
     0
102
RTVSPost2010PropOp32
 70
     1
102
RTVSPost2010Prop33
280
     0
102
RTVSPost2010PropOp33
 70
     1
102
RTVSPost2010Prop34
280
     0
102
RTVSPost2010PropOp34
 70
     1
102
RTVSPost2010Prop35
280
     0
102
RTVSPost2010PropOp35
 70
     1
102
RTVSPost2010Prop36
280
     0
102
RTVSPost2010PropOp36
 70
     1
102
RTVSPost2010Prop37
 90
       50
102
RTVSPost2010PropOp37
 70
     1
102
RTVSPost2010Prop38
140
0.0
102
RTVSPost2010PropOp38
 70
     1
102
RTVSPost2010Prop39
140
1.0
102
RTVSPost2010PropOp39
 70
     1
102
RTVSPost2010Prop40
 90
        0
102
RTVSPost2010PropOp40
 70
     1
102
RTVSPost2010Prop41ColorIndex
 90
       18
102
RTVSPost2010Prop41ColorRGB
 90
        0
102
RTVSPost2010PropOp41
 70
     1
102
RTVSPost2010Prop42
 90
       50
102
RTVSPost2010PropOp42
 70
     1
102
RTVSPost2010Prop43
 90
        3
102
RTVSPost2010PropOp43
 70
     1
102
RTVSPost2010Prop44ColorIndex
 90
        5
102
RTVSPost2010Prop44ColorRGB
 90
      255
102
RTVSPost2010PropOp44
 70
     1
102
RTVSPost2010Prop45
280
     0
102
RTVSPost2010PropOp45
 70
     1
102
RTVSPost2010Prop46
 90
       50
102
RTVSPost2010PropOp46
 70
     1
102
RTVSPost2010Prop47
 90
       50
102
RTVSPost2010PropOp47
 70
     1
102
RTVSPost2010Prop48
 90
       50
102
RTVSPost2010PropOp48
 70
     1
102
RTVSPost2010Prop49
280
     0
102
RTVSPost2010PropOp49
 70
     1
102
RTVSPost2010Prop50
 90
       50
102
RTVSPost2010PropOp50
 70
     1
102
RTVSPost2010Prop51ColorIndex
 90
      256
102
RTVSPost2010Prop51ColorRGB
 90
-16777216
102
RTVSPost2010PropOp51
 70
     0
102
RTVSPost2010Prop52
140
1.0
102
RTVSPost2010PropOp52
 70
     0
102
RTVSPost2010Prop53
 90
        2
102
RTVSPost2010PropOp53
 70
     1
102
RTVSPost2010Prop54
  1
strokes_ogs.tif
102
RTVSPost2010PropOp54
 70
     1
102
RTVSPost2010Prop55
280
     0
102
RTVSPost2010PropOp55
 70
     1
102
RTVSPost2010Prop56
140
1.0
102
RTVSPost2010PropOp56
 70
     1
102
RTVSPost2010Prop57
140
1.0
102
RTVSPost2010PropOp57
 70
     1
  0
XRECORD
  5
20B
102
{ACAD_REACTORS
330
20A
102
}
330
20A
100
AcDbXrecord
280
     1
102
RTVSPost2010Prop28
280
     0
102
RTVSPost2010PropOp28
 70
     1
102
RTVSPost2010Prop29
280
     1
102
RTVSPost2010PropOp29
 70
     1
102
RTVSPost2010Prop30
280
     1
102
RTVSPost2010PropOp30
 70
     1
102
RTVSPost2010Prop31
280
     0
102
RTVSPost2010PropOp31
 70
     1
102
RTVSPost2010Prop32
280
     0
102
RTVSPost2010PropOp32
 70
     1
102
RTVSPost2010Prop33
280
     0
102
RTVSPost2010PropOp33
 70
     1
102
RTVSPost2010Prop34
280
     0
102
RTVSPost2010PropOp34
 70
     1
102
RTVSPost2010Prop35
280
     0
102
RTVSPost2010PropOp35
 70
     1
102
RTVSPost2010Prop36
280
     0
102
RTVSPost2010PropOp36
 70
     1
102
RTVSPost2010Prop37
 90
       50
102
RTVSPost2010PropOp37
 70
     1
102
RTVSPost2010Prop38
140
0.0
102
RTVSPost2010PropOp38
 70
     1
102
RTVSPost2010Prop39
140
1.0
102
RTVSPost2010PropOp39
 70
     1
102
RTVSPost2010Prop40
 90
        0
102
RTVSPost2010PropOp40
 70
     1
102
RTVSPost2010Prop41ColorIndex
 90
       18
102
RTVSPost2010Prop41ColorRGB
 90
        0
102
RTVSPost2010PropOp41
 70
     1
102
RTVSPost2010Prop42
 90
       50
102
RTVSPost2010PropOp42
 70
     1
102
RTVSPost2010Prop43
 90
        3
102
RTVSPost2010PropOp43
 70
     1
102
RTVSPost2010Prop44ColorIndex
 90
        5
102
RTVSPost2010Prop44ColorRGB
 90
      255
102
RTVSPost2010PropOp44
 70
     1
102
RTVSPost2010Prop45
280
     0
102
RTVSPost2010PropOp45
 70
     1
102
RTVSPost2010Prop46
 90
       50
102
RTVSPost2010PropOp46
 70
     1
102
RTVSPost2010Prop47
 90
       50
102
RTVSPost2010PropOp47
 70
     1
102
RTVSPost2010Prop48
 90
       50
102
RTVSPost2010PropOp48
 70
     1
102
RTVSPost2010Prop49
280
     0
102
RTVSPost2010PropOp49
 70
     1
102
RTVSPost2010Prop50
 90
       50
102
RTVSPost2010PropOp50
 70
     1
102
RTVSPost2010Prop51ColorIndex
 90
      256
102
RTVSPost2010Prop51ColorRGB
 90
-16777216
102
RTVSPost2010PropOp51
 70
     0
102
RTVSPost2010Prop52
140
1.0
102
RTVSPost2010PropOp52
 70
     0
102
RTVSPost2010Prop53
 90
        2
102
RTVSPost2010PropOp53
 70
     1
102
RTVSPost2010Prop54
  1
strokes_ogs.tif
102
RTVSPost2010PropOp54
 70
     1
102
RTVSPost2010Prop55
280
     0
102
RTVSPost2010PropOp55
 70
     1
102
RTVSPost2010Prop56
140
1.0
102
RTVSPost2010PropOp56
 70
     1
102
RTVSPost2010Prop57
140
1.0
102
RTVSPost2010PropOp57
 70
     1
  0
XRECORD
  5
213
102
{ACAD_REACTORS
330
212
102
}
330
212
100
AcDbXrecord
280
     1
102
RTVSPost2010Prop28
280
     0
102
RTVSPost2010PropOp28
 70
     1
102
RTVSPost2010Prop29
280
     1
102
RTVSPost2010PropOp29
 70
     1
102
RTVSPost2010Prop30
280
     1
102
RTVSPost2010PropOp30
 70
     1
102
RTVSPost2010Prop31
280
     0
102
RTVSPost2010PropOp31
 70
     1
102
RTVSPost2010Prop32
280
     0
102
RTVSPost2010PropOp32
 70
     1
102
RTVSPost2010Prop33
280
     0
102
RTVSPost2010PropOp33
 70
     1
102
RTVSPost2010Prop34
280
     0
102
RTVSPost2010PropOp34
 70
     1
102
RTVSPost2010Prop35
280
     0
102
RTVSPost2010PropOp35
 70
     1
102
RTVSPost2010Prop36
280
     0
102
RTVSPost2010PropOp36
 70
     1
102
RTVSPost2010Prop37
 90
       50
102
RTVSPost2010PropOp37
 70
     1
102
RTVSPost2010Prop38
140
0.0
102
RTVSPost2010PropOp38
 70
     1
102
RTVSPost2010Prop39
140
1.0
102
RTVSPost2010PropOp39
 70
     1
102
RTVSPost2010Prop40
 90
        0
102
RTVSPost2010PropOp40
 70
     1
102
RTVSPost2010Prop41ColorIndex
 90
       18
102
RTVSPost2010Prop41ColorRGB
 90
        0
102
RTVSPost2010PropOp41
 70
     1
102
RTVSPost2010Prop42
 90
       50
102
RTVSPost2010PropOp42
 70
     1
102
RTVSPost2010Prop43
 90
        3
102
RTVSPost2010PropOp43
 70
     1
102
RTVSPost2010Prop44ColorIndex
 90
        5
102
RTVSPost2010Prop44ColorRGB
 90
      255
102
RTVSPost2010PropOp44
 70
     1
102
RTVSPost2010Prop45
280
     0
102
RTVSPost2010PropOp45
 70
     1
102
RTVSPost2010Prop46
 90
       50
102
RTVSPost2010PropOp46
 70
     1
102
RTVSPost2010Prop47
 90
       50
102
RTVSPost2010PropOp47
 70
     1
102
RTVSPost2010Prop48
 90
       50
102
RTVSPost2010PropOp48
 70
     1
102
RTVSPost2010Prop49
280
     0
102
RTVSPost2010PropOp49
 70
     1
102
RTVSPost2010Prop50
 90
       50
102
RTVSPost2010PropOp50
 70
     1
102
RTVSPost2010Prop51ColorIndex
 90
      256
102
RTVSPost2010Prop51ColorRGB
 90
-16777216
102
RTVSPost2010PropOp51
 70
     0
102
RTVSPost2010Prop52
140
1.0
102
RTVSPost2010PropOp52
 70
     0
102
RTVSPost2010Prop53
 90
        2
102
RTVSPost2010PropOp53
 70
     1
102
RTVSPost2010Prop54
  1
strokes_ogs.tif
102
RTVSPost2010PropOp54
 70
     1
102
RTVSPost2010Prop55
280
     0
102
RTVSPost2010PropOp55
 70
     1
102
RTVSPost2010Prop56
140
1.0
102
RTVSPost2010PropOp56
 70
     1
102
RTVSPost2010Prop57
140
1.0
102
RTVSPost2010PropOp57
 70
     1
  0
XRECORD
  5
21B
102
{ACAD_REACTORS
330
21A
102
}
330
21A
100
AcDbXrecord
280
     1
102
RTVSPost2010Prop28
280
     0
102
RTVSPost2010PropOp28
 70
     1
102
RTVSPost2010Prop29
280
     1
102
RTVSPost2010PropOp29
 70
     1
102
RTVSPost2010Prop30
280
     1
102
RTVSPost2010PropOp30
 70
     1
102
RTVSPost2010Prop31
280
     0
102
RTVSPost2010PropOp31
 70
     1
102
RTVSPost2010Prop32
280
     0
102
RTVSPost2010PropOp32
 70
     1
102
RTVSPost2010Prop33
280
     0
102
RTVSPost2010PropOp33
 70
     1
102
RTVSPost2010Prop34
280
     0
102
RTVSPost2010PropOp34
 70
     1
102
RTVSPost2010Prop35
280
     0
102
RTVSPost2010PropOp35
 70
     1
102
RTVSPost2010Prop36
280
     0
102
RTVSPost2010PropOp36
 70
     1
102
RTVSPost2010Prop37
 90
       50
102
RTVSPost2010PropOp37
 70
     1
102
RTVSPost2010Prop38
140
0.0
102
RTVSPost2010PropOp38
 70
     1
102
RTVSPost2010Prop39
140
1.0
102
RTVSPost2010PropOp39
 70
     1
102
RTVSPost2010Prop40
 90
        0
102
RTVSPost2010PropOp40
 70
     1
102
RTVSPost2010Prop41ColorIndex
 90
       18
102
RTVSPost2010Prop41ColorRGB
 90
        0
102
RTVSPost2010PropOp41
 70
     1
102
RTVSPost2010Prop42
 90
       50
102
RTVSPost2010PropOp42
 70
     1
102
RTVSPost2010Prop43
 90
        3
102
RTVSPost2010PropOp43
 70
     1
102
RTVSPost2010Prop44ColorIndex
 90
        5
102
RTVSPost2010Prop44ColorRGB
 90
      255
102
RTVSPost2010PropOp44
 70
     1
102
RTVSPost2010Prop45
280
     0
102
RTVSPost2010PropOp45
 70
     1
102
RTVSPost2010Prop46
 90
       50
102
RTVSPost2010PropOp46
 70
     1
102
RTVSPost2010Prop47
 90
       50
102
RTVSPost2010PropOp47
 70
     1
102
RTVSPost2010Prop48
 90
       50
102
RTVSPost2010PropOp48
 70
     1
102
RTVSPost2010Prop49
280
     0
102
RTVSPost2010PropOp49
 70
     1
102
RTVSPost2010Prop50
 90
       50
102
RTVSPost2010PropOp50
 70
     1
102
RTVSPost2010Prop51ColorIndex
 90
      256
102
RTVSPost2010Prop51ColorRGB
 90
-16777216
102
RTVSPost2010PropOp51
 70
     0
102
RTVSPost2010Prop52
140
1.0
102
RTVSPost2010PropOp52
 70
     0
102
RTVSPost2010Prop53
 90
        2
102
RTVSPost2010PropOp53
 70
     1
102
RTVSPost2010Prop54
  1
strokes_ogs.tif
102
RTVSPost2010PropOp54
 70
     1
102
RTVSPost2010Prop55
280
     0
102
RTVSPost2010PropOp55
 70
     1
102
RTVSPost2010Prop56
140
1.0
102
RTVSPost2010PropOp56
 70
     1
102
RTVSPost2010Prop57
140
1.0
102
RTVSPost2010PropOp57
 70
     1
  0
XRECORD
  5
20F
102
{ACAD_REACTORS
330
20E
102
}
330
20E
100
AcDbXrecord
280
     1
102
RTVSPost2010Prop28
280
     0
102
RTVSPost2010PropOp28
 70
     1
102
RTVSPost2010Prop29
280
     1
102
RTVSPost2010PropOp29
 70
     1
102
RTVSPost2010Prop30
280
     1
102
RTVSPost2010PropOp30
 70
     1
102
RTVSPost2010Prop31
280
     0
102
RTVSPost2010PropOp31
 70
     1
102
RTVSPost2010Prop32
280
     0
102
RTVSPost2010PropOp32
 70
     1
102
RTVSPost2010Prop33
280
     0
102
RTVSPost2010PropOp33
 70
     1
102
RTVSPost2010Prop34
280
     0
102
RTVSPost2010PropOp34
 70
     1
102
RTVSPost2010Prop35
280
     0
102
RTVSPost2010PropOp35
 70
     1
102
RTVSPost2010Prop36
280
     0
102
RTVSPost2010PropOp36
 70
     1
102
RTVSPost2010Prop37
 90
       50
102
RTVSPost2010PropOp37
 70
     1
102
RTVSPost2010Prop38
140
0.0
102
RTVSPost2010PropOp38
 70
     1
102
RTVSPost2010Prop39
140
1.0
102
RTVSPost2010PropOp39
 70
     1
102
RTVSPost2010Prop40
 90
        0
102
RTVSPost2010PropOp40
 70
     1
102
RTVSPost2010Prop41ColorIndex
 90
       18
102
RTVSPost2010Prop41ColorRGB
 90
        0
102
RTVSPost2010PropOp41
 70
     1
102
RTVSPost2010Prop42
 90
       50
102
RTVSPost2010PropOp42
 70
     1
102
RTVSPost2010Prop43
 90
        3
102
RTVSPost2010PropOp43
 70
     1
102
RTVSPost2010Prop44ColorIndex
 90
        5
102
RTVSPost2010Prop44ColorRGB
 90
      255
102
RTVSPost2010PropOp44
 70
     1
102
RTVSPost2010Prop45
280
     0
102
RTVSPost2010PropOp45
 70
     1
102
RTVSPost2010Prop46
 90
       50
102
RTVSPost2010PropOp46
 70
     1
102
RTVSPost2010Prop47
 90
       50
102
RTVSPost2010PropOp47
 70
     1
102
RTVSPost2010Prop48
 90
       50
102
RTVSPost2010PropOp48
 70
     1
102
RTVSPost2010Prop49
280
     0
102
RTVSPost2010PropOp49
 70
     1
102
RTVSPost2010Prop50
 90
       50
102
RTVSPost2010PropOp50
 70
     1
102
RTVSPost2010Prop51ColorIndex
 90
      256
102
RTVSPost2010Prop51ColorRGB
 90
-16777216
102
RTVSPost2010PropOp51
 70
     0
102
RTVSPost2010Prop52
140
1.0
102
RTVSPost2010PropOp52
 70
     0
102
RTVSPost2010Prop53
 90
        2
102
RTVSPost2010PropOp53
 70
     1
102
RTVSPost2010Prop54
  1
strokes_ogs.tif
102
RTVSPost2010PropOp54
 70
     1
102
RTVSPost2010Prop55
280
     0
102
RTVSPost2010PropOp55
 70
     1
102
RTVSPost2010Prop56
140
1.0
102
RTVSPost2010PropOp56
 70
     1
102
RTVSPost2010Prop57
140
1.0
102
RTVSPost2010PropOp57
 70
     1
  0
XRECORD
  5
211
102
{ACAD_REACTORS
330
210
102
}
330
210
100
AcDbXrecord
280
     1
102
RTVSPost2010Prop28
280
     0
102
RTVSPost2010PropOp28
 70
     1
102
RTVSPost2010Prop29
280
     1
102
RTVSPost2010PropOp29
 70
     1
102
RTVSPost2010Prop30
280
     1
102
RTVSPost2010PropOp30
 70
     1
102
RTVSPost2010Prop31
280
     0
102
RTVSPost2010PropOp31
 70
     1
102
RTVSPost2010Prop32
280
     0
102
RTVSPost2010PropOp32
 70
     1
102
RTVSPost2010Prop33
280
     0
102
RTVSPost2010PropOp33
 70
     1
102
RTVSPost2010Prop34
280
     0
102
RTVSPost2010PropOp34
 70
     1
102
RTVSPost2010Prop35
280
     0
102
RTVSPost2010PropOp35
 70
     1
102
RTVSPost2010Prop36
280
     0
102
RTVSPost2010PropOp36
 70
     1
102
RTVSPost2010Prop37
 90
       50
102
RTVSPost2010PropOp37
 70
     1
102
RTVSPost2010Prop38
140
0.0
102
RTVSPost2010PropOp38
 70
     1
102
RTVSPost2010Prop39
140
1.0
102
RTVSPost2010PropOp39
 70
     1
102
RTVSPost2010Prop40
 90
        0
102
RTVSPost2010PropOp40
 70
     1
102
RTVSPost2010Prop41ColorIndex
 90
       18
102
RTVSPost2010Prop41ColorRGB
 90
        0
102
RTVSPost2010PropOp41
 70
     1
102
RTVSPost2010Prop42
 90
       50
102
RTVSPost2010PropOp42
 70
     1
102
RTVSPost2010Prop43
 90
        3
102
RTVSPost2010PropOp43
 70
     1
102
RTVSPost2010Prop44ColorIndex
 90
        5
102
RTVSPost2010Prop44ColorRGB
 90
      255
102
RTVSPost2010PropOp44
 70
     1
102
RTVSPost2010Prop45
280
     0
102
RTVSPost2010PropOp45
 70
     1
102
RTVSPost2010Prop46
 90
       50
102
RTVSPost2010PropOp46
 70
     1
102
RTVSPost2010Prop47
 90
       50
102
RTVSPost2010PropOp47
 70
     1
102
RTVSPost2010Prop48
 90
       50
102
RTVSPost2010PropOp48
 70
     1
102
RTVSPost2010Prop49
280
     0
102
RTVSPost2010PropOp49
 70
     1
102
RTVSPost2010Prop50
 90
       50
102
RTVSPost2010PropOp50
 70
     1
102
RTVSPost2010Prop51ColorIndex
 90
      256
102
RTVSPost2010Prop51ColorRGB
 90
-16777216
102
RTVSPost2010PropOp51
 70
     0
102
RTVSPost2010Prop52
140
1.0
102
RTVSPost2010PropOp52
 70
     0
102
RTVSPost2010Prop53
 90
        2
102
RTVSPost2010PropOp53
 70
     1
102
RTVSPost2010Prop54
  1
strokes_ogs.tif
102
RTVSPost2010PropOp54
 70
     1
102
RTVSPost2010Prop55
280
     0
102
RTVSPost2010PropOp55
 70
     1
102
RTVSPost2010Prop56
140
1.0
102
RTVSPost2010PropOp56
 70
     1
102
RTVSPost2010Prop57
140
1.0
102
RTVSPost2010PropOp57
 70
     1
  0
XRECORD
  5
221
102
{ACAD_REACTORS
330
220
102
}
330
220
100
AcDbXrecord
280
     1
102
RTVSPost2010Prop28
280
     0
102
RTVSPost2010PropOp28
 70
     0
102
RTVSPost2010Prop29
280
     1
102
RTVSPost2010PropOp29
 70
     0
102
RTVSPost2010Prop30
280
     1
102
RTVSPost2010PropOp30
 70
     0
102
RTVSPost2010Prop31
280
     0
102
RTVSPost2010PropOp31
 70
     0
102
RTVSPost2010Prop32
280
     0
102
RTVSPost2010PropOp32
 70
     0
102
RTVSPost2010Prop33
280
     0
102
RTVSPost2010PropOp33
 70
     0
102
RTVSPost2010Prop34
280
     0
102
RTVSPost2010PropOp34
 70
     0
102
RTVSPost2010Prop35
280
     0
102
RTVSPost2010PropOp35
 70
     0
102
RTVSPost2010Prop36
280
     0
102
RTVSPost2010PropOp36
 70
     0
102
RTVSPost2010Prop37
 90
       50
102
RTVSPost2010PropOp37
 70
     0
102
RTVSPost2010Prop38
140
0.0
102
RTVSPost2010PropOp38
 70
     0
102
RTVSPost2010Prop39
140
1.0
102
RTVSPost2010PropOp39
 70
     0
102
RTVSPost2010Prop40
 90
        0
102
RTVSPost2010PropOp40
 70
     0
102
RTVSPost2010Prop41ColorIndex
 90
       18
102
RTVSPost2010Prop41ColorRGB
 90
        0
102
RTVSPost2010PropOp41
 70
     0
102
RTVSPost2010Prop42
 90
       50
102
RTVSPost2010PropOp42
 70
     0
102
RTVSPost2010Prop43
 90
        3
102
RTVSPost2010PropOp43
 70
     0
102
RTVSPost2010Prop44ColorIndex
 90
        5
102
RTVSPost2010Prop44ColorRGB
 90
      255
102
RTVSPost2010PropOp44
 70
     0
102
RTVSPost2010Prop45
280
     0
102
RTVSPost2010PropOp45
 70
     0
102
RTVSPost2010Prop46
 90
       50
102
RTVSPost2010PropOp46
 70
     0
102
RTVSPost2010Prop47
 90
       50
102
RTVSPost2010PropOp47
 70
     0
102
RTVSPost2010Prop48
 90
       50
102
RTVSPost2010PropOp48
 70
     0
102
RTVSPost2010Prop49
280
     0
102
RTVSPost2010PropOp49
 70
     0
102
RTVSPost2010Prop50
 90
       50
102
RTVSPost2010PropOp50
 70
     0
102
RTVSPost2010Prop51ColorIndex
 90
      256
102
RTVSPost2010Prop51ColorRGB
 90
-16777216
102
RTVSPost2010PropOp51
 70
     0
102
RTVSPost2010Prop52
140
1.0
102
RTVSPost2010PropOp52
 70
     0
102
RTVSPost2010Prop53
 90
        2
102
RTVSPost2010PropOp53
 70
     0
102
RTVSPost2010Prop54
  1
strokes_ogs.tif
102
RTVSPost2010PropOp54
 70
     0
102
RTVSPost2010Prop55
280
     0
102
RTVSPost2010PropOp55
 70
     0
102
RTVSPost2010Prop56
140
1.0
102
RTVSPost2010PropOp56
 70
     0
102
RTVSPost2010Prop57
140
1.0
102
RTVSPost2010PropOp57
 70
     0
  0
XRECORD
  5
219
102
{ACAD_REACTORS
330
218
102
}
330
218
100
AcDbXrecord
280
     1
102
RTVSPost2010Prop28
280
     0
102
RTVSPost2010PropOp28
 70
     1
102
RTVSPost2010Prop29
280
     1
102
RTVSPost2010PropOp29
 70
     1
102
RTVSPost2010Prop30
280
     1
102
RTVSPost2010PropOp30
 70
     1
102
RTVSPost2010Prop31
280
     0
102
RTVSPost2010PropOp31
 70
     1
102
RTVSPost2010Prop32
280
     0
102
RTVSPost2010PropOp32
 70
     1
102
RTVSPost2010Prop33
280
     0
102
RTVSPost2010PropOp33
 70
     1
102
RTVSPost2010Prop34
280
     0
102
RTVSPost2010PropOp34
 70
     1
102
RTVSPost2010Prop35
280
     0
102
RTVSPost2010PropOp35
 70
     1
102
RTVSPost2010Prop36
280
     0
102
RTVSPost2010PropOp36
 70
     1
102
RTVSPost2010Prop37
 90
       50
102
RTVSPost2010PropOp37
 70
     1
102
RTVSPost2010Prop38
140
0.0
102
RTVSPost2010PropOp38
 70
     1
102
RTVSPost2010Prop39
140
1.0
102
RTVSPost2010PropOp39
 70
     1
102
RTVSPost2010Prop40
 90
        0
102
RTVSPost2010PropOp40
 70
     1
102
RTVSPost2010Prop41ColorIndex
 90
       18
102
RTVSPost2010Prop41ColorRGB
 90
        0
102
RTVSPost2010PropOp41
 70
     1
102
RTVSPost2010Prop42
 90
       50
102
RTVSPost2010PropOp42
 70
     1
102
RTVSPost2010Prop43
 90
        3
102
RTVSPost2010PropOp43
 70
     1
102
RTVSPost2010Prop44ColorIndex
 90
        5
102
RTVSPost2010Prop44ColorRGB
 90
      255
102
RTVSPost2010PropOp44
 70
     1
102
RTVSPost2010Prop45
280
     0
102
RTVSPost2010PropOp45
 70
     1
102
RTVSPost2010Prop46
 90
       50
102
RTVSPost2010PropOp46
 70
     1
102
RTVSPost2010Prop47
 90
       50
102
RTVSPost2010PropOp47
 70
     1
102
RTVSPost2010Prop48
 90
       50
102
RTVSPost2010PropOp48
 70
     1
102
RTVSPost2010Prop49
280
     0
102
RTVSPost2010PropOp49
 70
     1
102
RTVSPost2010Prop50
 90
       50
102
RTVSPost2010PropOp50
 70
     1
102
RTVSPost2010Prop51ColorIndex
 90
      256
102
RTVSPost2010Prop51ColorRGB
 90
-16777216
102
RTVSPost2010PropOp51
 70
     0
102
RTVSPost2010Prop52
140
1.0
102
RTVSPost2010PropOp52
 70
     0
102
RTVSPost2010Prop53
 90
        2
102
RTVSPost2010PropOp53
 70
     1
102
RTVSPost2010Prop54
  1
strokes_ogs.tif
102
RTVSPost2010PropOp54
 70
     1
102
RTVSPost2010Prop55
280
     0
102
RTVSPost2010PropOp55
 70
     1
102
RTVSPost2010Prop56
140
1.0
102
RTVSPost2010PropOp56
 70
     1
102
RTVSPost2010Prop57
140
1.0
102
RTVSPost2010PropOp57
 70
     1
  0
XRECORD
  5
1FD
102
{ACAD_REACTORS
330
1FC
102
}
330
1FC
100
AcDbXrecord
280
     1
102
RTVSPost2010Prop28
280
     0
102
RTVSPost2010PropOp28
 70
     1
102
RTVSPost2010Prop29
280
     1
102
RTVSPost2010PropOp29
 70
     1
102
RTVSPost2010Prop30
280
     1
102
RTVSPost2010PropOp30
 70
     1
102
RTVSPost2010Prop31
280
     0
102
RTVSPost2010PropOp31
 70
     1
102
RTVSPost2010Prop32
280
     0
102
RTVSPost2010PropOp32
 70
     1
102
RTVSPost2010Prop33
280
     0
102
RTVSPost2010PropOp33
 70
     1
102
RTVSPost2010Prop34
280
     0
102
RTVSPost2010PropOp34
 70
     1
102
RTVSPost2010Prop35
280
     0
102
RTVSPost2010PropOp35
 70
     1
102
RTVSPost2010Prop36
280
     0
102
RTVSPost2010PropOp36
 70
     1
102
RTVSPost2010Prop37
 90
       50
102
RTVSPost2010PropOp37
 70
     1
102
RTVSPost2010Prop38
140
0.0
102
RTVSPost2010PropOp38
 70
     1
102
RTVSPost2010Prop39
140
1.0
102
RTVSPost2010PropOp39
 70
     1
102
RTVSPost2010Prop40
 90
        0
102
RTVSPost2010PropOp40
 70
     1
102
RTVSPost2010Prop41ColorIndex
 90
       18
102
RTVSPost2010Prop41ColorRGB
 90
        0
102
RTVSPost2010PropOp41
 70
     1
102
RTVSPost2010Prop42
 90
       50
102
RTVSPost2010PropOp42
 70
     1
102
RTVSPost2010Prop43
 90
        3
102
RTVSPost2010PropOp43
 70
     1
102
RTVSPost2010Prop44ColorIndex
 90
        5
102
RTVSPost2010Prop44ColorRGB
 90
      255
102
RTVSPost2010PropOp44
 70
     1
102
RTVSPost2010Prop45
280
     0
102
RTVSPost2010PropOp45
 70
     1
102
RTVSPost2010Prop46
 90
       50
102
RTVSPost2010PropOp46
 70
     1
102
RTVSPost2010Prop47
 90
       50
102
RTVSPost2010PropOp47
 70
     1
102
RTVSPost2010Prop48
 90
       50
102
RTVSPost2010PropOp48
 70
     1
102
RTVSPost2010Prop49
280
     0
102
RTVSPost2010PropOp49
 70
     1
102
RTVSPost2010Prop50
 90
       50
102
RTVSPost2010PropOp50
 70
     1
102
RTVSPost2010Prop51ColorIndex
 90
      256
102
RTVSPost2010Prop51ColorRGB
 90
-16777216
102
RTVSPost2010PropOp51
 70
     0
102
RTVSPost2010Prop52
140
1.0
102
RTVSPost2010PropOp52
 70
     0
102
RTVSPost2010Prop53
 90
        2
102
RTVSPost2010PropOp53
 70
     1
102
RTVSPost2010Prop54
  1
strokes_ogs.tif
102
RTVSPost2010PropOp54
 70
     1
102
RTVSPost2010Prop55
280
     0
102
RTVSPost2010PropOp55
 70
     1
102
RTVSPost2010Prop56
140
1.0
102
RTVSPost2010PropOp56
 70
     1
102
RTVSPost2010Prop57
140
1.0
102
RTVSPost2010PropOp57
 70
     1
  0
XRECORD
  5
1FF
102
{ACAD_REACTORS
330
1FE
102
}
330
1FE
100
AcDbXrecord
280
     1
102
RTVSPost2010Prop28
280
     0
102
RTVSPost2010PropOp28
 70
     1
102
RTVSPost2010Prop29
280
     1
102
RTVSPost2010PropOp29
 70
     1
102
RTVSPost2010Prop30
280
     1
102
RTVSPost2010PropOp30
 70
     1
102
RTVSPost2010Prop31
280
     0
102
RTVSPost2010PropOp31
 70
     1
102
RTVSPost2010Prop32
280
     0
102
RTVSPost2010PropOp32
 70
     1
102
RTVSPost2010Prop33
280
     0
102
RTVSPost2010PropOp33
 70
     1
102
RTVSPost2010Prop34
280
     0
102
RTVSPost2010PropOp34
 70
     1
102
RTVSPost2010Prop35
280
     0
102
RTVSPost2010PropOp35
 70
     1
102
RTVSPost2010Prop36
280
     0
102
RTVSPost2010PropOp36
 70
     1
102
RTVSPost2010Prop37
 90
       50
102
RTVSPost2010PropOp37
 70
     1
102
RTVSPost2010Prop38
140
0.0
102
RTVSPost2010PropOp38
 70
     1
102
RTVSPost2010Prop39
140
1.0
102
RTVSPost2010PropOp39
 70
     1
102
RTVSPost2010Prop40
 90
        0
102
RTVSPost2010PropOp40
 70
     1
102
RTVSPost2010Prop41ColorIndex
 90
       18
102
RTVSPost2010Prop41ColorRGB
 90
        0
102
RTVSPost2010PropOp41
 70
     1
102
RTVSPost2010Prop42
 90
       50
102
RTVSPost2010PropOp42
 70
     1
102
RTVSPost2010Prop43
 90
        3
102
RTVSPost2010PropOp43
 70
     1
102
RTVSPost2010Prop44ColorIndex
 90
        5
102
RTVSPost2010Prop44ColorRGB
 90
      255
102
RTVSPost2010PropOp44
 70
     1
102
RTVSPost2010Prop45
280
     0
102
RTVSPost2010PropOp45
 70
     1
102
RTVSPost2010Prop46
 90
       50
102
RTVSPost2010PropOp46
 70
     1
102
RTVSPost2010Prop47
 90
       50
102
RTVSPost2010PropOp47
 70
     1
102
RTVSPost2010Prop48
 90
       50
102
RTVSPost2010PropOp48
 70
     1
102
RTVSPost2010Prop49
280
     0
102
RTVSPost2010PropOp49
 70
     1
102
RTVSPost2010Prop50
 90
       50
102
RTVSPost2010PropOp50
 70
     1
102
RTVSPost2010Prop51ColorIndex
 90
      256
102
RTVSPost2010Prop51ColorRGB
 90
-16777216
102
RTVSPost2010PropOp51
 70
     0
102
RTVSPost2010Prop52
140
1.0
102
RTVSPost2010PropOp52
 70
     0
102
RTVSPost2010Prop53
 90
        2
102
RTVSPost2010PropOp53
 70
     1
102
RTVSPost2010Prop54
  1
strokes_ogs.tif
102
RTVSPost2010PropOp54
 70
     1
102
RTVSPost2010Prop55
280
     0
102
RTVSPost2010PropOp55
 70
     1
102
RTVSPost2010Prop56
140
1.0
102
RTVSPost2010PropOp56
 70
     1
102
RTVSPost2010Prop57
140
1.0
102
RTVSPost2010PropOp57
 70
     1
  0
XRECORD
  5
201
102
{ACAD_REACTORS
330
200
102
}
330
200
100
AcDbXrecord
280
     1
102
RTVSPost2010Prop28
280
     0
102
RTVSPost2010PropOp28
 70
     1
102
RTVSPost2010Prop29
280
     1
102
RTVSPost2010PropOp29
 70
     1
102
RTVSPost2010Prop30
280
     1
102
RTVSPost2010PropOp30
 70
     1
102
RTVSPost2010Prop31
280
     0
102
RTVSPost2010PropOp31
 70
     1
102
RTVSPost2010Prop32
280
     0
102
RTVSPost2010PropOp32
 70
     1
102
RTVSPost2010Prop33
280
     0
102
RTVSPost2010PropOp33
 70
     1
102
RTVSPost2010Prop34
280
     0
102
RTVSPost2010PropOp34
 70
     1
102
RTVSPost2010Prop35
280
     0
102
RTVSPost2010PropOp35
 70
     1
102
RTVSPost2010Prop36
280
     0
102
RTVSPost2010PropOp36
 70
     1
102
RTVSPost2010Prop37
 90
       50
102
RTVSPost2010PropOp37
 70
     1
102
RTVSPost2010Prop38
140
0.0
102
RTVSPost2010PropOp38
 70
     1
102
RTVSPost2010Prop39
140
1.0
102
RTVSPost2010PropOp39
 70
     1
102
RTVSPost2010Prop40
 90
        0
102
RTVSPost2010PropOp40
 70
     1
102
RTVSPost2010Prop41ColorIndex
 90
       18
102
RTVSPost2010Prop41ColorRGB
 90
        0
102
RTVSPost2010PropOp41
 70
     1
102
RTVSPost2010Prop42
 90
       50
102
RTVSPost2010PropOp42
 70
     1
102
RTVSPost2010Prop43
 90
        3
102
RTVSPost2010PropOp43
 70
     1
102
RTVSPost2010Prop44ColorIndex
 90
        5
102
RTVSPost2010Prop44ColorRGB
 90
      255
102
RTVSPost2010PropOp44
 70
     1
102
RTVSPost2010Prop45
280
     0
102
RTVSPost2010PropOp45
 70
     1
102
RTVSPost2010Prop46
 90
       50
102
RTVSPost2010PropOp46
 70
     1
102
RTVSPost2010Prop47
 90
       50
102
RTVSPost2010PropOp47
 70
     1
102
RTVSPost2010Prop48
 90
       50
102
RTVSPost2010PropOp48
 70
     1
102
RTVSPost2010Prop49
280
     0
102
RTVSPost2010PropOp49
 70
     1
102
RTVSPost2010Prop50
 90
       50
102
RTVSPost2010PropOp50
 70
     1
102
RTVSPost2010Prop51ColorIndex
 90
      256
102
RTVSPost2010Prop51ColorRGB
 90
-16777216
102
RTVSPost2010PropOp51
 70
     0
102
RTVSPost2010Prop52
140
1.0
102
RTVSPost2010PropOp52
 70
     0
102
RTVSPost2010Prop53
 90
        2
102
RTVSPost2010PropOp53
 70
     1
102
RTVSPost2010Prop54
  1
strokes_ogs.tif
102
RTVSPost2010PropOp54
 70
     1
102
RTVSPost2010Prop55
280
     0
102
RTVSPost2010PropOp55
 70
     1
102
RTVSPost2010Prop56
140
1.0
102
RTVSPost2010PropOp56
 70
     1
102
RTVSPost2010Prop57
140
1.0
102
RTVSPost2010PropOp57
 70
     1
  0
XRECORD
  5
203
102
{ACAD_REACTORS
330
202
102
}
330
202
100
AcDbXrecord
280
     1
102
RTVSPost2010Prop28
280
     0
102
RTVSPost2010PropOp28
 70
     1
102
RTVSPost2010Prop29
280
     1
102
RTVSPost2010PropOp29
 70
     1
102
RTVSPost2010Prop30
280
     1
102
RTVSPost2010PropOp30
 70
     1
102
RTVSPost2010Prop31
280
     0
102
RTVSPost2010PropOp31
 70
     1
102
RTVSPost2010Prop32
280
     0
102
RTVSPost2010PropOp32
 70
     1
102
RTVSPost2010Prop33
280
     0
102
RTVSPost2010PropOp33
 70
     1
102
RTVSPost2010Prop34
280
     0
102
RTVSPost2010PropOp34
 70
     1
102
RTVSPost2010Prop35
280
     0
102
RTVSPost2010PropOp35
 70
     1
102
RTVSPost2010Prop36
280
     0
102
RTVSPost2010PropOp36
 70
     1
102
RTVSPost2010Prop37
 90
       50
102
RTVSPost2010PropOp37
 70
     1
102
RTVSPost2010Prop38
140
0.0
102
RTVSPost2010PropOp38
 70
     1
102
RTVSPost2010Prop39
140
1.0
102
RTVSPost2010PropOp39
 70
     1
102
RTVSPost2010Prop40
 90
        0
102
RTVSPost2010PropOp40
 70
     1
102
RTVSPost2010Prop41ColorIndex
 90
       18
102
RTVSPost2010Prop41ColorRGB
 90
        0
102
RTVSPost2010PropOp41
 70
     1
102
RTVSPost2010Prop42
 90
       50
102
RTVSPost2010PropOp42
 70
     1
102
RTVSPost2010Prop43
 90
        3
102
RTVSPost2010PropOp43
 70
     1
102
RTVSPost2010Prop44ColorIndex
 90
        5
102
RTVSPost2010Prop44ColorRGB
 90
      255
102
RTVSPost2010PropOp44
 70
     1
102
RTVSPost2010Prop45
280
     0
102
RTVSPost2010PropOp45
 70
     1
102
RTVSPost2010Prop46
 90
       50
102
RTVSPost2010PropOp46
 70
     1
102
RTVSPost2010Prop47
 90
       50
102
RTVSPost2010PropOp47
 70
     1
102
RTVSPost2010Prop48
 90
       50
102
RTVSPost2010PropOp48
 70
     1
102
RTVSPost2010Prop49
280
     0
102
RTVSPost2010PropOp49
 70
     1
102
RTVSPost2010Prop50
 90
       50
102
RTVSPost2010PropOp50
 70
     1
102
RTVSPost2010Prop51ColorIndex
 90
      256
102
RTVSPost2010Prop51ColorRGB
 90
-16777216
102
RTVSPost2010PropOp51
 70
     0
102
RTVSPost2010Prop52
140
1.0
102
RTVSPost2010PropOp52
 70
     0
102
RTVSPost2010Prop53
 90
        2
102
RTVSPost2010PropOp53
 70
     1
102
RTVSPost2010Prop54
  1
strokes_ogs.tif
102
RTVSPost2010PropOp54
 70
     1
102
RTVSPost2010Prop55
280
     0
102
RTVSPost2010PropOp55
 70
     1
102
RTVSPost2010Prop56
140
1.0
102
RTVSPost2010PropOp56
 70
     1
102
RTVSPost2010Prop57
140
1.0
102
RTVSPost2010PropOp57
 70
     1
  0
XRECORD
  5
209
102
{ACAD_REACTORS
330
208
102
}
330
208
100
AcDbXrecord
280
     1
102
RTVSPost2010Prop28
280
     0
102
RTVSPost2010PropOp28
 70
     1
102
RTVSPost2010Prop29
280
     1
102
RTVSPost2010PropOp29
 70
     1
102
RTVSPost2010Prop30
280
     1
102
RTVSPost2010PropOp30
 70
     1
102
RTVSPost2010Prop31
280
     0
102
RTVSPost2010PropOp31
 70
     1
102
RTVSPost2010Prop32
280
     0
102
RTVSPost2010PropOp32
 70
     1
102
RTVSPost2010Prop33
280
     0
102
RTVSPost2010PropOp33
 70
     1
102
RTVSPost2010Prop34
280
     0
102
RTVSPost2010PropOp34
 70
     1
102
RTVSPost2010Prop35
280
     0
102
RTVSPost2010PropOp35
 70
     1
102
RTVSPost2010Prop36
280
     0
102
RTVSPost2010PropOp36
 70
     1
102
RTVSPost2010Prop37
 90
       50
102
RTVSPost2010PropOp37
 70
     1
102
RTVSPost2010Prop38
140
0.0
102
RTVSPost2010PropOp38
 70
     1
102
RTVSPost2010Prop39
140
1.0
102
RTVSPost2010PropOp39
 70
     1
102
RTVSPost2010Prop40
 90
        0
102
RTVSPost2010PropOp40
 70
     1
102
RTVSPost2010Prop41ColorIndex
 90
       18
102
RTVSPost2010Prop41ColorRGB
 90
        0
102
RTVSPost2010PropOp41
 70
     1
102
RTVSPost2010Prop42
 90
       50
102
RTVSPost2010PropOp42
 70
     1
102
RTVSPost2010Prop43
 90
        3
102
RTVSPost2010PropOp43
 70
     1
102
RTVSPost2010Prop44ColorIndex
 90
        5
102
RTVSPost2010Prop44ColorRGB
 90
      255
102
RTVSPost2010PropOp44
 70
     1
102
RTVSPost2010Prop45
280
     0
102
RTVSPost2010PropOp45
 70
     1
102
RTVSPost2010Prop46
 90
       50
102
RTVSPost2010PropOp46
 70
     1
102
RTVSPost2010Prop47
 90
       50
102
RTVSPost2010PropOp47
 70
     1
102
RTVSPost2010Prop48
 90
       50
102
RTVSPost2010PropOp48
 70
     1
102
RTVSPost2010Prop49
280
     0
102
RTVSPost2010PropOp49
 70
     1
102
RTVSPost2010Prop50
 90
       50
102
RTVSPost2010PropOp50
 70
     1
102
RTVSPost2010Prop51ColorIndex
 90
      256
102
RTVSPost2010Prop51ColorRGB
 90
-16777216
102
RTVSPost2010PropOp51
 70
     0
102
RTVSPost2010Prop52
140
1.0
102
RTVSPost2010PropOp52
 70
     0
102
RTVSPost2010Prop53
 90
        2
102
RTVSPost2010PropOp53
 70
     1
102
RTVSPost2010Prop54
  1
strokes_ogs.tif
102
RTVSPost2010PropOp54
 70
     1
102
RTVSPost2010Prop55
280
     0
102
RTVSPost2010PropOp55
 70
     1
102
RTVSPost2010Prop56
140
1.0
102
RTVSPost2010PropOp56
 70
     1
102
RTVSPost2010Prop57
140
1.0
102
RTVSPost2010PropOp57
 70
     1
  0
XRECORD
  5
21D
102
{ACAD_REACTORS
330
21C
102
}
330
21C
100
AcDbXrecord
280
     1
102
RTVSPost2010Prop28
280
     0
102
RTVSPost2010PropOp28
 70
     0
102
RTVSPost2010Prop29
280
     1
102
RTVSPost2010PropOp29
 70
     0
102
RTVSPost2010Prop30
280
     1
102
RTVSPost2010PropOp30
 70
     0
102
RTVSPost2010Prop31
280
     0
102
RTVSPost2010PropOp31
 70
     0
102
RTVSPost2010Prop32
280
     0
102
RTVSPost2010PropOp32
 70
     0
102
RTVSPost2010Prop33
280
     0
102
RTVSPost2010PropOp33
 70
     0
102
RTVSPost2010Prop34
280
     0
102
RTVSPost2010PropOp34
 70
     0
102
RTVSPost2010Prop35
280
     0
102
RTVSPost2010PropOp35
 70
     0
102
RTVSPost2010Prop36
280
     0
102
RTVSPost2010PropOp36
 70
     0
102
RTVSPost2010Prop37
 90
       50
102
RTVSPost2010PropOp37
 70
     0
102
RTVSPost2010Prop38
140
0.0
102
RTVSPost2010PropOp38
 70
     0
102
RTVSPost2010Prop39
140
1.0
102
RTVSPost2010PropOp39
 70
     0
102
RTVSPost2010Prop40
 90
        0
102
RTVSPost2010PropOp40
 70
     0
102
RTVSPost2010Prop41ColorIndex
 90
       18
102
RTVSPost2010Prop41ColorRGB
 90
        0
102
RTVSPost2010PropOp41
 70
     0
102
RTVSPost2010Prop42
 90
       50
102
RTVSPost2010PropOp42
 70
     0
102
RTVSPost2010Prop43
 90
        3
102
RTVSPost2010PropOp43
 70
     0
102
RTVSPost2010Prop44ColorIndex
 90
        5
102
RTVSPost2010Prop44ColorRGB
 90
      255
102
RTVSPost2010PropOp44
 70
     0
102
RTVSPost2010Prop45
280
     0
102
RTVSPost2010PropOp45
 70
     0
102
RTVSPost2010Prop46
 90
       50
102
RTVSPost2010PropOp46
 70
     0
102
RTVSPost2010Prop47
 90
       50
102
RTVSPost2010PropOp47
 70
     0
102
RTVSPost2010Prop48
 90
       50
102
RTVSPost2010PropOp48
 70
     0
102
RTVSPost2010Prop49
280
     0
102
RTVSPost2010PropOp49
 70
     0
102
RTVSPost2010Prop50
 90
       50
102
RTVSPost2010PropOp50
 70
     0
102
RTVSPost2010Prop51ColorIndex
 90
      256
102
RTVSPost2010Prop51ColorRGB
 90
-16777216
102
RTVSPost2010PropOp51
 70
     0
102
RTVSPost2010Prop52
140
1.0
102
RTVSPost2010PropOp52
 70
     0
102
RTVSPost2010Prop53
 90
        2
102
RTVSPost2010PropOp53
 70
     0
102
RTVSPost2010Prop54
  1
strokes_ogs.tif
102
RTVSPost2010PropOp54
 70
     0
102
RTVSPost2010Prop55
280
     0
102
RTVSPost2010PropOp55
 70
     0
102
RTVSPost2010Prop56
140
1.0
102
RTVSPost2010PropOp56
 70
     0
102
RTVSPost2010Prop57
140
1.0
102
RTVSPost2010PropOp57
 70
     0
  0
XRECORD
  5
217
102
{ACAD_REACTORS
330
216
102
}
330
216
100
AcDbXrecord
280
     1
102
RTVSPost2010Prop28
280
     0
102
RTVSPost2010PropOp28
 70
     1
102
RTVSPost2010Prop29
280
     1
102
RTVSPost2010PropOp29
 70
     1
102
RTVSPost2010Prop30
280
     1
102
RTVSPost2010PropOp30
 70
     1
102
RTVSPost2010Prop31
280
     0
102
RTVSPost2010PropOp31
 70
     1
102
RTVSPost2010Prop32
280
     0
102
RTVSPost2010PropOp32
 70
     1
102
RTVSPost2010Prop33
280
     0
102
RTVSPost2010PropOp33
 70
     1
102
RTVSPost2010Prop34
280
     0
102
RTVSPost2010PropOp34
 70
     1
102
RTVSPost2010Prop35
280
     0
102
RTVSPost2010PropOp35
 70
     1
102
RTVSPost2010Prop36
280
     0
102
RTVSPost2010PropOp36
 70
     1
102
RTVSPost2010Prop37
 90
       50
102
RTVSPost2010PropOp37
 70
     1
102
RTVSPost2010Prop38
140
0.0
102
RTVSPost2010PropOp38
 70
     1
102
RTVSPost2010Prop39
140
1.0
102
RTVSPost2010PropOp39
 70
     1
102
RTVSPost2010Prop40
 90
        0
102
RTVSPost2010PropOp40
 70
     1
102
RTVSPost2010Prop41ColorIndex
 90
       18
102
RTVSPost2010Prop41ColorRGB
 90
        0
102
RTVSPost2010PropOp41
 70
     1
102
RTVSPost2010Prop42
 90
       50
102
RTVSPost2010PropOp42
 70
     1
102
RTVSPost2010Prop43
 90
        3
102
RTVSPost2010PropOp43
 70
     1
102
RTVSPost2010Prop44ColorIndex
 90
        5
102
RTVSPost2010Prop44ColorRGB
 90
      255
102
RTVSPost2010PropOp44
 70
     1
102
RTVSPost2010Prop45
280
     0
102
RTVSPost2010PropOp45
 70
     1
102
RTVSPost2010Prop46
 90
       50
102
RTVSPost2010PropOp46
 70
     1
102
RTVSPost2010Prop47
 90
       50
102
RTVSPost2010PropOp47
 70
     1
102
RTVSPost2010Prop48
 90
       50
102
RTVSPost2010PropOp48
 70
     1
102
RTVSPost2010Prop49
280
     0
102
RTVSPost2010PropOp49
 70
     1
102
RTVSPost2010Prop50
 90
       50
102
RTVSPost2010PropOp50
 70
     1
102
RTVSPost2010Prop51ColorIndex
 90
      256
102
RTVSPost2010Prop51ColorRGB
 90
-16777216
102
RTVSPost2010PropOp51
 70
     0
102
RTVSPost2010Prop52
140
1.0
102
RTVSPost2010PropOp52
 70
     0
102
RTVSPost2010Prop53
 90
        2
102
RTVSPost2010PropOp53
 70
     1
102
RTVSPost2010Prop54
  1
strokes_ogs.tif
102
RTVSPost2010PropOp54
 70
     1
102
RTVSPost2010Prop55
280
     0
102
RTVSPost2010PropOp55
 70
     1
102
RTVSPost2010Prop56
140
1.0
102
RTVSPost2010PropOp56
 70
     1
102
RTVSPost2010Prop57
140
1.0
102
RTVSPost2010PropOp57
 70
     1
  0
XRECORD
  5
21F
102
{ACAD_REACTORS
330
21E
102
}
330
21E
100
AcDbXrecord
280
     1
102
RTVSPost2010Prop28
280
     0
102
RTVSPost2010PropOp28
 70
     0
102
RTVSPost2010Prop29
280
     1
102
RTVSPost2010PropOp29
 70
     0
102
RTVSPost2010Prop30
280
     1
102
RTVSPost2010PropOp30
 70
     0
102
RTVSPost2010Prop31
280
     0
102
RTVSPost2010PropOp31
 70
     0
102
RTVSPost2010Prop32
280
     0
102
RTVSPost2010PropOp32
 70
     0
102
RTVSPost2010Prop33
280
     0
102
RTVSPost2010PropOp33
 70
     0
102
RTVSPost2010Prop34
280
     0
102
RTVSPost2010PropOp34
 70
     0
102
RTVSPost2010Prop35
280
     0
102
RTVSPost2010PropOp35
 70
     0
102
RTVSPost2010Prop36
280
     0
102
RTVSPost2010PropOp36
 70
     0
102
RTVSPost2010Prop37
 90
       50
102
RTVSPost2010PropOp37
 70
     0
102
RTVSPost2010Prop38
140
0.0
102
RTVSPost2010PropOp38
 70
     0
102
RTVSPost2010Prop39
140
1.0
102
RTVSPost2010PropOp39
 70
     0
102
RTVSPost2010Prop40
 90
        0
102
RTVSPost2010PropOp40
 70
     0
102
RTVSPost2010Prop41ColorIndex
 90
       18
102
RTVSPost2010Prop41ColorRGB
 90
        0
102
RTVSPost2010PropOp41
 70
     0
102
RTVSPost2010Prop42
 90
       50
102
RTVSPost2010PropOp42
 70
     0
102
RTVSPost2010Prop43
 90
        3
102
RTVSPost2010PropOp43
 70
     0
102
RTVSPost2010Prop44ColorIndex
 90
        5
102
RTVSPost2010Prop44ColorRGB
 90
      255
102
RTVSPost2010PropOp44
 70
     0
102
RTVSPost2010Prop45
280
     0
102
RTVSPost2010PropOp45
 70
     0
102
RTVSPost2010Prop46
 90
       50
102
RTVSPost2010PropOp46
 70
     0
102
RTVSPost2010Prop47
 90
       50
102
RTVSPost2010PropOp47
 70
     0
102
RTVSPost2010Prop48
 90
       50
102
RTVSPost2010PropOp48
 70
     0
102
RTVSPost2010Prop49
280
     0
102
RTVSPost2010PropOp49
 70
     0
102
RTVSPost2010Prop50
 90
       50
102
RTVSPost2010PropOp50
 70
     0
102
RTVSPost2010Prop51ColorIndex
 90
      256
102
RTVSPost2010Prop51ColorRGB
 90
-16777216
102
RTVSPost2010PropOp51
 70
     0
102
RTVSPost2010Prop52
140
1.0
102
RTVSPost2010PropOp52
 70
     0
102
RTVSPost2010Prop53
 90
        2
102
RTVSPost2010PropOp53
 70
     0
102
RTVSPost2010Prop54
  1
strokes_ogs.tif
102
RTVSPost2010PropOp54
 70
     0
102
RTVSPost2010Prop55
280
     0
102
RTVSPost2010PropOp55
 70
     0
102
RTVSPost2010Prop56
140
1.0
102
RTVSPost2010PropOp56
 70
     0
102
RTVSPost2010Prop57
140
1.0
102
RTVSPost2010PropOp57
 70
     0
  0
XRECORD
  5
20D
102
{ACAD_REACTORS
330
20C
102
}
330
20C
100
AcDbXrecord
280
     1
102
RTVSPost2010Prop28
280
     0
102
RTVSPost2010PropOp28
 70
     1
102
RTVSPost2010Prop29
280
     1
102
RTVSPost2010PropOp29
 70
     1
102
RTVSPost2010Prop30
280
     1
102
RTVSPost2010PropOp30
 70
     1
102
RTVSPost2010Prop31
280
     0
102
RTVSPost2010PropOp31
 70
     1
102
RTVSPost2010Prop32
280
     0
102
RTVSPost2010PropOp32
 70
     1
102
RTVSPost2010Prop33
280
     0
102
RTVSPost2010PropOp33
 70
     1
102
RTVSPost2010Prop34
280
     0
102
RTVSPost2010PropOp34
 70
     1
102
RTVSPost2010Prop35
280
     0
102
RTVSPost2010PropOp35
 70
     1
102
RTVSPost2010Prop36
280
     0
102
RTVSPost2010PropOp36
 70
     1
102
RTVSPost2010Prop37
 90
       50
102
RTVSPost2010PropOp37
 70
     1
102
RTVSPost2010Prop38
140
0.0
102
RTVSPost2010PropOp38
 70
     1
102
RTVSPost2010Prop39
140
1.0
102
RTVSPost2010PropOp39
 70
     1
102
RTVSPost2010Prop40
 90
        0
102
RTVSPost2010PropOp40
 70
     1
102
RTVSPost2010Prop41ColorIndex
 90
       18
102
RTVSPost2010Prop41ColorRGB
 90
        0
102
RTVSPost2010PropOp41
 70
     1
102
RTVSPost2010Prop42
 90
       50
102
RTVSPost2010PropOp42
 70
     1
102
RTVSPost2010Prop43
 90
        3
102
RTVSPost2010PropOp43
 70
     1
102
RTVSPost2010Prop44ColorIndex
 90
        5
102
RTVSPost2010Prop44ColorRGB
 90
      255
102
RTVSPost2010PropOp44
 70
     1
102
RTVSPost2010Prop45
280
     0
102
RTVSPost2010PropOp45
 70
     1
102
RTVSPost2010Prop46
 90
       50
102
RTVSPost2010PropOp46
 70
     1
102
RTVSPost2010Prop47
 90
       50
102
RTVSPost2010PropOp47
 70
     1
102
RTVSPost2010Prop48
 90
       50
102
RTVSPost2010PropOp48
 70
     1
102
RTVSPost2010Prop49
280
     0
102
RTVSPost2010PropOp49
 70
     1
102
RTVSPost2010Prop50
 90
       50
102
RTVSPost2010PropOp50
 70
     1
102
RTVSPost2010Prop51ColorIndex
 90
      256
102
RTVSPost2010Prop51ColorRGB
 90
-16777216
102
RTVSPost2010PropOp51
 70
     0
102
RTVSPost2010Prop52
140
1.0
102
RTVSPost2010PropOp52
 70
     0
102
RTVSPost2010Prop53
 90
        2
102
RTVSPost2010PropOp53
 70
     1
102
RTVSPost2010Prop54
  1
strokes_ogs.tif
102
RTVSPost2010PropOp54
 70
     1
102
RTVSPost2010Prop55
280
     0
102
RTVSPost2010PropOp55
 70
     1
102
RTVSPost2010Prop56
140
1.0
102
RTVSPost2010PropOp56
 70
     1
102
RTVSPost2010Prop57
140
1.0
102
RTVSPost2010PropOp57
 70
     1
  0
XRECORD
  5
22B
102
{ACAD_REACTORS
330
22A
102
}
330
22A
100
AcDbXrecord
280
     1
102
RTVSPost2010Prop28
280
     0
102
RTVSPost2010PropOp28
 70
     1
102
RTVSPost2010Prop29
280
     1
102
RTVSPost2010PropOp29
 70
     1
102
RTVSPost2010Prop30
280
     1
102
RTVSPost2010PropOp30
 70
     1
102
RTVSPost2010Prop31
280
     0
102
RTVSPost2010PropOp31
 70
     1
102
RTVSPost2010Prop32
280
     0
102
RTVSPost2010PropOp32
 70
     1
102
RTVSPost2010Prop33
280
     0
102
RTVSPost2010PropOp33
 70
     1
102
RTVSPost2010Prop34
280
     0
102
RTVSPost2010PropOp34
 70
     1
102
RTVSPost2010Prop35
280
     0
102
RTVSPost2010PropOp35
 70
     1
102
RTVSPost2010Prop36
280
     0
102
RTVSPost2010PropOp36
 70
     1
102
RTVSPost2010Prop37
 90
       50
102
RTVSPost2010PropOp37
 70
     1
102
RTVSPost2010Prop38
140
0.0
102
RTVSPost2010PropOp38
 70
     1
102
RTVSPost2010Prop39
140
1.0
102
RTVSPost2010PropOp39
 70
     1
102
RTVSPost2010Prop40
 90
        0
102
RTVSPost2010PropOp40
 70
     1
102
RTVSPost2010Prop41ColorIndex
 90
       18
102
RTVSPost2010Prop41ColorRGB
 90
        0
102
RTVSPost2010PropOp41
 70
     1
102
RTVSPost2010Prop42
 90
       50
102
RTVSPost2010PropOp42
 70
     1
102
RTVSPost2010Prop43
 90
        3
102
RTVSPost2010PropOp43
 70
     1
102
RTVSPost2010Prop44ColorIndex
 90
        5
102
RTVSPost2010Prop44ColorRGB
 90
      255
102
RTVSPost2010PropOp44
 70
     1
102
RTVSPost2010Prop45
280
     0
102
RTVSPost2010PropOp45
 70
     1
102
RTVSPost2010Prop46
 90
       50
102
RTVSPost2010PropOp46
 70
     1
102
RTVSPost2010Prop47
 90
       50
102
RTVSPost2010PropOp47
 70
     1
102
RTVSPost2010Prop48
 90
       50
102
RTVSPost2010PropOp48
 70
     1
102
RTVSPost2010Prop49
280
     0
102
RTVSPost2010PropOp49
 70
     1
102
RTVSPost2010Prop50
 90
       50
102
RTVSPost2010PropOp50
 70
     1
102
RTVSPost2010Prop51ColorIndex
 90
      256
102
RTVSPost2010Prop51ColorRGB
 90
-16777216
102
RTVSPost2010PropOp51
 70
     0
102
RTVSPost2010Prop52
140
1.0
102
RTVSPost2010PropOp52
 70
     0
102
RTVSPost2010Prop53
 90
        2
102
RTVSPost2010PropOp53
 70
     1
102
RTVSPost2010Prop54
  1
strokes_ogs.tif
102
RTVSPost2010PropOp54
 70
     1
102
RTVSPost2010Prop55
280
     0
102
RTVSPost2010PropOp55
 70
     1
102
RTVSPost2010Prop56
140
1.0
102
RTVSPost2010PropOp56
 70
     1
102
RTVSPost2010Prop57
140
1.0
102
RTVSPost2010PropOp57
 70
     1
  0
XRECORD
  5
229
102
{ACAD_REACTORS
330
228
102
}
330
228
100
AcDbXrecord
280
     1
102
RTVSPost2010Prop28
280
     0
102
RTVSPost2010PropOp28
 70
     1
102
RTVSPost2010Prop29
280
     1
102
RTVSPost2010PropOp29
 70
     1
102
RTVSPost2010Prop30
280
     1
102
RTVSPost2010PropOp30
 70
     1
102
RTVSPost2010Prop31
280
     0
102
RTVSPost2010PropOp31
 70
     1
102
RTVSPost2010Prop32
280
     0
102
RTVSPost2010PropOp32
 70
     1
102
RTVSPost2010Prop33
280
     0
102
RTVSPost2010PropOp33
 70
     1
102
RTVSPost2010Prop34
280
     0
102
RTVSPost2010PropOp34
 70
     1
102
RTVSPost2010Prop35
280
     0
102
RTVSPost2010PropOp35
 70
     1
102
RTVSPost2010Prop36
280
     0
102
RTVSPost2010PropOp36
 70
     1
102
RTVSPost2010Prop37
 90
       50
102
RTVSPost2010PropOp37
 70
     1
102
RTVSPost2010Prop38
140
0.0
102
RTVSPost2010PropOp38
 70
     1
102
RTVSPost2010Prop39
140
1.0
102
RTVSPost2010PropOp39
 70
     1
102
RTVSPost2010Prop40
 90
        0
102
RTVSPost2010PropOp40
 70
     1
102
RTVSPost2010Prop41ColorIndex
 90
       18
102
RTVSPost2010Prop41ColorRGB
 90
        0
102
RTVSPost2010PropOp41
 70
     1
102
RTVSPost2010Prop42
 90
       50
102
RTVSPost2010PropOp42
 70
     1
102
RTVSPost2010Prop43
 90
        3
102
RTVSPost2010PropOp43
 70
     1
102
RTVSPost2010Prop44ColorIndex
 90
        5
102
RTVSPost2010Prop44ColorRGB
 90
      255
102
RTVSPost2010PropOp44
 70
     1
102
RTVSPost2010Prop45
280
     0
102
RTVSPost2010PropOp45
 70
     1
102
RTVSPost2010Prop46
 90
       50
102
RTVSPost2010PropOp46
 70
     1
102
RTVSPost2010Prop47
 90
       50
102
RTVSPost2010PropOp47
 70
     1
102
RTVSPost2010Prop48
 90
       50
102
RTVSPost2010PropOp48
 70
     1
102
RTVSPost2010Prop49
280
     0
102
RTVSPost2010PropOp49
 70
     1
102
RTVSPost2010Prop50
 90
       50
102
RTVSPost2010PropOp50
 70
     1
102
RTVSPost2010Prop51ColorIndex
 90
      256
102
RTVSPost2010Prop51ColorRGB
 90
-16777216
102
RTVSPost2010PropOp51
 70
     0
102
RTVSPost2010Prop52
140
1.0
102
RTVSPost2010PropOp52
 70
     0
102
RTVSPost2010Prop53
 90
        2
102
RTVSPost2010PropOp53
 70
     1
102
RTVSPost2010Prop54
  1
strokes_ogs.tif
102
RTVSPost2010PropOp54
 70
     1
102
RTVSPost2010Prop55
280
     0
102
RTVSPost2010PropOp55
 70
     1
102
RTVSPost2010Prop56
140
1.0
102
RTVSPost2010PropOp56
 70
     1
102
RTVSPost2010Prop57
140
1.0
102
RTVSPost2010PropOp57
 70
     1
  0
XRECORD
  5
223
102
{ACAD_REACTORS
330
222
102
}
330
222
100
AcDbXrecord
280
     1
102
RTVSPost2010Prop28
280
     0
102
RTVSPost2010PropOp28
 70
     1
102
RTVSPost2010Prop29
280
     1
102
RTVSPost2010PropOp29
 70
     1
102
RTVSPost2010Prop30
280
     1
102
RTVSPost2010PropOp30
 70
     1
102
RTVSPost2010Prop31
280
     0
102
RTVSPost2010PropOp31
 70
     1
102
RTVSPost2010Prop32
280
     0
102
RTVSPost2010PropOp32
 70
     1
102
RTVSPost2010Prop33
280
     0
102
RTVSPost2010PropOp33
 70
     1
102
RTVSPost2010Prop34
280
     0
102
RTVSPost2010PropOp34
 70
     1
102
RTVSPost2010Prop35
280
     0
102
RTVSPost2010PropOp35
 70
     1
102
RTVSPost2010Prop36
280
     0
102
RTVSPost2010PropOp36
 70
     1
102
RTVSPost2010Prop37
 90
       50
102
RTVSPost2010PropOp37
 70
     1
102
RTVSPost2010Prop38
140
0.0
102
RTVSPost2010PropOp38
 70
     1
102
RTVSPost2010Prop39
140
1.0
102
RTVSPost2010PropOp39
 70
     1
102
RTVSPost2010Prop40
 90
        0
102
RTVSPost2010PropOp40
 70
     1
102
RTVSPost2010Prop41ColorIndex
 90
       18
102
RTVSPost2010Prop41ColorRGB
 90
        0
102
RTVSPost2010PropOp41
 70
     1
102
RTVSPost2010Prop42
 90
       50
102
RTVSPost2010PropOp42
 70
     1
102
RTVSPost2010Prop43
 90
        3
102
RTVSPost2010PropOp43
 70
     1
102
RTVSPost2010Prop44ColorIndex
 90
        5
102
RTVSPost2010Prop44ColorRGB
 90
      255
102
RTVSPost2010PropOp44
 70
     1
102
RTVSPost2010Prop45
280
     0
102
RTVSPost2010PropOp45
 70
     1
102
RTVSPost2010Prop46
 90
       50
102
RTVSPost2010PropOp46
 70
     1
102
RTVSPost2010Prop47
 90
       50
102
RTVSPost2010PropOp47
 70
     1
102
RTVSPost2010Prop48
 90
       50
102
RTVSPost2010PropOp48
 70
     1
102
RTVSPost2010Prop49
280
     0
102
RTVSPost2010PropOp49
 70
     1
102
RTVSPost2010Prop50
 90
       50
102
RTVSPost2010PropOp50
 70
     1
102
RTVSPost2010Prop51ColorIndex
 90
      256
102
RTVSPost2010Prop51ColorRGB
 90
-16777216
102
RTVSPost2010PropOp51
 70
     0
102
RTVSPost2010Prop52
140
1.0
102
RTVSPost2010PropOp52
 70
     0
102
RTVSPost2010Prop53
 90
        2
102
RTVSPost2010PropOp53
 70
     1
102
RTVSPost2010Prop54
  1
strokes_ogs.tif
102
RTVSPost2010PropOp54
 70
     1
102
RTVSPost2010Prop55
280
     0
102
RTVSPost2010PropOp55
 70
     1
102
RTVSPost2010Prop56
140
1.0
102
RTVSPost2010PropOp56
 70
     1
102
RTVSPost2010Prop57
140
1.0
102
RTVSPost2010PropOp57
 70
     1
  0
XRECORD
  5
225
102
{ACAD_REACTORS
330
224
102
}
330
224
100
AcDbXrecord
280
     1
102
RTVSPost2010Prop28
280
     0
102
RTVSPost2010PropOp28
 70
     1
102
RTVSPost2010Prop29
280
     1
102
RTVSPost2010PropOp29
 70
     1
102
RTVSPost2010Prop30
280
     1
102
RTVSPost2010PropOp30
 70
     1
102
RTVSPost2010Prop31
280
     0
102
RTVSPost2010PropOp31
 70
     1
102
RTVSPost2010Prop32
280
     0
102
RTVSPost2010PropOp32
 70
     1
102
RTVSPost2010Prop33
280
     0
102
RTVSPost2010PropOp33
 70
     1
102
RTVSPost2010Prop34
280
     0
102
RTVSPost2010PropOp34
 70
     1
102
RTVSPost2010Prop35
280
     0
102
RTVSPost2010PropOp35
 70
     1
102
RTVSPost2010Prop36
280
     0
102
RTVSPost2010PropOp36
 70
     1
102
RTVSPost2010Prop37
 90
       50
102
RTVSPost2010PropOp37
 70
     1
102
RTVSPost2010Prop38
140
0.0
102
RTVSPost2010PropOp38
 70
     1
102
RTVSPost2010Prop39
140
1.0
102
RTVSPost2010PropOp39
 70
     1
102
RTVSPost2010Prop40
 90
        0
102
RTVSPost2010PropOp40
 70
     1
102
RTVSPost2010Prop41ColorIndex
 90
       18
102
RTVSPost2010Prop41ColorRGB
 90
        0
102
RTVSPost2010PropOp41
 70
     1
102
RTVSPost2010Prop42
 90
       50
102
RTVSPost2010PropOp42
 70
     1
102
RTVSPost2010Prop43
 90
        3
102
RTVSPost2010PropOp43
 70
     1
102
RTVSPost2010Prop44ColorIndex
 90
        5
102
RTVSPost2010Prop44ColorRGB
 90
      255
102
RTVSPost2010PropOp44
 70
     1
102
RTVSPost2010Prop45
280
     0
102
RTVSPost2010PropOp45
 70
     1
102
RTVSPost2010Prop46
 90
       50
102
RTVSPost2010PropOp46
 70
     1
102
RTVSPost2010Prop47
 90
       50
102
RTVSPost2010PropOp47
 70
     1
102
RTVSPost2010Prop48
 90
       50
102
RTVSPost2010PropOp48
 70
     1
102
RTVSPost2010Prop49
280
     0
102
RTVSPost2010PropOp49
 70
     1
102
RTVSPost2010Prop50
 90
       50
102
RTVSPost2010PropOp50
 70
     1
102
RTVSPost2010Prop51ColorIndex
 90
      256
102
RTVSPost2010Prop51ColorRGB
 90
-16777216
102
RTVSPost2010PropOp51
 70
     0
102
RTVSPost2010Prop52
140
1.0
102
RTVSPost2010PropOp52
 70
     0
102
RTVSPost2010Prop53
 90
        2
102
RTVSPost2010PropOp53
 70
     1
102
RTVSPost2010Prop54
  1
strokes_ogs.tif
102
RTVSPost2010PropOp54
 70
     1
102
RTVSPost2010Prop55
280
     0
102
RTVSPost2010PropOp55
 70
     1
102
RTVSPost2010Prop56
140
1.0
102
RTVSPost2010PropOp56
 70
     1
102
RTVSPost2010Prop57
140
1.0
102
RTVSPost2010PropOp57
 70
     1
  0
XRECORD
  5
215
102
{ACAD_REACTORS
330
214
102
}
330
214
100
AcDbXrecord
280
     1
102
RTVSPost2010Prop28
280
     0
102
RTVSPost2010PropOp28
 70
     1
102
RTVSPost2010Prop29
280
     1
102
RTVSPost2010PropOp29
 70
     1
102
RTVSPost2010Prop30
280
     1
102
RTVSPost2010PropOp30
 70
     1
102
RTVSPost2010Prop31
280
     0
102
RTVSPost2010PropOp31
 70
     1
102
RTVSPost2010Prop32
280
     0
102
RTVSPost2010PropOp32
 70
     1
102
RTVSPost2010Prop33
280
     0
102
RTVSPost2010PropOp33
 70
     1
102
RTVSPost2010Prop34
280
     0
102
RTVSPost2010PropOp34
 70
     1
102
RTVSPost2010Prop35
280
     0
102
RTVSPost2010PropOp35
 70
     1
102
RTVSPost2010Prop36
280
     0
102
RTVSPost2010PropOp36
 70
     1
102
RTVSPost2010Prop37
 90
       50
102
RTVSPost2010PropOp37
 70
     1
102
RTVSPost2010Prop38
140
0.0
102
RTVSPost2010PropOp38
 70
     1
102
RTVSPost2010Prop39
140
1.0
102
RTVSPost2010PropOp39
 70
     1
102
RTVSPost2010Prop40
 90
        0
102
RTVSPost2010PropOp40
 70
     1
102
RTVSPost2010Prop41ColorIndex
 90
       18
102
RTVSPost2010Prop41ColorRGB
 90
        0
102
RTVSPost2010PropOp41
 70
     1
102
RTVSPost2010Prop42
 90
       50
102
RTVSPost2010PropOp42
 70
     1
102
RTVSPost2010Prop43
 90
        3
102
RTVSPost2010PropOp43
 70
     1
102
RTVSPost2010Prop44ColorIndex
 90
        5
102
RTVSPost2010Prop44ColorRGB
 90
      255
102
RTVSPost2010PropOp44
 70
     1
102
RTVSPost2010Prop45
280
     0
102
RTVSPost2010PropOp45
 70
     1
102
RTVSPost2010Prop46
 90
       50
102
RTVSPost2010PropOp46
 70
     1
102
RTVSPost2010Prop47
 90
       50
102
RTVSPost2010PropOp47
 70
     1
102
RTVSPost2010Prop48
 90
       50
102
RTVSPost2010PropOp48
 70
     1
102
RTVSPost2010Prop49
280
     0
102
RTVSPost2010PropOp49
 70
     1
102
RTVSPost2010Prop50
 90
       50
102
RTVSPost2010PropOp50
 70
     1
102
RTVSPost2010Prop51ColorIndex
 90
      256
102
RTVSPost2010Prop51ColorRGB
 90
-16777216
102
RTVSPost2010PropOp51
 70
     0
102
RTVSPost2010Prop52
140
1.0
102
RTVSPost2010PropOp52
 70
     0
102
RTVSPost2010Prop53
 90
        2
102
RTVSPost2010PropOp53
 70
     1
102
RTVSPost2010Prop54
  1
strokes_ogs.tif
102
RTVSPost2010PropOp54
 70
     1
102
RTVSPost2010Prop55
280
     0
102
RTVSPost2010PropOp55
 70
     1
102
RTVSPost2010Prop56
140
1.0
102
RTVSPost2010PropOp56
 70
     1
102
RTVSPost2010Prop57
140
1.0
102
RTVSPost2010PropOp57
 70
     1
  0
XRECORD
  5
207
102
{ACAD_REACTORS
330
206
102
}
330
206
100
AcDbXrecord
280
     1
102
RTVSPost2010Prop28
280
     0
102
RTVSPost2010PropOp28
 70
     1
102
RTVSPost2010Prop29
280
     1
102
RTVSPost2010PropOp29
 70
     1
102
RTVSPost2010Prop30
280
     1
102
RTVSPost2010PropOp30
 70
     1
102
RTVSPost2010Prop31
280
     0
102
RTVSPost2010PropOp31
 70
     1
102
RTVSPost2010Prop32
280
     0
102
RTVSPost2010PropOp32
 70
     1
102
RTVSPost2010Prop33
280
     0
102
RTVSPost2010PropOp33
 70
     1
102
RTVSPost2010Prop34
280
     0
102
RTVSPost2010PropOp34
 70
     1
102
RTVSPost2010Prop35
280
     0
102
RTVSPost2010PropOp35
 70
     1
102
RTVSPost2010Prop36
280
     0
102
RTVSPost2010PropOp36
 70
     1
102
RTVSPost2010Prop37
 90
       50
102
RTVSPost2010PropOp37
 70
     1
102
RTVSPost2010Prop38
140
0.0
102
RTVSPost2010PropOp38
 70
     1
102
RTVSPost2010Prop39
140
1.0
102
RTVSPost2010PropOp39
 70
     1
102
RTVSPost2010Prop40
 90
        0
102
RTVSPost2010PropOp40
 70
     1
102
RTVSPost2010Prop41ColorIndex
 90
       18
102
RTVSPost2010Prop41ColorRGB
 90
        0
102
RTVSPost2010PropOp41
 70
     1
102
RTVSPost2010Prop42
 90
       50
102
RTVSPost2010PropOp42
 70
     1
102
RTVSPost2010Prop43
 90
        3
102
RTVSPost2010PropOp43
 70
     1
102
RTVSPost2010Prop44ColorIndex
 90
        5
102
RTVSPost2010Prop44ColorRGB
 90
      255
102
RTVSPost2010PropOp44
 70
     1
102
RTVSPost2010Prop45
280
     0
102
RTVSPost2010PropOp45
 70
     1
102
RTVSPost2010Prop46
 90
       50
102
RTVSPost2010PropOp46
 70
     1
102
RTVSPost2010Prop47
 90
       50
102
RTVSPost2010PropOp47
 70
     1
102
RTVSPost2010Prop48
 90
       50
102
RTVSPost2010PropOp48
 70
     1
102
RTVSPost2010Prop49
280
     0
102
RTVSPost2010PropOp49
 70
     1
102
RTVSPost2010Prop50
 90
       50
102
RTVSPost2010PropOp50
 70
     1
102
RTVSPost2010Prop51ColorIndex
 90
      256
102
RTVSPost2010Prop51ColorRGB
 90
-16777216
102
RTVSPost2010PropOp51
 70
     0
102
RTVSPost2010Prop52
140
1.0
102
RTVSPost2010PropOp52
 70
     0
102
RTVSPost2010Prop53
 90
        2
102
RTVSPost2010PropOp53
 70
     1
102
RTVSPost2010Prop54
  1
strokes_ogs.tif
102
RTVSPost2010PropOp54
 70
     1
102
RTVSPost2010Prop55
280
     0
102
RTVSPost2010PropOp55
 70
     1
102
RTVSPost2010Prop56
140
1.0
102
RTVSPost2010PropOp56
 70
     1
102
RTVSPost2010Prop57
140
1.0
102
RTVSPost2010PropOp57
 70
     1
  0
XRECORD
  5
227
102
{ACAD_REACTORS
330
226
102
}
330
226
100
AcDbXrecord
280
     1
102
RTVSPost2010Prop28
280
     0
102
RTVSPost2010PropOp28
 70
     1
102
RTVSPost2010Prop29
280
     1
102
RTVSPost2010PropOp29
 70
     1
102
RTVSPost2010Prop30
280
     1
102
RTVSPost2010PropOp30
 70
     1
102
RTVSPost2010Prop31
280
     0
102
RTVSPost2010PropOp31
 70
     1
102
RTVSPost2010Prop32
280
     0
102
RTVSPost2010PropOp32
 70
     1
102
RTVSPost2010Prop33
280
     0
102
RTVSPost2010PropOp33
 70
     1
102
RTVSPost2010Prop34
280
     0
102
RTVSPost2010PropOp34
 70
     1
102
RTVSPost2010Prop35
280
     0
102
RTVSPost2010PropOp35
 70
     1
102
RTVSPost2010Prop36
280
     0
102
RTVSPost2010PropOp36
 70
     1
102
RTVSPost2010Prop37
 90
       50
102
RTVSPost2010PropOp37
 70
     1
102
RTVSPost2010Prop38
140
0.0
102
RTVSPost2010PropOp38
 70
     1
102
RTVSPost2010Prop39
140
1.0
102
RTVSPost2010PropOp39
 70
     1
102
RTVSPost2010Prop40
 90
        0
102
RTVSPost2010PropOp40
 70
     1
102
RTVSPost2010Prop41ColorIndex
 90
       18
102
RTVSPost2010Prop41ColorRGB
 90
        0
102
RTVSPost2010PropOp41
 70
     1
102
RTVSPost2010Prop42
 90
       50
102
RTVSPost2010PropOp42
 70
     1
102
RTVSPost2010Prop43
 90
        3
102
RTVSPost2010PropOp43
 70
     1
102
RTVSPost2010Prop44ColorIndex
 90
        5
102
RTVSPost2010Prop44ColorRGB
 90
      255
102
RTVSPost2010PropOp44
 70
     1
102
RTVSPost2010Prop45
280
     0
102
RTVSPost2010PropOp45
 70
     1
102
RTVSPost2010Prop46
 90
       50
102
RTVSPost2010PropOp46
 70
     1
102
RTVSPost2010Prop47
 90
       50
102
RTVSPost2010PropOp47
 70
     1
102
RTVSPost2010Prop48
 90
       50
102
RTVSPost2010PropOp48
 70
     1
102
RTVSPost2010Prop49
280
     0
102
RTVSPost2010PropOp49
 70
     1
102
RTVSPost2010Prop50
 90
       50
102
RTVSPost2010PropOp50
 70
     1
102
RTVSPost2010Prop51ColorIndex
 90
      256
102
RTVSPost2010Prop51ColorRGB
 90
-16777216
102
RTVSPost2010PropOp51
 70
     0
102
RTVSPost2010Prop52
140
1.0
102
RTVSPost2010PropOp52
 70
     0
102
RTVSPost2010Prop53
 90
        2
102
RTVSPost2010PropOp53
 70
     1
102
RTVSPost2010Prop54
  1
strokes_ogs.tif
102
RTVSPost2010PropOp54
 70
     1
102
RTVSPost2010Prop55
280
     0
102
RTVSPost2010PropOp55
 70
     1
102
RTVSPost2010Prop56
140
1.0
102
RTVSPost2010PropOp56
 70
     1
102
RTVSPost2010Prop57
140
1.0
102
RTVSPost2010PropOp57
 70
     1
  0
ENDSEC
  0
EOF
