  0
SECTION
  2
HEADER
  9
$ACADVER
  1
AC1024
  9
$ACADMAINTVER
 70
     6
  9
$DWGCODEPAGE
  3
ANSI_1252
  9
$INSBASE
 10
0.0
 20
0.0
 30
0.0
  9
$EXTMIN
 10
1.000000E+20
 20
1.000000E+20
 30
1.000000E+20
  9
$EXTMAX
 10
-1.000000E+20
 20
-1.000000E+20
 30
-1.000000E+20
  9
$LIMMIN
 10
0.0
 20
0.0
  9
$LIMMAX
 10
420.0
 20
297.0
  9
$ORTHOMODE
 70
     0
  9
$REGENMODE
 70
     1
  9
$FILLMODE
 70
     1
  9
$QTEXTMODE
 70
     0
  9
$MIRRTEXT
 70
     1
  9
$LTSCALE
 40
1.0
  9
$ATTMODE
 70
     1
  9
$TEXTSIZE
 40
2.5
  9
$TRACEWID
 40
1.0
  9
$TEXTSTYLE
  7
Standard
  9
$CLAYER
  8
0
  9
$CELTYPE
  6
ByLayer
  9
$CECOLOR
 62
   256
  9
$CELTSCALE
 40
1.0
  9
$DISPSILH
 70
     0
  9
$DIMSCALE
 40
1.0
  9
$DIMASZ
 40
2.5
  9
$DIMEXO
 40
0.625
  9
$DIMDLI
 40
3.75
  9
$DIMRND
 40
0.0
  9
$DIMDLE
 40
0.0
  9
$DIMEXE
 40
1.25
  9
$DIMTP
 40
0.0
  9
$DIMTM
 40
0.0
  9
$DIMTXT
 40
2.5
  9
$DIMCEN
 40
2.5
  9
$DIMTSZ
 40
0.0
  9
$DIMTOL
 70
     0
  9
$DIMLIM
 70
     0
  9
$DIMTIH
 70
     0
  9
$DIMTOH
 70
     0
  9
$DIMSE1
 70
     0
  9
$DIMSE2
 70
     0
  9
$DIMTAD
 70
     1
  9
$DIMZIN
 70
     8
  9
$DIMBLK
  1

  9
$DIMASO
 70
     1
  9
$DIMSHO
 70
     1
  9
$DIMPOST
  1

  9
$DIMAPOST
  1

  9
$DIMALT
 70
     0
  9
$DIMALTD
 70
     3
  9
$DIMALTF
 40
0.03937
  9
$DIMLFAC
 40
1.0
  9
$DIMTOFL
 70
     1
  9
$DIMTVP
 40
0.0
  9
$DIMTIX
 70
     0
  9
$DIMSOXD
 70
     0
  9
$DIMSAH
 70
     0
  9
$DIMBLK1
  1

  9
$DIMBLK2
  1

  9
$DIMSTYLE
  2
ISO-25
  9
$DIMCLRD
 70
     0
  9
$DIMCLRE
 70
     0
  9
$DIMCLRT
 70
     0
  9
$DIMTFAC
 40
1.0
  9
$DIMGAP
 40
0.625
  9
$DIMJUST
 70
     0
  9
$DIMSD1
 70
     0
  9
$DIMSD2
 70
     0
  9
$DIMTOLJ
 70
     0
  9
$DIMTZIN
 70
     8
  9
$DIMALTZ
 70
     0
  9
$DIMALTTZ
 70
     0
  9
$DIMUPT
 70
     0
  9
$DIMDEC
 70
     2
  9
$DIMTDEC
 70
     2
  9
$DIMALTU
 70
     2
  9
$DIMALTTD
 70
     3
  9
$DIMTXSTY
  7
Standard
  9
$DIMAUNIT
 70
     0
  9
$DIMADEC
 70
     0
  9
$DIMALTRND
 40
0.0
  9
$DIMAZIN
 70
     0
  9
$DIMDSEP
 70
    44
  9
$DIMATFIT
 70
     3
  9
$DIMFRAC
 70
     0
  9
$DIMLDRBLK
  1

  9
$DIMLUNIT
 70
     2
  9
$DIMLWD
 70
    -2
  9
$DIMLWE
 70
    -2
  9
$DIMTMOVE
 70
     0
  9
$DIMFXL
 40
1.0
  9
$DIMFXLON
 70
     0
  9
$DIMJOGANG
 40
0.785398
  9
$DIMTFILL
 70
     0
  9
$DIMTFILLCLR
 70
     0
  9
$DIMARCSYM
 70
     0
  9
$DIMLTYPE
  6

  9
$DIMLTEX1
  6

  9
$DIMLTEX2
  6

  9
$DIMTXTDIRECTION
 70
     0
  9
$LUNITS
 70
     2
  9
$LUPREC
 70
     4
  9
$SKETCHINC
 40
1.0
  9
$FILLETRAD
 40
10.0
  9
$AUNITS
 70
     0
  9
$AUPREC
 70
     0
  9
$MENU
  1
.
  9
$ELEVATION
 40
0.0
  9
$PELEVATION
 40
0.0
  9
$THICKNESS
 40
0.0
  9
$LIMCHECK
 70
     0
  9
$CHAMFERA
 40
0.0
  9
$CHAMFERB
 40
0.0
  9
$CHAMFERC
 40
0.0
  9
$CHAMFERD
 40
0.0
  9
$SKPOLY
 70
     0
  9
$TDCREATE
 40
2458638.676274328
  9
$TDUCREATE
 40
2458638.592940995
  9
$TDUPDATE
 40
2458638.676275069
  9
$TDUUPDATE
 40
2458638.592941736
  9
$TDINDWG
 40
0.0000000116
  9
$TDUSRTIMER
 40
0.0000000116
  9
$USRTIMER
 70
     1
  9
$ANGBASE
 50
0.0
  9
$ANGDIR
 70
     0
  9
$PDMODE
 70
     0
  9
$PDSIZE
 40
0.0
  9
$PLINEWID
 40
0.0
  9
$SPLFRAME
 70
     0
  9
$SPLINETYPE
 70
     6
  9
$SPLINESEGS
 70
     8
  9
$HANDSEED
  5
23D
  9
$SURFTAB1
 70
     6
  9
$SURFTAB2
 70
     6
  9
$SURFTYPE
 70
     6
  9
$SURFU
 70
     6
  9
$SURFV
 70
     6
  9
$UCSBASE
  2

  9
$UCSNAME
  2

  9
$UCSORG
 10
0.0
 20
0.0
 30
0.0
  9
$UCSXDIR
 10
1.0
 20
0.0
 30
0.0
  9
$UCSYDIR
 10
0.0
 20
1.0
 30
0.0
  9
$UCSORTHOREF
  2

  9
$UCSORTHOVIEW
 70
     0
  9
$UCSORGTOP
 10
0.0
 20
0.0
 30
0.0
  9
$UCSORGBOTTOM
 10
0.0
 20
0.0
 30
0.0
  9
$UCSORGLEFT
 10
0.0
 20
0.0
 30
0.0
  9
$UCSORGRIGHT
 10
0.0
 20
0.0
 30
0.0
  9
$UCSORGFRONT
 10
0.0
 20
0.0
 30
0.0
  9
$UCSORGBACK
 10
0.0
 20
0.0
 30
0.0
  9
$PUCSBASE
  2

  9
$PUCSNAME
  2

  9
$PUCSORG
 10
0.0
 20
0.0
 30
0.0
  9
$PUCSXDIR
 10
1.0
 20
0.0
 30
0.0
  9
$PUCSYDIR
 10
0.0
 20
1.0
 30
0.0
  9
$PUCSORTHOREF
  2

  9
$PUCSORTHOVIEW
 70
     0
  9
$PUCSORGTOP
 10
0.0
 20
0.0
 30
0.0
  9
$PUCSORGBOTTOM
 10
0.0
 20
0.0
 30
0.0
  9
$PUCSORGLEFT
 10
0.0
 20
0.0
 30
0.0
  9
$PUCSORGRIGHT
 10
0.0
 20
0.0
 30
0.0
  9
$PUCSORGFRONT
 10
0.0
 20
0.0
 30
0.0
  9
$PUCSORGBACK
 10
0.0
 20
0.0
 30
0.0
  9
$USERI1
 70
     0
  9
$USERI2
 70
     0
  9
$USERI3
 70
     0
  9
$USERI4
 70
     0
  9
$USERI5
 70
     0
  9
$USERR1
 40
0.0
  9
$USERR2
 40
0.0
  9
$USERR3
 40
0.0
  9
$USERR4
 40
0.0
  9
$USERR5
 40
0.0
  9
$WORLDVIEW
 70
     1
  9
$SHADEDGE
 70
     3
  9
$SHADEDIF
 70
    70
  9
$TILEMODE
 70
     1
  9
$MAXACTVP
 70
    64
  9
$PINSBASE
 10
0.0
 20
0.0
 30
0.0
  9
$PLIMCHECK
 70
     0
  9
$PEXTMIN
 10
1.000000E+20
 20
1.000000E+20
 30
1.000000E+20
  9
$PEXTMAX
 10
-1.000000E+20
 20
-1.000000E+20
 30
-1.000000E+20
  9
$PLIMMIN
 10
0.0
 20
0.0
  9
$PLIMMAX
 10
420.0
 20
297.0
  9
$UNITMODE
 70
     0
  9
$VISRETAIN
 70
     1
  9
$PLINEGEN
 70
     0
  9
$PSLTSCALE
 70
     1
  9
$TREEDEPTH
 70
  3020
  9
$CMLSTYLE
  2
Standard
  9
$CMLJUST
 70
     0
  9
$CMLSCALE
 40
20.0
  9
$PROXYGRAPHICS
 70
     1
  9
$MEASUREMENT
 70
     1
  9
$CELWEIGHT
370
    -1
  9
$ENDCAPS
280
     0
  9
$JOINSTYLE
280
     0
  9
$LWDISPLAY
290
     0
  9
$INSUNITS
 70
     4
  9
$HYPERLINKBASE
  1

  9
$STYLESHEET
  1

  9
$XEDIT
290
     1
  9
$CEPSNTYPE
380
     0
  9
$PSTYLEMODE
290
     1
  9
$FINGERPRINTGUID
  2
{06E1B688-C3D5-48E2-8F33-D261C4BE1FF6}
  9
$VERSIONGUID
  2
{FAEB1C32-E019-11D5-929B-00C0DF256EC4}
  9
$EXTNAMES
290
     1
  9
$PSVPSCALE
 40
0.0
  9
$OLESTARTUP
290
     0
  9
$SORTENTS
280
   127
  9
$INDEXCTL
280
     0
  9
$HIDETEXT
280
     1
  9
$XCLIPFRAME
280
     2
  9
$HALOGAP
280
     0
  9
$OBSCOLOR
 70
   257
  9
$OBSLTYPE
280
     0
  9
$INTERSECTIONDISPLAY
280
     0
  9
$INTERSECTIONCOLOR
 70
   257
  9
$DIMASSOC
280
     2
  9
$PROJECTNAME
  1

  9
$CAMERADISPLAY
290
     0
  9
$LENSLENGTH
 40
50.0
  9
$CAMERAHEIGHT
 40
0.0
  9
$STEPSPERSEC
 40
2.0
  9
$STEPSIZE
 40
6.0
  9
$3DDWFPREC
 40
2.0
  9
$PSOLWIDTH
 40
5.0
  9
$PSOLHEIGHT
 40
80.0
  9
$LOFTANG1
 40
1.570796
  9
$LOFTANG2
 40
1.570796
  9
$LOFTMAG1
 40
0.0
  9
$LOFTMAG2
 40
0.0
  9
$LOFTPARAM
 70
     7
  9
$LOFTNORMALS
280
     1
  9
$LATITUDE
 40
37.795
  9
$LONGITUDE
 40
-122.394
  9
$NORTHDIRECTION
 40
0.0
  9
$TIMEZONE
 70
 -8000
  9
$LIGHTGLYPHDISPLAY
280
     1
  9
$TILEMODELIGHTSYNCH
280
     1
  9
$CMATERIAL
347
44
  9
$SOLIDHIST
280
     0
  9
$SHOWHIST
280
     1
  9
$DWFFRAME
280
     2
  9
$DGNFRAME
280
     2
  9
$REALWORLDSCALE
290
     1
  9
$INTERFERECOLOR
 62
   256
  9
$CSHADOW
280
     0
  9
$SHADOWPLANELOCATION
 40
0.0
  0
ENDSEC
  0
SECTION
  2
CLASSES
  0
CLASS
  1
ACDBDICTIONARYWDFLT
  2
AcDbDictionaryWithDefault
  3
ObjectDBX Classes
 90
        0
 91
        4
280
     0
281
     0
  0
CLASS
  1
VISUALSTYLE
  2
AcDbVisualStyle
  3
ObjectDBX Classes
 90
     4095
 91
        4
280
     0
281
     0
  0
CLASS
  1
MATERIAL
  2
AcDbMaterial
  3
ObjectDBX Classes
 90
     1153
 91
        4
280
     0
281
     0
  0
CLASS
  1
SCALE
  2
AcDbScale
  3
ObjectDBX Classes
 90
     1153
 91
        4
280
     0
281
     0
  0
CLASS
  1
TABLESTYLE
  2
AcDbTableStyle
  3
ObjectDBX Classes
 90
     4095
 91
        4
280
     0
281
     0
  0
CLASS
  1
MLEADERSTYLE
  2
AcDbMLeaderStyle
  3
ACDB_MLEADERSTYLE_CLASS
 90
     4095
 91
        4
280
     0
281
     0
  0
CLASS
  1
SUN
  2
AcDbSun
  3
SCENEOE
 90
     1153
 91
        4
280
     0
281
     0
  0
CLASS
  1
DICTIONARYVAR
  2
AcDbDictionaryVar
  3
ObjectDBX Classes
 90
        0
 91
        4
280
     0
281
     0
  0
CLASS
  1
CELLSTYLEMAP
  2
AcDbCellStyleMap
  3
ObjectDBX Classes
 90
     1152
 91
        4
280
     0
281
     0
  0
ENDSEC
  0
SECTION
  2
TABLES
  0
TABLE
  2
VPORT
  5
8
330
0
100
AcDbSymbolTable
 70
     1
  0
VPORT
  5
29
330
8
100
AcDbSymbolTableRecord
100
AcDbViewportTableRecord
  2
*Active
 70
     0
 10
0.0
 20
0.0
 11
1.0
 21
1.0
 12
344.186916
 22
148.5
 13
0.0
 23
0.0
 14
10.0
 24
10.0
 15
10.0
 25
10.0
 16
0.0
 26
0.0
 36
1.0
 17
0.0
 27
0.0
 37
0.0
 40
297.0
 41
1.972973
 42
50.0
 43
0.0
 44
0.0
 50
0.0
 51
0.0
 71
     0
 72
   100
 73
     1
 74
     3
 75
     0
 76
     0
 77
     0
 78
     0
281
     0
 65
     1
110
0.0
120
0.0
130
0.0
111
1.0
121
0.0
131
0.0
112
0.0
122
1.0
132
0.0
 79
     0
146
0.0
348
2F
 60
     3
 61
     5
292
     1
282
     1
141
0.0
142
0.0
 63
   250
361
6D
  0
ENDTAB
  0
TABLE
  2
LTYPE
  5
5
330
0
100
AcDbSymbolTable
 70
     1
  0
LTYPE
  5
14
330
5
100
AcDbSymbolTableRecord
100
AcDbLinetypeTableRecord
  2
ByBlock
 70
     0
  3

 72
    65
 73
     0
 40
0.0
  0
LTYPE
  5
15
330
5
100
AcDbSymbolTableRecord
100
AcDbLinetypeTableRecord
  2
ByLayer
 70
     0
  3

 72
    65
 73
     0
 40
0.0
  0
LTYPE
  5
16
330
5
100
AcDbSymbolTableRecord
100
AcDbLinetypeTableRecord
  2
Continuous
 70
     0
  3
Solid line
 72
    65
 73
     0
 40
0.0
  0
ENDTAB
  0
TABLE
  2
LAYER
  5
2
330
0
100
AcDbSymbolTable
 70
     1
  0
LAYER
  5
10
330
2
100
AcDbSymbolTableRecord
100
AcDbLayerTableRecord
  2
0
 70
     0
 62
   106
  6
Continuous
370
     0
390
F
347
46
  0
ENDTAB
  0
TABLE
  2
STYLE
  5
3
330
0
100
AcDbSymbolTable
 70
     4
  0
STYLE
  5
11
330
3
100
AcDbSymbolTableRecord
100
AcDbTextStyleTableRecord
  2
Standard
 70
     0
 40
0.0
 41
1.0
 50
0.0
 71
     0
 42
2.5
  3
txt
  4

  0
STYLE
  5
6E
330
3
100
AcDbSymbolTableRecord
100
AcDbTextStyleTableRecord
  2
Default
 70
     0
 40
0.0
 41
1.0
 50
0.0
 71
     0
 42
2.5
  3

  4

1001
ACAD
1000
txt
1071
        0
  0
STYLE
  5
6F
330
3
100
AcDbSymbolTableRecord
100
AcDbTextStyleTableRecord
  2
ISO
 70
     0
 40
0.0
 41
1.0
 50
0.0
 71
     0
 42
2.5
  3

  4

1001
ACAD
1000
txt
1071
        0
  0
STYLE
  5
70
330
3
100
AcDbSymbolTableRecord
100
AcDbTextStyleTableRecord
  2
zucchetti
 70
     0
 40
0.0
 41
1.0
 50
0.0
 71
     0
 42
2.5
  3

  4

1001
ACAD
1000
Arial
1071
        0
  0
ENDTAB
  0
TABLE
  2
VIEW
  5
6
330
0
100
AcDbSymbolTable
 70
     0
  0
ENDTAB
  0
TABLE
  2
UCS
  5
7
330
0
100
AcDbSymbolTable
 70
     0
  0
ENDTAB
  0
TABLE
  2
APPID
  5
9
330
0
100
AcDbSymbolTable
 70
     1
  0
APPID
  5
12
330
9
100
AcDbSymbolTableRecord
100
AcDbRegAppTableRecord
  2
ACAD
 70
     0
  0
ENDTAB
  0
TABLE
  2
DIMSTYLE
  5
A
330
0
100
AcDbSymbolTable
 70
     4
100
AcDbDimStyleTable
  0
DIMSTYLE
105
27
330
A
100
AcDbSymbolTableRecord
100
AcDbDimStyleTableRecord
  2
ISO-25
 70
     0
 41
2.5
 42
0.625
 43
3.75
 44
1.25
 73
     0
 74
     0
 77
     1
 78
     8
140
2.5
141
2.5
143
0.03937
147
0.625
171
     3
172
     1
178
     0
271
     2
272
     2
274
     3
278
    44
283
     0
284
     8
340
11
  0
DIMSTYLE
105
71
330
A
100
AcDbSymbolTableRecord
100
AcDbDimStyleTableRecord
  2
Default
 70
     0
  3
<>
 41
4.375
 42
1.05
 44
2.1
 49
10.01
 73
     0
 74
     0
 77
     1
 78
     8
140
3.5
146
0.4
147
1.75
172
     1
271
     2
178
     3
271
     2
272
     3
284
     8
340
6E
341
72
342
72
  0
DIMSTYLE
105
79
330
A
100
AcDbSymbolTableRecord
100
AcDbDimStyleTableRecord
  2
ISO
 70
     0
  3
<>
 41
4.375
 42
1.05
 44
2.1
 49
10.01
 73
     0
 74
     0
 77
     1
 78
     8
140
3.5
146
0.4
147
1.75
172
     1
271
     2
178
     3
271
     2
272
     3
284
     8
340
6F
341
72
342
72
  0
DIMSTYLE
105
7A
330
A
100
AcDbSymbolTableRecord
100
AcDbDimStyleTableRecord
  2
zucchetti
 70
     0
  3
<>
 41
3.0
 42
0.9
 44
1.8
 49
8.58
 73
     0
 74
     0
 77
     1
 78
     8
140
3.0
146
0.6
147
1.5
172
     1
176
     3
177
     3
271
     2
178
     3
271
     2
272
     2
284
     8
340
70
  0
ENDTAB
  0
TABLE
  2
BLOCK_RECORD
  5
1
330
0
100
AcDbSymbolTable
 70
     6
  0
BLOCK_RECORD
  5
1F
330
1
100
AcDbSymbolTableRecord
100
AcDbBlockTableRecord
  2
*Model_Space
340
22
 70
     0
280
     1
281
     0
  0
BLOCK_RECORD
  5
1B
330
1
100
AcDbSymbolTableRecord
100
AcDbBlockTableRecord
  2
*Paper_Space
340
1E
 70
     0
280
     1
281
     0
  0
BLOCK_RECORD
  5
23
330
1
100
AcDbSymbolTableRecord
100
AcDbBlockTableRecord
  2
*Paper_Space0
340
26
 70
     0
280
     1
281
     0
  0
BLOCK_RECORD
  5
72
330
1
100
AcDbSymbolTableRecord
100
AcDbBlockTableRecord
  2
_CLOSED
340
0
 70
     0
280
     1
281
     0
  0
BLOCK_RECORD
  5
7B
330
1
100
AcDbSymbolTableRecord
100
AcDbBlockTableRecord
  2
a
340
0
102
{BLKREFS
331
A6
102
}
 70
     0
280
     1
281
     0
  0
BLOCK_RECORD
  5
A7
330
1
100
AcDbSymbolTableRecord
100
AcDbBlockTableRecord
  2
b
340
0
102
{BLKREFS
331
102
102
}
 70
     0
280
     1
281
     0
  0
BLOCK_RECORD
  5
103
330
1
100
AcDbSymbolTableRecord
100
AcDbBlockTableRecord
  2
c
340
0
102
{BLKREFS
331
188
102
}
 70
     0
280
     1
281
     0
  0
BLOCK_RECORD
  5
189
330
1
100
AcDbSymbolTableRecord
100
AcDbBlockTableRecord
  2
d
340
0
102
{BLKREFS
331
203
102
}
 70
     0
280
     1
281
     0
  0
ENDTAB
  0
ENDSEC
  0
SECTION
  2
BLOCKS
  0
BLOCK
  5
20
330
1F
100
AcDbEntity
  8
0
100
AcDbBlockBegin
  2
*Model_Space
 70
     0
 10
0.0
 20
0.0
 30
0.0
  3
*Model_Space
  1

  0
ENDBLK
  5
21
330
1F
100
AcDbEntity
  8
0
100
AcDbBlockEnd
  0
BLOCK
  5
1C
330
1B
100
AcDbEntity
 67
     1
  8
0
100
AcDbBlockBegin
  2
*Paper_Space
 70
     0
 10
0.0
 20
0.0
 30
0.0
  3
*Paper_Space
  1

  0
ENDBLK
  5
1D
330
1B
100
AcDbEntity
 67
     1
  8
0
100
AcDbBlockEnd
  0
BLOCK
  5
24
330
23
100
AcDbEntity
  8
0
100
AcDbBlockBegin
  2
*Paper_Space0
 70
     0
 10
0.0
 20
0.0
 30
0.0
  3
*Paper_Space0
  1

  0
ENDBLK
  5
25
330
23
100
AcDbEntity
  8
0
100
AcDbBlockEnd
  0
BLOCK
  5
73
330
72
100
AcDbEntity
  8
0
100
AcDbBlockBegin
  2
_CLOSED
 70
     0
 10
0.0
 20
0.0
 30
0.0
  3
_CLOSED
  1

  0
LINE
  5
75
330
72
100
AcDbEntity
  8
0
  6
ByBlock
 62
     0
370
    -2
100
AcDbLine
 10
-1.0
 20
0.166667
 30
0.0
 11
0.0
 21
0.0
 31
0.0
  0
LINE
  5
76
330
72
100
AcDbEntity
  8
0
  6
ByBlock
 62
     0
370
    -2
100
AcDbLine
 10
0.0
 20
0.0
 30
0.0
 11
-1.0
 21
-0.166667
 31
0.0
  0
LINE
  5
77
330
72
100
AcDbEntity
  8
0
  6
ByBlock
 62
     0
370
    -2
100
AcDbLine
 10
-1.0
 20
0.166667
 30
0.0
 11
-1.0
 21
-0.166667
 31
0.0
  0
LINE
  5
78
330
72
100
AcDbEntity
  8
0
  6
ByBlock
 62
     0
370
    -2
100
AcDbLine
 10
0.0
 20
0.0
 30
0.0
 11
-1.0
 21
0.0
 31
0.0
  0
ENDBLK
  5
74
330
72
100
AcDbEntity
  8
0
100
AcDbBlockEnd
  0
BLOCK
  5
A4
330
7B
100
AcDbEntity
  8
0
100
AcDbBlockBegin
  2
a
 70
     0
 10
414.152466
 20
93.217133
 30
0.0
  3
a
  1

  0
ARC
  5
7C
330
7B
100
AcDbEntity
  8
0
  6
Continuous
 62
     0
370
     0
100
AcDbCircle
 10
510.394341
 20
678.608017
 30
0.0
 40
27.31829574580204
100
AcDbArc
 50
92.330788
 51
272.330788
  0
ARC
  5
7D
330
7B
100
AcDbEntity
  8
0
  6
Continuous
 62
     0
370
     0
100
AcDbCircle
 10
510.394341
 20
678.608017
 30
0.0
 40
27.31829574580203
100
AcDbArc
 50
272.330788
 51
92.330788
  0
ARC
  5
7E
330
7B
100
AcDbEntity
  8
0
  6
Continuous
 62
     0
370
    30
100
AcDbCircle
 10
510.394336
 20
678.608017
 30
0.0
 40
28.25000000000044
100
AcDbArc
 50
92.330779
 51
272.330797
  0
ARC
  5
7F
330
7B
100
AcDbEntity
  8
0
  6
Continuous
 62
     0
370
    30
100
AcDbCircle
 10
510.394345
 20
678.608017
 30
0.0
 40
28.25000000000044
100
AcDbArc
 50
272.330779
 51
92.330797
  0
LINE
  5
80
330
7B
100
AcDbEntity
  8
0
  6
Continuous
 62
     0
370
    30
100
AcDbLine
 10
507.518944
 20
706.711301
 30
0.0
 11
507.25098
 21
706.682594
 31
0.0
  0
ARC
  5
81
330
7B
100
AcDbEntity
  8
0
  6
Continuous
 62
     0
370
    30
100
AcDbCircle
 10
510.394341
 20
678.608017
 30
0.0
 40
28.25000000000037
100
AcDbArc
 50
96.388497
 51
129.491847
  0
ARC
  5
82
330
7B
100
AcDbEntity
  8
0
  6
Continuous
 62
     0
370
    30
100
AcDbCircle
 10
510.394341
 20
678.608017
 30
0.0
 40
28.2499999999991
100
AcDbArc
 50
55.169729
 51
88.198068
  0
LINE
  5
83
330
7B
100
AcDbEntity
  8
0
  6
Continuous
 62
     0
370
    30
100
AcDbLine
 10
507.518943
 20
706.711302
 30
0.0
 11
507.251194
 21
706.682616
 31
0.0
  0
ARC
  5
84
330
7B
100
AcDbEntity
  8
0
  6
Continuous
 62
     0
370
    30
100
AcDbCircle
 10
510.394341
 20
678.608017
 30
0.0
 40
30.5000000000001
100
AcDbArc
 50
138.617991
 51
318.617991
  0
ARC
  5
85
330
7B
100
AcDbEntity
  8
0
  6
Continuous
 62
     0
370
    30
100
AcDbCircle
 10
510.394341
 20
678.608017
 30
0.0
 40
30.5000000000001
100
AcDbArc
 50
318.617991
 51
138.617991
  0
ARC
  5
86
330
7B
100
AcDbEntity
  8
0
  6
Continuous
 62
     0
370
    30
100
AcDbCircle
 10
510.394637
 20
558.608017
 30
0.0
 40
21.50000000203893
100
AcDbArc
 50
269.999211
 51
90.000789
  0
ARC
  5
87
330
7B
100
AcDbEntity
  8
0
  6
Continuous
 62
     0
370
    30
100
AcDbCircle
 10
510.394048
 20
558.608017
 30
0.0
 40
21.50000000199057
100
AcDbArc
 50
89.99922
 51
270.00078
  0
LWPOLYLINE
  5
88
330
7B
100
AcDbEntity
  8
0
  6
Continuous
 62
     0
370
    30
100
AcDbPolyline
 90
       54
 70
     0
 43
0.0
 10
510.394348
 20
536.608032
 10
511.695221
 20
536.647278
 10
512.993469
 20
536.764221
 10
514.284241
 20
536.957703
 10
515.561523
 20
537.226562
 10
516.819946
 20
537.569702
 10
518.055298
 20
537.986206
 10
519.26355
 20
538.475098
 10
520.440613
 20
539.0354
 10
521.582581
 20
539.665222
 10
522.68512
 20
540.361694
 10
523.744263
 20
541.121643
 10
524.755798
 20
541.9422
 10
525.716248
 20
542.820618
 10
526.622498
 20
543.754578
 10
527.472107
 20
544.741089
 10
528.262756
 20
545.776794
 10
528.991638
 20
546.857788
 10
529.655823
 20
547.980164
 10
530.252197
 20
549.139954
 10
530.778137
 20
550.333069
 10
531.232239
 20
551.555237
 10
531.61322
 20
552.802063
 10
531.919861
 20
554.069336
 10
532.151184
 20
555.352478
 10
532.306274
 20
556.647095
 10
532.384399
 20
557.948547
 10
532.384766
 20
559.252258
 10
532.307495
 20
560.553772
 10
532.153198
 20
561.84845
 10
531.922791
 20
563.131775
 10
531.617004
 20
564.399231
 10
531.237
 20
565.646423
 10
530.783875
 20
566.868958
 10
530.25885
 20
568.062439
 10
529.663452
 20
569.222717
 10
529.000183
 20
570.345642
 10
528.272095
 20
571.427185
 10
527.482117
 20
572.463379
 10
526.632996
 20
573.450378
 10
525.727112
 20
574.384705
 10
524.766968
 20
575.263489
 10
523.755798
 20
576.084351
 10
522.697083
 20
576.844849
 10
521.595032
 20
577.542053
 10
520.453674
 20
578.172974
 10
519.277161
 20
578.73468
 10
518.06958
 20
579.225159
 10
516.834778
 20
579.643188
 10
515.576721
 20
579.987549
 10
514.299622
 20
580.257141
 10
513.00885
 20
580.450989
 10
511.710602
 20
580.568176
 10
510.394348
 20
580.608032
  0
LWPOLYLINE
  5
89
330
7B
100
AcDbEntity
  8
0
  6
Continuous
 62
     0
370
    30
100
AcDbPolyline
 90
       54
 70
     0
 43
0.0
 10
510.394348
 20
580.608032
 10
509.093445
 20
580.569092
 10
507.795105
 20
580.45282
 10
506.504242
 20
580.259888
 10
505.226929
 20
579.991211
 10
503.968658
 20
579.647644
 10
502.733551
 20
579.23053
 10
501.525574
 20
578.740845
 10
500.348694
 20
578.179993
 10
499.206909
 20
577.549927
 10
498.10437
 20
576.853455
 10
497.045135
 20
576.093689
 10
496.033356
 20
575.273499
 10
495.072571
 20
574.395447
 10
494.166046
 20
573.461731
 10
493.316284
 20
572.475342
 10
492.525574
 20
571.439697
 10
491.796722
 20
570.358643
 10
491.13269
 20
569.236206
 10
490.536438
 20
568.076355
 10
490.01062
 20
566.883179
 10
489.556641
 20
565.661011
 10
489.17572
 20
564.414124
 10
488.869049
 20
563.146851
 10
488.637726
 20
561.863708
 10
488.482574
 20
560.569092
 10
488.404358
 20
559.2677
 10
488.403839
 20
557.963928
 10
488.481049
 20
556.662415
 10
488.635254
 20
555.367737
 10
488.865631
 20
554.084412
 10
489.171417
 20
552.816956
 10
489.551544
 20
551.569824
 10
490.004761
 20
550.34729
 10
490.529877
 20
549.153809
 10
491.125427
 20
547.993652
 10
491.788788
 20
546.870789
 10
492.516937
 20
545.789307
 10
493.306885
 20
544.753052
 10
494.155792
 20
543.76593
 10
495.061401
 20
542.831299
 10
496.02124
 20
541.952209
 10
497.032196
 20
541.130981
 10
498.090759
 20
540.3703
 10
499.192871
 20
539.673096
 10
500.334351
 20
539.042419
 10
501.511078
 20
538.481262
 10
502.718964
 20
537.991577
 10
503.95401
 20
537.574219
 10
505.212158
 20
537.230164
 10
506.489258
 20
536.960449
 10
507.779907
 20
536.766113
 10
509.078094
 20
536.648193
 10
510.394348
 20
536.608032
  0
LWPOLYLINE
  5
8A
330
7B
100
AcDbEntity
  8
0
  6
Continuous
 62
     0
370
    30
100
AcDbPolyline
 90
       14
 70
     0
 43
0.0
 10
505.643677
 20
537.127075
 10
505.679199
 20
537.119263
 10
505.782196
 20
537.096924
 10
505.950531
 20
537.061523
 10
506.183716
 20
537.014709
 10
506.479034
 20
536.959229
 10
506.829926
 20
536.898682
 10
507.229187
 20
536.836853
 10
507.674713
 20
536.776794
 10
508.161804
 20
536.721558
 10
508.680511
 20
536.674866
 10
509.227783
 20
536.639099
 10
509.793274
 20
536.616272
 10
510.394348
 20
536.608032
  0
LWPOLYLINE
  5
8B
330
7B
100
AcDbEntity
  8
0
  6
Continuous
 62
     0
370
    30
100
AcDbPolyline
 90
       14
 70
     0
 43
0.0
 10
510.394348
 20
536.608032
 10
510.965759
 20
536.615479
 10
511.531799
 20
536.637573
 10
512.080383
 20
536.672729
 10
512.600647
 20
536.718933
 10
513.089539
 20
536.773743
 10
513.537476
 20
536.833679
 10
513.939148
 20
536.895447
 10
514.292664
 20
536.956177
 10
514.591125
 20
537.012024
 10
514.827576
 20
537.059326
 10
514.999329
 20
537.095337
 10
515.105774
 20
537.118408
 10
515.14502
 20
537.127075
  0
LWPOLYLINE
  5
8C
330
7B
100
AcDbEntity
  8
0
  6
Continuous
 62
     0
370
    30
100
AcDbPolyline
 90
       10
 70
     0
 43
0.0
 10
514.494568
 20
580.222534
 10
514.464355
 20
580.228271
 10
514.376221
 20
580.24469
 10
514.231934
 20
580.270752
 10
514.031982
 20
580.305237
 10
513.778442
 20
580.34613
 10
513.477539
 20
580.39093
 10
513.135681
 20
580.436707
 10
512.751099
 20
580.481323
 10
512.262756
 20
580.527832
  0
LWPOLYLINE
  5
8D
330
7B
100
AcDbEntity
  8
0
  6
Continuous
 62
     0
370
    30
100
AcDbPolyline
 90
       12
 70
     0
 43
0.0
 10
509.608795
 20
580.593811
 10
509.110931
 20
580.569885
 10
508.629608
 20
580.536316
 10
508.177612
 20
580.495789
 10
507.767395
 20
580.450745
 10
507.403229
 20
580.403809
 10
507.082153
 20
580.357178
 10
506.80899
 20
580.313904
 10
506.591644
 20
580.276917
 10
506.432861
 20
580.248413
 10
506.333252
 20
580.229919
 10
506.293945
 20
580.222534
  0
LINE
  5
8E
330
7B
100
AcDbEntity
  8
0
  6
Continuous
 62
     0
370
    30
100
AcDbLine
 10
510.394341
 20
587.938017
 30
0.0
 11
506.444341
 21
587.938017
 31
0.0
  0
LINE
  5
8F
330
7B
100
AcDbEntity
  8
0
  6
Continuous
 62
     0
370
    30
100
AcDbLine
 10
514.344341
 20
587.938017
 30
0.0
 11
510.394341
 21
587.938017
 31
0.0
  0
LINE
  5
90
330
7B
100
AcDbEntity
  8
0
  6
Continuous
 62
     0
370
    30
100
AcDbLine
 10
510.394341
 20
588.438017
 30
0.0
 11
513.844387
 21
588.438017
 31
0.0
  0
LINE
  5
91
330
7B
100
AcDbEntity
  8
0
  6
Continuous
 62
     0
370
    30
100
AcDbLine
 10
506.944294
 20
588.438017
 30
0.0
 11
510.394341
 21
588.438017
 31
0.0
  0
ARC
  5
92
330
7B
100
AcDbEntity
  8
0
  6
Continuous
 62
     0
370
    30
100
AcDbCircle
 10
510.394341
 20
558.608017
 30
0.0
 40
65.0
100
AcDbArc
 50
92.303762
 51
272.303762
  0
ARC
  5
93
330
7B
100
AcDbEntity
  8
0
  6
Continuous
 62
     0
370
    30
100
AcDbCircle
 10
510.394341
 20
558.608017
 30
0.0
 40
65.0
100
AcDbArc
 50
272.303762
 51
92.303762
  0
ARC
  5
94
330
7B
100
AcDbEntity
  8
0
  6
Continuous
 62
     0
370
     0
100
AcDbCircle
 10
510.394341
 20
558.608017
 30
0.0
 40
64.75759460710391
100
AcDbArc
 50
272.303762
 51
92.303762
  0
ARC
  5
95
330
7B
100
AcDbEntity
  8
0
  6
Continuous
 62
     0
370
     0
100
AcDbCircle
 10
510.394341
 20
558.608017
 30
0.0
 40
64.75759460710391
100
AcDbArc
 50
92.303762
 51
272.303762
  0
LINE
  5
96
330
7B
100
AcDbEntity
  8
0
  6
Continuous
 62
     0
370
    30
100
AcDbLine
 10
506.944139
 20
588.437834
 30
0.0
 11
506.444341
 21
587.93804
 31
0.0
  0
LINE
  5
97
330
7B
100
AcDbEntity
  8
0
  6
Continuous
 62
     0
370
    30
100
AcDbLine
 10
513.844542
 20
588.437834
 30
0.0
 11
514.34434
 21
587.93804
 31
0.0
  0
LINE
  5
98
330
7B
100
AcDbEntity
  8
0
  6
Continuous
 62
     0
370
    30
100
AcDbLine
 10
506.444341
 20
587.938017
 30
0.0
 11
506.444341
 21
580.250466
 31
0.0
  0
LINE
  5
99
330
7B
100
AcDbEntity
  8
0
  6
Continuous
 62
     0
370
    30
100
AcDbLine
 10
514.344341
 20
587.938017
 30
0.0
 11
514.344341
 21
580.250466
 31
0.0
  0
ARC
  5
9A
330
7B
100
AcDbEntity
  8
0
  6
Continuous
 62
     0
370
     0
100
AcDbCircle
 10
510.394341
 20
778.608017
 30
0.0
 40
27.31829574580203
100
AcDbArc
 50
92.330788
 51
272.330788
  0
ARC
  5
9B
330
7B
100
AcDbEntity
  8
0
  6
Continuous
 62
     0
370
     0
100
AcDbCircle
 10
510.394341
 20
778.608017
 30
0.0
 40
27.31829574580203
100
AcDbArc
 50
272.330788
 51
92.330788
  0
ARC
  5
9C
330
7B
100
AcDbEntity
  8
0
  6
Continuous
 62
     0
370
    30
100
AcDbCircle
 10
510.394336
 20
778.608017
 30
0.0
 40
28.25000000000044
100
AcDbArc
 50
92.330779
 51
272.330797
  0
ARC
  5
9D
330
7B
100
AcDbEntity
  8
0
  6
Continuous
 62
     0
370
    30
100
AcDbCircle
 10
510.394345
 20
778.608017
 30
0.0
 40
28.25000000000045
100
AcDbArc
 50
272.330779
 51
92.330797
  0
LINE
  5
9E
330
7B
100
AcDbEntity
  8
0
  6
Continuous
 62
     0
370
    30
100
AcDbLine
 10
507.518944
 20
806.711301
 30
0.0
 11
507.25098
 21
806.682594
 31
0.0
  0
ARC
  5
9F
330
7B
100
AcDbEntity
  8
0
  6
Continuous
 62
     0
370
    30
100
AcDbCircle
 10
510.394341
 20
778.608017
 30
0.0
 40
28.25000000000166
100
AcDbArc
 50
96.388497
 51
129.491847
  0
ARC
  5
A0
330
7B
100
AcDbEntity
  8
0
  6
Continuous
 62
     0
370
    30
100
AcDbCircle
 10
510.394341
 20
778.608017
 30
0.0
 40
28.25000000000318
100
AcDbArc
 50
55.169729
 51
88.198068
  0
LINE
  5
A1
330
7B
100
AcDbEntity
  8
0
  6
Continuous
 62
     0
370
    30
100
AcDbLine
 10
507.518943
 20
806.711302
 30
0.0
 11
507.251238
 21
806.682621
 31
0.0
  0
ARC
  5
A2
330
7B
100
AcDbEntity
  8
0
  6
Continuous
 62
     0
370
    30
100
AcDbCircle
 10
510.394341
 20
778.608017
 30
0.0
 40
30.5000000000001
100
AcDbArc
 50
138.617991
 51
318.617991
  0
ARC
  5
A3
330
7B
100
AcDbEntity
  8
0
  6
Continuous
 62
     0
370
    30
100
AcDbCircle
 10
510.394341
 20
778.608017
 30
0.0
 40
30.5000000000001
100
AcDbArc
 50
318.617991
 51
138.617991
  0
ENDBLK
  5
A5
330
7B
100
AcDbEntity
  8
0
100
AcDbBlockEnd
  0
BLOCK
  5
100
330
A7
100
AcDbEntity
  8
0
100
AcDbBlockBegin
  2
b
 70
     0
 10
414.152435
 20
319.975189
 30
0.0
  3
b
  1

  0
LINE
  5
A8
330
A7
100
AcDbEntity
  8
0
  6
Continuous
 62
     0
370
    30
100
AcDbLine
 10
531.894598
 20
310.650057
 30
0.0
 11
510.394302
 21
310.650056
 31
0.0
  0
LINE
  5
A9
330
A7
100
AcDbEntity
  8
0
  6
Continuous
 62
     0
370
    30
100
AcDbLine
 10
510.394302
 20
310.650056
 30
0.0
 11
488.89401
 21
310.650057
 31
0.0
  0
LINE
  5
AA
330
A7
100
AcDbEntity
  8
0
  6
Continuous
 62
     0
370
    30
100
AcDbLine
 10
532.394302
 20
311.150056
 30
0.0
 11
510.394302
 21
311.150056
 31
0.0
  0
LINE
  5
AB
330
A7
100
AcDbEntity
  8
0
  6
Continuous
 62
     0
370
    30
100
AcDbLine
 10
510.394302
 20
311.150056
 30
0.0
 11
488.394303
 21
311.150056
 31
0.0
  0
LWPOLYLINE
  5
AC
330
A7
100
AcDbEntity
  8
0
  6
Continuous
 62
     0
370
     0
100
AcDbPolyline
 90
       25
 70
     0
 43
0.0
 10
510.394287
 20
323.750061
 10
510.926758
 20
323.715363
 10
511.455353
 20
323.609802
 10
511.971619
 20
323.433685
 10
512.460938
 20
323.192291
 10
512.908264
 20
322.891388
 10
513.304382
 20
322.537079
 10
513.652222
 20
322.136383
 10
513.948486
 20
321.694977
 10
514.183655
 20
321.217743
 10
514.35376
 20
320.713165
 10
514.457947
 20
320.190399
 10
514.494507
 20
319.658386
 10
514.460144
 20
319.126251
 10
514.35791
 20
318.603058
 10
514.189758
 20
318.097809
 10
513.956604
 20
317.619598
 10
513.662231
 20
317.17691
 10
513.315918
 20
316.774841
 10
512.921265
 20
316.419037
 10
512.475403
 20
316.116364
 10
511.987183
 20
315.873016
 10
511.471527
 20
315.694733
 10
510.943115
 20
315.587067
 10
510.394348
 20
315.550446
  0
LWPOLYLINE
  5
AD
330
A7
100
AcDbEntity
  8
0
  6
Continuous
 62
     0
370
     0
100
AcDbPolyline
 90
       25
 70
     0
 43
0.0
 10
510.394348
 20
315.550446
 10
509.861877
 20
315.5849
 10
509.333252
 20
315.690369
 10
508.816986
 20
315.866516
 10
508.327667
 20
316.107941
 10
507.88031
 20
316.408875
 10
507.484131
 20
316.763153
 10
507.136353
 20
317.163879
 10
506.840149
 20
317.605347
 10
506.605133
 20
318.082611
 10
506.434998
 20
318.587189
 10
506.330658
 20
319.109924
 10
506.293915
 20
319.641937
 10
506.3284
 20
320.174072
 10
506.430756
 20
320.697235
 10
506.598969
 20
321.202454
 10
506.832123
 20
321.680634
 10
507.126526
 20
322.123352
 10
507.472778
 20
322.525421
 10
507.867371
 20
322.881287
 10
508.313202
 20
323.183929
 10
508.801422
 20
323.427216
 10
509.317078
 20
323.605438
 10
509.84549
 20
323.713196
 10
510.394287
 20
323.750061
  0
ARC
  5
AE
330
A7
100
AcDbEntity
  8
0
  6
Continuous
 62
     0
370
    30
100
AcDbCircle
 10
510.394302
 20
319.650056
 30
0.0
 40
3.949999999999996
100
AcDbArc
 50
90.0
 51
270.0
  0
ARC
  5
AF
330
A7
100
AcDbEntity
  8
0
  6
Continuous
 62
     0
370
    30
100
AcDbCircle
 10
510.394302
 20
319.650056
 30
0.0
 40
3.949999999999996
100
AcDbArc
 50
270.0
 51
90.0
  0
ARC
  5
B0
330
A7
100
AcDbEntity
  8
0
  6
Continuous
 62
     0
370
    30
100
AcDbCircle
 10
510.394349
 20
319.650056
 30
0.0
 40
3.450000000319442
100
AcDbArc
 50
269.99922
 51
90.00078
  0
ARC
  5
B1
330
A7
100
AcDbEntity
  8
0
  6
Continuous
 62
     0
370
    30
100
AcDbCircle
 10
510.394255
 20
319.650056
 30
0.0
 40
3.450000000319442
100
AcDbArc
 50
89.99922
 51
270.00078
  0
LINE
  5
B2
330
A7
100
AcDbEntity
  8
0
  6
Continuous
 62
     0
370
     0
100
AcDbLine
 10
445.394302
 20
372.548115
 30
0.0
 11
479.894302
 21
372.548113
 31
0.0
  0
LINE
  5
B3
330
A7
100
AcDbEntity
  8
0
  6
Continuous
 62
     0
370
     0
100
AcDbLine
 10
540.894302
 20
372.548113
 30
0.0
 11
575.394302
 21
372.548115
 31
0.0
  0
LINE
  5
B4
330
A7
100
AcDbEntity
  8
0
  6
Continuous
 62
     0
370
     0
100
AcDbLine
 10
575.394302
 20
373.648115
 30
0.0
 11
540.894302
 21
373.648113
 31
0.0
  0
LINE
  5
B5
330
A7
100
AcDbEntity
  8
0
  6
Continuous
 62
     0
370
     0
100
AcDbLine
 10
479.894302
 20
373.648113
 30
0.0
 11
445.394302
 21
373.648115
 31
0.0
  0
LINE
  5
B6
330
A7
100
AcDbEntity
  8
0
  6
Continuous
 62
     0
370
    30
100
AcDbLine
 10
575.144853
 20
372.298115
 30
0.0
 11
540.894206
 21
372.298113
 31
0.0
  0
LINE
  5
B7
330
A7
100
AcDbEntity
  8
0
  6
Continuous
 62
     0
370
    30
100
AcDbLine
 10
479.894397
 20
372.298113
 30
0.0
 11
445.643752
 21
372.298115
 31
0.0
  0
LINE
  5
B8
330
A7
100
AcDbEntity
  8
0
  6
Continuous
 62
     0
370
     0
100
AcDbLine
 10
446.394302
 20
366.248115
 30
0.0
 11
479.894302
 21
366.248113
 31
0.0
  0
LINE
  5
B9
330
A7
100
AcDbEntity
  8
0
  6
Continuous
 62
     0
370
     0
100
AcDbLine
 10
540.894302
 20
366.248113
 30
0.0
 11
574.394302
 21
366.248115
 31
0.0
  0
LINE
  5
BA
330
A7
100
AcDbEntity
  8
0
  6
Continuous
 62
     0
370
     0
100
AcDbLine
 10
574.394302
 20
372.048115
 30
0.0
 11
539.844302
 21
372.048113
 31
0.0
  0
LINE
  5
BB
330
A7
100
AcDbEntity
  8
0
  6
Continuous
 62
     0
370
     0
100
AcDbLine
 10
480.944302
 20
372.048113
 30
0.0
 11
446.394302
 21
372.048115
 31
0.0
  0
LWPOLYLINE
  5
BC
330
A7
100
AcDbEntity
  8
0
  6
Continuous
 62
     0
370
    30
100
AcDbPolyline
 90
       32
 70
     0
 43
0.0
 10
445.643738
 20
365.998108
 10
445.683105
 20
365.998108
 10
445.800995
 20
365.998108
 10
445.99707
 20
365.998108
 10
446.271027
 20
365.998108
 10
446.622528
 20
365.998108
 10
447.051239
 20
365.998108
 10
447.556915
 20
365.998108
 10
448.13913
 20
365.998108
 10
448.797455
 20
365.998108
 10
449.530792
 20
365.998108
 10
450.337982
 20
365.998108
 10
451.217896
 20
365.998108
 10
452.169373
 20
365.998108
 10
453.191254
 20
365.998108
 10
454.28241
 20
365.998108
 10
455.441681
 20
365.998108
 10
456.667908
 20
365.998108
 10
457.959778
 20
365.998108
 10
459.315552
 20
365.998108
 10
460.733307
 20
365.998108
 10
462.211182
 20
365.998108
 10
463.747345
 20
365.998108
 10
465.339935
 20
365.998108
 10
466.987061
 20
365.998108
 10
468.686859
 20
365.998108
 10
470.437469
 20
365.998108
 10
472.236938
 20
365.998108
 10
474.082886
 20
365.998108
 10
475.972931
 20
365.998108
 10
477.904663
 20
365.998108
 10
479.894287
 20
365.998108
  0
LINE
  5
BD
330
A7
100
AcDbEntity
  8
0
  6
Continuous
 62
     0
370
    30
100
AcDbLine
 10
540.894302
 20
365.998113
 30
0.0
 11
575.144853
 21
365.998115
 31
0.0
  0
LINE
  5
BE
330
A7
100
AcDbEntity
  8
0
  6
Continuous
 62
     0
370
     0
100
AcDbLine
 10
445.394302
 20
364.640619
 30
0.0
 11
483.794015
 21
364.640616
 31
0.0
  0
LINE
  5
BF
330
A7
100
AcDbEntity
  8
0
  6
Continuous
 62
     0
370
     0
100
AcDbLine
 10
536.994113
 20
364.640616
 30
0.0
 11
575.394302
 21
364.640619
 31
0.0
  0
LINE
  5
C0
330
A7
100
AcDbEntity
  8
0
  6
Continuous
 62
     0
370
     0
100
AcDbLine
 10
575.394302
 20
365.748115
 30
0.0
 11
540.894302
 21
365.748113
 31
0.0
  0
LINE
  5
C1
330
A7
100
AcDbEntity
  8
0
  6
Continuous
 62
     0
370
     0
100
AcDbLine
 10
479.894302
 20
365.748113
 30
0.0
 11
445.394302
 21
365.748115
 31
0.0
  0
LINE
  5
C2
330
A7
100
AcDbEntity
  8
0
  6
Continuous
 62
     0
370
     0
100
AcDbLine
 10
575.151897
 20
364.390734
 30
0.0
 11
538.644302
 21
364.390731
 31
0.0
  0
LINE
  5
C3
330
A7
100
AcDbEntity
  8
0
  6
Continuous
 62
     0
370
     0
100
AcDbLine
 10
482.144302
 20
364.390731
 30
0.0
 11
445.636708
 21
364.390734
 31
0.0
  0
LINE
  5
C4
330
A7
100
AcDbEntity
  8
0
  6
Continuous
 62
     0
370
    30
100
AcDbLine
 10
575.145845
 20
373.898109
 30
0.0
 11
540.894302
 21
373.898103
 31
0.0
  0
LINE
  5
C5
330
A7
100
AcDbEntity
  8
0
  6
Continuous
 62
     0
370
    30
100
AcDbLine
 10
479.894302
 20
373.898106
 30
0.0
 11
445.643019
 21
373.898105
 31
0.0
  0
ARC
  5
C6
330
A7
100
AcDbEntity
  8
0
  6
Continuous
 62
     0
370
    30
100
AcDbCircle
 10
575.144303
 20
373.648101
 30
0.0
 40
0.2500138594941584
100
AcDbArc
 50
0.003177
 51
89.668091
  0
ARC
  5
C7
330
A7
100
AcDbEntity
  8
0
  6
Continuous
 62
     0
370
    30
100
AcDbCircle
 10
445.645303
 20
373.648103
 30
0.0
 40
0.2500120679913668
100
AcDbArc
 50
90.504159
 51
179.997217
  0
ARC
  5
C8
330
A7
100
AcDbEntity
  8
0
  6
Continuous
 62
     0
370
    30
100
AcDbCircle
 10
445.645283
 20
372.548108
 30
0.0
 40
0.2499921155622866
100
AcDbArc
 50
179.998261
 51
269.453706
  0
ARC
  5
C9
330
A7
100
AcDbEntity
  8
0
  6
Continuous
 62
     0
370
    30
100
AcDbCircle
 10
575.144272
 20
372.548159
 30
0.0
 40
0.250044348438768
100
AcDbArc
 50
270.376854
 51
359.989879
  0
ARC
  5
CA
330
A7
100
AcDbEntity
  8
0
  6
Continuous
 62
     0
370
    30
100
AcDbCircle
 10
446.145265
 20
372.048104
 30
0.0
 40
0.2500108095232773
100
AcDbArc
 50
0.002476
 51
90.018003
  0
ARC
  5
CB
330
A7
100
AcDbEntity
  8
0
  6
Continuous
 62
     0
370
    30
100
AcDbCircle
 10
574.644329
 20
372.048103
 30
0.0
 40
0.2500126514234103
100
AcDbArc
 50
89.982192
 51
179.997102
  0
ARC
  5
CC
330
A7
100
AcDbEntity
  8
0
  6
Continuous
 62
     0
370
    30
100
AcDbCircle
 10
446.145265
 20
366.248126
 30
0.0
 40
0.2500108087596478
100
AcDbArc
 50
269.982599
 51
359.997524
  0
ARC
  5
CD
330
A7
100
AcDbEntity
  8
0
  6
Continuous
 62
     0
370
    30
100
AcDbCircle
 10
574.644329
 20
366.248128
 30
0.0
 40
0.2500127346540515
100
AcDbArc
 50
180.002917
 51
270.017196
  0
ARC
  5
CE
330
A7
100
AcDbEntity
  8
0
  6
Continuous
 62
     0
370
    30
100
AcDbCircle
 10
445.645334
 20
365.748073
 30
0.0
 40
0.2500427098920144
100
AcDbArc
 50
90.557776
 51
179.990257
  0
ARC
  5
CF
330
A7
100
AcDbEntity
  8
0
  6
Continuous
 62
     0
370
    30
100
AcDbCircle
 10
575.144315
 20
365.748113
 30
0.0
 40
0.2500018424375676
100
AcDbArc
 50
0.000444
 51
89.632823
  0
ARC
  5
D0
330
A7
100
AcDbEntity
  8
0
  6
Continuous
 62
     0
370
    30
100
AcDbCircle
 10
445.645281
 20
364.640608
 30
0.0
 40
0.2499893148457952
100
AcDbArc
 50
179.997667
 51
267.724699
  0
ARC
  5
D1
330
A7
100
AcDbEntity
  8
0
  6
Continuous
 62
     0
370
    30
100
AcDbCircle
 10
575.144274
 20
364.64066
 30
0.0
 40
0.2500430566400659
100
AcDbArc
 50
272.105549
 51
359.990467
  0
ARC
  5
D2
330
A7
100
AcDbEntity
  8
0
  6
Continuous
 62
     0
370
    30
100
AcDbCircle
 10
509.825974
 20
2476.413029
 30
0.0
 40
2112.997500109636
100
AcDbArc
 50
268.259184
 51
269.249366
  0
ARC
  5
D3
330
A7
100
AcDbEntity
  8
0
  6
Continuous
 62
     0
370
    30
100
AcDbCircle
 10
510.962631
 20
2476.413029
 30
0.0
 40
2112.997500109223
100
AcDbArc
 50
270.750634
 51
271.740816
  0
LINE
  5
D4
330
A7
100
AcDbEntity
  8
0
  6
Continuous
 62
     0
370
    30
100
AcDbLine
 10
445.394302
 20
364.640619
 30
0.0
 11
445.394302
 21
365.748115
 31
0.0
  0
LINE
  5
D5
330
A7
100
AcDbEntity
  8
0
  6
Continuous
 62
     0
370
    30
100
AcDbLine
 10
575.394302
 20
364.640619
 30
0.0
 11
575.394302
 21
365.748115
 31
0.0
  0
LINE
  5
D6
330
A7
100
AcDbEntity
  8
0
  6
Continuous
 62
     0
370
    30
100
AcDbLine
 10
446.394302
 20
366.248115
 30
0.0
 11
446.394302
 21
372.048115
 31
0.0
  0
LINE
  5
D7
330
A7
100
AcDbEntity
  8
0
  6
Continuous
 62
     0
370
    30
100
AcDbLine
 10
574.394302
 20
366.248115
 30
0.0
 11
574.394302
 21
372.048115
 31
0.0
  0
LINE
  5
D8
330
A7
100
AcDbEntity
  8
0
  6
Continuous
 62
     0
370
    30
100
AcDbLine
 10
445.394302
 20
372.548115
 30
0.0
 11
445.394302
 21
373.648115
 31
0.0
  0
LINE
  5
D9
330
A7
100
AcDbEntity
  8
0
  6
Continuous
 62
     0
370
    30
100
AcDbLine
 10
575.394302
 20
372.548115
 30
0.0
 11
575.394302
 21
373.648115
 31
0.0
  0
LINE
  5
DA
330
A7
100
AcDbEntity
  8
0
  6
Continuous
 62
     0
370
    30
100
AcDbLine
 10
532.394302
 20
346.504749
 30
0.0
 11
532.394302
 21
311.150056
 31
0.0
  0
LINE
  5
DB
330
A7
100
AcDbEntity
  8
0
  6
Continuous
 62
     0
370
    30
100
AcDbLine
 10
488.394302
 20
346.504749
 30
0.0
 11
488.394302
 21
311.150056
 31
0.0
  0
LINE
  5
DC
330
A7
100
AcDbEntity
  8
0
  6
Continuous
 62
     0
370
    30
100
AcDbLine
 10
531.894691
 20
310.650445
 30
0.0
 11
532.394302
 21
311.150057
 31
0.0
  0
LINE
  5
DD
330
A7
100
AcDbEntity
  8
0
  6
Continuous
 62
     0
370
    30
100
AcDbLine
 10
488.394302
 20
311.150057
 30
0.0
 11
488.893915
 21
310.650444
 31
0.0
  0
LINE
  5
DE
330
A7
100
AcDbEntity
  8
0
  6
Continuous
 62
     0
370
     0
100
AcDbLine
 10
509.283303
 20
346.833231
 30
0.0
 11
483.076007
 21
346.833232
 31
0.0
  0
LINE
  5
DF
330
A7
100
AcDbEntity
  8
0
  6
Continuous
 62
     0
370
     0
100
AcDbLine
 10
537.712598
 20
346.833232
 30
0.0
 11
509.283303
 21
346.833231
 31
0.0
  0
LINE
  5
E0
330
A7
100
AcDbEntity
  8
0
  6
Continuous
 62
     0
370
     0
100
AcDbLine
 10
509.245411
 20
347.830896
 30
0.0
 11
482.144326
 21
347.830897
 31
0.0
  0
LWPOLYLINE
  5
E1
330
A7
100
AcDbEntity
  8
0
  6
Continuous
 62
     0
370
     0
100
AcDbPolyline
 90
       32
 70
     0
 43
0.0
 10
538.64386
 20
347.830902
 10
538.605408
 20
347.830902
 10
538.490112
 20
347.830902
 10
538.298645
 20
347.830902
 10
538.031982
 20
347.830902
 10
537.690857
 20
347.830902
 10
537.276245
 20
347.830902
 10
536.78894
 20
347.830902
 10
536.229858
 20
347.830902
 10
535.599915
 20
347.830902
 10
534.901062
 20
347.830902
 10
534.135986
 20
347.830902
 10
533.307312
 20
347.830902
 10
532.417664
 20
347.830902
 10
531.469666
 20
347.830902
 10
530.465942
 20
347.830902
 10
529.409241
 20
347.830902
 10
528.302185
 20
347.830902
 10
527.147888
 20
347.830902
 10
525.949646
 20
347.830902
 10
524.71051
 20
347.830902
 10
523.433289
 20
347.830902
 10
522.120361
 20
347.830902
 10
520.773987
 20
347.830902
 10
519.396484
 20
347.830902
 10
517.991577
 20
347.830902
 10
516.564453
 20
347.830902
 10
515.120056
 20
347.830902
 10
513.663696
 20
347.830902
 10
512.200378
 20
347.830902
 10
510.73526
 20
347.830902
 10
509.245422
 20
347.830902
  0
LWPOLYLINE
  5
E2
330
A7
100
AcDbEntity
  8
0
  6
Continuous
 62
     0
370
     0
100
AcDbPolyline
 90
        7
 70
     0
 43
0.0
 10
509.245422
 20
349.398102
 10
508.905792
 20
349.426727
 10
508.574615
 20
349.514191
 10
508.265289
 20
349.65567
 10
507.984741
 20
349.847534
 10
507.740875
 20
350.084229
 10
507.51889
 20
350.395844
  0
LWPOLYLINE
  5
E3
330
A7
100
AcDbEntity
  8
0
  6
Continuous
 62
     0
370
     0
100
AcDbPolyline
 90
       12
 70
     0
 43
0.0
 10
507.51889
 20
350.395844
 10
507.36145
 20
350.740845
 10
507.271698
 20
351.109772
 10
507.252991
 20
351.48877
 10
507.305878
 20
351.864655
 10
507.428406
 20
352.223694
 10
507.616486
 20
352.553131
 10
507.863892
 20
352.841309
 10
508.160339
 20
353.076935
 10
508.497101
 20
353.252441
 10
508.864105
 20
353.361877
 10
509.245422
 20
353.398102
  0
LWPOLYLINE
  5
E4
330
A7
100
AcDbEntity
  8
0
  6
Continuous
 62
     0
370
     0
100
AcDbPolyline
 90
       10
 70
     0
 43
0.0
 10
509.245422
 20
357.398102
 10
508.863892
 20
357.434387
 10
508.494843
 20
357.544952
 10
508.156403
 20
357.722351
 10
507.857269
 20
357.961243
 10
507.609558
 20
358.25293
 10
507.42218
 20
358.586487
 10
507.301544
 20
358.949799
 10
507.252228
 20
359.329498
 10
507.275665
 20
359.712616
  0
LWPOLYLINE
  5
E5
330
A7
100
AcDbEntity
  8
0
  6
Continuous
 62
     0
370
     0
100
AcDbPolyline
 90
        9
 70
     0
 43
0.0
 10
507.275665
 20
359.712616
 10
507.359467
 20
360.04953
 10
507.5
 20
360.36676
 10
507.693298
 20
360.654694
 10
507.933228
 20
360.905029
 10
508.213287
 20
361.110046
 10
508.524231
 20
361.263153
 10
508.858459
 20
361.360504
 10
509.245422
 20
361.398102
  0
LINE
  5
E6
330
A7
100
AcDbEntity
  8
0
  6
Continuous
 62
     0
370
    30
100
AcDbLine
 10
509.245411
 20
364.398104
 30
0.0
 11
482.144302
 21
364.398106
 31
0.0
  0
LINE
  5
E7
330
A7
100
AcDbEntity
  8
0
  6
Continuous
 62
     0
370
    30
100
AcDbLine
 10
538.644302
 20
364.398106
 30
0.0
 11
509.245411
 21
364.398104
 31
0.0
  0
LWPOLYLINE
  5
E8
330
A7
100
AcDbEntity
  8
0
  6
Continuous
 62
     0
370
     0
100
AcDbPolyline
 90
       18
 70
     0
 43
0.0
 10
509.245422
 20
361.398102
 10
509.614227
 20
361.366577
 10
509.975555
 20
361.265747
 10
510.312469
 20
361.101379
 10
510.610504
 20
360.882202
 10
510.864014
 20
360.611511
 10
511.064392
 20
360.298309
 10
511.202423
 20
359.953857
 10
511.273254
 20
359.589996
 10
511.274475
 20
359.219208
 10
511.206116
 20
358.854828
 10
511.070343
 20
358.509521
 10
510.871887
 20
358.19516
 10
510.620026
 20
357.922821
 10
510.323547
 20
357.70163
 10
509.987885
 20
357.535217
 10
509.627075
 20
357.432037
 10
509.245422
 20
357.398102
  0
LWPOLYLINE
  5
E9
330
A7
100
AcDbEntity
  8
0
  6
Continuous
 62
     0
370
     0
100
AcDbPolyline
 90
       18
 70
     0
 43
0.0
 10
509.245422
 20
353.398102
 10
509.614227
 20
353.366577
 10
509.975555
 20
353.265747
 10
510.312469
 20
353.101379
 10
510.610504
 20
352.882202
 10
510.864014
 20
352.611511
 10
511.064392
 20
352.298309
 10
511.202423
 20
351.953857
 10
511.273254
 20
351.589996
 10
511.274475
 20
351.219208
 10
511.206116
 20
350.854828
 10
511.070343
 20
350.509521
 10
510.871887
 20
350.19516
 10
510.620026
 20
349.922821
 10
510.323547
 20
349.70163
 10
509.987885
 20
349.535217
 10
509.627075
 20
349.432037
 10
509.245422
 20
349.398102
  0
LINE
  5
EA
330
A7
100
AcDbEntity
  8
0
  6
Continuous
 62
     0
370
    30
100
AcDbLine
 10
482.144302
 20
347.830897
 30
0.0
 11
482.144302
 21
364.398106
 31
0.0
  0
LINE
  5
EB
330
A7
100
AcDbEntity
  8
0
  6
Continuous
 62
     0
370
    30
100
AcDbLine
 10
538.644302
 20
364.398106
 30
0.0
 11
538.644302
 21
347.830897
 31
0.0
  0
ARC
  5
EC
330
A7
100
AcDbEntity
  8
0
  6
Continuous
 62
     0
370
    30
100
AcDbCircle
 10
537.643871
 20
347.83091
 30
0.0
 40
1.000014554168599
100
AcDbArc
 50
273.977482
 51
359.999277
  0
ARC
  5
ED
330
A7
100
AcDbEntity
  8
0
  6
Continuous
 62
     0
370
    30
100
AcDbCircle
 10
483.144347
 20
347.830916
 30
0.0
 40
1.000020428314923
100
AcDbArc
 50
180.001088
 51
266.041871
  0
ARC
  5
EE
330
A7
100
AcDbEntity
  8
0
  6
Continuous
 62
     0
370
    30
100
AcDbCircle
 10
510.394257
 20
745.900619
 30
0.0
 40
400.0013389703726
100
AcDbArc
 50
270.004313
 51
273.916099
  0
LWPOLYLINE
  5
EF
330
A7
100
AcDbEntity
  8
0
  6
Continuous
 62
     0
370
    30
100
AcDbPolyline
 90
        7
 70
     0
 43
0.0
 10
510.394287
 20
345.899292
 10
505.934692
 20
345.924133
 10
501.474457
 20
345.998749
 10
497.015289
 20
346.123077
 10
492.5578
 20
346.29715
 10
488.102509
 20
346.520905
 10
483.076019
 20
346.833221
  0
LINE
  5
F0
330
A7
100
AcDbEntity
  8
0
  6
Continuous
 62
     0
370
    30
100
AcDbLine
 10
479.894302
 20
364.898106
 30
0.0
 11
487.509582
 21
364.898105
 31
0.0
  0
LINE
  5
F1
330
A7
100
AcDbEntity
  8
0
  6
Continuous
 62
     0
370
    30
100
AcDbLine
 10
487.509582
 20
364.898105
 30
0.0
 11
540.894302
 21
364.898106
 31
0.0
  0
LWPOLYLINE
  5
F2
330
A7
100
AcDbEntity
  8
0
  6
Continuous
 62
     0
370
    30
100
AcDbPolyline
 90
       51
 70
     0
 43
0.0
 10
540.894287
 20
366.498108
 10
540.854736
 20
366.498108
 10
540.736084
 20
366.498108
 10
540.53894
 20
366.498108
 10
540.264343
 20
366.498108
 10
539.914124
 20
366.498108
 10
539.49054
 20
366.498108
 10
538.99646
 20
366.498108
 10
538.434998
 20
366.498108
 10
537.809998
 20
366.498108
 10
537.125427
 20
366.498108
 10
536.38562
 20
366.498108
 10
535.595093
 20
366.498108
 10
534.758545
 20
366.498108
 10
533.880737
 20
366.498108
 10
532.966492
 20
366.498108
 10
532.020569
 20
366.498108
 10
531.047607
 20
366.498108
 10
530.047607
 20
366.498108
 10
528.996033
 20
366.498108
 10
527.889282
 20
366.498108
 10
526.728516
 20
366.498108
 10
525.51532
 20
366.498108
 10
524.251709
 20
366.498108
 10
522.940247
 20
366.498108
 10
521.584045
 20
366.498108
 10
520.186584
 20
366.498108
 10
518.751892
 20
366.498108
 10
517.284363
 20
366.498108
 10
515.78894
 20
366.498108
 10
514.270691
 20
366.498108
 10
512.735229
 20
366.498108
 10
511.188324
 20
366.498108
 10
509.635803
 20
366.498108
 10
508.08374
 20
366.498108
 10
506.538208
 20
366.498108
 10
505.005127
 20
366.498108
 10
503.490356
 20
366.498108
 10
501.999573
 20
366.498108
 10
500.538116
 20
366.498108
 10
499.111023
 20
366.498108
 10
497.72287
 20
366.498108
 10
496.37793
 20
366.498108
 10
495.079895
 20
366.498108
 10
493.832001
 20
366.498108
 10
492.636993
 20
366.498108
 10
491.49707
 20
366.498108
 10
490.413971
 20
366.498108
 10
489.388947
 20
366.498108
 10
488.422729
 20
366.498108
 10
487.509583
 20
366.498108
  0
LINE
  5
F3
330
A7
100
AcDbEntity
  8
0
  6
Continuous
 62
     0
370
    30
100
AcDbLine
 10
487.509582
 20
366.498105
 30
0.0
 11
479.894302
 21
366.498106
 31
0.0
  0
LINE
  5
F4
330
A7
100
AcDbEntity
  8
0
  6
Continuous
 62
     0
370
    30
100
AcDbLine
 10
540.894206
 20
372.298106
 30
0.0
 11
487.509582
 21
372.298105
 31
0.0
  0
LINE
  5
F5
330
A7
100
AcDbEntity
  8
0
  6
Continuous
 62
     0
370
    30
100
AcDbLine
 10
487.509582
 20
372.298105
 30
0.0
 11
479.894397
 21
372.298106
 31
0.0
  0
LWPOLYLINE
  5
F6
330
A7
100
AcDbEntity
  8
0
  6
Continuous
 62
     0
370
    30
100
AcDbPolyline
 90
       51
 70
     0
 43
0.0
 10
540.894287
 20
373.898102
 10
540.854736
 20
373.898102
 10
540.736084
 20
373.898102
 10
540.53894
 20
373.898102
 10
540.264343
 20
373.898102
 10
539.914124
 20
373.898102
 10
539.49054
 20
373.898102
 10
538.99646
 20
373.898102
 10
538.434998
 20
373.898102
 10
537.809998
 20
373.898102
 10
537.125427
 20
373.898102
 10
536.38562
 20
373.898102
 10
535.595093
 20
373.898102
 10
534.758545
 20
373.898102
 10
533.880737
 20
373.898102
 10
532.966492
 20
373.898102
 10
532.020569
 20
373.898102
 10
531.047607
 20
373.898102
 10
530.047607
 20
373.898102
 10
528.996033
 20
373.898102
 10
527.889282
 20
373.898102
 10
526.728516
 20
373.898102
 10
525.51532
 20
373.898102
 10
524.251709
 20
373.898102
 10
522.940247
 20
373.898102
 10
521.584045
 20
373.898102
 10
520.186584
 20
373.898102
 10
518.751892
 20
373.898102
 10
517.284363
 20
373.898102
 10
515.78894
 20
373.898102
 10
514.270691
 20
373.898102
 10
512.735229
 20
373.898102
 10
511.188324
 20
373.898102
 10
509.635803
 20
373.898102
 10
508.08374
 20
373.898102
 10
506.538208
 20
373.898102
 10
505.005127
 20
373.898102
 10
503.490356
 20
373.898102
 10
501.999573
 20
373.898102
 10
500.538116
 20
373.898102
 10
499.111023
 20
373.898102
 10
497.72287
 20
373.898102
 10
496.37793
 20
373.898102
 10
495.079895
 20
373.898102
 10
493.832001
 20
373.898102
 10
492.636993
 20
373.898102
 10
491.49707
 20
373.898102
 10
490.413971
 20
373.898102
 10
489.388947
 20
373.898102
 10
488.422729
 20
373.898102
 10
487.509583
 20
373.898102
  0
LINE
  5
F7
330
A7
100
AcDbEntity
  8
0
  6
Continuous
 62
     0
370
    30
100
AcDbLine
 10
487.509582
 20
373.898105
 30
0.0
 11
479.894302
 21
373.898106
 31
0.0
  0
LINE
  5
F8
330
A7
100
AcDbEntity
  8
0
  6
Continuous
 62
     0
370
    30
100
AcDbLine
 10
483.794015
 20
364.898106
 30
0.0
 11
483.794015
 21
364.398106
 31
0.0
  0
LINE
  5
F9
330
A7
100
AcDbEntity
  8
0
  6
Continuous
 62
     0
370
    30
100
AcDbLine
 10
536.994113
 20
364.898106
 30
0.0
 11
536.994113
 21
364.398106
 31
0.0
  0
LINE
  5
FA
330
A7
100
AcDbEntity
  8
0
  6
Continuous
 62
     0
370
    30
100
AcDbLine
 10
540.894302
 20
372.298106
 30
0.0
 11
540.894302
 21
373.898106
 31
0.0
  0
LINE
  5
FB
330
A7
100
AcDbEntity
  8
0
  6
Continuous
 62
     0
370
    30
100
AcDbLine
 10
479.894302
 20
373.898106
 30
0.0
 11
479.894302
 21
372.298106
 31
0.0
  0
LINE
  5
FC
330
A7
100
AcDbEntity
  8
0
  6
Continuous
 62
     0
370
    30
100
AcDbLine
 10
539.844302
 20
366.498105
 30
0.0
 11
539.844302
 21
372.298106
 31
0.0
  0
LINE
  5
FD
330
A7
100
AcDbEntity
  8
0
  6
Continuous
 62
     0
370
    30
100
AcDbLine
 10
480.944302
 20
372.298106
 30
0.0
 11
480.944302
 21
366.498105
 31
0.0
  0
LINE
  5
FE
330
A7
100
AcDbEntity
  8
0
  6
Continuous
 62
     0
370
    30
100
AcDbLine
 10
479.894302
 20
364.898106
 30
0.0
 11
479.894302
 21
366.498106
 31
0.0
  0
LINE
  5
FF
330
A7
100
AcDbEntity
  8
0
  6
Continuous
 62
     0
370
    30
100
AcDbLine
 10
540.894302
 20
364.898106
 30
0.0
 11
540.894302
 21
366.498106
 31
0.0
  0
ENDBLK
  5
101
330
A7
100
AcDbEntity
  8
0
100
AcDbBlockEnd
  0
BLOCK
  5
186
330
103
100
AcDbEntity
  8
0
100
AcDbBlockBegin
  2
c
 70
     0
 10
480.667969
 20
93.217133
 30
0.0
  3
c
  1

  0
LINE
  5
104
330
103
100
AcDbEntity
  8
0
  6
Continuous
 62
     0
370
     0
100
AcDbLine
 10
727.770188
 20
705.903712
 30
0.0
 11
727.770188
 21
651.312322
 31
0.0
  0
LINE
  5
105
330
103
100
AcDbEntity
  8
0
  6
Continuous
 62
     0
370
     0
100
AcDbLine
 10
726.772523
 20
706.834645
 30
0.0
 11
726.772523
 21
650.381389
 31
0.0
  0
LWPOLYLINE
  5
106
330
103
100
AcDbEntity
  8
0
  6
Continuous
 62
     0
370
     0
100
AcDbPolyline
 90
        7
 70
     0
 43
0.0
 10
725.205322
 20
706.834656
 10
725.176697
 20
706.818787
 10
725.089233
 20
706.799377
 10
724.947754
 20
706.777649
 10
724.75592
 20
706.755066
 10
724.519226
 20
706.733154
 10
724.207581
 20
706.711304
  0
LWPOLYLINE
  5
107
330
103
100
AcDbEntity
  8
0
  6
Continuous
 62
     0
370
     0
100
AcDbPolyline
 90
       12
 70
     0
 43
0.0
 10
724.207581
 20
706.711304
 10
723.862732
 20
706.694763
 10
723.493896
 20
706.684937
 10
723.115051
 20
706.6828
 10
722.739258
 20
706.68866
 10
722.38031
 20
706.701843
 10
722.050903
 20
706.721069
 10
721.762756
 20
706.744385
 10
721.527039
 20
706.76947
 10
721.35144
 20
706.794128
 10
721.24176
 20
706.816467
 10
721.205322
 20
706.834656
  0
LWPOLYLINE
  5
108
330
103
100
AcDbEntity
  8
0
  6
Continuous
 62
     0
370
     0
100
AcDbPolyline
 90
       10
 70
     0
 43
0.0
 10
717.205322
 20
706.834656
 10
717.169067
 20
706.816528
 10
717.058533
 20
706.794128
 10
716.881226
 20
706.769226
 10
716.642395
 20
706.743896
 10
716.35083
 20
706.720459
 10
716.017395
 20
706.701233
 10
715.654175
 20
706.688232
 10
715.274597
 20
706.682739
 10
714.890808
 20
706.685364
  0
LWPOLYLINE
  5
109
330
103
100
AcDbEntity
  8
0
  6
Continuous
 62
     0
370
     0
100
AcDbPolyline
 90
        9
 70
     0
 43
0.0
 10
714.890808
 20
706.685364
 10
714.553955
 20
706.694519
 10
714.236755
 20
706.709351
 10
713.948792
 20
706.728577
 10
713.698486
 20
706.75061
 10
713.49353
 20
706.773682
 10
713.340393
 20
706.796021
 10
713.242981
 20
706.816223
 10
713.205322
 20
706.834656
  0
LINE
  5
10A
330
103
100
AcDbEntity
  8
0
  6
Continuous
 62
     0
370
    30
100
AcDbLine
 10
710.205315
 20
706.834645
 30
0.0
 11
710.205315
 21
650.381389
 31
0.0
  0
LWPOLYLINE
  5
10B
330
103
100
AcDbEntity
  8
0
  6
Continuous
 62
     0
370
     0
100
AcDbPolyline
 90
        5
 70
     0
 43
0.0
 10
716.833435
 20
706.858032
 10
716.98291
 20
706.857178
 10
717.097412
 20
706.85376
 10
717.171875
 20
706.847473
 10
717.205322
 20
706.834656
  0
LWPOLYLINE
  5
10C
330
103
100
AcDbEntity
  8
0
  6
Continuous
 62
     0
370
     0
100
AcDbPolyline
 90
        5
 70
     0
 43
0.0
 10
713.205322
 20
706.834656
 10
713.224365
 20
706.84491
 10
713.284973
 20
706.852112
 10
713.38739
 20
706.856384
 10
713.576721
 20
706.858032
  0
LWPOLYLINE
  5
10D
330
103
100
AcDbEntity
  8
0
  6
Continuous
 62
     0
370
     0
100
AcDbPolyline
 90
        5
 70
     0
 43
0.0
 10
724.833435
 20
706.858032
 10
724.98291
 20
706.857178
 10
725.097412
 20
706.85376
 10
725.171875
 20
706.847473
 10
725.205322
 20
706.834656
  0
LWPOLYLINE
  5
10E
330
103
100
AcDbEntity
  8
0
  6
Continuous
 62
     0
370
     0
100
AcDbPolyline
 90
        5
 70
     0
 43
0.0
 10
721.205322
 20
706.834656
 10
721.224365
 20
706.84491
 10
721.284973
 20
706.852112
 10
721.38739
 20
706.856384
 10
721.576721
 20
706.858032
  0
LINE
  5
10F
330
103
100
AcDbEntity
  8
0
  6
Continuous
 62
     0
370
    30
100
AcDbLine
 10
724.856371
 20
706.858017
 30
0.0
 11
721.554099
 21
706.858017
 31
0.0
  0
LINE
  5
110
330
103
100
AcDbEntity
  8
0
  6
Continuous
 62
     0
370
    30
100
AcDbLine
 10
716.856371
 20
706.858017
 30
0.0
 11
713.554099
 21
706.858017
 31
0.0
  0
LINE
  5
111
330
103
100
AcDbEntity
  8
0
  6
Continuous
 62
     0
370
    30
100
AcDbLine
 10
726.772523
 20
650.358017
 30
0.0
 11
710.205314
 21
650.358017
 31
0.0
  0
LINE
  5
112
330
103
100
AcDbEntity
  8
0
  6
Continuous
 62
     0
370
    30
100
AcDbLine
 10
710.205314
 20
706.858017
 30
0.0
 11
713.554098
 21
706.858017
 31
0.0
  0
LINE
  5
113
330
103
100
AcDbEntity
  8
0
  6
Continuous
 62
     0
370
    30
100
AcDbLine
 10
716.85641
 20
706.858017
 30
0.0
 11
721.554098
 21
706.858017
 31
0.0
  0
LINE
  5
114
330
103
100
AcDbEntity
  8
0
  6
Continuous
 62
     0
370
    30
100
AcDbLine
 10
724.85641
 20
706.858017
 30
0.0
 11
726.772523
 21
706.858017
 31
0.0
  0
ARC
  5
115
330
103
100
AcDbEntity
  8
0
  6
Continuous
 62
     0
370
    30
100
AcDbCircle
 10
726.772514
 20
705.857362
 30
0.0
 40
1.000010947839846
100
AcDbArc
 50
4.0267
 51
89.9995
  0
ARC
  5
116
330
103
100
AcDbEntity
  8
0
  6
Continuous
 62
     0
370
    30
100
AcDbCircle
 10
726.772507
 20
651.358281
 30
0.0
 40
1.000017147321525
100
AcDbArc
 50
270.000884
 51
356.04082
  0
ARC
  5
117
330
103
100
AcDbEntity
  8
0
  6
Continuous
 62
     0
370
    30
100
AcDbCircle
 10
328.702801
 20
678.607971
 30
0.0
 40
400.0013389703728
100
AcDbArc
 50
0.004313
 51
3.916099
  0
ARC
  5
118
330
103
100
AcDbEntity
  8
0
  6
Continuous
 62
     0
370
    30
100
AcDbCircle
 10
328.702801
 20
678.608063
 30
0.0
 40
400.001338970387
100
AcDbArc
 50
356.083901
 51
359.995687
  0
LWPOLYLINE
  5
119
330
103
100
AcDbEntity
  8
0
  6
Continuous
 62
     0
370
    30
100
AcDbPolyline
 90
       48
 70
     0
 43
0.0
 10
709.705322
 20
648.108032
 10
709.705322
 20
648.148315
 10
709.705322
 20
648.268738
 10
709.705322
 20
648.467834
 10
709.705322
 20
648.743774
 10
709.705322
 20
649.094055
 10
709.705322
 20
649.515625
 10
709.705322
 20
650.005127
 10
709.705322
 20
650.558716
 10
709.705322
 20
651.172241
 10
709.705322
 20
651.841248
 10
709.705322
 20
652.561279
 10
709.705322
 20
653.327515
 10
709.705322
 20
654.135254
 10
709.705322
 20
654.979797
 10
709.705322
 20
655.856689
 10
709.705322
 20
656.782837
 10
709.705322
 20
657.76947
 10
709.705322
 20
658.816101
 10
709.705322
 20
659.921936
 10
709.705322
 20
661.085632
 10
709.705322
 20
662.305176
 10
709.705322
 20
663.578308
 10
709.705322
 20
664.901978
 10
709.705322
 20
666.272766
 10
709.705322
 20
667.686646
 10
709.705322
 20
669.139282
 10
709.705322
 20
670.625671
 10
709.705322
 20
672.140564
 10
709.705322
 20
673.678345
 10
709.705322
 20
675.233032
 10
709.705322
 20
676.798584
 10
709.705322
 20
678.368774
 10
709.705322
 20
679.937439
 10
709.705322
 20
681.49823
 10
709.705322
 20
683.045227
 10
709.705322
 20
684.572388
 10
709.705322
 20
686.074341
 10
709.705322
 20
687.545654
 10
709.705322
 20
688.981567
 10
709.705322
 20
690.377686
 10
709.705322
 20
691.72998
 10
709.705322
 20
693.035156
 10
709.705322
 20
694.290161
 10
709.705322
 20
695.492615
 10
709.705322
 20
696.640625
 10
709.705322
 20
697.732788
 10
709.705322
 20
698.770874
  0
LINE
  5
11A
330
103
100
AcDbEntity
  8
0
  6
Continuous
 62
     0
370
    30
100
AcDbLine
 10
709.705316
 20
698.770844
 30
0.0
 11
709.705315
 21
709.108017
 31
0.0
  0
LWPOLYLINE
  5
11B
330
103
100
AcDbEntity
  8
0
  6
Continuous
 62
     0
370
    30
100
AcDbPolyline
 90
       19
 70
     0
 43
0.0
 10
708.105286
 20
709.108032
 10
708.105286
 20
709.070801
 10
708.105286
 20
708.959167
 10
708.105286
 20
708.77356
 10
708.105286
 20
708.515015
 10
708.105286
 20
708.18512
 10
708.105286
 20
707.785828
 10
708.105286
 20
707.31958
 10
708.105286
 20
706.789429
 10
708.105286
 20
706.198486
 10
708.105286
 20
705.550476
 10
708.105286
 20
704.849304
 10
708.105286
 20
704.098938
 10
708.105286
 20
703.30365
 10
708.105286
 20
702.467773
 10
708.105286
 20
701.595764
 10
708.105286
 20
700.691895
 10
708.105286
 20
699.760559
 10
708.105286
 20
698.770874
  0
LINE
  5
11C
330
103
100
AcDbEntity
  8
0
  6
Continuous
 62
     0
370
    30
100
AcDbLine
 10
708.105316
 20
698.770844
 30
0.0
 11
708.105315
 21
648.108017
 31
0.0
  0
LWPOLYLINE
  5
11D
330
103
100
AcDbEntity
  8
0
  6
Continuous
 62
     0
370
    30
100
AcDbPolyline
 90
       18
 70
     0
 43
0.0
 10
702.305298
 20
709.10791
 10
702.305298
 20
709.070129
 10
702.305298
 20
708.95697
 10
702.305298
 20
708.768738
 10
702.305298
 20
708.505615
 10
702.305298
 20
708.167786
 10
702.305298
 20
707.756287
 10
702.305298
 20
707.272461
 10
702.305298
 20
706.717651
 10
702.305298
 20
706.093323
 10
702.305298
 20
705.400879
 10
702.305298
 20
704.641724
 10
702.305298
 20
703.817505
 10
702.305298
 20
702.930664
 10
702.305298
 20
701.983582
 10
702.305298
 20
700.978577
 10
702.305298
 20
699.918091
 10
702.305298
 20
698.770874
  0
LINE
  5
11E
330
103
100
AcDbEntity
  8
0
  6
Continuous
 62
     0
370
    30
100
AcDbLine
 10
702.305316
 20
698.770844
 30
0.0
 11
702.305315
 21
648.108144
 31
0.0
  0
LWPOLYLINE
  5
11F
330
103
100
AcDbEntity
  8
0
  6
Continuous
 62
     0
370
    30
100
AcDbPolyline
 90
       19
 70
     0
 43
0.0
 10
700.705322
 20
709.108032
 10
700.705322
 20
709.070801
 10
700.705322
 20
708.959167
 10
700.705322
 20
708.77356
 10
700.705322
 20
708.515015
 10
700.705322
 20
708.18512
 10
700.705322
 20
707.785828
 10
700.705322
 20
707.31958
 10
700.705322
 20
706.789429
 10
700.705322
 20
706.198486
 10
700.705322
 20
705.550476
 10
700.705322
 20
704.849304
 10
700.705322
 20
704.098938
 10
700.705322
 20
703.30365
 10
700.705322
 20
702.467773
 10
700.705322
 20
701.595764
 10
700.705322
 20
700.691895
 10
700.705322
 20
699.760559
 10
700.705322
 20
698.770874
  0
LINE
  5
120
330
103
100
AcDbEntity
  8
0
  6
Continuous
 62
     0
370
    30
100
AcDbLine
 10
700.705316
 20
698.770844
 30
0.0
 11
700.705315
 21
648.108017
 31
0.0
  0
LINE
  5
121
330
103
100
AcDbEntity
  8
0
  6
Continuous
 62
     0
370
    30
100
AcDbLine
 10
709.705315
 20
652.008178
 30
0.0
 11
710.205315
 21
652.008178
 31
0.0
  0
LINE
  5
122
330
103
100
AcDbEntity
  8
0
  6
Continuous
 62
     0
370
    30
100
AcDbLine
 10
709.705315
 20
705.208276
 30
0.0
 11
710.205315
 21
705.208276
 31
0.0
  0
LINE
  5
123
330
103
100
AcDbEntity
  8
0
  6
Continuous
 62
     0
370
    30
100
AcDbLine
 10
702.305315
 20
709.108017
 30
0.0
 11
700.705315
 21
709.108017
 31
0.0
  0
LINE
  5
124
330
103
100
AcDbEntity
  8
0
  6
Continuous
 62
     0
370
    30
100
AcDbLine
 10
700.705315
 20
648.108017
 30
0.0
 11
702.305315
 21
648.108017
 31
0.0
  0
LINE
  5
125
330
103
100
AcDbEntity
  8
0
  6
Continuous
 62
     0
370
    30
100
AcDbLine
 10
708.105315
 20
708.058017
 30
0.0
 11
702.305315
 21
708.058017
 31
0.0
  0
LINE
  5
126
330
103
100
AcDbEntity
  8
0
  6
Continuous
 62
     0
370
    30
100
AcDbLine
 10
702.305315
 20
649.158017
 30
0.0
 11
708.105315
 21
649.158017
 31
0.0
  0
LINE
  5
127
330
103
100
AcDbEntity
  8
0
  6
Continuous
 62
     0
370
    30
100
AcDbLine
 10
709.705315
 20
648.108017
 30
0.0
 11
708.105315
 21
648.108017
 31
0.0
  0
LINE
  5
128
330
103
100
AcDbEntity
  8
0
  6
Continuous
 62
     0
370
    30
100
AcDbLine
 10
709.705315
 20
709.108017
 30
0.0
 11
708.105315
 21
709.108017
 31
0.0
  0
LWPOLYLINE
  5
129
330
103
100
AcDbEntity
  8
0
  6
Continuous
 62
     0
370
    30
100
AcDbPolyline
 90
       53
 70
     0
 43
0.0
 10
763.953369
 20
580.108032
 10
763.953369
 20
580.068909
 10
763.953369
 20
579.951233
 10
763.953369
 20
579.75592
 10
763.953369
 20
579.483643
 10
763.953369
 20
579.135254
 10
763.953369
 20
578.71167
 10
763.953369
 20
578.2146
 10
763.953369
 20
577.64624
 10
763.953369
 20
577.008728
 10
763.953369
 20
576.304199
 10
763.953369
 20
575.534851
 10
763.953369
 20
574.703491
 10
763.953369
 20
573.813538
 10
763.953369
 20
572.868347
 10
763.953369
 20
571.871277
 10
763.953369
 20
570.825745
 10
763.953369
 20
569.735413
 10
763.953369
 20
568.604492
 10
763.953369
 20
567.437256
 10
763.953369
 20
566.237915
 10
763.953369
 20
565.010803
 10
763.953369
 20
563.760132
 10
763.953369
 20
562.490662
 10
763.953369
 20
561.207031
 10
763.953369
 20
559.914001
 10
763.953369
 20
558.616272
 10
763.953369
 20
557.318481
 10
763.953369
 20
556.02533
 10
763.953369
 20
554.741577
 10
763.953369
 20
553.471924
 10
763.953369
 20
552.221008
 10
763.953369
 20
550.99353
 10
763.953369
 20
549.793823
 10
763.953369
 20
548.62616
 10
763.953369
 20
547.494751
 10
763.953369
 20
546.40387
 10
763.953369
 20
545.357727
 10
763.953369
 20
544.359985
 10
763.953369
 20
543.414124
 10
763.953369
 20
542.523438
 10
763.953369
 20
541.691406
 10
763.953369
 20
540.921204
 10
763.953369
 20
540.21582
 10
763.953369
 20
539.577454
 10
763.953369
 20
539.00824
 10
763.953369
 20
538.510254
 10
763.953369
 20
538.085693
 10
763.953369
 20
537.736328
 10
763.953369
 20
537.463135
 10
763.953369
 20
537.266785
 10
763.953369
 20
537.148132
 10
763.953369
 20
537.108032
  0
LINE
  5
12A
330
103
100
AcDbEntity
  8
0
  6
Continuous
 62
     0
370
    30
100
AcDbLine
 10
763.953373
 20
537.108017
 30
0.0
 11
763.453373
 21
536.608017
 31
0.0
  0
LINE
  5
12B
330
103
100
AcDbEntity
  8
0
  6
Continuous
 62
     0
370
    30
100
AcDbLine
 10
763.453373
 20
580.608017
 30
0.0
 11
763.453373
 21
536.608017
 31
0.0
  0
LINE
  5
12C
330
103
100
AcDbEntity
  8
0
  6
Continuous
 62
     0
370
    30
100
AcDbLine
 10
750.203373
 20
536.608017
 30
0.0
 11
713.953373
 21
536.608017
 31
0.0
  0
LINE
  5
12D
330
103
100
AcDbEntity
  8
0
  6
Continuous
 62
     0
370
    30
100
AcDbLine
 10
713.953373
 20
580.608017
 30
0.0
 11
713.953373
 21
536.608017
 31
0.0
  0
LWPOLYLINE
  5
12E
330
103
100
AcDbEntity
  8
0
  6
Continuous
 62
     0
370
     0
100
AcDbPolyline
 90
       26
 70
     0
 43
0.0
 10
750.203369
 20
536.608032
 10
750.24115
 20
536.61615
 10
750.35498
 20
536.640137
 10
750.541199
 20
536.678223
 10
750.794556
 20
536.727966
 10
751.111206
 20
536.78656
 10
751.492188
 20
536.849854
 10
751.927612
 20
536.914368
 10
752.407288
 20
536.976501
 10
752.927734
 20
537.03186
 10
753.481934
 20
537.07666
 10
754.059875
 20
537.108154
 10
754.652283
 20
537.124878
 10
755.249573
 20
537.124939
 10
755.842041
 20
537.108398
 10
756.420166
 20
537.076965
 10
756.974609
 20
537.032288
 10
757.495361
 20
536.97699
 10
757.975342
 20
536.914917
 10
758.411194
 20
536.850403
 10
758.792664
 20
536.787048
 10
759.109863
 20
536.728455
 10
759.363708
 20
536.678589
 10
759.550537
 20
536.640442
 10
759.664978
 20
536.616272
 10
759.703369
 20
536.608032
  0
LINE
  5
12F
330
103
100
AcDbEntity
  8
0
  6
Continuous
 62
     0
370
    30
100
AcDbLine
 10
759.703373
 20
536.608017
 30
0.0
 11
763.453373
 21
536.608017
 31
0.0
  0
LWPOLYLINE
  5
130
330
103
100
AcDbEntity
  8
0
  6
Continuous
 62
     0
370
     0
100
AcDbPolyline
 90
       25
 70
     0
 43
0.0
 10
759.052979
 20
580.608032
 10
759.018555
 20
580.601562
 10
758.913147
 20
580.58197
 10
758.737122
 20
580.550598
 10
758.49585
 20
580.510315
 10
758.195068
 20
580.46405
 10
757.841003
 20
580.414917
 10
757.440552
 20
580.36554
 10
756.999268
 20
580.319153
 10
756.522278
 20
580.279358
 10
756.017944
 20
580.248901
 10
755.495422
 20
580.229492
 10
754.963623
 20
580.222534
 10
754.431641
 20
580.229004
 10
753.908569
 20
580.247925
 10
753.403442
 20
580.278015
 10
752.925232
 20
580.317505
 10
752.482483
 20
580.363647
 10
752.080261
 20
580.412964
 10
751.724243
 20
580.462219
 10
751.421326
 20
580.508606
 10
751.177673
 20
580.549194
 10
750.999023
 20
580.580994
 10
750.890808
 20
580.601013
 10
750.853394
 20
580.608032
  0
LWPOLYLINE
  5
131
330
103
100
AcDbEntity
  8
0
  6
Continuous
 62
     0
370
    30
100
AcDbPolyline
 90
       24
 70
     0
 43
0.0
 10
751.003418
 20
580.608032
 10
751.040222
 20
580.60144
 10
751.149902
 20
580.582153
 10
751.330139
 20
580.551697
 10
751.577515
 20
580.512207
 10
751.887146
 20
580.466614
 10
752.253296
 20
580.418274
 10
752.669556
 20
580.370667
 10
753.128296
 20
580.327332
 10
753.621399
 20
580.291443
 10
754.139771
 20
580.265808
 10
754.673706
 20
580.252319
 10
755.213074
 20
580.252075
 10
755.747375
 20
580.265076
 10
756.266541
 20
580.290344
 10
756.760742
 20
580.325867
 10
757.220886
 20
580.368958
 10
757.638672
 20
580.416504
 10
758.007019
 20
580.464905
 10
758.318909
 20
580.51062
 10
758.568481
 20
580.550354
 10
758.751404
 20
580.581238
 10
758.86377
 20
580.600952
 10
758.903381
 20
580.608032
  0
LWPOLYLINE
  5
132
330
103
100
AcDbEntity
  8
0
  6
Continuous
 62
     0
370
    30
100
AcDbPolyline
 90
       24
 70
     0
 43
0.0
 10
758.903381
 20
587.937988
 10
758.872131
 20
587.937988
 10
758.773254
 20
587.937988
 10
758.601135
 20
587.937988
 10
758.353638
 20
587.937988
 10
758.033325
 20
587.937988
 10
757.647156
 20
587.937988
 10
757.206543
 20
587.937988
 10
756.726074
 20
587.937988
 10
756.221924
 20
587.937988
 10
755.710327
 20
587.937988
 10
755.205872
 20
587.937988
 10
754.714905
 20
587.937988
 10
754.210876
 20
587.937988
 10
753.69928
 20
587.937988
 10
753.194702
 20
587.937988
 10
752.713318
 20
587.937988
 10
752.271423
 20
587.937988
 10
751.883545
 20
587.937988
 10
751.561157
 20
587.937988
 10
751.311584
 20
587.937988
 10
751.137329
 20
587.937988
 10
751.036438
 20
587.937988
 10
751.003357
 20
587.937988
  0
LINE
  5
133
330
103
100
AcDbEntity
  8
0
  6
Continuous
 62
     0
370
    30
100
AcDbLine
 10
758.903373
 20
580.608017
 30
0.0
 11
758.903373
 21
587.938017
 31
0.0
  0
LWPOLYLINE
  5
134
330
103
100
AcDbEntity
  8
0
  6
Continuous
 62
     0
370
    30
100
AcDbPolyline
 90
       22
 70
     0
 43
0.0
 10
751.503357
 20
588.437988
 10
751.54187
 20
588.437988
 10
751.656311
 20
588.437988
 10
751.84436
 20
588.437988
 10
752.101624
 20
588.437988
 10
752.422546
 20
588.437988
 10
752.799805
 20
588.437988
 10
753.225159
 20
588.437988
 10
753.688965
 20
588.437988
 10
754.180969
 20
588.437988
 10
754.690247
 20
588.437988
 10
755.205322
 20
588.437988
 10
755.714844
 20
588.437988
 10
756.207336
 20
588.437988
 10
756.671875
 20
588.437988
 10
757.098145
 20
588.437988
 10
757.476562
 20
588.437988
 10
757.798828
 20
588.437988
 10
758.057495
 20
588.437988
 10
758.247131
 20
588.437988
 10
758.36322
 20
588.437988
 10
758.403381
 20
588.437988
  0
LINE
  5
135
330
103
100
AcDbEntity
  8
0
  6
Continuous
 62
     0
370
    30
100
AcDbLine
 10
758.403373
 20
588.438017
 30
0.0
 11
758.903373
 21
587.938017
 31
0.0
  0
LWPOLYLINE
  5
136
330
103
100
AcDbEntity
  8
0
  6
Continuous
 62
     0
370
     0
100
AcDbPolyline
 90
       93
 70
     0
 43
0.0
 10
702.055298
 20
493.660553
 10
702.055298
 20
493.610809
 10
702.055298
 20
493.62381
 10
702.055298
 20
493.701843
 10
702.055298
 20
493.847137
 10
702.055298
 20
494.061676
 10
702.055298
 20
494.347412
 10
702.055298
 20
494.706055
 10
702.055298
 20
495.139099
 10
702.055298
 20
495.647949
 10
702.055298
 20
496.233612
 10
702.055298
 20
496.896973
 10
702.055298
 20
497.63858
 10
702.055298
 20
498.45874
 10
702.055298
 20
499.357452
 10
702.055298
 20
500.334473
 10
702.055298
 20
501.38916
 10
702.055298
 20
502.52063
 10
702.055298
 20
503.727631
 10
702.055298
 20
505.008667
 10
702.055298
 20
506.361877
 10
702.055298
 20
507.785156
 10
702.055298
 20
509.276031
 10
702.055298
 20
510.831818
 10
702.055298
 20
512.449585
 10
702.055298
 20
514.126038
 10
702.055298
 20
515.857849
 10
702.055298
 20
517.641357
 10
702.055298
 20
519.472839
 10
702.055298
 20
521.348206
 10
702.055298
 20
523.26355
 10
702.055298
 20
525.214661
 10
702.055298
 20
527.197388
 10
702.055298
 20
529.207397
 10
702.055298
 20
531.240479
 10
702.055298
 20
533.292419
 10
702.055298
 20
535.359009
 10
702.055298
 20
537.436157
 10
702.055298
 20
539.519836
 10
702.055298
 20
541.60614
 10
702.055298
 20
543.691223
 10
702.055298
 20
545.771545
 10
702.055298
 20
547.843567
 10
702.055298
 20
549.903992
 10
702.055298
 20
551.949707
 10
702.055298
 20
553.977783
 10
702.055298
 20
555.985474
 10
702.055298
 20
557.995422
 10
702.055298
 20
560.030945
 10
702.055298
 20
562.089355
 10
702.055298
 20
564.16803
 10
702.055298
 20
566.263916
 10
702.055298
 20
568.373901
 10
702.055298
 20
570.494629
 10
702.055298
 20
572.622559
 10
702.055298
 20
574.754028
 10
702.055298
 20
576.885193
 10
702.055298
 20
579.012024
 10
702.055298
 20
581.130554
 10
702.055298
 20
583.23645
 10
702.055298
 20
585.325623
 10
702.055298
 20
587.393738
 10
702.055298
 20
589.436462
 10
702.055298
 20
591.449585
 10
702.055298
 20
593.428711
 10
702.055298
 20
595.369751
 10
702.055298
 20
597.268555
 10
702.055298
 20
599.121155
 10
702.055298
 20
600.923767
 10
702.055298
 20
602.672729
 10
702.055298
 20
604.364502
 10
702.055298
 20
605.995972
 10
702.055298
 20
607.564087
 10
702.055298
 20
609.06604
 10
702.055298
 20
610.499573
 10
702.055298
 20
611.862305
 10
702.055298
 20
613.152527
 10
702.055298
 20
614.368652
 10
702.055298
 20
615.509338
 10
702.055298
 20
616.57373
 10
702.055298
 20
617.561157
 10
702.055298
 20
618.471313
 10
702.055298
 20
619.304077
 10
702.055298
 20
620.059814
 10
702.055298
 20
620.738953
 10
702.055298
 20
621.342285
 10
702.055298
 20
621.87085
 10
702.055298
 20
622.325867
 10
702.055298
 20
622.708801
 10
702.055298
 20
623.02124
 10
702.055298
 20
623.265076
 10
702.055298
 20
623.4422
 10
702.055298
 20
623.555481
  0
LINE
  5
137
330
103
100
AcDbEntity
  8
0
  6
Continuous
 62
     0
370
     0
100
AcDbLine
 10
700.955315
 20
623.555481
 30
0.0
 11
700.955315
 21
493.660553
 31
0.0
  0
LINE
  5
138
330
103
100
AcDbEntity
  8
0
  6
Continuous
 62
     0
370
    30
100
AcDbLine
 10
702.305315
 20
623.305683
 30
0.0
 11
702.305315
 21
493.910351
 31
0.0
  0
LWPOLYLINE
  5
139
330
103
100
AcDbEntity
  8
0
  6
Continuous
 62
     0
370
     0
100
AcDbPolyline
 90
       19
 70
     0
 43
0.0
 10
704.105286
 20
494.65976
 10
704.136841
 20
494.646179
 10
704.230896
 20
494.63501
 10
704.384155
 20
494.626251
 10
704.592468
 20
494.619812
 10
704.850098
 20
494.615356
 10
705.149048
 20
494.612518
 10
705.479797
 20
494.61084
 10
705.832275
 20
494.610016
 10
706.195984
 20
494.609772
 10
706.559998
 20
494.609985
 10
706.913269
 20
494.610779
 10
707.245422
 20
494.612396
 10
707.546387
 20
494.615173
 10
707.806213
 20
494.619537
 10
708.017029
 20
494.625885
 10
708.173401
 20
494.634491
 10
708.270386
 20
494.645538
 10
708.305298
 20
494.65976
  0
LWPOLYLINE
  5
13A
330
103
100
AcDbEntity
  8
0
  6
Continuous
 62
     0
370
     0
100
AcDbPolyline
 90
       92
 70
     0
 43
0.0
 10
708.355286
 20
494.65976
 10
708.355286
 20
494.610565
 10
708.355286
 20
494.624573
 10
708.355286
 20
494.704071
 10
708.355286
 20
494.851318
 10
708.355286
 20
495.068359
 10
708.355286
 20
495.357147
 10
708.355286
 20
495.719421
 10
708.355286
 20
496.156738
 10
708.355286
 20
496.67038
 10
708.355286
 20
497.261444
 10
708.355286
 20
497.930786
 10
708.355286
 20
498.678955
 10
708.355286
 20
499.506165
 10
708.355286
 20
500.412445
 10
708.355286
 20
501.397461
 10
708.355286
 20
502.46048
 10
708.355286
 20
503.600616
 10
708.355286
 20
504.816498
 10
708.355347
 20
506.106537
 10
708.355347
 20
507.468781
 10
708.355347
 20
508.901031
 10
708.355347
 20
510.400726
 10
708.355347
 20
511.965057
 10
708.355347
 20
513.590942
 10
708.355347
 20
515.275024
 10
708.355347
 20
517.013855
 10
708.355347
 20
518.803589
 10
708.355347
 20
520.640442
 10
708.355347
 20
522.520264
 10
708.355347
 20
524.438965
 10
708.355347
 20
526.392273
 10
708.355347
 20
528.375916
 10
708.355347
 20
530.385498
 10
708.355347
 20
532.416809
 10
708.355347
 20
534.465515
 10
708.355347
 20
536.527344
 10
708.355347
 20
538.598145
 10
708.355347
 20
540.67395
 10
708.355347
 20
542.750732
 10
708.355347
 20
544.824707
 10
708.355347
 20
546.892334
 10
708.355347
 20
548.950073
 10
708.355347
 20
550.99469
 10
708.355347
 20
553.023071
 10
708.355347
 20
555.032349
 10
708.355347
 20
557.026123
 10
708.355347
 20
559.040283
 10
708.355347
 20
561.078857
 10
708.355347
 20
563.139099
 10
708.355347
 20
565.218079
 10
708.355347
 20
567.312683
 10
708.355347
 20
569.419617
 10
708.355347
 20
571.535278
 10
708.355347
 20
573.656128
 10
708.355347
 20
575.778198
 10
708.355347
 20
577.897522
 10
708.355347
 20
580.01001
 10
708.355347
 20
582.111511
 10
708.355347
 20
584.197632
 10
708.355347
 20
586.264038
 10
708.355347
 20
588.306396
 10
708.355347
 20
590.320312
 10
708.355347
 20
592.301453
 10
708.355347
 20
594.245544
 10
708.355347
 20
596.148254
 10
708.355347
 20
598.005676
 10
708.355347
 20
599.813782
 10
708.355347
 20
601.568787
 10
708.355347
 20
603.267151
 10
708.355347
 20
604.905518
 10
708.355347
 20
606.480835
 10
708.355347
 20
607.990173
 10
708.355347
 20
609.43103
 10
708.355347
 20
610.801147
 10
708.355347
 20
612.098511
 10
708.355286
 20
613.321594
 10
708.355286
 20
614.468933
 10
708.355286
 20
615.539612
 10
708.355286
 20
616.532959
 10
708.355286
 20
617.448486
 10
708.355286
 20
618.286133
 10
708.355286
 20
619.046204
 10
708.355286
 20
619.729187
 10
708.355286
 20
620.335754
 10
708.355286
 20
620.866943
 10
708.355286
 20
621.324097
 10
708.355286
 20
621.708557
 10
708.355286
 20
622.022095
 10
708.355286
 20
622.266418
 10
708.355286
 20
622.443604
 10
708.355286
 20
622.556274
  0
LINE
  5
13B
330
103
100
AcDbEntity
  8
0
  6
Continuous
 62
     0
370
     0
100
AcDbLine
 10
702.555315
 20
622.556289
 30
0.0
 11
702.555315
 21
494.608017
 31
0.0
  0
LWPOLYLINE
  5
13C
330
103
100
AcDbEntity
  8
0
  6
Continuous
 62
     0
370
    30
100
AcDbPolyline
 90
       91
 70
     0
 43
0.0
 10
708.605286
 20
493.910339
 10
708.605286
 20
493.858643
 10
708.605286
 20
493.88623
 10
708.605286
 20
493.992828
 10
708.605286
 20
494.17804
 10
708.605286
 20
494.441528
 10
708.605286
 20
494.782959
 10
708.605286
 20
495.201935
 10
708.605286
 20
495.698181
 10
708.605286
 20
496.271271
 10
708.605286
 20
496.920746
 10
708.605286
 20
497.645599
 10
708.605286
 20
498.444702
 10
708.605286
 20
499.316864
 10
708.605286
 20
500.260956
 10
708.605286
 20
501.275848
 10
708.605286
 20
502.360382
 10
708.605286
 20
503.513367
 10
708.605347
 20
504.733734
 10
708.605347
 20
506.020142
 10
708.605347
 20
507.37088
 10
708.605347
 20
508.784027
 10
708.605347
 20
510.257782
 10
708.605347
 20
511.790192
 10
708.605347
 20
513.379395
 10
708.605347
 20
515.02356
 10
708.605347
 20
516.720764
 10
708.605347
 20
518.469116
 10
708.605347
 20
520.266663
 10
708.605347
 20
522.111145
 10
708.605347
 20
524.000061
 10
708.605347
 20
525.93103
 10
708.605347
 20
527.901672
 10
708.605347
 20
529.909607
 10
708.605347
 20
531.952332
 10
708.605347
 20
534.027466
 10
708.605347
 20
536.13269
 10
708.605347
 20
538.265381
 10
708.605347
 20
540.423035
 10
708.605347
 20
542.602844
 10
708.605347
 20
544.802185
 10
708.605347
 20
547.018188
 10
708.605347
 20
549.248352
 10
708.605347
 20
551.489807
 10
708.605347
 20
553.739868
 10
708.605347
 20
555.99585
 10
708.605347
 20
558.255066
 10
708.605347
 20
560.514771
 10
708.605347
 20
562.772156
 10
708.605347
 20
565.024475
 10
708.605347
 20
567.269043
 10
708.605347
 20
569.503113
 10
708.605347
 20
571.723938
 10
708.605347
 20
573.928711
 10
708.605347
 20
576.114685
 10
708.605347
 20
578.279297
 10
708.605347
 20
580.4198
 10
708.605347
 20
582.533813
 10
708.605347
 20
584.618774
 10
708.605347
 20
586.672241
 10
708.605347
 20
588.691589
 10
708.605347
 20
590.674377
 10
708.605347
 20
592.618103
 10
708.605347
 20
594.520203
 10
708.605347
 20
596.378296
 10
708.605347
 20
598.190247
 10
708.605347
 20
599.954041
 10
708.605347
 20
601.667664
 10
708.605347
 20
603.328979
 10
708.605347
 20
604.936035
 10
708.605347
 20
606.486755
 10
708.605347
 20
607.979187
 10
708.605347
 20
609.411194
 10
708.605347
 20
610.780884
 10
708.605347
 20
612.086853
 10
708.605286
 20
613.327637
 10
708.605286
 20
614.502014
 10
708.605286
 20
615.608582
 10
708.605286
 20
616.645996
 10
708.605286
 20
617.612854
 10
708.605286
 20
618.507935
 10
708.605286
 20
619.329834
 10
708.605286
 20
620.077271
 10
708.605286
 20
620.749634
 10
708.605286
 20
621.346252
 10
708.605286
 20
621.866699
 10
708.605286
 20
622.310242
 10
708.605286
 20
622.676453
 10
708.605286
 20
622.964661
 10
708.605286
 20
623.174377
 10
708.605286
 20
623.305664
  0
LWPOLYLINE
  5
13D
330
103
100
AcDbEntity
  8
0
  6
Continuous
 62
     0
370
     0
100
AcDbPolyline
 90
       93
 70
     0
 43
0.0
 10
709.96283
 20
493.660553
 10
709.96283
 20
493.610809
 10
709.96283
 20
493.62381
 10
709.96283
 20
493.701843
 10
709.96283
 20
493.847137
 10
709.96283
 20
494.061676
 10
709.96283
 20
494.347412
 10
709.96283
 20
494.706055
 10
709.96283
 20
495.139099
 10
709.96283
 20
495.647949
 10
709.96283
 20
496.233612
 10
709.96283
 20
496.896973
 10
709.96283
 20
497.63858
 10
709.96283
 20
498.45874
 10
709.96283
 20
499.357452
 10
709.96283
 20
500.334473
 10
709.96283
 20
501.38916
 10
709.96283
 20
502.52063
 10
709.96283
 20
503.727631
 10
709.96283
 20
505.008667
 10
709.96283
 20
506.361877
 10
709.96283
 20
507.785156
 10
709.96283
 20
509.276031
 10
709.96283
 20
510.831818
 10
709.96283
 20
512.449585
 10
709.96283
 20
514.126038
 10
709.96283
 20
515.857849
 10
709.96283
 20
517.641357
 10
709.96283
 20
519.472839
 10
709.96283
 20
521.348206
 10
709.96283
 20
523.26355
 10
709.96283
 20
525.214661
 10
709.96283
 20
527.197388
 10
709.96283
 20
529.207397
 10
709.96283
 20
531.240479
 10
709.96283
 20
533.292419
 10
709.96283
 20
535.359009
 10
709.96283
 20
537.436157
 10
709.96283
 20
539.519836
 10
709.96283
 20
541.60614
 10
709.96283
 20
543.691223
 10
709.96283
 20
545.771545
 10
709.96283
 20
547.843567
 10
709.96283
 20
549.903992
 10
709.96283
 20
551.949707
 10
709.96283
 20
553.977783
 10
709.96283
 20
555.985474
 10
709.96283
 20
557.995422
 10
709.96283
 20
560.030945
 10
709.96283
 20
562.089355
 10
709.96283
 20
564.16803
 10
709.96283
 20
566.263916
 10
709.96283
 20
568.373901
 10
709.96283
 20
570.494629
 10
709.96283
 20
572.622559
 10
709.96283
 20
574.754028
 10
709.96283
 20
576.885193
 10
709.96283
 20
579.012024
 10
709.96283
 20
581.130554
 10
709.96283
 20
583.23645
 10
709.96283
 20
585.325623
 10
709.96283
 20
587.393738
 10
709.96283
 20
589.436462
 10
709.96283
 20
591.449585
 10
709.96283
 20
593.428711
 10
709.96283
 20
595.369751
 10
709.96283
 20
597.268555
 10
709.96283
 20
599.121155
 10
709.96283
 20
600.923767
 10
709.96283
 20
602.672729
 10
709.96283
 20
604.364502
 10
709.96283
 20
605.995972
 10
709.96283
 20
607.564087
 10
709.96283
 20
609.06604
 10
709.96283
 20
610.499573
 10
709.96283
 20
611.862305
 10
709.96283
 20
613.152527
 10
709.96283
 20
614.368652
 10
709.96283
 20
615.509338
 10
709.96283
 20
616.57373
 10
709.96283
 20
617.561157
 10
709.96283
 20
618.471313
 10
709.96283
 20
619.304077
 10
709.96283
 20
620.059814
 10
709.96283
 20
620.738953
 10
709.96283
 20
621.342285
 10
709.96283
 20
621.87085
 10
709.96283
 20
622.325867
 10
709.96283
 20
622.708801
 10
709.96283
 20
623.02124
 10
709.96283
 20
623.265076
 10
709.96283
 20
623.4422
 10
709.96283
 20
623.555481
  0
LINE
  5
13E
330
103
100
AcDbEntity
  8
0
  6
Continuous
 62
     0
370
     0
100
AcDbLine
 10
708.855315
 20
623.555481
 30
0.0
 11
708.855315
 21
493.660553
 31
0.0
  0
LWPOLYLINE
  5
13F
330
103
100
AcDbEntity
  8
0
  6
Continuous
 62
     0
370
    30
100
AcDbPolyline
 90
       51
 70
     0
 43
0.0
 10
711.105286
 20
539.373596
 10
711.105286
 20
539.360779
 10
711.105286
 20
539.412842
 10
711.105286
 20
539.533691
 10
711.105286
 20
539.726746
 10
711.105286
 20
539.994934
 10
711.105286
 20
540.340271
 10
711.105286
 20
540.763977
 10
711.105286
 20
541.266479
 10
711.105286
 20
541.846924
 10
711.105286
 20
542.503723
 10
711.105286
 20
543.233887
 10
711.105286
 20
544.033691
 10
711.105286
 20
544.898315
 10
711.105286
 20
545.822021
 10
711.105286
 20
546.798462
 10
711.105286
 20
547.820557
 10
711.105286
 20
548.880798
 10
711.105286
 20
549.971558
 10
711.105286
 20
551.084961
 10
711.105286
 20
552.213257
 10
711.105286
 20
553.348877
 10
711.105286
 20
554.484741
 10
711.105286
 20
555.614136
 10
711.105286
 20
556.730957
 10
711.105286
 20
557.829651
 10
711.105286
 20
558.930664
 10
711.105286
 20
560.055115
 10
711.105286
 20
561.197815
 10
711.105286
 20
562.352844
 10
711.105286
 20
563.513794
 10
711.105286
 20
564.673645
 10
711.105286
 20
565.82489
 10
711.105286
 20
566.9599
 10
711.105286
 20
568.070679
 10
711.105286
 20
569.149292
 10
711.105286
 20
570.18811
 10
711.105286
 20
571.179749
 10
711.105286
 20
572.117371
 10
711.105286
 20
572.994751
 10
711.105286
 20
573.80658
 10
711.105286
 20
574.548462
 10
711.105286
 20
575.216919
 10
711.105286
 20
575.80957
 10
711.105286
 20
576.325073
 10
711.105286
 20
576.763123
 10
711.105286
 20
577.124329
 10
711.105286
 20
577.410217
 10
711.105286
 20
577.623047
 10
711.105286
 20
577.765808
 10
711.105286
 20
577.842468
  0
ARC
  5
140
330
103
100
AcDbEntity
  8
0
  6
Continuous
 62
     0
370
    30
100
AcDbCircle
 10
-1398.399916
 20
558.04024
 30
0.0
 40
2109.587818230223
100
AcDbArc
 50
358.257777
 51
359.493012
  0
LINE
  5
141
330
103
100
AcDbEntity
  8
0
  6
Continuous
 62
     0
370
     0
100
AcDbLine
 10
710.212696
 20
623.313272
 30
0.0
 11
710.212696
 21
493.902762
 31
0.0
  0
LWPOLYLINE
  5
142
330
103
100
AcDbEntity
  8
0
  6
Continuous
 62
     0
370
    30
100
AcDbPolyline
 90
       91
 70
     0
 43
0.0
 10
700.705322
 20
623.305664
 10
700.705322
 20
623.176697
 10
700.705322
 20
622.967773
 10
700.705322
 20
622.679321
 10
700.705322
 20
622.312256
 10
700.705322
 20
621.867554
 10
700.705322
 20
621.346252
 10
700.705322
 20
620.749451
 10
700.705322
 20
620.077759
 10
700.705322
 20
619.331543
 10
700.705322
 20
618.511353
 10
700.705322
 20
617.617859
 10
700.705322
 20
616.652161
 10
700.705322
 20
615.615479
 10
700.705322
 20
614.509155
 10
700.705322
 20
613.334778
 10
700.705322
 20
612.094055
 10
700.705322
 20
610.788696
 10
700.705322
 20
609.420288
 10
700.705322
 20
607.990356
 10
700.705322
 20
606.500427
 10
700.705322
 20
604.952148
 10
700.705322
 20
603.34729
 10
700.705322
 20
601.687439
 10
700.705322
 20
599.97467
 10
700.705322
 20
598.211365
 10
700.705322
 20
596.399902
 10
700.705322
 20
594.542786
 10
700.705322
 20
592.642151
 10
700.705322
 20
590.700439
 10
700.705322
 20
588.719971
 10
700.705322
 20
586.703003
 10
700.705322
 20
584.651672
 10
700.705322
 20
582.56842
 10
700.705322
 20
580.45575
 10
700.705322
 20
578.316528
 10
700.705322
 20
576.153442
 10
700.705322
 20
573.969055
 10
700.705322
 20
571.765564
 10
700.705322
 20
569.545227
 10
700.705322
 20
567.310547
 10
700.705322
 20
565.064392
 10
700.705322
 20
562.809814
 10
700.705322
 20
560.549622
 10
700.705322
 20
558.286743
 10
700.705322
 20
556.02417
 10
700.705322
 20
553.764771
 10
700.705322
 20
551.511414
 10
700.705322
 20
549.267029
 10
700.705322
 20
547.034424
 10
700.705322
 20
544.816528
 10
700.705322
 20
542.616211
 10
700.705322
 20
540.436279
 10
700.705322
 20
538.279297
 10
700.705322
 20
536.147583
 10
700.705322
 20
534.043213
 10
700.705322
 20
531.968689
 10
700.705322
 20
529.926636
 10
700.705322
 20
527.919617
 10
700.705383
 20
525.950317
 10
700.705383
 20
524.020752
 10
700.705383
 20
522.133118
 10
700.705444
 20
520.289551
 10
700.705444
 20
518.492126
 10
700.705444
 20
516.743103
 10
700.705383
 20
515.044739
 10
700.705383
 20
513.399292
 10
700.705383
 20
511.809021
 10
700.705322
 20
510.276215
 10
700.705322
 20
508.802856
 10
700.705322
 20
507.390564
 10
700.705322
 20
506.040833
 10
700.705322
 20
504.755188
 10
700.705322
 20
503.534943
 10
700.705322
 20
502.381439
 10
700.705322
 20
501.29599
 10
700.705322
 20
500.279877
 10
700.705322
 20
499.334442
 10
700.705322
 20
498.460907
 10
700.705322
 20
497.6604
 10
700.705322
 20
496.933838
 10
700.705322
 20
496.282196
 10
700.705322
 20
495.706451
 10
700.705322
 20
495.207611
 10
700.705322
 20
494.786591
 10
700.705322
 20
494.444
 10
700.705322
 20
494.179901
 10
700.705322
 20
493.994324
 10
700.705322
 20
493.88736
 10
700.705322
 20
493.85907
 10
700.705322
 20
493.910339
  0
LINE
  5
143
330
103
100
AcDbEntity
  8
0
  6
Continuous
 62
     0
370
    30
100
AcDbLine
 10
711.105315
 20
577.608017
 30
0.0
 11
713.953373
 21
577.608017
 31
0.0
  0
LINE
  5
144
330
103
100
AcDbEntity
  8
0
  6
Continuous
 62
     0
370
    30
100
AcDbLine
 10
711.105315
 20
539.608017
 30
0.0
 11
713.953373
 21
539.608017
 31
0.0
  0
ARC
  5
145
330
103
100
AcDbEntity
  8
0
  6
Continuous
 62
     0
370
    30
100
AcDbCircle
 10
700.955319
 20
493.858254
 30
0.0
 40
0.2500039505007203
100
AcDbArc
 50
179.980769
 51
269.999099
  0
ARC
  5
146
330
103
100
AcDbEntity
  8
0
  6
Continuous
 62
     0
370
    30
100
AcDbCircle
 10
700.955303
 20
623.357474
 30
0.0
 40
0.2499878538302329
100
AcDbArc
 50
89.99725
 51
179.661685
  0
ARC
  5
147
330
103
100
AcDbEntity
  8
0
  6
Continuous
 62
     0
370
    30
100
AcDbCircle
 10
702.055325
 20
493.85824
 30
0.0
 40
0.2499900746563338
100
AcDbArc
 50
269.99772
 51
0.124599
  0
ARC
  5
148
330
103
100
AcDbEntity
  8
0
  6
Continuous
 62
     0
370
    30
100
AcDbCircle
 10
702.055271
 20
623.357418
 30
0.0
 40
0.2500433226270532
100
AcDbArc
 50
0.408489
 51
89.990116
  0
ARC
  5
149
330
103
100
AcDbEntity
  8
0
  6
Continuous
 62
     0
370
    30
100
AcDbCircle
 10
702.555325
 20
494.358236
 30
0.0
 40
0.2500104550457737
100
AcDbArc
 50
90.002393
 51
179.974092
  0
ARC
  5
14A
330
103
100
AcDbEntity
  8
0
  6
Continuous
 62
     0
370
    30
100
AcDbCircle
 10
702.555326
 20
622.857481
 30
0.0
 40
0.2500111061881239
100
AcDbArc
 50
179.99379
 51
269.997457
  0
ARC
  5
14B
330
103
100
AcDbEntity
  8
0
  6
Continuous
 62
     0
370
    30
100
AcDbCircle
 10
708.355303
 20
622.857482
 30
0.0
 40
0.2500116610781794
100
AcDbArc
 50
270.002671
 51
0.005857
  0
ARC
  5
14C
330
103
100
AcDbEntity
  8
0
  6
Continuous
 62
     0
370
    30
100
AcDbCircle
 10
708.355304
 20
494.358236
 30
0.0
 40
0.2500104696862838
100
AcDbArc
 50
0.026111
 51
89.997604
  0
ARC
  5
14D
330
103
100
AcDbEntity
  8
0
  6
Continuous
 62
     0
370
    30
100
AcDbCircle
 10
708.855305
 20
493.85824
 30
0.0
 40
0.2499900746548294
100
AcDbArc
 50
179.875401
 51
270.00228
  0
ARC
  5
14E
330
103
100
AcDbEntity
  8
0
  6
Continuous
 62
     0
370
    30
100
AcDbCircle
 10
708.855314
 20
623.357462
 30
0.0
 40
0.2499994273621632
100
AcDbArc
 50
89.999896
 51
179.601499
  0
ARC
  5
14F
330
103
100
AcDbEntity
  8
0
  6
Continuous
 62
     0
370
    30
100
AcDbCircle
 10
709.962823
 20
493.858238
 30
0.0
 40
0.2499882720750635
100
AcDbArc
 50
269.99738
 51
358.374534
  0
ARC
  5
150
330
103
100
AcDbEntity
  8
0
  6
Continuous
 62
     0
370
    30
100
AcDbCircle
 10
709.962771
 20
623.357419
 30
0.0
 40
0.2500421216729519
100
AcDbArc
 50
2.1453
 51
89.990692
  0
ARC
  5
151
330
103
100
AcDbEntity
  8
0
  6
Continuous
 62
     0
370
    30
100
AcDbCircle
 10
-1401.812787
 20
558.039766
 30
0.0
 40
2113.000688632844
100
AcDbArc
 50
358.259184
 51
359.493422
  0
ARC
  5
152
330
103
100
AcDbEntity
  8
0
  6
Continuous
 62
     0
370
    30
100
AcDbCircle
 10
-1401.812787
 20
559.176267
 30
0.0
 40
2113.000688632595
100
AcDbArc
 50
0.506578
 51
1.740816
  0
LINE
  5
153
330
103
100
AcDbEntity
  8
0
  6
Continuous
 62
     0
370
    30
100
AcDbLine
 10
709.962811
 20
493.608017
 30
0.0
 11
708.855315
 21
493.608017
 31
0.0
  0
LINE
  5
154
330
103
100
AcDbEntity
  8
0
  6
Continuous
 62
     0
370
    30
100
AcDbLine
 10
709.962811
 20
623.608017
 30
0.0
 11
708.855315
 21
623.608017
 31
0.0
  0
LINE
  5
155
330
103
100
AcDbEntity
  8
0
  6
Continuous
 62
     0
370
    30
100
AcDbLine
 10
708.355315
 20
494.608017
 30
0.0
 11
702.555315
 21
494.608017
 31
0.0
  0
LINE
  5
156
330
103
100
AcDbEntity
  8
0
  6
Continuous
 62
     0
370
    30
100
AcDbLine
 10
708.355315
 20
622.608017
 30
0.0
 11
702.555315
 21
622.608017
 31
0.0
  0
LINE
  5
157
330
103
100
AcDbEntity
  8
0
  6
Continuous
 62
     0
370
    30
100
AcDbLine
 10
702.055315
 20
493.608017
 30
0.0
 11
700.955315
 21
493.608017
 31
0.0
  0
LINE
  5
158
330
103
100
AcDbEntity
  8
0
  6
Continuous
 62
     0
370
    30
100
AcDbLine
 10
702.055315
 20
623.608017
 30
0.0
 11
700.955315
 21
623.608017
 31
0.0
  0
LINE
  5
159
330
103
100
AcDbEntity
  8
0
  6
Continuous
 62
     0
370
    30
100
AcDbLine
 10
751.503373
 20
588.438017
 30
0.0
 11
751.003373
 21
587.938017
 31
0.0
  0
LINE
  5
15A
330
103
100
AcDbEntity
  8
0
  6
Continuous
 62
     0
370
    30
100
AcDbLine
 10
751.003373
 20
587.938017
 30
0.0
 11
751.003373
 21
580.608003
 31
0.0
  0
LINE
  5
15B
330
103
100
AcDbEntity
  8
0
  6
Continuous
 62
     0
370
    30
100
AcDbLine
 10
758.903373
 20
580.608017
 30
0.0
 11
759.052976
 21
580.608017
 31
0.0
  0
LINE
  5
15C
330
103
100
AcDbEntity
  8
0
  6
Continuous
 62
     0
370
    30
100
AcDbLine
 10
751.003395
 20
580.608017
 30
0.0
 11
750.853373
 21
580.608017
 31
0.0
  0
LINE
  5
15D
330
103
100
AcDbEntity
  8
0
  6
Continuous
 62
     0
370
    30
100
AcDbLine
 10
759.703373
 20
536.608017
 30
0.0
 11
750.203373
 21
536.608017
 31
0.0
  0
LINE
  5
15E
330
103
100
AcDbEntity
  8
0
  6
Continuous
 62
     0
370
    30
100
AcDbLine
 10
713.953372
 20
580.608017
 30
0.0
 11
750.853373
 21
580.608017
 31
0.0
  0
LINE
  5
15F
330
103
100
AcDbEntity
  8
0
  6
Continuous
 62
     0
370
    30
100
AcDbLine
 10
763.453373
 20
580.608017
 30
0.0
 11
759.052976
 21
580.608017
 31
0.0
  0
LINE
  5
160
330
103
100
AcDbEntity
  8
0
  6
Continuous
 62
     0
370
    30
100
AcDbLine
 10
763.953373
 20
580.108017
 30
0.0
 11
763.453373
 21
580.608017
 31
0.0
  0
LINE
  5
161
330
103
100
AcDbEntity
  8
0
  6
Continuous
 62
     0
370
     0
100
AcDbLine
 10
727.770188
 20
805.903712
 30
0.0
 11
727.770188
 21
751.312322
 31
0.0
  0
LINE
  5
162
330
103
100
AcDbEntity
  8
0
  6
Continuous
 62
     0
370
     0
100
AcDbLine
 10
726.772523
 20
806.834645
 30
0.0
 11
726.772523
 21
750.381389
 31
0.0
  0
LWPOLYLINE
  5
163
330
103
100
AcDbEntity
  8
0
  6
Continuous
 62
     0
370
     0
100
AcDbPolyline
 90
        7
 70
     0
 43
0.0
 10
725.205322
 20
806.834656
 10
725.176697
 20
806.818787
 10
725.089233
 20
806.799377
 10
724.947754
 20
806.777649
 10
724.75592
 20
806.755066
 10
724.519226
 20
806.733154
 10
724.207581
 20
806.711304
  0
LWPOLYLINE
  5
164
330
103
100
AcDbEntity
  8
0
  6
Continuous
 62
     0
370
     0
100
AcDbPolyline
 90
       12
 70
     0
 43
0.0
 10
724.207581
 20
806.711304
 10
723.862732
 20
806.694763
 10
723.493896
 20
806.684937
 10
723.115051
 20
806.6828
 10
722.739258
 20
806.68866
 10
722.38031
 20
806.701843
 10
722.050903
 20
806.721069
 10
721.762756
 20
806.744385
 10
721.527039
 20
806.76947
 10
721.35144
 20
806.794128
 10
721.24176
 20
806.816467
 10
721.205322
 20
806.834656
  0
LWPOLYLINE
  5
165
330
103
100
AcDbEntity
  8
0
  6
Continuous
 62
     0
370
     0
100
AcDbPolyline
 90
       10
 70
     0
 43
0.0
 10
717.205322
 20
806.834656
 10
717.169067
 20
806.816528
 10
717.058533
 20
806.794128
 10
716.881226
 20
806.769226
 10
716.642395
 20
806.743896
 10
716.35083
 20
806.720459
 10
716.017395
 20
806.701233
 10
715.654175
 20
806.688232
 10
715.274597
 20
806.682739
 10
714.890808
 20
806.685364
  0
LWPOLYLINE
  5
166
330
103
100
AcDbEntity
  8
0
  6
Continuous
 62
     0
370
     0
100
AcDbPolyline
 90
        9
 70
     0
 43
0.0
 10
714.890808
 20
806.685364
 10
714.553955
 20
806.694519
 10
714.236755
 20
806.709351
 10
713.948792
 20
806.728577
 10
713.698486
 20
806.75061
 10
713.49353
 20
806.773682
 10
713.340393
 20
806.796021
 10
713.242981
 20
806.816223
 10
713.205322
 20
806.834656
  0
LINE
  5
167
330
103
100
AcDbEntity
  8
0
  6
Continuous
 62
     0
370
    30
100
AcDbLine
 10
710.205315
 20
806.834645
 30
0.0
 11
710.205315
 21
750.381389
 31
0.0
  0
LWPOLYLINE
  5
168
330
103
100
AcDbEntity
  8
0
  6
Continuous
 62
     0
370
     0
100
AcDbPolyline
 90
        5
 70
     0
 43
0.0
 10
716.833435
 20
806.858032
 10
716.98291
 20
806.857178
 10
717.097412
 20
806.85376
 10
717.171875
 20
806.847473
 10
717.205322
 20
806.834656
  0
LWPOLYLINE
  5
169
330
103
100
AcDbEntity
  8
0
  6
Continuous
 62
     0
370
     0
100
AcDbPolyline
 90
        5
 70
     0
 43
0.0
 10
713.205322
 20
806.834656
 10
713.224365
 20
806.84491
 10
713.284973
 20
806.852112
 10
713.38739
 20
806.856384
 10
713.576721
 20
806.858032
  0
LWPOLYLINE
  5
16A
330
103
100
AcDbEntity
  8
0
  6
Continuous
 62
     0
370
     0
100
AcDbPolyline
 90
        5
 70
     0
 43
0.0
 10
724.833435
 20
806.858032
 10
724.98291
 20
806.857178
 10
725.097412
 20
806.85376
 10
725.171875
 20
806.847473
 10
725.205322
 20
806.834656
  0
LWPOLYLINE
  5
16B
330
103
100
AcDbEntity
  8
0
  6
Continuous
 62
     0
370
     0
100
AcDbPolyline
 90
        5
 70
     0
 43
0.0
 10
721.205322
 20
806.834656
 10
721.224365
 20
806.84491
 10
721.284973
 20
806.852112
 10
721.38739
 20
806.856384
 10
721.576721
 20
806.858032
  0
LINE
  5
16C
330
103
100
AcDbEntity
  8
0
  6
Continuous
 62
     0
370
    30
100
AcDbLine
 10
724.856371
 20
806.858017
 30
0.0
 11
721.554099
 21
806.858017
 31
0.0
  0
LINE
  5
16D
330
103
100
AcDbEntity
  8
0
  6
Continuous
 62
     0
370
    30
100
AcDbLine
 10
716.856371
 20
806.858017
 30
0.0
 11
713.554099
 21
806.858017
 31
0.0
  0
LINE
  5
16E
330
103
100
AcDbEntity
  8
0
  6
Continuous
 62
     0
370
    30
100
AcDbLine
 10
726.772523
 20
750.358017
 30
0.0
 11
710.205314
 21
750.358017
 31
0.0
  0
LINE
  5
16F
330
103
100
AcDbEntity
  8
0
  6
Continuous
 62
     0
370
    30
100
AcDbLine
 10
710.205314
 20
806.858017
 30
0.0
 11
713.554098
 21
806.858017
 31
0.0
  0
LINE
  5
170
330
103
100
AcDbEntity
  8
0
  6
Continuous
 62
     0
370
    30
100
AcDbLine
 10
716.85641
 20
806.858017
 30
0.0
 11
721.554098
 21
806.858017
 31
0.0
  0
LINE
  5
171
330
103
100
AcDbEntity
  8
0
  6
Continuous
 62
     0
370
    30
100
AcDbLine
 10
724.85641
 20
806.858017
 30
0.0
 11
726.772523
 21
806.858017
 31
0.0
  0
ARC
  5
172
330
103
100
AcDbEntity
  8
0
  6
Continuous
 62
     0
370
    30
100
AcDbCircle
 10
726.772514
 20
805.857362
 30
0.0
 40
1.00001094782499
100
AcDbArc
 50
4.0267
 51
89.9995
  0
ARC
  5
173
330
103
100
AcDbEntity
  8
0
  6
Continuous
 62
     0
370
    30
100
AcDbCircle
 10
726.772507
 20
751.358281
 30
0.0
 40
1.000017147325757
100
AcDbArc
 50
270.000884
 51
356.04082
  0
ARC
  5
174
330
103
100
AcDbEntity
  8
0
  6
Continuous
 62
     0
370
    30
100
AcDbCircle
 10
328.702801
 20
778.607971
 30
0.0
 40
400.0013389702792
100
AcDbArc
 50
0.004313
 51
3.916099
  0
ARC
  5
175
330
103
100
AcDbEntity
  8
0
  6
Continuous
 62
     0
370
    30
100
AcDbCircle
 10
328.702801
 20
778.608063
 30
0.0
 40
400.0013389703855
100
AcDbArc
 50
356.083901
 51
359.995687
  0
LWPOLYLINE
  5
176
330
103
100
AcDbEntity
  8
0
  6
Continuous
 62
     0
370
    30
100
AcDbPolyline
 90
       48
 70
     0
 43
0.0
 10
709.705322
 20
748.108032
 10
709.705322
 20
748.148315
 10
709.705322
 20
748.268738
 10
709.705322
 20
748.467834
 10
709.705322
 20
748.743774
 10
709.705322
 20
749.094055
 10
709.705322
 20
749.515625
 10
709.705322
 20
750.005127
 10
709.705322
 20
750.558716
 10
709.705322
 20
751.172241
 10
709.705322
 20
751.841248
 10
709.705322
 20
752.561279
 10
709.705322
 20
753.327515
 10
709.705322
 20
754.135254
 10
709.705322
 20
754.979797
 10
709.705322
 20
755.856689
 10
709.705322
 20
756.782837
 10
709.705322
 20
757.76947
 10
709.705322
 20
758.816101
 10
709.705322
 20
759.921936
 10
709.705322
 20
761.085632
 10
709.705322
 20
762.305176
 10
709.705322
 20
763.578308
 10
709.705322
 20
764.901978
 10
709.705322
 20
766.272766
 10
709.705322
 20
767.686646
 10
709.705322
 20
769.139282
 10
709.705322
 20
770.625671
 10
709.705322
 20
772.140564
 10
709.705322
 20
773.678345
 10
709.705322
 20
775.233032
 10
709.705322
 20
776.798584
 10
709.705322
 20
778.368774
 10
709.705322
 20
779.937439
 10
709.705322
 20
781.49823
 10
709.705322
 20
783.045227
 10
709.705322
 20
784.572388
 10
709.705322
 20
786.074341
 10
709.705322
 20
787.545654
 10
709.705322
 20
788.981567
 10
709.705322
 20
790.377686
 10
709.705322
 20
791.72998
 10
709.705322
 20
793.035156
 10
709.705322
 20
794.290161
 10
709.705322
 20
795.492615
 10
709.705322
 20
796.640625
 10
709.705322
 20
797.732788
 10
709.705322
 20
798.770874
  0
LINE
  5
177
330
103
100
AcDbEntity
  8
0
  6
Continuous
 62
     0
370
    30
100
AcDbLine
 10
709.705316
 20
798.770844
 30
0.0
 11
709.705315
 21
809.108017
 31
0.0
  0
LWPOLYLINE
  5
178
330
103
100
AcDbEntity
  8
0
  6
Continuous
 62
     0
370
    30
100
AcDbPolyline
 90
       19
 70
     0
 43
0.0
 10
708.105286
 20
809.108032
 10
708.105286
 20
809.070801
 10
708.105286
 20
808.959167
 10
708.105286
 20
808.77356
 10
708.105286
 20
808.515015
 10
708.105286
 20
808.18512
 10
708.105286
 20
807.785828
 10
708.105286
 20
807.31958
 10
708.105286
 20
806.789429
 10
708.105286
 20
806.198486
 10
708.105286
 20
805.550476
 10
708.105286
 20
804.849304
 10
708.105286
 20
804.098938
 10
708.105286
 20
803.30365
 10
708.105286
 20
802.467773
 10
708.105286
 20
801.595764
 10
708.105286
 20
800.691895
 10
708.105286
 20
799.760559
 10
708.105286
 20
798.770874
  0
LINE
  5
179
330
103
100
AcDbEntity
  8
0
  6
Continuous
 62
     0
370
    30
100
AcDbLine
 10
708.105316
 20
798.770844
 30
0.0
 11
708.105315
 21
748.108017
 31
0.0
  0
LWPOLYLINE
  5
17A
330
103
100
AcDbEntity
  8
0
  6
Continuous
 62
     0
370
    30
100
AcDbPolyline
 90
       18
 70
     0
 43
0.0
 10
702.305298
 20
809.10791
 10
702.305298
 20
809.070129
 10
702.305298
 20
808.95697
 10
702.305298
 20
808.768738
 10
702.305298
 20
808.505615
 10
702.305298
 20
808.167786
 10
702.305298
 20
807.756287
 10
702.305298
 20
807.272461
 10
702.305298
 20
806.717651
 10
702.305298
 20
806.093323
 10
702.305298
 20
805.400879
 10
702.305298
 20
804.641724
 10
702.305298
 20
803.817505
 10
702.305298
 20
802.930664
 10
702.305298
 20
801.983582
 10
702.305298
 20
800.978577
 10
702.305298
 20
799.918091
 10
702.305298
 20
798.770874
  0
LINE
  5
17B
330
103
100
AcDbEntity
  8
0
  6
Continuous
 62
     0
370
    30
100
AcDbLine
 10
702.305316
 20
798.770844
 30
0.0
 11
702.305315
 21
748.108144
 31
0.0
  0
LWPOLYLINE
  5
17C
330
103
100
AcDbEntity
  8
0
  6
Continuous
 62
     0
370
    30
100
AcDbPolyline
 90
       19
 70
     0
 43
0.0
 10
700.705322
 20
809.108032
 10
700.705322
 20
809.070801
 10
700.705322
 20
808.959167
 10
700.705322
 20
808.77356
 10
700.705322
 20
808.515015
 10
700.705322
 20
808.18512
 10
700.705322
 20
807.785828
 10
700.705322
 20
807.31958
 10
700.705322
 20
806.789429
 10
700.705322
 20
806.198486
 10
700.705322
 20
805.550476
 10
700.705322
 20
804.849304
 10
700.705322
 20
804.098938
 10
700.705322
 20
803.30365
 10
700.705322
 20
802.467773
 10
700.705322
 20
801.595764
 10
700.705322
 20
800.691895
 10
700.705322
 20
799.760559
 10
700.705322
 20
798.770874
  0
LINE
  5
17D
330
103
100
AcDbEntity
  8
0
  6
Continuous
 62
     0
370
    30
100
AcDbLine
 10
700.705316
 20
798.770844
 30
0.0
 11
700.705315
 21
748.108017
 31
0.0
  0
LINE
  5
17E
330
103
100
AcDbEntity
  8
0
  6
Continuous
 62
     0
370
    30
100
AcDbLine
 10
709.705315
 20
752.008178
 30
0.0
 11
710.205315
 21
752.008178
 31
0.0
  0
LINE
  5
17F
330
103
100
AcDbEntity
  8
0
  6
Continuous
 62
     0
370
    30
100
AcDbLine
 10
709.705315
 20
805.208276
 30
0.0
 11
710.205315
 21
805.208276
 31
0.0
  0
LINE
  5
180
330
103
100
AcDbEntity
  8
0
  6
Continuous
 62
     0
370
    30
100
AcDbLine
 10
702.305315
 20
809.108017
 30
0.0
 11
700.705315
 21
809.108017
 31
0.0
  0
LINE
  5
181
330
103
100
AcDbEntity
  8
0
  6
Continuous
 62
     0
370
    30
100
AcDbLine
 10
700.705315
 20
748.108017
 30
0.0
 11
702.305315
 21
748.108017
 31
0.0
  0
LINE
  5
182
330
103
100
AcDbEntity
  8
0
  6
Continuous
 62
     0
370
    30
100
AcDbLine
 10
708.105315
 20
808.058017
 30
0.0
 11
702.305315
 21
808.058017
 31
0.0
  0
LINE
  5
183
330
103
100
AcDbEntity
  8
0
  6
Continuous
 62
     0
370
    30
100
AcDbLine
 10
702.305315
 20
749.158017
 30
0.0
 11
708.105315
 21
749.158017
 31
0.0
  0
LINE
  5
184
330
103
100
AcDbEntity
  8
0
  6
Continuous
 62
     0
370
    30
100
AcDbLine
 10
709.705315
 20
748.108017
 30
0.0
 11
708.105315
 21
748.108017
 31
0.0
  0
LINE
  5
185
330
103
100
AcDbEntity
  8
0
  6
Continuous
 62
     0
370
    30
100
AcDbLine
 10
709.705315
 20
809.108017
 30
0.0
 11
708.105315
 21
809.108017
 31
0.0
  0
ENDBLK
  5
187
330
103
100
AcDbEntity
  8
0
100
AcDbBlockEnd
  0
BLOCK
  5
201
330
189
100
AcDbEntity
  8
0
100
AcDbBlockBegin
  2
d
 70
     0
 10
356.972351
 20
-0.000061
 30
0.0
  3
d
  1

  0
LINE
  5
18A
330
189
100
AcDbEntity
  8
0
  6
Continuous
 62
     0
370
     0
100
AcDbLine
 10
284.991268
 20
651.312292
 30
0.0
 11
284.991268
 21
705.903681
 31
0.0
  0
LINE
  5
18B
330
189
100
AcDbEntity
  8
0
  6
Continuous
 62
     0
370
     0
100
AcDbLine
 10
285.988933
 20
650.381358
 30
0.0
 11
285.988933
 21
706.834615
 31
0.0
  0
LINE
  5
18C
330
189
100
AcDbEntity
  8
0
  6
Continuous
 62
     0
370
    30
100
AcDbLine
 10
302.556141
 20
650.381358
 30
0.0
 11
302.556141
 21
706.834615
 31
0.0
  0
LWPOLYLINE
  5
18D
330
189
100
AcDbEntity
  8
0
  6
Continuous
 62
     0
370
     0
100
AcDbPolyline
 90
       18
 70
     0
 43
0.0
 10
299.556152
 20
706.834595
 10
299.524597
 20
706.847168
 10
299.423798
 20
706.854797
 10
299.25946
 20
706.85791
 10
299.040283
 20
706.857178
 10
298.769653
 20
706.854065
 10
298.456482
 20
706.850037
 10
298.112061
 20
706.846436
 10
297.748199
 20
706.844299
 10
297.377441
 20
706.844299
 10
297.013092
 20
706.846313
 10
296.667786
 20
706.849915
 10
296.353394
 20
706.853943
 10
296.081055
 20
706.857056
 10
295.859802
 20
706.85791
 10
295.69339
 20
706.85498
 10
295.590149
 20
706.847534
 10
295.556152
 20
706.834595
  0
LWPOLYLINE
  5
18E
330
189
100
AcDbEntity
  8
0
  6
Continuous
 62
     0
370
     0
100
AcDbPolyline
 90
       18
 70
     0
 43
0.0
 10
291.556152
 20
706.834595
 10
291.524597
 20
706.847168
 10
291.423798
 20
706.854797
 10
291.25946
 20
706.85791
 10
291.040283
 20
706.857178
 10
290.769653
 20
706.854065
 10
290.456482
 20
706.850037
 10
290.112061
 20
706.846436
 10
289.748199
 20
706.844299
 10
289.377441
 20
706.844299
 10
289.013092
 20
706.846313
 10
288.667786
 20
706.849915
 10
288.353394
 20
706.853943
 10
288.081055
 20
706.857056
 10
287.859802
 20
706.85791
 10
287.69339
 20
706.85498
 10
287.590149
 20
706.847534
 10
287.556152
 20
706.834595
  0
LINE
  5
18F
330
189
100
AcDbEntity
  8
0
  6
Continuous
 62
     0
370
    30
100
AcDbLine
 10
287.905085
 20
706.857986
 30
0.0
 11
291.207356
 21
706.857986
 31
0.0
  0
LINE
  5
190
330
189
100
AcDbEntity
  8
0
  6
Continuous
 62
     0
370
    30
100
AcDbLine
 10
295.905085
 20
706.857986
 30
0.0
 11
299.207356
 21
706.857986
 31
0.0
  0
LINE
  5
191
330
189
100
AcDbEntity
  8
0
  6
Continuous
 62
     0
370
    30
100
AcDbLine
 10
285.988933
 20
650.357986
 30
0.0
 11
302.556141
 21
650.357986
 31
0.0
  0
LINE
  5
192
330
189
100
AcDbEntity
  8
0
  6
Continuous
 62
     0
370
    30
100
AcDbLine
 10
302.556141
 20
706.857986
 30
0.0
 11
299.207358
 21
706.857986
 31
0.0
  0
LINE
  5
193
330
189
100
AcDbEntity
  8
0
  6
Continuous
 62
     0
370
    30
100
AcDbLine
 10
295.905046
 20
706.857986
 30
0.0
 11
291.207358
 21
706.857986
 31
0.0
  0
LINE
  5
194
330
189
100
AcDbEntity
  8
0
  6
Continuous
 62
     0
370
    30
100
AcDbLine
 10
287.905046
 20
706.857986
 30
0.0
 11
285.988933
 21
706.857986
 31
0.0
  0
ARC
  5
195
330
189
100
AcDbEntity
  8
0
  6
Continuous
 62
     0
370
    30
100
AcDbCircle
 10
285.988942
 20
705.857332
 30
0.0
 40
1.000010947947337
100
AcDbArc
 50
90.0005
 51
175.9733
  0
ARC
  5
196
330
189
100
AcDbEntity
  8
0
  6
Continuous
 62
     0
370
    30
100
AcDbCircle
 10
285.988948
 20
651.35825
 30
0.0
 40
1.000017147282198
100
AcDbArc
 50
183.95918
 51
269.999116
  0
ARC
  5
197
330
189
100
AcDbEntity
  8
0
  6
Continuous
 62
     0
370
    30
100
AcDbCircle
 10
684.058655
 20
678.607941
 30
0.0
 40
400.0013389703728
100
AcDbArc
 50
176.083901
 51
179.995687
  0
ARC
  5
198
330
189
100
AcDbEntity
  8
0
  6
Continuous
 62
     0
370
    30
100
AcDbCircle
 10
684.058655
 20
678.608032
 30
0.0
 40
400.001338970387
100
AcDbArc
 50
180.004313
 51
183.916099
  0
LINE
  5
199
330
189
100
AcDbEntity
  8
0
  6
Continuous
 62
     0
370
    30
100
AcDbLine
 10
303.05614
 20
658.44516
 30
0.0
 11
303.056141
 21
648.107986
 31
0.0
  0
LINE
  5
19A
330
189
100
AcDbEntity
  8
0
  6
Continuous
 62
     0
370
    30
100
AcDbLine
 10
303.056141
 20
709.107986
 30
0.0
 11
303.05614
 21
658.44516
 31
0.0
  0
LINE
  5
19B
330
189
100
AcDbEntity
  8
0
  6
Continuous
 62
     0
370
    30
100
AcDbLine
 10
304.65614
 20
658.44516
 30
0.0
 11
304.656141
 21
709.107986
 31
0.0
  0
LWPOLYLINE
  5
19C
330
189
100
AcDbEntity
  8
0
  6
Continuous
 62
     0
370
    30
100
AcDbPolyline
 90
       19
 70
     0
 43
0.0
 10
304.656128
 20
648.107971
 10
304.656128
 20
648.145203
 10
304.656128
 20
648.256836
 10
304.656128
 20
648.442444
 10
304.656128
 20
648.700989
 10
304.656128
 20
649.030884
 10
304.656128
 20
649.430176
 10
304.656128
 20
649.896423
 10
304.656128
 20
650.426575
 10
304.656128
 20
651.017517
 10
304.656128
 20
651.665527
 10
304.656128
 20
652.366699
 10
304.656128
 20
653.117065
 10
304.656128
 20
653.912354
 10
304.656128
 20
654.74823
 10
304.656128
 20
655.620239
 10
304.656128
 20
656.524109
 10
304.656128
 20
657.455444
 10
304.656128
 20
658.445129
  0
LINE
  5
19D
330
189
100
AcDbEntity
  8
0
  6
Continuous
 62
     0
370
    30
100
AcDbLine
 10
310.45614
 20
658.44516
 30
0.0
 11
310.456141
 21
709.107859
 31
0.0
  0
LWPOLYLINE
  5
19E
330
189
100
AcDbEntity
  8
0
  6
Continuous
 62
     0
370
    30
100
AcDbPolyline
 90
       18
 70
     0
 43
0.0
 10
310.456146
 20
648.108093
 10
310.456146
 20
648.145874
 10
310.456146
 20
648.259033
 10
310.456146
 20
648.447266
 10
310.456146
 20
648.710449
 10
310.456146
 20
649.048218
 10
310.456146
 20
649.459717
 10
310.456146
 20
649.943542
 10
310.456146
 20
650.498352
 10
310.456146
 20
651.122681
 10
310.456146
 20
651.815125
 10
310.456146
 20
652.574341
 10
310.456146
 20
653.398499
 10
310.456146
 20
654.285339
 10
310.456146
 20
655.232422
 10
310.456146
 20
656.237427
 10
310.456146
 20
657.297913
 10
310.456146
 20
658.445129
  0
LINE
  5
19F
330
189
100
AcDbEntity
  8
0
  6
Continuous
 62
     0
370
    30
100
AcDbLine
 10
312.05614
 20
658.44516
 30
0.0
 11
312.056141
 21
709.107986
 31
0.0
  0
LWPOLYLINE
  5
1A0
330
189
100
AcDbEntity
  8
0
  6
Continuous
 62
     0
370
    30
100
AcDbPolyline
 90
       19
 70
     0
 43
0.0
 10
312.056152
 20
648.107971
 10
312.056152
 20
648.145203
 10
312.056152
 20
648.256836
 10
312.056152
 20
648.442444
 10
312.056152
 20
648.700989
 10
312.056152
 20
649.030884
 10
312.056152
 20
649.430176
 10
312.056152
 20
649.896423
 10
312.056152
 20
650.426575
 10
312.056152
 20
651.017517
 10
312.056152
 20
651.665527
 10
312.056152
 20
652.366699
 10
312.056152
 20
653.117065
 10
312.056152
 20
653.912354
 10
312.056152
 20
654.74823
 10
312.056152
 20
655.620239
 10
312.056152
 20
656.524109
 10
312.056152
 20
657.455444
 10
312.056152
 20
658.445129
  0
LINE
  5
1A1
330
189
100
AcDbEntity
  8
0
  6
Continuous
 62
     0
370
    30
100
AcDbLine
 10
303.056141
 20
652.008147
 30
0.0
 11
302.556141
 21
652.008147
 31
0.0
  0
LINE
  5
1A2
330
189
100
AcDbEntity
  8
0
  6
Continuous
 62
     0
370
    30
100
AcDbLine
 10
303.056141
 20
705.208245
 30
0.0
 11
302.556141
 21
705.208245
 31
0.0
  0
LINE
  5
1A3
330
189
100
AcDbEntity
  8
0
  6
Continuous
 62
     0
370
    30
100
AcDbLine
 10
310.456141
 20
709.107986
 30
0.0
 11
312.056141
 21
709.107986
 31
0.0
  0
LINE
  5
1A4
330
189
100
AcDbEntity
  8
0
  6
Continuous
 62
     0
370
    30
100
AcDbLine
 10
312.056141
 20
648.107986
 30
0.0
 11
310.456141
 21
648.107986
 31
0.0
  0
LINE
  5
1A5
330
189
100
AcDbEntity
  8
0
  6
Continuous
 62
     0
370
    30
100
AcDbLine
 10
304.656141
 20
708.057986
 30
0.0
 11
310.456141
 21
708.057986
 31
0.0
  0
LINE
  5
1A6
330
189
100
AcDbEntity
  8
0
  6
Continuous
 62
     0
370
    30
100
AcDbLine
 10
310.456141
 20
649.157986
 30
0.0
 11
304.656141
 21
649.157986
 31
0.0
  0
LINE
  5
1A7
330
189
100
AcDbEntity
  8
0
  6
Continuous
 62
     0
370
    30
100
AcDbLine
 10
303.056141
 20
648.107986
 30
0.0
 11
304.656141
 21
648.107986
 31
0.0
  0
LINE
  5
1A8
330
189
100
AcDbEntity
  8
0
  6
Continuous
 62
     0
370
    30
100
AcDbLine
 10
303.056141
 20
709.107986
 30
0.0
 11
304.656141
 21
709.107986
 31
0.0
  0
LWPOLYLINE
  5
1A9
330
189
100
AcDbEntity
  8
0
  6
Continuous
 62
     0
370
    30
100
AcDbPolyline
 90
       53
 70
     0
 43
0.0
 10
248.80809
 20
537.107971
 10
248.808075
 20
537.147095
 10
248.808075
 20
537.264771
 10
248.808075
 20
537.460083
 10
248.808075
 20
537.732361
 10
248.808075
 20
538.08075
 10
248.808075
 20
538.504333
 10
248.808075
 20
539.001404
 10
248.808075
 20
539.569763
 10
248.808075
 20
540.207275
 10
248.808075
 20
540.911804
 10
248.808075
 20
541.681152
 10
248.808075
 20
542.512512
 10
248.808075
 20
543.402466
 10
248.808075
 20
544.347656
 10
248.808075
 20
545.344727
 10
248.808075
 20
546.390259
 10
248.808075
 20
547.480591
 10
248.808075
 20
548.611511
 10
248.808075
 20
549.778748
 10
248.808075
 20
550.978027
 10
248.808075
 20
552.2052
 10
248.808075
 20
553.455872
 10
248.808075
 20
554.725342
 10
248.808075
 20
556.008911
 10
248.808075
 20
557.302002
 10
248.808075
 20
558.599731
 10
248.808075
 20
559.897522
 10
248.808075
 20
561.190674
 10
248.808075
 20
562.474426
 10
248.808075
 20
563.74408
 10
248.808075
 20
564.994995
 10
248.808075
 20
566.222534
 10
248.808075
 20
567.42218
 10
248.808075
 20
568.589844
 10
248.808075
 20
569.721252
 10
248.808075
 20
570.812134
 10
248.808075
 20
571.858276
 10
248.808075
 20
572.856018
 10
248.808075
 20
573.80188
 10
248.808075
 20
574.692505
 10
248.808075
 20
575.524597
 10
248.808075
 20
576.2948
 10
248.808075
 20
577.000122
 10
248.808075
 20
577.63855
 10
248.808075
 20
578.207764
 10
248.808075
 20
578.70575
 10
248.808075
 20
579.13031
 10
248.808075
 20
579.479675
 10
248.808075
 20
579.752869
 10
248.808075
 20
579.949219
 10
248.808075
 20
580.067871
 10
248.80809
 20
580.107971
  0
LINE
  5
1AA
330
189
100
AcDbEntity
  8
0
  6
Continuous
 62
     0
370
    30
100
AcDbLine
 10
248.808083
 20
537.107986
 30
0.0
 11
249.308083
 21
536.607986
 31
0.0
  0
LINE
  5
1AB
330
189
100
AcDbEntity
  8
0
  6
Continuous
 62
     0
370
    30
100
AcDbLine
 10
249.308083
 20
536.607986
 30
0.0
 11
249.308083
 21
580.607986
 31
0.0
  0
LINE
  5
1AC
330
189
100
AcDbEntity
  8
0
  6
Continuous
 62
     0
370
    30
100
AcDbLine
 10
262.558083
 20
536.607986
 30
0.0
 11
298.808083
 21
536.607986
 31
0.0
  0
LINE
  5
1AD
330
189
100
AcDbEntity
  8
0
  6
Continuous
 62
     0
370
    30
100
AcDbLine
 10
298.808083
 20
536.607986
 30
0.0
 11
298.808083
 21
580.607986
 31
0.0
  0
LINE
  5
1AE
330
189
100
AcDbEntity
  8
0
  6
Continuous
 62
     0
370
    30
100
AcDbLine
 10
253.058083
 20
536.607986
 30
0.0
 11
249.308083
 21
536.607986
 31
0.0
  0
LWPOLYLINE
  5
1AF
330
189
100
AcDbEntity
  8
0
  6
Continuous
 62
     0
370
     0
100
AcDbPolyline
 90
       26
 70
     0
 43
0.0
 10
253.05809
 20
536.607971
 10
253.095856
 20
536.616089
 10
253.209686
 20
536.640137
 10
253.39592
 20
536.678162
 10
253.649261
 20
536.727966
 10
253.965942
 20
536.78656
 10
254.346909
 20
536.849854
 10
254.782333
 20
536.914307
 10
255.261978
 20
536.976501
 10
255.78244
 20
537.031799
 10
256.33667
 20
537.076599
 10
256.914612
 20
537.108154
 10
257.507019
 20
537.124817
 10
258.104279
 20
537.124878
 10
258.696747
 20
537.108337
 10
259.274872
 20
537.076904
 10
259.829315
 20
537.032227
 10
260.350067
 20
536.97699
 10
260.830078
 20
536.914856
 10
261.265869
 20
536.850342
 10
261.647339
 20
536.787048
 10
261.964569
 20
536.728394
 10
262.218445
 20
536.678528
 10
262.405273
 20
536.640381
 10
262.519714
 20
536.616272
 10
262.558075
 20
536.607971
  0
LWPOLYLINE
  5
1B0
330
189
100
AcDbEntity
  8
0
  6
Continuous
 62
     0
370
     0
100
AcDbPolyline
 90
       25
 70
     0
 43
0.0
 10
261.908081
 20
580.607971
 10
261.873413
 20
580.601501
 10
261.767914
 20
580.58197
 10
261.591919
 20
580.550598
 10
261.350677
 20
580.510254
 10
261.049957
 20
580.46405
 10
260.695831
 20
580.414856
 10
260.29538
 20
580.365479
 10
259.854218
 20
580.319092
 10
259.377228
 20
580.279297
 10
258.872894
 20
580.24884
 10
258.350342
 20
580.229492
 10
257.818542
 20
580.222534
 10
257.28653
 20
580.228943
 10
256.763458
 20
580.247864
 10
256.25827
 20
580.277954
 10
255.780075
 20
580.317444
 10
255.337311
 20
580.363586
 10
254.935135
 20
580.412903
 10
254.579147
 20
580.462158
 10
254.276215
 20
580.508545
 10
254.032501
 20
580.549194
 10
253.853806
 20
580.580933
 10
253.745621
 20
580.601013
 10
253.708481
 20
580.607971
  0
LWPOLYLINE
  5
1B1
330
189
100
AcDbEntity
  8
0
  6
Continuous
 62
     0
370
    30
100
AcDbPolyline
 90
       24
 70
     0
 43
0.0
 10
253.858078
 20
580.607971
 10
253.894897
 20
580.601379
 10
254.004639
 20
580.582153
 10
254.184906
 20
580.551636
 10
254.432266
 20
580.512146
 10
254.741913
 20
580.466614
 10
255.10817
 20
580.418213
 10
255.524399
 20
580.370667
 10
255.9832
 20
580.327271
 10
256.476349
 20
580.291443
 10
256.994751
 20
580.265747
 10
257.528748
 20
580.252319
 10
258.068085
 20
580.252075
 10
258.602448
 20
580.265076
 10
259.121582
 20
580.290344
 10
259.615784
 20
580.325867
 10
260.075989
 20
580.368958
 10
260.493866
 20
580.416504
 10
260.862061
 20
580.464905
 10
261.173828
 20
580.51062
 10
261.423492
 20
580.550354
 10
261.606293
 20
580.581238
 10
261.718567
 20
580.600891
 10
261.758057
 20
580.607971
  0
LINE
  5
1B2
330
189
100
AcDbEntity
  8
0
  6
Continuous
 62
     0
370
    30
100
AcDbLine
 10
261.758083
 20
587.937986
 30
0.0
 11
253.858083
 21
587.937986
 31
0.0
  0
LINE
  5
1B3
330
189
100
AcDbEntity
  8
0
  6
Continuous
 62
     0
370
    30
100
AcDbLine
 10
253.858083
 20
580.607986
 30
0.0
 11
253.858083
 21
587.937986
 31
0.0
  0
LWPOLYLINE
  5
1B4
330
189
100
AcDbEntity
  8
0
  6
Continuous
 62
     0
370
    30
100
AcDbPolyline
 90
       22
 70
     0
 43
0.0
 10
254.358078
 20
588.437988
 10
254.396561
 20
588.437988
 10
254.511002
 20
588.437988
 10
254.699081
 20
588.437988
 10
254.956329
 20
588.437988
 10
255.277252
 20
588.437988
 10
255.654526
 20
588.437988
 10
256.079865
 20
588.437988
 10
256.543671
 20
588.437988
 10
257.035706
 20
588.437988
 10
257.544952
 20
588.437988
 10
258.060028
 20
588.437988
 10
258.569519
 20
588.437988
 10
259.062042
 20
588.437988
 10
259.526581
 20
588.437988
 10
259.95285
 20
588.437988
 10
260.331268
 20
588.437988
 10
260.653503
 20
588.437988
 10
260.912201
 20
588.437988
 10
261.101837
 20
588.437988
 10
261.217926
 20
588.437988
 10
261.258087
 20
588.437988
  0
LINE
  5
1B5
330
189
100
AcDbEntity
  8
0
  6
Continuous
 62
     0
370
    30
100
AcDbLine
 10
254.358083
 20
588.437986
 30
0.0
 11
253.858083
 21
587.937986
 31
0.0
  0
LWPOLYLINE
  5
1B6
330
189
100
AcDbEntity
  8
0
  6
Continuous
 62
     0
370
     0
100
AcDbPolyline
 90
       93
 70
     0
 43
0.0
 10
310.706146
 20
623.555481
 10
310.706146
 20
623.605164
 10
310.706146
 20
623.592163
 10
310.706146
 20
623.51416
 10
310.706146
 20
623.368896
 10
310.706146
 20
623.154358
 10
310.706146
 20
622.868591
 10
310.706146
 20
622.509949
 10
310.706146
 20
622.076904
 10
310.706146
 20
621.568054
 10
310.706146
 20
620.982422
 10
310.706146
 20
620.319031
 10
310.706146
 20
619.577454
 10
310.706146
 20
618.757263
 10
310.706146
 20
617.858521
 10
310.706146
 20
616.881531
 10
310.706146
 20
615.826843
 10
310.706146
 20
614.695374
 10
310.706146
 20
613.488342
 10
310.706146
 20
612.207336
 10
310.706146
 20
610.854126
 10
310.706146
 20
609.430847
 10
310.706146
 20
607.940002
 10
310.706146
 20
606.384216
 10
310.706146
 20
604.766418
 10
310.706146
 20
603.089966
 10
310.706146
 20
601.358154
 10
310.706146
 20
599.574646
 10
310.706146
 20
597.743164
 10
310.706146
 20
595.867798
 10
310.706146
 20
593.952454
 10
310.706146
 20
592.001343
 10
310.706146
 20
590.018616
 10
310.706146
 20
588.008606
 10
310.706146
 20
585.975525
 10
310.706146
 20
583.923584
 10
310.706146
 20
581.856995
 10
310.706146
 20
579.779846
 10
310.706146
 20
577.696167
 10
310.706146
 20
575.609863
 10
310.706146
 20
573.52478
 10
310.706146
 20
571.444458
 10
310.706146
 20
569.372437
 10
310.706146
 20
567.312012
 10
310.706146
 20
565.266296
 10
310.706146
 20
563.23822
 10
310.706146
 20
561.23053
 10
310.706146
 20
559.220581
 10
310.706146
 20
557.185059
 10
310.706146
 20
555.126648
 10
310.706146
 20
553.047974
 10
310.706146
 20
550.952087
 10
310.706146
 20
548.842102
 10
310.706146
 20
546.721375
 10
310.706146
 20
544.593445
 10
310.706146
 20
542.461975
 10
310.706146
 20
540.330811
 10
310.706146
 20
538.203979
 10
310.706146
 20
536.085449
 10
310.706146
 20
533.979553
 10
310.706146
 20
531.890381
 10
310.706146
 20
529.822266
 10
310.706146
 20
527.779541
 10
310.706146
 20
525.766418
 10
310.706146
 20
523.787292
 10
310.706146
 20
521.846252
 10
310.706146
 20
519.947449
 10
310.706146
 20
518.094849
 10
310.706146
 20
516.292236
 10
310.706146
 20
514.543274
 10
310.706146
 20
512.851501
 10
310.706146
 20
511.220032
 10
310.706146
 20
509.651947
 10
310.706146
 20
508.149933
 10
310.706146
 20
506.716461
 10
310.706146
 20
505.353668
 10
310.706146
 20
504.063446
 10
310.706146
 20
502.847382
 10
310.706146
 20
501.706665
 10
310.706146
 20
500.642273
 10
310.706146
 20
499.654846
 10
310.706146
 20
498.74469
 10
310.706146
 20
497.911896
 10
310.706146
 20
497.156189
 10
310.706146
 20
496.477051
 10
310.706146
 20
495.873688
 10
310.706146
 20
495.345154
 10
310.706146
 20
494.890137
 10
310.706146
 20
494.507202
 10
310.706146
 20
494.194733
 10
310.706146
 20
493.950928
 10
310.706146
 20
493.773804
 10
310.706146
 20
493.660522
  0
LINE
  5
1B7
330
189
100
AcDbEntity
  8
0
  6
Continuous
 62
     0
370
     0
100
AcDbLine
 10
311.806141
 20
493.660522
 30
0.0
 11
311.806141
 21
623.555451
 31
0.0
  0
LINE
  5
1B8
330
189
100
AcDbEntity
  8
0
  6
Continuous
 62
     0
370
    30
100
AcDbLine
 10
310.456141
 20
493.91032
 30
0.0
 11
310.456141
 21
623.305653
 31
0.0
  0
LWPOLYLINE
  5
1B9
330
189
100
AcDbEntity
  8
0
  6
Continuous
 62
     0
370
     0
100
AcDbPolyline
 90
       19
 70
     0
 43
0.0
 10
308.656128
 20
494.659729
 10
308.624603
 20
494.646149
 10
308.530579
 20
494.634979
 10
308.377289
 20
494.626221
 10
308.169006
 20
494.619781
 10
307.911377
 20
494.615326
 10
307.612396
 20
494.612488
 10
307.281647
 20
494.610809
 10
306.929169
 20
494.609985
 10
306.56543
 20
494.609741
 10
306.201477
 20
494.609955
 10
305.848206
 20
494.610748
 10
305.516022
 20
494.612366
 10
305.215088
 20
494.615143
 10
304.955231
 20
494.619507
 10
304.744415
 20
494.625854
 10
304.588074
 20
494.63446
 10
304.491089
 20
494.645508
 10
304.456146
 20
494.659729
  0
LWPOLYLINE
  5
1BA
330
189
100
AcDbEntity
  8
0
  6
Continuous
 62
     0
370
     0
100
AcDbPolyline
 90
       92
 70
     0
 43
0.0
 10
304.406128
 20
622.556274
 10
304.406128
 20
622.605408
 10
304.406128
 20
622.591431
 10
304.406128
 20
622.511963
 10
304.406128
 20
622.364685
 10
304.406128
 20
622.147644
 10
304.406128
 20
621.858826
 10
304.406128
 20
621.496582
 10
304.406128
 20
621.059265
 10
304.406128
 20
620.545654
 10
304.406128
 20
619.954529
 10
304.406128
 20
619.285217
 10
304.406128
 20
618.537048
 10
304.406128
 20
617.709839
 10
304.406128
 20
616.803528
 10
304.406128
 20
615.818542
 10
304.406128
 20
614.755493
 10
304.406128
 20
613.615417
 10
304.406128
 20
612.399536
 10
304.406128
 20
611.109497
 10
304.406128
 20
609.747192
 10
304.406128
 20
608.314941
 10
304.406128
 20
606.815247
 10
304.406128
 20
605.250977
 10
304.406128
 20
603.625061
 10
304.406128
 20
601.940979
 10
304.406128
 20
600.202148
 10
304.406128
 20
598.412415
 10
304.406128
 20
596.575562
 10
304.406128
 20
594.69574
 10
304.406128
 20
592.777039
 10
304.406128
 20
590.82373
 10
304.406128
 20
588.840088
 10
304.406128
 20
586.830505
 10
304.406128
 20
584.799194
 10
304.406128
 20
582.750488
 10
304.406128
 20
580.68866
 10
304.406128
 20
578.617859
 10
304.406128
 20
576.542053
 10
304.406128
 20
574.465271
 10
304.406128
 20
572.391296
 10
304.406128
 20
570.323669
 10
304.406128
 20
568.26593
 10
304.406128
 20
566.221313
 10
304.406128
 20
564.192932
 10
304.406128
 20
562.183655
 10
304.406128
 20
560.18988
 10
304.406128
 20
558.17572
 10
304.406128
 20
556.137146
 10
304.406128
 20
554.076904
 10
304.406128
 20
551.997925
 10
304.406128
 20
549.90332
 10
304.406128
 20
547.796387
 10
304.406128
 20
545.680725
 10
304.406128
 20
543.559875
 10
304.406128
 20
541.437805
 10
304.406128
 20
539.318481
 10
304.406128
 20
537.205994
 10
304.406128
 20
535.104492
 10
304.406128
 20
533.018372
 10
304.406128
 20
530.951965
 10
304.406128
 20
528.909607
 10
304.406128
 20
526.895691
 10
304.406128
 20
524.914551
 10
304.406128
 20
522.970459
 10
304.406128
 20
521.067749
 10
304.406128
 20
519.210327
 10
304.406128
 20
517.402222
 10
304.406128
 20
515.647217
 10
304.406128
 20
513.948853
 10
304.406128
 20
512.310486
 10
304.406128
 20
510.735199
 10
304.406128
 20
509.22583
 10
304.406128
 20
507.784973
 10
304.406128
 20
506.414856
 10
304.406128
 20
505.117462
 10
304.406128
 20
503.894409
 10
304.406128
 20
502.74704
 10
304.406128
 20
501.676361
 10
304.406128
 20
500.683075
 10
304.406128
 20
499.767548
 10
304.406128
 20
498.92984
 10
304.406128
 20
498.169769
 10
304.406128
 20
497.486847
 10
304.406128
 20
496.88028
 10
304.406128
 20
496.34903
 10
304.406128
 20
495.891907
 10
304.406128
 20
495.507416
 10
304.406128
 20
495.193909
 10
304.406128
 20
494.949585
 10
304.406128
 20
494.772369
 10
304.406128
 20
494.659729
  0
LWPOLYLINE
  5
1BB
330
189
100
AcDbEntity
  8
0
  6
Continuous
 62
     0
370
     0
100
AcDbPolyline
 90
       19
 70
     0
 43
0.0
 10
304.456146
 20
494.659729
 10
304.487732
 20
494.675354
 10
304.581665
 20
494.692444
 10
304.735107
 20
494.710266
 10
304.943268
 20
494.727875
 10
305.200806
 20
494.744263
 10
305.499878
 20
494.758362
 10
305.830719
 20
494.769257
 10
306.183136
 20
494.776123
 10
306.546844
 20
494.778534
 10
306.910828
 20
494.776367
 10
307.26416
 20
494.769714
 10
307.596252
 20
494.759033
 10
307.897064
 20
494.745056
 10
308.157013
 20
494.72876
 10
308.36795
 20
494.711182
 10
308.52417
 20
494.693329
 10
308.621216
 20
494.676178
 10
308.656128
 20
494.659729
  0
LINE
  5
1BC
330
189
100
AcDbEntity
  8
0
  6
Continuous
 62
     0
370
     0
100
AcDbLine
 10
310.206141
 20
494.659714
 30
0.0
 11
310.206141
 21
622.556259
 31
0.0
  0
LWPOLYLINE
  5
1BD
330
189
100
AcDbEntity
  8
0
  6
Continuous
 62
     0
370
    30
100
AcDbPolyline
 90
       91
 70
     0
 43
0.0
 10
304.156128
 20
623.305664
 10
304.156128
 20
623.357361
 10
304.156128
 20
623.329773
 10
304.156128
 20
623.223206
 10
304.156128
 20
623.037964
 10
304.156128
 20
622.774475
 10
304.156128
 20
622.433044
 10
304.156128
 20
622.014038
 10
304.156128
 20
621.517822
 10
304.156128
 20
620.944763
 10
304.156128
 20
620.295227
 10
304.156128
 20
619.570374
 10
304.156128
 20
618.771301
 10
304.156128
 20
617.899109
 10
304.156128
 20
616.955017
 10
304.156128
 20
615.940125
 10
304.156128
 20
614.855652
 10
304.156128
 20
613.702637
 10
304.156128
 20
612.4823
 10
304.156128
 20
611.195862
 10
304.156128
 20
609.845154
 10
304.156128
 20
608.431946
 10
304.156128
 20
606.958252
 10
304.156128
 20
605.425842
 10
304.156128
 20
603.836609
 10
304.156128
 20
602.192444
 10
304.156128
 20
600.495239
 10
304.156128
 20
598.746887
 10
304.156128
 20
596.949341
 10
304.156128
 20
595.104858
 10
304.156128
 20
593.215942
 10
304.156128
 20
591.284973
 10
304.156128
 20
589.314331
 10
304.156128
 20
587.306396
 10
304.156128
 20
585.263672
 10
304.156128
 20
583.188538
 10
304.156128
 20
581.083313
 10
304.156128
 20
578.950623
 10
304.156128
 20
576.792969
 10
304.156128
 20
574.613159
 10
304.156128
 20
572.413818
 10
304.156128
 20
570.197815
 10
304.156128
 20
567.967651
 10
304.156128
 20
565.726196
 10
304.156128
 20
563.476135
 10
304.156128
 20
561.220154
 10
304.156128
 20
558.960938
 10
304.156128
 20
556.701233
 10
304.156128
 20
554.443848
 10
304.156128
 20
552.191528
 10
304.156128
 20
549.94696
 10
304.156128
 20
547.712891
 10
304.156128
 20
545.492065
 10
304.156128
 20
543.287292
 10
304.156128
 20
541.101318
 10
304.156128
 20
538.936707
 10
304.156128
 20
536.796204
 10
304.156128
 20
534.68219
 10
304.156128
 20
532.597229
 10
304.156128
 20
530.543762
 10
304.156128
 20
528.524414
 10
304.156128
 20
526.541626
 10
304.156128
 20
524.5979
 10
304.156128
 20
522.695801
 10
304.156128
 20
520.837708
 10
304.156128
 20
519.025757
 10
304.156128
 20
517.261963
 10
304.156128
 20
515.54834
 10
304.156128
 20
513.887024
 10
304.156128
 20
512.279968
 10
304.156128
 20
510.729218
 10
304.156128
 20
509.236847
 10
304.156128
 20
507.80481
 10
304.156128
 20
506.43512
 10
304.156128
 20
505.129181
 10
304.156128
 20
503.888336
 10
304.156128
 20
502.713989
 10
304.156128
 20
501.607422
 10
304.156128
 20
500.570038
 10
304.156128
 20
499.603119
 10
304.156128
 20
498.708069
 10
304.156128
 20
497.8862
 10
304.156128
 20
497.138733
 10
304.156128
 20
496.4664
 10
304.156128
 20
495.869751
 10
304.156128
 20
495.349335
 10
304.156128
 20
494.905762
 10
304.156128
 20
494.539551
 10
304.156128
 20
494.251343
 10
304.156128
 20
494.041656
 10
304.156128
 20
493.910309
  0
LWPOLYLINE
  5
1BE
330
189
100
AcDbEntity
  8
0
  6
Continuous
 62
     0
370
     0
100
AcDbPolyline
 90
       93
 70
     0
 43
0.0
 10
302.798645
 20
623.555481
 10
302.798645
 20
623.605164
 10
302.798645
 20
623.592163
 10
302.798645
 20
623.51416
 10
302.798645
 20
623.368896
 10
302.798645
 20
623.154358
 10
302.798645
 20
622.868591
 10
302.798645
 20
622.509949
 10
302.798645
 20
622.076904
 10
302.798645
 20
621.568054
 10
302.798645
 20
620.982422
 10
302.798645
 20
620.319031
 10
302.798645
 20
619.577454
 10
302.798645
 20
618.757263
 10
302.798645
 20
617.858521
 10
302.798645
 20
616.881531
 10
302.798645
 20
615.826843
 10
302.798645
 20
614.695374
 10
302.798645
 20
613.488342
 10
302.798645
 20
612.207336
 10
302.798645
 20
610.854126
 10
302.798645
 20
609.430847
 10
302.798645
 20
607.940002
 10
302.798645
 20
606.384216
 10
302.798645
 20
604.766418
 10
302.798645
 20
603.089966
 10
302.798645
 20
601.358154
 10
302.798645
 20
599.574646
 10
302.798645
 20
597.743164
 10
302.798645
 20
595.867798
 10
302.798645
 20
593.952454
 10
302.798645
 20
592.001343
 10
302.798645
 20
590.018616
 10
302.798645
 20
588.008606
 10
302.798645
 20
585.975525
 10
302.798645
 20
583.923584
 10
302.798645
 20
581.856995
 10
302.798645
 20
579.779846
 10
302.798645
 20
577.696167
 10
302.798645
 20
575.609863
 10
302.798645
 20
573.52478
 10
302.798645
 20
571.444458
 10
302.798645
 20
569.372437
 10
302.798645
 20
567.312012
 10
302.798645
 20
565.266296
 10
302.798645
 20
563.23822
 10
302.798645
 20
561.23053
 10
302.798645
 20
559.220581
 10
302.798645
 20
557.185059
 10
302.798645
 20
555.126648
 10
302.798645
 20
553.047974
 10
302.798645
 20
550.952087
 10
302.798645
 20
548.842102
 10
302.798645
 20
546.721375
 10
302.798645
 20
544.593445
 10
302.798645
 20
542.461975
 10
302.798645
 20
540.330811
 10
302.798645
 20
538.203979
 10
302.798645
 20
536.085449
 10
302.798645
 20
533.979553
 10
302.798645
 20
531.890381
 10
302.798645
 20
529.822266
 10
302.798645
 20
527.779541
 10
302.798645
 20
525.766418
 10
302.798645
 20
523.787292
 10
302.798645
 20
521.846252
 10
302.798645
 20
519.947449
 10
302.798645
 20
518.094849
 10
302.798645
 20
516.292236
 10
302.798645
 20
514.543274
 10
302.798645
 20
512.851501
 10
302.798645
 20
511.220032
 10
302.798645
 20
509.651947
 10
302.798645
 20
508.149933
 10
302.798645
 20
506.716461
 10
302.798645
 20
505.353668
 10
302.798645
 20
504.063446
 10
302.798645
 20
502.847382
 10
302.798645
 20
501.706665
 10
302.798645
 20
500.642273
 10
302.798645
 20
499.654846
 10
302.798645
 20
498.74469
 10
302.798645
 20
497.911896
 10
302.798645
 20
497.156189
 10
302.798645
 20
496.477051
 10
302.798645
 20
495.873688
 10
302.798645
 20
495.345154
 10
302.798645
 20
494.890137
 10
302.798645
 20
494.507202
 10
302.798645
 20
494.194733
 10
302.798645
 20
493.950928
 10
302.798645
 20
493.773804
 10
302.798645
 20
493.660522
  0
LINE
  5
1BF
330
189
100
AcDbEntity
  8
0
  6
Continuous
 62
     0
370
     0
100
AcDbLine
 10
303.906141
 20
493.660522
 30
0.0
 11
303.906141
 21
623.555451
 31
0.0
  0
LINE
  5
1C0
330
189
100
AcDbEntity
  8
0
  6
Continuous
 62
     0
370
    30
100
AcDbLine
 10
301.656141
 20
577.857986
 30
0.0
 11
301.656141
 21
539.373545
 31
0.0
  0
ARC
  5
1C1
330
189
100
AcDbEntity
  8
0
  6
Continuous
 62
     0
370
    30
100
AcDbCircle
 10
2411.161371
 20
558.040202
 30
0.0
 40
2109.58781779337
100
AcDbArc
 50
180.506987
 51
181.742223
  0
LINE
  5
1C2
330
189
100
AcDbEntity
  8
0
  6
Continuous
 62
     0
370
     0
100
AcDbLine
 10
302.54876
 20
493.902732
 30
0.0
 11
302.54876
 21
623.313241
 31
0.0
  0
LWPOLYLINE
  5
1C3
330
189
100
AcDbEntity
  8
0
  6
Continuous
 62
     0
370
    30
100
AcDbPolyline
 90
       91
 70
     0
 43
0.0
 10
312.056152
 20
493.910309
 10
312.056152
 20
494.040588
 10
312.056152
 20
494.249695
 10
312.056152
 20
494.537231
 10
312.056152
 20
494.902863
 10
312.056152
 20
495.346252
 10
312.056152
 20
495.867065
 10
312.056122
 20
496.464935
 10
312.056122
 20
497.139038
 10
312.056152
 20
497.888214
 10
312.056152
 20
498.711273
 10
312.056152
 20
499.607056
 10
312.056152
 20
500.574341
 10
312.056152
 20
501.612
 10
312.056152
 20
502.71875
 10
312.056152
 20
503.893158
 10
312.056152
 20
505.133759
 10
312.056152
 20
506.439117
 10
312.056152
 20
507.807709
 10
312.056122
 20
509.238007
 10
312.056122
 20
510.728516
 10
312.056122
 20
512.277527
 10
312.056091
 20
513.883301
 10
312.056091
 20
515.544067
 10
312.056061
 20
517.257751
 10
312.05603
 20
519.021912
 10
312.05603
 20
520.834167
 10
312.05603
 20
522.692078
 10
312.05603
 20
524.593323
 10
312.05603
 20
526.535645
 10
312.056061
 20
528.516602
 10
312.056091
 20
530.533997
 10
312.056091
 20
532.585693
 10
312.056122
 20
534.669312
 10
312.056122
 20
536.782227
 10
312.056122
 20
538.921692
 10
312.056152
 20
541.084961
 10
312.056152
 20
543.269653
 10
312.056152
 20
545.473511
 10
312.056152
 20
547.694214
 10
312.056122
 20
549.929199
 10
312.056122
 20
552.175537
 10
312.056122
 20
554.430359
 10
312.056122
 20
556.690735
 10
312.056122
 20
558.953674
 10
312.056122
 20
561.216309
 10
312.056122
 20
563.475708
 10
312.056122
 20
565.729004
 10
312.056122
 20
567.973267
 10
312.056122
 20
570.20575
 10
312.056122
 20
572.423462
 10
312.056122
 20
574.623535
 10
312.056122
 20
576.803223
 10
312.056122
 20
578.9599
 10
312.056122
 20
581.091431
 10
312.056122
 20
583.195618
 10
312.056122
 20
585.269958
 10
312.056122
 20
587.311829
 10
312.056122
 20
589.318542
 10
312.056122
 20
591.287537
 10
312.056122
 20
593.216675
 10
312.056122
 20
595.103821
 10
312.056122
 20
596.946838
 10
312.056122
 20
598.743591
 10
312.056122
 20
600.491821
 10
312.056122
 20
602.189392
 10
312.056122
 20
603.833923
 10
312.056122
 20
605.423218
 10
312.056122
 20
606.955017
 10
312.056122
 20
608.427429
 10
312.056122
 20
609.838928
 10
312.056122
 20
611.188049
 10
312.056122
 20
612.473328
 10
312.056122
 20
613.693359
 10
312.056122
 20
614.846802
 10
312.056122
 20
615.932251
 10
312.056122
 20
616.948242
 10
312.056122
 20
617.893188
 10
312.056122
 20
618.765686
 10
312.056122
 20
619.564636
 10
312.056122
 20
620.289001
 10
312.056122
 20
620.937988
 10
312.056122
 20
621.510986
 10
312.056122
 20
622.007629
 10
312.056122
 20
622.427673
 10
312.056122
 20
622.770691
 10
312.056122
 20
623.035889
 10
312.056122
 20
623.222656
 10
312.056122
 20
623.330261
 10
312.056122
 20
623.358215
 10
312.056152
 20
623.305664
  0
LINE
  5
1C4
330
189
100
AcDbEntity
  8
0
  6
Continuous
 62
     0
370
    30
100
AcDbLine
 10
301.656141
 20
577.607986
 30
0.0
 11
298.808083
 21
577.607986
 31
0.0
  0
LINE
  5
1C5
330
189
100
AcDbEntity
  8
0
  6
Continuous
 62
     0
370
    30
100
AcDbLine
 10
301.656141
 20
539.607986
 30
0.0
 11
298.808083
 21
539.607986
 31
0.0
  0
ARC
  5
1C6
330
189
100
AcDbEntity
  8
0
  6
Continuous
 62
     0
370
    30
100
AcDbCircle
 10
311.806137
 20
493.858223
 30
0.0
 40
0.2500039504999423
100
AcDbArc
 50
270.000901
 51
0.019231
  0
ARC
  5
1C7
330
189
100
AcDbEntity
  8
0
  6
Continuous
 62
     0
370
    30
100
AcDbCircle
 10
311.806153
 20
623.357443
 30
0.0
 40
0.2499878538196591
100
AcDbArc
 50
0.338315
 51
90.00275
  0
ARC
  5
1C8
330
189
100
AcDbEntity
  8
0
  6
Continuous
 62
     0
370
    30
100
AcDbCircle
 10
310.706131
 20
493.85821
 30
0.0
 40
0.2499900746561988
100
AcDbArc
 50
179.875401
 51
270.00228
  0
ARC
  5
1C9
330
189
100
AcDbEntity
  8
0
  6
Continuous
 62
     0
370
    30
100
AcDbCircle
 10
310.706184
 20
623.357388
 30
0.0
 40
0.250043322637286
100
AcDbArc
 50
90.009884
 51
179.591511
  0
ARC
  5
1CA
330
189
100
AcDbEntity
  8
0
  6
Continuous
 62
     0
370
    30
100
AcDbCircle
 10
310.20613
 20
494.358205
 30
0.0
 40
0.250010455040902
100
AcDbArc
 50
0.025908
 51
89.997607
  0
ARC
  5
1CB
330
189
100
AcDbEntity
  8
0
  6
Continuous
 62
     0
370
    30
100
AcDbCircle
 10
310.20613
 20
622.857451
 30
0.0
 40
0.2500111061951188
100
AcDbArc
 50
270.002543
 51
0.00621
  0
ARC
  5
1CC
330
189
100
AcDbEntity
  8
0
  6
Continuous
 62
     0
370
    30
100
AcDbCircle
 10
304.406153
 20
622.857451
 30
0.0
 40
0.2500116610661931
100
AcDbArc
 50
179.994143
 51
269.997329
  0
ARC
  5
1CD
330
189
100
AcDbEntity
  8
0
  6
Continuous
 62
     0
370
    30
100
AcDbCircle
 10
304.406151
 20
494.358205
 30
0.0
 40
0.2500104696915751
100
AcDbArc
 50
90.002396
 51
179.973889
  0
ARC
  5
1CE
330
189
100
AcDbEntity
  8
0
  6
Continuous
 62
     0
370
    30
100
AcDbCircle
 10
303.906151
 20
493.85821
 30
0.0
 40
0.2499900746557898
100
AcDbArc
 50
269.99772
 51
0.124599
  0
ARC
  5
1CF
330
189
100
AcDbEntity
  8
0
  6
Continuous
 62
     0
370
    30
100
AcDbCircle
 10
303.906141
 20
623.357432
 30
0.0
 40
0.2499994273515133
100
AcDbArc
 50
0.398501
 51
90.000104
  0
ARC
  5
1D0
330
189
100
AcDbEntity
  8
0
  6
Continuous
 62
     0
370
    30
100
AcDbCircle
 10
302.798633
 20
493.858208
 30
0.0
 40
0.2499882720720645
100
AcDbArc
 50
181.625466
 51
270.00262
  0
ARC
  5
1D1
330
189
100
AcDbEntity
  8
0
  6
Continuous
 62
     0
370
    30
100
AcDbCircle
 10
302.798685
 20
623.357389
 30
0.0
 40
0.2500421216814367
100
AcDbArc
 50
90.009308
 51
177.8547
  0
ARC
  5
1D2
330
189
100
AcDbEntity
  8
0
  6
Continuous
 62
     0
370
    30
100
AcDbCircle
 10
2414.574242
 20
558.039736
 30
0.0
 40
2113.000688632844
100
AcDbArc
 50
180.506578
 51
181.740816
  0
ARC
  5
1D3
330
189
100
AcDbEntity
  8
0
  6
Continuous
 62
     0
370
    30
100
AcDbCircle
 10
2414.574242
 20
559.176237
 30
0.0
 40
2113.000688632595
100
AcDbArc
 50
178.259184
 51
179.493422
  0
LINE
  5
1D4
330
189
100
AcDbEntity
  8
0
  6
Continuous
 62
     0
370
    30
100
AcDbLine
 10
302.798644
 20
493.607986
 30
0.0
 11
303.906141
 21
493.607986
 31
0.0
  0
LINE
  5
1D5
330
189
100
AcDbEntity
  8
0
  6
Continuous
 62
     0
370
    30
100
AcDbLine
 10
302.798644
 20
623.607986
 30
0.0
 11
303.906141
 21
623.607986
 31
0.0
  0
LINE
  5
1D6
330
189
100
AcDbEntity
  8
0
  6
Continuous
 62
     0
370
    30
100
AcDbLine
 10
304.406141
 20
494.607986
 30
0.0
 11
310.206141
 21
494.607986
 31
0.0
  0
LINE
  5
1D7
330
189
100
AcDbEntity
  8
0
  6
Continuous
 62
     0
370
    30
100
AcDbLine
 10
304.406141
 20
622.607986
 30
0.0
 11
310.206141
 21
622.607986
 31
0.0
  0
LINE
  5
1D8
330
189
100
AcDbEntity
  8
0
  6
Continuous
 62
     0
370
    30
100
AcDbLine
 10
310.706141
 20
493.607986
 30
0.0
 11
311.806141
 21
493.607986
 31
0.0
  0
LINE
  5
1D9
330
189
100
AcDbEntity
  8
0
  6
Continuous
 62
     0
370
    30
100
AcDbLine
 10
310.706141
 20
623.607986
 30
0.0
 11
311.806141
 21
623.607986
 31
0.0
  0
LINE
  5
1DA
330
189
100
AcDbEntity
  8
0
  6
Continuous
 62
     0
370
    30
100
AcDbLine
 10
261.258083
 20
588.437986
 30
0.0
 11
261.758083
 21
587.937986
 31
0.0
  0
LINE
  5
1DB
330
189
100
AcDbEntity
  8
0
  6
Continuous
 62
     0
370
    30
100
AcDbLine
 10
261.758083
 20
587.937987
 30
0.0
 11
261.758083
 21
580.607972
 31
0.0
  0
LINE
  5
1DC
330
189
100
AcDbEntity
  8
0
  6
Continuous
 62
     0
370
    30
100
AcDbLine
 10
253.858083
 20
580.607986
 30
0.0
 11
253.70848
 21
580.607986
 31
0.0
  0
LINE
  5
1DD
330
189
100
AcDbEntity
  8
0
  6
Continuous
 62
     0
370
    30
100
AcDbLine
 10
261.75806
 20
580.607986
 30
0.0
 11
261.908083
 21
580.607986
 31
0.0
  0
LINE
  5
1DE
330
189
100
AcDbEntity
  8
0
  6
Continuous
 62
     0
370
    30
100
AcDbLine
 10
253.058083
 20
536.607986
 30
0.0
 11
262.558083
 21
536.607986
 31
0.0
  0
LINE
  5
1DF
330
189
100
AcDbEntity
  8
0
  6
Continuous
 62
     0
370
    30
100
AcDbLine
 10
298.808083
 20
580.607986
 30
0.0
 11
261.908083
 21
580.607986
 31
0.0
  0
LINE
  5
1E0
330
189
100
AcDbEntity
  8
0
  6
Continuous
 62
     0
370
    30
100
AcDbLine
 10
249.308082
 20
580.607986
 30
0.0
 11
253.70848
 21
580.607986
 31
0.0
  0
LINE
  5
1E1
330
189
100
AcDbEntity
  8
0
  6
Continuous
 62
     0
370
    30
100
AcDbLine
 10
248.808083
 20
580.107986
 30
0.0
 11
249.308083
 21
580.607986
 31
0.0
  0
LINE
  5
1E2
330
189
100
AcDbEntity
  8
0
  6
Continuous
 62
     0
370
     0
100
AcDbLine
 10
284.991268
 20
751.312292
 30
0.0
 11
284.991268
 21
805.903681
 31
0.0
  0
LINE
  5
1E3
330
189
100
AcDbEntity
  8
0
  6
Continuous
 62
     0
370
     0
100
AcDbLine
 10
285.988933
 20
750.381358
 30
0.0
 11
285.988933
 21
806.834615
 31
0.0
  0
LINE
  5
1E4
330
189
100
AcDbEntity
  8
0
  6
Continuous
 62
     0
370
    30
100
AcDbLine
 10
302.556141
 20
750.381358
 30
0.0
 11
302.556141
 21
806.834615
 31
0.0
  0
LWPOLYLINE
  5
1E5
330
189
100
AcDbEntity
  8
0
  6
Continuous
 62
     0
370
     0
100
AcDbPolyline
 90
       18
 70
     0
 43
0.0
 10
299.556152
 20
806.834595
 10
299.524597
 20
806.847168
 10
299.423798
 20
806.854797
 10
299.25946
 20
806.85791
 10
299.040283
 20
806.857178
 10
298.769653
 20
806.854065
 10
298.456482
 20
806.850037
 10
298.112061
 20
806.846436
 10
297.748199
 20
806.844299
 10
297.377441
 20
806.844299
 10
297.013092
 20
806.846313
 10
296.667786
 20
806.849915
 10
296.353394
 20
806.853943
 10
296.081055
 20
806.857056
 10
295.859802
 20
806.85791
 10
295.69339
 20
806.85498
 10
295.590149
 20
806.847534
 10
295.556152
 20
806.834595
  0
LWPOLYLINE
  5
1E6
330
189
100
AcDbEntity
  8
0
  6
Continuous
 62
     0
370
     0
100
AcDbPolyline
 90
       18
 70
     0
 43
0.0
 10
291.556152
 20
806.834595
 10
291.524597
 20
806.847168
 10
291.423798
 20
806.854797
 10
291.25946
 20
806.85791
 10
291.040283
 20
806.857178
 10
290.769653
 20
806.854065
 10
290.456482
 20
806.850037
 10
290.112061
 20
806.846436
 10
289.748199
 20
806.844299
 10
289.377441
 20
806.844299
 10
289.013092
 20
806.846313
 10
288.667786
 20
806.849915
 10
288.353394
 20
806.853943
 10
288.081055
 20
806.857056
 10
287.859802
 20
806.85791
 10
287.69339
 20
806.85498
 10
287.590149
 20
806.847534
 10
287.556152
 20
806.834595
  0
LINE
  5
1E7
330
189
100
AcDbEntity
  8
0
  6
Continuous
 62
     0
370
    30
100
AcDbLine
 10
287.905085
 20
806.857986
 30
0.0
 11
291.207356
 21
806.857986
 31
0.0
  0
LINE
  5
1E8
330
189
100
AcDbEntity
  8
0
  6
Continuous
 62
     0
370
    30
100
AcDbLine
 10
295.905085
 20
806.857986
 30
0.0
 11
299.207356
 21
806.857986
 31
0.0
  0
LINE
  5
1E9
330
189
100
AcDbEntity
  8
0
  6
Continuous
 62
     0
370
    30
100
AcDbLine
 10
285.988933
 20
750.357986
 30
0.0
 11
302.556141
 21
750.357986
 31
0.0
  0
LINE
  5
1EA
330
189
100
AcDbEntity
  8
0
  6
Continuous
 62
     0
370
    30
100
AcDbLine
 10
302.556141
 20
806.857986
 30
0.0
 11
299.207358
 21
806.857986
 31
0.0
  0
LINE
  5
1EB
330
189
100
AcDbEntity
  8
0
  6
Continuous
 62
     0
370
    30
100
AcDbLine
 10
295.905046
 20
806.857986
 30
0.0
 11
291.207358
 21
806.857986
 31
0.0
  0
LINE
  5
1EC
330
189
100
AcDbEntity
  8
0
  6
Continuous
 62
     0
370
    30
100
AcDbLine
 10
287.905046
 20
806.857986
 30
0.0
 11
285.988933
 21
806.857986
 31
0.0
  0
ARC
  5
1ED
330
189
100
AcDbEntity
  8
0
  6
Continuous
 62
     0
370
    30
100
AcDbCircle
 10
285.988942
 20
805.857332
 30
0.0
 40
1.000010947943714
100
AcDbArc
 50
90.0005
 51
175.9733
  0
ARC
  5
1EE
330
189
100
AcDbEntity
  8
0
  6
Continuous
 62
     0
370
    30
100
AcDbCircle
 10
285.988948
 20
751.35825
 30
0.0
 40
1.000017147287668
100
AcDbArc
 50
183.95918
 51
269.999116
  0
ARC
  5
1EF
330
189
100
AcDbEntity
  8
0
  6
Continuous
 62
     0
370
    30
100
AcDbCircle
 10
684.058655
 20
778.607941
 30
0.0
 40
400.0013389702792
100
AcDbArc
 50
176.083901
 51
179.995687
  0
ARC
  5
1F0
330
189
100
AcDbEntity
  8
0
  6
Continuous
 62
     0
370
    30
100
AcDbCircle
 10
684.058655
 20
778.608032
 30
0.0
 40
400.0013389703855
100
AcDbArc
 50
180.004313
 51
183.916099
  0
LINE
  5
1F1
330
189
100
AcDbEntity
  8
0
  6
Continuous
 62
     0
370
    30
100
AcDbLine
 10
303.05614
 20
758.44516
 30
0.0
 11
303.056141
 21
748.107986
 31
0.0
  0
LINE
  5
1F2
330
189
100
AcDbEntity
  8
0
  6
Continuous
 62
     0
370
    30
100
AcDbLine
 10
303.056141
 20
809.107986
 30
0.0
 11
303.05614
 21
758.44516
 31
0.0
  0
LINE
  5
1F3
330
189
100
AcDbEntity
  8
0
  6
Continuous
 62
     0
370
    30
100
AcDbLine
 10
304.65614
 20
758.44516
 30
0.0
 11
304.656141
 21
809.107986
 31
0.0
  0
LWPOLYLINE
  5
1F4
330
189
100
AcDbEntity
  8
0
  6
Continuous
 62
     0
370
    30
100
AcDbPolyline
 90
       19
 70
     0
 43
0.0
 10
304.656128
 20
748.107971
 10
304.656128
 20
748.145203
 10
304.656128
 20
748.256836
 10
304.656128
 20
748.442444
 10
304.656128
 20
748.700989
 10
304.656128
 20
749.030884
 10
304.656128
 20
749.430176
 10
304.656128
 20
749.896423
 10
304.656128
 20
750.426575
 10
304.656128
 20
751.017517
 10
304.656128
 20
751.665527
 10
304.656128
 20
752.366699
 10
304.656128
 20
753.117065
 10
304.656128
 20
753.912354
 10
304.656128
 20
754.74823
 10
304.656128
 20
755.620239
 10
304.656128
 20
756.524109
 10
304.656128
 20
757.455444
 10
304.656128
 20
758.445129
  0
LINE
  5
1F5
330
189
100
AcDbEntity
  8
0
  6
Continuous
 62
     0
370
    30
100
AcDbLine
 10
310.45614
 20
758.44516
 30
0.0
 11
310.456141
 21
809.107859
 31
0.0
  0
LWPOLYLINE
  5
1F6
330
189
100
AcDbEntity
  8
0
  6
Continuous
 62
     0
370
    30
100
AcDbPolyline
 90
       18
 70
     0
 43
0.0
 10
310.456146
 20
748.108093
 10
310.456146
 20
748.145874
 10
310.456146
 20
748.259033
 10
310.456146
 20
748.447266
 10
310.456146
 20
748.710449
 10
310.456146
 20
749.048218
 10
310.456146
 20
749.459717
 10
310.456146
 20
749.943542
 10
310.456146
 20
750.498352
 10
310.456146
 20
751.122681
 10
310.456146
 20
751.815125
 10
310.456146
 20
752.574341
 10
310.456146
 20
753.398499
 10
310.456146
 20
754.285339
 10
310.456146
 20
755.232422
 10
310.456146
 20
756.237427
 10
310.456146
 20
757.297913
 10
310.456146
 20
758.445129
  0
LINE
  5
1F7
330
189
100
AcDbEntity
  8
0
  6
Continuous
 62
     0
370
    30
100
AcDbLine
 10
312.05614
 20
758.44516
 30
0.0
 11
312.056141
 21
809.107986
 31
0.0
  0
LWPOLYLINE
  5
1F8
330
189
100
AcDbEntity
  8
0
  6
Continuous
 62
     0
370
    30
100
AcDbPolyline
 90
       19
 70
     0
 43
0.0
 10
312.056152
 20
748.107971
 10
312.056152
 20
748.145203
 10
312.056152
 20
748.256836
 10
312.056152
 20
748.442444
 10
312.056152
 20
748.700989
 10
312.056152
 20
749.030884
 10
312.056152
 20
749.430176
 10
312.056152
 20
749.896423
 10
312.056152
 20
750.426575
 10
312.056152
 20
751.017517
 10
312.056152
 20
751.665527
 10
312.056152
 20
752.366699
 10
312.056152
 20
753.117065
 10
312.056152
 20
753.912354
 10
312.056152
 20
754.74823
 10
312.056152
 20
755.620239
 10
312.056152
 20
756.524109
 10
312.056152
 20
757.455444
 10
312.056152
 20
758.445129
  0
LINE
  5
1F9
330
189
100
AcDbEntity
  8
0
  6
Continuous
 62
     0
370
    30
100
AcDbLine
 10
303.056141
 20
752.008147
 30
0.0
 11
302.556141
 21
752.008147
 31
0.0
  0
LINE
  5
1FA
330
189
100
AcDbEntity
  8
0
  6
Continuous
 62
     0
370
    30
100
AcDbLine
 10
303.056141
 20
805.208245
 30
0.0
 11
302.556141
 21
805.208245
 31
0.0
  0
LINE
  5
1FB
330
189
100
AcDbEntity
  8
0
  6
Continuous
 62
     0
370
    30
100
AcDbLine
 10
310.456141
 20
809.107986
 30
0.0
 11
312.056141
 21
809.107986
 31
0.0
  0
LINE
  5
1FC
330
189
100
AcDbEntity
  8
0
  6
Continuous
 62
     0
370
    30
100
AcDbLine
 10
312.056141
 20
748.107986
 30
0.0
 11
310.456141
 21
748.107986
 31
0.0
  0
LINE
  5
1FD
330
189
100
AcDbEntity
  8
0
  6
Continuous
 62
     0
370
    30
100
AcDbLine
 10
304.656141
 20
808.057986
 30
0.0
 11
310.456141
 21
808.057986
 31
0.0
  0
LINE
  5
1FE
330
189
100
AcDbEntity
  8
0
  6
Continuous
 62
     0
370
    30
100
AcDbLine
 10
310.456141
 20
749.157986
 30
0.0
 11
304.656141
 21
749.157986
 31
0.0
  0
LINE
  5
1FF
330
189
100
AcDbEntity
  8
0
  6
Continuous
 62
     0
370
    30
100
AcDbLine
 10
303.056141
 20
748.107986
 30
0.0
 11
304.656141
 21
748.107986
 31
0.0
  0
LINE
  5
200
330
189
100
AcDbEntity
  8
0
  6
Continuous
 62
     0
370
    30
100
AcDbLine
 10
303.056141
 20
809.107986
 30
0.0
 11
304.656141
 21
809.107986
 31
0.0
  0
ENDBLK
  5
202
330
189
100
AcDbEntity
  8
0
100
AcDbBlockEnd
  0
ENDSEC
  0
SECTION
  2
ENTITIES
  0
INSERT
  5
A6
330
1F
100
AcDbEntity
  8
0
  6
Continuous
 62
     7
420
 16250871
370
     0
100
AcDbBlockReference
  2
a
 10
414.152466
 20
93.217133
 30
0.0
  0
INSERT
  5
102
330
1F
100
AcDbEntity
  8
0
  6
Continuous
 62
     7
420
 16250871
370
     0
100
AcDbBlockReference
  2
b
 10
414.152435
 20
319.975189
 30
0.0
  0
INSERT
  5
188
330
1F
100
AcDbEntity
  8
0
  6
Continuous
 62
     7
420
 16250871
370
     0
100
AcDbBlockReference
  2
c
 10
480.667969
 20
93.217133
 30
0.0
  0
INSERT
  5
203
330
1F
100
AcDbEntity
  8
0
  6
Continuous
 62
     7
420
 16250871
370
     0
100
AcDbBlockReference
  2
d
 10
356.972351
 20
-0.000061
 30
0.0
  0
ENDSEC
  0
SECTION
  2
OBJECTS
  0
DICTIONARY
  5
C
330
0
100
AcDbDictionary
281
     1
  3
ACAD_DETAILVIEWSTYLE
350
23B
  3
ACAD_GROUP
350
D
  3
ACAD_LAYOUT
350
1A
  3
ACAD_MATERIAL
350
43
  3
ACAD_MLEADERSTYLE
350
6B
  3
ACAD_MLINESTYLE
350
17
  3
ACAD_PLOTSETTINGS
350
19
  3
ACAD_PLOTSTYLENAME
350
E
  3
ACAD_SCALELIST
350
47
  3
ACAD_SECTIONVIEWSTYLE
350
23C
  3
ACAD_TABLESTYLE
350
69
  3
ACAD_VISUALSTYLE
350
2A
  3
ACDB_RECOMPOSE_DATA
350
238
  3
AcDbVariableDictionary
350
204
  0
SUN
  5
6D
330
29
100
AcDbSun
 90
        1
290
     0
 63
     7
421
 16777215
 40
1.0
291
     1
 91
  2455826
 92
 54000000
292
     0
 70
     2
 71
   256
280
     1
  0
DICTIONARY
  5
23B
102
{ACAD_REACTORS
330
C
102
}
330
C
100
AcDbDictionary
281
     1
  0
DICTIONARY
  5
D
102
{ACAD_REACTORS
330
C
102
}
330
C
100
AcDbDictionary
281
     1
  0
DICTIONARY
  5
1A
102
{ACAD_REACTORS
330
C
102
}
330
C
100
AcDbDictionary
281
     1
  3
Layout1
350
1E
  3
Layout2
350
26
  3
Model
350
22
  0
DICTIONARY
  5
43
102
{ACAD_REACTORS
330
C
102
}
330
C
100
AcDbDictionary
281
     1
  3
ByBlock
350
45
  3
ByLayer
350
44
  3
Global
350
46
  0
DICTIONARY
  5
6B
102
{ACAD_REACTORS
330
C
102
}
330
C
100
AcDbDictionary
281
     1
  3
Standard
350
6C
  0
DICTIONARY
  5
17
102
{ACAD_REACTORS
330
C
102
}
330
C
100
AcDbDictionary
281
     1
  3
Standard
350
18
  0
DICTIONARY
  5
19
102
{ACAD_REACTORS
330
C
102
}
330
C
100
AcDbDictionary
281
     1
  0
ACDBDICTIONARYWDFLT
  5
E
102
{ACAD_REACTORS
330
C
102
}
330
C
100
AcDbDictionary
281
     1
  3
Normal
350
F
100
AcDbDictionaryWithDefault
340
F
  0
DICTIONARY
  5
47
102
{ACAD_REACTORS
330
C
102
}
330
C
100
AcDbDictionary
281
     1
  3
A0
350
48
  3
A1
350
49
  3
A2
350
4A
  3
A3
350
4B
  3
A4
350
4C
  3
A5
350
4D
  3
A6
350
4E
  3
A7
350
4F
  3
A8
350
50
  3
A9
350
51
  3
B0
350
52
  3
B1
350
53
  3
B2
350
54
  3
B3
350
55
  3
B4
350
56
  3
B5
350
57
  3
B6
350
58
  3
B7
350
59
  3
B8
350
5A
  3
B9
350
5B
  3
C0
350
5C
  3
C1
350
5D
  3
C2
350
5E
  3
C3
350
5F
  3
C4
350
60
  3
C5
350
61
  3
C6
350
62
  3
C7
350
63
  3
C8
350
64
  3
C9
350
65
  3
D0
350
66
  3
D1
350
67
  3
D2
350
68
  0
DICTIONARY
  5
23C
102
{ACAD_REACTORS
330
C
102
}
330
C
100
AcDbDictionary
281
     1
  0
DICTIONARY
  5
69
102
{ACAD_REACTORS
330
C
102
}
330
C
100
AcDbDictionary
281
     1
  3
Standard
350
6A
  0
DICTIONARY
  5
2A
102
{ACAD_REACTORS
330
C
102
}
330
C
100
AcDbDictionary
281
     1
  3
2dWireframe
350
2F
  3
Basic
350
32
  3
Brighten
350
36
  3
ColorChange
350
3A
  3
Conceptual
350
34
  3
Dim
350
35
  3
EdgeColorOff
350
3D
  3
Facepattern
350
39
  3
Flat
350
2B
  3
FlatWithEdges
350
2C
  3
Gouraud
350
2D
  3
GouraudWithEdges
350
2E
  3
Hidden
350
31
  3
JitterOff
350
3B
  3
Linepattern
350
38
  3
OverhangOff
350
3C
  3
Realistic
350
33
  3
Shaded
350
42
  3
Shaded with edges
350
41
  3
Shades of Gray
350
3E
  3
Sketchy
350
3F
  3
Thicken
350
37
  3
Wireframe
350
30
  3
X-Ray
350
40
  0
XRECORD
  5
238
102
{ACAD_REACTORS
330
C
102
}
330
C
100
AcDbXrecord
280
     1
 90
        1
330
6A
  0
DICTIONARY
  5
204
102
{ACAD_REACTORS
330
C
102
}
330
C
100
AcDbDictionary
281
     1
  3
CANNOSCALE
350
205
  3
CMLEADERSTYLE
350
23A
  3
CTABLESTYLE
350
239
  0
LAYOUT
  5
1E
102
{ACAD_REACTORS
330
1A
102
}
330
1A
100
AcDbPlotSettings
  1

  2
none_device
  4

  6

 40
0.0
 41
0.0
 42
0.0
 43
0.0
 44
0.0
 45
0.0
 46
0.0
 47
0.0
 48
0.0
 49
0.0
140
0.0
141
0.0
142
1.0
143
1.0
 70
   688
 72
     1
 73
     0
 74
     5
  7

 75
    16
 76
     0
 77
     2
 78
   300
147
1.0
148
0.0
149
0.0
100
AcDbLayout
  1
Layout1
 70
     1
 71
     1
 10
0.0
 20
0.0
 11
420.0
 21
297.0
 12
0.0
 22
0.0
 32
0.0
 14
1.000000E+20
 24
1.000000E+20
 34
1.000000E+20
 15
-1.000000E+20
 25
-1.000000E+20
 35
-1.000000E+20
146
0.0
 13
0.0
 23
0.0
 33
0.0
 16
1.0
 26
0.0
 36
0.0
 17
0.0
 27
1.0
 37
0.0
 76
     0
330
1B
  0
LAYOUT
  5
26
102
{ACAD_REACTORS
330
1A
102
}
330
1A
100
AcDbPlotSettings
  1

  2
none_device
  4

  6

 40
0.0
 41
0.0
 42
0.0
 43
0.0
 44
0.0
 45
0.0
 46
0.0
 47
0.0
 48
0.0
 49
0.0
140
0.0
141
0.0
142
1.0
143
1.0
 70
   688
 72
     1
 73
     0
 74
     5
  7

 75
    16
 76
     0
 77
     2
 78
   300
147
1.0
148
0.0
149
0.0
100
AcDbLayout
  1
Layout2
 70
     1
 71
     2
 10
0.0
 20
0.0
 11
0.0
 21
0.0
 12
0.0
 22
0.0
 32
0.0
 14
0.0
 24
0.0
 34
0.0
 15
0.0
 25
0.0
 35
0.0
146
0.0
 13
0.0
 23
0.0
 33
0.0
 16
1.0
 26
0.0
 36
0.0
 17
0.0
 27
1.0
 37
0.0
 76
     0
330
23
  0
LAYOUT
  5
22
102
{ACAD_REACTORS
330
1A
102
}
330
1A
100
AcDbPlotSettings
  1

  2
none_device
  4
Letter_(8.50_x_11.00_Inches)
  6

 40
6.35
 41
6.35
 42
6.350005
 43
6.350005
 44
215.9
 45
279.4
 46
0.0
 47
0.0
 48
0.0
 49
0.0
140
0.0
141
0.0
142
1.0
143
1.0
 70
  1712
 72
     1
 73
     0
 74
     0
  7

 75
     0
 76
     0
 77
     2
 78
   300
147
1.0
148
0.0
149
0.0
100
AcDbLayout
  1
Model
 70
     1
 71
     0
 10
0.0
 20
0.0
 11
420.0
 21
297.0
 12
0.0
 22
0.0
 32
0.0
 14
1.000000E+20
 24
1.000000E+20
 34
1.000000E+20
 15
-1.000000E+20
 25
-1.000000E+20
 35
-1.000000E+20
146
0.0
 13
0.0
 23
0.0
 33
0.0
 16
1.0
 26
0.0
 36
0.0
 17
0.0
 27
1.0
 37
0.0
 76
     0
330
1F
331
29
  0
MATERIAL
  5
45
102
{ACAD_REACTORS
330
43
102
}
330
43
100
AcDbMaterial
  1
ByBlock
 72
     1
 94
      127
  0
MATERIAL
  5
44
102
{ACAD_REACTORS
330
43
102
}
330
43
100
AcDbMaterial
  1
ByLayer
 72
     1
 94
      127
  0
MATERIAL
  5
46
102
{ACAD_REACTORS
330
43
102
}
330
43
100
AcDbMaterial
  1
Global
 72
     1
 94
      127
  0
MLEADERSTYLE
  5
6C
102
{ACAD_REACTORS
330
6B
102
}
330
6B
100
AcDbMLeaderStyle
179
     2
170
     2
171
     1
172
     0
 90
        2
 40
0.0
 41
0.0
173
     1
 91
-1056964608
340
14
 92
       -2
290
     1
 42
2.0
291
     1
 43
8.0
  3
Standard
341
0
 44
4.0
300

342
11
174
     1
178
     6
175
     1
176
     0
 93
-1056964608
 45
4.0
292
     0
297
     0
 46
4.0
343
0
 94
-1056964608
 47
1.0
 49
1.0
140
1.0
293
     1
141
0.0
294
     1
177
     0
142
1.0
295
     0
296
     0
143
3.75
271
     0
272
     9
273
     9
  0
MLINESTYLE
  5
18
102
{ACAD_REACTORS
330
17
102
}
330
17
100
AcDbMlineStyle
  2
Standard
 70
     0
  3

 62
   256
 51
90.0
 52
90.0
 71
     2
 49
0.5
 62
   256
  6
BYLAYER
 49
-0.5
 62
   256
  6
BYLAYER
  0
ACDBPLACEHOLDER
  5
F
102
{ACAD_REACTORS
330
E
102
}
330
E
  0
SCALE
  5
48
102
{ACAD_REACTORS
330
47
102
}
330
47
100
AcDbScale
 70
     0
300
1:1
140
1.0
141
1.0
290
     1
  0
SCALE
  5
49
102
{ACAD_REACTORS
330
47
102
}
330
47
100
AcDbScale
 70
     0
300
1:2
140
1.0
141
2.0
290
     0
  0
SCALE
  5
4A
102
{ACAD_REACTORS
330
47
102
}
330
47
100
AcDbScale
 70
     0
300
1:4
140
1.0
141
4.0
290
     0
  0
SCALE
  5
4B
102
{ACAD_REACTORS
330
47
102
}
330
47
100
AcDbScale
 70
     0
300
1:5
140
1.0
141
5.0
290
     0
  0
SCALE
  5
4C
102
{ACAD_REACTORS
330
47
102
}
330
47
100
AcDbScale
 70
     0
300
1:8
140
1.0
141
8.0
290
     0
  0
SCALE
  5
4D
102
{ACAD_REACTORS
330
47
102
}
330
47
100
AcDbScale
 70
     0
300
1:10
140
1.0
141
10.0
290
     0
  0
SCALE
  5
4E
102
{ACAD_REACTORS
330
47
102
}
330
47
100
AcDbScale
 70
     0
300
1:16
140
1.0
141
16.0
290
     0
  0
SCALE
  5
4F
102
{ACAD_REACTORS
330
47
102
}
330
47
100
AcDbScale
 70
     0
300
1:20
140
1.0
141
20.0
290
     0
  0
SCALE
  5
50
102
{ACAD_REACTORS
330
47
102
}
330
47
100
AcDbScale
 70
     0
300
1:30
140
1.0
141
30.0
290
     0
  0
SCALE
  5
51
102
{ACAD_REACTORS
330
47
102
}
330
47
100
AcDbScale
 70
     0
300
1:40
140
1.0
141
40.0
290
     0
  0
SCALE
  5
52
102
{ACAD_REACTORS
330
47
102
}
330
47
100
AcDbScale
 70
     0
300
1:50
140
1.0
141
50.0
290
     0
  0
SCALE
  5
53
102
{ACAD_REACTORS
330
47
102
}
330
47
100
AcDbScale
 70
     0
300
1:100
140
1.0
141
100.0
290
     0
  0
SCALE
  5
54
102
{ACAD_REACTORS
330
47
102
}
330
47
100
AcDbScale
 70
     0
300
2:1
140
2.0
141
1.0
290
     0
  0
SCALE
  5
55
102
{ACAD_REACTORS
330
47
102
}
330
47
100
AcDbScale
 70
     0
300
4:1
140
4.0
141
1.0
290
     0
  0
SCALE
  5
56
102
{ACAD_REACTORS
330
47
102
}
330
47
100
AcDbScale
 70
     0
300
8:1
140
8.0
141
1.0
290
     0
  0
SCALE
  5
57
102
{ACAD_REACTORS
330
47
102
}
330
47
100
AcDbScale
 70
     0
300
10:1
140
10.0
141
1.0
290
     0
  0
SCALE
  5
58
102
{ACAD_REACTORS
330
47
102
}
330
47
100
AcDbScale
 70
     0
300
100:1
140
100.0
141
1.0
290
     0
  0
SCALE
  5
59
102
{ACAD_REACTORS
330
47
102
}
330
47
100
AcDbScale
 70
     0
300
1/128" = 1'-0"
140
0.007812
141
12.0
290
     0
  0
SCALE
  5
5A
102
{ACAD_REACTORS
330
47
102
}
330
47
100
AcDbScale
 70
     0
300
1/64" = 1'-0"
140
0.015625
141
12.0
290
     0
  0
SCALE
  5
5B
102
{ACAD_REACTORS
330
47
102
}
330
47
100
AcDbScale
 70
     0
300
1/32" = 1'-0"
140
0.03125
141
12.0
290
     0
  0
SCALE
  5
5C
102
{ACAD_REACTORS
330
47
102
}
330
47
100
AcDbScale
 70
     0
300
1/16" = 1'-0"
140
0.0625
141
12.0
290
     0
  0
SCALE
  5
5D
102
{ACAD_REACTORS
330
47
102
}
330
47
100
AcDbScale
 70
     0
300
3/32" = 1'-0"
140
0.09375
141
12.0
290
     0
  0
SCALE
  5
5E
102
{ACAD_REACTORS
330
47
102
}
330
47
100
AcDbScale
 70
     0
300
1/8" = 1'-0"
140
0.125
141
12.0
290
     0
  0
SCALE
  5
5F
102
{ACAD_REACTORS
330
47
102
}
330
47
100
AcDbScale
 70
     0
300
3/16" = 1'-0"
140
0.1875
141
12.0
290
     0
  0
SCALE
  5
60
102
{ACAD_REACTORS
330
47
102
}
330
47
100
AcDbScale
 70
     0
300
1/4" = 1'-0"
140
0.25
141
12.0
290
     0
  0
SCALE
  5
61
102
{ACAD_REACTORS
330
47
102
}
330
47
100
AcDbScale
 70
     0
300
3/8" = 1'-0"
140
0.375
141
12.0
290
     0
  0
SCALE
  5
62
102
{ACAD_REACTORS
330
47
102
}
330
47
100
AcDbScale
 70
     0
300
1/2" = 1'-0"
140
0.5
141
12.0
290
     0
  0
SCALE
  5
63
102
{ACAD_REACTORS
330
47
102
}
330
47
100
AcDbScale
 70
     0
300
3/4" = 1'-0"
140
0.75
141
12.0
290
     0
  0
SCALE
  5
64
102
{ACAD_REACTORS
330
47
102
}
330
47
100
AcDbScale
 70
     0
300
1" = 1'-0"
140
1.0
141
12.0
290
     0
  0
SCALE
  5
65
102
{ACAD_REACTORS
330
47
102
}
330
47
100
AcDbScale
 70
     0
300
1-1/2" = 1'-0"
140
1.5
141
12.0
290
     0
  0
SCALE
  5
66
102
{ACAD_REACTORS
330
47
102
}
330
47
100
AcDbScale
 70
     0
300
3" = 1'-0"
140
3.0
141
12.0
290
     0
  0
SCALE
  5
67
102
{ACAD_REACTORS
330
47
102
}
330
47
100
AcDbScale
 70
     0
300
6" = 1'-0"
140
6.0
141
12.0
290
     0
  0
SCALE
  5
68
102
{ACAD_REACTORS
330
47
102
}
330
47
100
AcDbScale
 70
     0
300
1'-0" = 1'-0"
140
12.0
141
12.0
290
     0
  0
TABLESTYLE
  5
6A
102
{ACAD_REACTORS
330
69
102
}
102
{ACAD_XDICTIONARY
360
236
102
}
330
69
100
AcDbTableStyle
  3
Standard
 70
     0
 71
     0
 40
0.06
 41
0.06
280
     0
281
     0
  7
Standard
140
4.5
170
     2
 62
     0
 63
   257
283
     0
 90
        4
 91
        0
  1

274
    -2
284
     1
 64
     0
275
    -2
285
     1
 65
     0
276
    -2
286
     1
 66
     0
277
    -2
287
     1
 67
     0
278
    -2
288
     1
 68
     0
279
    -2
289
     1
 69
     0
  7
Standard
140
6.0
170
     5
 62
     0
 63
   257
283
     0
 90
        4
 91
        0
  1

274
    -2
284
     1
 64
     0
275
    -2
285
     1
 65
     0
276
    -2
286
     1
 66
     0
277
    -2
287
     1
 67
     0
278
    -2
288
     1
 68
     0
279
    -2
289
     1
 69
     0
  7
Standard
140
4.5
170
     5
 62
     0
 63
   257
283
     0
 90
        4
 91
        0
  1

274
    -2
284
     1
 64
     0
275
    -2
285
     1
 65
     0
276
    -2
286
     1
 66
     0
277
    -2
287
     1
 67
     0
278
    -2
288
     1
 68
     0
279
    -2
289
     1
 69
     0
  0
VISUALSTYLE
  5
2F
102
{ACAD_REACTORS
330
2A
102
}
102
{ACAD_XDICTIONARY
360
20E
102
}
330
2A
100
AcDbVisualStyle
  2
2dWireframe
 70
     4
177
     2
291
     0
 71
     0
176
     1
 72
     2
176
     1
 73
     0
176
     1
 90
        0
176
     1
 40
0.6
176
     1
 41
30.0
176
     1
 62
     5
 63
     7
421
 16777215
176
     1
 74
     1
176
     1
 91
        4
176
     1
 64
     7
176
     1
 65
   257
176
     1
 75
     1
176
     1
175
     1
176
     1
 42
1.0
176
     1
 92
        0
176
     1
 66
   257
176
     1
 43
1.0
176
     1
 76
     1
176
     1
 77
     6
176
     1
 78
     2
176
     1
 67
     7
176
     1
 79
     5
176
     1
170
     0
176
     1
171
     0
176
     1
290
     0
176
     1
 93
        1
176
     1
 44
0.0
176
     1
173
     0
176
     1
  0
VISUALSTYLE
  5
32
102
{ACAD_REACTORS
330
2A
102
}
102
{ACAD_XDICTIONARY
360
214
102
}
330
2A
100
AcDbVisualStyle
  2
Basic
 70
     7
177
     2
291
     1
 71
     1
176
     1
 72
     0
176
     1
 73
     1
176
     1
 90
        0
176
     1
 40
0.6
176
     1
 41
30.0
176
     1
 62
     5
 63
     7
421
 16777215
176
     1
 74
     0
176
     1
 91
        4
176
     1
 64
     7
176
     1
 65
   257
176
     1
 75
     1
176
     1
175
     1
176
     1
 42
1.0
176
     1
 92
        8
176
     1
 66
     7
176
     1
 43
1.0
176
     1
 76
     1
176
     1
 77
     6
176
     1
 78
     2
176
     1
 67
     7
176
     1
 79
     5
176
     1
170
     0
176
     1
171
     0
176
     1
290
     0
176
     1
 93
        1
176
     1
 44
0.0
176
     1
173
     0
176
     1
  0
VISUALSTYLE
  5
36
102
{ACAD_REACTORS
330
2A
102
}
102
{ACAD_XDICTIONARY
360
21C
102
}
330
2A
100
AcDbVisualStyle
  2
Brighten
 70
    12
177
     2
291
     1
 71
     2
176
     1
 72
     2
176
     1
 73
     0
176
     1
 90
        0
176
     1
 40
0.6
176
     1
 41
30.0
176
     1
 62
     5
 63
     7
421
 16777215
176
     1
 74
     1
176
     1
 91
        4
176
     1
 64
     7
176
     1
 65
   257
176
     1
 75
     1
176
     1
175
     1
176
     1
 42
1.0
176
     1
 92
        8
176
     1
 66
     7
176
     1
 43
1.0
176
     1
 76
     1
176
     1
 77
     6
176
     1
 78
     2
176
     1
 67
     7
176
     1
 79
     5
176
     1
170
     0
176
     1
171
     0
176
     1
290
     0
176
     1
 93
        1
176
     1
 44
50.0
176
     1
173
     0
176
     1
  0
VISUALSTYLE
  5
3A
102
{ACAD_REACTORS
330
2A
102
}
102
{ACAD_XDICTIONARY
360
224
102
}
330
2A
100
AcDbVisualStyle
  2
ColorChange
 70
    16
177
     2
291
     1
 71
     2
176
     1
 72
     2
176
     1
 73
     3
176
     1
 90
        0
176
     1
 40
0.6
176
     1
 41
30.0
176
     1
 62
     5
 63
     8
421
  8421504
176
     1
 74
     1
176
     1
 91
        4
176
     1
 64
     7
176
     1
 65
   257
176
     1
 75
     1
176
     1
175
     1
176
     1
 42
1.0
176
     1
 92
        8
176
     1
 66
     8
424
  8421504
176
     1
 43
1.0
176
     1
 76
     1
176
     1
 77
     6
176
     1
 78
     2
176
     1
 67
     7
176
     1
 79
     5
176
     1
170
     0
176
     1
171
     0
176
     1
290
     0
176
     1
 93
        1
176
     1
 44
0.0
176
     1
173
     0
176
     1
  0
VISUALSTYLE
  5
34
102
{ACAD_REACTORS
330
2A
102
}
102
{ACAD_XDICTIONARY
360
218
102
}
330
2A
100
AcDbVisualStyle
  2
Conceptual
 70
     9
177
     2
291
     0
 71
     3
176
     1
 72
     2
176
     1
 73
     0
176
     1
 90
        0
176
     1
 40
0.6
176
     1
 41
30.0
176
     1
 62
     5
 63
     7
421
 16777215
176
     1
 74
     2
176
     1
 91
        2
176
     1
 64
     7
176
     1
 65
   257
176
     1
 75
     1
176
     1
175
     1
176
     1
 42
179.0
176
     1
 92
        8
176
     1
 66
     7
176
     1
 43
1.0
176
     1
 76
     1
176
     1
 77
     6
176
     1
 78
     2
176
     1
 67
     7
176
     1
 79
     3
176
     1
170
     0
176
     1
171
     0
176
     1
290
     0
176
     1
 93
        1
176
     1
 44
0.0
176
     1
173
     0
176
     1
  0
VISUALSTYLE
  5
35
102
{ACAD_REACTORS
330
2A
102
}
102
{ACAD_XDICTIONARY
360
21A
102
}
330
2A
100
AcDbVisualStyle
  2
Dim
 70
    11
177
     2
291
     1
 71
     2
176
     1
 72
     2
176
     1
 73
     0
176
     1
 90
        0
176
     1
 40
0.6
176
     1
 41
30.0
176
     1
 62
     5
 63
     7
421
 16777215
176
     1
 74
     1
176
     1
 91
        4
176
     1
 64
     7
176
     1
 65
   257
176
     1
 75
     1
176
     1
175
     1
176
     1
 42
1.0
176
     1
 92
        8
176
     1
 66
     7
176
     1
 43
1.0
176
     1
 76
     1
176
     1
 77
     6
176
     1
 78
     2
176
     1
 67
     7
176
     1
 79
     5
176
     1
170
     0
176
     1
171
     0
176
     1
290
     0
176
     1
 93
        1
176
     1
 44
-50.0
176
     1
173
     0
176
     1
  0
VISUALSTYLE
  5
3D
102
{ACAD_REACTORS
330
2A
102
}
102
{ACAD_XDICTIONARY
360
22A
102
}
330
2A
100
AcDbVisualStyle
  2
EdgeColorOff
 70
    22
177
     2
291
     1
 71
     2
176
     0
 72
     2
176
     0
 73
     0
176
     0
 90
        0
176
     0
 40
0.6
176
     0
 41
30.0
176
     0
 62
     5
 63
     7
421
 16777215
176
     0
 74
     1
176
     0
 91
        4
176
     0
 64
     7
176
     0
 65
   257
176
     0
 75
     1
176
     0
175
     1
176
     0
 42
1.0
176
     0
 92
        8
176
     2
 66
     7
176
     0
 43
1.0
176
     0
 76
     1
176
     0
 77
     6
176
     0
 78
     2
176
     0
 67
     7
176
     0
 79
     5
176
     0
170
     0
176
     0
171
     0
176
     0
290
     0
176
     0
 93
        1
176
     0
 44
0.0
176
     0
173
     0
176
     0
  0
VISUALSTYLE
  5
39
102
{ACAD_REACTORS
330
2A
102
}
102
{ACAD_XDICTIONARY
360
222
102
}
330
2A
100
AcDbVisualStyle
  2
Facepattern
 70
    15
177
     2
291
     1
 71
     2
176
     1
 72
     2
176
     1
 73
     0
176
     1
 90
        0
176
     1
 40
0.6
176
     1
 41
30.0
176
     1
 62
     5
 63
     7
421
 16777215
176
     1
 74
     1
176
     1
 91
        4
176
     1
 64
     7
176
     1
 65
   257
176
     1
 75
     1
176
     1
175
     1
176
     1
 42
1.0
176
     1
 92
        8
176
     1
 66
     7
176
     1
 43
1.0
176
     1
 76
     1
176
     1
 77
     6
176
     1
 78
     2
176
     1
 67
     7
176
     1
 79
     5
176
     1
170
     0
176
     1
171
     0
176
     1
290
     0
176
     1
 93
        1
176
     1
 44
0.0
176
     1
173
     0
176
     1
  0
VISUALSTYLE
  5
2B
102
{ACAD_REACTORS
330
2A
102
}
102
{ACAD_XDICTIONARY
360
206
102
}
330
2A
100
AcDbVisualStyle
  2
Flat
 70
     0
177
     2
291
     1
 71
     2
176
     1
 72
     1
176
     1
 73
     1
176
     1
 90
        2
176
     1
 40
0.6
176
     1
 41
30.0
176
     1
 62
     5
 63
     7
421
 16777215
176
     1
 74
     0
176
     1
 91
        0
176
     1
 64
     7
176
     1
 65
   257
176
     1
 75
     1
176
     1
175
     1
176
     1
 42
1.0
176
     1
 92
        8
176
     1
 66
     7
176
     1
 43
1.0
176
     1
 76
     1
176
     1
 77
     6
176
     1
 78
     2
176
     1
 67
     7
176
     1
 79
     5
176
     1
170
     0
176
     1
171
     0
176
     1
290
     0
176
     1
 93
       13
176
     1
 44
0.0
176
     1
173
     0
176
     1
  0
VISUALSTYLE
  5
2C
102
{ACAD_REACTORS
330
2A
102
}
102
{ACAD_XDICTIONARY
360
208
102
}
330
2A
100
AcDbVisualStyle
  2
FlatWithEdges
 70
     1
177
     2
291
     1
 71
     2
176
     1
 72
     1
176
     1
 73
     1
176
     1
 90
        2
176
     1
 40
0.6
176
     1
 41
30.0
176
     1
 62
     5
 63
     7
421
 16777215
176
     1
 74
     1
176
     1
 91
        0
176
     1
 64
     7
176
     1
 65
   257
176
     1
 75
     1
176
     1
175
     1
176
     1
 42
1.0
176
     1
 92
        0
176
     1
 66
   257
176
     1
 43
1.0
176
     1
 76
     1
176
     1
 77
     6
176
     1
 78
     2
176
     1
 67
     7
176
     1
 79
     5
176
     1
170
     0
176
     1
171
     0
176
     1
290
     0
176
     1
 93
       13
176
     1
 44
0.0
176
     1
173
     0
176
     1
  0
VISUALSTYLE
  5
2D
102
{ACAD_REACTORS
330
2A
102
}
102
{ACAD_XDICTIONARY
360
20A
102
}
330
2A
100
AcDbVisualStyle
  2
Gouraud
 70
     2
177
     2
291
     1
 71
     2
176
     1
 72
     2
176
     1
 73
     1
176
     1
 90
        2
176
     1
 40
0.6
176
     1
 41
30.0
176
     1
 62
     5
 63
     7
421
 16777215
176
     1
 74
     0
176
     1
 91
        0
176
     1
 64
     7
176
     1
 65
   257
176
     1
 75
     1
176
     1
175
     1
176
     1
 42
1.0
176
     1
 92
        0
176
     1
 66
     7
176
     1
 43
1.0
176
     1
 76
     1
176
     1
 77
     6
176
     1
 78
     2
176
     1
 67
     7
176
     1
 79
     5
176
     1
170
     0
176
     1
171
     0
176
     1
290
     0
176
     1
 93
       13
176
     1
 44
0.0
176
     1
173
     0
176
     1
  0
VISUALSTYLE
  5
2E
102
{ACAD_REACTORS
330
2A
102
}
102
{ACAD_XDICTIONARY
360
20C
102
}
330
2A
100
AcDbVisualStyle
  2
GouraudWithEdges
 70
     3
177
     2
291
     1
 71
     2
176
     1
 72
     2
176
     1
 73
     1
176
     1
 90
        2
176
     1
 40
0.6
176
     1
 41
30.0
176
     1
 62
     5
 63
     7
421
 16777215
176
     1
 74
     1
176
     1
 91
        0
176
     1
 64
     7
176
     1
 65
   257
176
     1
 75
     1
176
     1
175
     1
176
     1
 42
1.0
176
     1
 92
        0
176
     1
 66
   257
176
     1
 43
1.0
176
     1
 76
     1
176
     1
 77
     6
176
     1
 78
     2
176
     1
 67
     7
176
     1
 79
     5
176
     1
170
     0
176
     1
171
     0
176
     1
290
     0
176
     1
 93
       13
176
     1
 44
0.0
176
     1
173
     0
176
     1
  0
VISUALSTYLE
  5
31
102
{ACAD_REACTORS
330
2A
102
}
102
{ACAD_XDICTIONARY
360
212
102
}
330
2A
100
AcDbVisualStyle
  2
Hidden
 70
     6
177
     2
291
     0
 71
     1
176
     1
 72
     2
176
     1
 73
     2
176
     1
 90
        0
176
     1
 40
0.6
176
     1
 41
30.0
176
     1
 62
     5
 63
     7
421
 16777215
176
     1
 74
     2
176
     1
 91
        2
176
     1
 64
     7
176
     1
 65
   257
176
     1
 75
     2
176
     1
175
     1
176
     1
 42
40.0
176
     1
 92
        0
176
     1
 66
   257
176
     1
 43
1.0
176
     1
 76
     1
176
     1
 77
     6
176
     1
 78
     2
176
     1
 67
     7
176
     1
 79
     3
176
     1
170
     0
176
     1
171
     0
176
     1
290
     0
176
     1
 93
        1
176
     1
 44
0.0
176
     1
173
     0
176
     1
  0
VISUALSTYLE
  5
3B
102
{ACAD_REACTORS
330
2A
102
}
102
{ACAD_XDICTIONARY
360
226
102
}
330
2A
100
AcDbVisualStyle
  2
JitterOff
 70
    20
177
     2
291
     1
 71
     2
176
     0
 72
     2
176
     0
 73
     0
176
     0
 90
        0
176
     0
 40
0.6
176
     0
 41
30.0
176
     0
 62
     5
 63
     7
421
 16777215
176
     0
 74
     1
176
     0
 91
        4
176
     0
 64
     7
176
     0
 65
   257
176
     0
 75
     1
176
     0
175
     1
176
     0
 42
1.0
176
     0
 92
       10
176
     2
 66
     7
176
     0
 43
1.0
176
     0
 76
     1
176
     0
 77
     6
176
     0
 78
     2
176
     0
 67
     7
176
     0
 79
     5
176
     0
170
     0
176
     0
171
     0
176
     0
290
     0
176
     0
 93
        1
176
     0
 44
0.0
176
     0
173
     0
176
     0
  0
VISUALSTYLE
  5
38
102
{ACAD_REACTORS
330
2A
102
}
102
{ACAD_XDICTIONARY
360
220
102
}
330
2A
100
AcDbVisualStyle
  2
Linepattern
 70
    14
177
     2
291
     1
 71
     2
176
     1
 72
     2
176
     1
 73
     0
176
     1
 90
        0
176
     1
 40
0.6
176
     1
 41
30.0
176
     1
 62
     5
 63
     7
421
 16777215
176
     1
 74
     1
176
     1
 91
        4
176
     1
 64
     7
176
     1
 65
   257
176
     1
 75
     7
176
     1
175
     7
176
     1
 42
1.0
176
     1
 92
        8
176
     1
 66
     7
176
     1
 43
1.0
176
     1
 76
     1
176
     1
 77
     6
176
     1
 78
     2
176
     1
 67
     7
176
     1
 79
     5
176
     1
170
     0
176
     1
171
     0
176
     1
290
     0
176
     1
 93
        1
176
     1
 44
0.0
176
     1
173
     0
176
     1
  0
VISUALSTYLE
  5
3C
102
{ACAD_REACTORS
330
2A
102
}
102
{ACAD_XDICTIONARY
360
228
102
}
330
2A
100
AcDbVisualStyle
  2
OverhangOff
 70
    21
177
     2
291
     1
 71
     2
176
     0
 72
     2
176
     0
 73
     0
176
     0
 90
        0
176
     0
 40
0.6
176
     0
 41
30.0
176
     0
 62
     5
 63
     7
421
 16777215
176
     0
 74
     1
176
     0
 91
        4
176
     0
 64
     7
176
     0
 65
   257
176
     0
 75
     1
176
     0
175
     1
176
     0
 42
1.0
176
     0
 92
        9
176
     2
 66
     7
176
     0
 43
1.0
176
     0
 76
     1
176
     0
 77
     6
176
     0
 78
     2
176
     0
 67
     7
176
     0
 79
     5
176
     0
170
     0
176
     0
171
     0
176
     0
290
     0
176
     0
 93
        1
176
     0
 44
0.0
176
     0
173
     0
176
     0
  0
VISUALSTYLE
  5
33
102
{ACAD_REACTORS
330
2A
102
}
102
{ACAD_XDICTIONARY
360
216
102
}
330
2A
100
AcDbVisualStyle
  2
Realistic
 70
     8
177
     2
291
     0
 71
     2
176
     1
 72
     3
176
     1
 73
     0
176
     1
 90
        2
176
     1
 40
0.6
176
     1
 41
30.0
176
     1
 62
     5
 63
     7
421
 16777215
176
     1
 74
     0
176
     1
 91
        0
176
     1
 64
     7
176
     1
 65
   257
176
     1
 75
     1
176
     1
175
     1
176
     1
 42
1.0
176
     1
 92
        8
176
     1
 66
   257
176
     1
 43
1.0
176
     1
 76
     1
176
     1
 77
     6
176
     1
 78
     2
176
     1
 67
     7
176
     1
 79
     3
176
     1
170
     0
176
     1
171
     0
176
     1
290
     0
176
     1
 93
       13
176
     1
 44
0.0
176
     1
173
     0
176
     1
  0
VISUALSTYLE
  5
42
102
{ACAD_REACTORS
330
2A
102
}
102
{ACAD_XDICTIONARY
360
234
102
}
330
2A
100
AcDbVisualStyle
  2
Shaded
 70
    27
177
     2
291
     0
 71
     2
176
     1
 72
     2
176
     1
 73
     1
176
     1
 90
        2
176
     1
 40
0.6
176
     1
 41
30.0
176
     1
 62
     5
 63
     7
421
 16777215
176
     1
 74
     0
176
     1
 91
        4
176
     1
 64
     7
176
     1
 65
   257
176
     1
 75
     1
176
     1
175
     1
176
     1
 42
1.0
176
     1
 92
        8
176
     1
 66
   257
176
     1
 43
1.0
176
     1
 76
     1
176
     1
 77
     6
176
     1
 78
     2
176
     1
 67
     8
425
  7895160
176
     1
 79
     3
176
     1
170
     0
176
     1
171
     0
176
     1
290
     0
176
     1
 93
        5
176
     1
 44
0.0
176
     1
173
     0
176
     1
  0
VISUALSTYLE
  5
41
102
{ACAD_REACTORS
330
2A
102
}
102
{ACAD_XDICTIONARY
360
232
102
}
330
2A
100
AcDbVisualStyle
  2
Shaded with edges
 70
    26
177
     2
291
     0
 71
     2
176
     1
 72
     2
176
     1
 73
     1
176
     1
 90
        2
176
     1
 40
0.6
176
     1
 41
30.0
176
     1
 62
     5
 63
     7
421
 16777215
176
     1
 74
     1
176
     1
 91
       10
176
     1
 64
     7
176
     1
 65
   257
176
     1
 75
     2
176
     1
175
     1
176
     1
 42
1.0
176
     1
 92
        8
176
     1
 66
   257
176
     1
 43
1.0
176
     1
 76
     1
176
     1
 77
     6
176
     1
 78
     2
176
     1
 67
     7
176
     1
 79
     3
176
     1
170
     0
176
     1
171
     0
176
     1
290
     0
176
     1
 93
        5
176
     1
 44
0.0
176
     1
173
     0
176
     1
  0
VISUALSTYLE
  5
3E
102
{ACAD_REACTORS
330
2A
102
}
102
{ACAD_XDICTIONARY
360
22C
102
}
330
2A
100
AcDbVisualStyle
  2
Shades of Gray
 70
    23
177
     2
291
     0
 71
     2
176
     1
 72
     2
176
     1
 73
     3
176
     1
 90
        0
176
     1
 40
0.6
176
     1
 41
30.0
176
     1
 62
     5
 63
     7
421
 16777215
176
     1
 74
     2
176
     1
 91
        2
176
     1
 64
     7
176
     1
 65
     7
176
     1
 75
     1
176
     1
175
     1
176
     1
 42
40.0
176
     1
 92
        8
176
     1
 66
     7
176
     1
 43
1.0
176
     1
 76
     1
176
     1
 77
     6
176
     1
 78
     2
176
     1
 67
     7
176
     1
 79
     3
176
     1
170
     0
176
     1
171
     0
176
     1
290
     0
176
     1
 93
        1
176
     1
 44
0.0
176
     1
173
     0
176
     1
  0
VISUALSTYLE
  5
3F
102
{ACAD_REACTORS
330
2A
102
}
102
{ACAD_XDICTIONARY
360
22E
102
}
330
2A
100
AcDbVisualStyle
  2
Sketchy
 70
    24
177
     2
291
     0
 71
     1
176
     1
 72
     2
176
     1
 73
     2
176
     1
 90
        0
176
     1
 40
0.6
176
     1
 41
30.0
176
     1
 62
     5
 63
     7
421
 16777215
176
     1
 74
     2
176
     1
 91
        2
176
     1
 64
     7
176
     1
 65
     7
176
     1
 75
     1
176
     1
175
     1
176
     1
 42
40.0
176
     1
 92
       11
176
     1
 66
     7
176
     1
 43
1.0
176
     1
 76
     1
176
     1
 77
     6
176
     1
 78
     2
176
     1
 67
     7
176
     1
 79
     6
176
     1
170
     0
176
     1
171
     0
176
     1
290
     0
176
     1
 93
        1
176
     1
 44
0.0
176
     1
173
     0
176
     1
  0
VISUALSTYLE
  5
37
102
{ACAD_REACTORS
330
2A
102
}
102
{ACAD_XDICTIONARY
360
21E
102
}
330
2A
100
AcDbVisualStyle
  2
Thicken
 70
    13
177
     2
291
     1
 71
     2
176
     1
 72
     2
176
     1
 73
     0
176
     1
 90
        0
176
     1
 40
0.6
176
     1
 41
30.0
176
     1
 62
     5
 63
     7
421
 16777215
176
     1
 74
     1
176
     1
 91
        4
176
     1
 64
     7
176
     1
 65
   257
176
     1
 75
     1
176
     1
175
     1
176
     1
 42
1.0
176
     1
 92
       12
176
     1
 66
     7
176
     1
 43
1.0
176
     1
 76
     1
176
     1
 77
     6
176
     1
 78
     2
176
     1
 67
     7
176
     1
 79
     5
176
     1
170
     0
176
     1
171
     0
176
     1
290
     0
176
     1
 93
        1
176
     1
 44
0.0
176
     1
173
     0
176
     1
  0
VISUALSTYLE
  5
30
102
{ACAD_REACTORS
330
2A
102
}
102
{ACAD_XDICTIONARY
360
210
102
}
330
2A
100
AcDbVisualStyle
  2
Wireframe
 70
     5
177
     2
291
     0
 71
     0
176
     1
 72
     2
176
     1
 73
     0
176
     1
 90
        0
176
     1
 40
0.6
176
     1
 41
30.0
176
     1
 62
     5
 63
     7
421
 16777215
176
     1
 74
     1
176
     1
 91
        4
176
     1
 64
     7
176
     1
 65
   257
176
     1
 75
     1
176
     1
175
     1
176
     1
 42
1.0
176
     1
 92
        0
176
     1
 66
   257
176
     1
 43
1.0
176
     1
 76
     1
176
     1
 77
     6
176
     1
 78
     2
176
     1
 67
     7
176
     1
 79
     3
176
     1
170
     0
176
     1
171
     0
176
     1
290
     0
176
     1
 93
        1
176
     1
 44
0.0
176
     1
173
     0
176
     1
  0
VISUALSTYLE
  5
40
102
{ACAD_REACTORS
330
2A
102
}
102
{ACAD_XDICTIONARY
360
230
102
}
330
2A
100
AcDbVisualStyle
  2
X-Ray
 70
    25
177
     2
291
     0
 71
     2
176
     1
 72
     2
176
     1
 73
     1
176
     1
 90
        1
176
     1
 40
0.5
176
     1
 41
30.0
176
     1
 62
     5
 63
     7
421
 16777215
176
     1
 74
     1
176
     1
 91
        0
176
     1
 64
     7
176
     1
 65
   257
176
     1
 75
     1
176
     1
175
     1
176
     1
 42
1.0
176
     1
 92
        8
176
     1
 66
     7
176
     1
 43
1.0
176
     1
 76
     1
176
     1
 77
     6
176
     1
 78
     2
176
     1
 67
     7
176
     1
 79
     3
176
     1
170
     0
176
     1
171
     0
176
     1
290
     0
176
     1
 93
       13
176
     1
 44
0.0
176
     1
173
     0
176
     1
  0
DICTIONARYVAR
  5
205
102
{ACAD_REACTORS
330
204
102
}
330
204
100
DictionaryVariables
280
     0
  1
1:1
  0
DICTIONARYVAR
  5
23A
102
{ACAD_REACTORS
330
204
102
}
330
204
100
DictionaryVariables
280
     0
  1
Standard
  0
DICTIONARYVAR
  5
239
102
{ACAD_REACTORS
330
204
102
}
330
204
100
DictionaryVariables
280
     0
  1
Standard
  0
DICTIONARY
  5
236
330
6A
100
AcDbDictionary
280
     1
281
     1
  3
ACAD_ROUNDTRIP_2008_TABLESTYLE_CELLSTYLEMAP
360
237
  0
DICTIONARY
  5
20E
330
2F
100
AcDbDictionary
280
     1
281
     1
  3
ACAD_XREC_ROUNDTRIP
360
20F
  0
DICTIONARY
  5
214
330
32
100
AcDbDictionary
280
     1
281
     1
  3
ACAD_XREC_ROUNDTRIP
360
215
  0
DICTIONARY
  5
21C
330
36
100
AcDbDictionary
280
     1
281
     1
  3
ACAD_XREC_ROUNDTRIP
360
21D
  0
DICTIONARY
  5
224
330
3A
100
AcDbDictionary
280
     1
281
     1
  3
ACAD_XREC_ROUNDTRIP
360
225
  0
DICTIONARY
  5
218
330
34
100
AcDbDictionary
280
     1
281
     1
  3
ACAD_XREC_ROUNDTRIP
360
219
  0
DICTIONARY
  5
21A
330
35
100
AcDbDictionary
280
     1
281
     1
  3
ACAD_XREC_ROUNDTRIP
360
21B
  0
DICTIONARY
  5
22A
330
3D
100
AcDbDictionary
280
     1
281
     1
  3
ACAD_XREC_ROUNDTRIP
360
22B
  0
DICTIONARY
  5
222
330
39
100
AcDbDictionary
280
     1
281
     1
  3
ACAD_XREC_ROUNDTRIP
360
223
  0
DICTIONARY
  5
206
330
2B
100
AcDbDictionary
280
     1
281
     1
  3
ACAD_XREC_ROUNDTRIP
360
207
  0
DICTIONARY
  5
208
330
2C
100
AcDbDictionary
280
     1
281
     1
  3
ACAD_XREC_ROUNDTRIP
360
209
  0
DICTIONARY
  5
20A
330
2D
100
AcDbDictionary
280
     1
281
     1
  3
ACAD_XREC_ROUNDTRIP
360
20B
  0
DICTIONARY
  5
20C
330
2E
100
AcDbDictionary
280
     1
281
     1
  3
ACAD_XREC_ROUNDTRIP
360
20D
  0
DICTIONARY
  5
212
330
31
100
AcDbDictionary
280
     1
281
     1
  3
ACAD_XREC_ROUNDTRIP
360
213
  0
DICTIONARY
  5
226
330
3B
100
AcDbDictionary
280
     1
281
     1
  3
ACAD_XREC_ROUNDTRIP
360
227
  0
DICTIONARY
  5
220
330
38
100
AcDbDictionary
280
     1
281
     1
  3
ACAD_XREC_ROUNDTRIP
360
221
  0
DICTIONARY
  5
228
330
3C
100
AcDbDictionary
280
     1
281
     1
  3
ACAD_XREC_ROUNDTRIP
360
229
  0
DICTIONARY
  5
216
330
33
100
AcDbDictionary
280
     1
281
     1
  3
ACAD_XREC_ROUNDTRIP
360
217
  0
DICTIONARY
  5
234
330
42
100
AcDbDictionary
280
     1
281
     1
  3
ACAD_XREC_ROUNDTRIP
360
235
  0
DICTIONARY
  5
232
330
41
100
AcDbDictionary
280
     1
281
     1
  3
ACAD_XREC_ROUNDTRIP
360
233
  0
DICTIONARY
  5
22C
330
3E
100
AcDbDictionary
280
     1
281
     1
  3
ACAD_XREC_ROUNDTRIP
360
22D
  0
DICTIONARY
  5
22E
330
3F
100
AcDbDictionary
280
     1
281
     1
  3
ACAD_XREC_ROUNDTRIP
360
22F
  0
DICTIONARY
  5
21E
330
37
100
AcDbDictionary
280
     1
281
     1
  3
ACAD_XREC_ROUNDTRIP
360
21F
  0
DICTIONARY
  5
210
330
30
100
AcDbDictionary
280
     1
281
     1
  3
ACAD_XREC_ROUNDTRIP
360
211
  0
DICTIONARY
  5
230
330
40
100
AcDbDictionary
280
     1
281
     1
  3
ACAD_XREC_ROUNDTRIP
360
231
  0
CELLSTYLEMAP
  5
237
102
{ACAD_REACTORS
330
236
102
}
330
236
100
AcDbCellStyleMap
 90
        3
300
CELLSTYLE
  1
TABLEFORMAT_BEGIN
 90
        5
170
     1
 91
        0
 92
    32768
 62
   257
 93
        1
300
CONTENTFORMAT
  1
CONTENTFORMAT_BEGIN
 90
        0
 91
        0
 92
        4
 93
        0
300

 40
0.0
140
1.0
 94
        5
 62
     0
340
11
144
6.0
309
CONTENTFORMAT_END
171
     1
301
MARGIN
  1
CELLMARGIN_BEGIN
 40
1.5
 40
1.5
 40
1.5
 40
1.5
 40
1.5
 40
1.5
309
CELLMARGIN_END
 94
        6
 95
        1
302
GRIDFORMAT
  1
GRIDFORMAT_BEGIN
 90
        0
 91
        1
 62
     0
 92
       -2
340
14
 93
        0
 40
0.045
309
GRIDFORMAT_END
 95
        2
302
GRIDFORMAT
  1
GRIDFORMAT_BEGIN
 90
        0
 91
        1
 62
     0
 92
       -2
340
14
 93
        0
 40
0.045
309
GRIDFORMAT_END
 95
        4
302
GRIDFORMAT
  1
GRIDFORMAT_BEGIN
 90
        0
 91
        1
 62
     0
 92
       -2
340
14
 93
        0
 40
0.045
309
GRIDFORMAT_END
 95
        8
302
GRIDFORMAT
  1
GRIDFORMAT_BEGIN
 90
        0
 91
        1
 62
     0
 92
       -2
340
14
 93
        0
 40
0.045
309
GRIDFORMAT_END
 95
       16
302
GRIDFORMAT
  1
GRIDFORMAT_BEGIN
 90
        0
 91
        1
 62
     0
 92
       -2
340
14
 93
        0
 40
0.045
309
GRIDFORMAT_END
 95
       32
302
GRIDFORMAT
  1
GRIDFORMAT_BEGIN
 90
        0
 91
        1
 62
     0
 92
       -2
340
14
 93
        0
 40
0.045
309
GRIDFORMAT_END
309
TABLEFORMAT_END
  1
CELLSTYLE_BEGIN
 90
        1
 91
        1
300
_TITLE
309
CELLSTYLE_END
300
CELLSTYLE
  1
TABLEFORMAT_BEGIN
 90
        5
170
     1
 91
        0
 92
        0
 62
   257
 93
        1
300
CONTENTFORMAT
  1
CONTENTFORMAT_BEGIN
 90
        0
 91
        0
 92
        4
 93
        0
300

 40
0.0
140
1.0
 94
        5
 62
     0
340
11
144
4.5
309
CONTENTFORMAT_END
171
     1
301
MARGIN
  1
CELLMARGIN_BEGIN
 40
1.5
 40
1.5
 40
1.5
 40
1.5
 40
1.5
 40
1.5
309
CELLMARGIN_END
 94
        6
 95
        1
302
GRIDFORMAT
  1
GRIDFORMAT_BEGIN
 90
        0
 91
        1
 62
     0
 92
       -2
340
14
 93
        0
 40
0.045
309
GRIDFORMAT_END
 95
        2
302
GRIDFORMAT
  1
GRIDFORMAT_BEGIN
 90
        0
 91
        1
 62
     0
 92
       -2
340
14
 93
        0
 40
0.045
309
GRIDFORMAT_END
 95
        4
302
GRIDFORMAT
  1
GRIDFORMAT_BEGIN
 90
        0
 91
        1
 62
     0
 92
       -2
340
14
 93
        0
 40
0.045
309
GRIDFORMAT_END
 95
        8
302
GRIDFORMAT
  1
GRIDFORMAT_BEGIN
 90
        0
 91
        1
 62
     0
 92
       -2
340
14
 93
        0
 40
0.045
309
GRIDFORMAT_END
 95
       16
302
GRIDFORMAT
  1
GRIDFORMAT_BEGIN
 90
        0
 91
        1
 62
     0
 92
       -2
340
14
 93
        0
 40
0.045
309
GRIDFORMAT_END
 95
       32
302
GRIDFORMAT
  1
GRIDFORMAT_BEGIN
 90
        0
 91
        1
 62
     0
 92
       -2
340
14
 93
        0
 40
0.045
309
GRIDFORMAT_END
309
TABLEFORMAT_END
  1
CELLSTYLE_BEGIN
 90
        2
 91
        1
300
_HEADER
309
CELLSTYLE_END
300
CELLSTYLE
  1
TABLEFORMAT_BEGIN
 90
        5
170
     1
 91
        0
 92
        0
 62
   257
 93
        1
300
CONTENTFORMAT
  1
CONTENTFORMAT_BEGIN
 90
        0
 91
        0
 92
        4
 93
        0
300

 40
0.0
140
1.0
 94
        2
 62
     0
340
11
144
4.5
309
CONTENTFORMAT_END
171
     1
301
MARGIN
  1
CELLMARGIN_BEGIN
 40
1.5
 40
1.5
 40
1.5
 40
1.5
 40
1.5
 40
1.5
309
CELLMARGIN_END
 94
        6
 95
        1
302
GRIDFORMAT
  1
GRIDFORMAT_BEGIN
 90
        0
 91
        1
 62
     0
 92
       -2
340
14
 93
        0
 40
0.045
309
GRIDFORMAT_END
 95
        2
302
GRIDFORMAT
  1
GRIDFORMAT_BEGIN
 90
        0
 91
        1
 62
     0
 92
       -2
340
14
 93
        0
 40
0.045
309
GRIDFORMAT_END
 95
        4
302
GRIDFORMAT
  1
GRIDFORMAT_BEGIN
 90
        0
 91
        1
 62
     0
 92
       -2
340
14
 93
        0
 40
0.045
309
GRIDFORMAT_END
 95
        8
302
GRIDFORMAT
  1
GRIDFORMAT_BEGIN
 90
        0
 91
        1
 62
     0
 92
       -2
340
14
 93
        0
 40
0.045
309
GRIDFORMAT_END
 95
       16
302
GRIDFORMAT
  1
GRIDFORMAT_BEGIN
 90
        0
 91
        1
 62
     0
 92
       -2
340
14
 93
        0
 40
0.045
309
GRIDFORMAT_END
 95
       32
302
GRIDFORMAT
  1
GRIDFORMAT_BEGIN
 90
        0
 91
        1
 62
     0
 92
       -2
340
14
 93
        0
 40
0.045
309
GRIDFORMAT_END
309
TABLEFORMAT_END
  1
CELLSTYLE_BEGIN
 90
        3
 91
        2
300
_DATA
309
CELLSTYLE_END
  0
XRECORD
  5
20F
102
{ACAD_REACTORS
330
20E
102
}
330
20E
100
AcDbXrecord
280
     1
102
RTVSPost2010Prop28
280
     1
102
RTVSPost2010PropOp28
 70
     1
102
RTVSPost2010Prop29
280
     1
102
RTVSPost2010PropOp29
 70
     1
102
RTVSPost2010Prop30
280
     0
102
RTVSPost2010PropOp30
 70
     1
102
RTVSPost2010Prop31
280
     0
102
RTVSPost2010PropOp31
 70
     1
102
RTVSPost2010Prop32
280
     0
102
RTVSPost2010PropOp32
 70
     1
102
RTVSPost2010Prop33
280
     0
102
RTVSPost2010PropOp33
 70
     1
102
RTVSPost2010Prop34
280
     0
102
RTVSPost2010PropOp34
 70
     1
102
RTVSPost2010Prop35
280
     0
102
RTVSPost2010PropOp35
 70
     1
102
RTVSPost2010Prop36
280
     0
102
RTVSPost2010PropOp36
 70
     1
102
RTVSPost2010Prop37
 90
       50
102
RTVSPost2010PropOp37
 70
     1
102
RTVSPost2010Prop38
140
0.0
102
RTVSPost2010PropOp38
 70
     1
102
RTVSPost2010Prop39
140
1.0
102
RTVSPost2010PropOp39
 70
     1
102
RTVSPost2010Prop40
 90
        0
102
RTVSPost2010PropOp40
 70
     1
102
RTVSPost2010Prop41ColorIndex
 90
       18
102
RTVSPost2010Prop41ColorRGB
 90
        0
102
RTVSPost2010PropOp41
 70
     1
102
RTVSPost2010Prop42
 90
       50
102
RTVSPost2010PropOp42
 70
     1
102
RTVSPost2010Prop43
 90
        3
102
RTVSPost2010PropOp43
 70
     1
102
RTVSPost2010Prop44ColorIndex
 90
        5
102
RTVSPost2010Prop44ColorRGB
 90
      255
102
RTVSPost2010PropOp44
 70
     1
102
RTVSPost2010Prop45
280
     0
102
RTVSPost2010PropOp45
 70
     1
102
RTVSPost2010Prop46
 90
       50
102
RTVSPost2010PropOp46
 70
     1
102
RTVSPost2010Prop47
 90
       50
102
RTVSPost2010PropOp47
 70
     1
102
RTVSPost2010Prop48
 90
       50
102
RTVSPost2010PropOp48
 70
     1
102
RTVSPost2010Prop49
280
     0
102
RTVSPost2010PropOp49
 70
     1
102
RTVSPost2010Prop50
 90
       50
102
RTVSPost2010PropOp50
 70
     1
102
RTVSPost2010Prop51ColorIndex
 90
      256
102
RTVSPost2010Prop51ColorRGB
 90
-16777216
102
RTVSPost2010PropOp51
 70
     0
102
RTVSPost2010Prop52
140
1.0
102
RTVSPost2010PropOp52
 70
     0
102
RTVSPost2010Prop53
 90
        2
102
RTVSPost2010PropOp53
 70
     1
102
RTVSPost2010Prop54
  1
strokes_ogs.tif
102
RTVSPost2010PropOp54
 70
     1
102
RTVSPost2010Prop55
280
     0
102
RTVSPost2010PropOp55
 70
     1
102
RTVSPost2010Prop56
140
1.0
102
RTVSPost2010PropOp56
 70
     1
102
RTVSPost2010Prop57
140
1.0
102
RTVSPost2010PropOp57
 70
     1
  0
XRECORD
  5
215
102
{ACAD_REACTORS
330
214
102
}
330
214
100
AcDbXrecord
280
     1
102
RTVSPost2010Prop28
280
     0
102
RTVSPost2010PropOp28
 70
     1
102
RTVSPost2010Prop29
280
     1
102
RTVSPost2010PropOp29
 70
     1
102
RTVSPost2010Prop30
280
     1
102
RTVSPost2010PropOp30
 70
     1
102
RTVSPost2010Prop31
280
     0
102
RTVSPost2010PropOp31
 70
     1
102
RTVSPost2010Prop32
280
     0
102
RTVSPost2010PropOp32
 70
     1
102
RTVSPost2010Prop33
280
     0
102
RTVSPost2010PropOp33
 70
     1
102
RTVSPost2010Prop34
280
     0
102
RTVSPost2010PropOp34
 70
     1
102
RTVSPost2010Prop35
280
     0
102
RTVSPost2010PropOp35
 70
     1
102
RTVSPost2010Prop36
280
     0
102
RTVSPost2010PropOp36
 70
     1
102
RTVSPost2010Prop37
 90
       50
102
RTVSPost2010PropOp37
 70
     1
102
RTVSPost2010Prop38
140
0.0
102
RTVSPost2010PropOp38
 70
     1
102
RTVSPost2010Prop39
140
1.0
102
RTVSPost2010PropOp39
 70
     1
102
RTVSPost2010Prop40
 90
        0
102
RTVSPost2010PropOp40
 70
     1
102
RTVSPost2010Prop41ColorIndex
 90
       18
102
RTVSPost2010Prop41ColorRGB
 90
        0
102
RTVSPost2010PropOp41
 70
     1
102
RTVSPost2010Prop42
 90
       50
102
RTVSPost2010PropOp42
 70
     1
102
RTVSPost2010Prop43
 90
        3
102
RTVSPost2010PropOp43
 70
     1
102
RTVSPost2010Prop44ColorIndex
 90
        5
102
RTVSPost2010Prop44ColorRGB
 90
      255
102
RTVSPost2010PropOp44
 70
     1
102
RTVSPost2010Prop45
280
     0
102
RTVSPost2010PropOp45
 70
     1
102
RTVSPost2010Prop46
 90
       50
102
RTVSPost2010PropOp46
 70
     1
102
RTVSPost2010Prop47
 90
       50
102
RTVSPost2010PropOp47
 70
     1
102
RTVSPost2010Prop48
 90
       50
102
RTVSPost2010PropOp48
 70
     1
102
RTVSPost2010Prop49
280
     0
102
RTVSPost2010PropOp49
 70
     1
102
RTVSPost2010Prop50
 90
       50
102
RTVSPost2010PropOp50
 70
     1
102
RTVSPost2010Prop51ColorIndex
 90
      256
102
RTVSPost2010Prop51ColorRGB
 90
-16777216
102
RTVSPost2010PropOp51
 70
     0
102
RTVSPost2010Prop52
140
1.0
102
RTVSPost2010PropOp52
 70
     0
102
RTVSPost2010Prop53
 90
        2
102
RTVSPost2010PropOp53
 70
     1
102
RTVSPost2010Prop54
  1
strokes_ogs.tif
102
RTVSPost2010PropOp54
 70
     1
102
RTVSPost2010Prop55
280
     0
102
RTVSPost2010PropOp55
 70
     1
102
RTVSPost2010Prop56
140
1.0
102
RTVSPost2010PropOp56
 70
     1
102
RTVSPost2010Prop57
140
1.0
102
RTVSPost2010PropOp57
 70
     1
  0
XRECORD
  5
21D
102
{ACAD_REACTORS
330
21C
102
}
330
21C
100
AcDbXrecord
280
     1
102
RTVSPost2010Prop28
280
     0
102
RTVSPost2010PropOp28
 70
     1
102
RTVSPost2010Prop29
280
     1
102
RTVSPost2010PropOp29
 70
     1
102
RTVSPost2010Prop30
280
     1
102
RTVSPost2010PropOp30
 70
     1
102
RTVSPost2010Prop31
280
     0
102
RTVSPost2010PropOp31
 70
     1
102
RTVSPost2010Prop32
280
     0
102
RTVSPost2010PropOp32
 70
     1
102
RTVSPost2010Prop33
280
     0
102
RTVSPost2010PropOp33
 70
     1
102
RTVSPost2010Prop34
280
     0
102
RTVSPost2010PropOp34
 70
     1
102
RTVSPost2010Prop35
280
     0
102
RTVSPost2010PropOp35
 70
     1
102
RTVSPost2010Prop36
280
     0
102
RTVSPost2010PropOp36
 70
     1
102
RTVSPost2010Prop37
 90
       50
102
RTVSPost2010PropOp37
 70
     1
102
RTVSPost2010Prop38
140
0.0
102
RTVSPost2010PropOp38
 70
     1
102
RTVSPost2010Prop39
140
1.0
102
RTVSPost2010PropOp39
 70
     1
102
RTVSPost2010Prop40
 90
        0
102
RTVSPost2010PropOp40
 70
     1
102
RTVSPost2010Prop41ColorIndex
 90
       18
102
RTVSPost2010Prop41ColorRGB
 90
        0
102
RTVSPost2010PropOp41
 70
     1
102
RTVSPost2010Prop42
 90
       50
102
RTVSPost2010PropOp42
 70
     1
102
RTVSPost2010Prop43
 90
        3
102
RTVSPost2010PropOp43
 70
     1
102
RTVSPost2010Prop44ColorIndex
 90
        5
102
RTVSPost2010Prop44ColorRGB
 90
      255
102
RTVSPost2010PropOp44
 70
     1
102
RTVSPost2010Prop45
280
     0
102
RTVSPost2010PropOp45
 70
     1
102
RTVSPost2010Prop46
 90
       50
102
RTVSPost2010PropOp46
 70
     1
102
RTVSPost2010Prop47
 90
       50
102
RTVSPost2010PropOp47
 70
     1
102
RTVSPost2010Prop48
 90
       50
102
RTVSPost2010PropOp48
 70
     1
102
RTVSPost2010Prop49
280
     0
102
RTVSPost2010PropOp49
 70
     1
102
RTVSPost2010Prop50
 90
       50
102
RTVSPost2010PropOp50
 70
     1
102
RTVSPost2010Prop51ColorIndex
 90
      256
102
RTVSPost2010Prop51ColorRGB
 90
-16777216
102
RTVSPost2010PropOp51
 70
     0
102
RTVSPost2010Prop52
140
1.0
102
RTVSPost2010PropOp52
 70
     0
102
RTVSPost2010Prop53
 90
        2
102
RTVSPost2010PropOp53
 70
     1
102
RTVSPost2010Prop54
  1
strokes_ogs.tif
102
RTVSPost2010PropOp54
 70
     1
102
RTVSPost2010Prop55
280
     0
102
RTVSPost2010PropOp55
 70
     1
102
RTVSPost2010Prop56
140
1.0
102
RTVSPost2010PropOp56
 70
     1
102
RTVSPost2010Prop57
140
1.0
102
RTVSPost2010PropOp57
 70
     1
  0
XRECORD
  5
225
102
{ACAD_REACTORS
330
224
102
}
330
224
100
AcDbXrecord
280
     1
102
RTVSPost2010Prop28
280
     0
102
RTVSPost2010PropOp28
 70
     1
102
RTVSPost2010Prop29
280
     1
102
RTVSPost2010PropOp29
 70
     1
102
RTVSPost2010Prop30
280
     1
102
RTVSPost2010PropOp30
 70
     1
102
RTVSPost2010Prop31
280
     0
102
RTVSPost2010PropOp31
 70
     1
102
RTVSPost2010Prop32
280
     0
102
RTVSPost2010PropOp32
 70
     1
102
RTVSPost2010Prop33
280
     0
102
RTVSPost2010PropOp33
 70
     1
102
RTVSPost2010Prop34
280
     0
102
RTVSPost2010PropOp34
 70
     1
102
RTVSPost2010Prop35
280
     0
102
RTVSPost2010PropOp35
 70
     1
102
RTVSPost2010Prop36
280
     0
102
RTVSPost2010PropOp36
 70
     1
102
RTVSPost2010Prop37
 90
       50
102
RTVSPost2010PropOp37
 70
     1
102
RTVSPost2010Prop38
140
0.0
102
RTVSPost2010PropOp38
 70
     1
102
RTVSPost2010Prop39
140
1.0
102
RTVSPost2010PropOp39
 70
     1
102
RTVSPost2010Prop40
 90
        0
102
RTVSPost2010PropOp40
 70
     1
102
RTVSPost2010Prop41ColorIndex
 90
       18
102
RTVSPost2010Prop41ColorRGB
 90
        0
102
RTVSPost2010PropOp41
 70
     1
102
RTVSPost2010Prop42
 90
       50
102
RTVSPost2010PropOp42
 70
     1
102
RTVSPost2010Prop43
 90
        3
102
RTVSPost2010PropOp43
 70
     1
102
RTVSPost2010Prop44ColorIndex
 90
        5
102
RTVSPost2010Prop44ColorRGB
 90
      255
102
RTVSPost2010PropOp44
 70
     1
102
RTVSPost2010Prop45
280
     0
102
RTVSPost2010PropOp45
 70
     1
102
RTVSPost2010Prop46
 90
       50
102
RTVSPost2010PropOp46
 70
     1
102
RTVSPost2010Prop47
 90
       50
102
RTVSPost2010PropOp47
 70
     1
102
RTVSPost2010Prop48
 90
       50
102
RTVSPost2010PropOp48
 70
     1
102
RTVSPost2010Prop49
280
     0
102
RTVSPost2010PropOp49
 70
     1
102
RTVSPost2010Prop50
 90
       50
102
RTVSPost2010PropOp50
 70
     1
102
RTVSPost2010Prop51ColorIndex
 90
      256
102
RTVSPost2010Prop51ColorRGB
 90
-16777216
102
RTVSPost2010PropOp51
 70
     0
102
RTVSPost2010Prop52
140
1.0
102
RTVSPost2010PropOp52
 70
     0
102
RTVSPost2010Prop53
 90
        2
102
RTVSPost2010PropOp53
 70
     1
102
RTVSPost2010Prop54
  1
strokes_ogs.tif
102
RTVSPost2010PropOp54
 70
     1
102
RTVSPost2010Prop55
280
     0
102
RTVSPost2010PropOp55
 70
     1
102
RTVSPost2010Prop56
140
1.0
102
RTVSPost2010PropOp56
 70
     1
102
RTVSPost2010Prop57
140
1.0
102
RTVSPost2010PropOp57
 70
     1
  0
XRECORD
  5
219
102
{ACAD_REACTORS
330
218
102
}
330
218
100
AcDbXrecord
280
     1
102
RTVSPost2010Prop28
280
     0
102
RTVSPost2010PropOp28
 70
     1
102
RTVSPost2010Prop29
280
     1
102
RTVSPost2010PropOp29
 70
     1
102
RTVSPost2010Prop30
280
     1
102
RTVSPost2010PropOp30
 70
     1
102
RTVSPost2010Prop31
280
     0
102
RTVSPost2010PropOp31
 70
     1
102
RTVSPost2010Prop32
280
     0
102
RTVSPost2010PropOp32
 70
     1
102
RTVSPost2010Prop33
280
     0
102
RTVSPost2010PropOp33
 70
     1
102
RTVSPost2010Prop34
280
     0
102
RTVSPost2010PropOp34
 70
     1
102
RTVSPost2010Prop35
280
     0
102
RTVSPost2010PropOp35
 70
     1
102
RTVSPost2010Prop36
280
     0
102
RTVSPost2010PropOp36
 70
     1
102
RTVSPost2010Prop37
 90
       50
102
RTVSPost2010PropOp37
 70
     1
102
RTVSPost2010Prop38
140
0.0
102
RTVSPost2010PropOp38
 70
     1
102
RTVSPost2010Prop39
140
1.0
102
RTVSPost2010PropOp39
 70
     1
102
RTVSPost2010Prop40
 90
        0
102
RTVSPost2010PropOp40
 70
     1
102
RTVSPost2010Prop41ColorIndex
 90
       18
102
RTVSPost2010Prop41ColorRGB
 90
        0
102
RTVSPost2010PropOp41
 70
     1
102
RTVSPost2010Prop42
 90
       50
102
RTVSPost2010PropOp42
 70
     1
102
RTVSPost2010Prop43
 90
        3
102
RTVSPost2010PropOp43
 70
     1
102
RTVSPost2010Prop44ColorIndex
 90
        5
102
RTVSPost2010Prop44ColorRGB
 90
      255
102
RTVSPost2010PropOp44
 70
     1
102
RTVSPost2010Prop45
280
     0
102
RTVSPost2010PropOp45
 70
     1
102
RTVSPost2010Prop46
 90
       50
102
RTVSPost2010PropOp46
 70
     1
102
RTVSPost2010Prop47
 90
       50
102
RTVSPost2010PropOp47
 70
     1
102
RTVSPost2010Prop48
 90
       50
102
RTVSPost2010PropOp48
 70
     1
102
RTVSPost2010Prop49
280
     0
102
RTVSPost2010PropOp49
 70
     1
102
RTVSPost2010Prop50
 90
       50
102
RTVSPost2010PropOp50
 70
     1
102
RTVSPost2010Prop51ColorIndex
 90
      256
102
RTVSPost2010Prop51ColorRGB
 90
-16777216
102
RTVSPost2010PropOp51
 70
     0
102
RTVSPost2010Prop52
140
1.0
102
RTVSPost2010PropOp52
 70
     0
102
RTVSPost2010Prop53
 90
        2
102
RTVSPost2010PropOp53
 70
     1
102
RTVSPost2010Prop54
  1
strokes_ogs.tif
102
RTVSPost2010PropOp54
 70
     1
102
RTVSPost2010Prop55
280
     0
102
RTVSPost2010PropOp55
 70
     1
102
RTVSPost2010Prop56
140
1.0
102
RTVSPost2010PropOp56
 70
     1
102
RTVSPost2010Prop57
140
1.0
102
RTVSPost2010PropOp57
 70
     1
  0
XRECORD
  5
21B
102
{ACAD_REACTORS
330
21A
102
}
330
21A
100
AcDbXrecord
280
     1
102
RTVSPost2010Prop28
280
     0
102
RTVSPost2010PropOp28
 70
     1
102
RTVSPost2010Prop29
280
     1
102
RTVSPost2010PropOp29
 70
     1
102
RTVSPost2010Prop30
280
     1
102
RTVSPost2010PropOp30
 70
     1
102
RTVSPost2010Prop31
280
     0
102
RTVSPost2010PropOp31
 70
     1
102
RTVSPost2010Prop32
280
     0
102
RTVSPost2010PropOp32
 70
     1
102
RTVSPost2010Prop33
280
     0
102
RTVSPost2010PropOp33
 70
     1
102
RTVSPost2010Prop34
280
     0
102
RTVSPost2010PropOp34
 70
     1
102
RTVSPost2010Prop35
280
     0
102
RTVSPost2010PropOp35
 70
     1
102
RTVSPost2010Prop36
280
     0
102
RTVSPost2010PropOp36
 70
     1
102
RTVSPost2010Prop37
 90
       50
102
RTVSPost2010PropOp37
 70
     1
102
RTVSPost2010Prop38
140
0.0
102
RTVSPost2010PropOp38
 70
     1
102
RTVSPost2010Prop39
140
1.0
102
RTVSPost2010PropOp39
 70
     1
102
RTVSPost2010Prop40
 90
        0
102
RTVSPost2010PropOp40
 70
     1
102
RTVSPost2010Prop41ColorIndex
 90
       18
102
RTVSPost2010Prop41ColorRGB
 90
        0
102
RTVSPost2010PropOp41
 70
     1
102
RTVSPost2010Prop42
 90
       50
102
RTVSPost2010PropOp42
 70
     1
102
RTVSPost2010Prop43
 90
        3
102
RTVSPost2010PropOp43
 70
     1
102
RTVSPost2010Prop44ColorIndex
 90
        5
102
RTVSPost2010Prop44ColorRGB
 90
      255
102
RTVSPost2010PropOp44
 70
     1
102
RTVSPost2010Prop45
280
     0
102
RTVSPost2010PropOp45
 70
     1
102
RTVSPost2010Prop46
 90
       50
102
RTVSPost2010PropOp46
 70
     1
102
RTVSPost2010Prop47
 90
       50
102
RTVSPost2010PropOp47
 70
     1
102
RTVSPost2010Prop48
 90
       50
102
RTVSPost2010PropOp48
 70
     1
102
RTVSPost2010Prop49
280
     0
102
RTVSPost2010PropOp49
 70
     1
102
RTVSPost2010Prop50
 90
       50
102
RTVSPost2010PropOp50
 70
     1
102
RTVSPost2010Prop51ColorIndex
 90
      256
102
RTVSPost2010Prop51ColorRGB
 90
-16777216
102
RTVSPost2010PropOp51
 70
     0
102
RTVSPost2010Prop52
140
1.0
102
RTVSPost2010PropOp52
 70
     0
102
RTVSPost2010Prop53
 90
        2
102
RTVSPost2010PropOp53
 70
     1
102
RTVSPost2010Prop54
  1
strokes_ogs.tif
102
RTVSPost2010PropOp54
 70
     1
102
RTVSPost2010Prop55
280
     0
102
RTVSPost2010PropOp55
 70
     1
102
RTVSPost2010Prop56
140
1.0
102
RTVSPost2010PropOp56
 70
     1
102
RTVSPost2010Prop57
140
1.0
102
RTVSPost2010PropOp57
 70
     1
  0
XRECORD
  5
22B
102
{ACAD_REACTORS
330
22A
102
}
330
22A
100
AcDbXrecord
280
     1
102
RTVSPost2010Prop28
280
     0
102
RTVSPost2010PropOp28
 70
     0
102
RTVSPost2010Prop29
280
     1
102
RTVSPost2010PropOp29
 70
     0
102
RTVSPost2010Prop30
280
     1
102
RTVSPost2010PropOp30
 70
     0
102
RTVSPost2010Prop31
280
     0
102
RTVSPost2010PropOp31
 70
     0
102
RTVSPost2010Prop32
280
     0
102
RTVSPost2010PropOp32
 70
     0
102
RTVSPost2010Prop33
280
     0
102
RTVSPost2010PropOp33
 70
     0
102
RTVSPost2010Prop34
280
     0
102
RTVSPost2010PropOp34
 70
     0
102
RTVSPost2010Prop35
280
     0
102
RTVSPost2010PropOp35
 70
     0
102
RTVSPost2010Prop36
280
     0
102
RTVSPost2010PropOp36
 70
     0
102
RTVSPost2010Prop37
 90
       50
102
RTVSPost2010PropOp37
 70
     0
102
RTVSPost2010Prop38
140
0.0
102
RTVSPost2010PropOp38
 70
     0
102
RTVSPost2010Prop39
140
1.0
102
RTVSPost2010PropOp39
 70
     0
102
RTVSPost2010Prop40
 90
        0
102
RTVSPost2010PropOp40
 70
     0
102
RTVSPost2010Prop41ColorIndex
 90
       18
102
RTVSPost2010Prop41ColorRGB
 90
        0
102
RTVSPost2010PropOp41
 70
     0
102
RTVSPost2010Prop42
 90
       50
102
RTVSPost2010PropOp42
 70
     0
102
RTVSPost2010Prop43
 90
        3
102
RTVSPost2010PropOp43
 70
     0
102
RTVSPost2010Prop44ColorIndex
 90
        5
102
RTVSPost2010Prop44ColorRGB
 90
      255
102
RTVSPost2010PropOp44
 70
     0
102
RTVSPost2010Prop45
280
     0
102
RTVSPost2010PropOp45
 70
     0
102
RTVSPost2010Prop46
 90
       50
102
RTVSPost2010PropOp46
 70
     0
102
RTVSPost2010Prop47
 90
       50
102
RTVSPost2010PropOp47
 70
     0
102
RTVSPost2010Prop48
 90
       50
102
RTVSPost2010PropOp48
 70
     0
102
RTVSPost2010Prop49
280
     0
102
RTVSPost2010PropOp49
 70
     0
102
RTVSPost2010Prop50
 90
       50
102
RTVSPost2010PropOp50
 70
     0
102
RTVSPost2010Prop51ColorIndex
 90
      256
102
RTVSPost2010Prop51ColorRGB
 90
-16777216
102
RTVSPost2010PropOp51
 70
     0
102
RTVSPost2010Prop52
140
1.0
102
RTVSPost2010PropOp52
 70
     0
102
RTVSPost2010Prop53
 90
        2
102
RTVSPost2010PropOp53
 70
     0
102
RTVSPost2010Prop54
  1
strokes_ogs.tif
102
RTVSPost2010PropOp54
 70
     0
102
RTVSPost2010Prop55
280
     0
102
RTVSPost2010PropOp55
 70
     0
102
RTVSPost2010Prop56
140
1.0
102
RTVSPost2010PropOp56
 70
     0
102
RTVSPost2010Prop57
140
1.0
102
RTVSPost2010PropOp57
 70
     0
  0
XRECORD
  5
223
102
{ACAD_REACTORS
330
222
102
}
330
222
100
AcDbXrecord
280
     1
102
RTVSPost2010Prop28
280
     0
102
RTVSPost2010PropOp28
 70
     1
102
RTVSPost2010Prop29
280
     1
102
RTVSPost2010PropOp29
 70
     1
102
RTVSPost2010Prop30
280
     1
102
RTVSPost2010PropOp30
 70
     1
102
RTVSPost2010Prop31
280
     0
102
RTVSPost2010PropOp31
 70
     1
102
RTVSPost2010Prop32
280
     0
102
RTVSPost2010PropOp32
 70
     1
102
RTVSPost2010Prop33
280
     0
102
RTVSPost2010PropOp33
 70
     1
102
RTVSPost2010Prop34
280
     0
102
RTVSPost2010PropOp34
 70
     1
102
RTVSPost2010Prop35
280
     0
102
RTVSPost2010PropOp35
 70
     1
102
RTVSPost2010Prop36
280
     0
102
RTVSPost2010PropOp36
 70
     1
102
RTVSPost2010Prop37
 90
       50
102
RTVSPost2010PropOp37
 70
     1
102
RTVSPost2010Prop38
140
0.0
102
RTVSPost2010PropOp38
 70
     1
102
RTVSPost2010Prop39
140
1.0
102
RTVSPost2010PropOp39
 70
     1
102
RTVSPost2010Prop40
 90
        0
102
RTVSPost2010PropOp40
 70
     1
102
RTVSPost2010Prop41ColorIndex
 90
       18
102
RTVSPost2010Prop41ColorRGB
 90
        0
102
RTVSPost2010PropOp41
 70
     1
102
RTVSPost2010Prop42
 90
       50
102
RTVSPost2010PropOp42
 70
     1
102
RTVSPost2010Prop43
 90
        3
102
RTVSPost2010PropOp43
 70
     1
102
RTVSPost2010Prop44ColorIndex
 90
        5
102
RTVSPost2010Prop44ColorRGB
 90
      255
102
RTVSPost2010PropOp44
 70
     1
102
RTVSPost2010Prop45
280
     0
102
RTVSPost2010PropOp45
 70
     1
102
RTVSPost2010Prop46
 90
       50
102
RTVSPost2010PropOp46
 70
     1
102
RTVSPost2010Prop47
 90
       50
102
RTVSPost2010PropOp47
 70
     1
102
RTVSPost2010Prop48
 90
       50
102
RTVSPost2010PropOp48
 70
     1
102
RTVSPost2010Prop49
280
     0
102
RTVSPost2010PropOp49
 70
     1
102
RTVSPost2010Prop50
 90
       50
102
RTVSPost2010PropOp50
 70
     1
102
RTVSPost2010Prop51ColorIndex
 90
      256
102
RTVSPost2010Prop51ColorRGB
 90
-16777216
102
RTVSPost2010PropOp51
 70
     0
102
RTVSPost2010Prop52
140
1.0
102
RTVSPost2010PropOp52
 70
     0
102
RTVSPost2010Prop53
 90
        2
102
RTVSPost2010PropOp53
 70
     1
102
RTVSPost2010Prop54
  1
strokes_ogs.tif
102
RTVSPost2010PropOp54
 70
     1
102
RTVSPost2010Prop55
280
     0
102
RTVSPost2010PropOp55
 70
     1
102
RTVSPost2010Prop56
140
1.0
102
RTVSPost2010PropOp56
 70
     1
102
RTVSPost2010Prop57
140
1.0
102
RTVSPost2010PropOp57
 70
     1
  0
XRECORD
  5
207
102
{ACAD_REACTORS
330
206
102
}
330
206
100
AcDbXrecord
280
     1
102
RTVSPost2010Prop28
280
     0
102
RTVSPost2010PropOp28
 70
     1
102
RTVSPost2010Prop29
280
     1
102
RTVSPost2010PropOp29
 70
     1
102
RTVSPost2010Prop30
280
     1
102
RTVSPost2010PropOp30
 70
     1
102
RTVSPost2010Prop31
280
     0
102
RTVSPost2010PropOp31
 70
     1
102
RTVSPost2010Prop32
280
     0
102
RTVSPost2010PropOp32
 70
     1
102
RTVSPost2010Prop33
280
     0
102
RTVSPost2010PropOp33
 70
     1
102
RTVSPost2010Prop34
280
     0
102
RTVSPost2010PropOp34
 70
     1
102
RTVSPost2010Prop35
280
     0
102
RTVSPost2010PropOp35
 70
     1
102
RTVSPost2010Prop36
280
     0
102
RTVSPost2010PropOp36
 70
     1
102
RTVSPost2010Prop37
 90
       50
102
RTVSPost2010PropOp37
 70
     1
102
RTVSPost2010Prop38
140
0.0
102
RTVSPost2010PropOp38
 70
     1
102
RTVSPost2010Prop39
140
1.0
102
RTVSPost2010PropOp39
 70
     1
102
RTVSPost2010Prop40
 90
        0
102
RTVSPost2010PropOp40
 70
     1
102
RTVSPost2010Prop41ColorIndex
 90
       18
102
RTVSPost2010Prop41ColorRGB
 90
        0
102
RTVSPost2010PropOp41
 70
     1
102
RTVSPost2010Prop42
 90
       50
102
RTVSPost2010PropOp42
 70
     1
102
RTVSPost2010Prop43
 90
        3
102
RTVSPost2010PropOp43
 70
     1
102
RTVSPost2010Prop44ColorIndex
 90
        5
102
RTVSPost2010Prop44ColorRGB
 90
      255
102
RTVSPost2010PropOp44
 70
     1
102
RTVSPost2010Prop45
280
     0
102
RTVSPost2010PropOp45
 70
     1
102
RTVSPost2010Prop46
 90
       50
102
RTVSPost2010PropOp46
 70
     1
102
RTVSPost2010Prop47
 90
       50
102
RTVSPost2010PropOp47
 70
     1
102
RTVSPost2010Prop48
 90
       50
102
RTVSPost2010PropOp48
 70
     1
102
RTVSPost2010Prop49
280
     0
102
RTVSPost2010PropOp49
 70
     1
102
RTVSPost2010Prop50
 90
       50
102
RTVSPost2010PropOp50
 70
     1
102
RTVSPost2010Prop51ColorIndex
 90
      256
102
RTVSPost2010Prop51ColorRGB
 90
-16777216
102
RTVSPost2010PropOp51
 70
     0
102
RTVSPost2010Prop52
140
1.0
102
RTVSPost2010PropOp52
 70
     0
102
RTVSPost2010Prop53
 90
        2
102
RTVSPost2010PropOp53
 70
     1
102
RTVSPost2010Prop54
  1
strokes_ogs.tif
102
RTVSPost2010PropOp54
 70
     1
102
RTVSPost2010Prop55
280
     0
102
RTVSPost2010PropOp55
 70
     1
102
RTVSPost2010Prop56
140
1.0
102
RTVSPost2010PropOp56
 70
     1
102
RTVSPost2010Prop57
140
1.0
102
RTVSPost2010PropOp57
 70
     1
  0
XRECORD
  5
209
102
{ACAD_REACTORS
330
208
102
}
330
208
100
AcDbXrecord
280
     1
102
RTVSPost2010Prop28
280
     0
102
RTVSPost2010PropOp28
 70
     1
102
RTVSPost2010Prop29
280
     1
102
RTVSPost2010PropOp29
 70
     1
102
RTVSPost2010Prop30
280
     1
102
RTVSPost2010PropOp30
 70
     1
102
RTVSPost2010Prop31
280
     0
102
RTVSPost2010PropOp31
 70
     1
102
RTVSPost2010Prop32
280
     0
102
RTVSPost2010PropOp32
 70
     1
102
RTVSPost2010Prop33
280
     0
102
RTVSPost2010PropOp33
 70
     1
102
RTVSPost2010Prop34
280
     0
102
RTVSPost2010PropOp34
 70
     1
102
RTVSPost2010Prop35
280
     0
102
RTVSPost2010PropOp35
 70
     1
102
RTVSPost2010Prop36
280
     0
102
RTVSPost2010PropOp36
 70
     1
102
RTVSPost2010Prop37
 90
       50
102
RTVSPost2010PropOp37
 70
     1
102
RTVSPost2010Prop38
140
0.0
102
RTVSPost2010PropOp38
 70
     1
102
RTVSPost2010Prop39
140
1.0
102
RTVSPost2010PropOp39
 70
     1
102
RTVSPost2010Prop40
 90
        0
102
RTVSPost2010PropOp40
 70
     1
102
RTVSPost2010Prop41ColorIndex
 90
       18
102
RTVSPost2010Prop41ColorRGB
 90
        0
102
RTVSPost2010PropOp41
 70
     1
102
RTVSPost2010Prop42
 90
       50
102
RTVSPost2010PropOp42
 70
     1
102
RTVSPost2010Prop43
 90
        3
102
RTVSPost2010PropOp43
 70
     1
102
RTVSPost2010Prop44ColorIndex
 90
        5
102
RTVSPost2010Prop44ColorRGB
 90
      255
102
RTVSPost2010PropOp44
 70
     1
102
RTVSPost2010Prop45
280
     0
102
RTVSPost2010PropOp45
 70
     1
102
RTVSPost2010Prop46
 90
       50
102
RTVSPost2010PropOp46
 70
     1
102
RTVSPost2010Prop47
 90
       50
102
RTVSPost2010PropOp47
 70
     1
102
RTVSPost2010Prop48
 90
       50
102
RTVSPost2010PropOp48
 70
     1
102
RTVSPost2010Prop49
280
     0
102
RTVSPost2010PropOp49
 70
     1
102
RTVSPost2010Prop50
 90
       50
102
RTVSPost2010PropOp50
 70
     1
102
RTVSPost2010Prop51ColorIndex
 90
      256
102
RTVSPost2010Prop51ColorRGB
 90
-16777216
102
RTVSPost2010PropOp51
 70
     0
102
RTVSPost2010Prop52
140
1.0
102
RTVSPost2010PropOp52
 70
     0
102
RTVSPost2010Prop53
 90
        2
102
RTVSPost2010PropOp53
 70
     1
102
RTVSPost2010Prop54
  1
strokes_ogs.tif
102
RTVSPost2010PropOp54
 70
     1
102
RTVSPost2010Prop55
280
     0
102
RTVSPost2010PropOp55
 70
     1
102
RTVSPost2010Prop56
140
1.0
102
RTVSPost2010PropOp56
 70
     1
102
RTVSPost2010Prop57
140
1.0
102
RTVSPost2010PropOp57
 70
     1
  0
XRECORD
  5
20B
102
{ACAD_REACTORS
330
20A
102
}
330
20A
100
AcDbXrecord
280
     1
102
RTVSPost2010Prop28
280
     0
102
RTVSPost2010PropOp28
 70
     1
102
RTVSPost2010Prop29
280
     1
102
RTVSPost2010PropOp29
 70
     1
102
RTVSPost2010Prop30
280
     1
102
RTVSPost2010PropOp30
 70
     1
102
RTVSPost2010Prop31
280
     0
102
RTVSPost2010PropOp31
 70
     1
102
RTVSPost2010Prop32
280
     0
102
RTVSPost2010PropOp32
 70
     1
102
RTVSPost2010Prop33
280
     0
102
RTVSPost2010PropOp33
 70
     1
102
RTVSPost2010Prop34
280
     0
102
RTVSPost2010PropOp34
 70
     1
102
RTVSPost2010Prop35
280
     0
102
RTVSPost2010PropOp35
 70
     1
102
RTVSPost2010Prop36
280
     0
102
RTVSPost2010PropOp36
 70
     1
102
RTVSPost2010Prop37
 90
       50
102
RTVSPost2010PropOp37
 70
     1
102
RTVSPost2010Prop38
140
0.0
102
RTVSPost2010PropOp38
 70
     1
102
RTVSPost2010Prop39
140
1.0
102
RTVSPost2010PropOp39
 70
     1
102
RTVSPost2010Prop40
 90
        0
102
RTVSPost2010PropOp40
 70
     1
102
RTVSPost2010Prop41ColorIndex
 90
       18
102
RTVSPost2010Prop41ColorRGB
 90
        0
102
RTVSPost2010PropOp41
 70
     1
102
RTVSPost2010Prop42
 90
       50
102
RTVSPost2010PropOp42
 70
     1
102
RTVSPost2010Prop43
 90
        3
102
RTVSPost2010PropOp43
 70
     1
102
RTVSPost2010Prop44ColorIndex
 90
        5
102
RTVSPost2010Prop44ColorRGB
 90
      255
102
RTVSPost2010PropOp44
 70
     1
102
RTVSPost2010Prop45
280
     0
102
RTVSPost2010PropOp45
 70
     1
102
RTVSPost2010Prop46
 90
       50
102
RTVSPost2010PropOp46
 70
     1
102
RTVSPost2010Prop47
 90
       50
102
RTVSPost2010PropOp47
 70
     1
102
RTVSPost2010Prop48
 90
       50
102
RTVSPost2010PropOp48
 70
     1
102
RTVSPost2010Prop49
280
     0
102
RTVSPost2010PropOp49
 70
     1
102
RTVSPost2010Prop50
 90
       50
102
RTVSPost2010PropOp50
 70
     1
102
RTVSPost2010Prop51ColorIndex
 90
      256
102
RTVSPost2010Prop51ColorRGB
 90
-16777216
102
RTVSPost2010PropOp51
 70
     0
102
RTVSPost2010Prop52
140
1.0
102
RTVSPost2010PropOp52
 70
     0
102
RTVSPost2010Prop53
 90
        2
102
RTVSPost2010PropOp53
 70
     1
102
RTVSPost2010Prop54
  1
strokes_ogs.tif
102
RTVSPost2010PropOp54
 70
     1
102
RTVSPost2010Prop55
280
     0
102
RTVSPost2010PropOp55
 70
     1
102
RTVSPost2010Prop56
140
1.0
102
RTVSPost2010PropOp56
 70
     1
102
RTVSPost2010Prop57
140
1.0
102
RTVSPost2010PropOp57
 70
     1
  0
XRECORD
  5
20D
102
{ACAD_REACTORS
330
20C
102
}
330
20C
100
AcDbXrecord
280
     1
102
RTVSPost2010Prop28
280
     0
102
RTVSPost2010PropOp28
 70
     1
102
RTVSPost2010Prop29
280
     1
102
RTVSPost2010PropOp29
 70
     1
102
RTVSPost2010Prop30
280
     1
102
RTVSPost2010PropOp30
 70
     1
102
RTVSPost2010Prop31
280
     0
102
RTVSPost2010PropOp31
 70
     1
102
RTVSPost2010Prop32
280
     0
102
RTVSPost2010PropOp32
 70
     1
102
RTVSPost2010Prop33
280
     0
102
RTVSPost2010PropOp33
 70
     1
102
RTVSPost2010Prop34
280
     0
102
RTVSPost2010PropOp34
 70
     1
102
RTVSPost2010Prop35
280
     0
102
RTVSPost2010PropOp35
 70
     1
102
RTVSPost2010Prop36
280
     0
102
RTVSPost2010PropOp36
 70
     1
102
RTVSPost2010Prop37
 90
       50
102
RTVSPost2010PropOp37
 70
     1
102
RTVSPost2010Prop38
140
0.0
102
RTVSPost2010PropOp38
 70
     1
102
RTVSPost2010Prop39
140
1.0
102
RTVSPost2010PropOp39
 70
     1
102
RTVSPost2010Prop40
 90
        0
102
RTVSPost2010PropOp40
 70
     1
102
RTVSPost2010Prop41ColorIndex
 90
       18
102
RTVSPost2010Prop41ColorRGB
 90
        0
102
RTVSPost2010PropOp41
 70
     1
102
RTVSPost2010Prop42
 90
       50
102
RTVSPost2010PropOp42
 70
     1
102
RTVSPost2010Prop43
 90
        3
102
RTVSPost2010PropOp43
 70
     1
102
RTVSPost2010Prop44ColorIndex
 90
        5
102
RTVSPost2010Prop44ColorRGB
 90
      255
102
RTVSPost2010PropOp44
 70
     1
102
RTVSPost2010Prop45
280
     0
102
RTVSPost2010PropOp45
 70
     1
102
RTVSPost2010Prop46
 90
       50
102
RTVSPost2010PropOp46
 70
     1
102
RTVSPost2010Prop47
 90
       50
102
RTVSPost2010PropOp47
 70
     1
102
RTVSPost2010Prop48
 90
       50
102
RTVSPost2010PropOp48
 70
     1
102
RTVSPost2010Prop49
280
     0
102
RTVSPost2010PropOp49
 70
     1
102
RTVSPost2010Prop50
 90
       50
102
RTVSPost2010PropOp50
 70
     1
102
RTVSPost2010Prop51ColorIndex
 90
      256
102
RTVSPost2010Prop51ColorRGB
 90
-16777216
102
RTVSPost2010PropOp51
 70
     0
102
RTVSPost2010Prop52
140
1.0
102
RTVSPost2010PropOp52
 70
     0
102
RTVSPost2010Prop53
 90
        2
102
RTVSPost2010PropOp53
 70
     1
102
RTVSPost2010Prop54
  1
strokes_ogs.tif
102
RTVSPost2010PropOp54
 70
     1
102
RTVSPost2010Prop55
280
     0
102
RTVSPost2010PropOp55
 70
     1
102
RTVSPost2010Prop56
140
1.0
102
RTVSPost2010PropOp56
 70
     1
102
RTVSPost2010Prop57
140
1.0
102
RTVSPost2010PropOp57
 70
     1
  0
XRECORD
  5
213
102
{ACAD_REACTORS
330
212
102
}
330
212
100
AcDbXrecord
280
     1
102
RTVSPost2010Prop28
280
     0
102
RTVSPost2010PropOp28
 70
     1
102
RTVSPost2010Prop29
280
     1
102
RTVSPost2010PropOp29
 70
     1
102
RTVSPost2010Prop30
280
     1
102
RTVSPost2010PropOp30
 70
     1
102
RTVSPost2010Prop31
280
     0
102
RTVSPost2010PropOp31
 70
     1
102
RTVSPost2010Prop32
280
     0
102
RTVSPost2010PropOp32
 70
     1
102
RTVSPost2010Prop33
280
     0
102
RTVSPost2010PropOp33
 70
     1
102
RTVSPost2010Prop34
280
     0
102
RTVSPost2010PropOp34
 70
     1
102
RTVSPost2010Prop35
280
     0
102
RTVSPost2010PropOp35
 70
     1
102
RTVSPost2010Prop36
280
     0
102
RTVSPost2010PropOp36
 70
     1
102
RTVSPost2010Prop37
 90
       50
102
RTVSPost2010PropOp37
 70
     1
102
RTVSPost2010Prop38
140
0.0
102
RTVSPost2010PropOp38
 70
     1
102
RTVSPost2010Prop39
140
1.0
102
RTVSPost2010PropOp39
 70
     1
102
RTVSPost2010Prop40
 90
        0
102
RTVSPost2010PropOp40
 70
     1
102
RTVSPost2010Prop41ColorIndex
 90
       18
102
RTVSPost2010Prop41ColorRGB
 90
        0
102
RTVSPost2010PropOp41
 70
     1
102
RTVSPost2010Prop42
 90
       50
102
RTVSPost2010PropOp42
 70
     1
102
RTVSPost2010Prop43
 90
        3
102
RTVSPost2010PropOp43
 70
     1
102
RTVSPost2010Prop44ColorIndex
 90
        5
102
RTVSPost2010Prop44ColorRGB
 90
      255
102
RTVSPost2010PropOp44
 70
     1
102
RTVSPost2010Prop45
280
     0
102
RTVSPost2010PropOp45
 70
     1
102
RTVSPost2010Prop46
 90
       50
102
RTVSPost2010PropOp46
 70
     1
102
RTVSPost2010Prop47
 90
       50
102
RTVSPost2010PropOp47
 70
     1
102
RTVSPost2010Prop48
 90
       50
102
RTVSPost2010PropOp48
 70
     1
102
RTVSPost2010Prop49
280
     0
102
RTVSPost2010PropOp49
 70
     1
102
RTVSPost2010Prop50
 90
       50
102
RTVSPost2010PropOp50
 70
     1
102
RTVSPost2010Prop51ColorIndex
 90
      256
102
RTVSPost2010Prop51ColorRGB
 90
-16777216
102
RTVSPost2010PropOp51
 70
     0
102
RTVSPost2010Prop52
140
1.0
102
RTVSPost2010PropOp52
 70
     0
102
RTVSPost2010Prop53
 90
        2
102
RTVSPost2010PropOp53
 70
     1
102
RTVSPost2010Prop54
  1
strokes_ogs.tif
102
RTVSPost2010PropOp54
 70
     1
102
RTVSPost2010Prop55
280
     0
102
RTVSPost2010PropOp55
 70
     1
102
RTVSPost2010Prop56
140
1.0
102
RTVSPost2010PropOp56
 70
     1
102
RTVSPost2010Prop57
140
1.0
102
RTVSPost2010PropOp57
 70
     1
  0
XRECORD
  5
227
102
{ACAD_REACTORS
330
226
102
}
330
226
100
AcDbXrecord
280
     1
102
RTVSPost2010Prop28
280
     0
102
RTVSPost2010PropOp28
 70
     0
102
RTVSPost2010Prop29
280
     1
102
RTVSPost2010PropOp29
 70
     0
102
RTVSPost2010Prop30
280
     1
102
RTVSPost2010PropOp30
 70
     0
102
RTVSPost2010Prop31
280
     0
102
RTVSPost2010PropOp31
 70
     0
102
RTVSPost2010Prop32
280
     0
102
RTVSPost2010PropOp32
 70
     0
102
RTVSPost2010Prop33
280
     0
102
RTVSPost2010PropOp33
 70
     0
102
RTVSPost2010Prop34
280
     0
102
RTVSPost2010PropOp34
 70
     0
102
RTVSPost2010Prop35
280
     0
102
RTVSPost2010PropOp35
 70
     0
102
RTVSPost2010Prop36
280
     0
102
RTVSPost2010PropOp36
 70
     0
102
RTVSPost2010Prop37
 90
       50
102
RTVSPost2010PropOp37
 70
     0
102
RTVSPost2010Prop38
140
0.0
102
RTVSPost2010PropOp38
 70
     0
102
RTVSPost2010Prop39
140
1.0
102
RTVSPost2010PropOp39
 70
     0
102
RTVSPost2010Prop40
 90
        0
102
RTVSPost2010PropOp40
 70
     0
102
RTVSPost2010Prop41ColorIndex
 90
       18
102
RTVSPost2010Prop41ColorRGB
 90
        0
102
RTVSPost2010PropOp41
 70
     0
102
RTVSPost2010Prop42
 90
       50
102
RTVSPost2010PropOp42
 70
     0
102
RTVSPost2010Prop43
 90
        3
102
RTVSPost2010PropOp43
 70
     0
102
RTVSPost2010Prop44ColorIndex
 90
        5
102
RTVSPost2010Prop44ColorRGB
 90
      255
102
RTVSPost2010PropOp44
 70
     0
102
RTVSPost2010Prop45
280
     0
102
RTVSPost2010PropOp45
 70
     0
102
RTVSPost2010Prop46
 90
       50
102
RTVSPost2010PropOp46
 70
     0
102
RTVSPost2010Prop47
 90
       50
102
RTVSPost2010PropOp47
 70
     0
102
RTVSPost2010Prop48
 90
       50
102
RTVSPost2010PropOp48
 70
     0
102
RTVSPost2010Prop49
280
     0
102
RTVSPost2010PropOp49
 70
     0
102
RTVSPost2010Prop50
 90
       50
102
RTVSPost2010PropOp50
 70
     0
102
RTVSPost2010Prop51ColorIndex
 90
      256
102
RTVSPost2010Prop51ColorRGB
 90
-16777216
102
RTVSPost2010PropOp51
 70
     0
102
RTVSPost2010Prop52
140
1.0
102
RTVSPost2010PropOp52
 70
     0
102
RTVSPost2010Prop53
 90
        2
102
RTVSPost2010PropOp53
 70
     0
102
RTVSPost2010Prop54
  1
strokes_ogs.tif
102
RTVSPost2010PropOp54
 70
     0
102
RTVSPost2010Prop55
280
     0
102
RTVSPost2010PropOp55
 70
     0
102
RTVSPost2010Prop56
140
1.0
102
RTVSPost2010PropOp56
 70
     0
102
RTVSPost2010Prop57
140
1.0
102
RTVSPost2010PropOp57
 70
     0
  0
XRECORD
  5
221
102
{ACAD_REACTORS
330
220
102
}
330
220
100
AcDbXrecord
280
     1
102
RTVSPost2010Prop28
280
     0
102
RTVSPost2010PropOp28
 70
     1
102
RTVSPost2010Prop29
280
     1
102
RTVSPost2010PropOp29
 70
     1
102
RTVSPost2010Prop30
280
     1
102
RTVSPost2010PropOp30
 70
     1
102
RTVSPost2010Prop31
280
     0
102
RTVSPost2010PropOp31
 70
     1
102
RTVSPost2010Prop32
280
     0
102
RTVSPost2010PropOp32
 70
     1
102
RTVSPost2010Prop33
280
     0
102
RTVSPost2010PropOp33
 70
     1
102
RTVSPost2010Prop34
280
     0
102
RTVSPost2010PropOp34
 70
     1
102
RTVSPost2010Prop35
280
     0
102
RTVSPost2010PropOp35
 70
     1
102
RTVSPost2010Prop36
280
     0
102
RTVSPost2010PropOp36
 70
     1
102
RTVSPost2010Prop37
 90
       50
102
RTVSPost2010PropOp37
 70
     1
102
RTVSPost2010Prop38
140
0.0
102
RTVSPost2010PropOp38
 70
     1
102
RTVSPost2010Prop39
140
1.0
102
RTVSPost2010PropOp39
 70
     1
102
RTVSPost2010Prop40
 90
        0
102
RTVSPost2010PropOp40
 70
     1
102
RTVSPost2010Prop41ColorIndex
 90
       18
102
RTVSPost2010Prop41ColorRGB
 90
        0
102
RTVSPost2010PropOp41
 70
     1
102
RTVSPost2010Prop42
 90
       50
102
RTVSPost2010PropOp42
 70
     1
102
RTVSPost2010Prop43
 90
        3
102
RTVSPost2010PropOp43
 70
     1
102
RTVSPost2010Prop44ColorIndex
 90
        5
102
RTVSPost2010Prop44ColorRGB
 90
      255
102
RTVSPost2010PropOp44
 70
     1
102
RTVSPost2010Prop45
280
     0
102
RTVSPost2010PropOp45
 70
     1
102
RTVSPost2010Prop46
 90
       50
102
RTVSPost2010PropOp46
 70
     1
102
RTVSPost2010Prop47
 90
       50
102
RTVSPost2010PropOp47
 70
     1
102
RTVSPost2010Prop48
 90
       50
102
RTVSPost2010PropOp48
 70
     1
102
RTVSPost2010Prop49
280
     0
102
RTVSPost2010PropOp49
 70
     1
102
RTVSPost2010Prop50
 90
       50
102
RTVSPost2010PropOp50
 70
     1
102
RTVSPost2010Prop51ColorIndex
 90
      256
102
RTVSPost2010Prop51ColorRGB
 90
-16777216
102
RTVSPost2010PropOp51
 70
     0
102
RTVSPost2010Prop52
140
1.0
102
RTVSPost2010PropOp52
 70
     0
102
RTVSPost2010Prop53
 90
        2
102
RTVSPost2010PropOp53
 70
     1
102
RTVSPost2010Prop54
  1
strokes_ogs.tif
102
RTVSPost2010PropOp54
 70
     1
102
RTVSPost2010Prop55
280
     0
102
RTVSPost2010PropOp55
 70
     1
102
RTVSPost2010Prop56
140
1.0
102
RTVSPost2010PropOp56
 70
     1
102
RTVSPost2010Prop57
140
1.0
102
RTVSPost2010PropOp57
 70
     1
  0
XRECORD
  5
229
102
{ACAD_REACTORS
330
228
102
}
330
228
100
AcDbXrecord
280
     1
102
RTVSPost2010Prop28
280
     0
102
RTVSPost2010PropOp28
 70
     0
102
RTVSPost2010Prop29
280
     1
102
RTVSPost2010PropOp29
 70
     0
102
RTVSPost2010Prop30
280
     1
102
RTVSPost2010PropOp30
 70
     0
102
RTVSPost2010Prop31
280
     0
102
RTVSPost2010PropOp31
 70
     0
102
RTVSPost2010Prop32
280
     0
102
RTVSPost2010PropOp32
 70
     0
102
RTVSPost2010Prop33
280
     0
102
RTVSPost2010PropOp33
 70
     0
102
RTVSPost2010Prop34
280
     0
102
RTVSPost2010PropOp34
 70
     0
102
RTVSPost2010Prop35
280
     0
102
RTVSPost2010PropOp35
 70
     0
102
RTVSPost2010Prop36
280
     0
102
RTVSPost2010PropOp36
 70
     0
102
RTVSPost2010Prop37
 90
       50
102
RTVSPost2010PropOp37
 70
     0
102
RTVSPost2010Prop38
140
0.0
102
RTVSPost2010PropOp38
 70
     0
102
RTVSPost2010Prop39
140
1.0
102
RTVSPost2010PropOp39
 70
     0
102
RTVSPost2010Prop40
 90
        0
102
RTVSPost2010PropOp40
 70
     0
102
RTVSPost2010Prop41ColorIndex
 90
       18
102
RTVSPost2010Prop41ColorRGB
 90
        0
102
RTVSPost2010PropOp41
 70
     0
102
RTVSPost2010Prop42
 90
       50
102
RTVSPost2010PropOp42
 70
     0
102
RTVSPost2010Prop43
 90
        3
102
RTVSPost2010PropOp43
 70
     0
102
RTVSPost2010Prop44ColorIndex
 90
        5
102
RTVSPost2010Prop44ColorRGB
 90
      255
102
RTVSPost2010PropOp44
 70
     0
102
RTVSPost2010Prop45
280
     0
102
RTVSPost2010PropOp45
 70
     0
102
RTVSPost2010Prop46
 90
       50
102
RTVSPost2010PropOp46
 70
     0
102
RTVSPost2010Prop47
 90
       50
102
RTVSPost2010PropOp47
 70
     0
102
RTVSPost2010Prop48
 90
       50
102
RTVSPost2010PropOp48
 70
     0
102
RTVSPost2010Prop49
280
     0
102
RTVSPost2010PropOp49
 70
     0
102
RTVSPost2010Prop50
 90
       50
102
RTVSPost2010PropOp50
 70
     0
102
RTVSPost2010Prop51ColorIndex
 90
      256
102
RTVSPost2010Prop51ColorRGB
 90
-16777216
102
RTVSPost2010PropOp51
 70
     0
102
RTVSPost2010Prop52
140
1.0
102
RTVSPost2010PropOp52
 70
     0
102
RTVSPost2010Prop53
 90
        2
102
RTVSPost2010PropOp53
 70
     0
102
RTVSPost2010Prop54
  1
strokes_ogs.tif
102
RTVSPost2010PropOp54
 70
     0
102
RTVSPost2010Prop55
280
     0
102
RTVSPost2010PropOp55
 70
     0
102
RTVSPost2010Prop56
140
1.0
102
RTVSPost2010PropOp56
 70
     0
102
RTVSPost2010Prop57
140
1.0
102
RTVSPost2010PropOp57
 70
     0
  0
XRECORD
  5
217
102
{ACAD_REACTORS
330
216
102
}
330
216
100
AcDbXrecord
280
     1
102
RTVSPost2010Prop28
280
     0
102
RTVSPost2010PropOp28
 70
     1
102
RTVSPost2010Prop29
280
     1
102
RTVSPost2010PropOp29
 70
     1
102
RTVSPost2010Prop30
280
     1
102
RTVSPost2010PropOp30
 70
     1
102
RTVSPost2010Prop31
280
     0
102
RTVSPost2010PropOp31
 70
     1
102
RTVSPost2010Prop32
280
     0
102
RTVSPost2010PropOp32
 70
     1
102
RTVSPost2010Prop33
280
     0
102
RTVSPost2010PropOp33
 70
     1
102
RTVSPost2010Prop34
280
     0
102
RTVSPost2010PropOp34
 70
     1
102
RTVSPost2010Prop35
280
     0
102
RTVSPost2010PropOp35
 70
     1
102
RTVSPost2010Prop36
280
     0
102
RTVSPost2010PropOp36
 70
     1
102
RTVSPost2010Prop37
 90
       50
102
RTVSPost2010PropOp37
 70
     1
102
RTVSPost2010Prop38
140
0.0
102
RTVSPost2010PropOp38
 70
     1
102
RTVSPost2010Prop39
140
1.0
102
RTVSPost2010PropOp39
 70
     1
102
RTVSPost2010Prop40
 90
        0
102
RTVSPost2010PropOp40
 70
     1
102
RTVSPost2010Prop41ColorIndex
 90
       18
102
RTVSPost2010Prop41ColorRGB
 90
        0
102
RTVSPost2010PropOp41
 70
     1
102
RTVSPost2010Prop42
 90
       50
102
RTVSPost2010PropOp42
 70
     1
102
RTVSPost2010Prop43
 90
        3
102
RTVSPost2010PropOp43
 70
     1
102
RTVSPost2010Prop44ColorIndex
 90
        5
102
RTVSPost2010Prop44ColorRGB
 90
      255
102
RTVSPost2010PropOp44
 70
     1
102
RTVSPost2010Prop45
280
     0
102
RTVSPost2010PropOp45
 70
     1
102
RTVSPost2010Prop46
 90
       50
102
RTVSPost2010PropOp46
 70
     1
102
RTVSPost2010Prop47
 90
       50
102
RTVSPost2010PropOp47
 70
     1
102
RTVSPost2010Prop48
 90
       50
102
RTVSPost2010PropOp48
 70
     1
102
RTVSPost2010Prop49
280
     0
102
RTVSPost2010PropOp49
 70
     1
102
RTVSPost2010Prop50
 90
       50
102
RTVSPost2010PropOp50
 70
     1
102
RTVSPost2010Prop51ColorIndex
 90
      256
102
RTVSPost2010Prop51ColorRGB
 90
-16777216
102
RTVSPost2010PropOp51
 70
     0
102
RTVSPost2010Prop52
140
1.0
102
RTVSPost2010PropOp52
 70
     0
102
RTVSPost2010Prop53
 90
        2
102
RTVSPost2010PropOp53
 70
     1
102
RTVSPost2010Prop54
  1
strokes_ogs.tif
102
RTVSPost2010PropOp54
 70
     1
102
RTVSPost2010Prop55
280
     0
102
RTVSPost2010PropOp55
 70
     1
102
RTVSPost2010Prop56
140
1.0
102
RTVSPost2010PropOp56
 70
     1
102
RTVSPost2010Prop57
140
1.0
102
RTVSPost2010PropOp57
 70
     1
  0
XRECORD
  5
235
102
{ACAD_REACTORS
330
234
102
}
330
234
100
AcDbXrecord
280
     1
102
RTVSPost2010Prop28
280
     0
102
RTVSPost2010PropOp28
 70
     1
102
RTVSPost2010Prop29
280
     1
102
RTVSPost2010PropOp29
 70
     1
102
RTVSPost2010Prop30
280
     1
102
RTVSPost2010PropOp30
 70
     1
102
RTVSPost2010Prop31
280
     0
102
RTVSPost2010PropOp31
 70
     1
102
RTVSPost2010Prop32
280
     0
102
RTVSPost2010PropOp32
 70
     1
102
RTVSPost2010Prop33
280
     0
102
RTVSPost2010PropOp33
 70
     1
102
RTVSPost2010Prop34
280
     0
102
RTVSPost2010PropOp34
 70
     1
102
RTVSPost2010Prop35
280
     0
102
RTVSPost2010PropOp35
 70
     1
102
RTVSPost2010Prop36
280
     0
102
RTVSPost2010PropOp36
 70
     1
102
RTVSPost2010Prop37
 90
       50
102
RTVSPost2010PropOp37
 70
     1
102
RTVSPost2010Prop38
140
0.0
102
RTVSPost2010PropOp38
 70
     1
102
RTVSPost2010Prop39
140
1.0
102
RTVSPost2010PropOp39
 70
     1
102
RTVSPost2010Prop40
 90
        0
102
RTVSPost2010PropOp40
 70
     1
102
RTVSPost2010Prop41ColorIndex
 90
       18
102
RTVSPost2010Prop41ColorRGB
 90
        0
102
RTVSPost2010PropOp41
 70
     1
102
RTVSPost2010Prop42
 90
       50
102
RTVSPost2010PropOp42
 70
     1
102
RTVSPost2010Prop43
 90
        3
102
RTVSPost2010PropOp43
 70
     1
102
RTVSPost2010Prop44ColorIndex
 90
        5
102
RTVSPost2010Prop44ColorRGB
 90
      255
102
RTVSPost2010PropOp44
 70
     1
102
RTVSPost2010Prop45
280
     0
102
RTVSPost2010PropOp45
 70
     1
102
RTVSPost2010Prop46
 90
       50
102
RTVSPost2010PropOp46
 70
     1
102
RTVSPost2010Prop47
 90
       50
102
RTVSPost2010PropOp47
 70
     1
102
RTVSPost2010Prop48
 90
       50
102
RTVSPost2010PropOp48
 70
     1
102
RTVSPost2010Prop49
280
     0
102
RTVSPost2010PropOp49
 70
     1
102
RTVSPost2010Prop50
 90
       50
102
RTVSPost2010PropOp50
 70
     1
102
RTVSPost2010Prop51ColorIndex
 90
      256
102
RTVSPost2010Prop51ColorRGB
 90
-16777216
102
RTVSPost2010PropOp51
 70
     0
102
RTVSPost2010Prop52
140
1.0
102
RTVSPost2010PropOp52
 70
     0
102
RTVSPost2010Prop53
 90
        2
102
RTVSPost2010PropOp53
 70
     1
102
RTVSPost2010Prop54
  1
strokes_ogs.tif
102
RTVSPost2010PropOp54
 70
     1
102
RTVSPost2010Prop55
280
     0
102
RTVSPost2010PropOp55
 70
     1
102
RTVSPost2010Prop56
140
1.0
102
RTVSPost2010PropOp56
 70
     1
102
RTVSPost2010Prop57
140
1.0
102
RTVSPost2010PropOp57
 70
     1
  0
XRECORD
  5
233
102
{ACAD_REACTORS
330
232
102
}
330
232
100
AcDbXrecord
280
     1
102
RTVSPost2010Prop28
280
     0
102
RTVSPost2010PropOp28
 70
     1
102
RTVSPost2010Prop29
280
     1
102
RTVSPost2010PropOp29
 70
     1
102
RTVSPost2010Prop30
280
     1
102
RTVSPost2010PropOp30
 70
     1
102
RTVSPost2010Prop31
280
     0
102
RTVSPost2010PropOp31
 70
     1
102
RTVSPost2010Prop32
280
     0
102
RTVSPost2010PropOp32
 70
     1
102
RTVSPost2010Prop33
280
     0
102
RTVSPost2010PropOp33
 70
     1
102
RTVSPost2010Prop34
280
     0
102
RTVSPost2010PropOp34
 70
     1
102
RTVSPost2010Prop35
280
     0
102
RTVSPost2010PropOp35
 70
     1
102
RTVSPost2010Prop36
280
     0
102
RTVSPost2010PropOp36
 70
     1
102
RTVSPost2010Prop37
 90
       50
102
RTVSPost2010PropOp37
 70
     1
102
RTVSPost2010Prop38
140
0.0
102
RTVSPost2010PropOp38
 70
     1
102
RTVSPost2010Prop39
140
1.0
102
RTVSPost2010PropOp39
 70
     1
102
RTVSPost2010Prop40
 90
        0
102
RTVSPost2010PropOp40
 70
     1
102
RTVSPost2010Prop41ColorIndex
 90
       18
102
RTVSPost2010Prop41ColorRGB
 90
        0
102
RTVSPost2010PropOp41
 70
     1
102
RTVSPost2010Prop42
 90
       50
102
RTVSPost2010PropOp42
 70
     1
102
RTVSPost2010Prop43
 90
        3
102
RTVSPost2010PropOp43
 70
     1
102
RTVSPost2010Prop44ColorIndex
 90
        5
102
RTVSPost2010Prop44ColorRGB
 90
      255
102
RTVSPost2010PropOp44
 70
     1
102
RTVSPost2010Prop45
280
     0
102
RTVSPost2010PropOp45
 70
     1
102
RTVSPost2010Prop46
 90
       50
102
RTVSPost2010PropOp46
 70
     1
102
RTVSPost2010Prop47
 90
       50
102
RTVSPost2010PropOp47
 70
     1
102
RTVSPost2010Prop48
 90
       50
102
RTVSPost2010PropOp48
 70
     1
102
RTVSPost2010Prop49
280
     0
102
RTVSPost2010PropOp49
 70
     1
102
RTVSPost2010Prop50
 90
       50
102
RTVSPost2010PropOp50
 70
     1
102
RTVSPost2010Prop51ColorIndex
 90
      256
102
RTVSPost2010Prop51ColorRGB
 90
-16777216
102
RTVSPost2010PropOp51
 70
     0
102
RTVSPost2010Prop52
140
1.0
102
RTVSPost2010PropOp52
 70
     0
102
RTVSPost2010Prop53
 90
        2
102
RTVSPost2010PropOp53
 70
     1
102
RTVSPost2010Prop54
  1
strokes_ogs.tif
102
RTVSPost2010PropOp54
 70
     1
102
RTVSPost2010Prop55
280
     0
102
RTVSPost2010PropOp55
 70
     1
102
RTVSPost2010Prop56
140
1.0
102
RTVSPost2010PropOp56
 70
     1
102
RTVSPost2010Prop57
140
1.0
102
RTVSPost2010PropOp57
 70
     1
  0
XRECORD
  5
22D
102
{ACAD_REACTORS
330
22C
102
}
330
22C
100
AcDbXrecord
280
     1
102
RTVSPost2010Prop28
280
     0
102
RTVSPost2010PropOp28
 70
     1
102
RTVSPost2010Prop29
280
     1
102
RTVSPost2010PropOp29
 70
     1
102
RTVSPost2010Prop30
280
     1
102
RTVSPost2010PropOp30
 70
     1
102
RTVSPost2010Prop31
280
     0
102
RTVSPost2010PropOp31
 70
     1
102
RTVSPost2010Prop32
280
     0
102
RTVSPost2010PropOp32
 70
     1
102
RTVSPost2010Prop33
280
     0
102
RTVSPost2010PropOp33
 70
     1
102
RTVSPost2010Prop34
280
     0
102
RTVSPost2010PropOp34
 70
     1
102
RTVSPost2010Prop35
280
     0
102
RTVSPost2010PropOp35
 70
     1
102
RTVSPost2010Prop36
280
     0
102
RTVSPost2010PropOp36
 70
     1
102
RTVSPost2010Prop37
 90
       50
102
RTVSPost2010PropOp37
 70
     1
102
RTVSPost2010Prop38
140
0.0
102
RTVSPost2010PropOp38
 70
     1
102
RTVSPost2010Prop39
140
1.0
102
RTVSPost2010PropOp39
 70
     1
102
RTVSPost2010Prop40
 90
        0
102
RTVSPost2010PropOp40
 70
     1
102
RTVSPost2010Prop41ColorIndex
 90
       18
102
RTVSPost2010Prop41ColorRGB
 90
        0
102
RTVSPost2010PropOp41
 70
     1
102
RTVSPost2010Prop42
 90
       50
102
RTVSPost2010PropOp42
 70
     1
102
RTVSPost2010Prop43
 90
        3
102
RTVSPost2010PropOp43
 70
     1
102
RTVSPost2010Prop44ColorIndex
 90
        5
102
RTVSPost2010Prop44ColorRGB
 90
      255
102
RTVSPost2010PropOp44
 70
     1
102
RTVSPost2010Prop45
280
     0
102
RTVSPost2010PropOp45
 70
     1
102
RTVSPost2010Prop46
 90
       50
102
RTVSPost2010PropOp46
 70
     1
102
RTVSPost2010Prop47
 90
       50
102
RTVSPost2010PropOp47
 70
     1
102
RTVSPost2010Prop48
 90
       50
102
RTVSPost2010PropOp48
 70
     1
102
RTVSPost2010Prop49
280
     0
102
RTVSPost2010PropOp49
 70
     1
102
RTVSPost2010Prop50
 90
       50
102
RTVSPost2010PropOp50
 70
     1
102
RTVSPost2010Prop51ColorIndex
 90
      256
102
RTVSPost2010Prop51ColorRGB
 90
-16777216
102
RTVSPost2010PropOp51
 70
     0
102
RTVSPost2010Prop52
140
1.0
102
RTVSPost2010PropOp52
 70
     0
102
RTVSPost2010Prop53
 90
        2
102
RTVSPost2010PropOp53
 70
     1
102
RTVSPost2010Prop54
  1
strokes_ogs.tif
102
RTVSPost2010PropOp54
 70
     1
102
RTVSPost2010Prop55
280
     0
102
RTVSPost2010PropOp55
 70
     1
102
RTVSPost2010Prop56
140
1.0
102
RTVSPost2010PropOp56
 70
     1
102
RTVSPost2010Prop57
140
1.0
102
RTVSPost2010PropOp57
 70
     1
  0
XRECORD
  5
22F
102
{ACAD_REACTORS
330
22E
102
}
330
22E
100
AcDbXrecord
280
     1
102
RTVSPost2010Prop28
280
     0
102
RTVSPost2010PropOp28
 70
     1
102
RTVSPost2010Prop29
280
     1
102
RTVSPost2010PropOp29
 70
     1
102
RTVSPost2010Prop30
280
     1
102
RTVSPost2010PropOp30
 70
     1
102
RTVSPost2010Prop31
280
     0
102
RTVSPost2010PropOp31
 70
     1
102
RTVSPost2010Prop32
280
     0
102
RTVSPost2010PropOp32
 70
     1
102
RTVSPost2010Prop33
280
     0
102
RTVSPost2010PropOp33
 70
     1
102
RTVSPost2010Prop34
280
     0
102
RTVSPost2010PropOp34
 70
     1
102
RTVSPost2010Prop35
280
     0
102
RTVSPost2010PropOp35
 70
     1
102
RTVSPost2010Prop36
280
     0
102
RTVSPost2010PropOp36
 70
     1
102
RTVSPost2010Prop37
 90
       50
102
RTVSPost2010PropOp37
 70
     1
102
RTVSPost2010Prop38
140
0.0
102
RTVSPost2010PropOp38
 70
     1
102
RTVSPost2010Prop39
140
1.0
102
RTVSPost2010PropOp39
 70
     1
102
RTVSPost2010Prop40
 90
        0
102
RTVSPost2010PropOp40
 70
     1
102
RTVSPost2010Prop41ColorIndex
 90
       18
102
RTVSPost2010Prop41ColorRGB
 90
        0
102
RTVSPost2010PropOp41
 70
     1
102
RTVSPost2010Prop42
 90
       50
102
RTVSPost2010PropOp42
 70
     1
102
RTVSPost2010Prop43
 90
        3
102
RTVSPost2010PropOp43
 70
     1
102
RTVSPost2010Prop44ColorIndex
 90
        5
102
RTVSPost2010Prop44ColorRGB
 90
      255
102
RTVSPost2010PropOp44
 70
     1
102
RTVSPost2010Prop45
280
     0
102
RTVSPost2010PropOp45
 70
     1
102
RTVSPost2010Prop46
 90
       50
102
RTVSPost2010PropOp46
 70
     1
102
RTVSPost2010Prop47
 90
       50
102
RTVSPost2010PropOp47
 70
     1
102
RTVSPost2010Prop48
 90
       50
102
RTVSPost2010PropOp48
 70
     1
102
RTVSPost2010Prop49
280
     0
102
RTVSPost2010PropOp49
 70
     1
102
RTVSPost2010Prop50
 90
       50
102
RTVSPost2010PropOp50
 70
     1
102
RTVSPost2010Prop51ColorIndex
 90
      256
102
RTVSPost2010Prop51ColorRGB
 90
-16777216
102
RTVSPost2010PropOp51
 70
     0
102
RTVSPost2010Prop52
140
1.0
102
RTVSPost2010PropOp52
 70
     0
102
RTVSPost2010Prop53
 90
        2
102
RTVSPost2010PropOp53
 70
     1
102
RTVSPost2010Prop54
  1
strokes_ogs.tif
102
RTVSPost2010PropOp54
 70
     1
102
RTVSPost2010Prop55
280
     0
102
RTVSPost2010PropOp55
 70
     1
102
RTVSPost2010Prop56
140
1.0
102
RTVSPost2010PropOp56
 70
     1
102
RTVSPost2010Prop57
140
1.0
102
RTVSPost2010PropOp57
 70
     1
  0
XRECORD
  5
21F
102
{ACAD_REACTORS
330
21E
102
}
330
21E
100
AcDbXrecord
280
     1
102
RTVSPost2010Prop28
280
     0
102
RTVSPost2010PropOp28
 70
     1
102
RTVSPost2010Prop29
280
     1
102
RTVSPost2010PropOp29
 70
     1
102
RTVSPost2010Prop30
280
     1
102
RTVSPost2010PropOp30
 70
     1
102
RTVSPost2010Prop31
280
     0
102
RTVSPost2010PropOp31
 70
     1
102
RTVSPost2010Prop32
280
     0
102
RTVSPost2010PropOp32
 70
     1
102
RTVSPost2010Prop33
280
     0
102
RTVSPost2010PropOp33
 70
     1
102
RTVSPost2010Prop34
280
     0
102
RTVSPost2010PropOp34
 70
     1
102
RTVSPost2010Prop35
280
     0
102
RTVSPost2010PropOp35
 70
     1
102
RTVSPost2010Prop36
280
     0
102
RTVSPost2010PropOp36
 70
     1
102
RTVSPost2010Prop37
 90
       50
102
RTVSPost2010PropOp37
 70
     1
102
RTVSPost2010Prop38
140
0.0
102
RTVSPost2010PropOp38
 70
     1
102
RTVSPost2010Prop39
140
1.0
102
RTVSPost2010PropOp39
 70
     1
102
RTVSPost2010Prop40
 90
        0
102
RTVSPost2010PropOp40
 70
     1
102
RTVSPost2010Prop41ColorIndex
 90
       18
102
RTVSPost2010Prop41ColorRGB
 90
        0
102
RTVSPost2010PropOp41
 70
     1
102
RTVSPost2010Prop42
 90
       50
102
RTVSPost2010PropOp42
 70
     1
102
RTVSPost2010Prop43
 90
        3
102
RTVSPost2010PropOp43
 70
     1
102
RTVSPost2010Prop44ColorIndex
 90
        5
102
RTVSPost2010Prop44ColorRGB
 90
      255
102
RTVSPost2010PropOp44
 70
     1
102
RTVSPost2010Prop45
280
     0
102
RTVSPost2010PropOp45
 70
     1
102
RTVSPost2010Prop46
 90
       50
102
RTVSPost2010PropOp46
 70
     1
102
RTVSPost2010Prop47
 90
       50
102
RTVSPost2010PropOp47
 70
     1
102
RTVSPost2010Prop48
 90
       50
102
RTVSPost2010PropOp48
 70
     1
102
RTVSPost2010Prop49
280
     0
102
RTVSPost2010PropOp49
 70
     1
102
RTVSPost2010Prop50
 90
       50
102
RTVSPost2010PropOp50
 70
     1
102
RTVSPost2010Prop51ColorIndex
 90
      256
102
RTVSPost2010Prop51ColorRGB
 90
-16777216
102
RTVSPost2010PropOp51
 70
     0
102
RTVSPost2010Prop52
140
1.0
102
RTVSPost2010PropOp52
 70
     0
102
RTVSPost2010Prop53
 90
        2
102
RTVSPost2010PropOp53
 70
     1
102
RTVSPost2010Prop54
  1
strokes_ogs.tif
102
RTVSPost2010PropOp54
 70
     1
102
RTVSPost2010Prop55
280
     0
102
RTVSPost2010PropOp55
 70
     1
102
RTVSPost2010Prop56
140
1.0
102
RTVSPost2010PropOp56
 70
     1
102
RTVSPost2010Prop57
140
1.0
102
RTVSPost2010PropOp57
 70
     1
  0
XRECORD
  5
211
102
{ACAD_REACTORS
330
210
102
}
330
210
100
AcDbXrecord
280
     1
102
RTVSPost2010Prop28
280
     0
102
RTVSPost2010PropOp28
 70
     1
102
RTVSPost2010Prop29
280
     1
102
RTVSPost2010PropOp29
 70
     1
102
RTVSPost2010Prop30
280
     1
102
RTVSPost2010PropOp30
 70
     1
102
RTVSPost2010Prop31
280
     0
102
RTVSPost2010PropOp31
 70
     1
102
RTVSPost2010Prop32
280
     0
102
RTVSPost2010PropOp32
 70
     1
102
RTVSPost2010Prop33
280
     0
102
RTVSPost2010PropOp33
 70
     1
102
RTVSPost2010Prop34
280
     0
102
RTVSPost2010PropOp34
 70
     1
102
RTVSPost2010Prop35
280
     0
102
RTVSPost2010PropOp35
 70
     1
102
RTVSPost2010Prop36
280
     0
102
RTVSPost2010PropOp36
 70
     1
102
RTVSPost2010Prop37
 90
       50
102
RTVSPost2010PropOp37
 70
     1
102
RTVSPost2010Prop38
140
0.0
102
RTVSPost2010PropOp38
 70
     1
102
RTVSPost2010Prop39
140
1.0
102
RTVSPost2010PropOp39
 70
     1
102
RTVSPost2010Prop40
 90
        0
102
RTVSPost2010PropOp40
 70
     1
102
RTVSPost2010Prop41ColorIndex
 90
       18
102
RTVSPost2010Prop41ColorRGB
 90
        0
102
RTVSPost2010PropOp41
 70
     1
102
RTVSPost2010Prop42
 90
       50
102
RTVSPost2010PropOp42
 70
     1
102
RTVSPost2010Prop43
 90
        3
102
RTVSPost2010PropOp43
 70
     1
102
RTVSPost2010Prop44ColorIndex
 90
        5
102
RTVSPost2010Prop44ColorRGB
 90
      255
102
RTVSPost2010PropOp44
 70
     1
102
RTVSPost2010Prop45
280
     0
102
RTVSPost2010PropOp45
 70
     1
102
RTVSPost2010Prop46
 90
       50
102
RTVSPost2010PropOp46
 70
     1
102
RTVSPost2010Prop47
 90
       50
102
RTVSPost2010PropOp47
 70
     1
102
RTVSPost2010Prop48
 90
       50
102
RTVSPost2010PropOp48
 70
     1
102
RTVSPost2010Prop49
280
     0
102
RTVSPost2010PropOp49
 70
     1
102
RTVSPost2010Prop50
 90
       50
102
RTVSPost2010PropOp50
 70
     1
102
RTVSPost2010Prop51ColorIndex
 90
      256
102
RTVSPost2010Prop51ColorRGB
 90
-16777216
102
RTVSPost2010PropOp51
 70
     0
102
RTVSPost2010Prop52
140
1.0
102
RTVSPost2010PropOp52
 70
     0
102
RTVSPost2010Prop53
 90
        2
102
RTVSPost2010PropOp53
 70
     1
102
RTVSPost2010Prop54
  1
strokes_ogs.tif
102
RTVSPost2010PropOp54
 70
     1
102
RTVSPost2010Prop55
280
     0
102
RTVSPost2010PropOp55
 70
     1
102
RTVSPost2010Prop56
140
1.0
102
RTVSPost2010PropOp56
 70
     1
102
RTVSPost2010Prop57
140
1.0
102
RTVSPost2010PropOp57
 70
     1
  0
XRECORD
  5
231
102
{ACAD_REACTORS
330
230
102
}
330
230
100
AcDbXrecord
280
     1
102
RTVSPost2010Prop28
280
     0
102
RTVSPost2010PropOp28
 70
     1
102
RTVSPost2010Prop29
280
     1
102
RTVSPost2010PropOp29
 70
     1
102
RTVSPost2010Prop30
280
     1
102
RTVSPost2010PropOp30
 70
     1
102
RTVSPost2010Prop31
280
     0
102
RTVSPost2010PropOp31
 70
     1
102
RTVSPost2010Prop32
280
     0
102
RTVSPost2010PropOp32
 70
     1
102
RTVSPost2010Prop33
280
     0
102
RTVSPost2010PropOp33
 70
     1
102
RTVSPost2010Prop34
280
     0
102
RTVSPost2010PropOp34
 70
     1
102
RTVSPost2010Prop35
280
     0
102
RTVSPost2010PropOp35
 70
     1
102
RTVSPost2010Prop36
280
     0
102
RTVSPost2010PropOp36
 70
     1
102
RTVSPost2010Prop37
 90
       50
102
RTVSPost2010PropOp37
 70
     1
102
RTVSPost2010Prop38
140
0.0
102
RTVSPost2010PropOp38
 70
     1
102
RTVSPost2010Prop39
140
1.0
102
RTVSPost2010PropOp39
 70
     1
102
RTVSPost2010Prop40
 90
        0
102
RTVSPost2010PropOp40
 70
     1
102
RTVSPost2010Prop41ColorIndex
 90
       18
102
RTVSPost2010Prop41ColorRGB
 90
        0
102
RTVSPost2010PropOp41
 70
     1
102
RTVSPost2010Prop42
 90
       50
102
RTVSPost2010PropOp42
 70
     1
102
RTVSPost2010Prop43
 90
        3
102
RTVSPost2010PropOp43
 70
     1
102
RTVSPost2010Prop44ColorIndex
 90
        5
102
RTVSPost2010Prop44ColorRGB
 90
      255
102
RTVSPost2010PropOp44
 70
     1
102
RTVSPost2010Prop45
280
     0
102
RTVSPost2010PropOp45
 70
     1
102
RTVSPost2010Prop46
 90
       50
102
RTVSPost2010PropOp46
 70
     1
102
RTVSPost2010Prop47
 90
       50
102
RTVSPost2010PropOp47
 70
     1
102
RTVSPost2010Prop48
 90
       50
102
RTVSPost2010PropOp48
 70
     1
102
RTVSPost2010Prop49
280
     0
102
RTVSPost2010PropOp49
 70
     1
102
RTVSPost2010Prop50
 90
       50
102
RTVSPost2010PropOp50
 70
     1
102
RTVSPost2010Prop51ColorIndex
 90
      256
102
RTVSPost2010Prop51ColorRGB
 90
-16777216
102
RTVSPost2010PropOp51
 70
     0
102
RTVSPost2010Prop52
140
1.0
102
RTVSPost2010PropOp52
 70
     0
102
RTVSPost2010Prop53
 90
        2
102
RTVSPost2010PropOp53
 70
     1
102
RTVSPost2010Prop54
  1
strokes_ogs.tif
102
RTVSPost2010PropOp54
 70
     1
102
RTVSPost2010Prop55
280
     0
102
RTVSPost2010PropOp55
 70
     1
102
RTVSPost2010Prop56
140
1.0
102
RTVSPost2010PropOp56
 70
     1
102
RTVSPost2010Prop57
140
1.0
102
RTVSPost2010PropOp57
 70
     1
  0
ENDSEC
  0
EOF
