  0
SECTION
  2
HEADER
  9
$ACADVER
  1
AC1024
  9
$ACADMAINTVER
 70
     6
  9
$DWGCODEPAGE
  3
ANSI_1252
  9
$INSBASE
 10
0.0
 20
0.0
 30
0.0
  9
$EXTMIN
 10
1.000000E+20
 20
1.000000E+20
 30
1.000000E+20
  9
$EXTMAX
 10
-1.000000E+20
 20
-1.000000E+20
 30
-1.000000E+20
  9
$LIMMIN
 10
0.0
 20
0.0
  9
$LIMMAX
 10
420.0
 20
297.0
  9
$ORTHOMODE
 70
     0
  9
$REGENMODE
 70
     1
  9
$FILLMODE
 70
     1
  9
$QTEXTMODE
 70
     0
  9
$MIRRTEXT
 70
     1
  9
$LTSCALE
 40
1.0
  9
$ATTMODE
 70
     1
  9
$TEXTSIZE
 40
2.5
  9
$TRACEWID
 40
1.0
  9
$TEXTSTYLE
  7
Standard
  9
$CLAYER
  8
0
  9
$CELTYPE
  6
ByLayer
  9
$CECOLOR
 62
   256
  9
$CELTSCALE
 40
1.0
  9
$DISPSILH
 70
     0
  9
$DIMSCALE
 40
1.0
  9
$DIMASZ
 40
2.5
  9
$DIMEXO
 40
0.625
  9
$DIMDLI
 40
3.75
  9
$DIMRND
 40
0.0
  9
$DIMDLE
 40
0.0
  9
$DIMEXE
 40
1.25
  9
$DIMTP
 40
0.0
  9
$DIMTM
 40
0.0
  9
$DIMTXT
 40
2.5
  9
$DIMCEN
 40
2.5
  9
$DIMTSZ
 40
0.0
  9
$DIMTOL
 70
     0
  9
$DIMLIM
 70
     0
  9
$DIMTIH
 70
     0
  9
$DIMTOH
 70
     0
  9
$DIMSE1
 70
     0
  9
$DIMSE2
 70
     0
  9
$DIMTAD
 70
     1
  9
$DIMZIN
 70
     8
  9
$DIMBLK
  1

  9
$DIMASO
 70
     1
  9
$DIMSHO
 70
     1
  9
$DIMPOST
  1

  9
$DIMAPOST
  1

  9
$DIMALT
 70
     0
  9
$DIMALTD
 70
     3
  9
$DIMALTF
 40
0.03937
  9
$DIMLFAC
 40
1.0
  9
$DIMTOFL
 70
     1
  9
$DIMTVP
 40
0.0
  9
$DIMTIX
 70
     0
  9
$DIMSOXD
 70
     0
  9
$DIMSAH
 70
     0
  9
$DIMBLK1
  1

  9
$DIMBLK2
  1

  9
$DIMSTYLE
  2
ISO-25
  9
$DIMCLRD
 70
     0
  9
$DIMCLRE
 70
     0
  9
$DIMCLRT
 70
     0
  9
$DIMTFAC
 40
1.0
  9
$DIMGAP
 40
0.625
  9
$DIMJUST
 70
     0
  9
$DIMSD1
 70
     0
  9
$DIMSD2
 70
     0
  9
$DIMTOLJ
 70
     0
  9
$DIMTZIN
 70
     8
  9
$DIMALTZ
 70
     0
  9
$DIMALTTZ
 70
     0
  9
$DIMUPT
 70
     0
  9
$DIMDEC
 70
     2
  9
$DIMTDEC
 70
     2
  9
$DIMALTU
 70
     2
  9
$DIMALTTD
 70
     3
  9
$DIMTXSTY
  7
Standard
  9
$DIMAUNIT
 70
     0
  9
$DIMADEC
 70
     0
  9
$DIMALTRND
 40
0.0
  9
$DIMAZIN
 70
     0
  9
$DIMDSEP
 70
    44
  9
$DIMATFIT
 70
     3
  9
$DIMFRAC
 70
     0
  9
$DIMLDRBLK
  1

  9
$DIMLUNIT
 70
     2
  9
$DIMLWD
 70
    -2
  9
$DIMLWE
 70
    -2
  9
$DIMTMOVE
 70
     0
  9
$DIMFXL
 40
1.0
  9
$DIMFXLON
 70
     0
  9
$DIMJOGANG
 40
0.785398
  9
$DIMTFILL
 70
     0
  9
$DIMTFILLCLR
 70
     0
  9
$DIMARCSYM
 70
     0
  9
$DIMLTYPE
  6

  9
$DIMLTEX1
  6

  9
$DIMLTEX2
  6

  9
$DIMTXTDIRECTION
 70
     0
  9
$LUNITS
 70
     2
  9
$LUPREC
 70
     4
  9
$SKETCHINC
 40
1.0
  9
$FILLETRAD
 40
10.0
  9
$AUNITS
 70
     0
  9
$AUPREC
 70
     0
  9
$MENU
  1
.
  9
$ELEVATION
 40
0.0
  9
$PELEVATION
 40
0.0
  9
$THICKNESS
 40
0.0
  9
$LIMCHECK
 70
     0
  9
$CHAMFERA
 40
0.0
  9
$CHAMFERB
 40
0.0
  9
$CHAMFERC
 40
0.0
  9
$CHAMFERD
 40
0.0
  9
$SKPOLY
 70
     0
  9
$TDCREATE
 40
2458638.654257477
  9
$TDUCREATE
 40
2458638.570924143
  9
$TDUPDATE
 40
2458638.654258056
  9
$TDUUPDATE
 40
2458638.570924722
  9
$TDINDWG
 40
0.0000000116
  9
$TDUSRTIMER
 40
0.0000000116
  9
$USRTIMER
 70
     1
  9
$ANGBASE
 50
0.0
  9
$ANGDIR
 70
     0
  9
$PDMODE
 70
     0
  9
$PDSIZE
 40
0.0
  9
$PLINEWID
 40
0.0
  9
$SPLFRAME
 70
     0
  9
$SPLINETYPE
 70
     6
  9
$SPLINESEGS
 70
     8
  9
$HANDSEED
  5
1EB
  9
$SURFTAB1
 70
     6
  9
$SURFTAB2
 70
     6
  9
$SURFTYPE
 70
     6
  9
$SURFU
 70
     6
  9
$SURFV
 70
     6
  9
$UCSBASE
  2

  9
$UCSNAME
  2

  9
$UCSORG
 10
0.0
 20
0.0
 30
0.0
  9
$UCSXDIR
 10
1.0
 20
0.0
 30
0.0
  9
$UCSYDIR
 10
0.0
 20
1.0
 30
0.0
  9
$UCSORTHOREF
  2

  9
$UCSORTHOVIEW
 70
     0
  9
$UCSORGTOP
 10
0.0
 20
0.0
 30
0.0
  9
$UCSORGBOTTOM
 10
0.0
 20
0.0
 30
0.0
  9
$UCSORGLEFT
 10
0.0
 20
0.0
 30
0.0
  9
$UCSORGRIGHT
 10
0.0
 20
0.0
 30
0.0
  9
$UCSORGFRONT
 10
0.0
 20
0.0
 30
0.0
  9
$UCSORGBACK
 10
0.0
 20
0.0
 30
0.0
  9
$PUCSBASE
  2

  9
$PUCSNAME
  2

  9
$PUCSORG
 10
0.0
 20
0.0
 30
0.0
  9
$PUCSXDIR
 10
1.0
 20
0.0
 30
0.0
  9
$PUCSYDIR
 10
0.0
 20
1.0
 30
0.0
  9
$PUCSORTHOREF
  2

  9
$PUCSORTHOVIEW
 70
     0
  9
$PUCSORGTOP
 10
0.0
 20
0.0
 30
0.0
  9
$PUCSORGBOTTOM
 10
0.0
 20
0.0
 30
0.0
  9
$PUCSORGLEFT
 10
0.0
 20
0.0
 30
0.0
  9
$PUCSORGRIGHT
 10
0.0
 20
0.0
 30
0.0
  9
$PUCSORGFRONT
 10
0.0
 20
0.0
 30
0.0
  9
$PUCSORGBACK
 10
0.0
 20
0.0
 30
0.0
  9
$USERI1
 70
     0
  9
$USERI2
 70
     0
  9
$USERI3
 70
     0
  9
$USERI4
 70
     0
  9
$USERI5
 70
     0
  9
$USERR1
 40
0.0
  9
$USERR2
 40
0.0
  9
$USERR3
 40
0.0
  9
$USERR4
 40
0.0
  9
$USERR5
 40
0.0
  9
$WORLDVIEW
 70
     1
  9
$SHADEDGE
 70
     3
  9
$SHADEDIF
 70
    70
  9
$TILEMODE
 70
     1
  9
$MAXACTVP
 70
    64
  9
$PINSBASE
 10
0.0
 20
0.0
 30
0.0
  9
$PLIMCHECK
 70
     0
  9
$PEXTMIN
 10
1.000000E+20
 20
1.000000E+20
 30
1.000000E+20
  9
$PEXTMAX
 10
-1.000000E+20
 20
-1.000000E+20
 30
-1.000000E+20
  9
$PLIMMIN
 10
0.0
 20
0.0
  9
$PLIMMAX
 10
420.0
 20
297.0
  9
$UNITMODE
 70
     0
  9
$VISRETAIN
 70
     1
  9
$PLINEGEN
 70
     0
  9
$PSLTSCALE
 70
     1
  9
$TREEDEPTH
 70
  3020
  9
$CMLSTYLE
  2
Standard
  9
$CMLJUST
 70
     0
  9
$CMLSCALE
 40
20.0
  9
$PROXYGRAPHICS
 70
     1
  9
$MEASUREMENT
 70
     1
  9
$CELWEIGHT
370
    -1
  9
$ENDCAPS
280
     0
  9
$JOINSTYLE
280
     0
  9
$LWDISPLAY
290
     0
  9
$INSUNITS
 70
     4
  9
$HYPERLINKBASE
  1

  9
$STYLESHEET
  1

  9
$XEDIT
290
     1
  9
$CEPSNTYPE
380
     0
  9
$PSTYLEMODE
290
     1
  9
$FINGERPRINTGUID
  2
{4E5DA447-E447-41BB-906C-9601A3064508}
  9
$VERSIONGUID
  2
{FAEB1C32-E019-11D5-929B-00C0DF256EC4}
  9
$EXTNAMES
290
     1
  9
$PSVPSCALE
 40
0.0
  9
$OLESTARTUP
290
     0
  9
$SORTENTS
280
   127
  9
$INDEXCTL
280
     0
  9
$HIDETEXT
280
     1
  9
$XCLIPFRAME
280
     2
  9
$HALOGAP
280
     0
  9
$OBSCOLOR
 70
   257
  9
$OBSLTYPE
280
     0
  9
$INTERSECTIONDISPLAY
280
     0
  9
$INTERSECTIONCOLOR
 70
   257
  9
$DIMASSOC
280
     2
  9
$PROJECTNAME
  1

  9
$CAMERADISPLAY
290
     0
  9
$LENSLENGTH
 40
50.0
  9
$CAMERAHEIGHT
 40
0.0
  9
$STEPSPERSEC
 40
2.0
  9
$STEPSIZE
 40
6.0
  9
$3DDWFPREC
 40
2.0
  9
$PSOLWIDTH
 40
5.0
  9
$PSOLHEIGHT
 40
80.0
  9
$LOFTANG1
 40
1.570796
  9
$LOFTANG2
 40
1.570796
  9
$LOFTMAG1
 40
0.0
  9
$LOFTMAG2
 40
0.0
  9
$LOFTPARAM
 70
     7
  9
$LOFTNORMALS
280
     1
  9
$LATITUDE
 40
37.795
  9
$LONGITUDE
 40
-122.394
  9
$NORTHDIRECTION
 40
0.0
  9
$TIMEZONE
 70
 -8000
  9
$LIGHTGLYPHDISPLAY
280
     1
  9
$TILEMODELIGHTSYNCH
280
     1
  9
$CMATERIAL
347
44
  9
$SOLIDHIST
280
     0
  9
$SHOWHIST
280
     1
  9
$DWFFRAME
280
     2
  9
$DGNFRAME
280
     2
  9
$REALWORLDSCALE
290
     1
  9
$INTERFERECOLOR
 62
   256
  9
$CSHADOW
280
     0
  9
$SHADOWPLANELOCATION
 40
0.0
  0
ENDSEC
  0
SECTION
  2
CLASSES
  0
CLASS
  1
ACDBDICTIONARYWDFLT
  2
AcDbDictionaryWithDefault
  3
ObjectDBX Classes
 90
        0
 91
        4
280
     0
281
     0
  0
CLASS
  1
VISUALSTYLE
  2
AcDbVisualStyle
  3
ObjectDBX Classes
 90
     4095
 91
        4
280
     0
281
     0
  0
CLASS
  1
MATERIAL
  2
AcDbMaterial
  3
ObjectDBX Classes
 90
     1153
 91
        4
280
     0
281
     0
  0
CLASS
  1
SCALE
  2
AcDbScale
  3
ObjectDBX Classes
 90
     1153
 91
        4
280
     0
281
     0
  0
CLASS
  1
TABLESTYLE
  2
AcDbTableStyle
  3
ObjectDBX Classes
 90
     4095
 91
        4
280
     0
281
     0
  0
CLASS
  1
MLEADERSTYLE
  2
AcDbMLeaderStyle
  3
ACDB_MLEADERSTYLE_CLASS
 90
     4095
 91
        4
280
     0
281
     0
  0
CLASS
  1
SUN
  2
AcDbSun
  3
SCENEOE
 90
     1153
 91
        4
280
     0
281
     0
  0
CLASS
  1
DICTIONARYVAR
  2
AcDbDictionaryVar
  3
ObjectDBX Classes
 90
        0
 91
        4
280
     0
281
     0
  0
CLASS
  1
CELLSTYLEMAP
  2
AcDbCellStyleMap
  3
ObjectDBX Classes
 90
     1152
 91
        4
280
     0
281
     0
  0
ENDSEC
  0
SECTION
  2
TABLES
  0
TABLE
  2
VPORT
  5
8
330
0
100
AcDbSymbolTable
 70
     1
  0
VPORT
  5
29
330
8
100
AcDbSymbolTableRecord
100
AcDbViewportTableRecord
  2
*Active
 70
     0
 10
0.0
 20
0.0
 11
1.0
 21
1.0
 12
344.186916
 22
148.5
 13
0.0
 23
0.0
 14
10.0
 24
10.0
 15
10.0
 25
10.0
 16
0.0
 26
0.0
 36
1.0
 17
0.0
 27
0.0
 37
0.0
 40
297.0
 41
1.972973
 42
50.0
 43
0.0
 44
0.0
 50
0.0
 51
0.0
 71
     0
 72
   100
 73
     1
 74
     3
 75
     0
 76
     0
 77
     0
 78
     0
281
     0
 65
     1
110
0.0
120
0.0
130
0.0
111
1.0
121
0.0
131
0.0
112
0.0
122
1.0
132
0.0
 79
     0
146
0.0
348
2F
 60
     3
 61
     5
292
     1
282
     1
141
0.0
142
0.0
 63
   250
361
6D
  0
ENDTAB
  0
TABLE
  2
LTYPE
  5
5
330
0
100
AcDbSymbolTable
 70
     1
  0
LTYPE
  5
14
330
5
100
AcDbSymbolTableRecord
100
AcDbLinetypeTableRecord
  2
ByBlock
 70
     0
  3

 72
    65
 73
     0
 40
0.0
  0
LTYPE
  5
15
330
5
100
AcDbSymbolTableRecord
100
AcDbLinetypeTableRecord
  2
ByLayer
 70
     0
  3

 72
    65
 73
     0
 40
0.0
  0
LTYPE
  5
16
330
5
100
AcDbSymbolTableRecord
100
AcDbLinetypeTableRecord
  2
Continuous
 70
     0
  3
Solid line
 72
    65
 73
     0
 40
0.0
  0
ENDTAB
  0
TABLE
  2
LAYER
  5
2
330
0
100
AcDbSymbolTable
 70
     1
  0
LAYER
  5
10
330
2
100
AcDbSymbolTableRecord
100
AcDbLayerTableRecord
  2
0
 70
     0
 62
   106
  6
Continuous
370
     0
390
F
347
46
  0
ENDTAB
  0
TABLE
  2
STYLE
  5
3
330
0
100
AcDbSymbolTable
 70
     4
  0
STYLE
  5
11
330
3
100
AcDbSymbolTableRecord
100
AcDbTextStyleTableRecord
  2
Standard
 70
     0
 40
0.0
 41
1.0
 50
0.0
 71
     0
 42
2.5
  3
txt
  4

  0
STYLE
  5
6E
330
3
100
AcDbSymbolTableRecord
100
AcDbTextStyleTableRecord
  2
Default
 70
     0
 40
0.0
 41
1.0
 50
0.0
 71
     0
 42
2.5
  3

  4

1001
ACAD
1000
txt
1071
        0
  0
STYLE
  5
6F
330
3
100
AcDbSymbolTableRecord
100
AcDbTextStyleTableRecord
  2
ISO
 70
     0
 40
0.0
 41
1.0
 50
0.0
 71
     0
 42
2.5
  3

  4

1001
ACAD
1000
txt
1071
        0
  0
STYLE
  5
70
330
3
100
AcDbSymbolTableRecord
100
AcDbTextStyleTableRecord
  2
zucchetti
 70
     0
 40
0.0
 41
1.0
 50
0.0
 71
     0
 42
2.5
  3

  4

1001
ACAD
1000
Arial
1071
        0
  0
ENDTAB
  0
TABLE
  2
VIEW
  5
6
330
0
100
AcDbSymbolTable
 70
     0
  0
ENDTAB
  0
TABLE
  2
UCS
  5
7
330
0
100
AcDbSymbolTable
 70
     0
  0
ENDTAB
  0
TABLE
  2
APPID
  5
9
330
0
100
AcDbSymbolTable
 70
     1
  0
APPID
  5
12
330
9
100
AcDbSymbolTableRecord
100
AcDbRegAppTableRecord
  2
ACAD
 70
     0
  0
ENDTAB
  0
TABLE
  2
DIMSTYLE
  5
A
330
0
100
AcDbSymbolTable
 70
     4
100
AcDbDimStyleTable
  0
DIMSTYLE
105
27
330
A
100
AcDbSymbolTableRecord
100
AcDbDimStyleTableRecord
  2
ISO-25
 70
     0
 41
2.5
 42
0.625
 43
3.75
 44
1.25
 73
     0
 74
     0
 77
     1
 78
     8
140
2.5
141
2.5
143
0.03937
147
0.625
171
     3
172
     1
178
     0
271
     2
272
     2
274
     3
278
    44
283
     0
284
     8
340
11
  0
DIMSTYLE
105
71
330
A
100
AcDbSymbolTableRecord
100
AcDbDimStyleTableRecord
  2
Default
 70
     0
  3
<>
 41
4.375
 42
1.05
 44
2.1
 49
10.01
 73
     0
 74
     0
 77
     1
 78
     8
140
3.5
146
0.4
147
1.75
172
     1
271
     2
178
     3
271
     2
272
     3
284
     8
340
6E
341
72
342
72
  0
DIMSTYLE
105
79
330
A
100
AcDbSymbolTableRecord
100
AcDbDimStyleTableRecord
  2
ISO
 70
     0
  3
<>
 41
4.375
 42
1.05
 44
2.1
 49
10.01
 73
     0
 74
     0
 77
     1
 78
     8
140
3.5
146
0.4
147
1.75
172
     1
271
     2
178
     3
271
     2
272
     3
284
     8
340
6F
341
72
342
72
  0
DIMSTYLE
105
7A
330
A
100
AcDbSymbolTableRecord
100
AcDbDimStyleTableRecord
  2
zucchetti
 70
     0
  3
<>
 41
3.0
 42
0.9
 44
1.8
 49
8.58
 73
     0
 74
     0
 77
     1
 78
     8
140
3.0
146
0.6
147
1.5
172
     1
176
     3
177
     3
271
     2
178
     3
271
     2
272
     2
284
     8
340
70
  0
ENDTAB
  0
TABLE
  2
BLOCK_RECORD
  5
1
330
0
100
AcDbSymbolTable
 70
     6
  0
BLOCK_RECORD
  5
1F
330
1
100
AcDbSymbolTableRecord
100
AcDbBlockTableRecord
  2
*Model_Space
340
22
 70
     0
280
     1
281
     0
  0
BLOCK_RECORD
  5
1B
330
1
100
AcDbSymbolTableRecord
100
AcDbBlockTableRecord
  2
*Paper_Space
340
1E
 70
     0
280
     1
281
     0
  0
BLOCK_RECORD
  5
23
330
1
100
AcDbSymbolTableRecord
100
AcDbBlockTableRecord
  2
*Paper_Space0
340
26
 70
     0
280
     1
281
     0
  0
BLOCK_RECORD
  5
72
330
1
100
AcDbSymbolTableRecord
100
AcDbBlockTableRecord
  2
_CLOSED
340
0
 70
     0
280
     1
281
     0
  0
BLOCK_RECORD
  5
7B
330
1
100
AcDbSymbolTableRecord
100
AcDbBlockTableRecord
  2
a
340
0
102
{BLKREFS
331
98
102
}
 70
     0
280
     1
281
     0
  0
BLOCK_RECORD
  5
99
330
1
100
AcDbSymbolTableRecord
100
AcDbBlockTableRecord
  2
b
340
0
102
{BLKREFS
331
F4
102
}
 70
     0
280
     1
281
     0
  0
BLOCK_RECORD
  5
F5
330
1
100
AcDbSymbolTableRecord
100
AcDbBlockTableRecord
  2
c
340
0
102
{BLKREFS
331
155
102
}
 70
     0
280
     1
281
     0
  0
BLOCK_RECORD
  5
156
330
1
100
AcDbSymbolTableRecord
100
AcDbBlockTableRecord
  2
d
340
0
102
{BLKREFS
331
1B1
102
}
 70
     0
280
     1
281
     0
  0
ENDTAB
  0
ENDSEC
  0
SECTION
  2
BLOCKS
  0
BLOCK
  5
20
330
1F
100
AcDbEntity
  8
0
100
AcDbBlockBegin
  2
*Model_Space
 70
     0
 10
0.0
 20
0.0
 30
0.0
  3
*Model_Space
  1

  0
ENDBLK
  5
21
330
1F
100
AcDbEntity
  8
0
100
AcDbBlockEnd
  0
BLOCK
  5
1C
330
1B
100
AcDbEntity
 67
     1
  8
0
100
AcDbBlockBegin
  2
*Paper_Space
 70
     0
 10
0.0
 20
0.0
 30
0.0
  3
*Paper_Space
  1

  0
ENDBLK
  5
1D
330
1B
100
AcDbEntity
 67
     1
  8
0
100
AcDbBlockEnd
  0
BLOCK
  5
24
330
23
100
AcDbEntity
  8
0
100
AcDbBlockBegin
  2
*Paper_Space0
 70
     0
 10
0.0
 20
0.0
 30
0.0
  3
*Paper_Space0
  1

  0
ENDBLK
  5
25
330
23
100
AcDbEntity
  8
0
100
AcDbBlockEnd
  0
BLOCK
  5
73
330
72
100
AcDbEntity
  8
0
100
AcDbBlockBegin
  2
_CLOSED
 70
     0
 10
0.0
 20
0.0
 30
0.0
  3
_CLOSED
  1

  0
LINE
  5
75
330
72
100
AcDbEntity
  8
0
  6
ByBlock
 62
     0
370
    -2
100
AcDbLine
 10
-1.0
 20
0.166667
 30
0.0
 11
0.0
 21
0.0
 31
0.0
  0
LINE
  5
76
330
72
100
AcDbEntity
  8
0
  6
ByBlock
 62
     0
370
    -2
100
AcDbLine
 10
0.0
 20
0.0
 30
0.0
 11
-1.0
 21
-0.166667
 31
0.0
  0
LINE
  5
77
330
72
100
AcDbEntity
  8
0
  6
ByBlock
 62
     0
370
    -2
100
AcDbLine
 10
-1.0
 20
0.166667
 30
0.0
 11
-1.0
 21
-0.166667
 31
0.0
  0
LINE
  5
78
330
72
100
AcDbEntity
  8
0
  6
ByBlock
 62
     0
370
    -2
100
AcDbLine
 10
0.0
 20
0.0
 30
0.0
 11
-1.0
 21
0.0
 31
0.0
  0
ENDBLK
  5
74
330
72
100
AcDbEntity
  8
0
100
AcDbBlockEnd
  0
BLOCK
  5
96
330
7B
100
AcDbEntity
  8
0
100
AcDbBlockBegin
  2
a
 70
     0
 10
419.946777
 20
189.573288
 30
0.0
  3
a
  1

  0
ARC
  5
7C
330
7B
100
AcDbEntity
  8
0
  6
Continuous
 62
     0
370
    30
100
AcDbCircle
 10
516.188652
 20
676.453285
 30
0.0
 40
30.50000000000009
100
AcDbArc
 50
138.617991
 51
318.617991
  0
ARC
  5
7D
330
7B
100
AcDbEntity
  8
0
  6
Continuous
 62
     0
370
    30
100
AcDbCircle
 10
516.188652
 20
676.453285
 30
0.0
 40
30.50000000000009
100
AcDbArc
 50
318.617991
 51
138.617991
  0
ARC
  5
7E
330
7B
100
AcDbEntity
  8
0
  6
Continuous
 62
     0
370
     0
100
AcDbCircle
 10
516.188652
 20
676.453285
 30
0.0
 40
27.31829574580203
100
AcDbArc
 50
92.330788
 51
272.330788
  0
ARC
  5
7F
330
7B
100
AcDbEntity
  8
0
  6
Continuous
 62
     0
370
     0
100
AcDbCircle
 10
516.188652
 20
676.453285
 30
0.0
 40
27.31829574580203
100
AcDbArc
 50
272.330788
 51
92.330788
  0
ARC
  5
80
330
7B
100
AcDbEntity
  8
0
  6
Continuous
 62
     0
370
    30
100
AcDbCircle
 10
516.188647
 20
676.453285
 30
0.0
 40
28.25000000000043
100
AcDbArc
 50
92.330779
 51
272.330797
  0
ARC
  5
81
330
7B
100
AcDbEntity
  8
0
  6
Continuous
 62
     0
370
    30
100
AcDbCircle
 10
516.188657
 20
676.453285
 30
0.0
 40
28.25000000000043
100
AcDbArc
 50
272.330779
 51
92.330797
  0
LINE
  5
82
330
7B
100
AcDbEntity
  8
0
  6
Continuous
 62
     0
370
    30
100
AcDbLine
 10
513.045394
 20
704.527872
 30
0.0
 11
513.056749
 21
704.529142
 31
0.0
  0
ARC
  5
83
330
7B
100
AcDbEntity
  8
0
  6
Continuous
 62
     0
370
    30
100
AcDbCircle
 10
516.188652
 20
556.453285
 30
0.0
 40
65.0
100
AcDbArc
 50
92.303762
 51
272.303762
  0
ARC
  5
84
330
7B
100
AcDbEntity
  8
0
  6
Continuous
 62
     0
370
    30
100
AcDbCircle
 10
516.188652
 20
556.453285
 30
0.0
 40
65.0
100
AcDbArc
 50
272.303762
 51
92.303762
  0
ARC
  5
85
330
7B
100
AcDbEntity
  8
0
  6
Continuous
 62
     0
370
     0
100
AcDbCircle
 10
516.188652
 20
556.453285
 30
0.0
 40
64.7575946071039
100
AcDbArc
 50
272.303762
 51
92.303762
  0
ARC
  5
86
330
7B
100
AcDbEntity
  8
0
  6
Continuous
 62
     0
370
     0
100
AcDbCircle
 10
516.188652
 20
556.453285
 30
0.0
 40
64.75759460710391
100
AcDbArc
 50
92.303762
 51
272.303762
  0
ARC
  5
87
330
7B
100
AcDbEntity
  8
0
  6
Continuous
 62
     0
370
    30
100
AcDbCircle
 10
516.188948
 20
556.453285
 30
0.0
 40
21.50000000203892
100
AcDbArc
 50
269.999211
 51
90.000789
  0
ARC
  5
88
330
7B
100
AcDbEntity
  8
0
  6
Continuous
 62
     0
370
    30
100
AcDbCircle
 10
516.188359
 20
556.453285
 30
0.0
 40
21.50000000199057
100
AcDbArc
 50
89.99922
 51
270.00078
  0
LWPOLYLINE
  5
89
330
7B
100
AcDbEntity
  8
0
  6
Continuous
 62
     0
370
    30
100
AcDbPolyline
 90
       54
 70
     0
 43
0.0
 10
516.18866
 20
534.453308
 10
517.490173
 20
534.492493
 10
518.788696
 20
534.609436
 10
520.078979
 20
534.802917
 10
521.355713
 20
535.071838
 10
522.613953
 20
535.415161
 10
523.849365
 20
535.831726
 10
525.057678
 20
536.320496
 10
526.234741
 20
536.880371
 10
527.376404
 20
537.509705
 10
528.478821
 20
538.205872
 10
529.538147
 20
538.966309
 10
530.550598
 20
539.788513
 10
531.512573
 20
540.66925
 10
532.420593
 20
541.605042
 10
533.271118
 20
542.592285
 10
534.060974
 20
543.627441
 10
534.788147
 20
544.706909
 10
535.450867
 20
545.827026
 10
536.046387
 20
546.984924
 10
536.572021
 20
548.177185
 10
537.026123
 20
549.399414
 10
537.407288
 20
550.646729
 10
537.714172
 20
551.914429
 10
537.945496
 20
553.197754
 10
538.100586
 20
554.49231
 10
538.178711
 20
555.793579
 10
538.179138
 20
557.097107
 10
538.101868
 20
558.398376
 10
537.947693
 20
559.693054
 10
537.717224
 20
560.976562
 10
537.411316
 20
562.244446
 10
537.031067
 20
563.492065
 10
536.577942
 20
564.714661
 10
536.053345
 20
565.907349
 10
535.458801
 20
567.065735
 10
534.797058
 20
568.186462
 10
534.07074
 20
569.266479
 10
533.281555
 20
570.302185
 10
532.431519
 20
571.289856
 10
531.523926
 20
572.226013
 10
530.562317
 20
573.107117
 10
529.550232
 20
573.92981
 10
528.491394
 20
574.690857
 10
527.389465
 20
575.387817
 10
526.248413
 20
576.018188
 10
525.072021
 20
576.579529
 10
523.864258
 20
577.069946
 10
522.629395
 20
577.488098
 10
521.371582
 20
577.832642
 10
520.095032
 20
578.102356
 10
518.804871
 20
578.296143
 10
517.506287
 20
578.413391
 10
516.18866
 20
578.453308
  0
LWPOLYLINE
  5
8A
330
7B
100
AcDbEntity
  8
0
  6
Continuous
 62
     0
370
    30
100
AcDbPolyline
 90
       54
 70
     0
 43
0.0
 10
516.18866
 20
578.453308
 10
514.887085
 20
578.414368
 10
513.58844
 20
578.298096
 10
512.298096
 20
578.105164
 10
511.021393
 20
577.836487
 10
509.763306
 20
577.492798
 10
508.528137
 20
577.075562
 10
507.320038
 20
576.585999
 10
506.143219
 20
576.025574
 10
505.001678
 20
575.396057
 10
503.899292
 20
574.69989
 10
502.839874
 20
573.939575
 10
501.827179
 20
573.117676
 10
500.864929
 20
572.237244
 10
499.956665
 20
571.301758
 10
499.105865
 20
570.314697
 10
498.315948
 20
569.279541
 10
497.588837
 20
568.200073
 10
496.926239
 20
567.079834
 10
496.330872
 20
565.921936
 10
495.805389
 20
564.729553
 10
495.351349
 20
563.507324
 10
494.970245
 20
562.26001
 10
494.663391
 20
560.99231
 10
494.432007
 20
559.708984
 10
494.276855
 20
558.414429
 10
494.198669
 20
557.113159
 10
494.19812
 20
555.809692
 10
494.275269
 20
554.508362
 10
494.429413
 20
553.213684
 10
494.659821
 20
551.930176
 10
494.965759
 20
550.662292
 10
495.346039
 20
549.414673
 10
495.799255
 20
548.192139
 10
496.324005
 20
546.999451
 10
496.918671
 20
545.841125
 10
497.580566
 20
544.72052
 10
498.306946
 20
543.640503
 10
499.096039
 20
542.604797
 10
499.945862
 20
541.616943
 10
500.85318
 20
540.680481
 10
501.814484
 20
539.799072
 10
502.826355
 20
538.976135
 10
503.885132
 20
538.214844
 10
504.98703
 20
537.517883
 10
506.128235
 20
536.887756
 10
507.30484
 20
536.326965
 10
508.512848
 20
535.83728
 10
509.747955
 20
535.419861
 10
511.005951
 20
535.075623
 10
512.282471
 20
534.805786
 10
513.572632
 20
534.611328
 10
514.871033
 20
534.493469
 10
516.18866
 20
534.453308
  0
LWPOLYLINE
  5
8B
330
7B
100
AcDbEntity
  8
0
  6
Continuous
 62
     0
370
    30
100
AcDbPolyline
 90
       14
 70
     0
 43
0.0
 10
511.437988
 20
534.972351
 10
511.473572
 20
534.964478
 10
511.576782
 20
534.942078
 10
511.745453
 20
534.906616
 10
511.979095
 20
534.859741
 10
512.274963
 20
534.804199
 10
512.626526
 20
534.743591
 10
513.02655
 20
534.681702
 10
513.472778
 20
534.621582
 10
513.960815
 20
534.566406
 10
514.480408
 20
534.519714
 10
515.025024
 20
534.48407
 10
515.587708
 20
534.461487
 10
516.18866
 20
534.453308
  0
LWPOLYLINE
  5
8C
330
7B
100
AcDbEntity
  8
0
  6
Continuous
 62
     0
370
    30
100
AcDbPolyline
 90
       14
 70
     0
 43
0.0
 10
516.18866
 20
534.453308
 10
516.760559
 20
534.460754
 10
517.323975
 20
534.482605
 10
517.86969
 20
534.517578
 10
518.390747
 20
534.563782
 10
518.880554
 20
534.618591
 10
519.329102
 20
534.678589
 10
519.731506
 20
534.740417
 10
520.085693
 20
534.801208
 10
520.384583
 20
534.857117
 10
520.621521
 20
534.90448
 10
520.793518
 20
534.940613
 10
520.900085
 20
534.963684
 10
520.939331
 20
534.972351
  0
LINE
  5
8D
330
7B
100
AcDbEntity
  8
0
  6
Continuous
 62
     0
370
    30
100
AcDbLine
 10
516.188652
 20
585.783285
 30
0.0
 11
512.238652
 21
585.783285
 31
0.0
  0
LINE
  5
8E
330
7B
100
AcDbEntity
  8
0
  6
Continuous
 62
     0
370
    30
100
AcDbLine
 10
520.138652
 20
585.783285
 30
0.0
 11
516.188652
 21
585.783285
 31
0.0
  0
LINE
  5
8F
330
7B
100
AcDbEntity
  8
0
  6
Continuous
 62
     0
370
    30
100
AcDbLine
 10
516.188652
 20
586.283285
 30
0.0
 11
519.638699
 21
586.283285
 31
0.0
  0
LINE
  5
90
330
7B
100
AcDbEntity
  8
0
  6
Continuous
 62
     0
370
    30
100
AcDbLine
 10
512.738605
 20
586.283285
 30
0.0
 11
516.188652
 21
586.283285
 31
0.0
  0
LINE
  5
91
330
7B
100
AcDbEntity
  8
0
  6
Continuous
 62
     0
370
    30
100
AcDbLine
 10
512.73845
 20
586.283103
 30
0.0
 11
512.238653
 21
585.783308
 31
0.0
  0
LINE
  5
92
330
7B
100
AcDbEntity
  8
0
  6
Continuous
 62
     0
370
    30
100
AcDbLine
 10
519.638854
 20
586.283103
 30
0.0
 11
520.138651
 21
585.783308
 31
0.0
  0
LINE
  5
93
330
7B
100
AcDbEntity
  8
0
  6
Continuous
 62
     0
370
    30
100
AcDbLine
 10
512.238652
 20
585.783285
 30
0.0
 11
512.238652
 21
578.095778
 31
0.0
  0
LINE
  5
94
330
7B
100
AcDbEntity
  8
0
  6
Continuous
 62
     0
370
    30
100
AcDbLine
 10
520.138652
 20
585.783285
 30
0.0
 11
520.138652
 21
578.095778
 31
0.0
  0
LWPOLYLINE
  5
95
330
7B
100
AcDbEntity
  8
0
  6
Continuous
 62
     0
370
    30
100
AcDbPolyline
 90
        8
 70
     0
 43
0.0
 10
513.954773
 20
704.614807
 10
513.835022
 20
704.605042
 10
513.702271
 20
704.593628
 10
513.575134
 20
704.582153
 10
513.448608
 20
704.570068
 10
513.321533
 20
704.557434
 10
513.195679
 20
704.544312
 10
513.056763
 20
704.529114
  0
ENDBLK
  5
97
330
7B
100
AcDbEntity
  8
0
100
AcDbBlockEnd
  0
BLOCK
  5
F2
330
99
100
AcDbEntity
  8
0
100
AcDbBlockBegin
  2
b
 70
     0
 10
419.946838
 20
331.858871
 30
0.0
  3
b
  1

  0
LINE
  5
9A
330
99
100
AcDbEntity
  8
0
  6
Continuous
 62
     0
370
    30
100
AcDbLine
 10
485.688705
 20
382.580328
 30
0.0
 11
493.303985
 21
382.580328
 31
0.0
  0
LINE
  5
9B
330
99
100
AcDbEntity
  8
0
  6
Continuous
 62
     0
370
    30
100
AcDbLine
 10
493.303985
 20
382.580328
 30
0.0
 11
546.688705
 21
382.580328
 31
0.0
  0
LWPOLYLINE
  5
9C
330
99
100
AcDbEntity
  8
0
  6
Continuous
 62
     0
370
    30
100
AcDbPolyline
 90
       51
 70
     0
 43
0.0
 10
546.688721
 20
384.180328
 10
546.64917
 20
384.180328
 10
546.530518
 20
384.180328
 10
546.333313
 20
384.180328
 10
546.058777
 20
384.180328
 10
545.708557
 20
384.180328
 10
545.284973
 20
384.180328
 10
544.790833
 20
384.180328
 10
544.229431
 20
384.180328
 10
543.604431
 20
384.180328
 10
542.919861
 20
384.180328
 10
542.180054
 20
384.180328
 10
541.389526
 20
384.180328
 10
540.552979
 20
384.180328
 10
539.675171
 20
384.180328
 10
538.760925
 20
384.180328
 10
537.814941
 20
384.180328
 10
536.842041
 20
384.180328
 10
535.84198
 20
384.180328
 10
534.790466
 20
384.180328
 10
533.683716
 20
384.180328
 10
532.522949
 20
384.180328
 10
531.309692
 20
384.180328
 10
530.046082
 20
384.180328
 10
528.73468
 20
384.180328
 10
527.378479
 20
384.180328
 10
525.981018
 20
384.180328
 10
524.546326
 20
384.180328
 10
523.078796
 20
384.180328
 10
521.583313
 20
384.180328
 10
520.065125
 20
384.180328
 10
518.529663
 20
384.180328
 10
516.982727
 20
384.180328
 10
515.430237
 20
384.180328
 10
513.878174
 20
384.180328
 10
512.332581
 20
384.180328
 10
510.79953
 20
384.180328
 10
509.28476
 20
384.180328
 10
507.793976
 20
384.180328
 10
506.33252
 20
384.180328
 10
504.905426
 20
384.180328
 10
503.517273
 20
384.180328
 10
502.172333
 20
384.180328
 10
500.874298
 20
384.180328
 10
499.626404
 20
384.180328
 10
498.431396
 20
384.180328
 10
497.291473
 20
384.180328
 10
496.208374
 20
384.180328
 10
495.18335
 20
384.180328
 10
494.217133
 20
384.180328
 10
493.303986
 20
384.180328
  0
LINE
  5
9D
330
99
100
AcDbEntity
  8
0
  6
Continuous
 62
     0
370
    30
100
AcDbLine
 10
493.303985
 20
384.180328
 30
0.0
 11
485.688705
 21
384.180328
 31
0.0
  0
LINE
  5
9E
330
99
100
AcDbEntity
  8
0
  6
Continuous
 62
     0
370
    30
100
AcDbLine
 10
546.688609
 20
389.980328
 30
0.0
 11
493.303985
 21
389.980328
 31
0.0
  0
LINE
  5
9F
330
99
100
AcDbEntity
  8
0
  6
Continuous
 62
     0
370
    30
100
AcDbLine
 10
493.303985
 20
389.980328
 30
0.0
 11
485.6888
 21
389.980328
 31
0.0
  0
LWPOLYLINE
  5
A0
330
99
100
AcDbEntity
  8
0
  6
Continuous
 62
     0
370
    30
100
AcDbPolyline
 90
       51
 70
     0
 43
0.0
 10
546.688721
 20
391.580322
 10
546.64917
 20
391.580322
 10
546.530518
 20
391.580322
 10
546.333313
 20
391.580322
 10
546.058777
 20
391.580322
 10
545.708557
 20
391.580322
 10
545.284973
 20
391.580322
 10
544.790833
 20
391.580322
 10
544.229431
 20
391.580322
 10
543.604431
 20
391.580322
 10
542.919861
 20
391.580322
 10
542.180054
 20
391.580322
 10
541.389526
 20
391.580322
 10
540.552979
 20
391.580322
 10
539.675171
 20
391.580322
 10
538.760925
 20
391.580322
 10
537.814941
 20
391.580322
 10
536.842041
 20
391.580322
 10
535.84198
 20
391.580322
 10
534.790466
 20
391.580322
 10
533.683716
 20
391.580322
 10
532.522949
 20
391.580322
 10
531.309692
 20
391.580322
 10
530.046082
 20
391.580322
 10
528.73468
 20
391.580322
 10
527.378479
 20
391.580322
 10
525.981018
 20
391.580322
 10
524.546326
 20
391.580322
 10
523.078796
 20
391.580322
 10
521.583313
 20
391.580322
 10
520.065125
 20
391.580322
 10
518.529663
 20
391.580322
 10
516.982727
 20
391.580322
 10
515.430237
 20
391.580322
 10
513.878174
 20
391.580322
 10
512.332581
 20
391.580322
 10
510.79953
 20
391.580322
 10
509.28476
 20
391.580322
 10
507.793976
 20
391.580322
 10
506.33252
 20
391.580322
 10
504.905426
 20
391.580322
 10
503.517273
 20
391.580322
 10
502.172333
 20
391.580322
 10
500.874298
 20
391.580322
 10
499.626404
 20
391.580322
 10
498.431396
 20
391.580322
 10
497.291473
 20
391.580322
 10
496.208374
 20
391.580322
 10
495.18335
 20
391.580322
 10
494.217133
 20
391.580322
 10
493.303986
 20
391.580322
  0
LINE
  5
A1
330
99
100
AcDbEntity
  8
0
  6
Continuous
 62
     0
370
    30
100
AcDbLine
 10
493.303985
 20
391.580328
 30
0.0
 11
485.688705
 21
391.580328
 31
0.0
  0
LINE
  5
A2
330
99
100
AcDbEntity
  8
0
  6
Continuous
 62
     0
370
     0
100
AcDbLine
 10
515.077706
 20
364.515454
 30
0.0
 11
488.87041
 21
364.515455
 31
0.0
  0
LINE
  5
A3
330
99
100
AcDbEntity
  8
0
  6
Continuous
 62
     0
370
     0
100
AcDbLine
 10
543.507001
 20
364.515455
 30
0.0
 11
515.077706
 21
364.515454
 31
0.0
  0
LINE
  5
A4
330
99
100
AcDbEntity
  8
0
  6
Continuous
 62
     0
370
     0
100
AcDbLine
 10
515.039814
 20
365.513119
 30
0.0
 11
487.938729
 21
365.51312
 31
0.0
  0
LWPOLYLINE
  5
A5
330
99
100
AcDbEntity
  8
0
  6
Continuous
 62
     0
370
     0
100
AcDbPolyline
 90
       32
 70
     0
 43
0.0
 10
544.438293
 20
365.513123
 10
544.399841
 20
365.513123
 10
544.284485
 20
365.513123
 10
544.093079
 20
365.513123
 10
543.826355
 20
365.513123
 10
543.485291
 20
365.513123
 10
543.070618
 20
365.513123
 10
542.583374
 20
365.513123
 10
542.024231
 20
365.513123
 10
541.394287
 20
365.513123
 10
540.695496
 20
365.513123
 10
539.93042
 20
365.513123
 10
539.101685
 20
365.513123
 10
538.212036
 20
365.513123
 10
537.264038
 20
365.513123
 10
536.260376
 20
365.513123
 10
535.203613
 20
365.513123
 10
534.096558
 20
365.513123
 10
532.942322
 20
365.513123
 10
531.744019
 20
365.513123
 10
530.504883
 20
365.513123
 10
529.227722
 20
365.513123
 10
527.914795
 20
365.513123
 10
526.56842
 20
365.513123
 10
525.190918
 20
365.513123
 10
523.786011
 20
365.513123
 10
522.358826
 20
365.513123
 10
520.91449
 20
365.513123
 10
519.458069
 20
365.513123
 10
517.994751
 20
365.513123
 10
516.529663
 20
365.513123
 10
515.039795
 20
365.513123
  0
LINE
  5
A6
330
99
100
AcDbEntity
  8
0
  6
Continuous
 62
     0
370
    30
100
AcDbLine
 10
515.039814
 20
382.080327
 30
0.0
 11
487.938705
 21
382.080328
 31
0.0
  0
LINE
  5
A7
330
99
100
AcDbEntity
  8
0
  6
Continuous
 62
     0
370
    30
100
AcDbLine
 10
544.438705
 20
382.080328
 30
0.0
 11
515.039814
 21
382.080327
 31
0.0
  0
LWPOLYLINE
  5
A8
330
99
100
AcDbEntity
  8
0
  6
Continuous
 62
     0
370
     0
100
AcDbPolyline
 90
       11
 70
     0
 43
0.0
 10
515.039795
 20
375.080322
 10
514.69989
 20
375.109192
 10
514.3703
 20
375.196228
 10
514.060242
 20
375.337952
 10
513.778442
 20
375.53067
 10
513.533447
 20
375.768463
 10
513.333008
 20
376.044678
 10
513.182373
 20
376.350983
 10
513.085876
 20
376.678589
 10
513.046387
 20
377.017883
 10
513.070068
 20
377.394836
  0
ARC
  5
A9
330
99
100
AcDbEntity
  8
0
  6
Continuous
 62
     0
370
     0
100
AcDbCircle
 10
515.04052
 20
377.085787
 30
0.0
 40
1.994540308769218
100
AcDbArc
 50
90.020253
 51
171.086047
  0
LWPOLYLINE
  5
AA
330
99
100
AcDbEntity
  8
0
  6
Continuous
 62
     0
370
     0
100
AcDbPolyline
 90
       18
 70
     0
 43
0.0
 10
515.039795
 20
379.080322
 10
515.409485
 20
379.046051
 10
515.767822
 20
378.948212
 10
516.101135
 20
378.786987
 10
516.400574
 20
378.568207
 10
516.654907
 20
378.298798
 10
516.855286
 20
377.987457
 10
516.994507
 20
377.643463
 10
517.067017
 20
377.279175
 10
517.069519
 20
376.90799
 10
517.002136
 20
376.542999
 10
516.867371
 20
376.196899
 10
516.669861
 20
375.881775
 10
516.417969
 20
375.608276
 10
516.121216
 20
375.385895
 10
515.789734
 20
375.220978
 10
515.432617
 20
375.119019
 10
515.039795
 20
375.080322
  0
ARC
  5
AB
330
99
100
AcDbEntity
  8
0
  6
Continuous
 62
     0
370
     0
100
AcDbCircle
 10
515.039369
 20
369.072218
 30
0.0
 40
1.991891266372527
100
AcDbArc
 50
209.940577
 51
270.012817
  0
LWPOLYLINE
  5
AC
330
99
100
AcDbEntity
  8
0
  6
Continuous
 62
     0
370
     0
100
AcDbPolyline
 90
       13
 70
     0
 43
0.0
 10
513.313293
 20
368.078064
 10
513.166809
 20
368.392426
 10
513.076477
 20
368.727661
 10
513.045349
 20
369.073334
 10
513.074158
 20
369.419281
 10
513.162048
 20
369.755005
 10
513.306396
 20
370.070465
 10
513.503235
 20
370.356232
 10
513.746643
 20
370.603699
 10
514.028809
 20
370.805115
 10
514.341431
 20
370.953552
 10
514.674622
 20
371.047302
 10
515.039795
 20
371.080322
  0
LWPOLYLINE
  5
AD
330
99
100
AcDbEntity
  8
0
  6
Continuous
 62
     0
370
     0
100
AcDbPolyline
 90
       18
 70
     0
 43
0.0
 10
515.039795
 20
371.080322
 10
515.409485
 20
371.046051
 10
515.767822
 20
370.948212
 10
516.101135
 20
370.786987
 10
516.400574
 20
370.568207
 10
516.654907
 20
370.298798
 10
516.855286
 20
369.987457
 10
516.994507
 20
369.643463
 10
517.067017
 20
369.279175
 10
517.069519
 20
368.90799
 10
517.002136
 20
368.542999
 10
516.867371
 20
368.196899
 10
516.669861
 20
367.881775
 10
516.417969
 20
367.608276
 10
516.121216
 20
367.385895
 10
515.789734
 20
367.220978
 10
515.432617
 20
367.119019
 10
515.039795
 20
367.080322
  0
LINE
  5
AE
330
99
100
AcDbEntity
  8
0
  6
Continuous
 62
     0
370
     0
100
AcDbLine
 10
451.188705
 20
390.230334
 30
0.0
 11
485.688705
 21
390.230331
 31
0.0
  0
LINE
  5
AF
330
99
100
AcDbEntity
  8
0
  6
Continuous
 62
     0
370
     0
100
AcDbLine
 10
546.688705
 20
390.230331
 30
0.0
 11
581.188705
 21
390.230334
 31
0.0
  0
LINE
  5
B0
330
99
100
AcDbEntity
  8
0
  6
Continuous
 62
     0
370
     0
100
AcDbLine
 10
581.188705
 20
391.330334
 30
0.0
 11
546.688705
 21
391.330331
 31
0.0
  0
LINE
  5
B1
330
99
100
AcDbEntity
  8
0
  6
Continuous
 62
     0
370
     0
100
AcDbLine
 10
485.688705
 20
391.330331
 30
0.0
 11
451.188705
 21
391.330334
 31
0.0
  0
LINE
  5
B2
330
99
100
AcDbEntity
  8
0
  6
Continuous
 62
     0
370
    30
100
AcDbLine
 10
580.939256
 20
389.980334
 30
0.0
 11
546.688609
 21
389.980331
 31
0.0
  0
LINE
  5
B3
330
99
100
AcDbEntity
  8
0
  6
Continuous
 62
     0
370
    30
100
AcDbLine
 10
485.6888
 20
389.980331
 30
0.0
 11
451.438155
 21
389.980334
 31
0.0
  0
LINE
  5
B4
330
99
100
AcDbEntity
  8
0
  6
Continuous
 62
     0
370
     0
100
AcDbLine
 10
452.188705
 20
383.930334
 30
0.0
 11
485.688705
 21
383.930331
 31
0.0
  0
LINE
  5
B5
330
99
100
AcDbEntity
  8
0
  6
Continuous
 62
     0
370
     0
100
AcDbLine
 10
546.688705
 20
383.930331
 30
0.0
 11
580.188705
 21
383.930334
 31
0.0
  0
LINE
  5
B6
330
99
100
AcDbEntity
  8
0
  6
Continuous
 62
     0
370
     0
100
AcDbLine
 10
580.188705
 20
389.730334
 30
0.0
 11
545.638705
 21
389.730331
 31
0.0
  0
LINE
  5
B7
330
99
100
AcDbEntity
  8
0
  6
Continuous
 62
     0
370
     0
100
AcDbLine
 10
486.738705
 20
389.730331
 30
0.0
 11
452.188705
 21
389.730334
 31
0.0
  0
LWPOLYLINE
  5
B8
330
99
100
AcDbEntity
  8
0
  6
Continuous
 62
     0
370
    30
100
AcDbPolyline
 90
       32
 70
     0
 43
0.0
 10
451.438141
 20
383.680328
 10
451.477509
 20
383.680328
 10
451.595398
 20
383.680328
 10
451.791473
 20
383.680328
 10
452.06543
 20
383.680328
 10
452.416931
 20
383.680328
 10
452.845642
 20
383.680328
 10
453.351318
 20
383.680328
 10
453.933533
 20
383.680328
 10
454.591858
 20
383.680328
 10
455.325195
 20
383.680328
 10
456.132385
 20
383.680328
 10
457.012299
 20
383.680328
 10
457.963776
 20
383.680328
 10
458.985657
 20
383.680328
 10
460.076813
 20
383.680328
 10
461.236084
 20
383.680328
 10
462.462311
 20
383.680328
 10
463.754181
 20
383.680328
 10
465.109955
 20
383.680328
 10
466.52771
 20
383.680328
 10
468.005585
 20
383.680328
 10
469.541748
 20
383.680328
 10
471.134338
 20
383.680328
 10
472.781464
 20
383.680328
 10
474.481262
 20
383.680328
 10
476.231873
 20
383.680328
 10
478.031342
 20
383.680328
 10
479.877289
 20
383.680328
 10
481.767334
 20
383.680328
 10
483.699066
 20
383.680328
 10
485.68869
 20
383.680328
  0
LINE
  5
B9
330
99
100
AcDbEntity
  8
0
  6
Continuous
 62
     0
370
    30
100
AcDbLine
 10
546.688705
 20
383.680331
 30
0.0
 11
580.939256
 21
383.680334
 31
0.0
  0
LINE
  5
BA
330
99
100
AcDbEntity
  8
0
  6
Continuous
 62
     0
370
     0
100
AcDbLine
 10
451.188705
 20
382.322837
 30
0.0
 11
489.588418
 21
382.322835
 31
0.0
  0
LINE
  5
BB
330
99
100
AcDbEntity
  8
0
  6
Continuous
 62
     0
370
     0
100
AcDbLine
 10
542.788516
 20
382.322835
 30
0.0
 11
581.188705
 21
382.322837
 31
0.0
  0
LINE
  5
BC
330
99
100
AcDbEntity
  8
0
  6
Continuous
 62
     0
370
     0
100
AcDbLine
 10
581.188705
 20
383.430334
 30
0.0
 11
546.688705
 21
383.430331
 31
0.0
  0
LINE
  5
BD
330
99
100
AcDbEntity
  8
0
  6
Continuous
 62
     0
370
     0
100
AcDbLine
 10
485.688705
 20
383.430331
 30
0.0
 11
451.188705
 21
383.430334
 31
0.0
  0
LINE
  5
BE
330
99
100
AcDbEntity
  8
0
  6
Continuous
 62
     0
370
     0
100
AcDbLine
 10
580.9463
 20
382.072953
 30
0.0
 11
544.438705
 21
382.07295
 31
0.0
  0
LINE
  5
BF
330
99
100
AcDbEntity
  8
0
  6
Continuous
 62
     0
370
     0
100
AcDbLine
 10
487.938705
 20
382.07295
 30
0.0
 11
451.431111
 21
382.072953
 31
0.0
  0
LINE
  5
C0
330
99
100
AcDbEntity
  8
0
  6
Continuous
 62
     0
370
    30
100
AcDbLine
 10
580.940248
 20
391.580327
 30
0.0
 11
546.688705
 21
391.580321
 31
0.0
  0
LINE
  5
C1
330
99
100
AcDbEntity
  8
0
  6
Continuous
 62
     0
370
    30
100
AcDbLine
 10
485.688705
 20
391.580325
 30
0.0
 11
451.437422
 21
391.580323
 31
0.0
  0
LINE
  5
C2
330
99
100
AcDbEntity
  8
0
  6
Continuous
 62
     0
370
    30
100
AcDbLine
 10
537.689002
 20
328.332275
 30
0.0
 11
516.188705
 21
328.332274
 31
0.0
  0
LINE
  5
C3
330
99
100
AcDbEntity
  8
0
  6
Continuous
 62
     0
370
    30
100
AcDbLine
 10
516.188705
 20
328.332274
 30
0.0
 11
494.688413
 21
328.332275
 31
0.0
  0
LINE
  5
C4
330
99
100
AcDbEntity
  8
0
  6
Continuous
 62
     0
370
    30
100
AcDbLine
 10
538.188705
 20
328.832275
 30
0.0
 11
516.188705
 21
328.832274
 31
0.0
  0
LINE
  5
C5
330
99
100
AcDbEntity
  8
0
  6
Continuous
 62
     0
370
    30
100
AcDbLine
 10
516.188705
 20
328.832274
 30
0.0
 11
494.188706
 21
328.832275
 31
0.0
  0
LWPOLYLINE
  5
C6
330
99
100
AcDbEntity
  8
0
  6
Continuous
 62
     0
370
     0
100
AcDbPolyline
 90
       25
 70
     0
 43
0.0
 10
516.188721
 20
341.432281
 10
516.724121
 20
341.397156
 10
517.250061
 20
341.292084
 10
517.756958
 20
341.119263
 10
518.237305
 20
340.883972
 10
518.6828
 20
340.589081
 10
519.083252
 20
340.234955
 10
519.435913
 20
339.832581
 10
519.735474
 20
339.389984
 10
519.973572
 20
338.910767
 10
520.145935
 20
338.403595
 10
520.251587
 20
337.877899
 10
520.28894
 20
337.342773
 10
520.254395
 20
336.807434
 10
520.151245
 20
336.28125
 10
519.981323
 20
335.773193
 10
519.745789
 20
335.292725
 10
519.448547
 20
334.848511
 10
519.0979
 20
334.444458
 10
518.699158
 20
334.088287
 10
518.25531
 20
333.791077
 10
517.776123
 20
333.553375
 10
517.270142
 20
333.377991
 10
516.744751
 20
333.270294
 10
516.188721
 20
333.232666
  0
LWPOLYLINE
  5
C7
330
99
100
AcDbEntity
  8
0
  6
Continuous
 62
     0
370
     0
100
AcDbPolyline
 90
       25
 70
     0
 43
0.0
 10
516.188721
 20
333.232666
 10
515.65332
 20
333.267548
 10
515.127319
 20
333.372528
 10
514.620422
 20
333.545349
 10
514.140076
 20
333.780731
 10
513.694641
 20
334.075623
 10
513.294128
 20
334.429688
 10
512.941467
 20
334.832092
 10
512.641968
 20
335.27478
 10
512.403992
 20
335.754059
 10
512.231567
 20
336.26123
 10
512.125793
 20
336.786896
 10
512.088318
 20
337.322021
 10
512.122925
 20
337.85733
 10
512.226196
 20
338.383545
 10
512.39624
 20
338.891571
 10
512.631775
 20
339.37204
 10
512.929016
 20
339.816254
 10
513.279663
 20
340.220337
 10
513.678345
 20
340.576538
 10
514.122253
 20
340.873779
 10
514.60144
 20
341.111359
 10
515.107483
 20
341.286682
 10
515.632874
 20
341.39444
 10
516.188721
 20
341.432281
  0
ARC
  5
C8
330
99
100
AcDbEntity
  8
0
  6
Continuous
 62
     0
370
    30
100
AcDbCircle
 10
516.188705
 20
337.332274
 30
0.0
 40
3.949999999999996
100
AcDbArc
 50
90.0
 51
270.0
  0
ARC
  5
C9
330
99
100
AcDbEntity
  8
0
  6
Continuous
 62
     0
370
    30
100
AcDbCircle
 10
516.188705
 20
337.332274
 30
0.0
 40
3.949999999999989
100
AcDbArc
 50
270.0
 51
90.0
  0
ARC
  5
CA
330
99
100
AcDbEntity
  8
0
  6
Continuous
 62
     0
370
    30
100
AcDbCircle
 10
516.188752
 20
337.332274
 30
0.0
 40
3.450000000319427
100
AcDbArc
 50
269.99922
 51
90.00078
  0
ARC
  5
CB
330
99
100
AcDbEntity
  8
0
  6
Continuous
 62
     0
370
    30
100
AcDbCircle
 10
516.188658
 20
337.332274
 30
0.0
 40
3.45000000031942
100
AcDbArc
 50
89.99922
 51
270.00078
  0
ARC
  5
CC
330
99
100
AcDbEntity
  8
0
  6
Continuous
 62
     0
370
    30
100
AcDbCircle
 10
580.938706
 20
391.33032
 30
0.0
 40
0.250013838974353
100
AcDbArc
 50
0.00318
 51
89.631167
  0
ARC
  5
CD
330
99
100
AcDbEntity
  8
0
  6
Continuous
 62
     0
370
    30
100
AcDbCircle
 10
451.439706
 20
391.330322
 30
0.0
 40
0.2500120333723922
100
AcDbArc
 50
90.54304
 51
179.997215
  0
ARC
  5
CE
330
99
100
AcDbEntity
  8
0
  6
Continuous
 62
     0
370
    30
100
AcDbCircle
 10
451.439705
 20
390.230345
 30
0.0
 40
0.2500107851366722
100
AcDbArc
 50
180.002502
 51
269.457243
  0
ARC
  5
CF
330
99
100
AcDbEntity
  8
0
  6
Continuous
 62
     0
370
    30
100
AcDbCircle
 10
580.938706
 20
390.230348
 30
0.0
 40
0.2500138389690049
100
AcDbArc
 50
270.368833
 51
359.99682
  0
ARC
  5
D0
330
99
100
AcDbEntity
  8
0
  6
Continuous
 62
     0
370
    30
100
AcDbCircle
 10
451.939668
 20
389.730323
 30
0.0
 40
0.2500108520241074
100
AcDbArc
 50
0.002487
 51
89.994333
  0
ARC
  5
D1
330
99
100
AcDbEntity
  8
0
  6
Continuous
 62
     0
370
    30
100
AcDbCircle
 10
580.438731
 20
389.730322
 30
0.0
 40
0.2500114786546935
100
AcDbArc
 50
90.012008
 51
179.99737
  0
ARC
  5
D2
330
99
100
AcDbEntity
  8
0
  6
Continuous
 62
     0
370
    30
100
AcDbCircle
 10
451.939668
 20
383.930345
 30
0.0
 40
0.2500108501004068
100
AcDbArc
 50
270.00558
 51
359.997514
  0
ARC
  5
D3
330
99
100
AcDbEntity
  8
0
  6
Continuous
 62
     0
370
    30
100
AcDbCircle
 10
580.438732
 20
383.930346
 30
0.0
 40
0.2500127840871226
100
AcDbArc
 50
180.002929
 51
269.98815
  0
ARC
  5
D4
330
99
100
AcDbEntity
  8
0
  6
Continuous
 62
     0
370
    30
100
AcDbCircle
 10
451.439706
 20
383.430322
 30
0.0
 40
0.2500120333688269
100
AcDbArc
 50
90.54304
 51
179.997215
  0
ARC
  5
D5
330
99
100
AcDbEntity
  8
0
  6
Continuous
 62
     0
370
    30
100
AcDbCircle
 10
580.938732
 20
383.430345
 30
0.0
 40
0.24998839667352
100
AcDbArc
 50
359.997386
 51
89.636961
  0
ARC
  5
D6
330
99
100
AcDbEntity
  8
0
  6
Continuous
 62
     0
370
    30
100
AcDbCircle
 10
451.439703
 20
382.322845
 30
0.0
 40
0.2500082416853726
100
AcDbArc
 50
180.001841
 51
267.71756
  0
ARC
  5
D7
330
99
100
AcDbEntity
  8
0
  6
Continuous
 62
     0
370
    30
100
AcDbCircle
 10
580.938707
 20
382.32285
 30
0.0
 40
0.2500132317882346
100
AcDbArc
 50
272.109148
 51
359.997049
  0
ARC
  5
D8
330
99
100
AcDbEntity
  8
0
  6
Continuous
 62
     0
370
    30
100
AcDbCircle
 10
515.620377
 20
2494.095247
 30
0.0
 40
2112.997500109639
100
AcDbArc
 50
268.259184
 51
269.249366
  0
ARC
  5
D9
330
99
100
AcDbEntity
  8
0
  6
Continuous
 62
     0
370
    30
100
AcDbCircle
 10
516.757034
 20
2494.095247
 30
0.0
 40
2112.997500109227
100
AcDbArc
 50
270.750634
 51
271.740816
  0
LINE
  5
DA
330
99
100
AcDbEntity
  8
0
  6
Continuous
 62
     0
370
    30
100
AcDbLine
 10
451.188705
 20
382.322837
 30
0.0
 11
451.188705
 21
383.430334
 31
0.0
  0
LINE
  5
DB
330
99
100
AcDbEntity
  8
0
  6
Continuous
 62
     0
370
    30
100
AcDbLine
 10
581.188705
 20
382.322837
 30
0.0
 11
581.188705
 21
383.430334
 31
0.0
  0
LINE
  5
DC
330
99
100
AcDbEntity
  8
0
  6
Continuous
 62
     0
370
    30
100
AcDbLine
 10
452.188705
 20
383.930334
 30
0.0
 11
452.188705
 21
389.730334
 31
0.0
  0
LINE
  5
DD
330
99
100
AcDbEntity
  8
0
  6
Continuous
 62
     0
370
    30
100
AcDbLine
 10
580.188705
 20
383.930334
 30
0.0
 11
580.188705
 21
389.730334
 31
0.0
  0
LINE
  5
DE
330
99
100
AcDbEntity
  8
0
  6
Continuous
 62
     0
370
    30
100
AcDbLine
 10
451.188705
 20
390.230334
 30
0.0
 11
451.188705
 21
391.330334
 31
0.0
  0
LINE
  5
DF
330
99
100
AcDbEntity
  8
0
  6
Continuous
 62
     0
370
    30
100
AcDbLine
 10
581.188705
 20
390.230334
 30
0.0
 11
581.188705
 21
391.330334
 31
0.0
  0
LINE
  5
E0
330
99
100
AcDbEntity
  8
0
  6
Continuous
 62
     0
370
    30
100
AcDbLine
 10
538.188705
 20
364.186967
 30
0.0
 11
538.188705
 21
328.832275
 31
0.0
  0
LINE
  5
E1
330
99
100
AcDbEntity
  8
0
  6
Continuous
 62
     0
370
    30
100
AcDbLine
 10
494.188705
 20
364.186967
 30
0.0
 11
494.188705
 21
328.832275
 31
0.0
  0
LINE
  5
E2
330
99
100
AcDbEntity
  8
0
  6
Continuous
 62
     0
370
    30
100
AcDbLine
 10
537.689095
 20
328.332665
 30
0.0
 11
538.188705
 21
328.832275
 31
0.0
  0
LINE
  5
E3
330
99
100
AcDbEntity
  8
0
  6
Continuous
 62
     0
370
    30
100
AcDbLine
 10
494.188706
 20
328.832275
 30
0.0
 11
494.68833
 21
328.332651
 31
0.0
  0
LINE
  5
E4
330
99
100
AcDbEntity
  8
0
  6
Continuous
 62
     0
370
    30
100
AcDbLine
 10
487.938705
 20
365.51312
 30
0.0
 11
487.938705
 21
382.080328
 31
0.0
  0
LINE
  5
E5
330
99
100
AcDbEntity
  8
0
  6
Continuous
 62
     0
370
    30
100
AcDbLine
 10
544.438705
 20
382.080328
 30
0.0
 11
544.438705
 21
365.51312
 31
0.0
  0
ARC
  5
E6
330
99
100
AcDbEntity
  8
0
  6
Continuous
 62
     0
370
    30
100
AcDbCircle
 10
543.438274
 20
365.513133
 30
0.0
 40
1.000014559454746
100
AcDbArc
 50
273.978251
 51
359.999276
  0
ARC
  5
E7
330
99
100
AcDbEntity
  8
0
  6
Continuous
 62
     0
370
    30
100
AcDbCircle
 10
488.93875
 20
365.513139
 30
0.0
 40
1.000020438505788
100
AcDbArc
 50
180.00109
 51
266.042062
  0
ARC
  5
E8
330
99
100
AcDbEntity
  8
0
  6
Continuous
 62
     0
370
    30
100
AcDbCircle
 10
516.188661
 20
763.582815
 30
0.0
 40
400.0013118722898
100
AcDbArc
 50
270.000006
 51
273.9161
  0
LWPOLYLINE
  5
E9
330
99
100
AcDbEntity
  8
0
  6
Continuous
 62
     0
370
    30
100
AcDbPolyline
 90
        7
 70
     0
 43
0.0
 10
516.188721
 20
363.581512
 10
511.763214
 20
363.605988
 10
507.336487
 20
363.679474
 10
502.910858
 20
363.801941
 10
498.486847
 20
363.973389
 10
494.065002
 20
364.193787
 10
488.870422
 20
364.515442
  0
LINE
  5
EA
330
99
100
AcDbEntity
  8
0
  6
Continuous
 62
     0
370
    30
100
AcDbLine
 10
489.588418
 20
382.580328
 30
0.0
 11
489.588418
 21
382.080328
 31
0.0
  0
LINE
  5
EB
330
99
100
AcDbEntity
  8
0
  6
Continuous
 62
     0
370
    30
100
AcDbLine
 10
542.788516
 20
382.580328
 30
0.0
 11
542.788516
 21
382.080328
 31
0.0
  0
LINE
  5
EC
330
99
100
AcDbEntity
  8
0
  6
Continuous
 62
     0
370
    30
100
AcDbLine
 10
546.688705
 20
389.980328
 30
0.0
 11
546.688705
 21
391.580328
 31
0.0
  0
LINE
  5
ED
330
99
100
AcDbEntity
  8
0
  6
Continuous
 62
     0
370
    30
100
AcDbLine
 10
485.688705
 20
391.580328
 30
0.0
 11
485.688705
 21
389.980328
 31
0.0
  0
LINE
  5
EE
330
99
100
AcDbEntity
  8
0
  6
Continuous
 62
     0
370
    30
100
AcDbLine
 10
545.638705
 20
384.180328
 30
0.0
 11
545.638705
 21
389.980328
 31
0.0
  0
LINE
  5
EF
330
99
100
AcDbEntity
  8
0
  6
Continuous
 62
     0
370
    30
100
AcDbLine
 10
486.738705
 20
389.980328
 30
0.0
 11
486.738705
 21
384.180328
 31
0.0
  0
LINE
  5
F0
330
99
100
AcDbEntity
  8
0
  6
Continuous
 62
     0
370
    30
100
AcDbLine
 10
485.688705
 20
382.580328
 30
0.0
 11
485.688705
 21
384.180328
 31
0.0
  0
LINE
  5
F1
330
99
100
AcDbEntity
  8
0
  6
Continuous
 62
     0
370
    30
100
AcDbLine
 10
546.688705
 20
382.580328
 30
0.0
 11
546.688705
 21
384.180328
 31
0.0
  0
ENDBLK
  5
F3
330
99
100
AcDbEntity
  8
0
100
AcDbBlockEnd
  0
BLOCK
  5
153
330
F5
100
AcDbEntity
  8
0
100
AcDbBlockBegin
  2
c
 70
     0
 10
469.637573
 20
189.573288
 30
0.0
  3
c
  1

  0
LWPOLYLINE
  5
F6
330
F5
100
AcDbEntity
  8
0
  6
Continuous
 62
     0
370
    30
100
AcDbPolyline
 90
       48
 70
     0
 43
0.0
 10
687.07782
 20
645.953308
 10
687.07782
 20
645.993591
 10
687.07782
 20
646.114014
 10
687.07782
 20
646.31311
 10
687.07782
 20
646.58905
 10
687.07782
 20
646.939331
 10
687.07782
 20
647.360901
 10
687.07782
 20
647.850403
 10
687.07782
 20
648.403992
 10
687.07782
 20
649.017517
 10
687.07782
 20
649.686523
 10
687.07782
 20
650.406555
 10
687.07782
 20
651.172791
 10
687.07782
 20
651.98053
 10
687.07782
 20
652.825012
 10
687.07782
 20
653.701965
 10
687.07782
 20
654.628113
 10
687.07782
 20
655.614746
 10
687.07782
 20
656.661377
 10
687.07782
 20
657.767212
 10
687.07782
 20
658.930908
 10
687.07782
 20
660.150452
 10
687.07782
 20
661.423523
 10
687.07782
 20
662.747192
 10
687.07782
 20
664.117981
 10
687.07782
 20
665.531921
 10
687.07782
 20
666.984558
 10
687.07782
 20
668.470947
 10
687.07782
 20
669.98584
 10
687.07782
 20
671.52356
 10
687.07782
 20
673.078308
 10
687.07782
 20
674.64386
 10
687.07782
 20
676.21405
 10
687.07782
 20
677.782715
 10
687.07782
 20
679.343506
 10
687.07782
 20
680.890442
 10
687.07782
 20
682.417664
 10
687.07782
 20
683.919617
 10
687.07782
 20
685.39093
 10
687.07782
 20
686.826843
 10
687.07782
 20
688.222961
 10
687.07782
 20
689.575256
 10
687.07782
 20
690.880432
 10
687.07782
 20
692.135437
 10
687.07782
 20
693.337891
 10
687.07782
 20
694.485901
 10
687.07782
 20
695.578064
 10
687.07782
 20
696.616089
  0
LINE
  5
F7
330
F5
100
AcDbEntity
  8
0
  6
Continuous
 62
     0
370
    30
100
AcDbLine
 10
687.077844
 20
696.616112
 30
0.0
 11
687.077843
 21
706.953285
 31
0.0
  0
LWPOLYLINE
  5
F8
330
F5
100
AcDbEntity
  8
0
  6
Continuous
 62
     0
370
    30
100
AcDbPolyline
 90
       19
 70
     0
 43
0.0
 10
685.477844
 20
706.953308
 10
685.477844
 20
706.916077
 10
685.477844
 20
706.804443
 10
685.477844
 20
706.618835
 10
685.477844
 20
706.360291
 10
685.477844
 20
706.030396
 10
685.477844
 20
705.631042
 10
685.477844
 20
705.164856
 10
685.477844
 20
704.634644
 10
685.477844
 20
704.043762
 10
685.477844
 20
703.395752
 10
685.477844
 20
702.694519
 10
685.477844
 20
701.944214
 10
685.477844
 20
701.148926
 10
685.477844
 20
700.313049
 10
685.477844
 20
699.44104
 10
685.477844
 20
698.53717
 10
685.477844
 20
697.605774
 10
685.477844
 20
696.616089
  0
LINE
  5
F9
330
F5
100
AcDbEntity
  8
0
  6
Continuous
 62
     0
370
    30
100
AcDbLine
 10
685.477844
 20
696.616112
 30
0.0
 11
685.477843
 21
645.953285
 31
0.0
  0
LWPOLYLINE
  5
FA
330
F5
100
AcDbEntity
  8
0
  6
Continuous
 62
     0
370
    30
100
AcDbPolyline
 90
       18
 70
     0
 43
0.0
 10
679.677856
 20
706.953186
 10
679.677856
 20
706.915405
 10
679.677856
 20
706.802246
 10
679.677856
 20
706.614014
 10
679.677856
 20
706.35083
 10
679.677856
 20
706.013062
 10
679.677856
 20
705.601562
 10
679.677856
 20
705.117737
 10
679.677856
 20
704.562927
 10
679.677856
 20
703.938599
 10
679.677856
 20
703.246155
 10
679.677856
 20
702.486938
 10
679.677856
 20
701.662781
 10
679.677856
 20
700.77594
 10
679.677856
 20
699.828857
 10
679.677856
 20
698.823853
 10
679.677856
 20
697.763367
 10
679.677856
 20
696.616089
  0
LINE
  5
FB
330
F5
100
AcDbEntity
  8
0
  6
Continuous
 62
     0
370
    30
100
AcDbLine
 10
679.677844
 20
696.616112
 30
0.0
 11
679.677843
 21
645.953412
 31
0.0
  0
LWPOLYLINE
  5
FC
330
F5
100
AcDbEntity
  8
0
  6
Continuous
 62
     0
370
    30
100
AcDbPolyline
 90
       19
 70
     0
 43
0.0
 10
678.07782
 20
706.953308
 10
678.07782
 20
706.916077
 10
678.07782
 20
706.804443
 10
678.07782
 20
706.618835
 10
678.07782
 20
706.360291
 10
678.07782
 20
706.030396
 10
678.07782
 20
705.631042
 10
678.07782
 20
705.164856
 10
678.07782
 20
704.634644
 10
678.07782
 20
704.043762
 10
678.07782
 20
703.395752
 10
678.07782
 20
702.694519
 10
678.07782
 20
701.944214
 10
678.07782
 20
701.148926
 10
678.07782
 20
700.313049
 10
678.07782
 20
699.44104
 10
678.07782
 20
698.53717
 10
678.07782
 20
697.605774
 10
678.07782
 20
696.616089
  0
LINE
  5
FD
330
F5
100
AcDbEntity
  8
0
  6
Continuous
 62
     0
370
    30
100
AcDbLine
 10
678.077844
 20
696.616112
 30
0.0
 11
678.077843
 21
645.953285
 31
0.0
  0
LINE
  5
FE
330
F5
100
AcDbEntity
  8
0
  6
Continuous
 62
     0
370
     0
100
AcDbLine
 10
705.142716
 20
703.74898
 30
0.0
 11
705.142716
 21
649.15759
 31
0.0
  0
LINE
  5
FF
330
F5
100
AcDbEntity
  8
0
  6
Continuous
 62
     0
370
     0
100
AcDbLine
 10
704.145051
 20
704.679914
 30
0.0
 11
704.145051
 21
648.226657
 31
0.0
  0
LINE
  5
100
330
F5
100
AcDbEntity
  8
0
  6
Continuous
 62
     0
370
    30
100
AcDbLine
 10
687.577843
 20
704.679914
 30
0.0
 11
687.577843
 21
648.226657
 31
0.0
  0
LWPOLYLINE
  5
101
330
F5
100
AcDbEntity
  8
0
  6
Continuous
 62
     0
370
     0
100
AcDbPolyline
 90
       11
 70
     0
 43
0.0
 10
694.57782
 20
704.679932
 10
694.549011
 20
704.664062
 10
694.462097
 20
704.644714
 10
694.320618
 20
704.623047
 10
694.128174
 20
704.600342
 10
693.890686
 20
704.578308
 10
693.614868
 20
704.558655
 10
693.308899
 20
704.542908
 10
692.981628
 20
704.53241
 10
692.642639
 20
704.528015
 10
692.263306
 20
704.53064
  0
LWPOLYLINE
  5
102
330
F5
100
AcDbEntity
  8
0
  6
Continuous
 62
     0
370
     0
100
AcDbPolyline
 90
        8
 70
     0
 43
0.0
 10
692.263306
 20
704.53064
 10
691.874268
 20
704.541809
 10
691.513733
 20
704.560364
 10
691.196289
 20
704.584167
 10
690.934509
 20
704.610596
 10
690.739258
 20
704.636963
 10
690.619263
 20
704.660645
 10
690.57782
 20
704.679932
  0
LWPOLYLINE
  5
103
330
F5
100
AcDbEntity
  8
0
  6
Continuous
 62
     0
370
     0
100
AcDbPolyline
 90
        5
 70
     0
 43
0.0
 10
694.200806
 20
704.703247
 10
694.348633
 20
704.702576
 10
694.46106
 20
704.699463
 10
694.535889
 20
704.693604
 10
694.57782
 20
704.679932
  0
LWPOLYLINE
  5
104
330
F5
100
AcDbEntity
  8
0
  6
Continuous
 62
     0
370
     0
100
AcDbPolyline
 90
        5
 70
     0
 43
0.0
 10
690.57782
 20
704.679932
 10
690.598633
 20
704.690002
 10
690.656677
 20
704.697205
 10
690.752747
 20
704.701538
 10
690.954895
 20
704.703247
  0
LWPOLYLINE
  5
105
330
F5
100
AcDbEntity
  8
0
  6
Continuous
 62
     0
370
     0
100
AcDbPolyline
 90
        7
 70
     0
 43
0.0
 10
702.57782
 20
704.679932
 10
702.548767
 20
704.664124
 10
702.463867
 20
704.64502
 10
702.324402
 20
704.623474
 10
702.13501
 20
704.601013
 10
701.901123
 20
704.579163
 10
701.580078
 20
704.55658
  0
LWPOLYLINE
  5
106
330
F5
100
AcDbEntity
  8
0
  6
Continuous
 62
     0
370
     0
100
AcDbPolyline
 90
       13
 70
     0
 43
0.0
 10
701.580078
 20
704.55658
 10
701.266052
 20
704.541199
 10
700.931091
 20
704.531372
 10
700.585754
 20
704.527893
 10
700.240112
 20
704.531067
 10
699.904602
 20
704.540649
 10
699.589294
 20
704.555786
 10
699.303589
 20
704.575195
 10
699.056091
 20
704.597351
 10
698.854431
 20
704.620422
 10
698.705688
 20
704.642639
 10
698.611511
 20
704.662476
 10
698.57782
 20
704.679932
  0
LWPOLYLINE
  5
107
330
F5
100
AcDbEntity
  8
0
  6
Continuous
 62
     0
370
     0
100
AcDbPolyline
 90
        5
 70
     0
 43
0.0
 10
702.200806
 20
704.703247
 10
702.348633
 20
704.702576
 10
702.46106
 20
704.699463
 10
702.535889
 20
704.693604
 10
702.57782
 20
704.679932
  0
LWPOLYLINE
  5
108
330
F5
100
AcDbEntity
  8
0
  6
Continuous
 62
     0
370
     0
100
AcDbPolyline
 90
        5
 70
     0
 43
0.0
 10
698.57782
 20
704.679932
 10
698.598633
 20
704.690002
 10
698.656677
 20
704.697205
 10
698.752747
 20
704.701538
 10
698.954895
 20
704.703247
  0
LWPOLYLINE
  5
109
330
F5
100
AcDbEntity
  8
0
  6
Continuous
 62
     0
370
     0
100
AcDbPolyline
 90
       93
 70
     0
 43
0.0
 10
679.427856
 20
491.505829
 10
679.427856
 20
491.456085
 10
679.427856
 20
491.469086
 10
679.427856
 20
491.547119
 10
679.427856
 20
491.692383
 10
679.427856
 20
491.906952
 10
679.427856
 20
492.192688
 10
679.427856
 20
492.5513
 10
679.427856
 20
492.984375
 10
679.427856
 20
493.493195
 10
679.427856
 20
494.078888
 10
679.427856
 20
494.742218
 10
679.427856
 20
495.483826
 10
679.427856
 20
496.303986
 10
679.427856
 20
497.202728
 10
679.427856
 20
498.179749
 10
679.427856
 20
499.234436
 10
679.427856
 20
500.365906
 10
679.427856
 20
501.572906
 10
679.427856
 20
502.853943
 10
679.427856
 20
504.207153
 10
679.427856
 20
505.630432
 10
679.427856
 20
507.121307
 10
679.427856
 20
508.677094
 10
679.427856
 20
510.29483
 10
679.427856
 20
511.971313
 10
679.427856
 20
513.703125
 10
679.427856
 20
515.486633
 10
679.427856
 20
517.318115
 10
679.427856
 20
519.193481
 10
679.427856
 20
521.108826
 10
679.427856
 20
523.059937
 10
679.427856
 20
525.042603
 10
679.427856
 20
527.052612
 10
679.427856
 20
529.085754
 10
679.427856
 20
531.137695
 10
679.427856
 20
533.204285
 10
679.427856
 20
535.281433
 10
679.427856
 20
537.365112
 10
679.427856
 20
539.451416
 10
679.427856
 20
541.536499
 10
679.427856
 20
543.616821
 10
679.427856
 20
545.688843
 10
679.427856
 20
547.749268
 10
679.427856
 20
549.794983
 10
679.427856
 20
551.823059
 10
679.427856
 20
553.83075
 10
679.427856
 20
555.840698
 10
679.427856
 20
557.87616
 10
679.427856
 20
559.934631
 10
679.427856
 20
562.013306
 10
679.427856
 20
564.109192
 10
679.427856
 20
566.219177
 10
679.427856
 20
568.339905
 10
679.427856
 20
570.467834
 10
679.427856
 20
572.599304
 10
679.427856
 20
574.730469
 10
679.427856
 20
576.8573
 10
679.427856
 20
578.975769
 10
679.427856
 20
581.081726
 10
679.427856
 20
583.170898
 10
679.427856
 20
585.239014
 10
679.427856
 20
587.281738
 10
679.427856
 20
589.2948
 10
679.427856
 20
591.273987
 10
679.427856
 20
593.215027
 10
679.427856
 20
595.113831
 10
679.427856
 20
596.966431
 10
679.427856
 20
598.769043
 10
679.427856
 20
600.518005
 10
679.427856
 20
602.209778
 10
679.427856
 20
603.841248
 10
679.427856
 20
605.409302
 10
679.427856
 20
606.911316
 10
679.427856
 20
608.344788
 10
679.427856
 20
609.707581
 10
679.427856
 20
610.997803
 10
679.427856
 20
612.213928
 10
679.427856
 20
613.354614
 10
679.427856
 20
614.419006
 10
679.427856
 20
615.406433
 10
679.427856
 20
616.316589
 10
679.427856
 20
617.149353
 10
679.427856
 20
617.90509
 10
679.427856
 20
618.584229
 10
679.427856
 20
619.187561
 10
679.427856
 20
619.716125
 10
679.427856
 20
620.171143
 10
679.427856
 20
620.554077
 10
679.427856
 20
620.866516
 10
679.427856
 20
621.110352
 10
679.427856
 20
621.287476
 10
679.427856
 20
621.400757
  0
LINE
  5
10A
330
F5
100
AcDbEntity
  8
0
  6
Continuous
 62
     0
370
     0
100
AcDbLine
 10
678.327843
 20
621.400749
 30
0.0
 11
678.327843
 21
491.505821
 31
0.0
  0
LINE
  5
10B
330
F5
100
AcDbEntity
  8
0
  6
Continuous
 62
     0
370
    30
100
AcDbLine
 10
679.677843
 20
621.150952
 30
0.0
 11
679.677843
 21
491.755619
 31
0.0
  0
LWPOLYLINE
  5
10C
330
F5
100
AcDbEntity
  8
0
  6
Continuous
 62
     0
370
     0
100
AcDbPolyline
 90
       92
 70
     0
 43
0.0
 10
685.727844
 20
492.505005
 10
685.727844
 20
492.455841
 10
685.727844
 20
492.469818
 10
685.727844
 20
492.549347
 10
685.727844
 20
492.696564
 10
685.727844
 20
492.913635
 10
685.727844
 20
493.202423
 10
685.727844
 20
493.564697
 10
685.727844
 20
494.001984
 10
685.727844
 20
494.515656
 10
685.727844
 20
495.10672
 10
685.727844
 20
495.776062
 10
685.727844
 20
496.5242
 10
685.727844
 20
497.35144
 10
685.727844
 20
498.257721
 10
685.727844
 20
499.242706
 10
685.727844
 20
500.305756
 10
685.727844
 20
501.445862
 10
685.727844
 20
502.661774
 10
685.727844
 20
503.951813
 10
685.727844
 20
505.314056
 10
685.727844
 20
506.746307
 10
685.727844
 20
508.246002
 10
685.727844
 20
509.810303
 10
685.727844
 20
511.436188
 10
685.727844
 20
513.1203
 10
685.727844
 20
514.859131
 10
685.727844
 20
516.648865
 10
685.727844
 20
518.485718
 10
685.727844
 20
520.36554
 10
685.727844
 20
522.284241
 10
685.727844
 20
524.237549
 10
685.727844
 20
526.221191
 10
685.727844
 20
528.230774
 10
685.727844
 20
530.262085
 10
685.727844
 20
532.31073
 10
685.727844
 20
534.372559
 10
685.727844
 20
536.44342
 10
685.727844
 20
538.519165
 10
685.727844
 20
540.596008
 10
685.727844
 20
542.669983
 10
685.727844
 20
544.73761
 10
685.727844
 20
546.795349
 10
685.727844
 20
548.839966
 10
685.727844
 20
550.868347
 10
685.727844
 20
552.877625
 10
685.727844
 20
554.871338
 10
685.727844
 20
556.885559
 10
685.727844
 20
558.924133
 10
685.727844
 20
560.984314
 10
685.727844
 20
563.063354
 10
685.727844
 20
565.157959
 10
685.727844
 20
567.264832
 10
685.727844
 20
569.380554
 10
685.727844
 20
571.501343
 10
685.727844
 20
573.623413
 10
685.727844
 20
575.742798
 10
685.727844
 20
577.855286
 10
685.727844
 20
579.956787
 10
685.727844
 20
582.042908
 10
685.727844
 20
584.109314
 10
685.727844
 20
586.151672
 10
685.727844
 20
588.165588
 10
685.727844
 20
590.146729
 10
685.727844
 20
592.090759
 10
685.727844
 20
593.99353
 10
685.727844
 20
595.850952
 10
685.727844
 20
597.659058
 10
685.727844
 20
599.414062
 10
685.727844
 20
601.112427
 10
685.727844
 20
602.750793
 10
685.727844
 20
604.326111
 10
685.727844
 20
605.835449
 10
685.727844
 20
607.276306
 10
685.727844
 20
608.646423
 10
685.727844
 20
609.943787
 10
685.727844
 20
611.16687
 10
685.727844
 20
612.314209
 10
685.727844
 20
613.384888
 10
685.727844
 20
614.378174
 10
685.727844
 20
615.293762
 10
685.727844
 20
616.131409
 10
685.727844
 20
616.891479
 10
685.727844
 20
617.574402
 10
685.727844
 20
618.18103
 10
685.727844
 20
618.712219
 10
685.727844
 20
619.169373
 10
685.727844
 20
619.553833
 10
685.727844
 20
619.867371
 10
685.727844
 20
620.111694
 10
685.727844
 20
620.288879
 10
685.727844
 20
620.40155
  0
LINE
  5
10D
330
F5
100
AcDbEntity
  8
0
  6
Continuous
 62
     0
370
     0
100
AcDbLine
 10
679.927843
 20
620.401558
 30
0.0
 11
679.927843
 21
492.453285
 31
0.0
  0
LWPOLYLINE
  5
10E
330
F5
100
AcDbEntity
  8
0
  6
Continuous
 62
     0
370
    30
100
AcDbPolyline
 90
       91
 70
     0
 43
0.0
 10
685.977844
 20
491.755615
 10
685.977844
 20
491.703888
 10
685.977844
 20
491.731506
 10
685.977844
 20
491.838104
 10
685.977844
 20
492.023315
 10
685.977844
 20
492.286804
 10
685.977844
 20
492.628235
 10
685.977844
 20
493.047211
 10
685.977844
 20
493.543427
 10
685.977844
 20
494.116547
 10
685.977844
 20
494.766022
 10
685.977844
 20
495.490875
 10
685.977844
 20
496.289978
 10
685.977844
 20
497.16214
 10
685.977844
 20
498.106232
 10
685.977844
 20
499.121124
 10
685.977844
 20
500.205627
 10
685.977844
 20
501.358643
 10
685.977844
 20
502.578979
 10
685.977844
 20
503.865417
 10
685.977844
 20
505.216125
 10
685.977844
 20
506.629303
 10
685.977844
 20
508.103027
 10
685.977844
 20
509.635437
 10
685.977844
 20
511.22467
 10
685.977844
 20
512.868835
 10
685.977844
 20
514.565979
 10
685.977844
 20
516.314392
 10
685.977844
 20
518.111938
 10
685.977844
 20
519.95636
 10
685.977844
 20
521.845337
 10
685.977844
 20
523.776306
 10
685.977844
 20
525.746948
 10
685.977844
 20
527.754883
 10
685.977844
 20
529.797607
 10
685.977844
 20
531.872742
 10
685.977844
 20
533.977966
 10
685.977844
 20
536.110657
 10
685.977844
 20
538.268311
 10
685.977844
 20
540.44812
 10
685.977844
 20
542.6474
 10
685.977844
 20
544.863464
 10
685.977844
 20
547.093567
 10
685.977844
 20
549.335022
 10
685.977844
 20
551.585144
 10
685.977844
 20
553.841125
 10
685.977844
 20
556.100342
 10
685.977844
 20
558.359985
 10
685.977844
 20
560.617371
 10
685.977844
 20
562.869751
 10
685.977844
 20
565.114319
 10
685.977844
 20
567.348389
 10
685.977844
 20
569.569214
 10
685.977844
 20
571.773987
 10
685.977844
 20
573.959961
 10
685.977844
 20
576.124512
 10
685.977844
 20
578.265076
 10
685.977844
 20
580.379089
 10
685.977844
 20
582.46405
 10
685.977844
 20
584.517456
 10
685.977844
 20
586.536865
 10
685.977844
 20
588.519653
 10
685.977844
 20
590.463379
 10
685.977844
 20
592.365479
 10
685.977844
 20
594.223572
 10
685.977844
 20
596.035522
 10
685.977844
 20
597.799316
 10
685.977844
 20
599.512939
 10
685.977844
 20
601.174255
 10
685.977844
 20
602.781311
 10
685.977844
 20
604.332031
 10
685.977844
 20
605.824463
 10
685.977844
 20
607.25647
 10
685.977844
 20
608.62616
 10
685.977844
 20
609.932068
 10
685.977844
 20
611.172913
 10
685.977844
 20
612.34729
 10
685.977844
 20
613.453857
 10
685.977844
 20
614.491272
 10
685.977844
 20
615.45813
 10
685.977844
 20
616.35321
 10
685.977844
 20
617.175049
 10
685.977844
 20
617.922546
 10
685.977844
 20
618.594849
 10
685.977844
 20
619.191528
 10
685.977844
 20
619.711914
 10
685.977844
 20
620.155518
 10
685.977844
 20
620.521729
 10
685.977844
 20
620.809937
 10
685.977844
 20
621.019592
 10
685.977844
 20
621.15094
  0
LWPOLYLINE
  5
10F
330
F5
100
AcDbEntity
  8
0
  6
Continuous
 62
     0
370
     0
100
AcDbPolyline
 90
       93
 70
     0
 43
0.0
 10
687.335327
 20
491.505829
 10
687.335327
 20
491.456085
 10
687.335327
 20
491.469086
 10
687.335327
 20
491.547119
 10
687.335327
 20
491.692383
 10
687.335327
 20
491.906952
 10
687.335327
 20
492.192688
 10
687.335327
 20
492.5513
 10
687.335327
 20
492.984375
 10
687.335327
 20
493.493195
 10
687.335327
 20
494.078888
 10
687.335327
 20
494.742218
 10
687.335327
 20
495.483826
 10
687.335327
 20
496.303986
 10
687.335327
 20
497.202728
 10
687.335327
 20
498.179749
 10
687.335327
 20
499.234436
 10
687.335327
 20
500.365906
 10
687.335327
 20
501.572906
 10
687.335327
 20
502.853943
 10
687.335327
 20
504.207153
 10
687.335327
 20
505.630432
 10
687.335327
 20
507.121307
 10
687.335327
 20
508.677094
 10
687.335327
 20
510.29483
 10
687.335327
 20
511.971313
 10
687.335327
 20
513.703125
 10
687.335327
 20
515.486633
 10
687.335327
 20
517.318115
 10
687.335327
 20
519.193481
 10
687.335327
 20
521.108826
 10
687.335327
 20
523.059937
 10
687.335327
 20
525.042603
 10
687.335327
 20
527.052612
 10
687.335327
 20
529.085754
 10
687.335327
 20
531.137695
 10
687.335327
 20
533.204285
 10
687.335327
 20
535.281433
 10
687.335327
 20
537.365112
 10
687.335327
 20
539.451416
 10
687.335327
 20
541.536499
 10
687.335327
 20
543.616821
 10
687.335327
 20
545.688843
 10
687.335327
 20
547.749268
 10
687.335327
 20
549.794983
 10
687.335327
 20
551.823059
 10
687.335327
 20
553.83075
 10
687.335327
 20
555.840698
 10
687.335327
 20
557.87616
 10
687.335327
 20
559.934631
 10
687.335327
 20
562.013306
 10
687.335327
 20
564.109192
 10
687.335327
 20
566.219177
 10
687.335327
 20
568.339905
 10
687.335327
 20
570.467834
 10
687.335327
 20
572.599304
 10
687.335327
 20
574.730469
 10
687.335327
 20
576.8573
 10
687.335327
 20
578.975769
 10
687.335327
 20
581.081726
 10
687.335327
 20
583.170898
 10
687.335327
 20
585.239014
 10
687.335327
 20
587.281738
 10
687.335327
 20
589.2948
 10
687.335327
 20
591.273987
 10
687.335327
 20
593.215027
 10
687.335327
 20
595.113831
 10
687.335327
 20
596.966431
 10
687.335327
 20
598.769043
 10
687.335327
 20
600.518005
 10
687.335327
 20
602.209778
 10
687.335327
 20
603.841248
 10
687.335327
 20
605.409302
 10
687.335327
 20
606.911316
 10
687.335327
 20
608.344788
 10
687.335327
 20
609.707581
 10
687.335327
 20
610.997803
 10
687.335327
 20
612.213928
 10
687.335327
 20
613.354614
 10
687.335327
 20
614.419006
 10
687.335327
 20
615.406433
 10
687.335327
 20
616.316589
 10
687.335327
 20
617.149353
 10
687.335327
 20
617.90509
 10
687.335327
 20
618.584229
 10
687.335327
 20
619.187561
 10
687.335327
 20
619.716125
 10
687.335327
 20
620.171143
 10
687.335327
 20
620.554077
 10
687.335327
 20
620.866516
 10
687.335327
 20
621.110352
 10
687.335327
 20
621.287476
 10
687.335327
 20
621.400757
  0
LINE
  5
110
330
F5
100
AcDbEntity
  8
0
  6
Continuous
 62
     0
370
     0
100
AcDbLine
 10
686.227843
 20
621.400749
 30
0.0
 11
686.227843
 21
491.505821
 31
0.0
  0
LWPOLYLINE
  5
111
330
F5
100
AcDbEntity
  8
0
  6
Continuous
 62
     0
370
    30
100
AcDbPolyline
 90
       51
 70
     0
 43
0.0
 10
688.477844
 20
537.218872
 10
688.477844
 20
537.206055
 10
688.477844
 20
537.258118
 10
688.477844
 20
537.378967
 10
688.477844
 20
537.572021
 10
688.477844
 20
537.840149
 10
688.477844
 20
538.185486
 10
688.477844
 20
538.609253
 10
688.477844
 20
539.111755
 10
688.477844
 20
539.6922
 10
688.477844
 20
540.348938
 10
688.477844
 20
541.079163
 10
688.477844
 20
541.878967
 10
688.477844
 20
542.743591
 10
688.477844
 20
543.667297
 10
688.477844
 20
544.643738
 10
688.477844
 20
545.665771
 10
688.477844
 20
546.726074
 10
688.477844
 20
547.816833
 10
688.477844
 20
548.930237
 10
688.477844
 20
550.058533
 10
688.477844
 20
551.194153
 10
688.477844
 20
552.330017
 10
688.477844
 20
553.459412
 10
688.477844
 20
554.576172
 10
688.477844
 20
555.674866
 10
688.477844
 20
556.77594
 10
688.477844
 20
557.900391
 10
688.477844
 20
559.043091
 10
688.477844
 20
560.19812
 10
688.477844
 20
561.35907
 10
688.477844
 20
562.518921
 10
688.477844
 20
563.670166
 10
688.477844
 20
564.805176
 10
688.477844
 20
565.915955
 10
688.477844
 20
566.994568
 10
688.477844
 20
568.033386
 10
688.477844
 20
569.025024
 10
688.477844
 20
569.962646
 10
688.477844
 20
570.840027
 10
688.477844
 20
571.651855
 10
688.477844
 20
572.393738
 10
688.477844
 20
573.062195
 10
688.477844
 20
573.654846
 10
688.477844
 20
574.170349
 10
688.477844
 20
574.608398
 10
688.477844
 20
574.969604
 10
688.477844
 20
575.255432
 10
688.477844
 20
575.468323
 10
688.477844
 20
575.611084
 10
688.477844
 20
575.687744
  0
ARC
  5
112
330
F5
100
AcDbEntity
  8
0
  6
Continuous
 62
     0
370
    30
100
AcDbCircle
 10
-1421.027388
 20
555.885508
 30
0.0
 40
2109.5878182301
100
AcDbArc
 50
358.257777
 51
359.493012
  0
LINE
  5
113
330
F5
100
AcDbEntity
  8
0
  6
Continuous
 62
     0
370
     0
100
AcDbLine
 10
687.585224
 20
621.15854
 30
0.0
 11
687.585224
 21
491.74803
 31
0.0
  0
LINE
  5
114
330
F5
100
AcDbEntity
  8
0
  6
Continuous
 62
     0
370
    30
100
AcDbLine
 10
678.077843
 20
621.150952
 30
0.0
 11
678.077843
 21
491.755619
 31
0.0
  0
LWPOLYLINE
  5
115
330
F5
100
AcDbEntity
  8
0
  6
Continuous
 62
     0
370
     0
100
AcDbPolyline
 90
       17
 70
     0
 43
0.0
 10
681.477844
 20
492.505005
 10
681.519531
 20
492.489868
 10
681.638306
 20
492.477722
 10
681.831909
 20
492.46875
 10
682.092529
 20
492.462555
 10
682.409607
 20
492.458649
 10
682.771362
 20
492.456421
 10
683.165039
 20
492.455353
 10
683.574341
 20
492.455017
 10
683.983826
 20
492.455322
 10
684.377869
 20
492.45639
 10
684.740234
 20
492.458588
 10
685.058411
 20
492.462463
 10
685.319824
 20
492.468628
 10
685.514771
 20
492.477539
 10
685.634827
 20
492.489655
 10
685.677856
 20
492.505005
  0
LWPOLYLINE
  5
116
330
F5
100
AcDbEntity
  8
0
  6
Continuous
 62
     0
370
    30
100
AcDbPolyline
 90
       53
 70
     0
 43
0.0
 10
741.325928
 20
577.953308
 10
741.325928
 20
577.914124
 10
741.325928
 20
577.796509
 10
741.325928
 20
577.601135
 10
741.325928
 20
577.328918
 10
741.325928
 20
576.98053
 10
741.325928
 20
576.556946
 10
741.325928
 20
576.059875
 10
741.325928
 20
575.491516
 10
741.325928
 20
574.854004
 10
741.325928
 20
574.149475
 10
741.325928
 20
573.380127
 10
741.325928
 20
572.548767
 10
741.325928
 20
571.658813
 10
741.325928
 20
570.713623
 10
741.325928
 20
569.716553
 10
741.325928
 20
568.671021
 10
741.325928
 20
567.580627
 10
741.325928
 20
566.449768
 10
741.325928
 20
565.282532
 10
741.325928
 20
564.083191
 10
741.325928
 20
562.856018
 10
741.325928
 20
561.605408
 10
741.325928
 20
560.335938
 10
741.325928
 20
559.052307
 10
741.325928
 20
557.759277
 10
741.325928
 20
556.461548
 10
741.325928
 20
555.163757
 10
741.325928
 20
553.870605
 10
741.325928
 20
552.586853
 10
741.325928
 20
551.3172
 10
741.325928
 20
550.066284
 10
741.325928
 20
548.838806
 10
741.325928
 20
547.639099
 10
741.325928
 20
546.471436
 10
741.325928
 20
545.340027
 10
741.325928
 20
544.249146
 10
741.325928
 20
543.203003
 10
741.325928
 20
542.205261
 10
741.325928
 20
541.259399
 10
741.325928
 20
540.368713
 10
741.325928
 20
539.536621
 10
741.325928
 20
538.766479
 10
741.325928
 20
538.061096
 10
741.325928
 20
537.422729
 10
741.325928
 20
536.853455
 10
741.325928
 20
536.35553
 10
741.325928
 20
535.930969
 10
741.325928
 20
535.581604
 10
741.325928
 20
535.308411
 10
741.325928
 20
535.112061
 10
741.325928
 20
534.993408
 10
741.325928
 20
534.953308
  0
LINE
  5
117
330
F5
100
AcDbEntity
  8
0
  6
Continuous
 62
     0
370
    30
100
AcDbLine
 10
741.325901
 20
534.953285
 30
0.0
 11
740.825901
 21
534.453285
 31
0.0
  0
LINE
  5
118
330
F5
100
AcDbEntity
  8
0
  6
Continuous
 62
     0
370
    30
100
AcDbLine
 10
740.825901
 20
578.453285
 30
0.0
 11
740.825901
 21
534.453285
 31
0.0
  0
LINE
  5
119
330
F5
100
AcDbEntity
  8
0
  6
Continuous
 62
     0
370
    30
100
AcDbLine
 10
727.575901
 20
534.453285
 30
0.0
 11
691.325901
 21
534.453285
 31
0.0
  0
LINE
  5
11A
330
F5
100
AcDbEntity
  8
0
  6
Continuous
 62
     0
370
    30
100
AcDbLine
 10
691.325901
 20
578.453285
 30
0.0
 11
691.325901
 21
534.453285
 31
0.0
  0
LINE
  5
11B
330
F5
100
AcDbEntity
  8
0
  6
Continuous
 62
     0
370
    30
100
AcDbLine
 10
737.075901
 20
534.453285
 30
0.0
 11
740.825901
 21
534.453285
 31
0.0
  0
LWPOLYLINE
  5
11C
330
F5
100
AcDbEntity
  8
0
  6
Continuous
 62
     0
370
     0
100
AcDbPolyline
 90
       26
 70
     0
 43
0.0
 10
727.575928
 20
534.453308
 10
727.613464
 20
534.461365
 10
727.726013
 20
534.485107
 10
727.911438
 20
534.52301
 10
728.164246
 20
534.572693
 10
728.480469
 20
534.631226
 10
728.861023
 20
534.694519
 10
729.296204
 20
534.759094
 10
729.775696
 20
534.821289
 10
730.296082
 20
534.876709
 10
730.850281
 20
534.921631
 10
731.428406
 20
534.953247
 10
732.020935
 20
534.970093
 10
732.618469
 20
534.970276
 10
733.211243
 20
534.953796
 10
733.789734
 20
534.922424
 10
734.344543
 20
534.877747
 10
734.865723
 20
534.82251
 10
735.34613
 20
534.760437
 10
735.782288
 20
534.695862
 10
736.164124
 20
534.632507
 10
736.481628
 20
534.573853
 10
736.735779
 20
534.523926
 10
736.922607
 20
534.485779
 10
737.036743
 20
534.461731
 10
737.075928
 20
534.453308
  0
LWPOLYLINE
  5
11D
330
F5
100
AcDbEntity
  8
0
  6
Continuous
 62
     0
370
     0
100
AcDbPolyline
 90
       24
 70
     0
 43
0.0
 10
736.425476
 20
578.453308
 10
736.387451
 20
578.446167
 10
736.272949
 20
578.425415
 10
736.084839
 20
578.392517
 10
735.829285
 20
578.349854
 10
735.508423
 20
578.300598
 10
735.125061
 20
578.248657
 10
734.692078
 20
578.197205
 10
734.216248
 20
578.150269
 10
733.703369
 20
578.111694
 10
733.164307
 20
578.08429
 10
732.609436
 20
578.069763
 10
732.049133
 20
578.069641
 10
731.49408
 20
578.083984
 10
730.954773
 20
578.111267
 10
730.441589
 20
578.149719
 10
729.96521
 20
578.196594
 10
729.531677
 20
578.247986
 10
729.147522
 20
578.299988
 10
728.825867
 20
578.349243
 10
728.56958
 20
578.392029
 10
728.380676
 20
578.425049
 10
728.265137
 20
578.445984
 10
728.225891
 20
578.453308
  0
LWPOLYLINE
  5
11E
330
F5
100
AcDbEntity
  8
0
  6
Continuous
 62
     0
370
    30
100
AcDbPolyline
 90
       24
 70
     0
 43
0.0
 10
736.275879
 20
585.783264
 10
736.244629
 20
585.783264
 10
736.145813
 20
585.783264
 10
735.973633
 20
585.783264
 10
735.726196
 20
585.783264
 10
735.405823
 20
585.783264
 10
735.019653
 20
585.783264
 10
734.579041
 20
585.783264
 10
734.098633
 20
585.783264
 10
733.594482
 20
585.783264
 10
733.082825
 20
585.783264
 10
732.578369
 20
585.783264
 10
732.087463
 20
585.783264
 10
731.583374
 20
585.783264
 10
731.071777
 20
585.783264
 10
730.5672
 20
585.783264
 10
730.085876
 20
585.783264
 10
729.643921
 20
585.783264
 10
729.256042
 20
585.783264
 10
728.933716
 20
585.783264
 10
728.684143
 20
585.783264
 10
728.509888
 20
585.783264
 10
728.408997
 20
585.783264
 10
728.375916
 20
585.783264
  0
LWPOLYLINE
  5
11F
330
F5
100
AcDbEntity
  8
0
  6
Continuous
 62
     0
370
    30
100
AcDbPolyline
 90
       22
 70
     0
 43
0.0
 10
728.875916
 20
586.283264
 10
728.914368
 20
586.283264
 10
729.028809
 20
586.283264
 10
729.216919
 20
586.283264
 10
729.474121
 20
586.283264
 10
729.795044
 20
586.283264
 10
730.172363
 20
586.283264
 10
730.597656
 20
586.283264
 10
731.061523
 20
586.283264
 10
731.553528
 20
586.283264
 10
732.062744
 20
586.283264
 10
732.57782
 20
586.283264
 10
733.087341
 20
586.283264
 10
733.579834
 20
586.283264
 10
734.044434
 20
586.283264
 10
734.470703
 20
586.283264
 10
734.849121
 20
586.283264
 10
735.171326
 20
586.283264
 10
735.429993
 20
586.283264
 10
735.61969
 20
586.283264
 10
735.735718
 20
586.283264
 10
735.775879
 20
586.283264
  0
LINE
  5
120
330
F5
100
AcDbEntity
  8
0
  6
Continuous
 62
     0
370
    30
100
AcDbLine
 10
735.775901
 20
586.283285
 30
0.0
 11
736.275901
 21
585.783285
 31
0.0
  0
LINE
  5
121
330
F5
100
AcDbEntity
  8
0
  6
Continuous
 62
     0
370
    30
100
AcDbLine
 10
736.275901
 20
578.453285
 30
0.0
 11
736.275901
 21
585.783285
 31
0.0
  0
LWPOLYLINE
  5
122
330
F5
100
AcDbEntity
  8
0
  6
Continuous
 62
     0
370
    30
100
AcDbPolyline
 90
       24
 70
     0
 43
0.0
 10
728.375916
 20
578.453247
 10
728.41272
 20
578.446716
 10
728.5224
 20
578.427429
 10
728.702698
 20
578.396973
 10
728.950012
 20
578.357483
 10
729.259644
 20
578.31189
 10
729.625854
 20
578.26355
 10
730.042053
 20
578.215942
 10
730.500854
 20
578.172607
 10
730.993958
 20
578.136719
 10
731.512329
 20
578.111084
 10
732.046265
 20
578.097595
 10
732.585571
 20
578.097351
 10
733.119934
 20
578.110352
 10
733.639038
 20
578.135559
 10
734.13324
 20
578.171143
 10
734.593384
 20
578.214233
 10
735.01123
 20
578.26178
 10
735.379517
 20
578.31012
 10
735.691406
 20
578.355896
 10
735.94104
 20
578.395569
 10
736.123901
 20
578.426514
 10
736.236328
 20
578.446228
 10
736.275879
 20
578.453308
  0
LINE
  5
123
330
F5
100
AcDbEntity
  8
0
  6
Continuous
 62
     0
370
    30
100
AcDbLine
 10
688.477843
 20
575.453285
 30
0.0
 11
691.325901
 21
575.453285
 31
0.0
  0
LINE
  5
124
330
F5
100
AcDbEntity
  8
0
  6
Continuous
 62
     0
370
    30
100
AcDbLine
 10
688.477843
 20
537.453285
 30
0.0
 11
691.325901
 21
537.453285
 31
0.0
  0
ARC
  5
125
330
F5
100
AcDbEntity
  8
0
  6
Continuous
 62
     0
370
    30
100
AcDbCircle
 10
678.327856
 20
621.202717
 30
0.0
 40
0.2500127843616328
100
AcDbArc
 50
90.00294
 51
179.599593
  0
ARC
  5
126
330
F5
100
AcDbEntity
  8
0
  6
Continuous
 62
     0
370
    30
100
AcDbCircle
 10
678.327846
 20
491.703522
 30
0.0
 40
0.2500035544717441
100
AcDbArc
 50
180.003991
 51
269.999185
  0
ARC
  5
127
330
F5
100
AcDbEntity
  8
0
  6
Continuous
 62
     0
370
    30
100
AcDbCircle
 10
679.427839
 20
491.703522
 30
0.0
 40
0.2500035544754498
100
AcDbArc
 50
270.000815
 51
359.996009
  0
ARC
  5
128
330
F5
100
AcDbEntity
  8
0
  6
Continuous
 62
     0
370
    30
100
AcDbCircle
 10
679.427857
 20
621.202744
 30
0.0
 40
0.2499858859468015
100
AcDbArc
 50
0.394285
 51
90.003182
  0
ARC
  5
129
330
F5
100
AcDbEntity
  8
0
  6
Continuous
 62
     0
370
    30
100
AcDbCircle
 10
679.927855
 20
492.203502
 30
0.0
 40
0.2500123501559245
100
AcDbArc
 50
90.002829
 51
179.964694
  0
ARC
  5
12A
330
F5
100
AcDbEntity
  8
0
  6
Continuous
 62
     0
370
    30
100
AcDbCircle
 10
679.927853
 20
620.702749
 30
0.0
 40
0.2500107256940003
100
AcDbArc
 50
180.003471
 51
269.997542
  0
ARC
  5
12B
330
F5
100
AcDbEntity
  8
0
  6
Continuous
 62
     0
370
    30
100
AcDbCircle
 10
685.72783
 20
492.203502
 30
0.0
 40
0.2500123445545349
100
AcDbArc
 50
0.032992
 51
89.997172
  0
ARC
  5
12C
330
F5
100
AcDbEntity
  8
0
  6
Continuous
 62
     0
370
    30
100
AcDbCircle
 10
685.727832
 20
620.702749
 30
0.0
 40
0.2500107503342877
100
AcDbArc
 50
270.002464
 51
359.996581
  0
ARC
  5
12D
330
F5
100
AcDbEntity
  8
0
  6
Continuous
 62
     0
370
    30
100
AcDbCircle
 10
686.227846
 20
491.703522
 30
0.0
 40
0.2500035544723552
100
AcDbArc
 50
180.003991
 51
269.999185
  0
ARC
  5
12E
330
F5
100
AcDbEntity
  8
0
  6
Continuous
 62
     0
370
    30
100
AcDbCircle
 10
686.227829
 20
621.202744
 30
0.0
 40
0.2499858859574775
100
AcDbArc
 50
89.996818
 51
179.605715
  0
ARC
  5
12F
330
F5
100
AcDbEntity
  8
0
  6
Continuous
 62
     0
370
    30
100
AcDbCircle
 10
687.335337
 20
491.703521
 30
0.0
 40
0.2500025840509011
100
AcDbArc
 50
270.000568
 51
358.255443
  0
ARC
  5
130
330
F5
100
AcDbEntity
  8
0
  6
Continuous
 62
     0
370
    30
100
AcDbCircle
 10
687.335327
 20
621.202717
 30
0.0
 40
0.2500122556268631
100
AcDbArc
 50
2.140697
 51
89.997279
  0
ARC
  5
131
330
F5
100
AcDbEntity
  8
0
  6
Continuous
 62
     0
370
    30
100
AcDbCircle
 10
-1424.440258
 20
555.885035
 30
0.0
 40
2113.000688632838
100
AcDbArc
 50
358.259184
 51
359.493422
  0
ARC
  5
132
330
F5
100
AcDbEntity
  8
0
  6
Continuous
 62
     0
370
    30
100
AcDbCircle
 10
-1424.440258
 20
557.021536
 30
0.0
 40
2113.000688632595
100
AcDbArc
 50
0.506578
 51
1.740816
  0
LINE
  5
133
330
F5
100
AcDbEntity
  8
0
  6
Continuous
 62
     0
370
    30
100
AcDbLine
 10
687.335339
 20
491.453285
 30
0.0
 11
686.227843
 21
491.453285
 31
0.0
  0
LINE
  5
134
330
F5
100
AcDbEntity
  8
0
  6
Continuous
 62
     0
370
    30
100
AcDbLine
 10
687.335339
 20
621.453285
 30
0.0
 11
686.227843
 21
621.453285
 31
0.0
  0
LINE
  5
135
330
F5
100
AcDbEntity
  8
0
  6
Continuous
 62
     0
370
    30
100
AcDbLine
 10
685.727843
 20
492.453285
 30
0.0
 11
679.927843
 21
492.453285
 31
0.0
  0
LINE
  5
136
330
F5
100
AcDbEntity
  8
0
  6
Continuous
 62
     0
370
    30
100
AcDbLine
 10
685.727843
 20
620.453285
 30
0.0
 11
679.927843
 21
620.453285
 31
0.0
  0
LINE
  5
137
330
F5
100
AcDbEntity
  8
0
  6
Continuous
 62
     0
370
    30
100
AcDbLine
 10
679.427843
 20
491.453285
 30
0.0
 11
678.327843
 21
491.453285
 31
0.0
  0
LINE
  5
138
330
F5
100
AcDbEntity
  8
0
  6
Continuous
 62
     0
370
    30
100
AcDbLine
 10
679.427843
 20
621.453285
 30
0.0
 11
678.327843
 21
621.453285
 31
0.0
  0
LINE
  5
139
330
F5
100
AcDbEntity
  8
0
  6
Continuous
 62
     0
370
    30
100
AcDbLine
 10
728.875901
 20
586.283285
 30
0.0
 11
728.375901
 21
585.783285
 31
0.0
  0
LINE
  5
13A
330
F5
100
AcDbEntity
  8
0
  6
Continuous
 62
     0
370
    30
100
AcDbLine
 10
728.375901
 20
585.783285
 30
0.0
 11
728.375901
 21
578.453285
 31
0.0
  0
LINE
  5
13B
330
F5
100
AcDbEntity
  8
0
  6
Continuous
 62
     0
370
    30
100
AcDbLine
 10
728.225901
 20
578.453285
 30
0.0
 11
728.375863
 21
578.453285
 31
0.0
  0
LINE
  5
13C
330
F5
100
AcDbEntity
  8
0
  6
Continuous
 62
     0
370
    30
100
AcDbLine
 10
736.425504
 20
578.453285
 30
0.0
 11
736.275901
 21
578.453285
 31
0.0
  0
LINE
  5
13D
330
F5
100
AcDbEntity
  8
0
  6
Continuous
 62
     0
370
    30
100
AcDbLine
 10
727.575901
 20
534.453285
 30
0.0
 11
737.075901
 21
534.453285
 31
0.0
  0
LINE
  5
13E
330
F5
100
AcDbEntity
  8
0
  6
Continuous
 62
     0
370
    30
100
AcDbLine
 10
691.325901
 20
578.453285
 30
0.0
 11
728.225901
 21
578.453285
 31
0.0
  0
LINE
  5
13F
330
F5
100
AcDbEntity
  8
0
  6
Continuous
 62
     0
370
    30
100
AcDbLine
 10
740.825901
 20
578.453285
 30
0.0
 11
736.425504
 21
578.453285
 31
0.0
  0
LINE
  5
140
330
F5
100
AcDbEntity
  8
0
  6
Continuous
 62
     0
370
    30
100
AcDbLine
 10
741.325901
 20
577.953285
 30
0.0
 11
740.825901
 21
578.453285
 31
0.0
  0
LINE
  5
141
330
F5
100
AcDbEntity
  8
0
  6
Continuous
 62
     0
370
    30
100
AcDbLine
 10
702.228738
 20
704.703285
 30
0.0
 11
698.926826
 21
704.703285
 31
0.0
  0
LINE
  5
142
330
F5
100
AcDbEntity
  8
0
  6
Continuous
 62
     0
370
    30
100
AcDbLine
 10
694.228738
 20
704.703285
 30
0.0
 11
690.926826
 21
704.703285
 31
0.0
  0
LINE
  5
143
330
F5
100
AcDbEntity
  8
0
  6
Continuous
 62
     0
370
    30
100
AcDbLine
 10
704.145051
 20
648.203285
 30
0.0
 11
687.577843
 21
648.203285
 31
0.0
  0
LINE
  5
144
330
F5
100
AcDbEntity
  8
0
  6
Continuous
 62
     0
370
    30
100
AcDbLine
 10
687.577843
 20
704.703285
 30
0.0
 11
690.926681
 21
704.703285
 31
0.0
  0
LINE
  5
145
330
F5
100
AcDbEntity
  8
0
  6
Continuous
 62
     0
370
    30
100
AcDbLine
 10
694.228803
 20
704.703285
 30
0.0
 11
698.926681
 21
704.703285
 31
0.0
  0
LINE
  5
146
330
F5
100
AcDbEntity
  8
0
  6
Continuous
 62
     0
370
    30
100
AcDbLine
 10
702.228803
 20
704.703285
 30
0.0
 11
704.145051
 21
704.703285
 31
0.0
  0
ARC
  5
147
330
F5
100
AcDbEntity
  8
0
  6
Continuous
 62
     0
370
    30
100
AcDbCircle
 10
704.145042
 20
703.70263
 30
0.0
 40
1.000010967544983
100
AcDbArc
 50
4.024884
 51
89.999497
  0
ARC
  5
148
330
F5
100
AcDbEntity
  8
0
  6
Continuous
 62
     0
370
    30
100
AcDbCircle
 10
704.145035
 20
649.203549
 30
0.0
 40
1.000017156269599
100
AcDbArc
 50
270.000885
 51
356.04077
  0
ARC
  5
149
330
F5
100
AcDbEntity
  8
0
  6
Continuous
 62
     0
370
    30
100
AcDbCircle
 10
306.075368
 20
676.453241
 30
0.0
 40
400.0013002756255
100
AcDbArc
 50
0.000006
 51
3.912869
  0
ARC
  5
14A
330
F5
100
AcDbEntity
  8
0
  6
Continuous
 62
     0
370
    30
100
AcDbCircle
 10
306.075329
 20
676.453331
 30
0.0
 40
400.0013389703196
100
AcDbArc
 50
356.083901
 51
359.995687
  0
LINE
  5
14B
330
F5
100
AcDbEntity
  8
0
  6
Continuous
 62
     0
370
    30
100
AcDbLine
 10
687.077843
 20
649.853446
 30
0.0
 11
687.577843
 21
649.853446
 31
0.0
  0
LINE
  5
14C
330
F5
100
AcDbEntity
  8
0
  6
Continuous
 62
     0
370
    30
100
AcDbLine
 10
687.077843
 20
703.053544
 30
0.0
 11
687.577843
 21
703.053544
 31
0.0
  0
LINE
  5
14D
330
F5
100
AcDbEntity
  8
0
  6
Continuous
 62
     0
370
    30
100
AcDbLine
 10
679.677843
 20
706.953285
 30
0.0
 11
678.077843
 21
706.953285
 31
0.0
  0
LINE
  5
14E
330
F5
100
AcDbEntity
  8
0
  6
Continuous
 62
     0
370
    30
100
AcDbLine
 10
678.077843
 20
645.953285
 30
0.0
 11
679.677843
 21
645.953285
 31
0.0
  0
LINE
  5
14F
330
F5
100
AcDbEntity
  8
0
  6
Continuous
 62
     0
370
    30
100
AcDbLine
 10
685.477843
 20
705.903285
 30
0.0
 11
679.677843
 21
705.903285
 31
0.0
  0
LINE
  5
150
330
F5
100
AcDbEntity
  8
0
  6
Continuous
 62
     0
370
    30
100
AcDbLine
 10
679.677843
 20
647.003285
 30
0.0
 11
685.477843
 21
647.003285
 31
0.0
  0
LINE
  5
151
330
F5
100
AcDbEntity
  8
0
  6
Continuous
 62
     0
370
    30
100
AcDbLine
 10
687.077843
 20
645.953285
 30
0.0
 11
685.477843
 21
645.953285
 31
0.0
  0
LINE
  5
152
330
F5
100
AcDbEntity
  8
0
  6
Continuous
 62
     0
370
    30
100
AcDbLine
 10
687.077843
 20
706.953285
 30
0.0
 11
685.477843
 21
706.953285
 31
0.0
  0
ENDBLK
  5
154
330
F5
100
AcDbEntity
  8
0
100
AcDbBlockEnd
  0
BLOCK
  5
1AF
330
156
100
AcDbEntity
  8
0
100
AcDbBlockBegin
  2
d
 70
     0
 10
402.344971
 20
0.0
 30
0.0
  3
d
  1

  0
LINE
  5
157
330
156
100
AcDbEntity
  8
0
  6
Continuous
 62
     0
370
    30
100
AcDbLine
 10
348.42876
 20
656.290443
 30
0.0
 11
348.428761
 21
645.95327
 31
0.0
  0
LINE
  5
158
330
156
100
AcDbEntity
  8
0
  6
Continuous
 62
     0
370
    30
100
AcDbLine
 10
348.428761
 20
706.95327
 30
0.0
 11
348.42876
 21
656.290443
 31
0.0
  0
LINE
  5
159
330
156
100
AcDbEntity
  8
0
  6
Continuous
 62
     0
370
    30
100
AcDbLine
 10
350.02876
 20
656.290443
 30
0.0
 11
350.028761
 21
706.95327
 31
0.0
  0
LWPOLYLINE
  5
15A
330
156
100
AcDbEntity
  8
0
  6
Continuous
 62
     0
370
    30
100
AcDbPolyline
 90
       19
 70
     0
 43
0.0
 10
350.028748
 20
645.953247
 10
350.028748
 20
645.990479
 10
350.028748
 20
646.102112
 10
350.028748
 20
646.28772
 10
350.028748
 20
646.546265
 10
350.028748
 20
646.87616
 10
350.028748
 20
647.275513
 10
350.028748
 20
647.741699
 10
350.028748
 20
648.271912
 10
350.028748
 20
648.862793
 10
350.028748
 20
649.510803
 10
350.028748
 20
650.212036
 10
350.028748
 20
650.962341
 10
350.028748
 20
651.757629
 10
350.028748
 20
652.593506
 10
350.028748
 20
653.465515
 10
350.028748
 20
654.369385
 10
350.028748
 20
655.300781
 10
350.028748
 20
656.290466
  0
LINE
  5
15B
330
156
100
AcDbEntity
  8
0
  6
Continuous
 62
     0
370
    30
100
AcDbLine
 10
355.82876
 20
656.290443
 30
0.0
 11
355.828761
 21
706.953143
 31
0.0
  0
LWPOLYLINE
  5
15C
330
156
100
AcDbEntity
  8
0
  6
Continuous
 62
     0
370
    30
100
AcDbPolyline
 90
       18
 70
     0
 43
0.0
 10
355.828766
 20
645.953369
 10
355.828766
 20
645.99115
 10
355.828766
 20
646.104309
 10
355.828766
 20
646.292542
 10
355.828766
 20
646.555725
 10
355.828766
 20
646.893494
 10
355.828766
 20
647.304993
 10
355.828766
 20
647.788818
 10
355.828766
 20
648.343628
 10
355.828766
 20
648.967957
 10
355.828766
 20
649.6604
 10
355.828766
 20
650.419617
 10
355.828766
 20
651.243774
 10
355.828766
 20
652.130615
 10
355.828766
 20
653.077698
 10
355.828766
 20
654.082703
 10
355.828766
 20
655.143188
 10
355.828766
 20
656.290466
  0
LINE
  5
15D
330
156
100
AcDbEntity
  8
0
  6
Continuous
 62
     0
370
    30
100
AcDbLine
 10
357.42876
 20
656.290443
 30
0.0
 11
357.428761
 21
706.95327
 31
0.0
  0
LWPOLYLINE
  5
15E
330
156
100
AcDbEntity
  8
0
  6
Continuous
 62
     0
370
    30
100
AcDbPolyline
 90
       19
 70
     0
 43
0.0
 10
357.428772
 20
645.953247
 10
357.428772
 20
645.990479
 10
357.428772
 20
646.102112
 10
357.428772
 20
646.28772
 10
357.428772
 20
646.546265
 10
357.428772
 20
646.87616
 10
357.428772
 20
647.275513
 10
357.428772
 20
647.741699
 10
357.428772
 20
648.271912
 10
357.428772
 20
648.862793
 10
357.428772
 20
649.510803
 10
357.428772
 20
650.212036
 10
357.428772
 20
650.962341
 10
357.428772
 20
651.757629
 10
357.428772
 20
652.593506
 10
357.428772
 20
653.465515
 10
357.428772
 20
654.369385
 10
357.428772
 20
655.300781
 10
357.428772
 20
656.290466
  0
LINE
  5
15F
330
156
100
AcDbEntity
  8
0
  6
Continuous
 62
     0
370
     0
100
AcDbLine
 10
330.363887
 20
649.157575
 30
0.0
 11
330.363887
 21
703.748965
 31
0.0
  0
LINE
  5
160
330
156
100
AcDbEntity
  8
0
  6
Continuous
 62
     0
370
     0
100
AcDbLine
 10
331.361552
 20
648.226642
 30
0.0
 11
331.361552
 21
704.679898
 31
0.0
  0
LINE
  5
161
330
156
100
AcDbEntity
  8
0
  6
Continuous
 62
     0
370
    30
100
AcDbLine
 10
347.92876
 20
648.226642
 30
0.0
 11
347.928761
 21
704.679898
 31
0.0
  0
LWPOLYLINE
  5
162
330
156
100
AcDbEntity
  8
0
  6
Continuous
 62
     0
370
     0
100
AcDbPolyline
 90
       17
 70
     0
 43
0.0
 10
344.928772
 20
704.679871
 10
344.890198
 20
704.693115
 10
344.779572
 20
704.700745
 10
344.597961
 20
704.703247
 10
344.352631
 20
704.701843
 10
344.052429
 20
704.698181
 10
343.707977
 20
704.693909
 10
343.331543
 20
704.690613
 10
342.938934
 20
704.689331
 10
342.546082
 20
704.69043
 10
342.168518
 20
704.693726
 10
341.821136
 20
704.697998
 10
341.517334
 20
704.701721
 10
341.269043
 20
704.703247
 10
341.084595
 20
704.700989
 10
340.970795
 20
704.693542
 10
340.928772
 20
704.679871
  0
LWPOLYLINE
  5
163
330
156
100
AcDbEntity
  8
0
  6
Continuous
 62
     0
370
     0
100
AcDbPolyline
 90
       17
 70
     0
 43
0.0
 10
336.928772
 20
704.679871
 10
336.890198
 20
704.693115
 10
336.779572
 20
704.700745
 10
336.597961
 20
704.703247
 10
336.352631
 20
704.701843
 10
336.052429
 20
704.698181
 10
335.707977
 20
704.693909
 10
335.331543
 20
704.690613
 10
334.938934
 20
704.689331
 10
334.546082
 20
704.69043
 10
334.168518
 20
704.693726
 10
333.821136
 20
704.697998
 10
333.517334
 20
704.701721
 10
333.269043
 20
704.703247
 10
333.084595
 20
704.700989
 10
332.970795
 20
704.693542
 10
332.928772
 20
704.679871
  0
LWPOLYLINE
  5
164
330
156
100
AcDbEntity
  8
0
  6
Continuous
 62
     0
370
     0
100
AcDbPolyline
 90
       93
 70
     0
 43
0.0
 10
356.078766
 20
621.400757
 10
356.078766
 20
621.4505
 10
356.078766
 20
621.4375
 10
356.078766
 20
621.359436
 10
356.078766
 20
621.214172
 10
356.078766
 20
620.999634
 10
356.078766
 20
620.713867
 10
356.078766
 20
620.355225
 10
356.078766
 20
619.92218
 10
356.078766
 20
619.41333
 10
356.078766
 20
618.827698
 10
356.078766
 20
618.164307
 10
356.078766
 20
617.422729
 10
356.078766
 20
616.602539
 10
356.078766
 20
615.703796
 10
356.078766
 20
614.726807
 10
356.078766
 20
613.672119
 10
356.078766
 20
612.540649
 10
356.078766
 20
611.333679
 10
356.078766
 20
610.052612
 10
356.078766
 20
608.699402
 10
356.078766
 20
607.276123
 10
356.078766
 20
605.785278
 10
356.078766
 20
604.229492
 10
356.078766
 20
602.611755
 10
356.078766
 20
600.935242
 10
356.078766
 20
599.20343
 10
356.078766
 20
597.419922
 10
356.078766
 20
595.58844
 10
356.078766
 20
593.713074
 10
356.078766
 20
591.797729
 10
356.078766
 20
589.846619
 10
356.078766
 20
587.863953
 10
356.078766
 20
585.853943
 10
356.078766
 20
583.820801
 10
356.078766
 20
581.76886
 10
356.078766
 20
579.702271
 10
356.078766
 20
577.625122
 10
356.078766
 20
575.541443
 10
356.078766
 20
573.455139
 10
356.078766
 20
571.370056
 10
356.078766
 20
569.289734
 10
356.078766
 20
567.217712
 10
356.078766
 20
565.157288
 10
356.078766
 20
563.111572
 10
356.078766
 20
561.083496
 10
356.078766
 20
559.075806
 10
356.078766
 20
557.065857
 10
356.078766
 20
555.030396
 10
356.078766
 20
552.971924
 10
356.078766
 20
550.89325
 10
356.078766
 20
548.797363
 10
356.078766
 20
546.687378
 10
356.078766
 20
544.56665
 10
356.078766
 20
542.438721
 10
356.078766
 20
540.307251
 10
356.078766
 20
538.176086
 10
356.078766
 20
536.049255
 10
356.078766
 20
533.930786
 10
356.078766
 20
531.824829
 10
356.078766
 20
529.735657
 10
356.078766
 20
527.667542
 10
356.078766
 20
525.624817
 10
356.078766
 20
523.611755
 10
356.078766
 20
521.632568
 10
356.078766
 20
519.691528
 10
356.078766
 20
517.792725
 10
356.078766
 20
515.940125
 10
356.078766
 20
514.137512
 10
356.078766
 20
512.38855
 10
356.078766
 20
510.696777
 10
356.078766
 20
509.065308
 10
356.078766
 20
507.497223
 10
356.078766
 20
505.995209
 10
356.078766
 20
504.561737
 10
356.078766
 20
503.198944
 10
356.078766
 20
501.908752
 10
356.078766
 20
500.692657
 10
356.078766
 20
499.551941
 10
356.078766
 20
498.487549
 10
356.078766
 20
497.500122
 10
356.078766
 20
496.589996
 10
356.078766
 20
495.757172
 10
356.078766
 20
495.001465
 10
356.078766
 20
494.322327
 10
356.078766
 20
493.718994
 10
356.078766
 20
493.19043
 10
356.078766
 20
492.735413
 10
356.078766
 20
492.352478
 10
356.078766
 20
492.040009
 10
356.078766
 20
491.796204
 10
356.078766
 20
491.61911
 10
356.078766
 20
491.505798
  0
LINE
  5
165
330
156
100
AcDbEntity
  8
0
  6
Continuous
 62
     0
370
     0
100
AcDbLine
 10
357.17876
 20
491.505806
 30
0.0
 11
357.178761
 21
621.400734
 31
0.0
  0
LINE
  5
166
330
156
100
AcDbEntity
  8
0
  6
Continuous
 62
     0
370
    30
100
AcDbLine
 10
355.82876
 20
491.755604
 30
0.0
 11
355.828761
 21
621.150936
 31
0.0
  0
LWPOLYLINE
  5
167
330
156
100
AcDbEntity
  8
0
  6
Continuous
 62
     0
370
     0
100
AcDbPolyline
 90
       92
 70
     0
 43
0.0
 10
349.778748
 20
620.40155
 10
349.778748
 20
620.450745
 10
349.778748
 20
620.436707
 10
349.778748
 20
620.357239
 10
349.778748
 20
620.209961
 10
349.778748
 20
619.99292
 10
349.778748
 20
619.704163
 10
349.778748
 20
619.341858
 10
349.778748
 20
618.904541
 10
349.778748
 20
618.39093
 10
349.778748
 20
617.799866
 10
349.778748
 20
617.130493
 10
349.778748
 20
616.382324
 10
349.778748
 20
615.555115
 10
349.778748
 20
614.648804
 10
349.778748
 20
613.663818
 10
349.778748
 20
612.600769
 10
349.778748
 20
611.460693
 10
349.778748
 20
610.244812
 10
349.778748
 20
608.954773
 10
349.778748
 20
607.592468
 10
349.778748
 20
606.160278
 10
349.778748
 20
604.660583
 10
349.778748
 20
603.096252
 10
349.778748
 20
601.470337
 10
349.778748
 20
599.786255
 10
349.778748
 20
598.047424
 10
349.778748
 20
596.25769
 10
349.778748
 20
594.420837
 10
349.778748
 20
592.541016
 10
349.778748
 20
590.622314
 10
349.778748
 20
588.669006
 10
349.778748
 20
586.685364
 10
349.778748
 20
584.675781
 10
349.778748
 20
582.64447
 10
349.778748
 20
580.595825
 10
349.778748
 20
578.533997
 10
349.778748
 20
576.463135
 10
349.778748
 20
574.38739
 10
349.778748
 20
572.310547
 10
349.778748
 20
570.236572
 10
349.778748
 20
568.168945
 10
349.778748
 20
566.111206
 10
349.778748
 20
564.066589
 10
349.778748
 20
562.038208
 10
349.778748
 20
560.028931
 10
349.778748
 20
558.035217
 10
349.778748
 20
556.020996
 10
349.778748
 20
553.982422
 10
349.778748
 20
551.922241
 10
349.778748
 20
549.843201
 10
349.778748
 20
547.748596
 10
349.778748
 20
545.641724
 10
349.778748
 20
543.526001
 10
349.778748
 20
541.405212
 10
349.778748
 20
539.283142
 10
349.778748
 20
537.163757
 10
349.778748
 20
535.05127
 10
349.778748
 20
532.949768
 10
349.778748
 20
530.863647
 10
349.778748
 20
528.797241
 10
349.778748
 20
526.754883
 10
349.778748
 20
524.740967
 10
349.778748
 20
522.759827
 10
349.778748
 20
520.815796
 10
349.778748
 20
518.913025
 10
349.778748
 20
517.055603
 10
349.778748
 20
515.247498
 10
349.778748
 20
513.492493
 10
349.778748
 20
511.794128
 10
349.778748
 20
510.155762
 10
349.778748
 20
508.580475
 10
349.778748
 20
507.071136
 10
349.778748
 20
505.630249
 10
349.778748
 20
504.260162
 10
349.778748
 20
502.962738
 10
349.778748
 20
501.739685
 10
349.778748
 20
500.592316
 10
349.778748
 20
499.521637
 10
349.778748
 20
498.528351
 10
349.778748
 20
497.612823
 10
349.778748
 20
496.775116
 10
349.778748
 20
496.015076
 10
349.778748
 20
495.332123
 10
349.778748
 20
494.725555
 10
349.778748
 20
494.194336
 10
349.778748
 20
493.737183
 10
349.778748
 20
493.352722
 10
349.778748
 20
493.039215
 10
349.778748
 20
492.794861
 10
349.778748
 20
492.617676
 10
349.778748
 20
492.505005
  0
LINE
  5
168
330
156
100
AcDbEntity
  8
0
  6
Continuous
 62
     0
370
     0
100
AcDbLine
 10
355.57876
 20
492.504997
 30
0.0
 11
355.578761
 21
620.401542
 31
0.0
  0
LWPOLYLINE
  5
169
330
156
100
AcDbEntity
  8
0
  6
Continuous
 62
     0
370
    30
100
AcDbPolyline
 90
       91
 70
     0
 43
0.0
 10
349.528748
 20
621.15094
 10
349.528748
 20
621.202637
 10
349.528748
 20
621.175049
 10
349.528748
 20
621.068481
 10
349.528748
 20
620.88324
 10
349.528748
 20
620.619751
 10
349.528748
 20
620.27832
 10
349.528748
 20
619.859314
 10
349.528748
 20
619.363098
 10
349.528748
 20
618.790039
 10
349.528748
 20
618.140564
 10
349.528748
 20
617.415649
 10
349.528748
 20
616.616577
 10
349.528748
 20
615.744446
 10
349.528748
 20
614.800293
 10
349.528748
 20
613.785461
 10
349.528748
 20
612.700928
 10
349.528748
 20
611.547913
 10
349.528748
 20
610.327576
 10
349.528748
 20
609.041138
 10
349.528748
 20
607.69043
 10
349.528748
 20
606.277222
 10
349.528748
 20
604.803528
 10
349.528748
 20
603.271118
 10
349.528748
 20
601.681885
 10
349.528748
 20
600.03772
 10
349.528748
 20
598.340576
 10
349.528748
 20
596.592163
 10
349.528748
 20
594.794617
 10
349.528748
 20
592.950195
 10
349.528748
 20
591.061218
 10
349.528748
 20
589.130249
 10
349.528748
 20
587.159607
 10
349.528748
 20
585.151672
 10
349.528748
 20
583.108948
 10
349.528748
 20
581.033813
 10
349.528748
 20
578.928589
 10
349.528748
 20
576.795898
 10
349.528748
 20
574.638245
 10
349.528748
 20
572.458435
 10
349.528748
 20
570.259155
 10
349.528748
 20
568.043091
 10
349.528748
 20
565.812988
 10
349.528748
 20
563.571533
 10
349.528748
 20
561.321411
 10
349.528748
 20
559.06543
 10
349.528748
 20
556.806213
 10
349.528748
 20
554.54657
 10
349.528748
 20
552.289185
 10
349.528748
 20
550.036804
 10
349.528748
 20
547.792236
 10
349.528748
 20
545.558167
 10
349.528748
 20
543.337341
 10
349.528748
 20
541.132568
 10
349.528748
 20
538.946594
 10
349.528748
 20
536.782043
 10
349.528748
 20
534.641479
 10
349.528748
 20
532.527466
 10
349.528748
 20
530.442505
 10
349.528748
 20
528.389099
 10
349.528748
 20
526.36969
 10
349.528748
 20
524.386902
 10
349.528748
 20
522.443176
 10
349.528748
 20
520.541077
 10
349.528748
 20
518.682983
 10
349.528748
 20
516.871033
 10
349.528748
 20
515.107239
 10
349.528748
 20
513.393616
 10
349.528748
 20
511.7323
 10
349.528748
 20
510.125244
 10
349.528748
 20
508.574524
 10
349.528748
 20
507.082123
 10
349.528748
 20
505.650116
 10
349.528748
 20
504.280396
 10
349.528748
 20
502.974457
 10
349.528748
 20
501.733643
 10
349.528748
 20
500.559265
 10
349.528748
 20
499.452728
 10
349.528748
 20
498.415314
 10
349.528748
 20
497.448395
 10
349.528748
 20
496.553345
 10
349.528748
 20
495.731476
 10
349.528748
 20
494.984009
 10
349.528748
 20
494.311676
 10
349.528748
 20
493.715027
 10
349.528748
 20
493.194611
 10
349.528748
 20
492.751038
 10
349.528748
 20
492.384857
 10
349.528748
 20
492.096619
 10
349.528748
 20
491.886932
 10
349.528748
 20
491.755615
  0
LWPOLYLINE
  5
16A
330
156
100
AcDbEntity
  8
0
  6
Continuous
 62
     0
370
     0
100
AcDbPolyline
 90
       93
 70
     0
 43
0.0
 10
348.171265
 20
621.400757
 10
348.171265
 20
621.4505
 10
348.171265
 20
621.4375
 10
348.171265
 20
621.359436
 10
348.171265
 20
621.214172
 10
348.171265
 20
620.999634
 10
348.171265
 20
620.713867
 10
348.171265
 20
620.355225
 10
348.171265
 20
619.92218
 10
348.171265
 20
619.41333
 10
348.171265
 20
618.827698
 10
348.171265
 20
618.164307
 10
348.171265
 20
617.422729
 10
348.171265
 20
616.602539
 10
348.171265
 20
615.703796
 10
348.171265
 20
614.726807
 10
348.171265
 20
613.672119
 10
348.171265
 20
612.540649
 10
348.171265
 20
611.333679
 10
348.171265
 20
610.052612
 10
348.171265
 20
608.699402
 10
348.171265
 20
607.276123
 10
348.171265
 20
605.785278
 10
348.171265
 20
604.229492
 10
348.171265
 20
602.611755
 10
348.171265
 20
600.935242
 10
348.171265
 20
599.20343
 10
348.171265
 20
597.419922
 10
348.171265
 20
595.58844
 10
348.171265
 20
593.713074
 10
348.171265
 20
591.797729
 10
348.171265
 20
589.846619
 10
348.171265
 20
587.863953
 10
348.171265
 20
585.853943
 10
348.171265
 20
583.820801
 10
348.171265
 20
581.76886
 10
348.171265
 20
579.702271
 10
348.171265
 20
577.625122
 10
348.171265
 20
575.541443
 10
348.171265
 20
573.455139
 10
348.171265
 20
571.370056
 10
348.171265
 20
569.289734
 10
348.171265
 20
567.217712
 10
348.171265
 20
565.157288
 10
348.171265
 20
563.111572
 10
348.171265
 20
561.083496
 10
348.171265
 20
559.075806
 10
348.171265
 20
557.065857
 10
348.171265
 20
555.030396
 10
348.171265
 20
552.971924
 10
348.171265
 20
550.89325
 10
348.171265
 20
548.797363
 10
348.171265
 20
546.687378
 10
348.171265
 20
544.56665
 10
348.171265
 20
542.438721
 10
348.171265
 20
540.307251
 10
348.171265
 20
538.176086
 10
348.171265
 20
536.049255
 10
348.171265
 20
533.930786
 10
348.171265
 20
531.824829
 10
348.171265
 20
529.735657
 10
348.171265
 20
527.667542
 10
348.171265
 20
525.624817
 10
348.171265
 20
523.611755
 10
348.171265
 20
521.632568
 10
348.171265
 20
519.691528
 10
348.171265
 20
517.792725
 10
348.171265
 20
515.940125
 10
348.171265
 20
514.137512
 10
348.171265
 20
512.38855
 10
348.171265
 20
510.696777
 10
348.171265
 20
509.065308
 10
348.171265
 20
507.497223
 10
348.171265
 20
505.995209
 10
348.171265
 20
504.561737
 10
348.171265
 20
503.198944
 10
348.171265
 20
501.908752
 10
348.171265
 20
500.692657
 10
348.171265
 20
499.551941
 10
348.171265
 20
498.487549
 10
348.171265
 20
497.500122
 10
348.171265
 20
496.589996
 10
348.171265
 20
495.757172
 10
348.171265
 20
495.001465
 10
348.171265
 20
494.322327
 10
348.171265
 20
493.718994
 10
348.171265
 20
493.19043
 10
348.171265
 20
492.735413
 10
348.171265
 20
492.352478
 10
348.171265
 20
492.040009
 10
348.171265
 20
491.796204
 10
348.171265
 20
491.61911
 10
348.171265
 20
491.505798
  0
LINE
  5
16B
330
156
100
AcDbEntity
  8
0
  6
Continuous
 62
     0
370
     0
100
AcDbLine
 10
349.27876
 20
491.505806
 30
0.0
 11
349.278761
 21
621.400734
 31
0.0
  0
LINE
  5
16C
330
156
100
AcDbEntity
  8
0
  6
Continuous
 62
     0
370
    30
100
AcDbLine
 10
347.028761
 20
575.70327
 30
0.0
 11
347.02876
 21
537.218829
 31
0.0
  0
ARC
  5
16D
330
156
100
AcDbEntity
  8
0
  6
Continuous
 62
     0
370
    30
100
AcDbCircle
 10
2456.533991
 20
555.885485
 30
0.0
 40
2109.587817793245
100
AcDbArc
 50
180.506987
 51
181.742223
  0
LINE
  5
16E
330
156
100
AcDbEntity
  8
0
  6
Continuous
 62
     0
370
     0
100
AcDbLine
 10
347.921379
 20
491.748015
 30
0.0
 11
347.921379
 21
621.158525
 31
0.0
  0
LINE
  5
16F
330
156
100
AcDbEntity
  8
0
  6
Continuous
 62
     0
370
    30
100
AcDbLine
 10
357.42876
 20
491.755604
 30
0.0
 11
357.428761
 21
621.150936
 31
0.0
  0
LWPOLYLINE
  5
170
330
156
100
AcDbEntity
  8
0
  6
Continuous
 62
     0
370
     0
100
AcDbPolyline
 90
       17
 70
     0
 43
0.0
 10
354.028748
 20
492.505005
 10
353.987061
 20
492.489868
 10
353.868317
 20
492.477692
 10
353.674683
 20
492.468719
 10
353.414093
 20
492.462524
 10
353.096985
 20
492.458618
 10
352.73526
 20
492.456421
 10
352.341583
 20
492.455322
 10
351.93222
 20
492.455017
 10
351.522766
 20
492.455322
 10
351.128723
 20
492.45639
 10
350.766357
 20
492.458588
 10
350.448212
 20
492.462463
 10
350.186768
 20
492.468597
 10
349.991852
 20
492.477539
 10
349.871765
 20
492.489624
 10
349.828766
 20
492.505005
  0
LWPOLYLINE
  5
171
330
156
100
AcDbEntity
  8
0
  6
Continuous
 62
     0
370
     0
100
AcDbPolyline
 90
       17
 70
     0
 43
0.0
 10
349.828766
 20
492.505005
 10
349.870392
 20
492.522827
 10
349.989197
 20
492.542419
 10
350.182922
 20
492.562531
 10
350.443329
 20
492.581879
 10
350.760651
 20
492.598907
 10
351.122345
 20
492.612274
 10
351.515961
 20
492.62085
 10
351.925323
 20
492.62384
 10
352.334808
 20
492.620941
 10
352.728851
 20
492.612488
 10
353.091248
 20
492.599152
 10
353.40921
 20
492.582184
 10
353.670837
 20
492.562866
 10
353.865662
 20
492.542755
 10
353.985718
 20
492.523132
 10
354.028748
 20
492.505005
  0
LWPOLYLINE
  5
172
330
156
100
AcDbEntity
  8
0
  6
Continuous
 62
     0
370
    30
100
AcDbPolyline
 90
       53
 70
     0
 43
0.0
 10
294.180695
 20
534.953247
 10
294.180695
 20
534.992432
 10
294.180695
 20
535.110046
 10
294.180695
 20
535.30542
 10
294.180695
 20
535.577637
 10
294.180695
 20
535.926025
 10
294.180695
 20
536.34967
 10
294.180695
 20
536.84668
 10
294.180695
 20
537.415039
 10
294.180695
 20
538.052551
 10
294.180695
 20
538.75708
 10
294.180695
 20
539.526489
 10
294.180695
 20
540.357788
 10
294.180695
 20
541.247742
 10
294.180695
 20
542.192932
 10
294.180695
 20
543.190002
 10
294.180695
 20
544.235535
 10
294.180695
 20
545.325867
 10
294.180695
 20
546.456787
 10
294.180695
 20
547.624023
 10
294.180695
 20
548.823303
 10
294.180695
 20
550.050476
 10
294.180695
 20
551.301147
 10
294.180695
 20
552.570618
 10
294.180695
 20
553.854248
 10
294.180695
 20
555.147278
 10
294.180695
 20
556.445007
 10
294.180695
 20
557.742798
 10
294.180695
 20
559.03595
 10
294.180695
 20
560.319702
 10
294.180695
 20
561.589417
 10
294.180695
 20
562.840332
 10
294.180695
 20
564.06781
 10
294.180695
 20
565.267517
 10
294.180695
 20
566.43512
 10
294.180695
 20
567.566528
 10
294.180695
 20
568.65741
 10
294.180695
 20
569.703552
 10
294.180695
 20
570.701294
 10
294.180695
 20
571.647156
 10
294.180695
 20
572.537781
 10
294.180695
 20
573.369873
 10
294.180695
 20
574.140076
 10
294.180695
 20
574.845398
 10
294.180695
 20
575.483826
 10
294.180695
 20
576.05304
 10
294.180695
 20
576.551025
 10
294.180695
 20
576.975586
 10
294.180695
 20
577.324951
 10
294.180695
 20
577.598145
 10
294.180695
 20
577.794495
 10
294.180695
 20
577.913147
 10
294.180695
 20
577.953247
  0
LINE
  5
173
330
156
100
AcDbEntity
  8
0
  6
Continuous
 62
     0
370
    30
100
AcDbLine
 10
294.180702
 20
534.95327
 30
0.0
 11
294.680702
 21
534.45327
 31
0.0
  0
LINE
  5
174
330
156
100
AcDbEntity
  8
0
  6
Continuous
 62
     0
370
    30
100
AcDbLine
 10
294.680702
 20
534.45327
 30
0.0
 11
294.680702
 21
578.45327
 31
0.0
  0
LINE
  5
175
330
156
100
AcDbEntity
  8
0
  6
Continuous
 62
     0
370
    30
100
AcDbLine
 10
307.930702
 20
534.45327
 30
0.0
 11
344.180702
 21
534.45327
 31
0.0
  0
LINE
  5
176
330
156
100
AcDbEntity
  8
0
  6
Continuous
 62
     0
370
    30
100
AcDbLine
 10
344.180702
 20
534.45327
 30
0.0
 11
344.180702
 21
578.45327
 31
0.0
  0
LINE
  5
177
330
156
100
AcDbEntity
  8
0
  6
Continuous
 62
     0
370
    30
100
AcDbLine
 10
298.430702
 20
534.45327
 30
0.0
 11
294.680702
 21
534.45327
 31
0.0
  0
LWPOLYLINE
  5
178
330
156
100
AcDbEntity
  8
0
  6
Continuous
 62
     0
370
     0
100
AcDbPolyline
 90
       26
 70
     0
 43
0.0
 10
298.430695
 20
534.453247
 10
298.468292
 20
534.461365
 10
298.580841
 20
534.485107
 10
298.766235
 20
534.52301
 10
299.019043
 20
534.572693
 10
299.335236
 20
534.631226
 10
299.71582
 20
534.694519
 10
300.151001
 20
534.759094
 10
300.630493
 20
534.821289
 10
301.150879
 20
534.876709
 10
301.705109
 20
534.921631
 10
302.283173
 20
534.953247
 10
302.875763
 20
534.970032
 10
303.473297
 20
534.970215
 10
304.066071
 20
534.953796
 10
304.644531
 20
534.922424
 10
305.199371
 20
534.877747
 10
305.720551
 20
534.82251
 10
306.200897
 20
534.760376
 10
306.637085
 20
534.695862
 10
307.018921
 20
534.632507
 10
307.336456
 20
534.573853
 10
307.590607
 20
534.523926
 10
307.777466
 20
534.485779
 10
307.891541
 20
534.461731
 10
307.930695
 20
534.453247
  0
LWPOLYLINE
  5
179
330
156
100
AcDbEntity
  8
0
  6
Continuous
 62
     0
370
     0
100
AcDbPolyline
 90
       24
 70
     0
 43
0.0
 10
307.280701
 20
578.453247
 10
307.242401
 20
578.446167
 10
307.127777
 20
578.425354
 10
306.939697
 20
578.392517
 10
306.684204
 20
578.349792
 10
306.363342
 20
578.300598
 10
305.979889
 20
578.248657
 10
305.546967
 20
578.197205
 10
305.071228
 20
578.150208
 10
304.55835
 20
578.111633
 10
304.019226
 20
578.084229
 10
303.464325
 20
578.069763
 10
302.904022
 20
578.069641
 10
302.348999
 20
578.083984
 10
301.809631
 20
578.111267
 10
301.296417
 20
578.149719
 10
300.820068
 20
578.196594
 10
300.386536
 20
578.247986
 10
300.002472
 20
578.299988
 10
299.680847
 20
578.349243
 10
299.42453
 20
578.392029
 10
299.235535
 20
578.425049
 10
299.120056
 20
578.445984
 10
299.081085
 20
578.453247
  0
LINE
  5
17A
330
156
100
AcDbEntity
  8
0
  6
Continuous
 62
     0
370
    30
100
AcDbLine
 10
307.130702
 20
585.78327
 30
0.0
 11
299.230702
 21
585.78327
 31
0.0
  0
LWPOLYLINE
  5
17B
330
156
100
AcDbEntity
  8
0
  6
Continuous
 62
     0
370
    30
100
AcDbPolyline
 90
       22
 70
     0
 43
0.0
 10
299.730713
 20
586.283264
 10
299.769165
 20
586.283264
 10
299.883606
 20
586.283264
 10
300.071716
 20
586.283264
 10
300.328949
 20
586.283264
 10
300.649872
 20
586.283264
 10
301.027161
 20
586.283264
 10
301.452484
 20
586.283264
 10
301.91629
 20
586.283264
 10
302.408325
 20
586.283264
 10
302.917572
 20
586.283264
 10
303.432648
 20
586.283264
 10
303.942139
 20
586.283264
 10
304.434662
 20
586.283264
 10
304.8992
 20
586.283264
 10
305.32547
 20
586.283264
 10
305.703888
 20
586.283264
 10
306.026123
 20
586.283264
 10
306.284821
 20
586.283264
 10
306.474457
 20
586.283264
 10
306.590546
 20
586.283264
 10
306.630707
 20
586.283264
  0
LINE
  5
17C
330
156
100
AcDbEntity
  8
0
  6
Continuous
 62
     0
370
    30
100
AcDbLine
 10
299.730702
 20
586.28327
 30
0.0
 11
299.230702
 21
585.78327
 31
0.0
  0
LINE
  5
17D
330
156
100
AcDbEntity
  8
0
  6
Continuous
 62
     0
370
    30
100
AcDbLine
 10
299.230702
 20
578.45327
 30
0.0
 11
299.230702
 21
585.78327
 31
0.0
  0
LWPOLYLINE
  5
17E
330
156
100
AcDbEntity
  8
0
  6
Continuous
 62
     0
370
    30
100
AcDbPolyline
 90
       24
 70
     0
 43
0.0
 10
299.230713
 20
578.453247
 10
299.267517
 20
578.446716
 10
299.377258
 20
578.427429
 10
299.557526
 20
578.396973
 10
299.804871
 20
578.357483
 10
300.114532
 20
578.31189
 10
300.480804
 20
578.26355
 10
300.897034
 20
578.215942
 10
301.355835
 20
578.172546
 10
301.848969
 20
578.136719
 10
302.367371
 20
578.111023
 10
302.901367
 20
578.097595
 10
303.440704
 20
578.097351
 10
303.975067
 20
578.110352
 10
304.494202
 20
578.13562
 10
304.988403
 20
578.171143
 10
305.448608
 20
578.214294
 10
305.866486
 20
578.26178
 10
306.23468
 20
578.310181
 10
306.546448
 20
578.355896
 10
306.796112
 20
578.395691
 10
306.978912
 20
578.426514
 10
307.091187
 20
578.446228
 10
307.130676
 20
578.453247
  0
LINE
  5
17F
330
156
100
AcDbEntity
  8
0
  6
Continuous
 62
     0
370
    30
100
AcDbLine
 10
347.028761
 20
575.45327
 30
0.0
 11
344.180702
 21
575.45327
 31
0.0
  0
LINE
  5
180
330
156
100
AcDbEntity
  8
0
  6
Continuous
 62
     0
370
    30
100
AcDbLine
 10
347.028761
 20
537.45327
 30
0.0
 11
344.180702
 21
537.45327
 31
0.0
  0
ARC
  5
181
330
156
100
AcDbEntity
  8
0
  6
Continuous
 62
     0
370
    30
100
AcDbCircle
 10
357.178748
 20
621.202702
 30
0.0
 40
0.2500127843498443
100
AcDbArc
 50
0.400407
 51
89.99706
  0
ARC
  5
182
330
156
100
AcDbEntity
  8
0
  6
Continuous
 62
     0
370
    30
100
AcDbCircle
 10
357.178757
 20
491.703507
 30
0.0
 40
0.2500035544706392
100
AcDbArc
 50
270.000815
 51
359.996009
  0
ARC
  5
183
330
156
100
AcDbEntity
  8
0
  6
Continuous
 62
     0
370
    30
100
AcDbCircle
 10
356.078764
 20
491.703507
 30
0.0
 40
0.2500035544729841
100
AcDbArc
 50
180.003991
 51
269.999185
  0
ARC
  5
184
330
156
100
AcDbEntity
  8
0
  6
Continuous
 62
     0
370
    30
100
AcDbCircle
 10
356.078747
 20
621.202729
 30
0.0
 40
0.2499858859584329
100
AcDbArc
 50
89.996818
 51
179.605715
  0
ARC
  5
185
330
156
100
AcDbEntity
  8
0
  6
Continuous
 62
     0
370
    30
100
AcDbCircle
 10
355.578748
 20
492.203487
 30
0.0
 40
0.2500123501464464
100
AcDbArc
 50
0.035306
 51
89.997171
  0
ARC
  5
186
330
156
100
AcDbEntity
  8
0
  6
Continuous
 62
     0
370
    30
100
AcDbCircle
 10
355.57875
 20
620.702734
 30
0.0
 40
0.250010725703927
100
AcDbArc
 50
270.002458
 51
359.996529
  0
ARC
  5
187
330
156
100
AcDbEntity
  8
0
  6
Continuous
 62
     0
370
    30
100
AcDbCircle
 10
349.778773
 20
492.203487
 30
0.0
 40
0.2500123445588526
100
AcDbArc
 50
90.002828
 51
179.967008
  0
ARC
  5
188
330
156
100
AcDbEntity
  8
0
  6
Continuous
 62
     0
370
    30
100
AcDbCircle
 10
349.778771
 20
620.702734
 30
0.0
 40
0.2500107503252564
100
AcDbArc
 50
180.003419
 51
269.997536
  0
ARC
  5
189
330
156
100
AcDbEntity
  8
0
  6
Continuous
 62
     0
370
    30
100
AcDbCircle
 10
349.278757
 20
491.703507
 30
0.0
 40
0.2500035544744301
100
AcDbArc
 50
270.000815
 51
359.996009
  0
ARC
  5
18A
330
156
100
AcDbEntity
  8
0
  6
Continuous
 62
     0
370
    30
100
AcDbCircle
 10
349.278774
 20
621.202729
 30
0.0
 40
0.2499858859476304
100
AcDbArc
 50
0.394285
 51
90.003182
  0
ARC
  5
18B
330
156
100
AcDbEntity
  8
0
  6
Continuous
 62
     0
370
    30
100
AcDbCircle
 10
348.171266
 20
491.703506
 30
0.0
 40
0.2500025840511695
100
AcDbArc
 50
181.744557
 51
269.999432
  0
ARC
  5
18C
330
156
100
AcDbEntity
  8
0
  6
Continuous
 62
     0
370
    30
100
AcDbCircle
 10
348.171276
 20
621.202702
 30
0.0
 40
0.2500122556333168
100
AcDbArc
 50
90.002721
 51
177.859303
  0
ARC
  5
18D
330
156
100
AcDbEntity
  8
0
  6
Continuous
 62
     0
370
    30
100
AcDbCircle
 10
2459.946862
 20
555.885019
 30
0.0
 40
2113.000688632838
100
AcDbArc
 50
180.506578
 51
181.740816
  0
ARC
  5
18E
330
156
100
AcDbEntity
  8
0
  6
Continuous
 62
     0
370
    30
100
AcDbCircle
 10
2459.946862
 20
557.02152
 30
0.0
 40
2113.000688632595
100
AcDbArc
 50
178.259184
 51
179.493422
  0
LINE
  5
18F
330
156
100
AcDbEntity
  8
0
  6
Continuous
 62
     0
370
    30
100
AcDbLine
 10
348.171264
 20
491.45327
 30
0.0
 11
349.278761
 21
491.45327
 31
0.0
  0
LINE
  5
190
330
156
100
AcDbEntity
  8
0
  6
Continuous
 62
     0
370
    30
100
AcDbLine
 10
348.171264
 20
621.45327
 30
0.0
 11
349.278761
 21
621.45327
 31
0.0
  0
LINE
  5
191
330
156
100
AcDbEntity
  8
0
  6
Continuous
 62
     0
370
    30
100
AcDbLine
 10
349.778761
 20
492.45327
 30
0.0
 11
355.578761
 21
492.45327
 31
0.0
  0
LINE
  5
192
330
156
100
AcDbEntity
  8
0
  6
Continuous
 62
     0
370
    30
100
AcDbLine
 10
349.778761
 20
620.45327
 30
0.0
 11
355.578761
 21
620.45327
 31
0.0
  0
LINE
  5
193
330
156
100
AcDbEntity
  8
0
  6
Continuous
 62
     0
370
    30
100
AcDbLine
 10
356.078761
 20
491.45327
 30
0.0
 11
357.178761
 21
491.45327
 31
0.0
  0
LINE
  5
194
330
156
100
AcDbEntity
  8
0
  6
Continuous
 62
     0
370
    30
100
AcDbLine
 10
356.078761
 20
621.45327
 30
0.0
 11
357.178761
 21
621.45327
 31
0.0
  0
LINE
  5
195
330
156
100
AcDbEntity
  8
0
  6
Continuous
 62
     0
370
    30
100
AcDbLine
 10
306.630702
 20
586.28327
 30
0.0
 11
307.130702
 21
585.78327
 31
0.0
  0
LINE
  5
196
330
156
100
AcDbEntity
  8
0
  6
Continuous
 62
     0
370
    30
100
AcDbLine
 10
307.130702
 20
585.78327
 30
0.0
 11
307.130702
 21
578.45327
 31
0.0
  0
LINE
  5
197
330
156
100
AcDbEntity
  8
0
  6
Continuous
 62
     0
370
    30
100
AcDbLine
 10
307.280702
 20
578.45327
 30
0.0
 11
307.13074
 21
578.45327
 31
0.0
  0
LINE
  5
198
330
156
100
AcDbEntity
  8
0
  6
Continuous
 62
     0
370
    30
100
AcDbLine
 10
299.081099
 20
578.45327
 30
0.0
 11
299.230702
 21
578.45327
 31
0.0
  0
LINE
  5
199
330
156
100
AcDbEntity
  8
0
  6
Continuous
 62
     0
370
    30
100
AcDbLine
 10
307.930702
 20
534.45327
 30
0.0
 11
298.430702
 21
534.45327
 31
0.0
  0
LINE
  5
19A
330
156
100
AcDbEntity
  8
0
  6
Continuous
 62
     0
370
    30
100
AcDbLine
 10
344.180702
 20
578.45327
 30
0.0
 11
307.280702
 21
578.45327
 31
0.0
  0
LINE
  5
19B
330
156
100
AcDbEntity
  8
0
  6
Continuous
 62
     0
370
    30
100
AcDbLine
 10
294.680702
 20
578.45327
 30
0.0
 11
299.081099
 21
578.45327
 31
0.0
  0
LINE
  5
19C
330
156
100
AcDbEntity
  8
0
  6
Continuous
 62
     0
370
    30
100
AcDbLine
 10
294.180702
 20
577.95327
 30
0.0
 11
294.680702
 21
578.45327
 31
0.0
  0
LINE
  5
19D
330
156
100
AcDbEntity
  8
0
  6
Continuous
 62
     0
370
    30
100
AcDbLine
 10
333.277865
 20
704.70327
 30
0.0
 11
336.579778
 21
704.70327
 31
0.0
  0
LINE
  5
19E
330
156
100
AcDbEntity
  8
0
  6
Continuous
 62
     0
370
    30
100
AcDbLine
 10
341.277865
 20
704.70327
 30
0.0
 11
344.579778
 21
704.70327
 31
0.0
  0
LINE
  5
19F
330
156
100
AcDbEntity
  8
0
  6
Continuous
 62
     0
370
    30
100
AcDbLine
 10
331.361552
 20
648.20327
 30
0.0
 11
347.928761
 21
648.20327
 31
0.0
  0
LINE
  5
1A0
330
156
100
AcDbEntity
  8
0
  6
Continuous
 62
     0
370
    30
100
AcDbLine
 10
347.928761
 20
704.70327
 30
0.0
 11
344.579922
 21
704.70327
 31
0.0
  0
LINE
  5
1A1
330
156
100
AcDbEntity
  8
0
  6
Continuous
 62
     0
370
    30
100
AcDbLine
 10
341.2778
 20
704.70327
 30
0.0
 11
336.579922
 21
704.70327
 31
0.0
  0
LINE
  5
1A2
330
156
100
AcDbEntity
  8
0
  6
Continuous
 62
     0
370
    30
100
AcDbLine
 10
333.2778
 20
704.70327
 30
0.0
 11
331.361552
 21
704.70327
 31
0.0
  0
ARC
  5
1A3
330
156
100
AcDbEntity
  8
0
  6
Continuous
 62
     0
370
    30
100
AcDbCircle
 10
331.361561
 20
703.702615
 30
0.0
 40
1.000010967652411
100
AcDbArc
 50
90.000503
 51
175.975116
  0
ARC
  5
1A4
330
156
100
AcDbEntity
  8
0
  6
Continuous
 62
     0
370
    30
100
AcDbCircle
 10
331.361568
 20
649.203534
 30
0.0
 40
1.000017156228088
100
AcDbArc
 50
183.95923
 51
269.999115
  0
ARC
  5
1A5
330
156
100
AcDbEntity
  8
0
  6
Continuous
 62
     0
370
    30
100
AcDbCircle
 10
729.431247
 20
676.453225
 30
0.0
 40
400.0013118722796
100
AcDbArc
 50
176.0839
 51
179.999994
  0
ARC
  5
1A6
330
156
100
AcDbEntity
  8
0
  6
Continuous
 62
     0
370
    30
100
AcDbCircle
 10
729.43129
 20
676.453316
 30
0.0
 40
400.0013549410448
100
AcDbArc
 50
180.004314
 51
183.912869
  0
LINE
  5
1A7
330
156
100
AcDbEntity
  8
0
  6
Continuous
 62
     0
370
    30
100
AcDbLine
 10
348.428761
 20
649.853431
 30
0.0
 11
347.928761
 21
649.853431
 31
0.0
  0
LINE
  5
1A8
330
156
100
AcDbEntity
  8
0
  6
Continuous
 62
     0
370
    30
100
AcDbLine
 10
348.428761
 20
703.053529
 30
0.0
 11
347.928761
 21
703.053529
 31
0.0
  0
LINE
  5
1A9
330
156
100
AcDbEntity
  8
0
  6
Continuous
 62
     0
370
    30
100
AcDbLine
 10
355.828761
 20
706.95327
 30
0.0
 11
357.428761
 21
706.95327
 31
0.0
  0
LINE
  5
1AA
330
156
100
AcDbEntity
  8
0
  6
Continuous
 62
     0
370
    30
100
AcDbLine
 10
357.428761
 20
645.95327
 30
0.0
 11
355.828761
 21
645.95327
 31
0.0
  0
LINE
  5
1AB
330
156
100
AcDbEntity
  8
0
  6
Continuous
 62
     0
370
    30
100
AcDbLine
 10
350.028761
 20
705.90327
 30
0.0
 11
355.828761
 21
705.90327
 31
0.0
  0
LINE
  5
1AC
330
156
100
AcDbEntity
  8
0
  6
Continuous
 62
     0
370
    30
100
AcDbLine
 10
355.828761
 20
647.00327
 30
0.0
 11
350.028761
 21
647.00327
 31
0.0
  0
LINE
  5
1AD
330
156
100
AcDbEntity
  8
0
  6
Continuous
 62
     0
370
    30
100
AcDbLine
 10
348.428761
 20
645.95327
 30
0.0
 11
350.028761
 21
645.95327
 31
0.0
  0
LINE
  5
1AE
330
156
100
AcDbEntity
  8
0
  6
Continuous
 62
     0
370
    30
100
AcDbLine
 10
348.428761
 20
706.95327
 30
0.0
 11
350.028761
 21
706.95327
 31
0.0
  0
ENDBLK
  5
1B0
330
156
100
AcDbEntity
  8
0
100
AcDbBlockEnd
  0
ENDSEC
  0
SECTION
  2
ENTITIES
  0
INSERT
  5
98
330
1F
100
AcDbEntity
  8
0
  6
Continuous
 62
     7
420
 16250871
370
     0
100
AcDbBlockReference
  2
a
 10
419.946777
 20
189.573288
 30
0.0
  0
INSERT
  5
F4
330
1F
100
AcDbEntity
  8
0
  6
Continuous
 62
     7
420
 16250871
370
     0
100
AcDbBlockReference
  2
b
 10
419.946838
 20
331.858871
 30
0.0
  0
INSERT
  5
155
330
1F
100
AcDbEntity
  8
0
  6
Continuous
 62
     7
420
 16250871
370
     0
100
AcDbBlockReference
  2
c
 10
469.637573
 20
189.573288
 30
0.0
  0
INSERT
  5
1B1
330
1F
100
AcDbEntity
  8
0
  6
Continuous
 62
     7
420
 16250871
370
     0
100
AcDbBlockReference
  2
d
 10
402.344971
 20
0.0
 30
0.0
  0
ENDSEC
  0
SECTION
  2
OBJECTS
  0
DICTIONARY
  5
C
330
0
100
AcDbDictionary
281
     1
  3
ACAD_DETAILVIEWSTYLE
350
1E9
  3
ACAD_GROUP
350
D
  3
ACAD_LAYOUT
350
1A
  3
ACAD_MATERIAL
350
43
  3
ACAD_MLEADERSTYLE
350
6B
  3
ACAD_MLINESTYLE
350
17
  3
ACAD_PLOTSETTINGS
350
19
  3
ACAD_PLOTSTYLENAME
350
E
  3
ACAD_SCALELIST
350
47
  3
ACAD_SECTIONVIEWSTYLE
350
1EA
  3
ACAD_TABLESTYLE
350
69
  3
ACAD_VISUALSTYLE
350
2A
  3
ACDB_RECOMPOSE_DATA
350
1E6
  3
AcDbVariableDictionary
350
1B2
  0
SUN
  5
6D
330
29
100
AcDbSun
 90
        1
290
     0
 63
     7
421
 16777215
 40
1.0
291
     1
 91
  2455826
 92
 54000000
292
     0
 70
     2
 71
   256
280
     1
  0
DICTIONARY
  5
1E9
102
{ACAD_REACTORS
330
C
102
}
330
C
100
AcDbDictionary
281
     1
  0
DICTIONARY
  5
D
102
{ACAD_REACTORS
330
C
102
}
330
C
100
AcDbDictionary
281
     1
  0
DICTIONARY
  5
1A
102
{ACAD_REACTORS
330
C
102
}
330
C
100
AcDbDictionary
281
     1
  3
Layout1
350
1E
  3
Layout2
350
26
  3
Model
350
22
  0
DICTIONARY
  5
43
102
{ACAD_REACTORS
330
C
102
}
330
C
100
AcDbDictionary
281
     1
  3
ByBlock
350
45
  3
ByLayer
350
44
  3
Global
350
46
  0
DICTIONARY
  5
6B
102
{ACAD_REACTORS
330
C
102
}
330
C
100
AcDbDictionary
281
     1
  3
Standard
350
6C
  0
DICTIONARY
  5
17
102
{ACAD_REACTORS
330
C
102
}
330
C
100
AcDbDictionary
281
     1
  3
Standard
350
18
  0
DICTIONARY
  5
19
102
{ACAD_REACTORS
330
C
102
}
330
C
100
AcDbDictionary
281
     1
  0
ACDBDICTIONARYWDFLT
  5
E
102
{ACAD_REACTORS
330
C
102
}
330
C
100
AcDbDictionary
281
     1
  3
Normal
350
F
100
AcDbDictionaryWithDefault
340
F
  0
DICTIONARY
  5
47
102
{ACAD_REACTORS
330
C
102
}
330
C
100
AcDbDictionary
281
     1
  3
A0
350
48
  3
A1
350
49
  3
A2
350
4A
  3
A3
350
4B
  3
A4
350
4C
  3
A5
350
4D
  3
A6
350
4E
  3
A7
350
4F
  3
A8
350
50
  3
A9
350
51
  3
B0
350
52
  3
B1
350
53
  3
B2
350
54
  3
B3
350
55
  3
B4
350
56
  3
B5
350
57
  3
B6
350
58
  3
B7
350
59
  3
B8
350
5A
  3
B9
350
5B
  3
C0
350
5C
  3
C1
350
5D
  3
C2
350
5E
  3
C3
350
5F
  3
C4
350
60
  3
C5
350
61
  3
C6
350
62
  3
C7
350
63
  3
C8
350
64
  3
C9
350
65
  3
D0
350
66
  3
D1
350
67
  3
D2
350
68
  0
DICTIONARY
  5
1EA
102
{ACAD_REACTORS
330
C
102
}
330
C
100
AcDbDictionary
281
     1
  0
DICTIONARY
  5
69
102
{ACAD_REACTORS
330
C
102
}
330
C
100
AcDbDictionary
281
     1
  3
Standard
350
6A
  0
DICTIONARY
  5
2A
102
{ACAD_REACTORS
330
C
102
}
330
C
100
AcDbDictionary
281
     1
  3
2dWireframe
350
2F
  3
Basic
350
32
  3
Brighten
350
36
  3
ColorChange
350
3A
  3
Conceptual
350
34
  3
Dim
350
35
  3
EdgeColorOff
350
3D
  3
Facepattern
350
39
  3
Flat
350
2B
  3
FlatWithEdges
350
2C
  3
Gouraud
350
2D
  3
GouraudWithEdges
350
2E
  3
Hidden
350
31
  3
JitterOff
350
3B
  3
Linepattern
350
38
  3
OverhangOff
350
3C
  3
Realistic
350
33
  3
Shaded
350
42
  3
Shaded with edges
350
41
  3
Shades of Gray
350
3E
  3
Sketchy
350
3F
  3
Thicken
350
37
  3
Wireframe
350
30
  3
X-Ray
350
40
  0
XRECORD
  5
1E6
102
{ACAD_REACTORS
330
C
102
}
330
C
100
AcDbXrecord
280
     1
 90
        1
330
6A
  0
DICTIONARY
  5
1B2
102
{ACAD_REACTORS
330
C
102
}
330
C
100
AcDbDictionary
281
     1
  3
CANNOSCALE
350
1B3
  3
CMLEADERSTYLE
350
1E8
  3
CTABLESTYLE
350
1E7
  0
LAYOUT
  5
1E
102
{ACAD_REACTORS
330
1A
102
}
330
1A
100
AcDbPlotSettings
  1

  2
none_device
  4

  6

 40
0.0
 41
0.0
 42
0.0
 43
0.0
 44
0.0
 45
0.0
 46
0.0
 47
0.0
 48
0.0
 49
0.0
140
0.0
141
0.0
142
1.0
143
1.0
 70
   688
 72
     1
 73
     0
 74
     5
  7

 75
    16
 76
     0
 77
     2
 78
   300
147
1.0
148
0.0
149
0.0
100
AcDbLayout
  1
Layout1
 70
     1
 71
     1
 10
0.0
 20
0.0
 11
420.0
 21
297.0
 12
0.0
 22
0.0
 32
0.0
 14
1.000000E+20
 24
1.000000E+20
 34
1.000000E+20
 15
-1.000000E+20
 25
-1.000000E+20
 35
-1.000000E+20
146
0.0
 13
0.0
 23
0.0
 33
0.0
 16
1.0
 26
0.0
 36
0.0
 17
0.0
 27
1.0
 37
0.0
 76
     0
330
1B
  0
LAYOUT
  5
26
102
{ACAD_REACTORS
330
1A
102
}
330
1A
100
AcDbPlotSettings
  1

  2
none_device
  4

  6

 40
0.0
 41
0.0
 42
0.0
 43
0.0
 44
0.0
 45
0.0
 46
0.0
 47
0.0
 48
0.0
 49
0.0
140
0.0
141
0.0
142
1.0
143
1.0
 70
   688
 72
     1
 73
     0
 74
     5
  7

 75
    16
 76
     0
 77
     2
 78
   300
147
1.0
148
0.0
149
0.0
100
AcDbLayout
  1
Layout2
 70
     1
 71
     2
 10
0.0
 20
0.0
 11
0.0
 21
0.0
 12
0.0
 22
0.0
 32
0.0
 14
0.0
 24
0.0
 34
0.0
 15
0.0
 25
0.0
 35
0.0
146
0.0
 13
0.0
 23
0.0
 33
0.0
 16
1.0
 26
0.0
 36
0.0
 17
0.0
 27
1.0
 37
0.0
 76
     0
330
23
  0
LAYOUT
  5
22
102
{ACAD_REACTORS
330
1A
102
}
330
1A
100
AcDbPlotSettings
  1

  2
none_device
  4
Letter_(8.50_x_11.00_Inches)
  6

 40
6.35
 41
6.35
 42
6.350005
 43
6.350005
 44
215.9
 45
279.4
 46
0.0
 47
0.0
 48
0.0
 49
0.0
140
0.0
141
0.0
142
1.0
143
1.0
 70
  1712
 72
     1
 73
     0
 74
     0
  7

 75
     0
 76
     0
 77
     2
 78
   300
147
1.0
148
0.0
149
0.0
100
AcDbLayout
  1
Model
 70
     1
 71
     0
 10
0.0
 20
0.0
 11
420.0
 21
297.0
 12
0.0
 22
0.0
 32
0.0
 14
1.000000E+20
 24
1.000000E+20
 34
1.000000E+20
 15
-1.000000E+20
 25
-1.000000E+20
 35
-1.000000E+20
146
0.0
 13
0.0
 23
0.0
 33
0.0
 16
1.0
 26
0.0
 36
0.0
 17
0.0
 27
1.0
 37
0.0
 76
     0
330
1F
331
29
  0
MATERIAL
  5
45
102
{ACAD_REACTORS
330
43
102
}
330
43
100
AcDbMaterial
  1
ByBlock
 72
     1
 94
      127
  0
MATERIAL
  5
44
102
{ACAD_REACTORS
330
43
102
}
330
43
100
AcDbMaterial
  1
ByLayer
 72
     1
 94
      127
  0
MATERIAL
  5
46
102
{ACAD_REACTORS
330
43
102
}
330
43
100
AcDbMaterial
  1
Global
 72
     1
 94
      127
  0
MLEADERSTYLE
  5
6C
102
{ACAD_REACTORS
330
6B
102
}
330
6B
100
AcDbMLeaderStyle
179
     2
170
     2
171
     1
172
     0
 90
        2
 40
0.0
 41
0.0
173
     1
 91
-1056964608
340
14
 92
       -2
290
     1
 42
2.0
291
     1
 43
8.0
  3
Standard
341
0
 44
4.0
300

342
11
174
     1
178
     6
175
     1
176
     0
 93
-1056964608
 45
4.0
292
     0
297
     0
 46
4.0
343
0
 94
-1056964608
 47
1.0
 49
1.0
140
1.0
293
     1
141
0.0
294
     1
177
     0
142
1.0
295
     0
296
     0
143
3.75
271
     0
272
     9
273
     9
  0
MLINESTYLE
  5
18
102
{ACAD_REACTORS
330
17
102
}
330
17
100
AcDbMlineStyle
  2
Standard
 70
     0
  3

 62
   256
 51
90.0
 52
90.0
 71
     2
 49
0.5
 62
   256
  6
BYLAYER
 49
-0.5
 62
   256
  6
BYLAYER
  0
ACDBPLACEHOLDER
  5
F
102
{ACAD_REACTORS
330
E
102
}
330
E
  0
SCALE
  5
48
102
{ACAD_REACTORS
330
47
102
}
330
47
100
AcDbScale
 70
     0
300
1:1
140
1.0
141
1.0
290
     1
  0
SCALE
  5
49
102
{ACAD_REACTORS
330
47
102
}
330
47
100
AcDbScale
 70
     0
300
1:2
140
1.0
141
2.0
290
     0
  0
SCALE
  5
4A
102
{ACAD_REACTORS
330
47
102
}
330
47
100
AcDbScale
 70
     0
300
1:4
140
1.0
141
4.0
290
     0
  0
SCALE
  5
4B
102
{ACAD_REACTORS
330
47
102
}
330
47
100
AcDbScale
 70
     0
300
1:5
140
1.0
141
5.0
290
     0
  0
SCALE
  5
4C
102
{ACAD_REACTORS
330
47
102
}
330
47
100
AcDbScale
 70
     0
300
1:8
140
1.0
141
8.0
290
     0
  0
SCALE
  5
4D
102
{ACAD_REACTORS
330
47
102
}
330
47
100
AcDbScale
 70
     0
300
1:10
140
1.0
141
10.0
290
     0
  0
SCALE
  5
4E
102
{ACAD_REACTORS
330
47
102
}
330
47
100
AcDbScale
 70
     0
300
1:16
140
1.0
141
16.0
290
     0
  0
SCALE
  5
4F
102
{ACAD_REACTORS
330
47
102
}
330
47
100
AcDbScale
 70
     0
300
1:20
140
1.0
141
20.0
290
     0
  0
SCALE
  5
50
102
{ACAD_REACTORS
330
47
102
}
330
47
100
AcDbScale
 70
     0
300
1:30
140
1.0
141
30.0
290
     0
  0
SCALE
  5
51
102
{ACAD_REACTORS
330
47
102
}
330
47
100
AcDbScale
 70
     0
300
1:40
140
1.0
141
40.0
290
     0
  0
SCALE
  5
52
102
{ACAD_REACTORS
330
47
102
}
330
47
100
AcDbScale
 70
     0
300
1:50
140
1.0
141
50.0
290
     0
  0
SCALE
  5
53
102
{ACAD_REACTORS
330
47
102
}
330
47
100
AcDbScale
 70
     0
300
1:100
140
1.0
141
100.0
290
     0
  0
SCALE
  5
54
102
{ACAD_REACTORS
330
47
102
}
330
47
100
AcDbScale
 70
     0
300
2:1
140
2.0
141
1.0
290
     0
  0
SCALE
  5
55
102
{ACAD_REACTORS
330
47
102
}
330
47
100
AcDbScale
 70
     0
300
4:1
140
4.0
141
1.0
290
     0
  0
SCALE
  5
56
102
{ACAD_REACTORS
330
47
102
}
330
47
100
AcDbScale
 70
     0
300
8:1
140
8.0
141
1.0
290
     0
  0
SCALE
  5
57
102
{ACAD_REACTORS
330
47
102
}
330
47
100
AcDbScale
 70
     0
300
10:1
140
10.0
141
1.0
290
     0
  0
SCALE
  5
58
102
{ACAD_REACTORS
330
47
102
}
330
47
100
AcDbScale
 70
     0
300
100:1
140
100.0
141
1.0
290
     0
  0
SCALE
  5
59
102
{ACAD_REACTORS
330
47
102
}
330
47
100
AcDbScale
 70
     0
300
1/128" = 1'-0"
140
0.007812
141
12.0
290
     0
  0
SCALE
  5
5A
102
{ACAD_REACTORS
330
47
102
}
330
47
100
AcDbScale
 70
     0
300
1/64" = 1'-0"
140
0.015625
141
12.0
290
     0
  0
SCALE
  5
5B
102
{ACAD_REACTORS
330
47
102
}
330
47
100
AcDbScale
 70
     0
300
1/32" = 1'-0"
140
0.03125
141
12.0
290
     0
  0
SCALE
  5
5C
102
{ACAD_REACTORS
330
47
102
}
330
47
100
AcDbScale
 70
     0
300
1/16" = 1'-0"
140
0.0625
141
12.0
290
     0
  0
SCALE
  5
5D
102
{ACAD_REACTORS
330
47
102
}
330
47
100
AcDbScale
 70
     0
300
3/32" = 1'-0"
140
0.09375
141
12.0
290
     0
  0
SCALE
  5
5E
102
{ACAD_REACTORS
330
47
102
}
330
47
100
AcDbScale
 70
     0
300
1/8" = 1'-0"
140
0.125
141
12.0
290
     0
  0
SCALE
  5
5F
102
{ACAD_REACTORS
330
47
102
}
330
47
100
AcDbScale
 70
     0
300
3/16" = 1'-0"
140
0.1875
141
12.0
290
     0
  0
SCALE
  5
60
102
{ACAD_REACTORS
330
47
102
}
330
47
100
AcDbScale
 70
     0
300
1/4" = 1'-0"
140
0.25
141
12.0
290
     0
  0
SCALE
  5
61
102
{ACAD_REACTORS
330
47
102
}
330
47
100
AcDbScale
 70
     0
300
3/8" = 1'-0"
140
0.375
141
12.0
290
     0
  0
SCALE
  5
62
102
{ACAD_REACTORS
330
47
102
}
330
47
100
AcDbScale
 70
     0
300
1/2" = 1'-0"
140
0.5
141
12.0
290
     0
  0
SCALE
  5
63
102
{ACAD_REACTORS
330
47
102
}
330
47
100
AcDbScale
 70
     0
300
3/4" = 1'-0"
140
0.75
141
12.0
290
     0
  0
SCALE
  5
64
102
{ACAD_REACTORS
330
47
102
}
330
47
100
AcDbScale
 70
     0
300
1" = 1'-0"
140
1.0
141
12.0
290
     0
  0
SCALE
  5
65
102
{ACAD_REACTORS
330
47
102
}
330
47
100
AcDbScale
 70
     0
300
1-1/2" = 1'-0"
140
1.5
141
12.0
290
     0
  0
SCALE
  5
66
102
{ACAD_REACTORS
330
47
102
}
330
47
100
AcDbScale
 70
     0
300
3" = 1'-0"
140
3.0
141
12.0
290
     0
  0
SCALE
  5
67
102
{ACAD_REACTORS
330
47
102
}
330
47
100
AcDbScale
 70
     0
300
6" = 1'-0"
140
6.0
141
12.0
290
     0
  0
SCALE
  5
68
102
{ACAD_REACTORS
330
47
102
}
330
47
100
AcDbScale
 70
     0
300
1'-0" = 1'-0"
140
12.0
141
12.0
290
     0
  0
TABLESTYLE
  5
6A
102
{ACAD_REACTORS
330
69
102
}
102
{ACAD_XDICTIONARY
360
1E4
102
}
330
69
100
AcDbTableStyle
  3
Standard
 70
     0
 71
     0
 40
0.06
 41
0.06
280
     0
281
     0
  7
Standard
140
4.5
170
     2
 62
     0
 63
   257
283
     0
 90
        4
 91
        0
  1

274
    -2
284
     1
 64
     0
275
    -2
285
     1
 65
     0
276
    -2
286
     1
 66
     0
277
    -2
287
     1
 67
     0
278
    -2
288
     1
 68
     0
279
    -2
289
     1
 69
     0
  7
Standard
140
6.0
170
     5
 62
     0
 63
   257
283
     0
 90
        4
 91
        0
  1

274
    -2
284
     1
 64
     0
275
    -2
285
     1
 65
     0
276
    -2
286
     1
 66
     0
277
    -2
287
     1
 67
     0
278
    -2
288
     1
 68
     0
279
    -2
289
     1
 69
     0
  7
Standard
140
4.5
170
     5
 62
     0
 63
   257
283
     0
 90
        4
 91
        0
  1

274
    -2
284
     1
 64
     0
275
    -2
285
     1
 65
     0
276
    -2
286
     1
 66
     0
277
    -2
287
     1
 67
     0
278
    -2
288
     1
 68
     0
279
    -2
289
     1
 69
     0
  0
VISUALSTYLE
  5
2F
102
{ACAD_REACTORS
330
2A
102
}
102
{ACAD_XDICTIONARY
360
1BC
102
}
330
2A
100
AcDbVisualStyle
  2
2dWireframe
 70
     4
177
     2
291
     0
 71
     0
176
     1
 72
     2
176
     1
 73
     0
176
     1
 90
        0
176
     1
 40
0.6
176
     1
 41
30.0
176
     1
 62
     5
 63
     7
421
 16777215
176
     1
 74
     1
176
     1
 91
        4
176
     1
 64
     7
176
     1
 65
   257
176
     1
 75
     1
176
     1
175
     1
176
     1
 42
1.0
176
     1
 92
        0
176
     1
 66
   257
176
     1
 43
1.0
176
     1
 76
     1
176
     1
 77
     6
176
     1
 78
     2
176
     1
 67
     7
176
     1
 79
     5
176
     1
170
     0
176
     1
171
     0
176
     1
290
     0
176
     1
 93
        1
176
     1
 44
0.0
176
     1
173
     0
176
     1
  0
VISUALSTYLE
  5
32
102
{ACAD_REACTORS
330
2A
102
}
102
{ACAD_XDICTIONARY
360
1C2
102
}
330
2A
100
AcDbVisualStyle
  2
Basic
 70
     7
177
     2
291
     1
 71
     1
176
     1
 72
     0
176
     1
 73
     1
176
     1
 90
        0
176
     1
 40
0.6
176
     1
 41
30.0
176
     1
 62
     5
 63
     7
421
 16777215
176
     1
 74
     0
176
     1
 91
        4
176
     1
 64
     7
176
     1
 65
   257
176
     1
 75
     1
176
     1
175
     1
176
     1
 42
1.0
176
     1
 92
        8
176
     1
 66
     7
176
     1
 43
1.0
176
     1
 76
     1
176
     1
 77
     6
176
     1
 78
     2
176
     1
 67
     7
176
     1
 79
     5
176
     1
170
     0
176
     1
171
     0
176
     1
290
     0
176
     1
 93
        1
176
     1
 44
0.0
176
     1
173
     0
176
     1
  0
VISUALSTYLE
  5
36
102
{ACAD_REACTORS
330
2A
102
}
102
{ACAD_XDICTIONARY
360
1CA
102
}
330
2A
100
AcDbVisualStyle
  2
Brighten
 70
    12
177
     2
291
     1
 71
     2
176
     1
 72
     2
176
     1
 73
     0
176
     1
 90
        0
176
     1
 40
0.6
176
     1
 41
30.0
176
     1
 62
     5
 63
     7
421
 16777215
176
     1
 74
     1
176
     1
 91
        4
176
     1
 64
     7
176
     1
 65
   257
176
     1
 75
     1
176
     1
175
     1
176
     1
 42
1.0
176
     1
 92
        8
176
     1
 66
     7
176
     1
 43
1.0
176
     1
 76
     1
176
     1
 77
     6
176
     1
 78
     2
176
     1
 67
     7
176
     1
 79
     5
176
     1
170
     0
176
     1
171
     0
176
     1
290
     0
176
     1
 93
        1
176
     1
 44
50.0
176
     1
173
     0
176
     1
  0
VISUALSTYLE
  5
3A
102
{ACAD_REACTORS
330
2A
102
}
102
{ACAD_XDICTIONARY
360
1D2
102
}
330
2A
100
AcDbVisualStyle
  2
ColorChange
 70
    16
177
     2
291
     1
 71
     2
176
     1
 72
     2
176
     1
 73
     3
176
     1
 90
        0
176
     1
 40
0.6
176
     1
 41
30.0
176
     1
 62
     5
 63
     8
421
  8421504
176
     1
 74
     1
176
     1
 91
        4
176
     1
 64
     7
176
     1
 65
   257
176
     1
 75
     1
176
     1
175
     1
176
     1
 42
1.0
176
     1
 92
        8
176
     1
 66
     8
424
  8421504
176
     1
 43
1.0
176
     1
 76
     1
176
     1
 77
     6
176
     1
 78
     2
176
     1
 67
     7
176
     1
 79
     5
176
     1
170
     0
176
     1
171
     0
176
     1
290
     0
176
     1
 93
        1
176
     1
 44
0.0
176
     1
173
     0
176
     1
  0
VISUALSTYLE
  5
34
102
{ACAD_REACTORS
330
2A
102
}
102
{ACAD_XDICTIONARY
360
1C6
102
}
330
2A
100
AcDbVisualStyle
  2
Conceptual
 70
     9
177
     2
291
     0
 71
     3
176
     1
 72
     2
176
     1
 73
     0
176
     1
 90
        0
176
     1
 40
0.6
176
     1
 41
30.0
176
     1
 62
     5
 63
     7
421
 16777215
176
     1
 74
     2
176
     1
 91
        2
176
     1
 64
     7
176
     1
 65
   257
176
     1
 75
     1
176
     1
175
     1
176
     1
 42
179.0
176
     1
 92
        8
176
     1
 66
     7
176
     1
 43
1.0
176
     1
 76
     1
176
     1
 77
     6
176
     1
 78
     2
176
     1
 67
     7
176
     1
 79
     3
176
     1
170
     0
176
     1
171
     0
176
     1
290
     0
176
     1
 93
        1
176
     1
 44
0.0
176
     1
173
     0
176
     1
  0
VISUALSTYLE
  5
35
102
{ACAD_REACTORS
330
2A
102
}
102
{ACAD_XDICTIONARY
360
1C8
102
}
330
2A
100
AcDbVisualStyle
  2
Dim
 70
    11
177
     2
291
     1
 71
     2
176
     1
 72
     2
176
     1
 73
     0
176
     1
 90
        0
176
     1
 40
0.6
176
     1
 41
30.0
176
     1
 62
     5
 63
     7
421
 16777215
176
     1
 74
     1
176
     1
 91
        4
176
     1
 64
     7
176
     1
 65
   257
176
     1
 75
     1
176
     1
175
     1
176
     1
 42
1.0
176
     1
 92
        8
176
     1
 66
     7
176
     1
 43
1.0
176
     1
 76
     1
176
     1
 77
     6
176
     1
 78
     2
176
     1
 67
     7
176
     1
 79
     5
176
     1
170
     0
176
     1
171
     0
176
     1
290
     0
176
     1
 93
        1
176
     1
 44
-50.0
176
     1
173
     0
176
     1
  0
VISUALSTYLE
  5
3D
102
{ACAD_REACTORS
330
2A
102
}
102
{ACAD_XDICTIONARY
360
1D8
102
}
330
2A
100
AcDbVisualStyle
  2
EdgeColorOff
 70
    22
177
     2
291
     1
 71
     2
176
     0
 72
     2
176
     0
 73
     0
176
     0
 90
        0
176
     0
 40
0.6
176
     0
 41
30.0
176
     0
 62
     5
 63
     7
421
 16777215
176
     0
 74
     1
176
     0
 91
        4
176
     0
 64
     7
176
     0
 65
   257
176
     0
 75
     1
176
     0
175
     1
176
     0
 42
1.0
176
     0
 92
        8
176
     2
 66
     7
176
     0
 43
1.0
176
     0
 76
     1
176
     0
 77
     6
176
     0
 78
     2
176
     0
 67
     7
176
     0
 79
     5
176
     0
170
     0
176
     0
171
     0
176
     0
290
     0
176
     0
 93
        1
176
     0
 44
0.0
176
     0
173
     0
176
     0
  0
VISUALSTYLE
  5
39
102
{ACAD_REACTORS
330
2A
102
}
102
{ACAD_XDICTIONARY
360
1D0
102
}
330
2A
100
AcDbVisualStyle
  2
Facepattern
 70
    15
177
     2
291
     1
 71
     2
176
     1
 72
     2
176
     1
 73
     0
176
     1
 90
        0
176
     1
 40
0.6
176
     1
 41
30.0
176
     1
 62
     5
 63
     7
421
 16777215
176
     1
 74
     1
176
     1
 91
        4
176
     1
 64
     7
176
     1
 65
   257
176
     1
 75
     1
176
     1
175
     1
176
     1
 42
1.0
176
     1
 92
        8
176
     1
 66
     7
176
     1
 43
1.0
176
     1
 76
     1
176
     1
 77
     6
176
     1
 78
     2
176
     1
 67
     7
176
     1
 79
     5
176
     1
170
     0
176
     1
171
     0
176
     1
290
     0
176
     1
 93
        1
176
     1
 44
0.0
176
     1
173
     0
176
     1
  0
VISUALSTYLE
  5
2B
102
{ACAD_REACTORS
330
2A
102
}
102
{ACAD_XDICTIONARY
360
1B4
102
}
330
2A
100
AcDbVisualStyle
  2
Flat
 70
     0
177
     2
291
     1
 71
     2
176
     1
 72
     1
176
     1
 73
     1
176
     1
 90
        2
176
     1
 40
0.6
176
     1
 41
30.0
176
     1
 62
     5
 63
     7
421
 16777215
176
     1
 74
     0
176
     1
 91
        0
176
     1
 64
     7
176
     1
 65
   257
176
     1
 75
     1
176
     1
175
     1
176
     1
 42
1.0
176
     1
 92
        8
176
     1
 66
     7
176
     1
 43
1.0
176
     1
 76
     1
176
     1
 77
     6
176
     1
 78
     2
176
     1
 67
     7
176
     1
 79
     5
176
     1
170
     0
176
     1
171
     0
176
     1
290
     0
176
     1
 93
       13
176
     1
 44
0.0
176
     1
173
     0
176
     1
  0
VISUALSTYLE
  5
2C
102
{ACAD_REACTORS
330
2A
102
}
102
{ACAD_XDICTIONARY
360
1B6
102
}
330
2A
100
AcDbVisualStyle
  2
FlatWithEdges
 70
     1
177
     2
291
     1
 71
     2
176
     1
 72
     1
176
     1
 73
     1
176
     1
 90
        2
176
     1
 40
0.6
176
     1
 41
30.0
176
     1
 62
     5
 63
     7
421
 16777215
176
     1
 74
     1
176
     1
 91
        0
176
     1
 64
     7
176
     1
 65
   257
176
     1
 75
     1
176
     1
175
     1
176
     1
 42
1.0
176
     1
 92
        0
176
     1
 66
   257
176
     1
 43
1.0
176
     1
 76
     1
176
     1
 77
     6
176
     1
 78
     2
176
     1
 67
     7
176
     1
 79
     5
176
     1
170
     0
176
     1
171
     0
176
     1
290
     0
176
     1
 93
       13
176
     1
 44
0.0
176
     1
173
     0
176
     1
  0
VISUALSTYLE
  5
2D
102
{ACAD_REACTORS
330
2A
102
}
102
{ACAD_XDICTIONARY
360
1B8
102
}
330
2A
100
AcDbVisualStyle
  2
Gouraud
 70
     2
177
     2
291
     1
 71
     2
176
     1
 72
     2
176
     1
 73
     1
176
     1
 90
        2
176
     1
 40
0.6
176
     1
 41
30.0
176
     1
 62
     5
 63
     7
421
 16777215
176
     1
 74
     0
176
     1
 91
        0
176
     1
 64
     7
176
     1
 65
   257
176
     1
 75
     1
176
     1
175
     1
176
     1
 42
1.0
176
     1
 92
        0
176
     1
 66
     7
176
     1
 43
1.0
176
     1
 76
     1
176
     1
 77
     6
176
     1
 78
     2
176
     1
 67
     7
176
     1
 79
     5
176
     1
170
     0
176
     1
171
     0
176
     1
290
     0
176
     1
 93
       13
176
     1
 44
0.0
176
     1
173
     0
176
     1
  0
VISUALSTYLE
  5
2E
102
{ACAD_REACTORS
330
2A
102
}
102
{ACAD_XDICTIONARY
360
1BA
102
}
330
2A
100
AcDbVisualStyle
  2
GouraudWithEdges
 70
     3
177
     2
291
     1
 71
     2
176
     1
 72
     2
176
     1
 73
     1
176
     1
 90
        2
176
     1
 40
0.6
176
     1
 41
30.0
176
     1
 62
     5
 63
     7
421
 16777215
176
     1
 74
     1
176
     1
 91
        0
176
     1
 64
     7
176
     1
 65
   257
176
     1
 75
     1
176
     1
175
     1
176
     1
 42
1.0
176
     1
 92
        0
176
     1
 66
   257
176
     1
 43
1.0
176
     1
 76
     1
176
     1
 77
     6
176
     1
 78
     2
176
     1
 67
     7
176
     1
 79
     5
176
     1
170
     0
176
     1
171
     0
176
     1
290
     0
176
     1
 93
       13
176
     1
 44
0.0
176
     1
173
     0
176
     1
  0
VISUALSTYLE
  5
31
102
{ACAD_REACTORS
330
2A
102
}
102
{ACAD_XDICTIONARY
360
1C0
102
}
330
2A
100
AcDbVisualStyle
  2
Hidden
 70
     6
177
     2
291
     0
 71
     1
176
     1
 72
     2
176
     1
 73
     2
176
     1
 90
        0
176
     1
 40
0.6
176
     1
 41
30.0
176
     1
 62
     5
 63
     7
421
 16777215
176
     1
 74
     2
176
     1
 91
        2
176
     1
 64
     7
176
     1
 65
   257
176
     1
 75
     2
176
     1
175
     1
176
     1
 42
40.0
176
     1
 92
        0
176
     1
 66
   257
176
     1
 43
1.0
176
     1
 76
     1
176
     1
 77
     6
176
     1
 78
     2
176
     1
 67
     7
176
     1
 79
     3
176
     1
170
     0
176
     1
171
     0
176
     1
290
     0
176
     1
 93
        1
176
     1
 44
0.0
176
     1
173
     0
176
     1
  0
VISUALSTYLE
  5
3B
102
{ACAD_REACTORS
330
2A
102
}
102
{ACAD_XDICTIONARY
360
1D4
102
}
330
2A
100
AcDbVisualStyle
  2
JitterOff
 70
    20
177
     2
291
     1
 71
     2
176
     0
 72
     2
176
     0
 73
     0
176
     0
 90
        0
176
     0
 40
0.6
176
     0
 41
30.0
176
     0
 62
     5
 63
     7
421
 16777215
176
     0
 74
     1
176
     0
 91
        4
176
     0
 64
     7
176
     0
 65
   257
176
     0
 75
     1
176
     0
175
     1
176
     0
 42
1.0
176
     0
 92
       10
176
     2
 66
     7
176
     0
 43
1.0
176
     0
 76
     1
176
     0
 77
     6
176
     0
 78
     2
176
     0
 67
     7
176
     0
 79
     5
176
     0
170
     0
176
     0
171
     0
176
     0
290
     0
176
     0
 93
        1
176
     0
 44
0.0
176
     0
173
     0
176
     0
  0
VISUALSTYLE
  5
38
102
{ACAD_REACTORS
330
2A
102
}
102
{ACAD_XDICTIONARY
360
1CE
102
}
330
2A
100
AcDbVisualStyle
  2
Linepattern
 70
    14
177
     2
291
     1
 71
     2
176
     1
 72
     2
176
     1
 73
     0
176
     1
 90
        0
176
     1
 40
0.6
176
     1
 41
30.0
176
     1
 62
     5
 63
     7
421
 16777215
176
     1
 74
     1
176
     1
 91
        4
176
     1
 64
     7
176
     1
 65
   257
176
     1
 75
     7
176
     1
175
     7
176
     1
 42
1.0
176
     1
 92
        8
176
     1
 66
     7
176
     1
 43
1.0
176
     1
 76
     1
176
     1
 77
     6
176
     1
 78
     2
176
     1
 67
     7
176
     1
 79
     5
176
     1
170
     0
176
     1
171
     0
176
     1
290
     0
176
     1
 93
        1
176
     1
 44
0.0
176
     1
173
     0
176
     1
  0
VISUALSTYLE
  5
3C
102
{ACAD_REACTORS
330
2A
102
}
102
{ACAD_XDICTIONARY
360
1D6
102
}
330
2A
100
AcDbVisualStyle
  2
OverhangOff
 70
    21
177
     2
291
     1
 71
     2
176
     0
 72
     2
176
     0
 73
     0
176
     0
 90
        0
176
     0
 40
0.6
176
     0
 41
30.0
176
     0
 62
     5
 63
     7
421
 16777215
176
     0
 74
     1
176
     0
 91
        4
176
     0
 64
     7
176
     0
 65
   257
176
     0
 75
     1
176
     0
175
     1
176
     0
 42
1.0
176
     0
 92
        9
176
     2
 66
     7
176
     0
 43
1.0
176
     0
 76
     1
176
     0
 77
     6
176
     0
 78
     2
176
     0
 67
     7
176
     0
 79
     5
176
     0
170
     0
176
     0
171
     0
176
     0
290
     0
176
     0
 93
        1
176
     0
 44
0.0
176
     0
173
     0
176
     0
  0
VISUALSTYLE
  5
33
102
{ACAD_REACTORS
330
2A
102
}
102
{ACAD_XDICTIONARY
360
1C4
102
}
330
2A
100
AcDbVisualStyle
  2
Realistic
 70
     8
177
     2
291
     0
 71
     2
176
     1
 72
     3
176
     1
 73
     0
176
     1
 90
        2
176
     1
 40
0.6
176
     1
 41
30.0
176
     1
 62
     5
 63
     7
421
 16777215
176
     1
 74
     0
176
     1
 91
        0
176
     1
 64
     7
176
     1
 65
   257
176
     1
 75
     1
176
     1
175
     1
176
     1
 42
1.0
176
     1
 92
        8
176
     1
 66
   257
176
     1
 43
1.0
176
     1
 76
     1
176
     1
 77
     6
176
     1
 78
     2
176
     1
 67
     7
176
     1
 79
     3
176
     1
170
     0
176
     1
171
     0
176
     1
290
     0
176
     1
 93
       13
176
     1
 44
0.0
176
     1
173
     0
176
     1
  0
VISUALSTYLE
  5
42
102
{ACAD_REACTORS
330
2A
102
}
102
{ACAD_XDICTIONARY
360
1E2
102
}
330
2A
100
AcDbVisualStyle
  2
Shaded
 70
    27
177
     2
291
     0
 71
     2
176
     1
 72
     2
176
     1
 73
     1
176
     1
 90
        2
176
     1
 40
0.6
176
     1
 41
30.0
176
     1
 62
     5
 63
     7
421
 16777215
176
     1
 74
     0
176
     1
 91
        4
176
     1
 64
     7
176
     1
 65
   257
176
     1
 75
     1
176
     1
175
     1
176
     1
 42
1.0
176
     1
 92
        8
176
     1
 66
   257
176
     1
 43
1.0
176
     1
 76
     1
176
     1
 77
     6
176
     1
 78
     2
176
     1
 67
     8
425
  7895160
176
     1
 79
     3
176
     1
170
     0
176
     1
171
     0
176
     1
290
     0
176
     1
 93
        5
176
     1
 44
0.0
176
     1
173
     0
176
     1
  0
VISUALSTYLE
  5
41
102
{ACAD_REACTORS
330
2A
102
}
102
{ACAD_XDICTIONARY
360
1E0
102
}
330
2A
100
AcDbVisualStyle
  2
Shaded with edges
 70
    26
177
     2
291
     0
 71
     2
176
     1
 72
     2
176
     1
 73
     1
176
     1
 90
        2
176
     1
 40
0.6
176
     1
 41
30.0
176
     1
 62
     5
 63
     7
421
 16777215
176
     1
 74
     1
176
     1
 91
       10
176
     1
 64
     7
176
     1
 65
   257
176
     1
 75
     2
176
     1
175
     1
176
     1
 42
1.0
176
     1
 92
        8
176
     1
 66
   257
176
     1
 43
1.0
176
     1
 76
     1
176
     1
 77
     6
176
     1
 78
     2
176
     1
 67
     7
176
     1
 79
     3
176
     1
170
     0
176
     1
171
     0
176
     1
290
     0
176
     1
 93
        5
176
     1
 44
0.0
176
     1
173
     0
176
     1
  0
VISUALSTYLE
  5
3E
102
{ACAD_REACTORS
330
2A
102
}
102
{ACAD_XDICTIONARY
360
1DA
102
}
330
2A
100
AcDbVisualStyle
  2
Shades of Gray
 70
    23
177
     2
291
     0
 71
     2
176
     1
 72
     2
176
     1
 73
     3
176
     1
 90
        0
176
     1
 40
0.6
176
     1
 41
30.0
176
     1
 62
     5
 63
     7
421
 16777215
176
     1
 74
     2
176
     1
 91
        2
176
     1
 64
     7
176
     1
 65
     7
176
     1
 75
     1
176
     1
175
     1
176
     1
 42
40.0
176
     1
 92
        8
176
     1
 66
     7
176
     1
 43
1.0
176
     1
 76
     1
176
     1
 77
     6
176
     1
 78
     2
176
     1
 67
     7
176
     1
 79
     3
176
     1
170
     0
176
     1
171
     0
176
     1
290
     0
176
     1
 93
        1
176
     1
 44
0.0
176
     1
173
     0
176
     1
  0
VISUALSTYLE
  5
3F
102
{ACAD_REACTORS
330
2A
102
}
102
{ACAD_XDICTIONARY
360
1DC
102
}
330
2A
100
AcDbVisualStyle
  2
Sketchy
 70
    24
177
     2
291
     0
 71
     1
176
     1
 72
     2
176
     1
 73
     2
176
     1
 90
        0
176
     1
 40
0.6
176
     1
 41
30.0
176
     1
 62
     5
 63
     7
421
 16777215
176
     1
 74
     2
176
     1
 91
        2
176
     1
 64
     7
176
     1
 65
     7
176
     1
 75
     1
176
     1
175
     1
176
     1
 42
40.0
176
     1
 92
       11
176
     1
 66
     7
176
     1
 43
1.0
176
     1
 76
     1
176
     1
 77
     6
176
     1
 78
     2
176
     1
 67
     7
176
     1
 79
     6
176
     1
170
     0
176
     1
171
     0
176
     1
290
     0
176
     1
 93
        1
176
     1
 44
0.0
176
     1
173
     0
176
     1
  0
VISUALSTYLE
  5
37
102
{ACAD_REACTORS
330
2A
102
}
102
{ACAD_XDICTIONARY
360
1CC
102
}
330
2A
100
AcDbVisualStyle
  2
Thicken
 70
    13
177
     2
291
     1
 71
     2
176
     1
 72
     2
176
     1
 73
     0
176
     1
 90
        0
176
     1
 40
0.6
176
     1
 41
30.0
176
     1
 62
     5
 63
     7
421
 16777215
176
     1
 74
     1
176
     1
 91
        4
176
     1
 64
     7
176
     1
 65
   257
176
     1
 75
     1
176
     1
175
     1
176
     1
 42
1.0
176
     1
 92
       12
176
     1
 66
     7
176
     1
 43
1.0
176
     1
 76
     1
176
     1
 77
     6
176
     1
 78
     2
176
     1
 67
     7
176
     1
 79
     5
176
     1
170
     0
176
     1
171
     0
176
     1
290
     0
176
     1
 93
        1
176
     1
 44
0.0
176
     1
173
     0
176
     1
  0
VISUALSTYLE
  5
30
102
{ACAD_REACTORS
330
2A
102
}
102
{ACAD_XDICTIONARY
360
1BE
102
}
330
2A
100
AcDbVisualStyle
  2
Wireframe
 70
     5
177
     2
291
     0
 71
     0
176
     1
 72
     2
176
     1
 73
     0
176
     1
 90
        0
176
     1
 40
0.6
176
     1
 41
30.0
176
     1
 62
     5
 63
     7
421
 16777215
176
     1
 74
     1
176
     1
 91
        4
176
     1
 64
     7
176
     1
 65
   257
176
     1
 75
     1
176
     1
175
     1
176
     1
 42
1.0
176
     1
 92
        0
176
     1
 66
   257
176
     1
 43
1.0
176
     1
 76
     1
176
     1
 77
     6
176
     1
 78
     2
176
     1
 67
     7
176
     1
 79
     3
176
     1
170
     0
176
     1
171
     0
176
     1
290
     0
176
     1
 93
        1
176
     1
 44
0.0
176
     1
173
     0
176
     1
  0
VISUALSTYLE
  5
40
102
{ACAD_REACTORS
330
2A
102
}
102
{ACAD_XDICTIONARY
360
1DE
102
}
330
2A
100
AcDbVisualStyle
  2
X-Ray
 70
    25
177
     2
291
     0
 71
     2
176
     1
 72
     2
176
     1
 73
     1
176
     1
 90
        1
176
     1
 40
0.5
176
     1
 41
30.0
176
     1
 62
     5
 63
     7
421
 16777215
176
     1
 74
     1
176
     1
 91
        0
176
     1
 64
     7
176
     1
 65
   257
176
     1
 75
     1
176
     1
175
     1
176
     1
 42
1.0
176
     1
 92
        8
176
     1
 66
     7
176
     1
 43
1.0
176
     1
 76
     1
176
     1
 77
     6
176
     1
 78
     2
176
     1
 67
     7
176
     1
 79
     3
176
     1
170
     0
176
     1
171
     0
176
     1
290
     0
176
     1
 93
       13
176
     1
 44
0.0
176
     1
173
     0
176
     1
  0
DICTIONARYVAR
  5
1B3
102
{ACAD_REACTORS
330
1B2
102
}
330
1B2
100
DictionaryVariables
280
     0
  1
1:1
  0
DICTIONARYVAR
  5
1E8
102
{ACAD_REACTORS
330
1B2
102
}
330
1B2
100
DictionaryVariables
280
     0
  1
Standard
  0
DICTIONARYVAR
  5
1E7
102
{ACAD_REACTORS
330
1B2
102
}
330
1B2
100
DictionaryVariables
280
     0
  1
Standard
  0
DICTIONARY
  5
1E4
330
6A
100
AcDbDictionary
280
     1
281
     1
  3
ACAD_ROUNDTRIP_2008_TABLESTYLE_CELLSTYLEMAP
360
1E5
  0
DICTIONARY
  5
1BC
330
2F
100
AcDbDictionary
280
     1
281
     1
  3
ACAD_XREC_ROUNDTRIP
360
1BD
  0
DICTIONARY
  5
1C2
330
32
100
AcDbDictionary
280
     1
281
     1
  3
ACAD_XREC_ROUNDTRIP
360
1C3
  0
DICTIONARY
  5
1CA
330
36
100
AcDbDictionary
280
     1
281
     1
  3
ACAD_XREC_ROUNDTRIP
360
1CB
  0
DICTIONARY
  5
1D2
330
3A
100
AcDbDictionary
280
     1
281
     1
  3
ACAD_XREC_ROUNDTRIP
360
1D3
  0
DICTIONARY
  5
1C6
330
34
100
AcDbDictionary
280
     1
281
     1
  3
ACAD_XREC_ROUNDTRIP
360
1C7
  0
DICTIONARY
  5
1C8
330
35
100
AcDbDictionary
280
     1
281
     1
  3
ACAD_XREC_ROUNDTRIP
360
1C9
  0
DICTIONARY
  5
1D8
330
3D
100
AcDbDictionary
280
     1
281
     1
  3
ACAD_XREC_ROUNDTRIP
360
1D9
  0
DICTIONARY
  5
1D0
330
39
100
AcDbDictionary
280
     1
281
     1
  3
ACAD_XREC_ROUNDTRIP
360
1D1
  0
DICTIONARY
  5
1B4
330
2B
100
AcDbDictionary
280
     1
281
     1
  3
ACAD_XREC_ROUNDTRIP
360
1B5
  0
DICTIONARY
  5
1B6
330
2C
100
AcDbDictionary
280
     1
281
     1
  3
ACAD_XREC_ROUNDTRIP
360
1B7
  0
DICTIONARY
  5
1B8
330
2D
100
AcDbDictionary
280
     1
281
     1
  3
ACAD_XREC_ROUNDTRIP
360
1B9
  0
DICTIONARY
  5
1BA
330
2E
100
AcDbDictionary
280
     1
281
     1
  3
ACAD_XREC_ROUNDTRIP
360
1BB
  0
DICTIONARY
  5
1C0
330
31
100
AcDbDictionary
280
     1
281
     1
  3
ACAD_XREC_ROUNDTRIP
360
1C1
  0
DICTIONARY
  5
1D4
330
3B
100
AcDbDictionary
280
     1
281
     1
  3
ACAD_XREC_ROUNDTRIP
360
1D5
  0
DICTIONARY
  5
1CE
330
38
100
AcDbDictionary
280
     1
281
     1
  3
ACAD_XREC_ROUNDTRIP
360
1CF
  0
DICTIONARY
  5
1D6
330
3C
100
AcDbDictionary
280
     1
281
     1
  3
ACAD_XREC_ROUNDTRIP
360
1D7
  0
DICTIONARY
  5
1C4
330
33
100
AcDbDictionary
280
     1
281
     1
  3
ACAD_XREC_ROUNDTRIP
360
1C5
  0
DICTIONARY
  5
1E2
330
42
100
AcDbDictionary
280
     1
281
     1
  3
ACAD_XREC_ROUNDTRIP
360
1E3
  0
DICTIONARY
  5
1E0
330
41
100
AcDbDictionary
280
     1
281
     1
  3
ACAD_XREC_ROUNDTRIP
360
1E1
  0
DICTIONARY
  5
1DA
330
3E
100
AcDbDictionary
280
     1
281
     1
  3
ACAD_XREC_ROUNDTRIP
360
1DB
  0
DICTIONARY
  5
1DC
330
3F
100
AcDbDictionary
280
     1
281
     1
  3
ACAD_XREC_ROUNDTRIP
360
1DD
  0
DICTIONARY
  5
1CC
330
37
100
AcDbDictionary
280
     1
281
     1
  3
ACAD_XREC_ROUNDTRIP
360
1CD
  0
DICTIONARY
  5
1BE
330
30
100
AcDbDictionary
280
     1
281
     1
  3
ACAD_XREC_ROUNDTRIP
360
1BF
  0
DICTIONARY
  5
1DE
330
40
100
AcDbDictionary
280
     1
281
     1
  3
ACAD_XREC_ROUNDTRIP
360
1DF
  0
CELLSTYLEMAP
  5
1E5
102
{ACAD_REACTORS
330
1E4
102
}
330
1E4
100
AcDbCellStyleMap
 90
        3
300
CELLSTYLE
  1
TABLEFORMAT_BEGIN
 90
        5
170
     1
 91
        0
 92
    32768
 62
   257
 93
        1
300
CONTENTFORMAT
  1
CONTENTFORMAT_BEGIN
 90
        0
 91
        0
 92
        4
 93
        0
300

 40
0.0
140
1.0
 94
        5
 62
     0
340
11
144
6.0
309
CONTENTFORMAT_END
171
     1
301
MARGIN
  1
CELLMARGIN_BEGIN
 40
1.5
 40
1.5
 40
1.5
 40
1.5
 40
1.5
 40
1.5
309
CELLMARGIN_END
 94
        6
 95
        1
302
GRIDFORMAT
  1
GRIDFORMAT_BEGIN
 90
        0
 91
        1
 62
     0
 92
       -2
340
14
 93
        0
 40
0.045
309
GRIDFORMAT_END
 95
        2
302
GRIDFORMAT
  1
GRIDFORMAT_BEGIN
 90
        0
 91
        1
 62
     0
 92
       -2
340
14
 93
        0
 40
0.045
309
GRIDFORMAT_END
 95
        4
302
GRIDFORMAT
  1
GRIDFORMAT_BEGIN
 90
        0
 91
        1
 62
     0
 92
       -2
340
14
 93
        0
 40
0.045
309
GRIDFORMAT_END
 95
        8
302
GRIDFORMAT
  1
GRIDFORMAT_BEGIN
 90
        0
 91
        1
 62
     0
 92
       -2
340
14
 93
        0
 40
0.045
309
GRIDFORMAT_END
 95
       16
302
GRIDFORMAT
  1
GRIDFORMAT_BEGIN
 90
        0
 91
        1
 62
     0
 92
       -2
340
14
 93
        0
 40
0.045
309
GRIDFORMAT_END
 95
       32
302
GRIDFORMAT
  1
GRIDFORMAT_BEGIN
 90
        0
 91
        1
 62
     0
 92
       -2
340
14
 93
        0
 40
0.045
309
GRIDFORMAT_END
309
TABLEFORMAT_END
  1
CELLSTYLE_BEGIN
 90
        1
 91
        1
300
_TITLE
309
CELLSTYLE_END
300
CELLSTYLE
  1
TABLEFORMAT_BEGIN
 90
        5
170
     1
 91
        0
 92
        0
 62
   257
 93
        1
300
CONTENTFORMAT
  1
CONTENTFORMAT_BEGIN
 90
        0
 91
        0
 92
        4
 93
        0
300

 40
0.0
140
1.0
 94
        5
 62
     0
340
11
144
4.5
309
CONTENTFORMAT_END
171
     1
301
MARGIN
  1
CELLMARGIN_BEGIN
 40
1.5
 40
1.5
 40
1.5
 40
1.5
 40
1.5
 40
1.5
309
CELLMARGIN_END
 94
        6
 95
        1
302
GRIDFORMAT
  1
GRIDFORMAT_BEGIN
 90
        0
 91
        1
 62
     0
 92
       -2
340
14
 93
        0
 40
0.045
309
GRIDFORMAT_END
 95
        2
302
GRIDFORMAT
  1
GRIDFORMAT_BEGIN
 90
        0
 91
        1
 62
     0
 92
       -2
340
14
 93
        0
 40
0.045
309
GRIDFORMAT_END
 95
        4
302
GRIDFORMAT
  1
GRIDFORMAT_BEGIN
 90
        0
 91
        1
 62
     0
 92
       -2
340
14
 93
        0
 40
0.045
309
GRIDFORMAT_END
 95
        8
302
GRIDFORMAT
  1
GRIDFORMAT_BEGIN
 90
        0
 91
        1
 62
     0
 92
       -2
340
14
 93
        0
 40
0.045
309
GRIDFORMAT_END
 95
       16
302
GRIDFORMAT
  1
GRIDFORMAT_BEGIN
 90
        0
 91
        1
 62
     0
 92
       -2
340
14
 93
        0
 40
0.045
309
GRIDFORMAT_END
 95
       32
302
GRIDFORMAT
  1
GRIDFORMAT_BEGIN
 90
        0
 91
        1
 62
     0
 92
       -2
340
14
 93
        0
 40
0.045
309
GRIDFORMAT_END
309
TABLEFORMAT_END
  1
CELLSTYLE_BEGIN
 90
        2
 91
        1
300
_HEADER
309
CELLSTYLE_END
300
CELLSTYLE
  1
TABLEFORMAT_BEGIN
 90
        5
170
     1
 91
        0
 92
        0
 62
   257
 93
        1
300
CONTENTFORMAT
  1
CONTENTFORMAT_BEGIN
 90
        0
 91
        0
 92
        4
 93
        0
300

 40
0.0
140
1.0
 94
        2
 62
     0
340
11
144
4.5
309
CONTENTFORMAT_END
171
     1
301
MARGIN
  1
CELLMARGIN_BEGIN
 40
1.5
 40
1.5
 40
1.5
 40
1.5
 40
1.5
 40
1.5
309
CELLMARGIN_END
 94
        6
 95
        1
302
GRIDFORMAT
  1
GRIDFORMAT_BEGIN
 90
        0
 91
        1
 62
     0
 92
       -2
340
14
 93
        0
 40
0.045
309
GRIDFORMAT_END
 95
        2
302
GRIDFORMAT
  1
GRIDFORMAT_BEGIN
 90
        0
 91
        1
 62
     0
 92
       -2
340
14
 93
        0
 40
0.045
309
GRIDFORMAT_END
 95
        4
302
GRIDFORMAT
  1
GRIDFORMAT_BEGIN
 90
        0
 91
        1
 62
     0
 92
       -2
340
14
 93
        0
 40
0.045
309
GRIDFORMAT_END
 95
        8
302
GRIDFORMAT
  1
GRIDFORMAT_BEGIN
 90
        0
 91
        1
 62
     0
 92
       -2
340
14
 93
        0
 40
0.045
309
GRIDFORMAT_END
 95
       16
302
GRIDFORMAT
  1
GRIDFORMAT_BEGIN
 90
        0
 91
        1
 62
     0
 92
       -2
340
14
 93
        0
 40
0.045
309
GRIDFORMAT_END
 95
       32
302
GRIDFORMAT
  1
GRIDFORMAT_BEGIN
 90
        0
 91
        1
 62
     0
 92
       -2
340
14
 93
        0
 40
0.045
309
GRIDFORMAT_END
309
TABLEFORMAT_END
  1
CELLSTYLE_BEGIN
 90
        3
 91
        2
300
_DATA
309
CELLSTYLE_END
  0
XRECORD
  5
1BD
102
{ACAD_REACTORS
330
1BC
102
}
330
1BC
100
AcDbXrecord
280
     1
102
RTVSPost2010Prop28
280
     1
102
RTVSPost2010PropOp28
 70
     1
102
RTVSPost2010Prop29
280
     1
102
RTVSPost2010PropOp29
 70
     1
102
RTVSPost2010Prop30
280
     0
102
RTVSPost2010PropOp30
 70
     1
102
RTVSPost2010Prop31
280
     0
102
RTVSPost2010PropOp31
 70
     1
102
RTVSPost2010Prop32
280
     0
102
RTVSPost2010PropOp32
 70
     1
102
RTVSPost2010Prop33
280
     0
102
RTVSPost2010PropOp33
 70
     1
102
RTVSPost2010Prop34
280
     0
102
RTVSPost2010PropOp34
 70
     1
102
RTVSPost2010Prop35
280
     0
102
RTVSPost2010PropOp35
 70
     1
102
RTVSPost2010Prop36
280
     0
102
RTVSPost2010PropOp36
 70
     1
102
RTVSPost2010Prop37
 90
       50
102
RTVSPost2010PropOp37
 70
     1
102
RTVSPost2010Prop38
140
0.0
102
RTVSPost2010PropOp38
 70
     1
102
RTVSPost2010Prop39
140
1.0
102
RTVSPost2010PropOp39
 70
     1
102
RTVSPost2010Prop40
 90
        0
102
RTVSPost2010PropOp40
 70
     1
102
RTVSPost2010Prop41ColorIndex
 90
       18
102
RTVSPost2010Prop41ColorRGB
 90
        0
102
RTVSPost2010PropOp41
 70
     1
102
RTVSPost2010Prop42
 90
       50
102
RTVSPost2010PropOp42
 70
     1
102
RTVSPost2010Prop43
 90
        3
102
RTVSPost2010PropOp43
 70
     1
102
RTVSPost2010Prop44ColorIndex
 90
        5
102
RTVSPost2010Prop44ColorRGB
 90
      255
102
RTVSPost2010PropOp44
 70
     1
102
RTVSPost2010Prop45
280
     0
102
RTVSPost2010PropOp45
 70
     1
102
RTVSPost2010Prop46
 90
       50
102
RTVSPost2010PropOp46
 70
     1
102
RTVSPost2010Prop47
 90
       50
102
RTVSPost2010PropOp47
 70
     1
102
RTVSPost2010Prop48
 90
       50
102
RTVSPost2010PropOp48
 70
     1
102
RTVSPost2010Prop49
280
     0
102
RTVSPost2010PropOp49
 70
     1
102
RTVSPost2010Prop50
 90
       50
102
RTVSPost2010PropOp50
 70
     1
102
RTVSPost2010Prop51ColorIndex
 90
      256
102
RTVSPost2010Prop51ColorRGB
 90
-16777216
102
RTVSPost2010PropOp51
 70
     0
102
RTVSPost2010Prop52
140
1.0
102
RTVSPost2010PropOp52
 70
     0
102
RTVSPost2010Prop53
 90
        2
102
RTVSPost2010PropOp53
 70
     1
102
RTVSPost2010Prop54
  1
strokes_ogs.tif
102
RTVSPost2010PropOp54
 70
     1
102
RTVSPost2010Prop55
280
     0
102
RTVSPost2010PropOp55
 70
     1
102
RTVSPost2010Prop56
140
1.0
102
RTVSPost2010PropOp56
 70
     1
102
RTVSPost2010Prop57
140
1.0
102
RTVSPost2010PropOp57
 70
     1
  0
XRECORD
  5
1C3
102
{ACAD_REACTORS
330
1C2
102
}
330
1C2
100
AcDbXrecord
280
     1
102
RTVSPost2010Prop28
280
     0
102
RTVSPost2010PropOp28
 70
     1
102
RTVSPost2010Prop29
280
     1
102
RTVSPost2010PropOp29
 70
     1
102
RTVSPost2010Prop30
280
     1
102
RTVSPost2010PropOp30
 70
     1
102
RTVSPost2010Prop31
280
     0
102
RTVSPost2010PropOp31
 70
     1
102
RTVSPost2010Prop32
280
     0
102
RTVSPost2010PropOp32
 70
     1
102
RTVSPost2010Prop33
280
     0
102
RTVSPost2010PropOp33
 70
     1
102
RTVSPost2010Prop34
280
     0
102
RTVSPost2010PropOp34
 70
     1
102
RTVSPost2010Prop35
280
     0
102
RTVSPost2010PropOp35
 70
     1
102
RTVSPost2010Prop36
280
     0
102
RTVSPost2010PropOp36
 70
     1
102
RTVSPost2010Prop37
 90
       50
102
RTVSPost2010PropOp37
 70
     1
102
RTVSPost2010Prop38
140
0.0
102
RTVSPost2010PropOp38
 70
     1
102
RTVSPost2010Prop39
140
1.0
102
RTVSPost2010PropOp39
 70
     1
102
RTVSPost2010Prop40
 90
        0
102
RTVSPost2010PropOp40
 70
     1
102
RTVSPost2010Prop41ColorIndex
 90
       18
102
RTVSPost2010Prop41ColorRGB
 90
        0
102
RTVSPost2010PropOp41
 70
     1
102
RTVSPost2010Prop42
 90
       50
102
RTVSPost2010PropOp42
 70
     1
102
RTVSPost2010Prop43
 90
        3
102
RTVSPost2010PropOp43
 70
     1
102
RTVSPost2010Prop44ColorIndex
 90
        5
102
RTVSPost2010Prop44ColorRGB
 90
      255
102
RTVSPost2010PropOp44
 70
     1
102
RTVSPost2010Prop45
280
     0
102
RTVSPost2010PropOp45
 70
     1
102
RTVSPost2010Prop46
 90
       50
102
RTVSPost2010PropOp46
 70
     1
102
RTVSPost2010Prop47
 90
       50
102
RTVSPost2010PropOp47
 70
     1
102
RTVSPost2010Prop48
 90
       50
102
RTVSPost2010PropOp48
 70
     1
102
RTVSPost2010Prop49
280
     0
102
RTVSPost2010PropOp49
 70
     1
102
RTVSPost2010Prop50
 90
       50
102
RTVSPost2010PropOp50
 70
     1
102
RTVSPost2010Prop51ColorIndex
 90
      256
102
RTVSPost2010Prop51ColorRGB
 90
-16777216
102
RTVSPost2010PropOp51
 70
     0
102
RTVSPost2010Prop52
140
1.0
102
RTVSPost2010PropOp52
 70
     0
102
RTVSPost2010Prop53
 90
        2
102
RTVSPost2010PropOp53
 70
     1
102
RTVSPost2010Prop54
  1
strokes_ogs.tif
102
RTVSPost2010PropOp54
 70
     1
102
RTVSPost2010Prop55
280
     0
102
RTVSPost2010PropOp55
 70
     1
102
RTVSPost2010Prop56
140
1.0
102
RTVSPost2010PropOp56
 70
     1
102
RTVSPost2010Prop57
140
1.0
102
RTVSPost2010PropOp57
 70
     1
  0
XRECORD
  5
1CB
102
{ACAD_REACTORS
330
1CA
102
}
330
1CA
100
AcDbXrecord
280
     1
102
RTVSPost2010Prop28
280
     0
102
RTVSPost2010PropOp28
 70
     1
102
RTVSPost2010Prop29
280
     1
102
RTVSPost2010PropOp29
 70
     1
102
RTVSPost2010Prop30
280
     1
102
RTVSPost2010PropOp30
 70
     1
102
RTVSPost2010Prop31
280
     0
102
RTVSPost2010PropOp31
 70
     1
102
RTVSPost2010Prop32
280
     0
102
RTVSPost2010PropOp32
 70
     1
102
RTVSPost2010Prop33
280
     0
102
RTVSPost2010PropOp33
 70
     1
102
RTVSPost2010Prop34
280
     0
102
RTVSPost2010PropOp34
 70
     1
102
RTVSPost2010Prop35
280
     0
102
RTVSPost2010PropOp35
 70
     1
102
RTVSPost2010Prop36
280
     0
102
RTVSPost2010PropOp36
 70
     1
102
RTVSPost2010Prop37
 90
       50
102
RTVSPost2010PropOp37
 70
     1
102
RTVSPost2010Prop38
140
0.0
102
RTVSPost2010PropOp38
 70
     1
102
RTVSPost2010Prop39
140
1.0
102
RTVSPost2010PropOp39
 70
     1
102
RTVSPost2010Prop40
 90
        0
102
RTVSPost2010PropOp40
 70
     1
102
RTVSPost2010Prop41ColorIndex
 90
       18
102
RTVSPost2010Prop41ColorRGB
 90
        0
102
RTVSPost2010PropOp41
 70
     1
102
RTVSPost2010Prop42
 90
       50
102
RTVSPost2010PropOp42
 70
     1
102
RTVSPost2010Prop43
 90
        3
102
RTVSPost2010PropOp43
 70
     1
102
RTVSPost2010Prop44ColorIndex
 90
        5
102
RTVSPost2010Prop44ColorRGB
 90
      255
102
RTVSPost2010PropOp44
 70
     1
102
RTVSPost2010Prop45
280
     0
102
RTVSPost2010PropOp45
 70
     1
102
RTVSPost2010Prop46
 90
       50
102
RTVSPost2010PropOp46
 70
     1
102
RTVSPost2010Prop47
 90
       50
102
RTVSPost2010PropOp47
 70
     1
102
RTVSPost2010Prop48
 90
       50
102
RTVSPost2010PropOp48
 70
     1
102
RTVSPost2010Prop49
280
     0
102
RTVSPost2010PropOp49
 70
     1
102
RTVSPost2010Prop50
 90
       50
102
RTVSPost2010PropOp50
 70
     1
102
RTVSPost2010Prop51ColorIndex
 90
      256
102
RTVSPost2010Prop51ColorRGB
 90
-16777216
102
RTVSPost2010PropOp51
 70
     0
102
RTVSPost2010Prop52
140
1.0
102
RTVSPost2010PropOp52
 70
     0
102
RTVSPost2010Prop53
 90
        2
102
RTVSPost2010PropOp53
 70
     1
102
RTVSPost2010Prop54
  1
strokes_ogs.tif
102
RTVSPost2010PropOp54
 70
     1
102
RTVSPost2010Prop55
280
     0
102
RTVSPost2010PropOp55
 70
     1
102
RTVSPost2010Prop56
140
1.0
102
RTVSPost2010PropOp56
 70
     1
102
RTVSPost2010Prop57
140
1.0
102
RTVSPost2010PropOp57
 70
     1
  0
XRECORD
  5
1D3
102
{ACAD_REACTORS
330
1D2
102
}
330
1D2
100
AcDbXrecord
280
     1
102
RTVSPost2010Prop28
280
     0
102
RTVSPost2010PropOp28
 70
     1
102
RTVSPost2010Prop29
280
     1
102
RTVSPost2010PropOp29
 70
     1
102
RTVSPost2010Prop30
280
     1
102
RTVSPost2010PropOp30
 70
     1
102
RTVSPost2010Prop31
280
     0
102
RTVSPost2010PropOp31
 70
     1
102
RTVSPost2010Prop32
280
     0
102
RTVSPost2010PropOp32
 70
     1
102
RTVSPost2010Prop33
280
     0
102
RTVSPost2010PropOp33
 70
     1
102
RTVSPost2010Prop34
280
     0
102
RTVSPost2010PropOp34
 70
     1
102
RTVSPost2010Prop35
280
     0
102
RTVSPost2010PropOp35
 70
     1
102
RTVSPost2010Prop36
280
     0
102
RTVSPost2010PropOp36
 70
     1
102
RTVSPost2010Prop37
 90
       50
102
RTVSPost2010PropOp37
 70
     1
102
RTVSPost2010Prop38
140
0.0
102
RTVSPost2010PropOp38
 70
     1
102
RTVSPost2010Prop39
140
1.0
102
RTVSPost2010PropOp39
 70
     1
102
RTVSPost2010Prop40
 90
        0
102
RTVSPost2010PropOp40
 70
     1
102
RTVSPost2010Prop41ColorIndex
 90
       18
102
RTVSPost2010Prop41ColorRGB
 90
        0
102
RTVSPost2010PropOp41
 70
     1
102
RTVSPost2010Prop42
 90
       50
102
RTVSPost2010PropOp42
 70
     1
102
RTVSPost2010Prop43
 90
        3
102
RTVSPost2010PropOp43
 70
     1
102
RTVSPost2010Prop44ColorIndex
 90
        5
102
RTVSPost2010Prop44ColorRGB
 90
      255
102
RTVSPost2010PropOp44
 70
     1
102
RTVSPost2010Prop45
280
     0
102
RTVSPost2010PropOp45
 70
     1
102
RTVSPost2010Prop46
 90
       50
102
RTVSPost2010PropOp46
 70
     1
102
RTVSPost2010Prop47
 90
       50
102
RTVSPost2010PropOp47
 70
     1
102
RTVSPost2010Prop48
 90
       50
102
RTVSPost2010PropOp48
 70
     1
102
RTVSPost2010Prop49
280
     0
102
RTVSPost2010PropOp49
 70
     1
102
RTVSPost2010Prop50
 90
       50
102
RTVSPost2010PropOp50
 70
     1
102
RTVSPost2010Prop51ColorIndex
 90
      256
102
RTVSPost2010Prop51ColorRGB
 90
-16777216
102
RTVSPost2010PropOp51
 70
     0
102
RTVSPost2010Prop52
140
1.0
102
RTVSPost2010PropOp52
 70
     0
102
RTVSPost2010Prop53
 90
        2
102
RTVSPost2010PropOp53
 70
     1
102
RTVSPost2010Prop54
  1
strokes_ogs.tif
102
RTVSPost2010PropOp54
 70
     1
102
RTVSPost2010Prop55
280
     0
102
RTVSPost2010PropOp55
 70
     1
102
RTVSPost2010Prop56
140
1.0
102
RTVSPost2010PropOp56
 70
     1
102
RTVSPost2010Prop57
140
1.0
102
RTVSPost2010PropOp57
 70
     1
  0
XRECORD
  5
1C7
102
{ACAD_REACTORS
330
1C6
102
}
330
1C6
100
AcDbXrecord
280
     1
102
RTVSPost2010Prop28
280
     0
102
RTVSPost2010PropOp28
 70
     1
102
RTVSPost2010Prop29
280
     1
102
RTVSPost2010PropOp29
 70
     1
102
RTVSPost2010Prop30
280
     1
102
RTVSPost2010PropOp30
 70
     1
102
RTVSPost2010Prop31
280
     0
102
RTVSPost2010PropOp31
 70
     1
102
RTVSPost2010Prop32
280
     0
102
RTVSPost2010PropOp32
 70
     1
102
RTVSPost2010Prop33
280
     0
102
RTVSPost2010PropOp33
 70
     1
102
RTVSPost2010Prop34
280
     0
102
RTVSPost2010PropOp34
 70
     1
102
RTVSPost2010Prop35
280
     0
102
RTVSPost2010PropOp35
 70
     1
102
RTVSPost2010Prop36
280
     0
102
RTVSPost2010PropOp36
 70
     1
102
RTVSPost2010Prop37
 90
       50
102
RTVSPost2010PropOp37
 70
     1
102
RTVSPost2010Prop38
140
0.0
102
RTVSPost2010PropOp38
 70
     1
102
RTVSPost2010Prop39
140
1.0
102
RTVSPost2010PropOp39
 70
     1
102
RTVSPost2010Prop40
 90
        0
102
RTVSPost2010PropOp40
 70
     1
102
RTVSPost2010Prop41ColorIndex
 90
       18
102
RTVSPost2010Prop41ColorRGB
 90
        0
102
RTVSPost2010PropOp41
 70
     1
102
RTVSPost2010Prop42
 90
       50
102
RTVSPost2010PropOp42
 70
     1
102
RTVSPost2010Prop43
 90
        3
102
RTVSPost2010PropOp43
 70
     1
102
RTVSPost2010Prop44ColorIndex
 90
        5
102
RTVSPost2010Prop44ColorRGB
 90
      255
102
RTVSPost2010PropOp44
 70
     1
102
RTVSPost2010Prop45
280
     0
102
RTVSPost2010PropOp45
 70
     1
102
RTVSPost2010Prop46
 90
       50
102
RTVSPost2010PropOp46
 70
     1
102
RTVSPost2010Prop47
 90
       50
102
RTVSPost2010PropOp47
 70
     1
102
RTVSPost2010Prop48
 90
       50
102
RTVSPost2010PropOp48
 70
     1
102
RTVSPost2010Prop49
280
     0
102
RTVSPost2010PropOp49
 70
     1
102
RTVSPost2010Prop50
 90
       50
102
RTVSPost2010PropOp50
 70
     1
102
RTVSPost2010Prop51ColorIndex
 90
      256
102
RTVSPost2010Prop51ColorRGB
 90
-16777216
102
RTVSPost2010PropOp51
 70
     0
102
RTVSPost2010Prop52
140
1.0
102
RTVSPost2010PropOp52
 70
     0
102
RTVSPost2010Prop53
 90
        2
102
RTVSPost2010PropOp53
 70
     1
102
RTVSPost2010Prop54
  1
strokes_ogs.tif
102
RTVSPost2010PropOp54
 70
     1
102
RTVSPost2010Prop55
280
     0
102
RTVSPost2010PropOp55
 70
     1
102
RTVSPost2010Prop56
140
1.0
102
RTVSPost2010PropOp56
 70
     1
102
RTVSPost2010Prop57
140
1.0
102
RTVSPost2010PropOp57
 70
     1
  0
XRECORD
  5
1C9
102
{ACAD_REACTORS
330
1C8
102
}
330
1C8
100
AcDbXrecord
280
     1
102
RTVSPost2010Prop28
280
     0
102
RTVSPost2010PropOp28
 70
     1
102
RTVSPost2010Prop29
280
     1
102
RTVSPost2010PropOp29
 70
     1
102
RTVSPost2010Prop30
280
     1
102
RTVSPost2010PropOp30
 70
     1
102
RTVSPost2010Prop31
280
     0
102
RTVSPost2010PropOp31
 70
     1
102
RTVSPost2010Prop32
280
     0
102
RTVSPost2010PropOp32
 70
     1
102
RTVSPost2010Prop33
280
     0
102
RTVSPost2010PropOp33
 70
     1
102
RTVSPost2010Prop34
280
     0
102
RTVSPost2010PropOp34
 70
     1
102
RTVSPost2010Prop35
280
     0
102
RTVSPost2010PropOp35
 70
     1
102
RTVSPost2010Prop36
280
     0
102
RTVSPost2010PropOp36
 70
     1
102
RTVSPost2010Prop37
 90
       50
102
RTVSPost2010PropOp37
 70
     1
102
RTVSPost2010Prop38
140
0.0
102
RTVSPost2010PropOp38
 70
     1
102
RTVSPost2010Prop39
140
1.0
102
RTVSPost2010PropOp39
 70
     1
102
RTVSPost2010Prop40
 90
        0
102
RTVSPost2010PropOp40
 70
     1
102
RTVSPost2010Prop41ColorIndex
 90
       18
102
RTVSPost2010Prop41ColorRGB
 90
        0
102
RTVSPost2010PropOp41
 70
     1
102
RTVSPost2010Prop42
 90
       50
102
RTVSPost2010PropOp42
 70
     1
102
RTVSPost2010Prop43
 90
        3
102
RTVSPost2010PropOp43
 70
     1
102
RTVSPost2010Prop44ColorIndex
 90
        5
102
RTVSPost2010Prop44ColorRGB
 90
      255
102
RTVSPost2010PropOp44
 70
     1
102
RTVSPost2010Prop45
280
     0
102
RTVSPost2010PropOp45
 70
     1
102
RTVSPost2010Prop46
 90
       50
102
RTVSPost2010PropOp46
 70
     1
102
RTVSPost2010Prop47
 90
       50
102
RTVSPost2010PropOp47
 70
     1
102
RTVSPost2010Prop48
 90
       50
102
RTVSPost2010PropOp48
 70
     1
102
RTVSPost2010Prop49
280
     0
102
RTVSPost2010PropOp49
 70
     1
102
RTVSPost2010Prop50
 90
       50
102
RTVSPost2010PropOp50
 70
     1
102
RTVSPost2010Prop51ColorIndex
 90
      256
102
RTVSPost2010Prop51ColorRGB
 90
-16777216
102
RTVSPost2010PropOp51
 70
     0
102
RTVSPost2010Prop52
140
1.0
102
RTVSPost2010PropOp52
 70
     0
102
RTVSPost2010Prop53
 90
        2
102
RTVSPost2010PropOp53
 70
     1
102
RTVSPost2010Prop54
  1
strokes_ogs.tif
102
RTVSPost2010PropOp54
 70
     1
102
RTVSPost2010Prop55
280
     0
102
RTVSPost2010PropOp55
 70
     1
102
RTVSPost2010Prop56
140
1.0
102
RTVSPost2010PropOp56
 70
     1
102
RTVSPost2010Prop57
140
1.0
102
RTVSPost2010PropOp57
 70
     1
  0
XRECORD
  5
1D9
102
{ACAD_REACTORS
330
1D8
102
}
330
1D8
100
AcDbXrecord
280
     1
102
RTVSPost2010Prop28
280
     0
102
RTVSPost2010PropOp28
 70
     0
102
RTVSPost2010Prop29
280
     1
102
RTVSPost2010PropOp29
 70
     0
102
RTVSPost2010Prop30
280
     1
102
RTVSPost2010PropOp30
 70
     0
102
RTVSPost2010Prop31
280
     0
102
RTVSPost2010PropOp31
 70
     0
102
RTVSPost2010Prop32
280
     0
102
RTVSPost2010PropOp32
 70
     0
102
RTVSPost2010Prop33
280
     0
102
RTVSPost2010PropOp33
 70
     0
102
RTVSPost2010Prop34
280
     0
102
RTVSPost2010PropOp34
 70
     0
102
RTVSPost2010Prop35
280
     0
102
RTVSPost2010PropOp35
 70
     0
102
RTVSPost2010Prop36
280
     0
102
RTVSPost2010PropOp36
 70
     0
102
RTVSPost2010Prop37
 90
       50
102
RTVSPost2010PropOp37
 70
     0
102
RTVSPost2010Prop38
140
0.0
102
RTVSPost2010PropOp38
 70
     0
102
RTVSPost2010Prop39
140
1.0
102
RTVSPost2010PropOp39
 70
     0
102
RTVSPost2010Prop40
 90
        0
102
RTVSPost2010PropOp40
 70
     0
102
RTVSPost2010Prop41ColorIndex
 90
       18
102
RTVSPost2010Prop41ColorRGB
 90
        0
102
RTVSPost2010PropOp41
 70
     0
102
RTVSPost2010Prop42
 90
       50
102
RTVSPost2010PropOp42
 70
     0
102
RTVSPost2010Prop43
 90
        3
102
RTVSPost2010PropOp43
 70
     0
102
RTVSPost2010Prop44ColorIndex
 90
        5
102
RTVSPost2010Prop44ColorRGB
 90
      255
102
RTVSPost2010PropOp44
 70
     0
102
RTVSPost2010Prop45
280
     0
102
RTVSPost2010PropOp45
 70
     0
102
RTVSPost2010Prop46
 90
       50
102
RTVSPost2010PropOp46
 70
     0
102
RTVSPost2010Prop47
 90
       50
102
RTVSPost2010PropOp47
 70
     0
102
RTVSPost2010Prop48
 90
       50
102
RTVSPost2010PropOp48
 70
     0
102
RTVSPost2010Prop49
280
     0
102
RTVSPost2010PropOp49
 70
     0
102
RTVSPost2010Prop50
 90
       50
102
RTVSPost2010PropOp50
 70
     0
102
RTVSPost2010Prop51ColorIndex
 90
      256
102
RTVSPost2010Prop51ColorRGB
 90
-16777216
102
RTVSPost2010PropOp51
 70
     0
102
RTVSPost2010Prop52
140
1.0
102
RTVSPost2010PropOp52
 70
     0
102
RTVSPost2010Prop53
 90
        2
102
RTVSPost2010PropOp53
 70
     0
102
RTVSPost2010Prop54
  1
strokes_ogs.tif
102
RTVSPost2010PropOp54
 70
     0
102
RTVSPost2010Prop55
280
     0
102
RTVSPost2010PropOp55
 70
     0
102
RTVSPost2010Prop56
140
1.0
102
RTVSPost2010PropOp56
 70
     0
102
RTVSPost2010Prop57
140
1.0
102
RTVSPost2010PropOp57
 70
     0
  0
XRECORD
  5
1D1
102
{ACAD_REACTORS
330
1D0
102
}
330
1D0
100
AcDbXrecord
280
     1
102
RTVSPost2010Prop28
280
     0
102
RTVSPost2010PropOp28
 70
     1
102
RTVSPost2010Prop29
280
     1
102
RTVSPost2010PropOp29
 70
     1
102
RTVSPost2010Prop30
280
     1
102
RTVSPost2010PropOp30
 70
     1
102
RTVSPost2010Prop31
280
     0
102
RTVSPost2010PropOp31
 70
     1
102
RTVSPost2010Prop32
280
     0
102
RTVSPost2010PropOp32
 70
     1
102
RTVSPost2010Prop33
280
     0
102
RTVSPost2010PropOp33
 70
     1
102
RTVSPost2010Prop34
280
     0
102
RTVSPost2010PropOp34
 70
     1
102
RTVSPost2010Prop35
280
     0
102
RTVSPost2010PropOp35
 70
     1
102
RTVSPost2010Prop36
280
     0
102
RTVSPost2010PropOp36
 70
     1
102
RTVSPost2010Prop37
 90
       50
102
RTVSPost2010PropOp37
 70
     1
102
RTVSPost2010Prop38
140
0.0
102
RTVSPost2010PropOp38
 70
     1
102
RTVSPost2010Prop39
140
1.0
102
RTVSPost2010PropOp39
 70
     1
102
RTVSPost2010Prop40
 90
        0
102
RTVSPost2010PropOp40
 70
     1
102
RTVSPost2010Prop41ColorIndex
 90
       18
102
RTVSPost2010Prop41ColorRGB
 90
        0
102
RTVSPost2010PropOp41
 70
     1
102
RTVSPost2010Prop42
 90
       50
102
RTVSPost2010PropOp42
 70
     1
102
RTVSPost2010Prop43
 90
        3
102
RTVSPost2010PropOp43
 70
     1
102
RTVSPost2010Prop44ColorIndex
 90
        5
102
RTVSPost2010Prop44ColorRGB
 90
      255
102
RTVSPost2010PropOp44
 70
     1
102
RTVSPost2010Prop45
280
     0
102
RTVSPost2010PropOp45
 70
     1
102
RTVSPost2010Prop46
 90
       50
102
RTVSPost2010PropOp46
 70
     1
102
RTVSPost2010Prop47
 90
       50
102
RTVSPost2010PropOp47
 70
     1
102
RTVSPost2010Prop48
 90
       50
102
RTVSPost2010PropOp48
 70
     1
102
RTVSPost2010Prop49
280
     0
102
RTVSPost2010PropOp49
 70
     1
102
RTVSPost2010Prop50
 90
       50
102
RTVSPost2010PropOp50
 70
     1
102
RTVSPost2010Prop51ColorIndex
 90
      256
102
RTVSPost2010Prop51ColorRGB
 90
-16777216
102
RTVSPost2010PropOp51
 70
     0
102
RTVSPost2010Prop52
140
1.0
102
RTVSPost2010PropOp52
 70
     0
102
RTVSPost2010Prop53
 90
        2
102
RTVSPost2010PropOp53
 70
     1
102
RTVSPost2010Prop54
  1
strokes_ogs.tif
102
RTVSPost2010PropOp54
 70
     1
102
RTVSPost2010Prop55
280
     0
102
RTVSPost2010PropOp55
 70
     1
102
RTVSPost2010Prop56
140
1.0
102
RTVSPost2010PropOp56
 70
     1
102
RTVSPost2010Prop57
140
1.0
102
RTVSPost2010PropOp57
 70
     1
  0
XRECORD
  5
1B5
102
{ACAD_REACTORS
330
1B4
102
}
330
1B4
100
AcDbXrecord
280
     1
102
RTVSPost2010Prop28
280
     0
102
RTVSPost2010PropOp28
 70
     1
102
RTVSPost2010Prop29
280
     1
102
RTVSPost2010PropOp29
 70
     1
102
RTVSPost2010Prop30
280
     1
102
RTVSPost2010PropOp30
 70
     1
102
RTVSPost2010Prop31
280
     0
102
RTVSPost2010PropOp31
 70
     1
102
RTVSPost2010Prop32
280
     0
102
RTVSPost2010PropOp32
 70
     1
102
RTVSPost2010Prop33
280
     0
102
RTVSPost2010PropOp33
 70
     1
102
RTVSPost2010Prop34
280
     0
102
RTVSPost2010PropOp34
 70
     1
102
RTVSPost2010Prop35
280
     0
102
RTVSPost2010PropOp35
 70
     1
102
RTVSPost2010Prop36
280
     0
102
RTVSPost2010PropOp36
 70
     1
102
RTVSPost2010Prop37
 90
       50
102
RTVSPost2010PropOp37
 70
     1
102
RTVSPost2010Prop38
140
0.0
102
RTVSPost2010PropOp38
 70
     1
102
RTVSPost2010Prop39
140
1.0
102
RTVSPost2010PropOp39
 70
     1
102
RTVSPost2010Prop40
 90
        0
102
RTVSPost2010PropOp40
 70
     1
102
RTVSPost2010Prop41ColorIndex
 90
       18
102
RTVSPost2010Prop41ColorRGB
 90
        0
102
RTVSPost2010PropOp41
 70
     1
102
RTVSPost2010Prop42
 90
       50
102
RTVSPost2010PropOp42
 70
     1
102
RTVSPost2010Prop43
 90
        3
102
RTVSPost2010PropOp43
 70
     1
102
RTVSPost2010Prop44ColorIndex
 90
        5
102
RTVSPost2010Prop44ColorRGB
 90
      255
102
RTVSPost2010PropOp44
 70
     1
102
RTVSPost2010Prop45
280
     0
102
RTVSPost2010PropOp45
 70
     1
102
RTVSPost2010Prop46
 90
       50
102
RTVSPost2010PropOp46
 70
     1
102
RTVSPost2010Prop47
 90
       50
102
RTVSPost2010PropOp47
 70
     1
102
RTVSPost2010Prop48
 90
       50
102
RTVSPost2010PropOp48
 70
     1
102
RTVSPost2010Prop49
280
     0
102
RTVSPost2010PropOp49
 70
     1
102
RTVSPost2010Prop50
 90
       50
102
RTVSPost2010PropOp50
 70
     1
102
RTVSPost2010Prop51ColorIndex
 90
      256
102
RTVSPost2010Prop51ColorRGB
 90
-16777216
102
RTVSPost2010PropOp51
 70
     0
102
RTVSPost2010Prop52
140
1.0
102
RTVSPost2010PropOp52
 70
     0
102
RTVSPost2010Prop53
 90
        2
102
RTVSPost2010PropOp53
 70
     1
102
RTVSPost2010Prop54
  1
strokes_ogs.tif
102
RTVSPost2010PropOp54
 70
     1
102
RTVSPost2010Prop55
280
     0
102
RTVSPost2010PropOp55
 70
     1
102
RTVSPost2010Prop56
140
1.0
102
RTVSPost2010PropOp56
 70
     1
102
RTVSPost2010Prop57
140
1.0
102
RTVSPost2010PropOp57
 70
     1
  0
XRECORD
  5
1B7
102
{ACAD_REACTORS
330
1B6
102
}
330
1B6
100
AcDbXrecord
280
     1
102
RTVSPost2010Prop28
280
     0
102
RTVSPost2010PropOp28
 70
     1
102
RTVSPost2010Prop29
280
     1
102
RTVSPost2010PropOp29
 70
     1
102
RTVSPost2010Prop30
280
     1
102
RTVSPost2010PropOp30
 70
     1
102
RTVSPost2010Prop31
280
     0
102
RTVSPost2010PropOp31
 70
     1
102
RTVSPost2010Prop32
280
     0
102
RTVSPost2010PropOp32
 70
     1
102
RTVSPost2010Prop33
280
     0
102
RTVSPost2010PropOp33
 70
     1
102
RTVSPost2010Prop34
280
     0
102
RTVSPost2010PropOp34
 70
     1
102
RTVSPost2010Prop35
280
     0
102
RTVSPost2010PropOp35
 70
     1
102
RTVSPost2010Prop36
280
     0
102
RTVSPost2010PropOp36
 70
     1
102
RTVSPost2010Prop37
 90
       50
102
RTVSPost2010PropOp37
 70
     1
102
RTVSPost2010Prop38
140
0.0
102
RTVSPost2010PropOp38
 70
     1
102
RTVSPost2010Prop39
140
1.0
102
RTVSPost2010PropOp39
 70
     1
102
RTVSPost2010Prop40
 90
        0
102
RTVSPost2010PropOp40
 70
     1
102
RTVSPost2010Prop41ColorIndex
 90
       18
102
RTVSPost2010Prop41ColorRGB
 90
        0
102
RTVSPost2010PropOp41
 70
     1
102
RTVSPost2010Prop42
 90
       50
102
RTVSPost2010PropOp42
 70
     1
102
RTVSPost2010Prop43
 90
        3
102
RTVSPost2010PropOp43
 70
     1
102
RTVSPost2010Prop44ColorIndex
 90
        5
102
RTVSPost2010Prop44ColorRGB
 90
      255
102
RTVSPost2010PropOp44
 70
     1
102
RTVSPost2010Prop45
280
     0
102
RTVSPost2010PropOp45
 70
     1
102
RTVSPost2010Prop46
 90
       50
102
RTVSPost2010PropOp46
 70
     1
102
RTVSPost2010Prop47
 90
       50
102
RTVSPost2010PropOp47
 70
     1
102
RTVSPost2010Prop48
 90
       50
102
RTVSPost2010PropOp48
 70
     1
102
RTVSPost2010Prop49
280
     0
102
RTVSPost2010PropOp49
 70
     1
102
RTVSPost2010Prop50
 90
       50
102
RTVSPost2010PropOp50
 70
     1
102
RTVSPost2010Prop51ColorIndex
 90
      256
102
RTVSPost2010Prop51ColorRGB
 90
-16777216
102
RTVSPost2010PropOp51
 70
     0
102
RTVSPost2010Prop52
140
1.0
102
RTVSPost2010PropOp52
 70
     0
102
RTVSPost2010Prop53
 90
        2
102
RTVSPost2010PropOp53
 70
     1
102
RTVSPost2010Prop54
  1
strokes_ogs.tif
102
RTVSPost2010PropOp54
 70
     1
102
RTVSPost2010Prop55
280
     0
102
RTVSPost2010PropOp55
 70
     1
102
RTVSPost2010Prop56
140
1.0
102
RTVSPost2010PropOp56
 70
     1
102
RTVSPost2010Prop57
140
1.0
102
RTVSPost2010PropOp57
 70
     1
  0
XRECORD
  5
1B9
102
{ACAD_REACTORS
330
1B8
102
}
330
1B8
100
AcDbXrecord
280
     1
102
RTVSPost2010Prop28
280
     0
102
RTVSPost2010PropOp28
 70
     1
102
RTVSPost2010Prop29
280
     1
102
RTVSPost2010PropOp29
 70
     1
102
RTVSPost2010Prop30
280
     1
102
RTVSPost2010PropOp30
 70
     1
102
RTVSPost2010Prop31
280
     0
102
RTVSPost2010PropOp31
 70
     1
102
RTVSPost2010Prop32
280
     0
102
RTVSPost2010PropOp32
 70
     1
102
RTVSPost2010Prop33
280
     0
102
RTVSPost2010PropOp33
 70
     1
102
RTVSPost2010Prop34
280
     0
102
RTVSPost2010PropOp34
 70
     1
102
RTVSPost2010Prop35
280
     0
102
RTVSPost2010PropOp35
 70
     1
102
RTVSPost2010Prop36
280
     0
102
RTVSPost2010PropOp36
 70
     1
102
RTVSPost2010Prop37
 90
       50
102
RTVSPost2010PropOp37
 70
     1
102
RTVSPost2010Prop38
140
0.0
102
RTVSPost2010PropOp38
 70
     1
102
RTVSPost2010Prop39
140
1.0
102
RTVSPost2010PropOp39
 70
     1
102
RTVSPost2010Prop40
 90
        0
102
RTVSPost2010PropOp40
 70
     1
102
RTVSPost2010Prop41ColorIndex
 90
       18
102
RTVSPost2010Prop41ColorRGB
 90
        0
102
RTVSPost2010PropOp41
 70
     1
102
RTVSPost2010Prop42
 90
       50
102
RTVSPost2010PropOp42
 70
     1
102
RTVSPost2010Prop43
 90
        3
102
RTVSPost2010PropOp43
 70
     1
102
RTVSPost2010Prop44ColorIndex
 90
        5
102
RTVSPost2010Prop44ColorRGB
 90
      255
102
RTVSPost2010PropOp44
 70
     1
102
RTVSPost2010Prop45
280
     0
102
RTVSPost2010PropOp45
 70
     1
102
RTVSPost2010Prop46
 90
       50
102
RTVSPost2010PropOp46
 70
     1
102
RTVSPost2010Prop47
 90
       50
102
RTVSPost2010PropOp47
 70
     1
102
RTVSPost2010Prop48
 90
       50
102
RTVSPost2010PropOp48
 70
     1
102
RTVSPost2010Prop49
280
     0
102
RTVSPost2010PropOp49
 70
     1
102
RTVSPost2010Prop50
 90
       50
102
RTVSPost2010PropOp50
 70
     1
102
RTVSPost2010Prop51ColorIndex
 90
      256
102
RTVSPost2010Prop51ColorRGB
 90
-16777216
102
RTVSPost2010PropOp51
 70
     0
102
RTVSPost2010Prop52
140
1.0
102
RTVSPost2010PropOp52
 70
     0
102
RTVSPost2010Prop53
 90
        2
102
RTVSPost2010PropOp53
 70
     1
102
RTVSPost2010Prop54
  1
strokes_ogs.tif
102
RTVSPost2010PropOp54
 70
     1
102
RTVSPost2010Prop55
280
     0
102
RTVSPost2010PropOp55
 70
     1
102
RTVSPost2010Prop56
140
1.0
102
RTVSPost2010PropOp56
 70
     1
102
RTVSPost2010Prop57
140
1.0
102
RTVSPost2010PropOp57
 70
     1
  0
XRECORD
  5
1BB
102
{ACAD_REACTORS
330
1BA
102
}
330
1BA
100
AcDbXrecord
280
     1
102
RTVSPost2010Prop28
280
     0
102
RTVSPost2010PropOp28
 70
     1
102
RTVSPost2010Prop29
280
     1
102
RTVSPost2010PropOp29
 70
     1
102
RTVSPost2010Prop30
280
     1
102
RTVSPost2010PropOp30
 70
     1
102
RTVSPost2010Prop31
280
     0
102
RTVSPost2010PropOp31
 70
     1
102
RTVSPost2010Prop32
280
     0
102
RTVSPost2010PropOp32
 70
     1
102
RTVSPost2010Prop33
280
     0
102
RTVSPost2010PropOp33
 70
     1
102
RTVSPost2010Prop34
280
     0
102
RTVSPost2010PropOp34
 70
     1
102
RTVSPost2010Prop35
280
     0
102
RTVSPost2010PropOp35
 70
     1
102
RTVSPost2010Prop36
280
     0
102
RTVSPost2010PropOp36
 70
     1
102
RTVSPost2010Prop37
 90
       50
102
RTVSPost2010PropOp37
 70
     1
102
RTVSPost2010Prop38
140
0.0
102
RTVSPost2010PropOp38
 70
     1
102
RTVSPost2010Prop39
140
1.0
102
RTVSPost2010PropOp39
 70
     1
102
RTVSPost2010Prop40
 90
        0
102
RTVSPost2010PropOp40
 70
     1
102
RTVSPost2010Prop41ColorIndex
 90
       18
102
RTVSPost2010Prop41ColorRGB
 90
        0
102
RTVSPost2010PropOp41
 70
     1
102
RTVSPost2010Prop42
 90
       50
102
RTVSPost2010PropOp42
 70
     1
102
RTVSPost2010Prop43
 90
        3
102
RTVSPost2010PropOp43
 70
     1
102
RTVSPost2010Prop44ColorIndex
 90
        5
102
RTVSPost2010Prop44ColorRGB
 90
      255
102
RTVSPost2010PropOp44
 70
     1
102
RTVSPost2010Prop45
280
     0
102
RTVSPost2010PropOp45
 70
     1
102
RTVSPost2010Prop46
 90
       50
102
RTVSPost2010PropOp46
 70
     1
102
RTVSPost2010Prop47
 90
       50
102
RTVSPost2010PropOp47
 70
     1
102
RTVSPost2010Prop48
 90
       50
102
RTVSPost2010PropOp48
 70
     1
102
RTVSPost2010Prop49
280
     0
102
RTVSPost2010PropOp49
 70
     1
102
RTVSPost2010Prop50
 90
       50
102
RTVSPost2010PropOp50
 70
     1
102
RTVSPost2010Prop51ColorIndex
 90
      256
102
RTVSPost2010Prop51ColorRGB
 90
-16777216
102
RTVSPost2010PropOp51
 70
     0
102
RTVSPost2010Prop52
140
1.0
102
RTVSPost2010PropOp52
 70
     0
102
RTVSPost2010Prop53
 90
        2
102
RTVSPost2010PropOp53
 70
     1
102
RTVSPost2010Prop54
  1
strokes_ogs.tif
102
RTVSPost2010PropOp54
 70
     1
102
RTVSPost2010Prop55
280
     0
102
RTVSPost2010PropOp55
 70
     1
102
RTVSPost2010Prop56
140
1.0
102
RTVSPost2010PropOp56
 70
     1
102
RTVSPost2010Prop57
140
1.0
102
RTVSPost2010PropOp57
 70
     1
  0
XRECORD
  5
1C1
102
{ACAD_REACTORS
330
1C0
102
}
330
1C0
100
AcDbXrecord
280
     1
102
RTVSPost2010Prop28
280
     0
102
RTVSPost2010PropOp28
 70
     1
102
RTVSPost2010Prop29
280
     1
102
RTVSPost2010PropOp29
 70
     1
102
RTVSPost2010Prop30
280
     1
102
RTVSPost2010PropOp30
 70
     1
102
RTVSPost2010Prop31
280
     0
102
RTVSPost2010PropOp31
 70
     1
102
RTVSPost2010Prop32
280
     0
102
RTVSPost2010PropOp32
 70
     1
102
RTVSPost2010Prop33
280
     0
102
RTVSPost2010PropOp33
 70
     1
102
RTVSPost2010Prop34
280
     0
102
RTVSPost2010PropOp34
 70
     1
102
RTVSPost2010Prop35
280
     0
102
RTVSPost2010PropOp35
 70
     1
102
RTVSPost2010Prop36
280
     0
102
RTVSPost2010PropOp36
 70
     1
102
RTVSPost2010Prop37
 90
       50
102
RTVSPost2010PropOp37
 70
     1
102
RTVSPost2010Prop38
140
0.0
102
RTVSPost2010PropOp38
 70
     1
102
RTVSPost2010Prop39
140
1.0
102
RTVSPost2010PropOp39
 70
     1
102
RTVSPost2010Prop40
 90
        0
102
RTVSPost2010PropOp40
 70
     1
102
RTVSPost2010Prop41ColorIndex
 90
       18
102
RTVSPost2010Prop41ColorRGB
 90
        0
102
RTVSPost2010PropOp41
 70
     1
102
RTVSPost2010Prop42
 90
       50
102
RTVSPost2010PropOp42
 70
     1
102
RTVSPost2010Prop43
 90
        3
102
RTVSPost2010PropOp43
 70
     1
102
RTVSPost2010Prop44ColorIndex
 90
        5
102
RTVSPost2010Prop44ColorRGB
 90
      255
102
RTVSPost2010PropOp44
 70
     1
102
RTVSPost2010Prop45
280
     0
102
RTVSPost2010PropOp45
 70
     1
102
RTVSPost2010Prop46
 90
       50
102
RTVSPost2010PropOp46
 70
     1
102
RTVSPost2010Prop47
 90
       50
102
RTVSPost2010PropOp47
 70
     1
102
RTVSPost2010Prop48
 90
       50
102
RTVSPost2010PropOp48
 70
     1
102
RTVSPost2010Prop49
280
     0
102
RTVSPost2010PropOp49
 70
     1
102
RTVSPost2010Prop50
 90
       50
102
RTVSPost2010PropOp50
 70
     1
102
RTVSPost2010Prop51ColorIndex
 90
      256
102
RTVSPost2010Prop51ColorRGB
 90
-16777216
102
RTVSPost2010PropOp51
 70
     0
102
RTVSPost2010Prop52
140
1.0
102
RTVSPost2010PropOp52
 70
     0
102
RTVSPost2010Prop53
 90
        2
102
RTVSPost2010PropOp53
 70
     1
102
RTVSPost2010Prop54
  1
strokes_ogs.tif
102
RTVSPost2010PropOp54
 70
     1
102
RTVSPost2010Prop55
280
     0
102
RTVSPost2010PropOp55
 70
     1
102
RTVSPost2010Prop56
140
1.0
102
RTVSPost2010PropOp56
 70
     1
102
RTVSPost2010Prop57
140
1.0
102
RTVSPost2010PropOp57
 70
     1
  0
XRECORD
  5
1D5
102
{ACAD_REACTORS
330
1D4
102
}
330
1D4
100
AcDbXrecord
280
     1
102
RTVSPost2010Prop28
280
     0
102
RTVSPost2010PropOp28
 70
     0
102
RTVSPost2010Prop29
280
     1
102
RTVSPost2010PropOp29
 70
     0
102
RTVSPost2010Prop30
280
     1
102
RTVSPost2010PropOp30
 70
     0
102
RTVSPost2010Prop31
280
     0
102
RTVSPost2010PropOp31
 70
     0
102
RTVSPost2010Prop32
280
     0
102
RTVSPost2010PropOp32
 70
     0
102
RTVSPost2010Prop33
280
     0
102
RTVSPost2010PropOp33
 70
     0
102
RTVSPost2010Prop34
280
     0
102
RTVSPost2010PropOp34
 70
     0
102
RTVSPost2010Prop35
280
     0
102
RTVSPost2010PropOp35
 70
     0
102
RTVSPost2010Prop36
280
     0
102
RTVSPost2010PropOp36
 70
     0
102
RTVSPost2010Prop37
 90
       50
102
RTVSPost2010PropOp37
 70
     0
102
RTVSPost2010Prop38
140
0.0
102
RTVSPost2010PropOp38
 70
     0
102
RTVSPost2010Prop39
140
1.0
102
RTVSPost2010PropOp39
 70
     0
102
RTVSPost2010Prop40
 90
        0
102
RTVSPost2010PropOp40
 70
     0
102
RTVSPost2010Prop41ColorIndex
 90
       18
102
RTVSPost2010Prop41ColorRGB
 90
        0
102
RTVSPost2010PropOp41
 70
     0
102
RTVSPost2010Prop42
 90
       50
102
RTVSPost2010PropOp42
 70
     0
102
RTVSPost2010Prop43
 90
        3
102
RTVSPost2010PropOp43
 70
     0
102
RTVSPost2010Prop44ColorIndex
 90
        5
102
RTVSPost2010Prop44ColorRGB
 90
      255
102
RTVSPost2010PropOp44
 70
     0
102
RTVSPost2010Prop45
280
     0
102
RTVSPost2010PropOp45
 70
     0
102
RTVSPost2010Prop46
 90
       50
102
RTVSPost2010PropOp46
 70
     0
102
RTVSPost2010Prop47
 90
       50
102
RTVSPost2010PropOp47
 70
     0
102
RTVSPost2010Prop48
 90
       50
102
RTVSPost2010PropOp48
 70
     0
102
RTVSPost2010Prop49
280
     0
102
RTVSPost2010PropOp49
 70
     0
102
RTVSPost2010Prop50
 90
       50
102
RTVSPost2010PropOp50
 70
     0
102
RTVSPost2010Prop51ColorIndex
 90
      256
102
RTVSPost2010Prop51ColorRGB
 90
-16777216
102
RTVSPost2010PropOp51
 70
     0
102
RTVSPost2010Prop52
140
1.0
102
RTVSPost2010PropOp52
 70
     0
102
RTVSPost2010Prop53
 90
        2
102
RTVSPost2010PropOp53
 70
     0
102
RTVSPost2010Prop54
  1
strokes_ogs.tif
102
RTVSPost2010PropOp54
 70
     0
102
RTVSPost2010Prop55
280
     0
102
RTVSPost2010PropOp55
 70
     0
102
RTVSPost2010Prop56
140
1.0
102
RTVSPost2010PropOp56
 70
     0
102
RTVSPost2010Prop57
140
1.0
102
RTVSPost2010PropOp57
 70
     0
  0
XRECORD
  5
1CF
102
{ACAD_REACTORS
330
1CE
102
}
330
1CE
100
AcDbXrecord
280
     1
102
RTVSPost2010Prop28
280
     0
102
RTVSPost2010PropOp28
 70
     1
102
RTVSPost2010Prop29
280
     1
102
RTVSPost2010PropOp29
 70
     1
102
RTVSPost2010Prop30
280
     1
102
RTVSPost2010PropOp30
 70
     1
102
RTVSPost2010Prop31
280
     0
102
RTVSPost2010PropOp31
 70
     1
102
RTVSPost2010Prop32
280
     0
102
RTVSPost2010PropOp32
 70
     1
102
RTVSPost2010Prop33
280
     0
102
RTVSPost2010PropOp33
 70
     1
102
RTVSPost2010Prop34
280
     0
102
RTVSPost2010PropOp34
 70
     1
102
RTVSPost2010Prop35
280
     0
102
RTVSPost2010PropOp35
 70
     1
102
RTVSPost2010Prop36
280
     0
102
RTVSPost2010PropOp36
 70
     1
102
RTVSPost2010Prop37
 90
       50
102
RTVSPost2010PropOp37
 70
     1
102
RTVSPost2010Prop38
140
0.0
102
RTVSPost2010PropOp38
 70
     1
102
RTVSPost2010Prop39
140
1.0
102
RTVSPost2010PropOp39
 70
     1
102
RTVSPost2010Prop40
 90
        0
102
RTVSPost2010PropOp40
 70
     1
102
RTVSPost2010Prop41ColorIndex
 90
       18
102
RTVSPost2010Prop41ColorRGB
 90
        0
102
RTVSPost2010PropOp41
 70
     1
102
RTVSPost2010Prop42
 90
       50
102
RTVSPost2010PropOp42
 70
     1
102
RTVSPost2010Prop43
 90
        3
102
RTVSPost2010PropOp43
 70
     1
102
RTVSPost2010Prop44ColorIndex
 90
        5
102
RTVSPost2010Prop44ColorRGB
 90
      255
102
RTVSPost2010PropOp44
 70
     1
102
RTVSPost2010Prop45
280
     0
102
RTVSPost2010PropOp45
 70
     1
102
RTVSPost2010Prop46
 90
       50
102
RTVSPost2010PropOp46
 70
     1
102
RTVSPost2010Prop47
 90
       50
102
RTVSPost2010PropOp47
 70
     1
102
RTVSPost2010Prop48
 90
       50
102
RTVSPost2010PropOp48
 70
     1
102
RTVSPost2010Prop49
280
     0
102
RTVSPost2010PropOp49
 70
     1
102
RTVSPost2010Prop50
 90
       50
102
RTVSPost2010PropOp50
 70
     1
102
RTVSPost2010Prop51ColorIndex
 90
      256
102
RTVSPost2010Prop51ColorRGB
 90
-16777216
102
RTVSPost2010PropOp51
 70
     0
102
RTVSPost2010Prop52
140
1.0
102
RTVSPost2010PropOp52
 70
     0
102
RTVSPost2010Prop53
 90
        2
102
RTVSPost2010PropOp53
 70
     1
102
RTVSPost2010Prop54
  1
strokes_ogs.tif
102
RTVSPost2010PropOp54
 70
     1
102
RTVSPost2010Prop55
280
     0
102
RTVSPost2010PropOp55
 70
     1
102
RTVSPost2010Prop56
140
1.0
102
RTVSPost2010PropOp56
 70
     1
102
RTVSPost2010Prop57
140
1.0
102
RTVSPost2010PropOp57
 70
     1
  0
XRECORD
  5
1D7
102
{ACAD_REACTORS
330
1D6
102
}
330
1D6
100
AcDbXrecord
280
     1
102
RTVSPost2010Prop28
280
     0
102
RTVSPost2010PropOp28
 70
     0
102
RTVSPost2010Prop29
280
     1
102
RTVSPost2010PropOp29
 70
     0
102
RTVSPost2010Prop30
280
     1
102
RTVSPost2010PropOp30
 70
     0
102
RTVSPost2010Prop31
280
     0
102
RTVSPost2010PropOp31
 70
     0
102
RTVSPost2010Prop32
280
     0
102
RTVSPost2010PropOp32
 70
     0
102
RTVSPost2010Prop33
280
     0
102
RTVSPost2010PropOp33
 70
     0
102
RTVSPost2010Prop34
280
     0
102
RTVSPost2010PropOp34
 70
     0
102
RTVSPost2010Prop35
280
     0
102
RTVSPost2010PropOp35
 70
     0
102
RTVSPost2010Prop36
280
     0
102
RTVSPost2010PropOp36
 70
     0
102
RTVSPost2010Prop37
 90
       50
102
RTVSPost2010PropOp37
 70
     0
102
RTVSPost2010Prop38
140
0.0
102
RTVSPost2010PropOp38
 70
     0
102
RTVSPost2010Prop39
140
1.0
102
RTVSPost2010PropOp39
 70
     0
102
RTVSPost2010Prop40
 90
        0
102
RTVSPost2010PropOp40
 70
     0
102
RTVSPost2010Prop41ColorIndex
 90
       18
102
RTVSPost2010Prop41ColorRGB
 90
        0
102
RTVSPost2010PropOp41
 70
     0
102
RTVSPost2010Prop42
 90
       50
102
RTVSPost2010PropOp42
 70
     0
102
RTVSPost2010Prop43
 90
        3
102
RTVSPost2010PropOp43
 70
     0
102
RTVSPost2010Prop44ColorIndex
 90
        5
102
RTVSPost2010Prop44ColorRGB
 90
      255
102
RTVSPost2010PropOp44
 70
     0
102
RTVSPost2010Prop45
280
     0
102
RTVSPost2010PropOp45
 70
     0
102
RTVSPost2010Prop46
 90
       50
102
RTVSPost2010PropOp46
 70
     0
102
RTVSPost2010Prop47
 90
       50
102
RTVSPost2010PropOp47
 70
     0
102
RTVSPost2010Prop48
 90
       50
102
RTVSPost2010PropOp48
 70
     0
102
RTVSPost2010Prop49
280
     0
102
RTVSPost2010PropOp49
 70
     0
102
RTVSPost2010Prop50
 90
       50
102
RTVSPost2010PropOp50
 70
     0
102
RTVSPost2010Prop51ColorIndex
 90
      256
102
RTVSPost2010Prop51ColorRGB
 90
-16777216
102
RTVSPost2010PropOp51
 70
     0
102
RTVSPost2010Prop52
140
1.0
102
RTVSPost2010PropOp52
 70
     0
102
RTVSPost2010Prop53
 90
        2
102
RTVSPost2010PropOp53
 70
     0
102
RTVSPost2010Prop54
  1
strokes_ogs.tif
102
RTVSPost2010PropOp54
 70
     0
102
RTVSPost2010Prop55
280
     0
102
RTVSPost2010PropOp55
 70
     0
102
RTVSPost2010Prop56
140
1.0
102
RTVSPost2010PropOp56
 70
     0
102
RTVSPost2010Prop57
140
1.0
102
RTVSPost2010PropOp57
 70
     0
  0
XRECORD
  5
1C5
102
{ACAD_REACTORS
330
1C4
102
}
330
1C4
100
AcDbXrecord
280
     1
102
RTVSPost2010Prop28
280
     0
102
RTVSPost2010PropOp28
 70
     1
102
RTVSPost2010Prop29
280
     1
102
RTVSPost2010PropOp29
 70
     1
102
RTVSPost2010Prop30
280
     1
102
RTVSPost2010PropOp30
 70
     1
102
RTVSPost2010Prop31
280
     0
102
RTVSPost2010PropOp31
 70
     1
102
RTVSPost2010Prop32
280
     0
102
RTVSPost2010PropOp32
 70
     1
102
RTVSPost2010Prop33
280
     0
102
RTVSPost2010PropOp33
 70
     1
102
RTVSPost2010Prop34
280
     0
102
RTVSPost2010PropOp34
 70
     1
102
RTVSPost2010Prop35
280
     0
102
RTVSPost2010PropOp35
 70
     1
102
RTVSPost2010Prop36
280
     0
102
RTVSPost2010PropOp36
 70
     1
102
RTVSPost2010Prop37
 90
       50
102
RTVSPost2010PropOp37
 70
     1
102
RTVSPost2010Prop38
140
0.0
102
RTVSPost2010PropOp38
 70
     1
102
RTVSPost2010Prop39
140
1.0
102
RTVSPost2010PropOp39
 70
     1
102
RTVSPost2010Prop40
 90
        0
102
RTVSPost2010PropOp40
 70
     1
102
RTVSPost2010Prop41ColorIndex
 90
       18
102
RTVSPost2010Prop41ColorRGB
 90
        0
102
RTVSPost2010PropOp41
 70
     1
102
RTVSPost2010Prop42
 90
       50
102
RTVSPost2010PropOp42
 70
     1
102
RTVSPost2010Prop43
 90
        3
102
RTVSPost2010PropOp43
 70
     1
102
RTVSPost2010Prop44ColorIndex
 90
        5
102
RTVSPost2010Prop44ColorRGB
 90
      255
102
RTVSPost2010PropOp44
 70
     1
102
RTVSPost2010Prop45
280
     0
102
RTVSPost2010PropOp45
 70
     1
102
RTVSPost2010Prop46
 90
       50
102
RTVSPost2010PropOp46
 70
     1
102
RTVSPost2010Prop47
 90
       50
102
RTVSPost2010PropOp47
 70
     1
102
RTVSPost2010Prop48
 90
       50
102
RTVSPost2010PropOp48
 70
     1
102
RTVSPost2010Prop49
280
     0
102
RTVSPost2010PropOp49
 70
     1
102
RTVSPost2010Prop50
 90
       50
102
RTVSPost2010PropOp50
 70
     1
102
RTVSPost2010Prop51ColorIndex
 90
      256
102
RTVSPost2010Prop51ColorRGB
 90
-16777216
102
RTVSPost2010PropOp51
 70
     0
102
RTVSPost2010Prop52
140
1.0
102
RTVSPost2010PropOp52
 70
     0
102
RTVSPost2010Prop53
 90
        2
102
RTVSPost2010PropOp53
 70
     1
102
RTVSPost2010Prop54
  1
strokes_ogs.tif
102
RTVSPost2010PropOp54
 70
     1
102
RTVSPost2010Prop55
280
     0
102
RTVSPost2010PropOp55
 70
     1
102
RTVSPost2010Prop56
140
1.0
102
RTVSPost2010PropOp56
 70
     1
102
RTVSPost2010Prop57
140
1.0
102
RTVSPost2010PropOp57
 70
     1
  0
XRECORD
  5
1E3
102
{ACAD_REACTORS
330
1E2
102
}
330
1E2
100
AcDbXrecord
280
     1
102
RTVSPost2010Prop28
280
     0
102
RTVSPost2010PropOp28
 70
     1
102
RTVSPost2010Prop29
280
     1
102
RTVSPost2010PropOp29
 70
     1
102
RTVSPost2010Prop30
280
     1
102
RTVSPost2010PropOp30
 70
     1
102
RTVSPost2010Prop31
280
     0
102
RTVSPost2010PropOp31
 70
     1
102
RTVSPost2010Prop32
280
     0
102
RTVSPost2010PropOp32
 70
     1
102
RTVSPost2010Prop33
280
     0
102
RTVSPost2010PropOp33
 70
     1
102
RTVSPost2010Prop34
280
     0
102
RTVSPost2010PropOp34
 70
     1
102
RTVSPost2010Prop35
280
     0
102
RTVSPost2010PropOp35
 70
     1
102
RTVSPost2010Prop36
280
     0
102
RTVSPost2010PropOp36
 70
     1
102
RTVSPost2010Prop37
 90
       50
102
RTVSPost2010PropOp37
 70
     1
102
RTVSPost2010Prop38
140
0.0
102
RTVSPost2010PropOp38
 70
     1
102
RTVSPost2010Prop39
140
1.0
102
RTVSPost2010PropOp39
 70
     1
102
RTVSPost2010Prop40
 90
        0
102
RTVSPost2010PropOp40
 70
     1
102
RTVSPost2010Prop41ColorIndex
 90
       18
102
RTVSPost2010Prop41ColorRGB
 90
        0
102
RTVSPost2010PropOp41
 70
     1
102
RTVSPost2010Prop42
 90
       50
102
RTVSPost2010PropOp42
 70
     1
102
RTVSPost2010Prop43
 90
        3
102
RTVSPost2010PropOp43
 70
     1
102
RTVSPost2010Prop44ColorIndex
 90
        5
102
RTVSPost2010Prop44ColorRGB
 90
      255
102
RTVSPost2010PropOp44
 70
     1
102
RTVSPost2010Prop45
280
     0
102
RTVSPost2010PropOp45
 70
     1
102
RTVSPost2010Prop46
 90
       50
102
RTVSPost2010PropOp46
 70
     1
102
RTVSPost2010Prop47
 90
       50
102
RTVSPost2010PropOp47
 70
     1
102
RTVSPost2010Prop48
 90
       50
102
RTVSPost2010PropOp48
 70
     1
102
RTVSPost2010Prop49
280
     0
102
RTVSPost2010PropOp49
 70
     1
102
RTVSPost2010Prop50
 90
       50
102
RTVSPost2010PropOp50
 70
     1
102
RTVSPost2010Prop51ColorIndex
 90
      256
102
RTVSPost2010Prop51ColorRGB
 90
-16777216
102
RTVSPost2010PropOp51
 70
     0
102
RTVSPost2010Prop52
140
1.0
102
RTVSPost2010PropOp52
 70
     0
102
RTVSPost2010Prop53
 90
        2
102
RTVSPost2010PropOp53
 70
     1
102
RTVSPost2010Prop54
  1
strokes_ogs.tif
102
RTVSPost2010PropOp54
 70
     1
102
RTVSPost2010Prop55
280
     0
102
RTVSPost2010PropOp55
 70
     1
102
RTVSPost2010Prop56
140
1.0
102
RTVSPost2010PropOp56
 70
     1
102
RTVSPost2010Prop57
140
1.0
102
RTVSPost2010PropOp57
 70
     1
  0
XRECORD
  5
1E1
102
{ACAD_REACTORS
330
1E0
102
}
330
1E0
100
AcDbXrecord
280
     1
102
RTVSPost2010Prop28
280
     0
102
RTVSPost2010PropOp28
 70
     1
102
RTVSPost2010Prop29
280
     1
102
RTVSPost2010PropOp29
 70
     1
102
RTVSPost2010Prop30
280
     1
102
RTVSPost2010PropOp30
 70
     1
102
RTVSPost2010Prop31
280
     0
102
RTVSPost2010PropOp31
 70
     1
102
RTVSPost2010Prop32
280
     0
102
RTVSPost2010PropOp32
 70
     1
102
RTVSPost2010Prop33
280
     0
102
RTVSPost2010PropOp33
 70
     1
102
RTVSPost2010Prop34
280
     0
102
RTVSPost2010PropOp34
 70
     1
102
RTVSPost2010Prop35
280
     0
102
RTVSPost2010PropOp35
 70
     1
102
RTVSPost2010Prop36
280
     0
102
RTVSPost2010PropOp36
 70
     1
102
RTVSPost2010Prop37
 90
       50
102
RTVSPost2010PropOp37
 70
     1
102
RTVSPost2010Prop38
140
0.0
102
RTVSPost2010PropOp38
 70
     1
102
RTVSPost2010Prop39
140
1.0
102
RTVSPost2010PropOp39
 70
     1
102
RTVSPost2010Prop40
 90
        0
102
RTVSPost2010PropOp40
 70
     1
102
RTVSPost2010Prop41ColorIndex
 90
       18
102
RTVSPost2010Prop41ColorRGB
 90
        0
102
RTVSPost2010PropOp41
 70
     1
102
RTVSPost2010Prop42
 90
       50
102
RTVSPost2010PropOp42
 70
     1
102
RTVSPost2010Prop43
 90
        3
102
RTVSPost2010PropOp43
 70
     1
102
RTVSPost2010Prop44ColorIndex
 90
        5
102
RTVSPost2010Prop44ColorRGB
 90
      255
102
RTVSPost2010PropOp44
 70
     1
102
RTVSPost2010Prop45
280
     0
102
RTVSPost2010PropOp45
 70
     1
102
RTVSPost2010Prop46
 90
       50
102
RTVSPost2010PropOp46
 70
     1
102
RTVSPost2010Prop47
 90
       50
102
RTVSPost2010PropOp47
 70
     1
102
RTVSPost2010Prop48
 90
       50
102
RTVSPost2010PropOp48
 70
     1
102
RTVSPost2010Prop49
280
     0
102
RTVSPost2010PropOp49
 70
     1
102
RTVSPost2010Prop50
 90
       50
102
RTVSPost2010PropOp50
 70
     1
102
RTVSPost2010Prop51ColorIndex
 90
      256
102
RTVSPost2010Prop51ColorRGB
 90
-16777216
102
RTVSPost2010PropOp51
 70
     0
102
RTVSPost2010Prop52
140
1.0
102
RTVSPost2010PropOp52
 70
     0
102
RTVSPost2010Prop53
 90
        2
102
RTVSPost2010PropOp53
 70
     1
102
RTVSPost2010Prop54
  1
strokes_ogs.tif
102
RTVSPost2010PropOp54
 70
     1
102
RTVSPost2010Prop55
280
     0
102
RTVSPost2010PropOp55
 70
     1
102
RTVSPost2010Prop56
140
1.0
102
RTVSPost2010PropOp56
 70
     1
102
RTVSPost2010Prop57
140
1.0
102
RTVSPost2010PropOp57
 70
     1
  0
XRECORD
  5
1DB
102
{ACAD_REACTORS
330
1DA
102
}
330
1DA
100
AcDbXrecord
280
     1
102
RTVSPost2010Prop28
280
     0
102
RTVSPost2010PropOp28
 70
     1
102
RTVSPost2010Prop29
280
     1
102
RTVSPost2010PropOp29
 70
     1
102
RTVSPost2010Prop30
280
     1
102
RTVSPost2010PropOp30
 70
     1
102
RTVSPost2010Prop31
280
     0
102
RTVSPost2010PropOp31
 70
     1
102
RTVSPost2010Prop32
280
     0
102
RTVSPost2010PropOp32
 70
     1
102
RTVSPost2010Prop33
280
     0
102
RTVSPost2010PropOp33
 70
     1
102
RTVSPost2010Prop34
280
     0
102
RTVSPost2010PropOp34
 70
     1
102
RTVSPost2010Prop35
280
     0
102
RTVSPost2010PropOp35
 70
     1
102
RTVSPost2010Prop36
280
     0
102
RTVSPost2010PropOp36
 70
     1
102
RTVSPost2010Prop37
 90
       50
102
RTVSPost2010PropOp37
 70
     1
102
RTVSPost2010Prop38
140
0.0
102
RTVSPost2010PropOp38
 70
     1
102
RTVSPost2010Prop39
140
1.0
102
RTVSPost2010PropOp39
 70
     1
102
RTVSPost2010Prop40
 90
        0
102
RTVSPost2010PropOp40
 70
     1
102
RTVSPost2010Prop41ColorIndex
 90
       18
102
RTVSPost2010Prop41ColorRGB
 90
        0
102
RTVSPost2010PropOp41
 70
     1
102
RTVSPost2010Prop42
 90
       50
102
RTVSPost2010PropOp42
 70
     1
102
RTVSPost2010Prop43
 90
        3
102
RTVSPost2010PropOp43
 70
     1
102
RTVSPost2010Prop44ColorIndex
 90
        5
102
RTVSPost2010Prop44ColorRGB
 90
      255
102
RTVSPost2010PropOp44
 70
     1
102
RTVSPost2010Prop45
280
     0
102
RTVSPost2010PropOp45
 70
     1
102
RTVSPost2010Prop46
 90
       50
102
RTVSPost2010PropOp46
 70
     1
102
RTVSPost2010Prop47
 90
       50
102
RTVSPost2010PropOp47
 70
     1
102
RTVSPost2010Prop48
 90
       50
102
RTVSPost2010PropOp48
 70
     1
102
RTVSPost2010Prop49
280
     0
102
RTVSPost2010PropOp49
 70
     1
102
RTVSPost2010Prop50
 90
       50
102
RTVSPost2010PropOp50
 70
     1
102
RTVSPost2010Prop51ColorIndex
 90
      256
102
RTVSPost2010Prop51ColorRGB
 90
-16777216
102
RTVSPost2010PropOp51
 70
     0
102
RTVSPost2010Prop52
140
1.0
102
RTVSPost2010PropOp52
 70
     0
102
RTVSPost2010Prop53
 90
        2
102
RTVSPost2010PropOp53
 70
     1
102
RTVSPost2010Prop54
  1
strokes_ogs.tif
102
RTVSPost2010PropOp54
 70
     1
102
RTVSPost2010Prop55
280
     0
102
RTVSPost2010PropOp55
 70
     1
102
RTVSPost2010Prop56
140
1.0
102
RTVSPost2010PropOp56
 70
     1
102
RTVSPost2010Prop57
140
1.0
102
RTVSPost2010PropOp57
 70
     1
  0
XRECORD
  5
1DD
102
{ACAD_REACTORS
330
1DC
102
}
330
1DC
100
AcDbXrecord
280
     1
102
RTVSPost2010Prop28
280
     0
102
RTVSPost2010PropOp28
 70
     1
102
RTVSPost2010Prop29
280
     1
102
RTVSPost2010PropOp29
 70
     1
102
RTVSPost2010Prop30
280
     1
102
RTVSPost2010PropOp30
 70
     1
102
RTVSPost2010Prop31
280
     0
102
RTVSPost2010PropOp31
 70
     1
102
RTVSPost2010Prop32
280
     0
102
RTVSPost2010PropOp32
 70
     1
102
RTVSPost2010Prop33
280
     0
102
RTVSPost2010PropOp33
 70
     1
102
RTVSPost2010Prop34
280
     0
102
RTVSPost2010PropOp34
 70
     1
102
RTVSPost2010Prop35
280
     0
102
RTVSPost2010PropOp35
 70
     1
102
RTVSPost2010Prop36
280
     0
102
RTVSPost2010PropOp36
 70
     1
102
RTVSPost2010Prop37
 90
       50
102
RTVSPost2010PropOp37
 70
     1
102
RTVSPost2010Prop38
140
0.0
102
RTVSPost2010PropOp38
 70
     1
102
RTVSPost2010Prop39
140
1.0
102
RTVSPost2010PropOp39
 70
     1
102
RTVSPost2010Prop40
 90
        0
102
RTVSPost2010PropOp40
 70
     1
102
RTVSPost2010Prop41ColorIndex
 90
       18
102
RTVSPost2010Prop41ColorRGB
 90
        0
102
RTVSPost2010PropOp41
 70
     1
102
RTVSPost2010Prop42
 90
       50
102
RTVSPost2010PropOp42
 70
     1
102
RTVSPost2010Prop43
 90
        3
102
RTVSPost2010PropOp43
 70
     1
102
RTVSPost2010Prop44ColorIndex
 90
        5
102
RTVSPost2010Prop44ColorRGB
 90
      255
102
RTVSPost2010PropOp44
 70
     1
102
RTVSPost2010Prop45
280
     0
102
RTVSPost2010PropOp45
 70
     1
102
RTVSPost2010Prop46
 90
       50
102
RTVSPost2010PropOp46
 70
     1
102
RTVSPost2010Prop47
 90
       50
102
RTVSPost2010PropOp47
 70
     1
102
RTVSPost2010Prop48
 90
       50
102
RTVSPost2010PropOp48
 70
     1
102
RTVSPost2010Prop49
280
     0
102
RTVSPost2010PropOp49
 70
     1
102
RTVSPost2010Prop50
 90
       50
102
RTVSPost2010PropOp50
 70
     1
102
RTVSPost2010Prop51ColorIndex
 90
      256
102
RTVSPost2010Prop51ColorRGB
 90
-16777216
102
RTVSPost2010PropOp51
 70
     0
102
RTVSPost2010Prop52
140
1.0
102
RTVSPost2010PropOp52
 70
     0
102
RTVSPost2010Prop53
 90
        2
102
RTVSPost2010PropOp53
 70
     1
102
RTVSPost2010Prop54
  1
strokes_ogs.tif
102
RTVSPost2010PropOp54
 70
     1
102
RTVSPost2010Prop55
280
     0
102
RTVSPost2010PropOp55
 70
     1
102
RTVSPost2010Prop56
140
1.0
102
RTVSPost2010PropOp56
 70
     1
102
RTVSPost2010Prop57
140
1.0
102
RTVSPost2010PropOp57
 70
     1
  0
XRECORD
  5
1CD
102
{ACAD_REACTORS
330
1CC
102
}
330
1CC
100
AcDbXrecord
280
     1
102
RTVSPost2010Prop28
280
     0
102
RTVSPost2010PropOp28
 70
     1
102
RTVSPost2010Prop29
280
     1
102
RTVSPost2010PropOp29
 70
     1
102
RTVSPost2010Prop30
280
     1
102
RTVSPost2010PropOp30
 70
     1
102
RTVSPost2010Prop31
280
     0
102
RTVSPost2010PropOp31
 70
     1
102
RTVSPost2010Prop32
280
     0
102
RTVSPost2010PropOp32
 70
     1
102
RTVSPost2010Prop33
280
     0
102
RTVSPost2010PropOp33
 70
     1
102
RTVSPost2010Prop34
280
     0
102
RTVSPost2010PropOp34
 70
     1
102
RTVSPost2010Prop35
280
     0
102
RTVSPost2010PropOp35
 70
     1
102
RTVSPost2010Prop36
280
     0
102
RTVSPost2010PropOp36
 70
     1
102
RTVSPost2010Prop37
 90
       50
102
RTVSPost2010PropOp37
 70
     1
102
RTVSPost2010Prop38
140
0.0
102
RTVSPost2010PropOp38
 70
     1
102
RTVSPost2010Prop39
140
1.0
102
RTVSPost2010PropOp39
 70
     1
102
RTVSPost2010Prop40
 90
        0
102
RTVSPost2010PropOp40
 70
     1
102
RTVSPost2010Prop41ColorIndex
 90
       18
102
RTVSPost2010Prop41ColorRGB
 90
        0
102
RTVSPost2010PropOp41
 70
     1
102
RTVSPost2010Prop42
 90
       50
102
RTVSPost2010PropOp42
 70
     1
102
RTVSPost2010Prop43
 90
        3
102
RTVSPost2010PropOp43
 70
     1
102
RTVSPost2010Prop44ColorIndex
 90
        5
102
RTVSPost2010Prop44ColorRGB
 90
      255
102
RTVSPost2010PropOp44
 70
     1
102
RTVSPost2010Prop45
280
     0
102
RTVSPost2010PropOp45
 70
     1
102
RTVSPost2010Prop46
 90
       50
102
RTVSPost2010PropOp46
 70
     1
102
RTVSPost2010Prop47
 90
       50
102
RTVSPost2010PropOp47
 70
     1
102
RTVSPost2010Prop48
 90
       50
102
RTVSPost2010PropOp48
 70
     1
102
RTVSPost2010Prop49
280
     0
102
RTVSPost2010PropOp49
 70
     1
102
RTVSPost2010Prop50
 90
       50
102
RTVSPost2010PropOp50
 70
     1
102
RTVSPost2010Prop51ColorIndex
 90
      256
102
RTVSPost2010Prop51ColorRGB
 90
-16777216
102
RTVSPost2010PropOp51
 70
     0
102
RTVSPost2010Prop52
140
1.0
102
RTVSPost2010PropOp52
 70
     0
102
RTVSPost2010Prop53
 90
        2
102
RTVSPost2010PropOp53
 70
     1
102
RTVSPost2010Prop54
  1
strokes_ogs.tif
102
RTVSPost2010PropOp54
 70
     1
102
RTVSPost2010Prop55
280
     0
102
RTVSPost2010PropOp55
 70
     1
102
RTVSPost2010Prop56
140
1.0
102
RTVSPost2010PropOp56
 70
     1
102
RTVSPost2010Prop57
140
1.0
102
RTVSPost2010PropOp57
 70
     1
  0
XRECORD
  5
1BF
102
{ACAD_REACTORS
330
1BE
102
}
330
1BE
100
AcDbXrecord
280
     1
102
RTVSPost2010Prop28
280
     0
102
RTVSPost2010PropOp28
 70
     1
102
RTVSPost2010Prop29
280
     1
102
RTVSPost2010PropOp29
 70
     1
102
RTVSPost2010Prop30
280
     1
102
RTVSPost2010PropOp30
 70
     1
102
RTVSPost2010Prop31
280
     0
102
RTVSPost2010PropOp31
 70
     1
102
RTVSPost2010Prop32
280
     0
102
RTVSPost2010PropOp32
 70
     1
102
RTVSPost2010Prop33
280
     0
102
RTVSPost2010PropOp33
 70
     1
102
RTVSPost2010Prop34
280
     0
102
RTVSPost2010PropOp34
 70
     1
102
RTVSPost2010Prop35
280
     0
102
RTVSPost2010PropOp35
 70
     1
102
RTVSPost2010Prop36
280
     0
102
RTVSPost2010PropOp36
 70
     1
102
RTVSPost2010Prop37
 90
       50
102
RTVSPost2010PropOp37
 70
     1
102
RTVSPost2010Prop38
140
0.0
102
RTVSPost2010PropOp38
 70
     1
102
RTVSPost2010Prop39
140
1.0
102
RTVSPost2010PropOp39
 70
     1
102
RTVSPost2010Prop40
 90
        0
102
RTVSPost2010PropOp40
 70
     1
102
RTVSPost2010Prop41ColorIndex
 90
       18
102
RTVSPost2010Prop41ColorRGB
 90
        0
102
RTVSPost2010PropOp41
 70
     1
102
RTVSPost2010Prop42
 90
       50
102
RTVSPost2010PropOp42
 70
     1
102
RTVSPost2010Prop43
 90
        3
102
RTVSPost2010PropOp43
 70
     1
102
RTVSPost2010Prop44ColorIndex
 90
        5
102
RTVSPost2010Prop44ColorRGB
 90
      255
102
RTVSPost2010PropOp44
 70
     1
102
RTVSPost2010Prop45
280
     0
102
RTVSPost2010PropOp45
 70
     1
102
RTVSPost2010Prop46
 90
       50
102
RTVSPost2010PropOp46
 70
     1
102
RTVSPost2010Prop47
 90
       50
102
RTVSPost2010PropOp47
 70
     1
102
RTVSPost2010Prop48
 90
       50
102
RTVSPost2010PropOp48
 70
     1
102
RTVSPost2010Prop49
280
     0
102
RTVSPost2010PropOp49
 70
     1
102
RTVSPost2010Prop50
 90
       50
102
RTVSPost2010PropOp50
 70
     1
102
RTVSPost2010Prop51ColorIndex
 90
      256
102
RTVSPost2010Prop51ColorRGB
 90
-16777216
102
RTVSPost2010PropOp51
 70
     0
102
RTVSPost2010Prop52
140
1.0
102
RTVSPost2010PropOp52
 70
     0
102
RTVSPost2010Prop53
 90
        2
102
RTVSPost2010PropOp53
 70
     1
102
RTVSPost2010Prop54
  1
strokes_ogs.tif
102
RTVSPost2010PropOp54
 70
     1
102
RTVSPost2010Prop55
280
     0
102
RTVSPost2010PropOp55
 70
     1
102
RTVSPost2010Prop56
140
1.0
102
RTVSPost2010PropOp56
 70
     1
102
RTVSPost2010Prop57
140
1.0
102
RTVSPost2010PropOp57
 70
     1
  0
XRECORD
  5
1DF
102
{ACAD_REACTORS
330
1DE
102
}
330
1DE
100
AcDbXrecord
280
     1
102
RTVSPost2010Prop28
280
     0
102
RTVSPost2010PropOp28
 70
     1
102
RTVSPost2010Prop29
280
     1
102
RTVSPost2010PropOp29
 70
     1
102
RTVSPost2010Prop30
280
     1
102
RTVSPost2010PropOp30
 70
     1
102
RTVSPost2010Prop31
280
     0
102
RTVSPost2010PropOp31
 70
     1
102
RTVSPost2010Prop32
280
     0
102
RTVSPost2010PropOp32
 70
     1
102
RTVSPost2010Prop33
280
     0
102
RTVSPost2010PropOp33
 70
     1
102
RTVSPost2010Prop34
280
     0
102
RTVSPost2010PropOp34
 70
     1
102
RTVSPost2010Prop35
280
     0
102
RTVSPost2010PropOp35
 70
     1
102
RTVSPost2010Prop36
280
     0
102
RTVSPost2010PropOp36
 70
     1
102
RTVSPost2010Prop37
 90
       50
102
RTVSPost2010PropOp37
 70
     1
102
RTVSPost2010Prop38
140
0.0
102
RTVSPost2010PropOp38
 70
     1
102
RTVSPost2010Prop39
140
1.0
102
RTVSPost2010PropOp39
 70
     1
102
RTVSPost2010Prop40
 90
        0
102
RTVSPost2010PropOp40
 70
     1
102
RTVSPost2010Prop41ColorIndex
 90
       18
102
RTVSPost2010Prop41ColorRGB
 90
        0
102
RTVSPost2010PropOp41
 70
     1
102
RTVSPost2010Prop42
 90
       50
102
RTVSPost2010PropOp42
 70
     1
102
RTVSPost2010Prop43
 90
        3
102
RTVSPost2010PropOp43
 70
     1
102
RTVSPost2010Prop44ColorIndex
 90
        5
102
RTVSPost2010Prop44ColorRGB
 90
      255
102
RTVSPost2010PropOp44
 70
     1
102
RTVSPost2010Prop45
280
     0
102
RTVSPost2010PropOp45
 70
     1
102
RTVSPost2010Prop46
 90
       50
102
RTVSPost2010PropOp46
 70
     1
102
RTVSPost2010Prop47
 90
       50
102
RTVSPost2010PropOp47
 70
     1
102
RTVSPost2010Prop48
 90
       50
102
RTVSPost2010PropOp48
 70
     1
102
RTVSPost2010Prop49
280
     0
102
RTVSPost2010PropOp49
 70
     1
102
RTVSPost2010Prop50
 90
       50
102
RTVSPost2010PropOp50
 70
     1
102
RTVSPost2010Prop51ColorIndex
 90
      256
102
RTVSPost2010Prop51ColorRGB
 90
-16777216
102
RTVSPost2010PropOp51
 70
     0
102
RTVSPost2010Prop52
140
1.0
102
RTVSPost2010PropOp52
 70
     0
102
RTVSPost2010Prop53
 90
        2
102
RTVSPost2010PropOp53
 70
     1
102
RTVSPost2010Prop54
  1
strokes_ogs.tif
102
RTVSPost2010PropOp54
 70
     1
102
RTVSPost2010Prop55
280
     0
102
RTVSPost2010PropOp55
 70
     1
102
RTVSPost2010Prop56
140
1.0
102
RTVSPost2010PropOp56
 70
     1
102
RTVSPost2010Prop57
140
1.0
102
RTVSPost2010PropOp57
 70
     1
  0
ENDSEC
  0
EOF
