  0
SECTION
  2
HEADER
  9
$ACADVER
  1
AC1015
  9
$ACADMAINTVER
 70
     6
  9
$DWGCODEPAGE
  3
ANSI_1252
  9
$INSBASE
 10
0.0
 20
0.0
 30
0.0
  9
$EXTMIN
 10
-272.991852
 20
-296.541931
 30
0.0
  9
$EXTMAX
 10
613.611267
 20
182.192673
 30
0.0
  9
$LIMMIN
 10
-272.991852
 20
-296.541931
  9
$LIMMAX
 10
613.611267
 20
182.192673
  9
$ORTHOMODE
 70
     0
  9
$REGENMODE
 70
     1
  9
$FILLMODE
 70
     1
  9
$QTEXTMODE
 70
     0
  9
$MIRRTEXT
 70
     1
  9
$LTSCALE
 40
1.0
  9
$ATTMODE
 70
     1
  9
$TEXTSIZE
 40
2.5
  9
$TRACEWID
 40
1.0
  9
$TEXTSTYLE
  7
Standard
  9
$CLAYER
  8
0
  9
$CELTYPE
  6
ByLayer
  9
$CECOLOR
 62
   256
  9
$CELTSCALE
 40
1.0
  9
$DISPSILH
 70
     0
  9
$DIMSCALE
 40
1.0
  9
$DIMASZ
 40
2.5
  9
$DIMEXO
 40
0.625
  9
$DIMDLI
 40
3.75
  9
$DIMRND
 40
0.0
  9
$DIMDLE
 40
0.0
  9
$DIMEXE
 40
1.25
  9
$DIMTP
 40
0.0
  9
$DIMTM
 40
0.0
  9
$DIMTXT
 40
2.5
  9
$DIMCEN
 40
2.5
  9
$DIMTSZ
 40
0.0
  9
$DIMTOL
 70
     0
  9
$DIMLIM
 70
     0
  9
$DIMTIH
 70
     0
  9
$DIMTOH
 70
     0
  9
$DIMSE1
 70
     0
  9
$DIMSE2
 70
     0
  9
$DIMTAD
 70
     1
  9
$DIMZIN
 70
     8
  9
$DIMBLK
  1

  9
$DIMASO
 70
     1
  9
$DIMSHO
 70
     1
  9
$DIMPOST
  1

  9
$DIMAPOST
  1

  9
$DIMALT
 70
     0
  9
$DIMALTD
 70
     3
  9
$DIMALTF
 40
0.03937
  9
$DIMLFAC
 40
1.0
  9
$DIMTOFL
 70
     1
  9
$DIMTVP
 40
0.0
  9
$DIMTIX
 70
     0
  9
$DIMSOXD
 70
     0
  9
$DIMSAH
 70
     0
  9
$DIMBLK1
  1

  9
$DIMBLK2
  1

  9
$DIMSTYLE
  2
ISO-25
  9
$DIMCLRD
 70
     0
  9
$DIMCLRE
 70
     0
  9
$DIMCLRT
 70
     0
  9
$DIMTFAC
 40
1.0
  9
$DIMGAP
 40
0.625
  9
$DIMJUST
 70
     0
  9
$DIMSD1
 70
     0
  9
$DIMSD2
 70
     0
  9
$DIMTOLJ
 70
     0
  9
$DIMTZIN
 70
     8
  9
$DIMALTZ
 70
     0
  9
$DIMALTTZ
 70
     0
  9
$DIMUPT
 70
     0
  9
$DIMDEC
 70
     2
  9
$DIMTDEC
 70
     2
  9
$DIMALTU
 70
     2
  9
$DIMALTTD
 70
     3
  9
$DIMTXSTY
  7
Standard
  9
$DIMAUNIT
 70
     0
  9
$DIMADEC
 70
     0
  9
$DIMALTRND
 40
0.0
  9
$DIMAZIN
 70
     0
  9
$DIMDSEP
 70
    44
  9
$DIMATFIT
 70
     3
  9
$DIMFRAC
 70
     0
  9
$DIMLDRBLK
  1

  9
$DIMLUNIT
 70
     2
  9
$DIMLWD
 70
    -2
  9
$DIMLWE
 70
    -2
  9
$DIMTMOVE
 70
     0
  9
$LUNITS
 70
     2
  9
$LUPREC
 70
     4
  9
$SKETCHINC
 40
1.0
  9
$FILLETRAD
 40
10.0
  9
$AUNITS
 70
     0
  9
$AUPREC
 70
     0
  9
$MENU
  1
.
  9
$ELEVATION
 40
0.0
  9
$PELEVATION
 40
0.0
  9
$THICKNESS
 40
0.0
  9
$LIMCHECK
 70
     0
  9
$CHAMFERA
 40
0.0
  9
$CHAMFERB
 40
0.0
  9
$CHAMFERC
 40
0.0
  9
$CHAMFERD
 40
0.0
  9
$SKPOLY
 70
     0
  9
$TDCREATE
 40
2459548.461345139
  9
$TDUCREATE
 40
2459548.419678472
  9
$TDUPDATE
 40
2459548.461345752
  9
$TDUUPDATE
 40
2459548.419679086
  9
$TDINDWG
 40
0.0000000116
  9
$TDUSRTIMER
 40
0.0000000116
  9
$USRTIMER
 70
     1
  9
$ANGBASE
 50
0.0
  9
$ANGDIR
 70
     0
  9
$PDMODE
 70
     0
  9
$PDSIZE
 40
0.0
  9
$PLINEWID
 40
0.0
  9
$SPLFRAME
 70
     0
  9
$SPLINETYPE
 70
     6
  9
$SPLINESEGS
 70
     8
  9
$HANDSEED
  5
264
  9
$SURFTAB1
 70
     6
  9
$SURFTAB2
 70
     6
  9
$SURFTYPE
 70
     6
  9
$SURFU
 70
     6
  9
$SURFV
 70
     6
  9
$UCSBASE
  2

  9
$UCSNAME
  2

  9
$UCSORG
 10
0.0
 20
0.0
 30
0.0
  9
$UCSXDIR
 10
1.0
 20
0.0
 30
0.0
  9
$UCSYDIR
 10
0.0
 20
1.0
 30
0.0
  9
$UCSORTHOREF
  2

  9
$UCSORTHOVIEW
 70
     0
  9
$UCSORGTOP
 10
0.0
 20
0.0
 30
0.0
  9
$UCSORGBOTTOM
 10
0.0
 20
0.0
 30
0.0
  9
$UCSORGLEFT
 10
0.0
 20
0.0
 30
0.0
  9
$UCSORGRIGHT
 10
0.0
 20
0.0
 30
0.0
  9
$UCSORGFRONT
 10
0.0
 20
0.0
 30
0.0
  9
$UCSORGBACK
 10
0.0
 20
0.0
 30
0.0
  9
$PUCSBASE
  2

  9
$PUCSNAME
  2

  9
$PUCSORG
 10
0.0
 20
0.0
 30
0.0
  9
$PUCSXDIR
 10
1.0
 20
0.0
 30
0.0
  9
$PUCSYDIR
 10
0.0
 20
1.0
 30
0.0
  9
$PUCSORTHOREF
  2

  9
$PUCSORTHOVIEW
 70
     0
  9
$PUCSORGTOP
 10
0.0
 20
0.0
 30
0.0
  9
$PUCSORGBOTTOM
 10
0.0
 20
0.0
 30
0.0
  9
$PUCSORGLEFT
 10
0.0
 20
0.0
 30
0.0
  9
$PUCSORGRIGHT
 10
0.0
 20
0.0
 30
0.0
  9
$PUCSORGFRONT
 10
0.0
 20
0.0
 30
0.0
  9
$PUCSORGBACK
 10
0.0
 20
0.0
 30
0.0
  9
$USERI1
 70
     0
  9
$USERI2
 70
     0
  9
$USERI3
 70
     0
  9
$USERI4
 70
     0
  9
$USERI5
 70
     0
  9
$USERR1
 40
0.0
  9
$USERR2
 40
0.0
  9
$USERR3
 40
0.0
  9
$USERR4
 40
0.0
  9
$USERR5
 40
0.0
  9
$WORLDVIEW
 70
     1
  9
$SHADEDGE
 70
     3
  9
$SHADEDIF
 70
    70
  9
$TILEMODE
 70
     1
  9
$MAXACTVP
 70
    64
  9
$PINSBASE
 10
0.0
 20
0.0
 30
0.0
  9
$PLIMCHECK
 70
     0
  9
$PEXTMIN
 10
1.000000E+20
 20
1.000000E+20
 30
1.000000E+20
  9
$PEXTMAX
 10
-1.000000E+20
 20
-1.000000E+20
 30
-1.000000E+20
  9
$PLIMMIN
 10
0.0
 20
0.0
  9
$PLIMMAX
 10
420.0
 20
297.0
  9
$UNITMODE
 70
     0
  9
$VISRETAIN
 70
     1
  9
$PLINEGEN
 70
     0
  9
$PSLTSCALE
 70
     1
  9
$TREEDEPTH
 70
  3020
  9
$CMLSTYLE
  2
Standard
  9
$CMLJUST
 70
     0
  9
$CMLSCALE
 40
20.0
  9
$PROXYGRAPHICS
 70
     1
  9
$MEASUREMENT
 70
     1
  9
$CELWEIGHT
370
    -1
  9
$ENDCAPS
280
     0
  9
$JOINSTYLE
280
     0
  9
$LWDISPLAY
290
     0
  9
$INSUNITS
 70
     4
  9
$HYPERLINKBASE
  1

  9
$STYLESHEET
  1

  9
$XEDIT
290
     1
  9
$CEPSNTYPE
380
     0
  9
$PSTYLEMODE
290
     1
  9
$FINGERPRINTGUID
  2
{8a8bad23-675c-4ee6-8ebd-4e282d565646}
  9
$VERSIONGUID
  2
{FAEB1C32-E019-11D5-929B-00C0DF256EC4}
  9
$EXTNAMES
290
     1
  9
$PSVPSCALE
 40
0.0
  9
$OLESTARTUP
290
     0
  0
ENDSEC
  0
SECTION
  2
CLASSES
  0
CLASS
  1
ACDBDICTIONARYWDFLT
  2
AcDbDictionaryWithDefault
  3
ObjectDBX Classes
 90
        0
280
     0
281
     0
  0
CLASS
  1
VISUALSTYLE
  2
AcDbVisualStyle
  3
ObjectDBX Classes
 90
     4095
280
     0
281
     0
  0
CLASS
  1
MATERIAL
  2
AcDbMaterial
  3
ObjectDBX Classes
 90
     1153
280
     0
281
     0
  0
CLASS
  1
SCALE
  2
AcDbScale
  3
ObjectDBX Classes
 90
     1153
280
     0
281
     0
  0
CLASS
  1
TABLESTYLE
  2
AcDbTableStyle
  3
ObjectDBX Classes
 90
     4095
280
     0
281
     0
  0
CLASS
  1
MLEADERSTYLE
  2
AcDbMLeaderStyle
  3
ACDB_MLEADERSTYLE_CLASS
 90
     4095
280
     0
281
     0
  0
CLASS
  1
SUN
  2
AcDbSun
  3
SCENEOE
 90
     1153
280
     0
281
     0
  0
CLASS
  1
DICTIONARYVAR
  2
AcDbDictionaryVar
  3
ObjectDBX Classes
 90
        0
280
     0
281
     0
  0
CLASS
  1
ACDBPLACEHOLDER
  2
AcDbPlaceHolder
  3
ObjectDBX Classes
 90
        0
280
     0
281
     0
  0
CLASS
  1
LAYOUT
  2
AcDbLayout
  3
ObjectDBX Classes
 90
        0
280
     0
281
     0
  0
ENDSEC
  0
SECTION
  2
TABLES
  0
TABLE
  2
VPORT
  5
8
102
{ACAD_XDICTIONARY
360
227
102
}
330
0
100
AcDbSymbolTable
 70
     1
  0
VPORT
  5
29
330
8
100
AcDbSymbolTableRecord
100
AcDbViewportTableRecord
  2
*Active
 70
     0
 10
0.0
 20
0.0
 11
1.0
 21
1.0
 12
344.186916
 22
148.5
 13
0.0
 23
0.0
 14
10.0
 24
10.0
 15
10.0
 25
10.0
 16
0.0
 26
0.0
 36
1.0
 17
0.0
 27
0.0
 37
0.0
 40
297.0
 41
1.972973
 42
50.0
 43
0.0
 44
0.0
 50
0.0
 51
0.0
 71
     0
 72
   100
 73
     1
 74
     3
 75
     0
 76
     0
 77
     0
 78
     0
281
     0
 65
     1
110
0.0
120
0.0
130
0.0
111
1.0
121
0.0
131
0.0
112
0.0
122
1.0
132
0.0
 79
     0
146
0.0
  0
ENDTAB
  0
TABLE
  2
LTYPE
  5
5
330
0
100
AcDbSymbolTable
 70
     1
  0
LTYPE
  5
14
330
5
100
AcDbSymbolTableRecord
100
AcDbLinetypeTableRecord
  2
ByBlock
 70
     0
  3

 72
    65
 73
     0
 40
0.0
  0
LTYPE
  5
15
330
5
100
AcDbSymbolTableRecord
100
AcDbLinetypeTableRecord
  2
ByLayer
 70
     0
  3

 72
    65
 73
     0
 40
0.0
  0
LTYPE
  5
16
330
5
100
AcDbSymbolTableRecord
100
AcDbLinetypeTableRecord
  2
Continuous
 70
     0
  3
Solid line
 72
    65
 73
     0
 40
0.0
  0
ENDTAB
  0
TABLE
  2
LAYER
  5
2
330
0
100
AcDbSymbolTable
 70
     1
  0
LAYER
  5
10
330
2
100
AcDbSymbolTableRecord
100
AcDbLayerTableRecord
  2
0
 70
     0
 62
   106
  6
Continuous
370
     0
390
F
  0
ENDTAB
  0
TABLE
  2
STYLE
  5
3
330
0
100
AcDbSymbolTable
 70
     4
  0
STYLE
  5
11
330
3
100
AcDbSymbolTableRecord
100
AcDbTextStyleTableRecord
  2
Standard
 70
     0
 40
0.0
 41
1.0
 50
0.0
 71
     0
 42
2.5
  3
txt
  4

  0
STYLE
  5
6E
330
3
100
AcDbSymbolTableRecord
100
AcDbTextStyleTableRecord
  2
Default
 70
     0
 40
0.0
 41
1.0
 50
0.0
 71
     0
 42
2.5
  3

  4

1001
ACAD
1000
txt
1071
        0
  0
STYLE
  5
6F
330
3
100
AcDbSymbolTableRecord
100
AcDbTextStyleTableRecord
  2
ISO
 70
     0
 40
0.0
 41
1.0
 50
0.0
 71
     0
 42
2.5
  3

  4

1001
ACAD
1000
txt
1071
        0
  0
STYLE
  5
70
330
3
100
AcDbSymbolTableRecord
100
AcDbTextStyleTableRecord
  2
zucchetti
 70
     0
 40
0.0
 41
1.0
 50
0.0
 71
     0
 42
2.5
  3

  4

1001
ACAD
1000
Arial
1071
        0
  0
ENDTAB
  0
TABLE
  2
VIEW
  5
6
330
0
100
AcDbSymbolTable
 70
     0
  0
ENDTAB
  0
TABLE
  2
UCS
  5
7
330
0
100
AcDbSymbolTable
 70
     0
  0
ENDTAB
  0
TABLE
  2
APPID
  5
9
330
0
100
AcDbSymbolTable
 70
     2
  0
APPID
  5
12
330
9
100
AcDbSymbolTableRecord
100
AcDbRegAppTableRecord
  2
ACAD
 70
     0
  0
APPID
  5
261
330
9
100
AcDbSymbolTableRecord
100
AcDbRegAppTableRecord
  2
ACAD_MLEADERVER
 70
     0
  0
ENDTAB
  0
TABLE
  2
DIMSTYLE
  5
A
330
0
100
AcDbSymbolTable
 70
     4
100
AcDbDimStyleTable
  0
DIMSTYLE
105
27
330
A
100
AcDbSymbolTableRecord
100
AcDbDimStyleTableRecord
  2
ISO-25
 70
     0
 41
2.5
 42
0.625
 43
3.75
 44
1.25
 73
     0
 74
     0
 77
     1
 78
     8
140
2.5
141
2.5
143
0.03937
147
0.625
171
     3
172
     1
178
     0
271
     2
272
     2
274
     3
278
    44
283
     0
284
     8
340
11
  0
DIMSTYLE
105
71
330
A
100
AcDbSymbolTableRecord
100
AcDbDimStyleTableRecord
  2
Default
 70
     0
  3
<>
 41
4.375
 42
1.05
 44
2.1
 73
     0
 74
     0
 77
     1
 78
     8
140
3.5
146
0.4
147
1.75
172
     1
271
     2
178
     3
271
     2
272
     3
284
     8
340
6E
341
72
342
72
  0
DIMSTYLE
105
79
330
A
100
AcDbSymbolTableRecord
100
AcDbDimStyleTableRecord
  2
ISO
 70
     0
  3
<>
 41
4.375
 42
1.05
 44
2.1
 73
     0
 74
     0
 77
     1
 78
     8
140
3.5
146
0.4
147
1.75
172
     1
271
     2
178
     3
271
     2
272
     3
284
     8
340
6F
341
72
342
72
  0
DIMSTYLE
105
7A
330
A
100
AcDbSymbolTableRecord
100
AcDbDimStyleTableRecord
  2
zucchetti
 70
     0
  3
<>
 41
3.0
 42
0.9
 44
1.8
 73
     0
 74
     0
 77
     1
 78
     8
140
3.0
146
0.6
147
1.5
172
     1
176
     3
177
     3
271
     2
178
     3
271
     2
272
     2
284
     8
340
70
  0
ENDTAB
  0
TABLE
  2
BLOCK_RECORD
  5
1
330
0
100
AcDbSymbolTable
 70
     7
  0
BLOCK_RECORD
  5
1F
330
1
100
AcDbSymbolTableRecord
100
AcDbBlockTableRecord
  2
*Model_Space
340
22
  0
BLOCK_RECORD
  5
1B
330
1
100
AcDbSymbolTableRecord
100
AcDbBlockTableRecord
  2
*Paper_Space
340
1E
  0
BLOCK_RECORD
  5
23
330
1
100
AcDbSymbolTableRecord
100
AcDbBlockTableRecord
  2
*Paper_Space0
340
26
  0
BLOCK_RECORD
  5
72
330
1
100
AcDbSymbolTableRecord
100
AcDbBlockTableRecord
  2
_Closed
340
0
  0
BLOCK_RECORD
  5
7B
330
1
100
AcDbSymbolTableRecord
100
AcDbBlockTableRecord
  2
a
340
0
102
{BLKREFS
331
C6
102
}
  0
BLOCK_RECORD
  5
C7
330
1
100
AcDbSymbolTableRecord
100
AcDbBlockTableRecord
  2
b
340
0
102
{BLKREFS
331
11F
102
}
  0
BLOCK_RECORD
  5
120
330
1
100
AcDbSymbolTableRecord
100
AcDbBlockTableRecord
  2
c
340
0
102
{BLKREFS
331
16E
102
}
  0
BLOCK_RECORD
  5
16F
330
1
100
AcDbSymbolTableRecord
100
AcDbBlockTableRecord
  2
d
340
0
102
{BLKREFS
331
1BE
102
}
  0
BLOCK_RECORD
  5
1BF
330
1
100
AcDbSymbolTableRecord
100
AcDbBlockTableRecord
  2
e
340
0
102
{BLKREFS
331
21B
102
}
  0
ENDTAB
  0
ENDSEC
  0
SECTION
  2
BLOCKS
  0
BLOCK
  5
20
330
1F
100
AcDbEntity
  8
0
100
AcDbBlockBegin
  2
*Model_Space
 70
     0
 10
0.0
 20
0.0
 30
0.0
  3
*Model_Space
  1

  0
ENDBLK
  5
21
330
1F
100
AcDbEntity
  8
0
100
AcDbBlockEnd
  0
BLOCK
  5
1C
330
1B
100
AcDbEntity
 67
     1
  8
0
100
AcDbBlockBegin
  2
*Paper_Space
 70
     0
 10
0.0
 20
0.0
 30
0.0
  3
*Paper_Space
  1

  0
ENDBLK
  5
1D
330
1B
100
AcDbEntity
 67
     1
  8
0
100
AcDbBlockEnd
  0
BLOCK
  5
24
330
23
100
AcDbEntity
  8
0
100
AcDbBlockBegin
  2
*Paper_Space0
 70
     0
 10
0.0
 20
0.0
 30
0.0
  3
*Paper_Space0
  1

  0
ENDBLK
  5
25
330
23
100
AcDbEntity
  8
0
100
AcDbBlockEnd
  0
BLOCK
  5
73
330
72
100
AcDbEntity
  8
0
100
AcDbBlockBegin
  2
_Closed
 70
     0
 10
0.0
 20
0.0
 30
0.0
  3
_Closed
  1

  0
LINE
  5
75
330
72
100
AcDbEntity
  8
0
  6
ByBlock
 62
     0
370
    -2
100
AcDbLine
 10
-1.0
 20
0.166667
 30
0.0
 11
0.0
 21
0.0
 31
0.0
  0
LINE
  5
76
330
72
100
AcDbEntity
  8
0
  6
ByBlock
 62
     0
370
    -2
100
AcDbLine
 10
0.0
 20
0.0
 30
0.0
 11
-1.0
 21
-0.166667
 31
0.0
  0
LINE
  5
77
330
72
100
AcDbEntity
  8
0
  6
ByBlock
 62
     0
370
    -2
100
AcDbLine
 10
-1.0
 20
0.166667
 30
0.0
 11
-1.0
 21
-0.166667
 31
0.0
  0
LINE
  5
78
330
72
100
AcDbEntity
  8
0
  6
ByBlock
 62
     0
370
    -2
100
AcDbLine
 10
0.0
 20
0.0
 30
0.0
 11
-1.0
 21
0.0
 31
0.0
  0
ENDBLK
  5
74
330
72
100
AcDbEntity
  8
0
100
AcDbBlockEnd
  0
BLOCK
  5
C4
330
7B
100
AcDbEntity
  8
0
100
AcDbBlockBegin
  2
a
 70
     0
 10
79.739868
 20
74.678719
 30
0.0
  3
a
  1

  0
ARC
  5
7C
330
7B
100
AcDbEntity
  8
0
  6
Continuous
 62
     0
370
     0
100
AcDbCircle
 10
118.374598
 20
152.192653
 30
0.0
 40
29.5
100
AcDbArc
 50
296.147146
 51
192.182043
  0
ARC
  5
7D
330
7B
100
AcDbEntity
  8
0
  6
Continuous
 62
     0
370
     0
100
AcDbCircle
 10
118.374598
 20
152.192653
 30
0.0
 40
29.5
100
AcDbArc
 50
192.182043
 51
243.852854
  0
ARC
  5
7E
330
7B
100
AcDbEntity
  8
0
  6
Continuous
 62
     0
370
    30
100
AcDbCircle
 10
118.374598
 20
152.192653
 30
0.0
 40
30.0
100
AcDbArc
 50
295.679289
 51
192.182043
  0
ARC
  5
7F
330
7B
100
AcDbEntity
  8
0
  6
Continuous
 62
     0
370
    30
100
AcDbCircle
 10
118.374598
 20
152.192653
 30
0.0
 40
30.0
100
AcDbArc
 50
192.182043
 51
244.320711
  0
ELLIPSE
  5
80
330
7B
100
AcDbEntity
  8
0
  6
Continuous
 62
     0
370
    30
100
AcDbEllipse
 10
118.374597
 20
112.127506
 30
0.0
 11
8.905732765799213
 21
-1.354128603857354E-7
 31
0.0
210
0.0
220
0.0
230
1.0
 40
0.5
 41
0.0089170605955982
 42
1.570796332391797
  0
ELLIPSE
  5
81
330
7B
100
AcDbEntity
  8
0
  6
Continuous
 62
     0
370
    30
100
AcDbEllipse
 10
118.374597
 20
112.127506
 30
0.0
 11
8.905732765799213
 21
-1.354128603857354E-7
 31
0.0
210
0.0
220
0.0
230
1.0
 40
0.5
 41
1.570796332391797
 42
3.132675592994191
  0
ELLIPSE
  5
82
330
7B
100
AcDbEntity
  8
0
  6
Continuous
 62
     0
370
    30
100
AcDbEllipse
 10
118.374597
 20
110.590957
 30
0.0
 11
8.933135395009275
 21
-1.358295210357917E-7
 31
0.0
210
0.0
220
0.0
230
1.0
 40
0.5
 41
5.601466525914764
 42
7.853981628189637
  0
ELLIPSE
  5
83
330
7B
100
AcDbEntity
  8
0
  6
Continuous
 62
     0
370
    30
100
AcDbEllipse
 10
118.374597
 20
110.590957
 30
0.0
 11
8.933135395009275
 21
-1.358295210357917E-7
 31
0.0
210
0.0
220
0.0
230
1.0
 40
0.5
 41
1.570796321010051
 42
3.823311367533306
  0
ARC
  5
84
330
7B
100
AcDbEntity
  8
0
  6
Continuous
 62
     0
370
    30
100
AcDbCircle
 10
118.374598
 20
152.192653
 30
0.0
 40
13.0
100
AcDbArc
 50
359.999999
 51
180.0
  0
LINE
  5
85
330
7B
100
AcDbEntity
  8
0
  6
Continuous
 62
     0
370
    30
100
AcDbLine
 10
105.374598
 20
152.192653
 30
0.0
 11
105.374598
 21
129.692653
 31
0.0
  0
SPLINE
  5
86
330
7B
100
AcDbEntity
  8
0
  6
Continuous
 62
     0
370
     0
100
AcDbSpline
210
0.0
220
0.0
230
1.0
 70
    12
 71
     2
 72
     8
 73
     5
 74
     0
 42
0.000000001
 43
0.0
 40
0.0
 40
0.0
 40
0.0
 40
0.25
 40
0.25
 40
0.5000000036822216
 40
0.5000000036822216
 40
0.5000000036822216
 10
105.3745975494385
 20
129.6926527023315
 30
0.0
 41
1.0
 10
105.3745975494385
 20
136.1926527023315
 30
0.0
 41
0.7071067811865476
 10
118.3745975494385
 20
136.1926527023315
 30
0.0
 41
1.0
 10
131.3745975494385
 20
136.1926527023315
 30
0.0
 41
0.7071067811865476
 10
131.3745975494385
 20
129.6926525669378
 30
0.0
 41
0.9999999913720182
  0
LINE
  5
87
330
7B
100
AcDbEntity
  8
0
  6
Continuous
 62
     0
370
    30
100
AcDbLine
 10
105.374598
 20
129.692653
 30
0.0
 11
105.374598
 21
112.229588
 31
0.0
  0
SPLINE
  5
88
330
7B
100
AcDbEntity
  8
0
  6
Continuous
 62
     0
370
    30
100
AcDbSpline
210
0.0
220
0.0
230
1.0
 70
    15
 71
     2
 72
    12
 73
     9
 74
     0
 42
0.000000001
 43
0.0
 40
0.0
 40
0.0
 40
0.0
 40
0.25
 40
0.25
 40
0.5
 40
0.5
 40
0.75
 40
0.75
 40
1.0
 40
1.0
 40
1.0
 10
105.3745975494385
 20
112.2295878489838
 30
0.0
 41
1.0
 10
105.3745975494385
 20
105.7295878489838
 30
0.0
 41
0.7071067811865476
 10
118.3745975494385
 20
105.7295878489838
 30
0.0
 41
1.0
 10
131.3745975494385
 20
105.7295878489838
 30
0.0
 41
0.7071067811865476
 10
131.3745975494385
 20
112.2295878489838
 30
0.0
 41
1.0
 10
131.3745975494385
 20
118.7295878489838
 30
0.0
 41
0.7071067811865476
 10
118.3745975494385
 20
118.7295878489838
 30
0.0
 41
1.0
 10
105.3745975494385
 20
118.7295878489838
 30
0.0
 41
0.7071067811865476
 10
105.3745975494385
 20
112.2295878489838
 30
0.0
 41
1.0
  0
ELLIPSE
  5
89
330
7B
100
AcDbEntity
  8
0
  6
Continuous
 62
     0
370
    30
100
AcDbEllipse
 10
118.374597
 20
112.229588
 30
0.0
 11
-9.020021160004054
 21
1.371506307382891E-7
 31
0.0
210
0.0
220
0.0
230
-1.0
 40
0.5
 41
6.131478172201954
 42
7.853981627602892
  0
ELLIPSE
  5
8A
330
7B
100
AcDbEntity
  8
0
  6
Continuous
 62
     0
370
    30
100
AcDbEllipse
 10
118.374597
 20
112.229588
 30
0.0
 11
-9.020021160004054
 21
1.371506307382891E-7
 31
0.0
210
0.0
220
0.0
230
-1.0
 40
0.5
 41
1.570796320423307
 42
3.293299788567424
  0
LINE
  5
8B
330
7B
100
AcDbEntity
  8
0
  6
Continuous
 62
     0
370
    30
100
AcDbLine
 10
131.374598
 20
129.692653
 30
0.0
 11
131.374598
 21
112.229588
 31
0.0
  0
LINE
  5
8C
330
7B
100
AcDbEntity
  8
0
  6
Continuous
 62
     0
370
    30
100
AcDbLine
 10
131.374598
 20
152.192652
 30
0.0
 11
131.374598
 21
129.692653
 31
0.0
  0
SPLINE
  5
8D
330
7B
100
AcDbEntity
  8
0
  6
Continuous
 62
     0
370
    30
100
AcDbSpline
210
0.0
220
0.0
230
1.0
 70
     8
 71
     3
 72
    14
 73
    10
 74
     0
 42
0.000000001
 43
0.0
 40
0.0
 40
0.0
 40
0.0
 40
0.0
 40
1.426248668232485
 40
3.287465122241995
 40
4.682130378869537
 40
7.399547922004684
 40
11.36431604157581
 40
13.28323352963934
 40
14.63397406036851
 40
14.63397406036851
 40
14.63397406036851
 40
14.63397406036851
 10
111.4380947654085
 20
107.7764484719576
 30
0.0
 10
111.8366703988803
 20
107.5308709091814
 30
0.0
 10
112.7932584227864
 20
107.019513332524
 30
0.0
 10
114.2477865570008
 20
106.4741849890413
 30
0.0
 10
116.1797170904079
 20
106.0079421030981
 30
0.0
 10
118.8735411681088
 20
105.7674081738907
 30
0.0
 10
121.7394001047425
 20
106.1818325098953
 30
0.0
 10
123.9842083950459
 20
107.032374785065
 30
0.0
 10
124.9336033809606
 20
107.5438585367963
 30
0.0
 10
125.3110996071795
 20
107.7764482615917
 30
0.0
  0
LINE
  5
8E
330
7B
100
AcDbEntity
  8
0
  6
Continuous
 62
     0
370
    30
100
AcDbLine
 10
109.469219
 20
112.167212
 30
0.0
 11
109.441817
 21
110.630786
 31
0.0
  0
LINE
  5
8F
330
7B
100
AcDbEntity
  8
0
  6
Continuous
 62
     0
370
    30
100
AcDbLine
 10
127.279976
 20
112.167212
 30
0.0
 11
127.307377
 21
110.630785
 31
0.0
  0
ARC
  5
90
330
7B
100
AcDbEntity
  8
0
  6
Continuous
 62
     0
370
    30
100
AcDbCircle
 10
198.371564
 20
152.195593
 30
0.0
 40
21.99393697203806
100
AcDbArc
 50
359.573391
 51
89.999398
  0
ARC
  5
91
330
7B
100
AcDbEntity
  8
0
  6
Continuous
 62
     0
370
    30
100
AcDbCircle
 10
198.372027
 20
152.195593
 30
0.0
 40
21.99393697203796
100
AcDbArc
 50
90.000602
 51
180.426609
  0
SPLINE
  5
92
330
7B
100
AcDbEntity
  8
0
  6
Continuous
 62
     0
370
     0
100
AcDbSpline
210
0.0
220
0.0
230
1.0
 70
     8
 71
     3
 72
     8
 73
     4
 74
     0
 42
0.000000001
 43
0.0
 40
0.0
 40
0.0
 40
0.0
 40
0.0
 40
3.653222443064019
 40
3.653222443064019
 40
3.653222443064019
 40
3.653222443064019
 10
177.6883757512493
 20
152.3071175996023
 30
0.0
 10
177.6998638036446
 20
151.1089476579207
 30
0.0
 10
177.9564160555501
 20
149.9267120039956
 30
0.0
 10
178.0920296118035
 20
148.7364428443881
 30
0.0
  0
LINE
  5
93
330
7B
100
AcDbEntity
  8
0
  6
Continuous
 62
     0
370
     0
100
AcDbLine
 10
178.09203
 20
148.736443
 30
0.0
 11
184.017679
 21
96.31399
 31
0.0
  0
SPLINE
  5
94
330
7B
100
AcDbEntity
  8
0
  6
Continuous
 62
     0
370
     0
100
AcDbSpline
210
0.0
220
0.0
230
1.0
 70
     8
 71
     3
 72
    14
 73
    10
 74
     0
 42
0.000000001
 43
0.0
 40
0.0
 40
0.0
 40
0.0
 40
0.0
 40
3.357648776851581
 40
6.714049718875667
 40
10.06778576981573
 40
13.41760088284698
 40
16.76445100049494
 40
20.11421126265042
 40
23.46800661548595
 40
23.46800661548595
 40
23.46800661548595
 40
23.46800661548595
 10
184.0176789687752
 20
96.3139902085295
 30
0.0
 10
184.1444030116469
 20
95.22025729352154
 30
0.0
 10
184.4989069453057
 20
93.04285435621094
 30
0.0
 10
185.4258562260276
 20
89.8600951284093
 30
0.0
 10
186.8747777866627
 20
86.86390109809388
 30
0.0
 10
188.9847038335449
 20
84.25457855908202
 30
0.0
 10
191.7840811495841
 20
82.35377362453232
 30
0.0
 10
195.0110975814517
 20
81.33503267869285
 30
0.0
 10
197.2538635333693
 20
81.15534808989833
 30
0.0
 10
198.3717953176476
 20
81.15534737759847
 30
0.0
  0
LINE
  5
95
330
7B
100
AcDbEntity
  8
0
  6
Continuous
 62
     0
370
     0
100
AcDbLine
 10
198.371795
 20
81.155347
 30
0.0
 11
198.371796
 21
173.127211
 31
0.0
  0
ARC
  5
96
330
7B
100
AcDbEntity
  8
0
  6
Continuous
 62
     0
370
     0
100
AcDbCircle
 10
198.371206
 20
152.443927
 30
0.0
 40
20.68328310523916
100
AcDbArc
 50
89.998369
 51
180.378986
  0
SPLINE
  5
97
330
7B
100
AcDbEntity
  8
0
  6
Continuous
 62
     0
370
     0
100
AcDbSpline
210
0.0
220
0.0
230
1.0
 70
     8
 71
     3
 72
     8
 73
     4
 74
     0
 42
0.000000001
 43
0.0
 40
0.0
 40
0.0
 40
0.0
 40
0.0
 40
3.653222443064009
 40
3.653222443064009
 40
3.653222443064009
 40
3.653222443064009
 10
219.0552148840458
 20
152.3071175996022
 30
0.0
 10
219.0437268317743
 20
151.1089476579161
 30
0.0
 10
218.7871745796334
 20
149.9267120040111
 30
0.0
 10
218.6515610234918
 20
148.7364428443881
 30
0.0
  0
LINE
  5
98
330
7B
100
AcDbEntity
  8
0
  6
Continuous
 62
     0
370
     0
100
AcDbLine
 10
218.651561
 20
148.736443
 30
0.0
 11
212.725912
 21
96.31399
 31
0.0
  0
SPLINE
  5
99
330
7B
100
AcDbEntity
  8
0
  6
Continuous
 62
     0
370
     0
100
AcDbSpline
210
0.0
220
0.0
230
1.0
 70
     8
 71
     3
 72
    14
 73
    10
 74
     0
 42
0.000000001
 43
0.0
 40
0.0
 40
0.0
 40
0.0
 40
0.0
 40
3.357648776850946
 40
6.714049718873458
 40
10.06778576981201
 40
13.41760088284155
 40
16.76445100048876
 40
20.114211262641
 40
23.4680066154798
 40
23.4680066154798
 40
23.4680066154798
 40
23.4680066154798
 10
212.7259116665202
 20
96.31399020852967
 30
0.0
 10
212.5991876236239
 20
95.2202572935253
 30
0.0
 10
212.2446836899825
 20
93.04285435621414
 30
0.0
 10
211.3177344092811
 20
89.86009512840513
 30
0.0
 10
209.8688128486314
 20
86.86390109810088
 30
0.0
 10
207.7588868017557
 20
84.25457855908098
 30
0.0
 10
204.959509485719
 20
82.35377362454602
 30
0.0
 10
201.7324930538382
 20
81.33503267868538
 30
0.0
 10
199.489727101927
 20
81.15534808988619
 30
0.0
 10
198.3717953176476
 20
81.15534737759843
 30
0.0
  0
ARC
  5
9A
330
7B
100
AcDbEntity
  8
0
  6
Continuous
 62
     0
370
     0
100
AcDbCircle
 10
198.372384
 20
152.443927
 30
0.0
 40
20.68328310527695
100
AcDbArc
 50
359.621014
 51
90.001631
  0
LINE
  5
9B
330
7B
100
AcDbEntity
  8
0
  6
Continuous
 62
     0
370
     0
100
AcDbLine
 10
176.798875
 20
148.231227
 30
0.0
 11
176.770886
 21
148.439678
 31
0.0
  0
LINE
  5
9C
330
7B
100
AcDbEntity
  8
0
  6
Continuous
 62
     0
370
     0
100
AcDbLine
 10
176.784262
 20
148.439678
 30
0.0
 11
179.242788
 21
126.664488
 31
0.0
  0
LINE
  5
9D
330
7B
100
AcDbEntity
  8
0
  6
Continuous
 62
     0
370
     0
100
AcDbLine
 10
179.242788
 20
126.664488
 30
0.0
 11
182.716461
 21
95.890072
 31
0.0
  0
SPLINE
  5
9E
330
7B
100
AcDbEntity
  8
0
  6
Continuous
 62
     0
370
     0
100
AcDbSpline
210
0.0
220
0.0
230
1.0
 70
     8
 71
     3
 72
     8
 73
     4
 74
     0
 42
0.000000001
 43
0.0
 40
0.0
 40
0.0
 40
0.0
 40
0.0
 40
3.675194520389778
 40
3.675194520389778
 40
3.675194520389778
 40
3.675194520389778
 10
176.7842689548514
 20
148.4396792211786
 30
0.0
 10
176.6492052301373
 20
149.6370911677039
 30
0.0
 10
176.388427775984
 20
150.8271024028024
 30
0.0
 10
176.378742523247
 20
152.031834419036
 30
0.0
  0
LINE
  5
9F
330
7B
100
AcDbEntity
  8
0
  6
Continuous
 62
     0
370
     0
100
AcDbLine
 10
198.371808
 20
79.589311
 30
0.0
 11
198.371803
 21
79.514681
 31
0.0
  0
LINE
  5
A0
330
7B
100
AcDbEntity
  8
0
  6
Continuous
 62
     0
370
     0
100
AcDbLine
 10
198.371808
 20
81.155347
 30
0.0
 11
198.371808
 21
79.589311
 31
0.0
  0
LINE
  5
A1
330
7B
100
AcDbEntity
  8
0
  6
Continuous
 62
     0
370
     0
100
AcDbLine
 10
198.371795
 20
173.127211
 30
0.0
 11
198.371795
 21
174.18953
 31
0.0
  0
LINE
  5
A2
330
7B
100
AcDbEntity
  8
0
  6
Continuous
 62
     0
370
     0
100
AcDbLine
 10
219.944715
 20
148.231227
 30
0.0
 11
219.972705
 21
148.439678
 31
0.0
  0
LINE
  5
A3
330
7B
100
AcDbEntity
  8
0
  6
Continuous
 62
     0
370
     0
100
AcDbLine
 10
219.959329
 20
148.439678
 30
0.0
 11
217.500802
 21
126.664488
 31
0.0
  0
LINE
  5
A4
330
7B
100
AcDbEntity
  8
0
  6
Continuous
 62
     0
370
     0
100
AcDbLine
 10
217.500802
 20
126.664488
 30
0.0
 11
214.027129
 21
95.890072
 31
0.0
  0
SPLINE
  5
A5
330
7B
100
AcDbEntity
  8
0
  6
Continuous
 62
     0
370
     0
100
AcDbSpline
210
0.0
220
0.0
230
1.0
 70
     8
 71
     3
 72
     8
 73
     4
 74
     0
 42
0.000000001
 43
0.0
 40
0.0
 40
0.0
 40
0.0
 40
0.0
 40
3.675194520389781
 40
3.675194520389781
 40
3.675194520389781
 40
3.675194520389781
 10
219.9593216804437
 20
148.4396792211786
 30
0.0
 10
220.0943854051577
 20
149.6370911677039
 30
0.0
 10
220.3551628593112
 20
150.8271024028024
 30
0.0
 10
220.3648481120482
 20
152.031834419036
 30
0.0
  0
LINE
  5
A6
330
7B
100
AcDbEntity
  8
0
  6
Continuous
 62
     0
370
    30
100
AcDbLine
 10
220.042132
 20
148.439687
 30
0.0
 11
220.036186
 21
148.405511
 31
0.0
  0
LINE
  5
A7
330
7B
100
AcDbEntity
  8
0
  6
Continuous
 62
     0
370
    30
100
AcDbLine
 10
176.707405
 20
148.405511
 30
0.0
 11
176.701458
 21
148.439687
 31
0.0
  0
SPLINE
  5
A8
330
7B
100
AcDbEntity
  8
0
  6
Continuous
 62
     0
370
     0
100
AcDbSpline
210
0.0
220
0.0
230
1.0
 70
     8
 71
     7
 72
    16
 73
     8
 74
     0
 42
0.000000001
 43
0.0
 40
0.0
 40
0.0
 40
0.0
 40
0.0
 40
0.0
 40
0.0
 40
0.0
 40
0.0
 40
1.0
 40
1.0
 40
1.0
 40
1.0
 40
1.0
 40
1.0
 40
1.0
 40
1.0
 10
176.7842616582107
 20
148.4396784240918
 30
0.0
 10
176.7840337837551
 20
148.4977646474517
 30
0.0
 10
176.8574183165633
 20
148.5562249958993
 30
0.0
 10
177.0049127431184
 20
148.6114130821784
 30
0.0
 10
177.2189321473225
 20
148.65950622744
 30
0.0
 10
177.4846264244074
 20
148.6974293856773
 30
0.0
 10
177.7825283994134
 20
148.7232758884348
 30
0.0
 10
178.0919972796196
 20
148.7364758522066
 30
0.0
  0
SPLINE
  5
A9
330
7B
100
AcDbEntity
  8
0
  6
Continuous
 62
     0
370
     0
100
AcDbSpline
210
0.0
220
0.0
230
1.0
 70
     8
 71
     7
 72
    16
 73
     8
 74
     0
 42
0.000000001
 43
0.0
 40
0.0
 40
0.0
 40
0.0
 40
0.0
 40
0.0
 40
0.0
 40
0.0
 40
0.0
 40
1.0
 40
1.0
 40
1.0
 40
1.0
 40
1.0
 40
1.0
 40
1.0
 40
1.0
 10
219.9593289770845
 20
148.4396784240918
 30
0.0
 10
219.9595568515401
 20
148.4977646474517
 30
0.0
 10
219.886172318732
 20
148.5562249958993
 30
0.0
 10
219.7386778921768
 20
148.6114130821784
 30
0.0
 10
219.5246584879727
 20
148.65950622744
 30
0.0
 10
219.2589642108878
 20
148.6974293856773
 30
0.0
 10
218.9610622358818
 20
148.7232758884348
 30
0.0
 10
218.6515933556755
 20
148.7364758522066
 30
0.0
  0
SPLINE
  5
AA
330
7B
100
AcDbEntity
  8
0
  6
Continuous
 62
     0
370
     0
100
AcDbSpline
210
0.0
220
0.0
230
1.0
 70
     8
 71
     7
 72
    36
 73
    28
 74
     0
 42
0.000000001
 43
0.0
 40
0.0
 40
0.0
 40
0.0
 40
0.0
 40
0.0
 40
0.0
 40
0.0
 40
0.0
 40
0.11
 40
0.11
 40
0.11
 40
0.11
 40
0.11
 40
0.55
 40
0.55
 40
0.55
 40
0.55
 40
0.55
 40
0.65
 40
0.65
 40
0.65
 40
0.65
 40
0.65
 40
0.77
 40
0.77
 40
0.77
 40
0.77
 40
0.77
 40
1.0
 40
1.0
 40
1.0
 40
1.0
 40
1.0
 40
1.0
 40
1.0
 40
1.0
 10
182.716461404846
 20
95.89007179816846
 30
0.0
 10
182.7616873522076
 20
95.4997129587328
 30
0.0
 10
182.8117751770344
 20
95.10989887182322
 30
0.0
 10
182.8669917871063
 20
94.72073130733949
 30
0.0
 10
182.927405407295
 20
94.33230022410189
 30
0.0
 10
182.9933396148243
 20
93.9447371163634
 30
0.0
 10
183.3516001049106
 20
92.01193691954694
 30
0.0
 10
183.8587822021847
 20
90.10813882785712
 30
0.0
 10
184.37593667283
 20
88.61360240662614
 30
0.0
 10
185.0218206706874
 20
87.16466294254636
 30
0.0
 10
185.8231180344176
 20
85.7816218371589
 30
0.0
 10
187.020399827087
 20
84.22975885146928
 30
0.0
 10
188.4577942171694
 20
82.91612548325085
 30
0.0
 10
188.7320605447632
 20
82.68150685459975
 30
0.0
 10
189.0141963089974
 20
82.45602320564086
 30
0.0
 10
189.3038163132446
 20
82.23996010567996
 30
0.0
 10
189.9567612006741
 20
81.78628352698402
 30
0.0
 10
190.6422295610878
 20
81.38127363467925
 30
0.0
 10
191.0250218253443
 20
81.17520250010983
 30
0.0
 10
191.4159688388295
 20
80.98438973225495
 30
0.0
 10
191.8140597432798
 20
80.80869736365284
 30
0.0
 10
192.9936116647777
 20
80.34043654700824
 30
0.0
 10
194.219585214817
 20
79.99846944300421
 30
0.0
 10
195.0393697204981
 20
79.82649324755755
 30
0.0
 10
195.8678025350522
 20
79.70441402136643
 30
0.0
 10
196.7011253185296
 20
79.62600483740164
 30
0.0
 10
197.5364668764184
 20
79.58931119293493
 30
0.0
 10
198.3718084345089
 20
79.58931118549881
 30
0.0
  0
SPLINE
  5
AB
330
7B
100
AcDbEntity
  8
0
  6
Continuous
 62
     0
370
     0
100
AcDbSpline
210
0.0
220
0.0
230
1.0
 70
     8
 71
     3
 72
    11
 73
     7
 74
     0
 42
0.000000001
 43
0.0
 40
0.0
 40
0.0
 40
0.0
 40
0.0
 40
0.5463209427519092
 40
1.092641883762446
 40
1.638962823031614
 40
2.183354679579054
 40
2.183354679579054
 40
2.183354679579054
 40
2.183354679579054
 10
214.0271292304492
 20
95.89007179816846
 30
0.0
 10
214.0271291808563
 20
95.92310277436478
 30
0.0
 10
213.9621490876552
 20
95.99703314855697
 30
0.0
 10
213.6815194289783
 20
96.11564927143692
 30
0.0
 10
213.253853451097
 20
96.22763171443623
 30
0.0
 10
212.904005159084
 20
96.2888916555786
 30
0.0
 10
212.7259170916646
 20
96.31399584547333
 30
0.0
  0
SPLINE
  5
AC
330
7B
100
AcDbEntity
  8
0
  6
Continuous
 62
     0
370
     0
100
AcDbSpline
210
0.0
220
0.0
230
1.0
 70
     8
 71
     3
 72
    11
 73
     7
 74
     0
 42
0.000000001
 43
0.0
 40
0.0
 40
0.0
 40
0.0
 40
0.0
 40
0.5084500309309365
 40
1.01690006218892
 40
1.525350093773952
 40
2.033085648011041
 40
2.033085648011041
 40
2.033085648011041
 40
2.033085648011041
 10
220.3648913845925
 20
152.0318340742143
 30
0.0
 10
220.364957759528
 20
152.0648583207915
 30
0.0
 10
220.2997249269337
 20
152.1313496621543
 30
0.0
 10
220.0175932622856
 20
152.2178881297631
 30
0.0
 10
219.5871717727799
 20
152.2810533742816
 30
0.0
 10
219.2347837022776
 20
152.3023559141104
 30
0.0
 10
219.0552062159114
 20
152.307107877637
 30
0.0
  0
LINE
  5
AD
330
7B
100
AcDbEntity
  8
0
  6
Continuous
 62
     0
370
     0
100
AcDbLine
 10
176.701248
 20
148.439687
 30
0.0
 11
176.771029
 21
148.439694
 31
0.0
  0
SPLINE
  5
AE
330
7B
100
AcDbEntity
  8
0
  6
Continuous
 62
     0
370
     0
100
AcDbSpline
210
0.0
220
0.0
230
1.0
 70
     8
 71
     3
 72
    11
 73
     7
 74
     0
 42
0.000000001
 43
0.0
 40
0.0
 40
0.0
 40
0.0
 40
0.0
 40
0.5463209427519092
 40
1.092641883762446
 40
1.638962823031614
 40
2.183354679579053
 40
2.183354679579053
 40
2.183354679579053
 40
2.183354679579053
 10
182.716461404846
 20
95.89007179816846
 30
0.0
 10
182.7164614544388
 20
95.92310277436478
 30
0.0
 10
182.78144154764
 20
95.99703314855697
 30
0.0
 10
183.0620712063169
 20
96.11564927143694
 30
0.0
 10
183.4897371841982
 20
96.22763171443623
 30
0.0
 10
183.8395854762112
 20
96.28889165557858
 30
0.0
 10
184.0176735436306
 20
96.31399584547333
 30
0.0
  0
SPLINE
  5
AF
330
7B
100
AcDbEntity
  8
0
  6
Continuous
 62
     0
370
     0
100
AcDbSpline
210
0.0
220
0.0
230
1.0
 70
     8
 71
     3
 72
    11
 73
     7
 74
     0
 42
0.000000001
 43
0.0
 40
0.0
 40
0.0
 40
0.0
 40
0.0
 40
0.5084500309309368
 40
1.01690006218892
 40
1.525350093773953
 40
2.033085648011039
 40
2.033085648011039
 40
2.033085648011039
 40
2.033085648011039
 10
176.3786992507027
 20
152.0318340742143
 30
0.0
 10
176.3786328757672
 20
152.0648583207915
 30
0.0
 10
176.4438657083615
 20
152.1313496621543
 30
0.0
 10
176.7259973730095
 20
152.2178881297631
 30
0.0
 10
177.1564188625153
 20
152.2810533742816
 30
0.0
 10
177.5088069330176
 20
152.3023559141104
 30
0.0
 10
177.6883844193839
 20
152.307107877637
 30
0.0
  0
SPLINE
  5
B0
330
7B
100
AcDbEntity
  8
0
  6
Continuous
 62
     0
370
     0
100
AcDbSpline
210
0.0
220
0.0
230
1.0
 70
     8
 71
     7
 72
    36
 73
    28
 74
     0
 42
0.000000001
 43
0.0
 40
0.0
 40
0.0
 40
0.0
 40
0.0
 40
0.0
 40
0.0
 40
0.0
 40
0.0
 40
0.11
 40
0.11
 40
0.11
 40
0.11
 40
0.11
 40
0.55
 40
0.55
 40
0.55
 40
0.55
 40
0.55
 40
0.65
 40
0.65
 40
0.65
 40
0.65
 40
0.65
 40
0.77
 40
0.77
 40
0.77
 40
0.77
 40
0.77
 40
1.0
 40
1.0
 40
1.0
 40
1.0
 40
1.0
 40
1.0
 40
1.0
 40
1.0
 10
214.0271292304492
 20
95.89007179816846
 30
0.0
 10
213.9819032830876
 20
95.4997129587328
 30
0.0
 10
213.9318154582608
 20
95.10989887182322
 30
0.0
 10
213.8765988481889
 20
94.72073130733949
 30
0.0
 10
213.8161852280002
 20
94.33230022410189
 30
0.0
 10
213.7502510204709
 20
93.9447371163634
 30
0.0
 10
213.3919905303845
 20
92.01193691954694
 30
0.0
 10
212.8848084331105
 20
90.10813882785712
 30
0.0
 10
212.3676539624652
 20
88.61360240662614
 30
0.0
 10
211.7217699646079
 20
87.16466294254636
 30
0.0
 10
210.9204726008775
 20
85.7816218371589
 30
0.0
 10
209.7231908082082
 20
84.22975885146928
 30
0.0
 10
208.2857964181258
 20
82.91612548325085
 30
0.0
 10
208.011530090532
 20
82.68150685459975
 30
0.0
 10
207.7293943262978
 20
82.45602320564086
 30
0.0
 10
207.4397743220505
 20
82.23996010567996
 30
0.0
 10
206.7868294346211
 20
81.78628352698402
 30
0.0
 10
206.1013610742074
 20
81.38127363467925
 30
0.0
 10
205.7185688099509
 20
81.17520250010983
 30
0.0
 10
205.3276217964657
 20
80.98438973225495
 30
0.0
 10
204.9295308920154
 20
80.80869736365284
 30
0.0
 10
203.7499789705175
 20
80.34043654700824
 30
0.0
 10
202.5240054204781
 20
79.99846944300421
 30
0.0
 10
201.7042209147971
 20
79.82649324755755
 30
0.0
 10
200.875788100243
 20
79.70441402136643
 30
0.0
 10
200.0424653167655
 20
79.62600483740164
 30
0.0
 10
199.2071237588768
 20
79.58931119293493
 30
0.0
 10
198.3717822007863
 20
79.58931118549881
 30
0.0
  0
ARC
  5
B1
330
7B
100
AcDbEntity
  8
0
  6
Continuous
 62
     0
370
    30
100
AcDbCircle
 10
198.400126
 20
152.198156
 30
0.0
 40
22.02206617279275
100
AcDbArc
 50
180.761879
 51
188.65564
  0
LINE
  5
B2
330
7B
100
AcDbEntity
  8
0
  6
Continuous
 62
     0
370
    30
100
AcDbLine
 10
176.628875
 20
148.883936
 30
0.0
 11
176.70121
 21
148.439643
 31
0.0
  0
LINE
  5
B3
330
7B
100
AcDbEntity
  8
0
  6
Continuous
 62
     0
370
    30
100
AcDbLine
 10
176.70121
 20
148.439643
 30
0.0
 11
176.707161
 21
148.405469
 31
0.0
  0
LINE
  5
B4
330
7B
100
AcDbEntity
  8
0
  6
Continuous
 62
     0
370
     0
100
AcDbLine
 10
220.042343
 20
148.439687
 30
0.0
 11
219.972562
 21
148.439694
 31
0.0
  0
LINE
  5
B5
330
7B
100
AcDbEntity
  8
0
  6
Continuous
 62
     0
370
    30
100
AcDbLine
 10
220.03643
 20
148.405469
 30
0.0
 11
220.042381
 21
148.439643
 31
0.0
  0
LINE
  5
B6
330
7B
100
AcDbEntity
  8
0
  6
Continuous
 62
     0
370
    30
100
AcDbLine
 10
220.042381
 20
148.439643
 30
0.0
 11
220.114715
 21
148.883936
 31
0.0
  0
ARC
  5
B7
330
7B
100
AcDbEntity
  8
0
  6
Continuous
 62
     0
370
    30
100
AcDbCircle
 10
198.343465
 20
152.198156
 30
0.0
 40
22.02206617276826
100
AcDbArc
 50
351.34436
 51
359.238121
  0
ARC
  5
B8
330
7B
100
AcDbEntity
  8
0
  6
Continuous
 62
     0
370
    30
100
AcDbCircle
 10
198.374599
 20
152.192652
 30
0.0
 40
22.1
100
AcDbArc
 50
345.276096
 51
90.0
  0
ARC
  5
B9
330
7B
100
AcDbEntity
  8
0
  6
Continuous
 62
     0
370
    30
100
AcDbCircle
 10
198.374599
 20
152.192652
 30
0.0
 40
22.1
100
AcDbArc
 50
90.0
 51
194.62301
  0
ARC
  5
BA
330
7B
100
AcDbEntity
  8
0
  6
Continuous
 62
     0
370
     0
100
AcDbCircle
 10
198.374599
 20
152.192652
 30
0.0
 40
29.49999999999999
100
AcDbArc
 50
311.403932
 51
90.0
  0
ARC
  5
BB
330
7B
100
AcDbEntity
  8
0
  6
Continuous
 62
     0
370
     0
100
AcDbCircle
 10
198.374599
 20
152.192652
 30
0.0
 40
29.49999999999999
100
AcDbArc
 50
90.0
 51
228.57994
  0
ARC
  5
BC
330
7B
100
AcDbEntity
  8
0
  6
Continuous
 62
     0
370
    30
100
AcDbCircle
 10
198.374599
 20
152.192652
 30
0.0
 40
30.0
100
AcDbArc
 50
310.35956
 51
90.0
  0
ARC
  5
BD
330
7B
100
AcDbEntity
  8
0
  6
Continuous
 62
     0
370
    30
100
AcDbCircle
 10
198.374599
 20
152.192652
 30
0.0
 40
30.0
100
AcDbArc
 50
90.0
 51
229.624892
  0
LINE
  5
BE
330
7B
100
AcDbEntity
  8
0
  6
Continuous
 62
     0
370
    30
100
AcDbLine
 10
219.847867
 20
147.452459
 30
0.0
 11
220.03643
 21
148.405469
 31
0.0
  0
LINE
  5
BF
330
7B
100
AcDbEntity
  8
0
  6
Continuous
 62
     0
370
    30
100
AcDbLine
 10
176.707161
 20
148.405469
 30
0.0
 11
176.895724
 21
147.452459
 31
0.0
  0
SPLINE
  5
C0
330
7B
100
AcDbEntity
  8
0
  6
Continuous
 62
     0
370
    30
100
AcDbSpline
210
0.0
220
0.0
230
1.0
 70
     8
 71
     3
 72
    20
 73
    16
 74
     0
 42
0.000000001
 43
0.0
 40
0.0
 40
0.0
 40
0.0
 40
0.0
 40
1.550144395625687
 40
3.488758548384306
 40
5.233292340415857
 40
6.588945523624926
 40
7.939111892067221
 40
9.47936135109334
 40
11.1913234251272
 40
12.70651436918894
 40
14.20261570540679
 40
16.44234060872622
 40
18.30562461181168
 40
21.67954416437892
 40
25.38217702924267
 40
25.38217702924267
 40
25.38217702924267
 40
25.38217702924267
 10
198.3717873354995
 20
79.51468103788945
 30
0.0
 10
198.8883830993066
 20
79.5147746287984
 30
0.0
 10
200.0515997943922
 20
79.5559562476383
 30
0.0
 10
201.7844263235405
 20
79.77610247567172
 30
0.0
 10
203.418036624849
 20
80.17387756532867
 30
0.0
 10
204.8132081325288
 20
80.67759494430612
 30
0.0
 10
206.0883328151905
 20
81.29027752649809
 30
0.0
 10
207.3861748593876
 20
82.10570807418162
 30
0.0
 10
208.6093206990936
 20
83.11510535207768
 30
0.0
 10
209.6857909923673
 20
84.25625849583326
 30
0.0
 10
210.7369700215643
 20
85.64528666245825
 30
0.0
 10
211.6683304078837
 20
87.25137004977394
 30
0.0
 10
212.6595625863474
 20
89.5176473105476
 30
0.0
 10
213.5032268829034
 20
92.35197877387017
 30
0.0
 10
213.8855948942976
 20
94.65720474264847
 30
0.0
 10
214.0258823286273
 20
95.86819290668952
 30
0.0
  0
LINE
  5
C1
330
7B
100
AcDbEntity
  8
0
  6
Continuous
 62
     0
370
    30
100
AcDbLine
 10
220.32971
 20
150.94172
 30
0.0
 11
220.32323
 21
150.83297
 31
0.0
  0
SPLINE
  5
C2
330
7B
100
AcDbEntity
  8
0
  6
Continuous
 62
     0
370
    30
100
AcDbSpline
210
0.0
220
0.0
230
1.0
 70
     8
 71
     3
 72
    20
 73
    16
 74
     0
 42
0.000000001
 43
0.0
 40
0.0
 40
0.0
 40
0.0
 40
0.0
 40
1.550144395625687
 40
3.48875854838432
 40
5.233292340415858
 40
6.588945523624926
 40
7.939111892067206
 40
9.479361351093349
 40
11.19132342512719
 40
12.70651436918893
 40
14.20261570540677
 40
16.44234060872618
 40
18.30562461181166
 40
21.6795441643789
 40
25.38217702924266
 40
25.38217702924266
 40
25.38217702924266
 40
25.38217702924266
 10
198.3718032997957
 20
79.51468103788945
 30
0.0
 10
197.8552075359886
 20
79.5147746287984
 30
0.0
 10
196.691990840903
 20
79.5559562476383
 30
0.0
 10
194.9591643117547
 20
79.7761024756717
 30
0.0
 10
193.3255540104462
 20
80.1738775653287
 30
0.0
 10
191.9303825027664
 20
80.67759494430611
 30
0.0
 10
190.6552578201047
 20
81.2902775264981
 30
0.0
 10
189.3574157759076
 20
82.1057080741816
 30
0.0
 10
188.1342699362016
 20
83.11510535207763
 30
0.0
 10
187.0577996429279
 20
84.25625849583326
 30
0.0
 10
186.0066206137308
 20
85.64528666245818
 30
0.0
 10
185.0752602274115
 20
87.2513700497739
 30
0.0
 10
184.0840280489478
 20
89.51764731054756
 30
0.0
 10
183.2403637523917
 20
92.35197877387016
 30
0.0
 10
182.8579957409976
 20
94.65720474264846
 30
0.0
 10
182.7177083066679
 20
95.86819290668952
 30
0.0
  0
LINE
  5
C3
330
7B
100
AcDbEntity
  8
0
  6
Continuous
 62
     0
370
    30
100
AcDbLine
 10
176.41388
 20
150.94172
 30
0.0
 11
176.42036
 21
150.83297
 31
0.0
  0
ENDBLK
  5
C5
330
7B
100
AcDbEntity
  8
0
100
AcDbBlockEnd
  0
BLOCK
  5
11D
330
C7
100
AcDbEntity
  8
0
100
AcDbBlockBegin
  2
b
 70
     0
 10
-54.487717
 20
0.000015
 30
0.0
  3
b
  1

  0
LINE
  5
C8
330
C7
100
AcDbEntity
  8
0
  6
Continuous
 62
     0
370
    30
100
AcDbLine
 10
-76.733514
 20
181.692668
 30
0.0
 11
-76.733514
 21
182.192668
 31
0.0
  0
LINE
  5
C9
330
C7
100
AcDbEntity
  8
0
  6
Continuous
 62
     0
370
    30
100
AcDbLine
 10
-76.733514
 20
122.192668
 30
0.0
 11
-76.733514
 21
122.692668
 31
0.0
  0
LINE
  5
CA
330
C7
100
AcDbEntity
  8
0
  6
Continuous
 62
     0
370
    30
100
AcDbLine
 10
-269.505042
 20
116.580388
 30
0.0
 11
-270.4159
 21
115.05754
 31
0.0
  0
SPLINE
  5
CB
330
C7
100
AcDbEntity
  8
0
  6
Continuous
 62
     0
370
    30
100
AcDbSpline
210
0.0
220
0.0
230
1.0
 70
     8
 71
     3
 72
     8
 73
     4
 74
     0
 42
0.000000001
 43
0.0
 40
-0.0587217815354702
 40
-0.0587217815354702
 40
-0.0587217815354702
 40
-0.0587217815354702
 40
0.5033770751751501
 40
0.5033770751751501
 40
0.5033770751751501
 40
0.5033770751751501
 10
-270.4159004244773
 20
115.0575403547406
 30
0.0
 10
-269.5056941734333
 20
112.1712172672179
 30
0.0
 10
-267.1329708267995
 20
109.588150267005
 30
0.0
 10
-264.2469974894834
 20
107.876122923819
 30
0.0
  0
LINE
  5
CC
330
C7
100
AcDbEntity
  8
0
  6
Continuous
 62
     0
370
    30
100
AcDbLine
 10
-254.079861
 20
107.674655
 30
0.0
 11
-269.505042
 21
116.580388
 31
0.0
  0
LINE
  5
CD
330
C7
100
AcDbEntity
  8
0
  6
Continuous
 62
     0
370
    30
100
AcDbLine
 10
-254.943256
 20
106.124405
 30
0.0
 11
-270.4159
 21
115.05754
 31
0.0
  0
LINE
  5
CE
330
C7
100
AcDbEntity
  8
0
  6
Continuous
 62
     0
370
     0
100
AcDbLine
 10
-212.680066
 20
139.192668
 30
0.0
 11
-212.680066
 21
165.192668
 31
0.0
  0
SPLINE
  5
CF
330
C7
100
AcDbEntity
  8
0
  6
Continuous
 62
     0
370
     0
100
AcDbSpline
210
0.0
220
0.0
230
1.0
 70
    12
 71
     2
 72
     8
 73
     5
 74
     0
 42
0.000000001
 43
0.0
 40
0.25
 40
0.25
 40
0.25
 40
0.5
 40
0.5
 40
0.75
 40
0.75
 40
0.75
 10
-262.9095395372278
 20
136.1926679611205
 30
0.0
 41
1.0
 10
-262.9095401054758
 20
136.1926679611205
 30
0.0
 41
0.7071067811865476
 10
-251.6512098562782
 20
129.6926679611205
 30
0.0
 41
1.0
 10
-240.3928796070804
 20
123.1926679611206
 30
0.0
 41
0.7071067811865476
 10
-240.3928790388323
 20
123.1926679611206
 30
0.0
 41
1.0
  0
LINE
  5
D0
330
C7
100
AcDbEntity
  8
0
  6
Continuous
 62
     0
370
    30
100
AcDbLine
 10
-250.475184
 20
105.729603
 30
0.0
 11
-272.991845
 21
118.729603
 31
0.0
  0
LINE
  5
D1
330
C7
100
AcDbEntity
  8
0
  6
Continuous
 62
     0
370
    30
100
AcDbLine
 10
-269.545082
 20
116.739614
 30
0.0
 11
-269.505042
 21
116.580388
 31
0.0
  0
LINE
  5
D2
330
C7
100
AcDbEntity
  8
0
  6
Continuous
 62
     0
370
    30
100
AcDbLine
 10
-262.90954
 20
136.192668
 30
0.0
 11
-272.991845
 21
118.729603
 31
0.0
  0
LINE
  5
D3
330
C7
100
AcDbEntity
  8
0
  6
Continuous
 62
     0
370
    30
100
AcDbLine
 10
-240.392879
 20
123.192668
 30
0.0
 11
-250.475184
 21
105.729603
 31
0.0
  0
ARC
  5
D4
330
C7
100
AcDbEntity
  8
0
  6
Continuous
 62
     0
370
    30
100
AcDbCircle
 10
-212.680064
 20
107.192664
 30
0.0
 40
32.00000355770602
100
AcDbArc
 50
90.000004
 51
149.999996
  0
ARC
  5
D5
330
C7
100
AcDbEntity
  8
0
  6
Continuous
 62
     0
370
    30
100
AcDbCircle
 10
-212.680066
 20
107.192667
 30
0.0
 40
58.00000094071621
100
AcDbArc
 50
90.000001
 51
149.999999
  0
LINE
  5
D6
330
C7
100
AcDbEntity
  8
0
  6
Continuous
 62
     0
370
    30
100
AcDbLine
 10
-212.680066
 20
139.192668
 30
0.0
 11
-128.961723
 21
139.192668
 31
0.0
  0
LINE
  5
D7
330
C7
100
AcDbEntity
  8
0
  6
Continuous
 62
     0
370
    30
100
AcDbLine
 10
-212.680066
 20
165.192668
 30
0.0
 11
-123.205215
 21
165.192668
 31
0.0
  0
SPLINE
  5
D8
330
C7
100
AcDbEntity
  8
0
  6
Continuous
 62
     0
370
    30
100
AcDbSpline
210
0.0
220
0.0
230
1.0
 70
     8
 71
     3
 72
     8
 73
     4
 74
     0
 42
0.000000001
 43
0.0
 40
-0.0587217815354702
 40
-0.0587217815354702
 40
-0.0587217815354702
 40
-0.0587217815354702
 40
0.5033770751751501
 40
0.5033770751751501
 40
0.5033770751751501
 40
0.5033770751751501
 10
-254.9432561188561
 20
106.1244048394809
 30
0.0
 10
-257.8979883718816
 20
105.4695050777342
 30
0.0
 10
-261.3213516751957
 20
106.2328103251765
 30
0.0
 10
-264.2469974894834
 20
107.8761229238189
 30
0.0
  0
LINE
  5
D9
330
C7
100
AcDbEntity
  8
0
  6
Continuous
 62
     0
370
    30
100
AcDbLine
 10
-254.079861
 20
107.674655
 30
0.0
 11
-254.943256
 21
106.124405
 31
0.0
  0
LINE
  5
DA
330
C7
100
AcDbEntity
  8
0
  6
Continuous
 62
     0
370
    30
100
AcDbLine
 10
-253.921947
 20
107.719592
 30
0.0
 11
-254.079861
 21
107.674655
 31
0.0
  0
LINE
  5
DB
330
C7
100
AcDbEntity
  8
0
  6
Continuous
 62
     0
370
    30
100
AcDbLine
 10
-77.23627
 20
122.192668
 30
0.0
 11
-76.733514
 21
122.192668
 31
0.0
  0
LINE
  5
DC
330
C7
100
AcDbEntity
  8
0
  6
Continuous
 62
     0
370
    30
100
AcDbLine
 10
-77.236793
 20
182.192668
 30
0.0
 11
-76.733514
 21
182.192668
 31
0.0
  0
LINE
  5
DD
330
C7
100
AcDbEntity
  8
0
  6
Continuous
 62
     0
370
    30
100
AcDbLine
 10
-107.128713
 20
129.99436
 30
0.0
 11
-111.756887
 21
129.873167
 31
0.0
  0
ARC
  5
DE
330
C7
100
AcDbEntity
  8
0
  6
Continuous
 62
     0
370
    30
100
AcDbCircle
 10
-111.763431
 20
130.123082
 30
0.0
 40
0.25
100
AcDbArc
 50
188.0
 51
271.5
  0
LINE
  5
DF
330
C7
100
AcDbEntity
  8
0
  6
Continuous
 62
     0
370
    30
100
AcDbLine
 10
-95.961093
 20
130.202131
 30
0.0
 11
-106.898434
 21
130.202131
 31
0.0
  0
LINE
  5
E0
330
C7
100
AcDbEntity
  8
0
  6
Continuous
 62
     0
370
     0
100
AcDbLine
 10
-123.092507
 20
152.031849
 30
0.0
 11
-119.292757
 21
174.189546
 31
0.0
  0
SPLINE
  5
E1
330
C7
100
AcDbEntity
  8
0
  6
Continuous
 62
     0
370
    30
100
AcDbSpline
210
0.0
220
0.0
230
1.0
 70
     8
 71
     3
 72
    44
 73
    40
 74
     0
 42
0.000000001
 43
0.0
 40
0.0000895826433412
 40
0.0000895826433412
 40
0.0000895826433412
 40
0.0000895826433412
 40
1.455705552509048
 40
2.911589491459075
 40
5.824081540223966
 40
8.7385626186377
 40
11.65580985318472
 40
14.57578990660517
 40
16.0365960848436
 40
17.49778930286209
 40
20.42097080379455
 40
23.34485787360984
 40
29.19406413397097
 40
35.04490031175023
 40
40.89750583142025
 40
46.75217532136676
 40
52.60924050520428
 40
58.46889873474503
 40
61.39961580463802
 40
64.33071643401544
 40
67.26188709628178
 40
67.99463745972156
 40
68.72736871187065
 40
69.46006464947662
 40
70.19267755734444
 40
70.92522637030976
 40
71.65766554638013
 40
72.3898692175285
 40
73.12154096575792
 40
73.85284092929396
 40
74.58380294679615
 40
76.04479523318956
 40
78.96357029084776
 40
81.87875183543906
 40
84.79115651387711
 40
87.70151606666711
 40
90.61036732582744
 40
92.06431495852438
 40
93.51784755801623
 40
93.51784755801623
 40
93.51784755801623
 40
93.51784755801623
 10
-137.7250380839273
 20
81.15536263638754
 30
0.0
 10
-137.7120426855159
 20
81.64035004555426
 30
0.0
 10
-137.6860490638193
 20
82.61041413942004
 30
0.0
 10
-137.6059327608345
 20
84.55039312083392
 30
0.0
 10
-137.4425365999431
 20
86.97376348056574
 30
0.0
 10
-137.1353815622451
 20
89.87537660785001
 30
0.0
 10
-136.7377902710269
 20
92.77050904470372
 30
0.0
 10
-136.3551901346735
 20
95.1785781262222
 30
0.0
 10
-136.0318650926012
 20
97.10379179894645
 30
0.0
 10
-135.7062215182965
 20
99.03007244159346
 30
0.0
 10
-135.3088061934833
 20
101.441001256688
 30
0.0
 10
-134.6742151155843
 20
105.2999853357666
 30
0.0
 10
-133.8947799956948
 20
110.1265805791955
 30
0.0
 10
-132.9601271615414
 20
115.9178283946671
 30
0.0
 10
-132.0162595386903
 20
121.7080616295879
 30
0.0
 10
-131.0498322312994
 20
127.4959917824243
 30
0.0
 10
-130.0476068191271
 20
133.2802119396095
 30
0.0
 10
-129.1724989353791
 20
138.095296930645
 30
0.0
 10
-128.4415592396439
 20
141.9426747956989
 30
0.0
 10
-127.8767417191402
 20
144.8252598699416
 30
0.0
 10
-127.4395588717472
 20
146.983876144172
 30
0.0
 10
-127.1418660498056
 20
148.4211624003199
 30
0.0
 10
-126.9918114425514
 20
149.1393739999259
 30
0.0
 10
-126.8405165918507
 20
149.857133639905
 30
0.0
 10
-126.6879321759095
 20
150.5744822085024
 30
0.0
 10
-126.5340539369658
 20
151.2912993192373
 30
0.0
 10
-126.3788766934094
 20
152.0075874392138
 30
0.0
 10
-126.2224150027467
 20
152.7232048157433
 30
0.0
 10
-126.0645547661425
 20
153.4385602915365
 30
0.0
 10
-125.9053711492494
 20
154.1532172783942
 30
0.0
 10
-125.6913056995037
 20
155.1050843629379
 30
0.0
 10
-125.3120677950352
 20
156.7681737672987
 30
0.0
 10
-124.7531427779986
 20
159.1376491328787
 30
0.0
 10
-124.0657299681833
 20
161.9732709298235
 30
0.0
 10
-123.3263175372299
 20
164.7913944291064
 30
0.0
 10
-122.5286024507054
 20
167.5897795926481
 30
0.0
 10
-121.8155890838077
 20
169.9051644346139
 30
0.0
 10
-121.2215418901603
 20
171.7486635827452
 30
0.0
 10
-120.9177278464915
 20
172.667748823001
 30
0.0
 10
-120.7658424033662
 20
173.1272258073001
 30
0.0
  0
LINE
  5
E2
330
C7
100
AcDbEntity
  8
0
  6
Continuous
 62
     0
370
     0
100
AcDbLine
 10
-124.601736
 20
152.307133
 30
0.0
 11
-125.260052
 21
148.736458
 31
0.0
  0
LINE
  5
E3
330
C7
100
AcDbEntity
  8
0
  6
Continuous
 62
     0
370
     0
100
AcDbLine
 10
-125.260052
 20
148.736458
 30
0.0
 11
-134.929119
 21
96.314005
 31
0.0
  0
LINE
  5
E4
330
C7
100
AcDbEntity
  8
0
  6
Continuous
 62
     0
370
     0
100
AcDbLine
 10
-134.929119
 20
96.314005
 30
0.0
 11
-137.725038
 21
81.155363
 31
0.0
  0
LINE
  5
E5
330
C7
100
AcDbEntity
  8
0
  6
Continuous
 62
     0
370
     0
100
AcDbLine
 10
-120.765842
 20
173.127226
 30
0.0
 11
-124.601736
 21
152.307133
 31
0.0
  0
SPLINE
  5
E6
330
C7
100
AcDbEntity
  8
0
  6
Continuous
 62
     0
370
    30
100
AcDbSpline
210
0.0
220
0.0
230
1.0
 70
     8
 71
     3
 72
     8
 73
     4
 74
     0
 42
0.000000001
 43
0.0
 40
0.0
 40
0.0
 40
0.0
 40
0.0
 40
1.0
 40
1.0
 40
1.0
 40
1.0
 10
-136.4546313504059
 20
79.58932644428788
 30
0.0
 10
-135.305237441566
 20
79.37733034654738
 30
0.0
 10
-134.6534325578962
 20
79.61576143255667
 30
0.0
 10
-134.492126174262
 20
80.32027036407237
 30
0.0
  0
ARC
  5
E7
330
C7
100
AcDbEntity
  8
0
  6
Continuous
 62
     0
370
    30
100
AcDbCircle
 10
-119.292757
 20
172.637046
 30
0.0
 40
1.5524999946534
100
AcDbArc
 50
90.0
 51
161.594746
  0
SPLINE
  5
E8
330
C7
100
AcDbEntity
  8
0
  6
Continuous
 62
     0
370
    30
100
AcDbSpline
210
0.0
220
0.0
230
1.0
 70
     8
 71
     3
 72
     8
 73
     4
 74
     0
 42
0.000000001
 43
0.0
 40
0.2452077229366947
 40
0.2452077229366947
 40
0.2452077229366947
 40
0.2452077229366947
 40
34.96414112472198
 40
34.96414112472198
 40
34.96414112472198
 40
34.96414112472198
 10
-127.8315590991407
 20
114.7451254950786
 30
0.0
 10
-130.0370173375846
 20
103.3841522300066
 30
0.0
 10
-131.8538520559412
 20
91.94164363591938
 30
0.0
 10
-134.4155508600646
 20
80.65599906238256
 30
0.0
  0
SPLINE
  5
E9
330
C7
100
AcDbEntity
  8
0
  6
Continuous
 62
     0
370
     0
100
AcDbSpline
210
0.0
220
0.0
230
1.0
 70
     8
 71
     7
 72
    31
 73
    23
 74
     0
 42
0.000000001
 43
0.0
 40
-0.0000000000000264
 40
-0.0000000000000264
 40
-0.0000000000000264
 40
-0.0000000000000264
 40
-0.0000000000000264
 40
-0.0000000000000264
 40
-0.0000000000000264
 40
-0.0000000000000264
 40
0.3899999999999839
 40
0.3899999999999839
 40
0.3899999999999839
 40
0.3899999999999839
 40
0.3899999999999839
 40
0.6436379999999904
 40
0.6436379999999904
 40
0.6436379999999904
 40
0.6436379999999904
 40
0.6436379999999904
 40
0.7742999999999939
 40
0.7742999999999939
 40
0.7742999999999939
 40
0.7742999999999939
 40
0.7742999999999939
 40
1.0
 40
1.0
 40
1.0
 40
1.0
 40
1.0
 40
1.0
 40
1.0
 40
1.0
 10
-127.7716271221644
 20
126.6645029724899
 30
0.0
 10
-127.651501831935
 20
126.6423484838206
 30
0.0
 10
-127.5311674389958
 20
126.6213410373348
 30
0.0
 10
-127.41224377214
 20
126.6007307128681
 30
0.0
 10
-127.2916457357177
 20
126.5793538117186
 30
0.0
 10
-127.1740642234457
 20
126.5577419119614
 30
0.0
 10
-126.98154505156
 20
126.5206246240574
 30
0.0
 10
-126.7907127315988
 20
126.4811179915544
 30
0.0
 10
-126.7154645655055
 20
126.4650667386761
 30
0.0
 10
-126.6416059836815
 20
126.4492592577912
 30
0.0
 10
-126.568247368177
 20
126.4331089395169
 30
0.0
 10
-126.4587055573888
 20
126.4098404846011
 30
0.0
 10
-126.3626307033165
 20
126.3942953109634
 30
0.0
 10
-126.3321964333662
 20
126.3902612707649
 30
0.0
 10
-126.3045323042901
 20
126.3877363995545
 30
0.0
 10
-126.2812380450371
 20
126.3874153079984
 30
0.0
 10
-126.2279730241132
 20
126.3912916707334
 30
0.0
 10
-126.1992471402882
 20
126.4063080223052
 30
0.0
 10
-126.18830040528
 20
126.4188562319014
 30
0.0
 10
-126.1798526994431
 20
126.4325067415061
 30
0.0
 10
-126.1740739424218
 20
126.4472896386714
 30
0.0
 10
-126.1692009831977
 20
126.4625182041918
 30
0.0
 10
-126.1642702076186
 20
126.4777362274598
 30
0.0
  0
ARC
  5
EA
330
C7
100
AcDbEntity
  8
0
  6
Continuous
 62
     0
370
     0
100
AcDbCircle
 10
-6906.845942
 20
1327.628625
 30
0.0
 40
6886.247700786088
100
AcDbArc
 50
349.954657
 51
350.140179
  0
LINE
  5
EB
330
C7
100
AcDbEntity
  8
0
  6
Continuous
 62
     0
370
     0
100
AcDbLine
 10
-122.310523
 20
148.439694
 30
0.0
 11
-123.755096
 21
148.439694
 31
0.0
  0
LINE
  5
EC
330
C7
100
AcDbEntity
  8
0
  6
Continuous
 62
     0
370
     0
100
AcDbLine
 10
-123.755096
 20
148.439694
 30
0.0
 11
-127.771627
 21
126.664503
 31
0.0
  0
LINE
  5
ED
330
C7
100
AcDbEntity
  8
0
  6
Continuous
 62
     0
370
     0
100
AcDbLine
 10
-127.771627
 20
126.664503
 30
0.0
 11
-133.448093
 21
95.890087
 31
0.0
  0
SPLINE
  5
EE
330
C7
100
AcDbEntity
  8
0
  6
Continuous
 62
     0
370
     0
100
AcDbSpline
210
0.0
220
0.0
230
1.0
 70
     8
 71
     7
 72
    26
 73
    18
 74
     0
 42
0.000000001
 43
0.0
 40
0.0
 40
0.0
 40
0.0
 40
0.0
 40
0.0
 40
0.0
 40
0.0
 40
0.0
 40
0.4874999999999879
 40
0.4874999999999879
 40
0.4874999999999879
 40
0.4874999999999879
 40
0.4874999999999879
 40
0.7499999999999812
 40
0.7499999999999812
 40
0.7499999999999812
 40
0.7499999999999812
 40
0.7499999999999812
 40
0.9999999999999749
 40
0.9999999999999749
 40
0.9999999999999749
 40
0.9999999999999749
 40
0.9999999999999749
 40
0.9999999999999749
 40
0.9999999999999749
 40
0.9999999999999749
 10
-133.4480934441062
 20
95.8900870569575
 30
0.0
 10
-133.2879747547188
 20
95.8605544983392
 30
0.0
 10
-133.1278741047746
 20
95.83092412510592
 30
0.0
 10
-132.9679855206634
 20
95.80129499691986
 30
0.0
 10
-132.8085431530906
 20
95.7718072240985
 30
0.0
 10
-132.6502949693797
 20
95.74275168264012
 30
0.0
 10
-132.4097563628181
 20
95.69930713853613
 30
0.0
 10
-132.1832590943399
 20
95.66105486249627
 30
0.0
 10
-132.1063379274935
 20
95.64851887213854
 30
0.0
 10
-132.0326902193556
 20
95.63712895806572
 30
0.0
 10
-131.963636216122
 20
95.62730762790117
 30
0.0
 10
-131.8421734298848
 20
95.61238357983665
 30
0.0
 10
-131.7526693524222
 20
95.6071194541379
 30
0.0
 10
-131.7179418049479
 20
95.60715944804201
 30
0.0
 10
-131.6930822209326
 20
95.60995446981286
 30
0.0
 10
-131.6770658160115
 20
95.61513488267894
 30
0.0
 10
-131.668770663456
 20
95.6223746417166
 30
0.0
 10
-131.6671080223584
 20
95.63136882229873
 30
0.0
  0
LINE
  5
EF
330
C7
100
AcDbEntity
  8
0
  6
Continuous
 62
     0
370
     0
100
AcDbLine
 10
-131.667108
 20
95.631369
 30
0.0
 11
-126.16427
 21
126.477736
 31
0.0
  0
LINE
  5
F0
330
C7
100
AcDbEntity
  8
0
  6
Continuous
 62
     0
370
     0
100
AcDbLine
 10
-123.755096
 20
148.439694
 30
0.0
 11
-123.092507
 21
152.03185
 31
0.0
  0
LINE
  5
F1
330
C7
100
AcDbEntity
  8
0
  6
Continuous
 62
     0
370
    30
100
AcDbLine
 10
-95.961094
 20
151.891637
 30
0.0
 11
-95.961093
 21
130.202131
 31
0.0
  0
LINE
  5
F2
330
C7
100
AcDbEntity
  8
0
  6
Continuous
 62
     0
370
     0
100
AcDbLine
 10
-123.755096
 20
148.439694
 30
0.0
 11
-125.260252
 21
148.736491
 31
0.0
  0
SPLINE
  5
F3
330
C7
100
AcDbEntity
  8
0
  6
Continuous
 62
     0
370
     0
100
AcDbSpline
210
0.0
220
0.0
230
1.0
 70
     8
 71
     3
 72
    16
 73
    12
 74
     0
 42
0.000000001
 43
0.0
 40
0.0
 40
0.0
 40
0.0
 40
0.0
 40
0.797441057574457
 40
1.595041030504316
 40
3.190093146509989
 40
6.378895936046177
 40
9.567728770520644
 40
12.75632614595556
 40
15.94462681573975
 40
19.13152948820149
 40
22.31725034989159
 40
22.31725034989159
 40
22.31725034989159
 40
22.31725034989159
 10
-126.1641455159286
 20
126.4777136105176
 30
0.0
 10
-126.2020027755349
 20
126.2476427903625
 30
0.0
 10
-126.2693939766664
 20
125.8182869549101
 30
0.0
 10
-126.4053491528964
 20
124.9485929271912
 30
0.0
 10
-126.6261706432566
 20
123.4920933195854
 30
0.0
 10
-126.9086187139878
 20
121.5508988030811
 30
0.0
 10
-127.1942786426685
 20
119.484364940229
 30
0.0
 10
-127.429158895737
 20
117.7133914059066
 30
0.0
 10
-127.6120566702157
 20
116.2949303219641
 30
0.0
 10
-127.7367959754428
 20
115.311669499089
 30
0.0
 10
-127.7757936158122
 20
115.0249136949887
 30
0.0
 10
-127.7847713969616
 20
114.9858289904413
 30
0.0
  0
LINE
  5
F4
330
C7
100
AcDbEntity
  8
0
  6
Continuous
 62
     0
370
    30
100
AcDbLine
 10
-96.564145
 20
155.311846
 30
0.0
 11
-103.433945
 21
174.186237
 31
0.0
  0
ARC
  5
F5
330
C7
100
AcDbEntity
  8
0
  6
Continuous
 62
     0
370
    30
100
AcDbCircle
 10
-106.061488
 20
151.874004
 30
0.0
 40
10.10040948528468
100
AcDbArc
 50
0.100021
 51
19.899209
  0
SPLINE
  5
F6
330
C7
100
AcDbEntity
  8
0
  6
Continuous
 62
     0
370
     0
100
AcDbSpline
210
0.0
220
0.0
230
1.0
 70
     8
 71
     3
 72
    11
 73
     7
 74
     0
 42
0.000000001
 43
0.0
 40
0.0
 40
0.0
 40
0.0
 40
0.0
 40
0.5463209427519092
 40
1.092641883762446
 40
1.638962823031614
 40
2.183354679579054
 40
2.183354679579054
 40
2.183354679579054
 40
2.183354679579054
 10
-133.4480934441062
 20
95.89008705695753
 30
0.0
 10
-133.6271797416543
 20
95.92311803315384
 30
0.0
 10
-133.9871957938608
 20
95.99704840734603
 30
0.0
 10
-134.4540269668466
 20
96.11566453022598
 30
0.0
 10
-134.7925307086711
 20
96.22764697322529
 30
0.0
 10
-134.9049100840467
 20
96.28890691436766
 30
0.0
 10
-134.9291528409794
 20
96.31401110426239
 30
0.0
  0
LINE
  5
F7
330
C7
100
AcDbEntity
  8
0
  6
Continuous
 62
     0
370
     0
100
AcDbLine
 10
-123.092507
 20
152.031849
 30
0.0
 11
-124.601682
 21
152.307123
 31
0.0
  0
LINE
  5
F8
330
C7
100
AcDbEntity
  8
0
  6
Continuous
 62
     0
370
     0
100
AcDbLine
 10
-133.448093
 20
95.890087
 30
0.0
 11
-136.454631
 21
79.589326
 31
0.0
  0
LINE
  5
F9
330
C7
100
AcDbEntity
  8
0
  6
Continuous
 62
     0
370
     0
100
AcDbLine
 10
-120.640961
 20
148.439703
 30
0.0
 11
-122.31052
 21
148.43971
 31
0.0
  0
LINE
  5
FA
330
C7
100
AcDbEntity
  8
0
  6
Continuous
 62
     0
370
    30
100
AcDbLine
 10
-134.492126
 20
80.32027
 30
0.0
 11
-131.667108
 21
95.631369
 31
0.0
  0
LINE
  5
FB
330
C7
100
AcDbEntity
  8
0
  6
Continuous
 62
     0
370
     0
100
AcDbLine
 10
-120.630937
 20
148.405484
 30
0.0
 11
-120.641089
 21
148.439658
 31
0.0
  0
LINE
  5
FC
330
C7
100
AcDbEntity
  8
0
  6
Continuous
 62
     0
370
     0
100
AcDbLine
 10
-120.641089
 20
148.439658
 30
0.0
 11
-120.773392
 21
148.883951
 31
0.0
  0
LINE
  5
FD
330
C7
100
AcDbEntity
  8
0
  6
Continuous
 62
     0
370
     0
100
AcDbLine
 10
-120.773392
 20
148.883951
 30
0.0
 11
-121.696522
 21
151.905346
 31
0.0
  0
LINE
  5
FE
330
C7
100
AcDbEntity
  8
0
  6
Continuous
 62
     0
370
     0
100
AcDbLine
 10
-121.696522
 20
151.905346
 30
0.0
 11
-123.092507
 21
152.031849
 31
0.0
  0
LINE
  5
FF
330
C7
100
AcDbEntity
  8
0
  6
Continuous
 62
     0
370
    30
100
AcDbLine
 10
-92.937954
 20
174.292668
 30
0.0
 11
-81.736797
 21
174.292668
 31
0.0
  0
ARC
  5
100
330
C7
100
AcDbEntity
  8
0
  6
Continuous
 62
     0
370
    30
100
AcDbCircle
 10
-81.236776
 20
181.692647
 30
0.0
 40
0.5000205010391565
100
AcDbArc
 50
90.002349
 51
179.997651
  0
LINE
  5
101
330
C7
100
AcDbEntity
  8
0
  6
Continuous
 62
     0
370
    30
100
AcDbLine
 10
-81.236797
 20
182.192668
 30
0.0
 11
-77.236797
 21
182.192668
 31
0.0
  0
ARC
  5
102
330
C7
100
AcDbEntity
  8
0
  6
Continuous
 62
     0
370
    30
100
AcDbCircle
 10
-77.236817
 20
181.692647
 30
0.0
 40
0.500020501038485
100
AcDbArc
 50
0.002349
 51
89.997651
  0
LINE
  5
103
330
C7
100
AcDbEntity
  8
0
  6
Continuous
 62
     0
370
    30
100
AcDbLine
 10
-92.937954
 20
130.092668
 30
0.0
 11
-92.937954
 21
174.292668
 31
0.0
  0
LINE
  5
104
330
C7
100
AcDbEntity
  8
0
  6
Continuous
 62
     0
370
    30
100
AcDbLine
 10
-81.736797
 20
122.692668
 30
0.0
 11
-81.736797
 21
181.692668
 31
0.0
  0
LINE
  5
105
330
C7
100
AcDbEntity
  8
0
  6
Continuous
 62
     0
370
     0
100
AcDbLine
 10
-81.236797
 20
122.192668
 30
0.0
 11
-81.236797
 21
182.192668
 31
0.0
  0
LINE
  5
106
330
C7
100
AcDbEntity
  8
0
  6
Continuous
 62
     0
370
     0
100
AcDbLine
 10
-77.236797
 20
122.192668
 30
0.0
 11
-77.236797
 21
182.192668
 31
0.0
  0
LINE
  5
107
330
C7
100
AcDbEntity
  8
0
  6
Continuous
 62
     0
370
    30
100
AcDbLine
 10
-76.736797
 20
122.692668
 30
0.0
 11
-76.736797
 21
181.692668
 31
0.0
  0
ARC
  5
108
330
C7
100
AcDbEntity
  8
0
  6
Continuous
 62
     0
370
    30
100
AcDbCircle
 10
-107.135257
 20
130.244275
 30
0.0
 40
0.25
100
AcDbArc
 50
271.5
 51
349.909546
  0
SPLINE
  5
109
330
C7
100
AcDbEntity
  8
0
  6
Continuous
 62
     0
370
    30
100
AcDbSpline
210
0.0
220
0.0
230
1.0
 70
     8
 71
     3
 72
    14
 73
    10
 74
     0
 42
0.000000001
 43
0.0
 40
0.0
 40
0.0
 40
0.0
 40
0.0
 40
3.401008889856664
 40
6.802570927594001
 40
10.20190553123124
 40
13.59799775804897
 40
16.99340414716547
 40
20.39028810464048
 40
23.78991121549566
 40
23.78991121549566
 40
23.78991121549566
 40
23.78991121549566
 10
-127.7842952342475
 20
114.9857361989662
 30
0.0
 10
-127.5668226303086
 20
116.0983513599325
 30
0.0
 10
-126.9530705736469
 20
118.2900245673208
 30
0.0
 10
-125.6457143248485
 20
121.4379677117917
 30
0.0
 10
-123.8827466014613
 20
124.3645333812485
 30
0.0
 10
-121.5501270943562
 20
126.8764556307322
 30
0.0
 10
-118.6620044943785
 20
128.7337948181306
 30
0.0
 10
-115.4141559378862
 20
129.8266576124887
 30
0.0
 10
-113.1528873465526
 20
130.1014734970486
 30
0.0
 10
-112.0212602749908
 20
130.161305513961
 30
0.0
  0
LINE
  5
10A
330
C7
100
AcDbEntity
  8
0
  6
Continuous
 62
     0
370
     0
100
AcDbLine
 10
-107.435501
 20
130.258669
 30
0.0
 11
-112.010998
 21
130.088288
 31
0.0
  0
SPLINE
  5
10B
330
C7
100
AcDbEntity
  8
0
  6
Continuous
 62
     0
370
     0
100
AcDbSpline
210
0.0
220
0.0
230
1.0
 70
     8
 71
     3
 72
    14
 73
    10
 74
     0
 42
0.000000001
 43
0.0
 40
0.0
 40
0.0
 40
0.0
 40
0.0
 40
4.314007735145603
 40
8.630569001405853
 40
12.9489303802004
 40
17.26830506602635
 40
21.5879308077578
 40
25.90692386251014
 40
30.2240322176519
 40
30.2240322176519
 40
30.2240322176519
 40
30.2240322176519
 10
-110.398602929561
 20
130.3311146043768
 30
0.0
 10
-110.5276183956357
 20
130.4859964361193
 30
0.0
 10
-111.0189044110041
 20
131.0767933622967
 30
0.0
 10
-112.2772259172561
 20
132.6950335949706
 30
0.0
 10
-113.8820356774053
 20
134.9212856771639
 30
0.0
 10
-115.6735028786824
 20
137.6563855562889
 30
0.0
 10
-117.5131769044334
 20
140.8339373989536
 30
0.0
 10
-119.2527258182926
 20
144.4100260675653
 30
0.0
 10
-120.2310551891532
 20
147.0438069223205
 30
0.0
 10
-120.6309368551108
 20
148.4054840068325
 30
0.0
  0
SPLINE
  5
10C
330
C7
100
AcDbEntity
  8
0
  6
Continuous
 62
     0
370
    30
100
AcDbSpline
210
0.0
220
0.0
230
1.0
 70
     8
 71
     3
 72
    27
 73
    23
 74
     0
 42
0.000000001
 43
0.0
 40
0.0
 40
0.0
 40
0.0
 40
0.0
 40
0.2139230752751237
 40
0.3070084267663173
 40
0.6184110025644949
 40
0.7730647880983061
 40
0.9275952811745504
 40
1.082005948818115
 40
1.236308742900774
 40
1.294485779438213
 40
1.41080720468163
 40
1.468954500226956
 40
1.527094938140011
 40
1.585230172614811
 40
1.614296833067246
 40
1.6433628349859
 40
1.657895715161413
 40
1.672428512817131
 40
1.67969489650404
 40
1.686961269859927
 40
1.694227636325789
 40
1.703051027813466
 40
1.703051027813466
 40
1.703051027813466
 40
1.703051027813466
 10
-107.4355014700092
 20
130.2586687128027
 30
0.0
 10
-107.3909045959265
 20
130.2546836592726
 30
0.0
 10
-107.3303894342356
 20
130.2490618475585
 30
0.0
 10
-107.219302376045
 20
130.2382760779648
 30
0.0
 10
-107.1319853671843
 20
130.229288180489
 30
0.0
 10
-107.0527377196969
 20
130.2207571969259
 30
0.0
 10
-107.0024327521323
 20
130.2151948953783
 30
0.0
 10
-106.9611640329111
 20
130.2105301454039
 30
0.0
 10
-106.9356644990814
 20
130.2075970796253
 30
0.0
 10
-106.9172722736993
 20
130.2054643440081
 30
0.0
 10
-106.9068539060788
 20
130.204247920912
 30
0.0
 10
-106.8990391031916
 20
130.2033315935133
 30
0.0
 10
-106.8944790332044
 20
130.2027959496969
 30
0.0
 10
-106.8917685025706
 20
130.202475821547
 30
0.0
 10
-106.890241755515
 20
130.2022978926108
 30
0.0
 10
-106.889580969369
 20
130.2022149344508
 30
0.0
 10
-106.8891646718345
 20
130.2021762168994
 30
0.0
 10
-106.8890875888752
 20
130.2021407136282
 30
0.0
 10
-106.8888026417593
 20
130.202161322987
 30
0.0
 10
-106.8893320965221
 20
130.2020581275153
 30
0.0
 10
-106.8869648495723
 20
130.2024452446031
 30
0.0
 10
-106.8937791570894
 20
130.2013023319794
 30
0.0
 10
-106.8937791569678
 20
130.2013023319794
 30
0.0
  0
ARC
  5
10D
330
C7
100
AcDbEntity
  8
0
  6
Continuous
 62
     0
370
    30
100
AcDbCircle
 10
-109.468987
 20
107.720276
 30
0.0
 40
22.6299408595811
100
AcDbArc
 50
84.844552
 51
92.354318
  0
ARC
  5
10E
330
C7
100
AcDbEntity
  8
0
  6
Continuous
 62
     0
370
    30
100
AcDbCircle
 10
-109.957483
 20
118.281654
 30
0.0
 40
12.05758280376726
100
AcDbArc
 50
92.099835
 51
99.85528
  0
LINE
  5
10F
330
C7
100
AcDbEntity
  8
0
  6
Continuous
 62
     0
370
    30
100
AcDbLine
 10
-112.010998
 20
130.088288
 30
0.0
 11
-112.02126
 21
130.161306
 31
0.0
  0
ARC
  5
110
330
C7
100
AcDbEntity
  8
0
  6
Continuous
 62
     0
370
    30
100
AcDbCircle
 10
-77.236817
 20
122.692688
 30
0.0
 40
0.5000205010936646
100
AcDbArc
 50
270.002349
 51
359.997651
  0
LINE
  5
111
330
C7
100
AcDbEntity
  8
0
  6
Continuous
 62
     0
370
    30
100
AcDbLine
 10
-81.236797
 20
122.192668
 30
0.0
 11
-77.236797
 21
122.192668
 31
0.0
  0
ARC
  5
112
330
C7
100
AcDbEntity
  8
0
  6
Continuous
 62
     0
370
    30
100
AcDbCircle
 10
-81.236776
 20
122.692688
 30
0.0
 40
0.5000205010234707
100
AcDbArc
 50
180.002349
 51
269.997651
  0
LINE
  5
113
330
C7
100
AcDbEntity
  8
0
  6
Continuous
 62
     0
370
    30
100
AcDbLine
 10
-92.937954
 20
130.092668
 30
0.0
 11
-81.736797
 21
130.092668
 31
0.0
  0
ARC
  5
114
330
C7
100
AcDbEntity
  8
0
  6
Continuous
 62
     0
370
    30
100
AcDbCircle
 10
-90.539448
 20
152.327315
 30
0.0
 40
20.53095441157664
100
AcDbArc
 50
254.688199
 51
263.291167
  0
ARC
  5
115
330
C7
100
AcDbEntity
  8
0
  6
Continuous
 62
     0
370
    30
100
AcDbCircle
 10
-90.547378
 20
152.094057
 30
0.0
 40
20.4942379185656
100
AcDbArc
 50
96.698588
 51
122.837023
  0
SPLINE
  5
116
330
C7
100
AcDbEntity
  8
0
  6
Continuous
 62
     0
370
    30
100
AcDbSpline
210
0.0
220
0.0
230
1.0
 70
     8
 71
     3
 72
    18
 73
    14
 74
     0
 42
0.000000001
 43
0.0
 40
0.0
 40
0.0
 40
0.0
 40
0.0
 40
0.8483284189299278
 40
2.133537333291418
 40
3.403948212906557
 40
5.81733165603556
 40
9.089981254108055
 40
10.78597267208125
 40
12.53241476653729
 40
15.23671714864858
 40
17.07314608597238
 40
18.37075703860188
 40
19.66471735520886
 40
19.66471735520886
 40
19.66471735520886
 40
19.66471735520886
 10
-126.6285330028052
 20
118.9847651791014
 30
0.0
 10
-126.5308781533038
 20
119.2430144237583
 30
0.0
 10
-126.2678982884545
 20
119.9072655096332
 30
0.0
 10
-125.8079343734387
 20
120.941710561982
 30
0.0
 10
-125.053541837378
 20
122.4178008226589
 30
0.0
 10
-123.8198574755902
 20
124.3861060407575
 30
0.0
 10
-122.1707363317029
 20
126.2325965449523
 30
0.0
 10
-120.4015151914922
 20
127.611419585257
 30
0.0
 10
-118.6350084908181
 20
128.6581749418235
 30
0.0
 10
-116.674865564104
 20
129.4235067092643
 30
0.0
 10
-114.7762332519756
 20
129.866693226969
 30
0.0
 10
-113.3134398943299
 20
130.0636294992735
 30
0.0
 10
-112.4525242743106
 20
130.1545381647772
 30
0.0
 10
-112.021258063447
 20
130.1613053718446
 30
0.0
  0
LINE
  5
117
330
C7
100
AcDbEntity
  8
0
  6
Continuous
 62
     0
370
    30
100
AcDbLine
 10
-127.782038
 20
114.99865
 30
0.0
 11
-127.831092
 21
114.745035
 31
0.0
  0
LINE
  5
118
330
C7
100
AcDbEntity
  8
0
  6
Continuous
 62
     0
370
    30
100
AcDbLine
 10
-134.415484
 20
80.655984
 30
0.0
 11
-134.19093
 21
81.651761
 31
0.0
  0
ARC
  5
119
330
C7
100
AcDbEntity
  8
0
  6
Continuous
 62
     0
370
    30
100
AcDbCircle
 10
-136.173842
 20
81.115413
 30
0.0
 40
1.551711482789649
100
AcDbArc
 50
178.524457
 51
259.574591
  0
ARC
  5
11A
330
C7
100
AcDbEntity
  8
0
  6
Continuous
 62
     0
370
    30
100
AcDbCircle
 10
-135.531611
 20
80.545472
 30
0.0
 40
1.063640336552282
100
AcDbArc
 50
325.604558
 51
347.823214
  0
LINE
  5
11B
330
C7
100
AcDbEntity
  8
0
  6
Continuous
 62
     0
370
    30
100
AcDbLine
 10
-134.415455
 20
80.656115
 30
0.0
 11
-134.19093
 21
81.651761
 31
0.0
  0
LINE
  5
11C
330
C7
100
AcDbEntity
  8
0
  6
Continuous
 62
     0
370
    30
100
AcDbLine
 10
-119.292757
 20
174.189546
 30
0.0
 11
-103.43509
 21
174.189546
 31
0.0
  0
ENDBLK
  5
11E
330
C7
100
AcDbEntity
  8
0
100
AcDbBlockEnd
  0
BLOCK
  5
16C
330
120
100
AcDbEntity
  8
0
100
AcDbBlockBegin
  2
c
 70
     0
 10
190.862366
 20
0.000015
 30
0.0
  3
c
  1

  0
LINE
  5
121
330
120
100
AcDbEntity
  8
0
  6
Continuous
 62
     0
370
    30
100
AcDbLine
 10
417.352912
 20
182.192668
 30
0.0
 11
417.352912
 21
145.862114
 31
0.0
  0
LINE
  5
122
330
120
100
AcDbEntity
  8
0
  6
Continuous
 62
     0
370
    30
100
AcDbLine
 10
417.352912
 20
145.862114
 30
0.0
 11
417.352912
 21
122.192668
 31
0.0
  0
LINE
  5
123
330
120
100
AcDbEntity
  8
0
  6
Continuous
 62
     0
370
    30
100
AcDbLine
 10
422.352912
 20
181.692668
 30
0.0
 11
422.352912
 21
145.967623
 31
0.0
  0
LINE
  5
124
330
120
100
AcDbEntity
  8
0
  6
Continuous
 62
     0
370
    30
100
AcDbLine
 10
422.352912
 20
145.967623
 30
0.0
 11
422.352912
 21
122.692668
 31
0.0
  0
LINE
  5
125
330
120
100
AcDbEntity
  8
0
  6
Continuous
 62
     0
370
     0
100
AcDbLine
 10
421.852912
 20
182.192668
 30
0.0
 11
421.852912
 21
145.862114
 31
0.0
  0
LINE
  5
126
330
120
100
AcDbEntity
  8
0
  6
Continuous
 62
     0
370
     0
100
AcDbLine
 10
421.852912
 20
145.862114
 30
0.0
 11
421.852912
 21
122.192668
 31
0.0
  0
LINE
  5
127
330
120
100
AcDbEntity
  8
0
  6
Continuous
 62
     0
370
    30
100
AcDbLine
 10
610.12444
 20
116.580388
 30
0.0
 11
611.035298
 21
115.05754
 31
0.0
  0
SPLINE
  5
128
330
120
100
AcDbEntity
  8
0
  6
Continuous
 62
     0
370
    30
100
AcDbSpline
210
0.0
220
0.0
230
1.0
 70
     8
 71
     3
 72
     8
 73
     4
 74
     0
 42
0.000000001
 43
0.0
 40
-0.0587217815354702
 40
-0.0587217815354702
 40
-0.0587217815354702
 40
-0.0587217815354702
 40
0.5033770751751501
 40
0.5033770751751501
 40
0.5033770751751501
 40
0.5033770751751501
 10
611.0352978521078
 20
115.0575403547406
 30
0.0
 10
610.1250916010638
 20
112.1712172672179
 30
0.0
 10
607.7523682544299
 20
109.588150267005
 30
0.0
 10
604.8663949171139
 20
107.876122923819
 30
0.0
  0
LINE
  5
129
330
120
100
AcDbEntity
  8
0
  6
Continuous
 62
     0
370
    30
100
AcDbLine
 10
610.12444
 20
116.580388
 30
0.0
 11
594.699258
 21
107.674655
 31
0.0
  0
LINE
  5
12A
330
120
100
AcDbEntity
  8
0
  6
Continuous
 62
     0
370
    30
100
AcDbLine
 10
611.035298
 20
115.05754
 30
0.0
 11
595.562654
 21
106.124405
 31
0.0
  0
LINE
  5
12B
330
120
100
AcDbEntity
  8
0
  6
Continuous
 62
     0
370
     0
100
AcDbLine
 10
553.299464
 20
165.192668
 30
0.0
 11
553.299464
 21
152.192668
 31
0.0
  0
LINE
  5
12C
330
120
100
AcDbEntity
  8
0
  6
Continuous
 62
     0
370
     0
100
AcDbLine
 10
553.299464
 20
152.192668
 30
0.0
 11
553.299464
 21
139.192668
 31
0.0
  0
LINE
  5
12D
330
120
100
AcDbEntity
  8
0
  6
Continuous
 62
     0
370
     0
100
AcDbLine
 10
581.012276
 20
123.192668
 30
0.0
 11
592.270607
 21
129.692668
 31
0.0
  0
LINE
  5
12E
330
120
100
AcDbEntity
  8
0
  6
Continuous
 62
     0
370
     0
100
AcDbLine
 10
592.270607
 20
129.692668
 30
0.0
 11
603.528937
 21
136.192668
 31
0.0
  0
SPLINE
  5
12F
330
120
100
AcDbEntity
  8
0
  6
Continuous
 62
     0
370
    30
100
AcDbSpline
210
0.0
220
0.0
230
1.0
 70
    12
 71
     2
 72
     6
 73
     3
 74
     0
 42
0.000000001
 43
0.0
 40
0.75
 40
0.75
 40
0.75
 40
1.0
 40
1.0
 40
1.0
 10
613.6112421588143
 20
118.7296031077728
 30
0.0
 41
1.0
 10
613.6112427270624
 20
118.7296031077728
 30
0.0
 41
0.7071067811865476
 10
602.3529124778647
 20
112.2296031077728
 30
0.0
 41
1.0
  0
LINE
  5
130
330
120
100
AcDbEntity
  8
0
  6
Continuous
 62
     0
370
    30
100
AcDbLine
 10
602.352912
 20
112.229603
 30
0.0
 11
591.094582
 21
105.729603
 31
0.0
  0
LINE
  5
131
330
120
100
AcDbEntity
  8
0
  6
Continuous
 62
     0
370
    30
100
AcDbLine
 10
610.164479
 20
116.739614
 30
0.0
 11
610.12444
 21
116.580388
 31
0.0
  0
LINE
  5
132
330
120
100
AcDbEntity
  8
0
  6
Continuous
 62
     0
370
    30
100
AcDbLine
 10
603.528937
 20
136.192668
 30
0.0
 11
613.611242
 21
118.729603
 31
0.0
  0
LINE
  5
133
330
120
100
AcDbEntity
  8
0
  6
Continuous
 62
     0
370
    30
100
AcDbLine
 10
581.012276
 20
123.192668
 30
0.0
 11
591.094582
 21
105.729603
 31
0.0
  0
ARC
  5
134
330
120
100
AcDbEntity
  8
0
  6
Continuous
 62
     0
370
    30
100
AcDbCircle
 10
553.299461
 20
107.192664
 30
0.0
 40
32.00000355771209
100
AcDbArc
 50
30.000004
 51
89.999996
  0
ARC
  5
135
330
120
100
AcDbEntity
  8
0
  6
Continuous
 62
     0
370
    30
100
AcDbCircle
 10
553.299463
 20
107.192667
 30
0.0
 40
58.000000940717
100
AcDbArc
 50
30.000001
 51
89.999999
  0
LINE
  5
136
330
120
100
AcDbEntity
  8
0
  6
Continuous
 62
     0
370
    30
100
AcDbLine
 10
553.299464
 20
139.192668
 30
0.0
 11
422.352912
 21
139.192668
 31
0.0
  0
LINE
  5
137
330
120
100
AcDbEntity
  8
0
  6
Continuous
 62
     0
370
    30
100
AcDbLine
 10
553.299464
 20
165.192668
 30
0.0
 11
422.352912
 21
165.192668
 31
0.0
  0
SPLINE
  5
138
330
120
100
AcDbEntity
  8
0
  6
Continuous
 62
     0
370
    30
100
AcDbSpline
210
0.0
220
0.0
230
1.0
 70
     8
 71
     3
 72
     8
 73
     4
 74
     0
 42
0.000000001
 43
0.0
 40
-0.0587217815354702
 40
-0.0587217815354702
 40
-0.0587217815354702
 40
-0.0587217815354702
 40
0.5033770751751501
 40
0.5033770751751501
 40
0.5033770751751501
 40
0.5033770751751501
 10
595.5626535464866
 20
106.1244048394809
 30
0.0
 10
598.5173857995122
 20
105.4695050777342
 30
0.0
 10
601.9407491028262
 20
106.2328103251765
 30
0.0
 10
604.866394917114
 20
107.8761229238189
 30
0.0
  0
LINE
  5
139
330
120
100
AcDbEntity
  8
0
  6
Continuous
 62
     0
370
    30
100
AcDbLine
 10
594.699258
 20
107.674655
 30
0.0
 11
595.562654
 21
106.124405
 31
0.0
  0
LINE
  5
13A
330
120
100
AcDbEntity
  8
0
  6
Continuous
 62
     0
370
    30
100
AcDbLine
 10
594.541345
 20
107.719592
 30
0.0
 11
594.699258
 21
107.674655
 31
0.0
  0
ARC
  5
13B
330
120
100
AcDbEntity
  8
0
  6
Continuous
 62
     0
370
    30
100
AcDbCircle
 10
421.852912
 20
122.692668
 30
0.0
 40
0.5
100
AcDbArc
 50
270.0
 51
360.0
  0
ARC
  5
13C
330
120
100
AcDbEntity
  8
0
  6
Continuous
 62
     0
370
    30
100
AcDbCircle
 10
421.852912
 20
181.692668
 30
0.0
 40
0.5000000000000036
100
AcDbArc
 50
0.0
 51
90.0
  0
LINE
  5
13D
330
120
100
AcDbEntity
  8
0
  6
Continuous
 62
     0
370
    30
100
AcDbLine
 10
421.852912
 20
122.192668
 30
0.0
 11
417.352912
 21
122.192668
 31
0.0
  0
LINE
  5
13E
330
120
100
AcDbEntity
  8
0
  6
Continuous
 62
     0
370
    30
100
AcDbLine
 10
421.852912
 20
182.192668
 30
0.0
 11
417.352912
 21
182.192668
 31
0.0
  0
SPLINE
  5
13F
330
120
100
AcDbEntity
  8
0
  6
Continuous
 62
     0
370
    30
100
AcDbSpline
210
0.0
220
0.0
230
1.0
 70
     8
 71
     3
 72
    63
 73
    59
 74
     0
 42
0.000000001
 43
0.0
 40
-14.49621089134451
 40
-14.49621089134451
 40
-14.49621089134451
 40
-14.49621089134451
 40
-14.3667804369575
 40
-14.2373499825705
 40
-14.10791952818349
 40
-13.97848907379649
 40
-13.84905861940948
 40
-13.71962816502248
 40
-13.59019771063547
 40
-13.46076725624847
 40
-13.33133680186147
 40
-13.20190634747446
 40
-13.07247589308746
 40
-12.94304543870045
 40
-12.81361498431345
 40
-12.68418452992644
 40
-12.55475407553944
 40
-12.42532362115243
 40
-12.29589316676543
 40
-12.16646271237842
 40
-12.03703225799142
 40
-11.90760180360441
 40
-11.77817134921741
 40
-11.64874089483041
 40
-11.5193104404434
 40
-11.3898799860564
 40
-11.26044953166939
 40
-11.13101907728239
 40
-11.00158862289538
 40
-10.87215816850838
 40
-10.74272771412138
 40
-10.61329725973437
 40
-10.48386680534736
 40
-10.35443635096036
 40
-10.22500589657336
 40
-10.09557544218635
 40
-9.966144987799346
 40
-9.836714533412344
 40
-9.707284079025339
 40
-9.577853624638333
 40
-9.448423170251328
 40
-9.318992715864326
 40
-9.18956226147732
 40
-9.060131807090317
 40
-8.930701352703313
 40
-8.801270898316307
 40
-8.671840443929302
 40
-8.542409989542298
 40
-8.412979535155294
 40
-8.283549080768289
 40
-8.154118626381283
 40
-8.024688171994281
 40
-7.895257717607276
 40
-7.765827263220271
 40
-7.636396808833267
 40
-7.506966354446262
 40
-7.377535900059257
 40
-7.248105445672253
 40
-7.248105445672253
 40
-7.248105445672253
 40
-7.248105445672253
 10
452.3762775576713
 20
129.8731672621817
 30
0.0
 10
452.3762775596844
 20
129.8731672620077
 30
0.0
 10
452.3738492989231
 20
129.8732308480071
 30
0.0
 10
452.3629335737295
 20
129.8735166859503
 30
0.0
 10
452.3447788593941
 20
129.8739920834859
 30
0.0
 10
452.3194422773646
 20
129.8746555448373
 30
0.0
 10
452.2870035459018
 20
129.8755049825097
 30
0.0
 10
452.2475647292564
 20
129.8765377238579
 30
0.0
 10
452.2012499165361
 20
129.8777505194955
 30
0.0
 10
452.1482048312765
 20
129.8791395535187
 30
0.0
 10
452.088596372941
 20
129.8807004555126
 30
0.0
 10
452.0226120917922
 20
129.8824283143021
 30
0.0
 10
451.9504595987905
 20
129.8843176934042
 30
0.0
 10
451.872365912373
 20
129.8863626481331
 30
0.0
 10
451.7885767441686
 20
129.8885567443049
 30
0.0
 10
451.6993557258997
 20
129.8908930784812
 30
0.0
 10
451.6049835798985
 20
129.8933642996902
 30
0.0
 10
451.5057572358505
 20
129.8959626325558
 30
0.0
 10
451.4019888965444
 20
129.8986799017616
 30
0.0
 10
451.294005055566
 20
129.9015075577733
 30
0.0
 10
451.1821454700295
 20
129.904436703739
 30
0.0
 10
451.0667620915748
 20
129.9074581234817
 30
0.0
 10
450.9482179589984
 20
129.9105623104972
 30
0.0
 10
450.8268860559986
 20
129.9137394978647
 30
0.0
 10
450.7031481376304
 20
129.9169796889772
 30
0.0
 10
450.5773935291637
 20
129.9202726889948
 30
0.0
 10
450.4500179011218
 20
129.9236081369211
 30
0.0
 10
450.3214220243545
 20
129.9269755382029
 30
0.0
 10
450.1920105090663
 20
129.93036429775
 30
0.0
 10
450.0621905317619
 20
129.9337637532712
 30
0.0
 10
449.9323705541185
 20
129.9371632088217
 30
0.0
 10
449.8029590378148
 20
129.9405519684566
 30
0.0
 10
449.6743631593586
 20
129.9439193698844
 30
0.0
 10
449.5469875289592
 20
129.9472548180145
 30
0.0
 10
449.4212329174746
 20
129.9505478182929
 30
0.0
 10
449.2974949954371
 20
129.9537880097225
 30
0.0
 10
449.1761630881283
 20
129.9569651974624
 30
0.0
 10
449.0576189506168
 20
129.9600693849045
 30
0.0
 10
448.9422355666162
 20
129.9630908051266
 30
0.0
 10
448.8303759749407
 20
129.9660199516228
 30
0.0
 10
448.7223921272495
 20
129.9688476082147
 30
0.0
 10
448.6186237806778
 20
129.9715648780485
 30
0.0
 10
448.5193974288343
 20
129.9741632115879
 30
0.0
 10
448.4250252745321
 20
129.9766344335144
 30
0.0
 10
448.3358042474831
 20
129.9789707684495
 30
0.0
 10
448.2520150700472
 20
129.9811648654191
 30
0.0
 10
448.1739213739752
 20
129.9832098209826
 30
0.0
 10
448.101768870927
 20
129.985099200953
 30
0.0
 10
448.0357845793711
 20
129.9868270606419
 30
0.0
 10
447.9761761103006
 20
129.9883879635637
 30
0.0
 10
447.9231310140121
 20
129.9897769985402
 30
0.0
 10
447.8768161900033
 20
129.9909897951534
 30
0.0
 10
447.8373773618455
 20
129.9920225374966
 30
0.0
 10
447.8049386186831
 20
129.9928719761802
 30
0.0
 10
447.7796020248029
 20
129.9935354385559
 30
0.0
 10
447.7614472985032
 20
129.9940108371255
 30
0.0
 10
447.7505315612696
 20
129.9942966761094
 30
0.0
 10
447.7481032924562
 20
129.9943602628047
 30
0.0
 10
447.7481032904432
 20
129.9943602629787
 30
0.0
  0
ARC
  5
140
330
120
100
AcDbEntity
  8
0
  6
Continuous
 62
     0
370
    30
100
AcDbCircle
 10
452.382822
 20
130.123082
 30
0.0
 40
0.25
100
AcDbArc
 50
268.5
 51
352.0
  0
LINE
  5
141
330
120
100
AcDbEntity
  8
0
  6
Continuous
 62
     0
370
    30
100
AcDbLine
 10
436.580483
 20
130.202131
 30
0.0
 11
447.517825
 21
130.202131
 31
0.0
  0
LINE
  5
142
330
120
100
AcDbEntity
  8
0
  6
Continuous
 62
     0
370
     0
100
AcDbLine
 10
459.912148
 20
174.189546
 30
0.0
 11
461.454355
 21
165.192668
 31
0.0
  0
LINE
  5
143
330
120
100
AcDbEntity
  8
0
  6
Continuous
 62
     0
370
     0
100
AcDbLine
 10
467.639748
 20
139.192668
 30
0.0
 11
475.548509
 21
96.314005
 31
0.0
  0
LINE
  5
144
330
120
100
AcDbEntity
  8
0
  6
Continuous
 62
     0
370
     0
100
AcDbLine
 10
475.548509
 20
96.314005
 30
0.0
 11
478.344429
 21
81.155363
 31
0.0
  0
SPLINE
  5
145
330
120
100
AcDbEntity
  8
0
  6
Continuous
 62
     0
370
    30
100
AcDbSpline
210
0.0
220
0.0
230
1.0
 70
     8
 71
     3
 72
    11
 73
     7
 74
     0
 42
0.000000001
 43
0.0
 40
85.2097646097776
 40
85.2097646097776
 40
85.2097646097776
 40
85.2097646097776
 40
87.70151606666711
 40
90.61036732582744
 40
92.06431495852438
 40
93.51784755801623
 40
93.51784755801623
 40
93.51784755801623
 40
93.51784755801623
 10
463.8246090525899
 20
165.1926679611206
 30
0.0
 10
463.6029439097145
 20
165.993041495082
 30
0.0
 10
463.1069552571392
 20
167.7230420325288
 30
0.0
 10
462.4349795178609
 20
169.9051644346139
 30
0.0
 10
461.8409323242136
 20
171.7486635827452
 30
0.0
 10
461.5371182805447
 20
172.667748823001
 30
0.0
 10
461.3852328374194
 20
173.1272258073001
 30
0.0
  0
SPLINE
  5
146
330
120
100
AcDbEntity
  8
0
  6
Continuous
 62
     0
370
    30
100
AcDbSpline
210
0.0
220
0.0
230
1.0
 70
     8
 71
     3
 72
    24
 73
    20
 74
     0
 42
0.000000001
 43
0.0
 40
0.0000895826433412
 40
0.0000895826433412
 40
0.0000895826433412
 40
0.0000895826433412
 40
1.455705552509048
 40
2.911589491459075
 40
5.824081540223966
 40
8.7385626186377
 40
11.65580985318472
 40
14.57578990660517
 40
16.0365960848436
 40
17.49778930286209
 40
20.42097080379455
 40
23.34485787360984
 40
29.19406413397097
 40
35.04490031175023
 40
40.89750583142025
 40
46.75217532136676
 40
52.60924050520428
 40
58.46889873474503
 40
58.60743527936609
 40
58.60743527936609
 40
58.60743527936609
 40
58.60743527936609
 10
478.3444285179806
 20
81.15536263638754
 30
0.0
 10
478.3314331195693
 20
81.64035004555426
 30
0.0
 10
478.3054394978726
 20
82.61041413942004
 30
0.0
 10
478.2253231948879
 20
84.55039312083392
 30
0.0
 10
478.0619270339964
 20
86.97376348056574
 30
0.0
 10
477.7547719962985
 20
89.87537660785001
 30
0.0
 10
477.3571807050803
 20
92.77050904470372
 30
0.0
 10
476.9745805687269
 20
95.1785781262222
 30
0.0
 10
476.6512555266545
 20
97.10379179894645
 30
0.0
 10
476.3256119523498
 20
99.03007244159346
 30
0.0
 10
475.9281966275366
 20
101.441001256688
 30
0.0
 10
475.2936055496376
 20
105.2999853357666
 30
0.0
 10
474.5141704297481
 20
110.1265805791955
 30
0.0
 10
473.5795175955948
 20
115.9178283946671
 30
0.0
 10
472.6356499727436
 20
121.7080616295879
 30
0.0
 10
471.6692226653528
 20
127.4959917824243
 30
0.0
 10
470.6669972531804
 20
133.2802119396095
 30
0.0
 10
469.958707537651
 20
137.177417349236
 30
0.0
 10
469.5896468730185
 20
139.1471748085086
 30
0.0
 10
469.581117181869
 20
139.1926679611206
 30
0.0
  0
LINE
  5
147
330
120
100
AcDbEntity
  8
0
  6
Continuous
 62
     0
370
     0
100
AcDbLine
 10
461.385233
 20
173.127226
 30
0.0
 11
462.847152
 21
165.192668
 31
0.0
  0
SPLINE
  5
148
330
120
100
AcDbEntity
  8
0
  6
Continuous
 62
     0
370
     0
100
AcDbSpline
210
0.0
220
0.0
230
1.0
 70
     8
 71
     7
 72
    31
 73
    23
 74
     0
 42
0.000000001
 43
0.0
 40
-0.0000000000000264
 40
-0.0000000000000264
 40
-0.0000000000000264
 40
-0.0000000000000264
 40
-0.0000000000000264
 40
-0.0000000000000264
 40
-0.0000000000000264
 40
-0.0000000000000264
 40
0.3899999999999839
 40
0.3899999999999839
 40
0.3899999999999839
 40
0.3899999999999839
 40
0.3899999999999839
 40
0.6436379999999904
 40
0.6436379999999904
 40
0.6436379999999904
 40
0.6436379999999904
 40
0.6436379999999904
 40
0.7742999999999939
 40
0.7742999999999939
 40
0.7742999999999939
 40
0.7742999999999939
 40
0.7742999999999939
 40
1.0
 40
1.0
 40
1.0
 40
1.0
 40
1.0
 40
1.0
 40
1.0
 40
1.0
 10
468.3910175562178
 20
126.6645029724899
 30
0.0
 10
468.2708922659883
 20
126.6423484838206
 30
0.0
 10
468.150557873049
 20
126.6213410373348
 30
0.0
 10
468.0316342061933
 20
126.6007307128681
 30
0.0
 10
467.9110361697709
 20
126.5793538117186
 30
0.0
 10
467.7934546574991
 20
126.5577419119614
 30
0.0
 10
467.6009354856134
 20
126.5206246240574
 30
0.0
 10
467.4101031656521
 20
126.4811179915544
 30
0.0
 10
467.3348549995588
 20
126.4650667386761
 30
0.0
 10
467.2609964177349
 20
126.4492592577912
 30
0.0
 10
467.1876378022304
 20
126.4331089395169
 30
0.0
 10
467.0780959914422
 20
126.4098404846011
 30
0.0
 10
466.9820211373699
 20
126.3942953109634
 30
0.0
 10
466.9515868674196
 20
126.3902612707649
 30
0.0
 10
466.9239227383434
 20
126.3877363995545
 30
0.0
 10
466.9006284790904
 20
126.3874153079984
 30
0.0
 10
466.8473634581666
 20
126.3912916707334
 30
0.0
 10
466.8186375743416
 20
126.4063080223052
 30
0.0
 10
466.8076908393333
 20
126.4188562319014
 30
0.0
 10
466.7992431334965
 20
126.4325067415061
 30
0.0
 10
466.7934643764752
 20
126.4472896386714
 30
0.0
 10
466.788591417251
 20
126.4625182041918
 30
0.0
 10
466.783660641672
 20
126.4777362274598
 30
0.0
  0
LINE
  5
149
330
120
100
AcDbEntity
  8
0
  6
Continuous
 62
     0
370
     0
100
AcDbLine
 10
466.783661
 20
126.477736
 30
0.0
 11
464.54538
 21
139.192668
 31
0.0
  0
LINE
  5
14A
330
120
100
AcDbEntity
  8
0
  6
Continuous
 62
     0
370
     0
100
AcDbLine
 10
466.080142
 20
139.192668
 30
0.0
 11
468.391018
 21
126.664503
 31
0.0
  0
LINE
  5
14B
330
120
100
AcDbEntity
  8
0
  6
Continuous
 62
     0
370
     0
100
AcDbLine
 10
468.391018
 20
126.664503
 30
0.0
 11
474.067484
 21
95.890087
 31
0.0
  0
SPLINE
  5
14C
330
120
100
AcDbEntity
  8
0
  6
Continuous
 62
     0
370
     0
100
AcDbSpline
210
0.0
220
0.0
230
1.0
 70
     8
 71
     7
 72
    26
 73
    18
 74
     0
 42
0.000000001
 43
0.0
 40
0.0
 40
0.0
 40
0.0
 40
0.0
 40
0.0
 40
0.0
 40
0.0
 40
0.0
 40
0.4874999999999879
 40
0.4874999999999879
 40
0.4874999999999879
 40
0.4874999999999879
 40
0.4874999999999879
 40
0.7499999999999812
 40
0.7499999999999812
 40
0.7499999999999812
 40
0.7499999999999812
 40
0.7499999999999812
 40
0.9999999999999749
 40
0.9999999999999749
 40
0.9999999999999749
 40
0.9999999999999749
 40
0.9999999999999749
 40
0.9999999999999749
 40
0.9999999999999749
 40
0.9999999999999749
 10
474.0674838781596
 20
95.8900870569575
 30
0.0
 10
473.9073651887721
 20
95.8605544983392
 30
0.0
 10
473.7472645388279
 20
95.83092412510592
 30
0.0
 10
473.5873759547168
 20
95.80129499691986
 30
0.0
 10
473.4279335871439
 20
95.7718072240985
 30
0.0
 10
473.2696854034331
 20
95.74275168264012
 30
0.0
 10
473.0291467968715
 20
95.69930713853613
 30
0.0
 10
472.8026495283932
 20
95.66105486249627
 30
0.0
 10
472.7257283615468
 20
95.64851887213854
 30
0.0
 10
472.6520806534089
 20
95.63712895806572
 30
0.0
 10
472.5830266501754
 20
95.62730762790117
 30
0.0
 10
472.4615638639382
 20
95.61238357983665
 30
0.0
 10
472.3720597864756
 20
95.6071194541379
 30
0.0
 10
472.3373322390013
 20
95.60715944804201
 30
0.0
 10
472.312472654986
 20
95.60995446981286
 30
0.0
 10
472.2964562500648
 20
95.61513488267894
 30
0.0
 10
472.2881610975094
 20
95.6223746417166
 30
0.0
 10
472.2864984564118
 20
95.63136882229873
 30
0.0
  0
LINE
  5
14D
330
120
100
AcDbEntity
  8
0
  6
Continuous
 62
     0
370
     0
100
AcDbLine
 10
472.286498
 20
95.631369
 30
0.0
 11
466.783661
 21
126.477736
 31
0.0
  0
SPLINE
  5
14E
330
120
100
AcDbEntity
  8
0
  6
Continuous
 62
     0
370
    30
100
AcDbSpline
210
0.0
220
0.0
230
1.0
 70
     8
 71
     3
 72
     8
 73
     4
 74
     0
 42
0.000000001
 43
0.0
 40
0.0
 40
0.0
 40
0.0
 40
0.0
 40
0.794348961576643
 40
0.794348961576643
 40
0.794348961576643
 40
0.794348961576643
 10
477.0740217844581
 20
79.58932644428788
 30
0.0
 10
476.1610019265286
 20
79.42092756418941
 30
0.0
 10
475.5619559033149
 20
79.53674385562279
 30
0.0
 10
475.2733297559412
 20
79.94461984450106
 30
0.0
  0
ARC
  5
14F
330
120
100
AcDbEntity
  8
0
  6
Continuous
 62
     0
370
    30
100
AcDbCircle
 10
459.912148
 20
172.637046
 30
0.0
 40
1.552499994675981
100
AcDbArc
 50
18.405254
 51
90.0
  0
SPLINE
  5
150
330
120
100
AcDbEntity
  8
0
  6
Continuous
 62
     0
370
    30
100
AcDbSpline
210
0.0
220
0.0
230
1.0
 70
     8
 71
     3
 72
     8
 73
     4
 74
     0
 42
0.000000001
 43
0.0
 40
0.245207722952132
 40
0.245207722952132
 40
0.245207722952132
 40
0.245207722952132
 40
34.96414112472205
 40
34.96414112472205
 40
34.96414112472205
 40
34.96414112472205
 10
468.4509495331973
 20
114.7451254950634
 30
0.0
 10
470.6564077716527
 20
103.3841522299964
 30
0.0
 10
472.4732424899451
 20
91.9416436359143
 30
0.0
 10
475.0349412941164
 20
80.6559990623825
 30
0.0
  0
LINE
  5
151
330
120
100
AcDbEntity
  8
0
  6
Continuous
 62
     0
370
    30
100
AcDbLine
 10
436.580483
 20
130.202131
 30
0.0
 11
436.580484
 21
139.192668
 31
0.0
  0
SPLINE
  5
152
330
120
100
AcDbEntity
  8
0
  6
Continuous
 62
     0
370
     0
100
AcDbSpline
210
0.0
220
0.0
230
1.0
 70
     8
 71
     3
 72
    16
 73
    12
 74
     0
 42
0.000000001
 43
0.0
 40
0.0
 40
0.0
 40
0.0
 40
0.0
 40
0.7974410575744677
 40
1.595041030504307
 40
3.190093146509994
 40
6.378895936046185
 40
9.567728770520663
 40
12.75632614595555
 40
15.94462681573973
 40
19.1315294882015
 40
22.31725034989164
 40
22.31725034989164
 40
22.31725034989164
 40
22.31725034989164
 10
466.7835359499819
 20
126.4777136105176
 30
0.0
 10
466.8213932095882
 20
126.2476427903625
 30
0.0
 10
466.8887844107197
 20
125.8182869549102
 30
0.0
 10
467.0247395869497
 20
124.9485929271912
 30
0.0
 10
467.24556107731
 20
123.4920933195855
 30
0.0
 10
467.5280091480411
 20
121.5508988030811
 30
0.0
 10
467.8136690767218
 20
119.484364940229
 30
0.0
 10
468.0485493297904
 20
117.7133914059066
 30
0.0
 10
468.231447104269
 20
116.294930321964
 30
0.0
 10
468.3561864094961
 20
115.311669499089
 30
0.0
 10
468.3951840498655
 20
115.0249136949887
 30
0.0
 10
468.4041618310149
 20
114.9858289904413
 30
0.0
  0
LINE
  5
153
330
120
100
AcDbEntity
  8
0
  6
Continuous
 62
     0
370
    30
100
AcDbLine
 10
444.053335
 20
174.186237
 30
0.0
 11
440.77993
 21
165.192668
 31
0.0
  0
LINE
  5
154
330
120
100
AcDbEntity
  8
0
  6
Continuous
 62
     0
370
     0
100
AcDbLine
 10
474.067484
 20
95.890087
 30
0.0
 11
477.074022
 21
79.589326
 31
0.0
  0
LINE
  5
155
330
120
100
AcDbEntity
  8
0
  6
Continuous
 62
     0
370
    30
100
AcDbLine
 10
475.111517
 20
80.32027
 30
0.0
 11
472.286498
 21
95.631369
 31
0.0
  0
SPLINE
  5
156
330
120
100
AcDbEntity
  8
0
  6
Continuous
 62
     0
370
     0
100
AcDbSpline
210
0.0
220
0.0
230
1.0
 70
     8
 71
     3
 72
    11
 73
     7
 74
     0
 42
0.000000001
 43
0.0
 40
0.0
 40
0.0
 40
0.0
 40
0.0
 40
0.5463209427519092
 40
1.092641883762446
 40
1.638962823031614
 40
2.183354679579053
 40
2.183354679579053
 40
2.183354679579053
 40
2.183354679579053
 10
474.0674838781596
 20
95.89008705695753
 30
0.0
 10
474.2465701757077
 20
95.92311803315384
 30
0.0
 10
474.6065862279141
 20
95.99704840734603
 30
0.0
 10
475.0734174009
 20
96.115664530226
 30
0.0
 10
475.4119211427244
 20
96.22764697322529
 30
0.0
 10
475.5243005181001
 20
96.28890691436764
 30
0.0
 10
475.5485432750328
 20
96.31401110426239
 30
0.0
  0
LINE
  5
157
330
120
100
AcDbEntity
  8
0
  6
Continuous
 62
     0
370
    30
100
AcDbLine
 10
433.557344
 20
174.292668
 30
0.0
 11
422.356187
 21
174.292668
 31
0.0
  0
LINE
  5
158
330
120
100
AcDbEntity
  8
0
  6
Continuous
 62
     0
370
    30
100
AcDbLine
 10
433.557344
 20
139.192668
 30
0.0
 11
433.557344
 21
130.092668
 31
0.0
  0
LINE
  5
159
330
120
100
AcDbEntity
  8
0
  6
Continuous
 62
     0
370
    30
100
AcDbLine
 10
433.557344
 20
174.292668
 30
0.0
 11
433.557344
 21
165.192668
 31
0.0
  0
ARC
  5
15A
330
120
100
AcDbEntity
  8
0
  6
Continuous
 62
     0
370
    30
100
AcDbCircle
 10
447.754648
 20
130.244275
 30
0.0
 40
0.25
100
AcDbArc
 50
190.090454
 51
268.5
  0
ARC
  5
15B
330
120
100
AcDbEntity
  8
0
  6
Continuous
 62
     0
370
    30
100
AcDbCircle
 10
443.880212
 20
110.066904
 30
0.0
 40
25.01191098821619
100
AcDbArc
 50
11.34169
 51
20.888441
  0
SPLINE
  5
15C
330
120
100
AcDbEntity
  8
0
  6
Continuous
 62
     0
370
     0
100
AcDbSpline
210
0.0
220
0.0
230
1.0
 70
     8
 71
     3
 72
    52
 73
    48
 74
     0
 42
0.000000001
 43
0.0
 40
-16.06223401168096
 40
-16.06223401168096
 40
-16.06223401168096
 40
-16.06223401168096
 40
-15.91882120800524
 40
-15.77540840432951
 40
-15.63199560065379
 40
-15.48858279697806
 40
-15.34516999330234
 40
-15.20175718962662
 40
-15.0583443859509
 40
-14.91493158227517
 40
-14.77151877859945
 40
-14.62810597492373
 40
-14.484693171248
 40
-14.34128036757228
 40
-14.19786756389656
 40
-14.05445476022084
 40
-13.91104195654511
 40
-13.76762915286939
 40
-13.62421634919367
 40
-13.48080354551795
 40
-13.33739074184222
 40
-13.1939779381665
 40
-13.05056513449078
 40
-12.90715233081506
 40
-12.76373952713933
 40
-12.62032672346361
 40
-12.47691391978789
 40
-12.33350111611216
 40
-12.19008831243644
 40
-12.04667550876072
 40
-11.903262705085
 40
-11.75984990140927
 40
-11.61643709773355
 40
-11.47302429405783
 40
-11.3296114903821
 40
-11.18619868670638
 40
-11.04278588303066
 40
-10.89937307935493
 40
-10.75596027567921
 40
-10.61254747200349
 40
-10.46913466832777
 40
-10.32572186465204
 40
-10.18230906097632
 40
-10.0388962573006
 40
-9.895483453624877
 40
-9.752070649949154
 40
-9.73429361622592
 40
-9.73429361622592
 40
-9.73429361622592
 40
-9.73429361622592
 10
452.6303888115818
 20
130.0882883186011
 30
0.0
 10
452.6303888138139
 20
130.0882883184082
 30
0.0
 10
452.6277007714526
 20
130.0883884143537
 30
0.0
 10
452.6156172538003
 20
130.0888383748573
 30
0.0
 10
452.5955203012545
 20
130.0895867362041
 30
0.0
 10
452.5674731462628
 20
130.0906311437725
 30
0.0
 10
452.5315640355514
 20
130.0919683114699
 30
0.0
 10
452.4879059524678
 20
130.0935940320719
 30
0.0
 10
452.436636261493
 20
130.0955031904601
 30
0.0
 10
452.3779162760433
 20
130.0976897797159
 30
0.0
 10
452.3119307509165
 20
130.1001469200205
 30
0.0
 10
452.2388873009876
 20
130.1028668803015
 30
0.0
 10
452.1590157479733
 20
130.1058411025576
 30
0.0
 10
452.0725673973288
 20
130.1090602287851
 30
0.0
 10
451.9798142475483
 20
130.112514130422
 30
0.0
 10
451.8810481343564
 20
130.116191940216
 30
0.0
 10
451.7765798124851
 20
130.1200820864167
 30
0.0
 10
451.6667379779245
 20
130.124172329185
 30
0.0
 10
451.5518682337236
 20
130.1284497991039
 30
0.0
 10
451.4323320025956
 20
130.1329010376705
 30
0.0
 10
451.3085053897476
 20
130.1375120396415
 30
0.0
 10
451.1807779995149
 20
130.1422682970988
 30
0.0
 10
451.0495517095221
 20
130.1471548450968
 30
0.0
 10
450.9152394062264
 20
130.1521563087476
 30
0.0
 10
450.7782636858249
 20
130.1572569515963
 30
0.0
 10
450.6390555246099
 20
130.1624407251333
 30
0.0
 10
450.4980529229588
 20
130.1676913192893
 30
0.0
 10
450.3556995272221
 20
130.1729922137526
 30
0.0
 10
450.2124432338487
 20
130.178326729948
 30
0.0
 10
450.0687347801372
 20
130.1836780835139
 30
0.0
 10
449.9250263260499
 20
130.1890294371125
 30
0.0
 10
449.7817700315506
 20
130.1943639534052
 30
0.0
 10
449.6394166339414
 20
130.1996648480303
 30
0.0
 10
449.4984140296767
 20
130.2049154424122
 30
0.0
 10
449.3592058651157
 20
130.2100992162384
 30
0.0
 10
449.2222301406458
 20
130.2151998594386
 30
0.0
 10
449.0879178325729
 20
130.2202013235024
 30
0.0
 10
448.9566915371086
 20
130.2250878719732
 30
0.0
 10
448.8289641407274
 20
130.229844129962
 30
0.0
 10
448.7051375210731
 20
130.2344551325213
 30
0.0
 10
448.5856012825025
 20
130.2389063717312
 30
0.0
 10
448.4707315302463
 20
130.2431838423463
 30
0.0
 10
448.3608896870427
 20
130.2472740858616
 30
0.0
 10
448.2564213559681
 20
130.2511642328577
 30
0.0
 10
448.1576552330417
 20
130.2548420434931
 30
0.0
 10
448.0919873224493
 20
130.2572873570753
 30
0.0
 10
448.0585645857208
 20
130.2585319386637
 30
0.0
 10
448.0548947473979
 20
130.2586685945351
 30
0.0
  0
ARC
  5
15D
330
120
100
AcDbEntity
  8
0
  6
Continuous
 62
     0
370
     0
100
AcDbCircle
 10
400.565079
 20
171.932423
 30
0.0
 40
65.39239594382862
100
AcDbArc
 50
320.492471
 51
329.955922
  0
SPLINE
  5
15E
330
120
100
AcDbEntity
  8
0
  6
Continuous
 62
     0
370
    30
100
AcDbSpline
210
0.0
220
0.0
230
1.0
 70
     8
 71
     3
 72
    25
 73
    21
 74
     0
 42
0.000000001
 43
0.0
 40
0.0
 40
0.0
 40
0.0
 40
0.0
 40
0.0088485965055557
 40
0.016113685617262
 40
0.0233787816306194
 40
0.0451741311745553
 40
0.0597044570357042
 40
0.0887653504234928
 40
0.1178269011211985
 40
0.2340821321960602
 40
0.2922192033651464
 40
0.3503647153485683
 40
0.4666869690711065
 40
0.6209996164413714
 40
0.6981954610441181
 40
0.852674928896622
 40
1.009755909860094
 40
1.29846167704308
 40
1.396036435546207
 40
1.703047509472162
 40
1.703047509472162
 40
1.703047509472162
 40
1.703047509472162
 10
447.513169591021
 20
130.2013023319794
 30
0.0
 10
447.5110422201507
 20
130.2016591448418
 30
0.0
 10
447.5071681837005
 20
130.2023089168464
 30
0.0
 10
447.5085149680231
 20
130.2020929859406
 30
0.0
 10
447.508120249538
 20
130.2021832460793
 30
0.0
 10
447.5085843431837
 20
130.2021578990986
 30
0.0
 10
447.5089331413265
 20
130.2022214999233
 30
0.0
 10
447.5096456798424
 20
130.2022958163384
 30
0.0
 10
447.5119066823665
 20
130.2025675593973
 30
0.0
 10
447.5164780691634
 20
130.203102230618
 30
0.0
 10
447.5242880850657
 20
130.2040185760956
 30
0.0
 10
447.5338371972581
 20
130.2051345306554
 30
0.0
 10
447.5510054642923
 20
130.2071311634868
 30
0.0
 10
447.5751787619203
 20
130.2099117028516
 30
0.0
 10
447.6076719569214
 20
130.2135977453755
 30
0.0
 10
447.646088640577
 20
130.2178949973805
 30
0.0
 10
447.7170937939653
 20
130.2256449156403
 30
0.0
 10
447.7962906337224
 20
130.2339518236764
 30
0.0
 10
447.9131651788166
 20
130.2455990329805
 30
0.0
 10
447.9909126414119
 20
130.2529513449212
 30
0.0
 10
448.054894747398
 20
130.2586685945351
 30
0.0
  0
ARC
  5
15F
330
120
100
AcDbEntity
  8
0
  6
Continuous
 62
     0
370
    30
100
AcDbCircle
 10
450.088377
 20
107.720218
 30
0.0
 40
22.62999742993902
100
AcDbArc
 50
87.645689
 51
95.155428
  0
ARC
  5
160
330
120
100
AcDbEntity
  8
0
  6
Continuous
 62
     0
370
    30
100
AcDbCircle
 10
450.576866
 20
118.281543
 30
0.0
 40
12.05769369915252
100
AcDbArc
 50
80.144776
 51
87.900152
  0
LINE
  5
161
330
120
100
AcDbEntity
  8
0
  6
Continuous
 62
     0
370
    30
100
AcDbLine
 10
452.630389
 20
130.088288
 30
0.0
 11
452.640651
 21
130.161306
 31
0.0
  0
LINE
  5
162
330
120
100
AcDbEntity
  8
0
  6
Continuous
 62
     0
370
    30
100
AcDbLine
 10
433.557344
 20
130.092668
 30
0.0
 11
422.356187
 21
130.092668
 31
0.0
  0
ARC
  5
163
330
120
100
AcDbEntity
  8
0
  6
Continuous
 62
     0
370
    30
100
AcDbCircle
 10
431.158839
 20
152.327315
 30
0.0
 40
20.53095441134298
100
AcDbArc
 50
276.708833
 51
285.311801
  0
ARC
  5
164
330
120
100
AcDbEntity
  8
0
  6
Continuous
 62
     0
370
    30
100
AcDbCircle
 10
431.166768
 20
152.094057
 30
0.0
 40
20.49423791843015
100
AcDbArc
 50
57.162977
 51
83.301412
  0
LINE
  5
165
330
120
100
AcDbEntity
  8
0
  6
Continuous
 62
     0
370
    30
100
AcDbLine
 10
475.034875
 20
80.655984
 30
0.0
 11
474.810321
 21
81.651761
 31
0.0
  0
SPLINE
  5
166
330
120
100
AcDbEntity
  8
0
  6
Continuous
 62
     0
370
    30
100
AcDbSpline
210
0.0
220
0.0
230
1.0
 70
     8
 71
     3
 72
    18
 73
    14
 74
     0
 42
0.000000001
 43
0.0
 40
0.0
 40
0.0
 40
0.0
 40
0.0
 40
0.8483284189299213
 40
2.133537333291478
 40
3.403948212906732
 40
5.817331656035731
 40
9.089981254108208
 40
10.78597267208139
 40
12.53241476653743
 40
15.23671714864881
 40
17.07314608597251
 40
18.37075703866842
 40
19.66471735533971
 40
19.66471735533971
 40
19.66471735533971
 40
19.66471735533971
 10
467.2479234368584
 20
118.9847651791014
 30
0.0
 10
467.1502685873571
 20
119.2430144237582
 30
0.0
 10
466.8872887225079
 20
119.9072655096332
 30
0.0
 10
466.4273248074924
 20
120.9417105619821
 30
0.0
 10
465.6729322714307
 20
122.417800822659
 30
0.0
 10
464.4392479096437
 20
124.3861060407577
 30
0.0
 10
462.7901267657562
 20
126.2325965449524
 30
0.0
 10
461.0209056255453
 20
127.6114195852571
 30
0.0
 10
459.2543989248715
 20
128.6581749418236
 30
0.0
 10
457.294255998157
 20
129.4235067092645
 30
0.0
 10
455.3956236860072
 20
129.8666932269737
 30
0.0
 10
453.9328303283174
 20
130.0636294992825
 30
0.0
 10
453.0719147082549
 20
130.1545381647838
 30
0.0
 10
452.6406484973699
 20
130.1613053718515
 30
0.0
  0
LINE
  5
167
330
120
100
AcDbEntity
  8
0
  6
Continuous
 62
     0
370
    30
100
AcDbLine
 10
468.401429
 20
114.99865
 30
0.0
 11
468.450483
 21
114.745035
 31
0.0
  0
LINE
  5
168
330
120
100
AcDbEntity
  8
0
  6
Continuous
 62
     0
370
    30
100
AcDbLine
 10
475.034845
 20
80.656115
 30
0.0
 11
474.810321
 21
81.651761
 31
0.0
  0
ARC
  5
169
330
120
100
AcDbEntity
  8
0
  6
Continuous
 62
     0
370
    30
100
AcDbCircle
 10
476.793233
 20
81.115413
 30
0.0
 40
1.551711482713102
100
AcDbArc
 50
280.425409
 51
1.475543
  0
ARC
  5
16A
330
120
100
AcDbEntity
  8
0
  6
Continuous
 62
     0
370
    30
100
AcDbCircle
 10
476.151002
 20
80.545472
 30
0.0
 40
1.063640336654975
100
AcDbArc
 50
192.176786
 51
214.395442
  0
LINE
  5
16B
330
120
100
AcDbEntity
  8
0
  6
Continuous
 62
     0
370
    30
100
AcDbLine
 10
459.912148
 20
174.189546
 30
0.0
 11
444.054481
 21
174.189546
 31
0.0
  0
ENDBLK
  5
16D
330
120
100
AcDbEntity
  8
0
100
AcDbBlockEnd
  0
BLOCK
  5
1BC
330
16F
100
AcDbEntity
  8
0
100
AcDbBlockBegin
  2
d
 70
     0
 10
0.0
 20
-67.180038
 30
0.0
  3
d
  1

  0
LINE
  5
170
330
16F
100
AcDbEntity
  8
0
  6
Continuous
 62
     0
370
    30
100
AcDbLine
 10
148.374598
 20
-89.425835
 30
0.0
 11
88.374598
 21
-89.425835
 31
0.0
  0
LINE
  5
171
330
16F
100
AcDbEntity
  8
0
  6
Continuous
 62
     0
370
    30
100
AcDbLine
 10
147.874598
 20
-94.425835
 30
0.0
 11
88.874598
 21
-94.425835
 31
0.0
  0
LINE
  5
172
330
16F
100
AcDbEntity
  8
0
  6
Continuous
 62
     0
370
     0
100
AcDbLine
 10
148.374598
 20
-93.925835
 30
0.0
 11
88.374598
 21
-93.925835
 31
0.0
  0
LINE
  5
173
330
16F
100
AcDbEntity
  8
0
  6
Continuous
 62
     0
370
    30
100
AcDbLine
 10
105.374598
 20
-94.425835
 30
0.0
 11
105.374598
 21
-225.372386
 31
0.0
  0
LINE
  5
174
330
16F
100
AcDbEntity
  8
0
  6
Continuous
 62
     0
370
     0
100
AcDbLine
 10
131.374598
 20
-225.372386
 30
0.0
 11
105.374598
 21
-225.372386
 31
0.0
  0
LINE
  5
175
330
16F
100
AcDbEntity
  8
0
  6
Continuous
 62
     0
370
    30
100
AcDbLine
 10
105.374598
 20
-225.372386
 30
0.0
 11
105.374598
 21
-264.343529
 31
0.0
  0
SPLINE
  5
176
330
16F
100
AcDbEntity
  8
0
  6
Continuous
 62
     0
370
     0
100
AcDbSpline
210
0.0
220
0.0
230
1.0
 70
    12
 71
     2
 72
     8
 73
     5
 74
     0
 42
0.000000001
 43
0.0
 40
0.0
 40
0.0
 40
0.0
 40
0.25
 40
0.25
 40
0.5
 40
0.5
 40
0.5
 10
105.3745975494385
 20
-264.3435285040996
 30
0.0
 41
1.0
 10
105.3745975494385
 20
-275.6018590374213
 30
0.0
 41
0.7071067811865476
 10
118.3745975494385
 20
-275.6018590374213
 30
0.0
 41
1.0
 10
131.3745975494385
 20
-275.6018590374213
 30
0.0
 41
0.7071067811865476
 10
131.3745975494385
 20
-264.3435285040996
 30
0.0
 41
1.0
  0
LINE
  5
177
330
16F
100
AcDbEntity
  8
0
  6
Continuous
 62
     0
370
    30
100
AcDbLine
 10
105.374598
 20
-264.343529
 30
0.0
 11
105.374598
 21
-274.425833
 31
0.0
  0
SPLINE
  5
178
330
16F
100
AcDbEntity
  8
0
  6
Continuous
 62
     0
370
    30
100
AcDbSpline
210
0.0
220
0.0
230
1.0
 70
    12
 71
     2
 72
     8
 73
     5
 74
     0
 42
0.000000001
 43
0.0
 40
0.5
 40
0.5
 40
0.5
 40
0.75
 40
0.75
 40
1.0
 40
1.0
 40
1.0
 10
131.3745975494385
 20
-274.4258329347208
 30
0.0
 41
1.0
 10
131.3745975494385
 20
-285.6841634680425
 30
0.0
 41
0.7071067811865476
 10
118.3745975494385
 20
-285.6841634680425
 30
0.0
 41
1.0
 10
105.3745975494385
 20
-285.6841634680425
 30
0.0
 41
0.7071067811865476
 10
105.3745975494385
 20
-274.4258329347208
 30
0.0
 41
1.0
  0
LINE
  5
179
330
16F
100
AcDbEntity
  8
0
  6
Continuous
 62
     0
370
    30
100
AcDbLine
 10
131.374598
 20
-264.343529
 30
0.0
 11
131.374598
 21
-274.425833
 31
0.0
  0
LINE
  5
17A
330
16F
100
AcDbEntity
  8
0
  6
Continuous
 62
     0
370
    30
100
AcDbLine
 10
131.374598
 20
-225.372386
 30
0.0
 11
131.374598
 21
-264.343529
 31
0.0
  0
LINE
  5
17B
330
16F
100
AcDbEntity
  8
0
  6
Continuous
 62
     0
370
    30
100
AcDbLine
 10
131.374598
 20
-225.372386
 30
0.0
 11
131.374598
 21
-94.425835
 31
0.0
  0
ARC
  5
17C
330
16F
100
AcDbEntity
  8
0
  6
Continuous
 62
     0
370
    30
100
AcDbCircle
 10
147.874598
 20
-93.925835
 30
0.0
 40
0.5
100
AcDbArc
 50
270.0
 51
0.0
  0
ARC
  5
17D
330
16F
100
AcDbEntity
  8
0
  6
Continuous
 62
     0
370
    30
100
AcDbCircle
 10
88.874598
 20
-93.925835
 30
0.0
 40
0.5000000000000036
100
AcDbArc
 50
180.0
 51
270.0
  0
LINE
  5
17E
330
16F
100
AcDbEntity
  8
0
  6
Continuous
 62
     0
370
    30
100
AcDbLine
 10
148.374598
 20
-93.925835
 30
0.0
 11
148.374598
 21
-89.425835
 31
0.0
  0
LINE
  5
17F
330
16F
100
AcDbEntity
  8
0
  6
Continuous
 62
     0
370
    30
100
AcDbLine
 10
88.374598
 20
-93.925835
 30
0.0
 11
88.374598
 21
-89.425835
 31
0.0
  0
SPLINE
  5
180
330
16F
100
AcDbEntity
  8
0
  6
Continuous
 62
     0
370
     0
100
AcDbSpline
210
0.0
220
0.0
230
1.0
 70
     8
 71
     3
 72
    14
 73
    10
 74
     0
 42
0.000000001
 43
0.0
 40
0.0
 40
0.0
 40
0.0
 40
0.0
 40
4.985091455020042
 40
9.970147469987424
 40
14.95499429598457
 40
19.93965986576175
 40
24.92412306109084
 40
29.90843907769889
 40
34.89265281904023
 40
34.89265281904023
 40
34.89265281904023
 40
34.89265281904023
 10
220.3648913845925
 20
-135.7848231132748
 30
0.0
 10
220.3770931919869
 20
-135.4963784542011
 30
0.0
 10
220.0329519733054
 20
-134.9416918160905
 30
0.0
 10
218.4332667718859
 20
-134.1333182505227
 30
0.0
 10
215.822166821839
 20
-133.4085384180147
 30
0.0
 10
212.3210482778216
 20
-132.7988309402799
 30
0.0
 10
208.0980309417596
 20
-132.3377684448024
 30
0.0
 10
203.368673592545
 20
-132.0502165556968
 30
0.0
 10
200.0331998980948
 20
-131.9850750760864
 30
0.0
 10
198.3717953176477
 20
-131.9850750760864
 30
0.0
  0
SPLINE
  5
181
330
16F
100
AcDbEntity
  8
0
  6
Continuous
 62
     0
370
     0
100
AcDbSpline
210
0.0
220
0.0
230
1.0
 70
     8
 71
     3
 72
    14
 73
    10
 74
     0
 42
0.000000001
 43
0.0
 40
0.0
 40
0.0
 40
0.0
 40
0.0
 40
4.984213741341138
 40
9.96852975794907
 40
14.95299295327749
 40
19.93765852305448
 40
24.92250534905095
 40
29.9075613640182
 40
34.89265281903796
 40
34.89265281903796
 40
34.89265281903796
 40
34.89265281903796
 10
198.3717953176476
 20
-131.9850750760864
 30
0.0
 10
196.7103907372006
 20
-131.9850750760864
 30
0.0
 10
193.3749170427506
 20
-132.0502165556996
 30
0.0
 10
188.6455596935356
 20
-132.3377684447938
 30
0.0
 10
184.4225423574758
 20
-132.7988309402982
 30
0.0
 10
180.9214238134582
 20
-133.4085384180329
 30
0.0
 10
178.3103238634092
 20
-134.1333182505145
 30
0.0
 10
176.7106386619903
 20
-134.9416918160923
 30
0.0
 10
176.3664974433084
 20
-135.4963784542011
 30
0.0
 10
176.3786992507027
 20
-135.7848231132748
 30
0.0
  0
SPLINE
  5
182
330
16F
100
AcDbEntity
  8
0
  6
Continuous
 62
     0
370
     0
100
AcDbSpline
210
0.0
220
0.0
230
1.0
 70
     8
 71
     3
 72
     8
 73
     4
 74
     0
 42
0.000000001
 43
0.0
 40
0.0
 40
0.0
 40
0.0
 40
0.0
 40
3.653222443064019
 40
3.653222443064019
 40
3.653222443064019
 40
3.653222443064019
 10
177.6883757512493
 20
-137.2940517825643
 30
0.0
 10
177.6998638036446
 20
-137.5111911012137
 30
0.0
 10
177.9564160555501
 20
-137.7338245260818
 30
0.0
 10
178.0920296118035
 20
-137.9523673348217
 30
0.0
  0
LINE
  5
183
330
16F
100
AcDbEntity
  8
0
  6
Continuous
 62
     0
370
     0
100
AcDbLine
 10
178.09203
 20
-137.952367
 30
0.0
 11
184.017679
 21
-147.621432
 31
0.0
  0
SPLINE
  5
184
330
16F
100
AcDbEntity
  8
0
  6
Continuous
 62
     0
370
     0
100
AcDbSpline
210
0.0
220
0.0
230
1.0
 70
     8
 71
     3
 72
    14
 73
    10
 74
     0
 42
0.000000001
 43
0.0
 40
0.0
 40
0.0
 40
0.0
 40
0.0
 40
3.357648776851581
 40
6.714049718875667
 40
10.06778576981573
 40
13.41760088284698
 40
16.76445100049494
 40
20.11421126265042
 40
23.46800661548595
 40
23.46800661548595
 40
23.46800661548595
 40
23.46800661548595
 10
184.0176789687752
 20
-147.6214323513955
 30
0.0
 10
184.1444030116469
 20
-147.8222664687222
 30
0.0
 10
184.4989069453057
 20
-148.2250677162074
 30
0.0
 10
185.4258562260276
 20
-148.8116323316274
 30
0.0
 10
186.8747777866627
 20
-149.3647941845929
 30
0.0
 10
188.9847038335449
 20
-149.8454239291532
 30
0.0
 10
191.7840811495841
 20
-150.1962298464563
 30
0.0
 10
195.0110975814517
 20
-150.3837112867016
 30
0.0
 10
197.2538635333693
 20
-150.4173514408229
 30
0.0
 10
198.3717953176476
 20
-150.4173516815752
 30
0.0
  0
LINE
  5
185
330
16F
100
AcDbEntity
  8
0
  6
Continuous
 62
     0
370
     0
100
AcDbLine
 10
198.371795
 20
-150.417352
 30
0.0
 11
198.371796
 21
-133.45816
 31
0.0
  0
SPLINE
  5
186
330
16F
100
AcDbEntity
  8
0
  6
Continuous
 62
     0
370
     0
100
AcDbSpline
210
0.0
220
0.0
230
1.0
 70
     8
 71
     3
 72
    14
 73
    10
 74
     0
 42
0.000000001
 43
0.0
 40
0.0
 40
0.0
 40
0.0
 40
0.0
 40
4.690236058045249
 40
9.379816625478325
 40
14.07059875641934
 40
18.76087985972481
 40
23.45161344182406
 40
28.14254872603605
 40
32.83347914028535
 40
32.83347914028535
 40
32.83347914028535
 40
32.83347914028535
 10
198.3717953177334
 20
-133.4581600212324
 30
0.0
 10
196.8083832983851
 20
-133.4581593745347
 30
0.0
 10
193.6698309485107
 20
-133.5239685735361
 30
0.0
 10
189.2209185057329
 20
-133.8151378560755
 30
0.0
 10
185.2500275510472
 20
-134.2811302870682
 30
0.0
 10
181.9599360680805
 20
-134.8968384752321
 30
0.0
 10
179.5059134738611
 20
-135.6302407428751
 30
0.0
 10
178.0048314044674
 20
-136.4395955617115
 30
0.0
 10
177.6736244856954
 20
-137.0152334379754
 30
0.0
 10
177.6883757512487
 20
-137.2940517825624
 30
0.0
  0
SPLINE
  5
187
330
16F
100
AcDbEntity
  8
0
  6
Continuous
 62
     0
370
     0
100
AcDbSpline
210
0.0
220
0.0
230
1.0
 70
     8
 71
     3
 72
     8
 73
     4
 74
     0
 42
0.000000001
 43
0.0
 40
0.0
 40
0.0
 40
0.0
 40
0.0
 40
3.653222443064009
 40
3.653222443064009
 40
3.653222443064009
 40
3.653222443064009
 10
219.0552148840458
 20
-137.2940517825643
 30
0.0
 10
219.0437268317743
 20
-137.5111911011948
 30
0.0
 10
218.7871745796334
 20
-137.7338245260969
 30
0.0
 10
218.6515610234918
 20
-137.9523673348219
 30
0.0
  0
LINE
  5
188
330
16F
100
AcDbEntity
  8
0
  6
Continuous
 62
     0
370
     0
100
AcDbLine
 10
218.651561
 20
-137.952367
 30
0.0
 11
212.725912
 21
-147.621432
 31
0.0
  0
SPLINE
  5
189
330
16F
100
AcDbEntity
  8
0
  6
Continuous
 62
     0
370
     0
100
AcDbSpline
210
0.0
220
0.0
230
1.0
 70
     8
 71
     3
 72
    14
 73
    10
 74
     0
 42
0.000000001
 43
0.0
 40
0.0
 40
0.0
 40
0.0
 40
0.0
 40
3.357648776850946
 40
6.714049718873458
 40
10.06778576981201
 40
13.41760088284155
 40
16.76445100048876
 40
20.114211262641
 40
23.4680066154798
 40
23.4680066154798
 40
23.4680066154798
 40
23.4680066154798
 10
212.7259116665202
 20
-147.6214323513962
 30
0.0
 10
212.5991876236239
 20
-147.8222664687258
 30
0.0
 10
212.2446836899825
 20
-148.2250677162041
 30
0.0
 10
211.3177344092811
 20
-148.8116323316248
 30
0.0
 10
209.8688128486314
 20
-149.3647941846021
 30
0.0
 10
207.7588868017557
 20
-149.8454239291333
 30
0.0
 10
204.959509485719
 20
-150.1962298465063
 30
0.0
 10
201.7324930538382
 20
-150.383711286599
 30
0.0
 10
199.489727101927
 20
-150.4173514403212
 30
0.0
 10
198.3717953176476
 20
-150.4173516815752
 30
0.0
  0
SPLINE
  5
18A
330
16F
100
AcDbEntity
  8
0
  6
Continuous
 62
     0
370
     0
100
AcDbSpline
210
0.0
220
0.0
230
1.0
 70
     8
 71
     3
 72
    14
 73
    10
 74
     0
 42
0.000000001
 43
0.0
 40
0.0
 40
0.0
 40
0.0
 40
0.0
 40
4.69023605813218
 40
9.379816625518114
 40
14.0705987563707
 40
18.76087985973196
 40
23.45161344181452
 40
28.14254872602785
 40
32.83347914028615
 40
32.83347914028615
 40
32.83347914028615
 40
32.83347914028615
 10
198.3717953175617
 20
-133.4581600212324
 30
0.0
 10
199.935207336939
 20
-133.4581593745349
 30
0.0
 10
203.0737596868265
 20
-133.5239685735296
 30
0.0
 10
207.5226721296004
 20
-133.815137856064
 30
0.0
 10
211.4935630841909
 20
-134.2811302870905
 30
0.0
 10
214.7836545672413
 20
-134.8968384752177
 30
0.0
 10
217.2376771613963
 20
-135.6302407428818
 30
0.0
 10
218.7387592309014
 20
-136.4395955616985
 30
0.0
 10
219.0699661494409
 20
-137.0152334379993
 30
0.0
 10
219.0552148840464
 20
-137.2940517825624
 30
0.0
  0
LINE
  5
18B
330
16F
100
AcDbEntity
  8
0
  6
Continuous
 62
     0
370
     0
100
AcDbLine
 10
198.371795
 20
-133.45816
 30
0.0
 11
198.371795
 21
-131.985075
 31
0.0
  0
ARC
  5
18C
330
16F
100
AcDbEntity
  8
0
  6
Continuous
 62
     0
370
     0
100
AcDbCircle
 10
178.322349
 20
-136.423819
 30
0.0
 40
1.546005949746634
100
AcDbArc
 50
211.619607
 51
261.431127
  0
ARC
  5
18D
330
16F
100
AcDbEntity
  8
0
  6
Continuous
 62
     0
370
     0
100
AcDbCircle
 10
218.421241
 20
-136.423819
 30
0.0
 40
1.546005949806931
100
AcDbArc
 50
278.568873
 51
328.380393
  0
SPLINE
  5
18E
330
16F
100
AcDbEntity
  8
0
  6
Continuous
 62
     0
370
    30
100
AcDbSpline
210
0.0
220
0.0
230
1.0
 70
     8
 71
     3
 72
    14
 73
    10
 74
     0
 42
0.000000001
 43
0.0
 40
0.0
 40
0.0
 40
0.0
 40
0.0
 40
9.184421489724677
 40
18.36176712170833
 40
27.52966411077037
 40
36.69288242013261
 40
45.86078162553695
 40
55.03810821226261
 40
64.22267964007013
 40
64.22267964007013
 40
64.22267964007013
 40
64.22267964007013
 10
220.1436501152001
 20
-109.2564610413093
 30
0.0
 10
219.7355858032439
 20
-110.2941732457683
 30
0.0
 10
217.7675214627506
 20
-112.3373040066961
 30
0.0
 10
211.6508625747552
 20
-114.7869703599658
 30
0.0
 10
203.1126675372493
 20
-116.1845387355976
 30
0.0
 10
193.6309403391996
 20
-116.1843005480704
 30
0.0
 10
185.0926395223669
 20
-114.7876971465063
 30
0.0
 10
178.975921295752
 20
-112.3385046430498
 30
0.0
 10
177.0080103515286
 20
-110.2942070486132
 30
0.0
 10
176.5999402422063
 20
-109.2564659506843
 30
0.0
  0
ARC
  5
18F
330
16F
100
AcDbEntity
  8
0
  6
Continuous
 62
     0
370
    30
100
AcDbCircle
 10
216.496118
 20
-107.585756
 30
0.0
 40
4.011950078811383
100
AcDbArc
 50
335.390469
 51
344.566594
  0
ARC
  5
190
330
16F
100
AcDbEntity
  8
0
  6
Continuous
 62
     0
370
    30
100
AcDbCircle
 10
180.247373
 20
-107.585808
 30
0.0
 40
4.011840946597204
100
AcDbArc
 50
195.433075
 51
204.609516
  0
ARC
  5
191
330
16F
100
AcDbEntity
  8
0
  6
Continuous
 62
     0
370
     0
100
AcDbCircle
 10
212.528889
 20
-146.131889
 30
0.0
 40
1.502551961546492
100
AcDbArc
 50
277.534837
 51
327.721084
  0
ARC
  5
192
330
16F
100
AcDbEntity
  8
0
  6
Continuous
 62
     0
370
     0
100
AcDbCircle
 10
218.829276
 20
-135.775062
 30
0.0
 40
1.535646350397604
100
AcDbArc
 50
278.460284
 51
359.635809
  0
ARC
  5
193
330
16F
100
AcDbEntity
  8
0
  6
Continuous
 62
     0
370
     0
100
AcDbCircle
 10
184.214702
 20
-146.131889
 30
0.0
 40
1.502551961617421
100
AcDbArc
 50
212.278916
 51
262.465163
  0
ARC
  5
194
330
16F
100
AcDbEntity
  8
0
  6
Continuous
 62
     0
370
     0
100
AcDbCircle
 10
177.914315
 20
-135.775062
 30
0.0
 40
1.535646350463786
100
AcDbArc
 50
180.364191
 51
261.539716
  0
LINE
  5
195
330
16F
100
AcDbEntity
  8
0
  6
Continuous
 62
     0
370
    30
100
AcDbLine
 10
220.474599
 20
-105.63027
 30
0.0
 11
198.374599
 21
-105.63027
 31
0.0
  0
LINE
  5
196
330
16F
100
AcDbEntity
  8
0
  6
Continuous
 62
     0
370
    30
100
AcDbLine
 10
198.374599
 20
-105.63027
 30
0.0
 11
176.274599
 21
-105.63027
 31
0.0
  0
LINE
  5
197
330
16F
100
AcDbEntity
  8
0
  6
Continuous
 62
     0
370
    30
100
AcDbLine
 10
227.874599
 20
-94.429114
 30
0.0
 11
198.374599
 21
-94.429114
 31
0.0
  0
LINE
  5
198
330
16F
100
AcDbEntity
  8
0
  6
Continuous
 62
     0
370
    30
100
AcDbLine
 10
198.374599
 20
-94.429114
 30
0.0
 11
168.874599
 21
-94.429114
 31
0.0
  0
LINE
  5
199
330
16F
100
AcDbEntity
  8
0
  6
Continuous
 62
     0
370
     0
100
AcDbLine
 10
228.374599
 20
-93.929114
 30
0.0
 11
198.374599
 21
-93.929114
 31
0.0
  0
LINE
  5
19A
330
16F
100
AcDbEntity
  8
0
  6
Continuous
 62
     0
370
     0
100
AcDbLine
 10
198.374599
 20
-93.929114
 30
0.0
 11
168.374599
 21
-93.929114
 31
0.0
  0
LINE
  5
19B
330
16F
100
AcDbEntity
  8
0
  6
Continuous
 62
     0
370
     0
100
AcDbLine
 10
228.374599
 20
-89.929114
 30
0.0
 11
198.374599
 21
-89.929114
 31
0.0
  0
LINE
  5
19C
330
16F
100
AcDbEntity
  8
0
  6
Continuous
 62
     0
370
     0
100
AcDbLine
 10
198.374599
 20
-89.929114
 30
0.0
 11
168.374599
 21
-89.929114
 31
0.0
  0
LINE
  5
19D
330
16F
100
AcDbEntity
  8
0
  6
Continuous
 62
     0
370
    30
100
AcDbLine
 10
227.874599
 20
-89.429114
 30
0.0
 11
198.374599
 21
-89.429114
 31
0.0
  0
LINE
  5
19E
330
16F
100
AcDbEntity
  8
0
  6
Continuous
 62
     0
370
    30
100
AcDbLine
 10
198.374599
 20
-89.429114
 30
0.0
 11
168.874599
 21
-89.429114
 31
0.0
  0
LINE
  5
19F
330
16F
100
AcDbEntity
  8
0
  6
Continuous
 62
     0
370
     0
100
AcDbLine
 10
176.59994
 20
-109.256466
 30
0.0
 11
179.13342
 21
-109.256466
 31
0.0
  0
LINE
  5
1A0
330
16F
100
AcDbEntity
  8
0
  6
Continuous
 62
     0
370
     0
100
AcDbLine
 10
217.615779
 20
-109.256461
 30
0.0
 11
220.14365
 21
-109.256461
 31
0.0
  0
LINE
  5
1A1
330
16F
100
AcDbEntity
  8
0
  6
Continuous
 62
     0
370
    30
100
AcDbLine
 10
220.363399
 20
-108.653409
 30
0.0
 11
218.039816
 21
-108.653409
 31
0.0
  0
LINE
  5
1A2
330
16F
100
AcDbEntity
  8
0
  6
Continuous
 62
     0
370
    30
100
AcDbLine
 10
178.709382
 20
-108.653409
 30
0.0
 11
176.380192
 21
-108.653409
 31
0.0
  0
ARC
  5
1A3
330
16F
100
AcDbEntity
  8
0
  6
Continuous
 62
     0
370
    30
100
AcDbCircle
 10
198.478776
 20
-103.237694
 30
0.0
 40
20.4999999991584
100
AcDbArc
 50
186.702326
 51
195.331632
  0
SPLINE
  5
1A4
330
16F
100
AcDbEntity
  8
0
  6
Continuous
 62
     0
370
    30
100
AcDbSpline
210
0.0
220
0.0
230
1.0
 70
     8
 71
     3
 72
    20
 73
    16
 74
     0
 42
0.000000001
 43
0.0
 40
0.0
 40
0.0
 40
0.0
 40
0.0
 40
2.033530702234261
 40
6.286354582571921
 40
10.58798005870877
 40
15.59833689218799
 40
19.95908500100664
 40
24.2500658792212
 40
28.35239977942428
 40
32.63144765811402
 40
37.20946466815066
 40
41.03790351906728
 40
44.93573991368111
 40
49.71977428954064
 40
52.37966492087619
 40
52.37966492087619
 40
52.37966492087619
 40
52.37966492087619
 10
217.615778783758
 20
-109.256461328288
 30
0.0
 10
217.4460509851781
 20
-109.4808137664513
 30
0.0
 10
216.817287819473
 20
-110.1656876992099
 30
0.0
 10
215.2342720115133
 20
-111.2514465750404
 30
0.0
 10
212.3834620855454
 20
-112.4630842968421
 30
0.0
 10
208.7516639508934
 20
-113.4265118476333
 30
0.0
 10
204.5744899770307
 20
-114.0700539467131
 30
0.0
 10
200.3883694713551
 20
-114.3687174224591
 30
0.0
 10
196.1417238157065
 20
-114.3605881206063
 30
0.0
 10
191.8982160797635
 20
-114.0412248285552
 30
0.0
 10
188.0459936424722
 20
-113.4218707323432
 30
0.0
 10
184.7681180636183
 20
-112.56803776919
 30
0.0
 10
181.9874517821423
 20
-111.4958335119228
 30
0.0
 10
180.1379419277554
 20
-110.3576690771102
 30
0.0
 10
179.3553595168697
 20
-109.5498363226169
 30
0.0
 10
179.1334203046831
 20
-109.2564656970306
 30
0.0
  0
ARC
  5
1A5
330
16F
100
AcDbEntity
  8
0
  6
Continuous
 62
     0
370
    30
100
AcDbCircle
 10
183.722068
 20
-105.546978
 30
0.0
 40
5.900507319084317
100
AcDbArc
 50
211.81968
 51
218.95226
  0
ARC
  5
1A6
330
16F
100
AcDbEntity
  8
0
  6
Continuous
 62
     0
370
    30
100
AcDbCircle
 10
214.372184
 20
-106.525116
 30
0.0
 40
4.240419074307196
100
AcDbArc
 50
319.900156
 51
329.873796
  0
ARC
  5
1A7
330
16F
100
AcDbEntity
  8
0
  6
Continuous
 62
     0
370
    30
100
AcDbCircle
 10
168.874619
 20
-89.929134
 30
0.0
 40
0.5000205012678081
100
AcDbArc
 50
90.002349
 51
179.997651
  0
ARC
  5
1A8
330
16F
100
AcDbEntity
  8
0
  6
Continuous
 62
     0
370
    30
100
AcDbCircle
 10
227.874578
 20
-89.929134
 30
0.0
 40
0.5000205011485456
100
AcDbArc
 50
0.002349
 51
89.997651
  0
LINE
  5
1A9
330
16F
100
AcDbEntity
  8
0
  6
Continuous
 62
     0
370
    30
100
AcDbLine
 10
168.374599
 20
-93.929114
 30
0.0
 11
168.374599
 21
-89.929114
 31
0.0
  0
LINE
  5
1AA
330
16F
100
AcDbEntity
  8
0
  6
Continuous
 62
     0
370
    30
100
AcDbLine
 10
228.374599
 20
-93.929114
 30
0.0
 11
228.374599
 21
-89.929114
 31
0.0
  0
ARC
  5
1AB
330
16F
100
AcDbEntity
  8
0
  6
Continuous
 62
     0
370
    30
100
AcDbCircle
 10
168.874619
 20
-93.929093
 30
0.0
 40
0.5000205010205361
100
AcDbArc
 50
180.002349
 51
269.997651
  0
ARC
  5
1AC
330
16F
100
AcDbEntity
  8
0
  6
Continuous
 62
     0
370
    30
100
AcDbCircle
 10
227.874578
 20
-93.929093
 30
0.0
 40
0.5000205011834773
100
AcDbArc
 50
270.002349
 51
359.997651
  0
LINE
  5
1AD
330
16F
100
AcDbEntity
  8
0
  6
Continuous
 62
     0
370
    30
100
AcDbLine
 10
176.274599
 20
-105.63027
 30
0.0
 11
176.274599
 21
-94.429114
 31
0.0
  0
LINE
  5
1AE
330
16F
100
AcDbEntity
  8
0
  6
Continuous
 62
     0
370
    30
100
AcDbLine
 10
220.474599
 20
-105.63027
 30
0.0
 11
220.474599
 21
-94.429114
 31
0.0
  0
ARC
  5
1AF
330
16F
100
AcDbEntity
  8
0
  6
Continuous
 62
     0
370
    30
100
AcDbCircle
 10
198.242332
 20
-103.232225
 30
0.0
 40
20.52853593388866
100
AcDbArc
 50
344.674369
 51
353.291665
  0
LINE
  5
1B0
330
16F
100
AcDbEntity
  8
0
  6
Continuous
 62
     0
370
    30
100
AcDbLine
 10
219.754122
 20
-137.207492
 30
0.0
 11
219.738396
 21
-137.231376
 31
0.0
  0
ARC
  5
1B1
330
16F
100
AcDbEntity
  8
0
  6
Continuous
 62
     0
370
    30
100
AcDbCircle
 10
217.962817
 20
-135.596183
 30
0.0
 40
2.41382289751272
100
AcDbArc
 50
317.356944
 51
354.055835
  0
LINE
  5
1B2
330
16F
100
AcDbEntity
  8
0
  6
Continuous
 62
     0
370
    30
100
AcDbLine
 10
213.799261
 20
-146.934329
 30
0.0
 11
219.737747
 21
-137.234341
 31
0.0
  0
LINE
  5
1B3
330
16F
100
AcDbEntity
  8
0
  6
Continuous
 62
     0
370
    30
100
AcDbLine
 10
220.363669
 20
-135.845467
 30
0.0
 11
220.365507
 21
-135.756772
 31
0.0
  0
SPLINE
  5
1B4
330
16F
100
AcDbEntity
  8
0
  6
Continuous
 62
     0
370
    30
100
AcDbSpline
210
0.0
220
0.0
230
1.0
 70
     8
 71
     3
 72
    16
 73
    12
 74
     0
 42
0.000000001
 43
0.0
 40
0.0
 40
0.0
 40
0.0
 40
0.0
 40
1.437735109319688
 40
2.08160366632221
 40
3.752507049531512
 40
5.566106693883965
 40
8.760167503619101
 40
13.71034663751053
 40
15.03146081969912
 40
17.79839351387643
 40
23.92746956887299
 40
23.92746956887299
 40
23.92746956887299
 40
23.92746956887299
 10
213.7809104982026
 20
-146.9627588669599
 30
0.0
 10
213.7239975208201
 20
-147.0489412857639
 30
0.0
 10
213.545692590386
 20
-147.3013668884495
 30
0.0
 10
213.240509784293
 20
-147.6326654523739
 30
0.0
 10
212.839685743995
 20
-147.9954274516945
 30
0.0
 10
212.0818273836846
 20
-148.5045552017325
 30
0.0
 10
210.6805184537895
 20
-149.1612945486326
 30
0.0
 10
208.7621162680984
 20
-149.661690504784
 30
0.0
 10
206.411834435415
 20
-150.0233444631148
 30
0.0
 10
203.4149487390104
 20
-150.3358609466621
 30
0.0
 10
200.4016524964733
 20
-150.4181858586104
 30
0.0
 10
198.3717821939163
 20
-150.4178394472793
 30
0.0
  0
LINE
  5
1B5
330
16F
100
AcDbEntity
  8
0
  6
Continuous
 62
     0
370
    30
100
AcDbLine
 10
176.989469
 20
-137.207492
 30
0.0
 11
177.005194
 21
-137.231376
 31
0.0
  0
ARC
  5
1B6
330
16F
100
AcDbEntity
  8
0
  6
Continuous
 62
     0
370
    30
100
AcDbCircle
 10
178.780774
 20
-135.596183
 30
0.0
 40
2.41382289753144
100
AcDbArc
 50
185.944165
 51
222.643056
  0
LINE
  5
1B7
330
16F
100
AcDbEntity
  8
0
  6
Continuous
 62
     0
370
    30
100
AcDbLine
 10
182.944329
 20
-146.934329
 30
0.0
 11
177.005844
 21
-137.234341
 31
0.0
  0
LINE
  5
1B8
330
16F
100
AcDbEntity
  8
0
  6
Continuous
 62
     0
370
    30
100
AcDbLine
 10
176.379922
 20
-135.845467
 30
0.0
 11
176.378083
 21
-135.756772
 31
0.0
  0
SPLINE
  5
1B9
330
16F
100
AcDbEntity
  8
0
  6
Continuous
 62
     0
370
    30
100
AcDbSpline
210
0.0
220
0.0
230
1.0
 70
     8
 71
     3
 72
    16
 73
    12
 74
     0
 42
0.000000001
 43
0.0
 40
0.0
 40
0.0
 40
0.0
 40
0.0
 40
1.437735109320183
 40
2.081603666323372
 40
3.752507049537742
 40
5.56610669388982
 40
8.760167503626299
 40
13.71034663751893
 40
15.03146081970777
 40
17.79839351388815
 40
23.92746956887306
 40
23.92746956887306
 40
23.92746956887306
 40
23.92746956887306
 10
182.9626801370925
 20
-146.9627588669598
 30
0.0
 10
183.0195931144751
 20
-147.0489412857642
 30
0.0
 10
183.1978980449093
 20
-147.3013668884491
 30
0.0
 10
183.5030808510029
 20
-147.6326654523756
 30
0.0
 10
183.9039048913016
 20
-147.9954274516955
 30
0.0
 10
184.6617632516131
 20
-148.5045552017334
 30
0.0
 10
186.0630721815094
 20
-149.1612945486339
 30
0.0
 10
187.9814743672023
 20
-149.6616905047858
 30
0.0
 10
190.3317561998882
 20
-150.0233444631158
 30
0.0
 10
193.3286418962916
 20
-150.3358609466621
 30
0.0
 10
196.3419381388257
 20
-150.4181858586104
 30
0.0
 10
198.3718084413789
 20
-150.4178394472793
 30
0.0
  0
LINE
  5
1BA
330
16F
100
AcDbEntity
  8
0
  6
Continuous
 62
     0
370
    30
100
AcDbLine
 10
220.365503
 20
-135.756026
 30
0.0
 11
220.365503
 21
-108.658108
 31
0.0
  0
LINE
  5
1BB
330
16F
100
AcDbEntity
  8
0
  6
Continuous
 62
     0
370
    30
100
AcDbLine
 10
176.378088
 20
-135.756026
 30
0.0
 11
176.378088
 21
-108.658108
 31
0.0
  0
ENDBLK
  5
1BD
330
16F
100
AcDbEntity
  8
0
100
AcDbBlockEnd
  0
BLOCK
  5
219
330
1BF
100
AcDbEntity
  8
0
100
AcDbBlockBegin
  2
e
 70
     0
 10
377.804504
 20
-225.492554
 30
0.0
  3
e
  1

  0
ELLIPSE
  5
1C0
330
1BF
100
AcDbEntity
  8
0
  6
Continuous
 62
     0
370
    30
100
AcDbEllipse
 10
560.772796
 20
-92.674031
 30
0.0
 11
8.604779608015912
 21
-28.73948099561775
 31
0.0
210
0.0
220
0.0
230
1.0
 40
0.395646
 41
0.5949843148850933
 42
3.141592649855571
  0
ELLIPSE
  5
1C1
330
1BF
100
AcDbEntity
  8
0
  6
Continuous
 62
     0
370
     0
100
AcDbEllipse
 10
556.373725
 20
-93.99114
 30
0.0
 11
8.461366614548981
 21
-28.26048964569079
 31
0.0
210
0.0
220
0.0
230
1.0
 40
0.395646
 41
0.7304306460347378
 42
4.256035188230573
  0
ELLIPSE
  5
1C2
330
1BF
100
AcDbEntity
  8
0
  6
Continuous
 62
     0
370
     0
100
AcDbEllipse
 10
556.373725
 20
-93.99114
 30
0.0
 11
8.461366614548981
 21
-28.26048964569079
 31
0.0
210
0.0
220
0.0
230
1.0
 40
0.395646
 41
5.168742765070365
 42
5.55258601304971
  0
ELLIPSE
  5
1C3
330
1BF
100
AcDbEntity
  8
0
  6
Continuous
 62
     0
370
     0
100
AcDbEllipse
 10
556.813632
 20
-93.859429
 30
0.0
 11
8.604779608015912
 21
-28.73948099561775
 31
0.0
210
0.0
220
0.0
230
1.0
 40
0.395646
 41
0.7379367434952915
 42
3.141592694807966
  0
ELLIPSE
  5
1C4
330
1BF
100
AcDbEntity
  8
0
  6
Continuous
 62
     0
370
    30
100
AcDbEllipse
 10
398.477199
 20
-177.545665
 30
0.0
 11
8.08559083570025
 21
-3.797911113126226
 31
0.0
210
0.0
220
0.0
230
-1.0
 40
0.239315
 41
0.2225132148105932
 42
2.481957719937878
  0
ELLIPSE
  5
1C5
330
1BF
100
AcDbEntity
  8
0
  6
Continuous
 62
     0
370
    30
100
AcDbEllipse
 10
398.477199
 20
-177.545665
 30
0.0
 11
8.08559083570025
 21
-3.797911113126226
 31
0.0
210
0.0
220
0.0
230
-1.0
 40
0.239315
 41
2.481957719937878
 42
2.919079331758815
  0
SPLINE
  5
1C6
330
1BF
100
AcDbEntity
  8
0
  6
Continuous
 62
     0
370
    30
100
AcDbSpline
210
0.0
220
0.0
230
1.0
 70
    12
 71
     2
 72
    10
 73
     7
 74
     0
 42
0.000000001
 43
0.0
 40
0.1558124320168804
 40
0.1558124320168804
 40
0.1558124320168804
 40
0.25
 40
0.25
 40
0.5
 40
0.5
 40
0.6559805388429449
 40
0.6559805388429449
 40
0.6559805388429449
 10
552.6449870019173
 20
-81.53736485380313
 30
0.0
 41
0.8624517768196818
 10
554.1204418561831
 20
-81.09560449604395
 30
0.0
 41
0.8896524001648529
 10
555.9667379803635
 20
-82.77616824802891
 30
0.0
 41
1.0
 10
562.1324485768852
 20
-88.38841516662296
 30
0.0
 41
0.7071067811865476
 10
562.5394354101796
 20
-99.6033868760071
 30
0.0
 41
1.0
 10
562.7591388672273
 20
-105.6575582979595
 30
0.0
 41
0.8172574316241324
 10
560.0970277475936
 20
-106.4465340490603
 30
0.0
 41
0.8625491375267571
  0
SPLINE
  5
1C7
330
1BF
100
AcDbEntity
  8
0
  6
Continuous
 62
     0
370
     0
100
AcDbSpline
210
0.0
220
0.0
230
1.0
 70
    12
 71
     2
 72
    10
 73
     7
 74
     0
 42
0.000000001
 43
0.0
 40
0.3441874905242977
 40
0.3441874905242977
 40
0.3441874905242977
 40
0.5
 40
0.5
 40
0.75
 40
0.75
 40
0.8441875679831198
 40
0.8441875679831198
 40
0.8441875679831198
 10
444.8938099875818
 20
-140.9391032141072
 30
0.0
 41
0.862451821558726
 10
447.5501992063323
 20
-140.1437674814578
 30
0.0
 41
0.81745429027304
 10
447.330785275697
 20
-134.0975742795793
 30
0.0
 41
1.0
 10
446.9237984424025
 20
-122.8826025701951
 30
0.0
 41
0.7071067811865476
 10
440.7580878458808
 20
-117.270355651601
 30
0.0
 41
1.0
 10
438.9117917217003
 20
-115.589791899616
 30
0.0
 41
0.8896524001648527
 10
437.4363368674345
 20
-116.0315522573752
 30
0.0
 41
0.8624517768196818
  0
SPLINE
  5
1C8
330
1BF
100
AcDbEntity
  8
0
  6
Continuous
 62
     0
370
     0
100
AcDbSpline
210
0.0
220
0.0
230
1.0
 70
    12
 71
     2
 72
    10
 73
     7
 74
     0
 42
0.000000001
 43
0.0
 40
0.1440011558874721
 40
0.1440011558874721
 40
0.1440011558874721
 40
0.25
 40
0.25
 40
0.5
 40
0.5
 40
0.6440012595596412
 40
0.6440012595596412
 40
0.6440012595596412
 10
395.8155007154687
 20
-152.6347721341143
 30
0.0
 41
0.8569373047482776
 10
395.3627179006526
 20
-153.5987203288482
 30
0.0
 41
0.8758146294295053
 10
397.4733719912326
 20
-155.5199120115648
 30
0.0
 41
1.0
 10
403.6390825877544
 20
-161.1321589301589
 30
0.0
 41
0.7071067811865476
 10
413.7478160781252
 20
-163.7739542140339
 30
0.0
 41
1.0
 10
418.7006573988427
 20
-165.0683194137216
 30
0.0
 41
0.8312920302975411
 10
419.3487111529346
 20
-163.6886405296482
 30
0.0
 41
0.8569373416743131
  0
SPLINE
  5
1C9
330
1BF
100
AcDbEntity
  8
0
  6
Continuous
 62
     0
370
    30
100
AcDbSpline
210
0.0
220
0.0
230
1.0
 70
    12
 71
     2
 72
    10
 73
     7
 74
     0
 42
0.000000001
 43
0.0
 40
0.3559987398400768
 40
0.3559987398400768
 40
0.3559987398400768
 40
0.5
 40
0.5
 40
0.75
 40
0.75
 40
0.8561658785702939
 40
0.8561658785702939
 40
0.8561658785702939
 10
411.0248653325866
 20
-181.4097540675817
 30
0.0
 41
0.8569373418881225
 10
410.3768115980898
 20
-182.7894329693042
 30
0.0
 41
0.831292029594267
 10
405.4239702525359
 20
-181.4950677631259
 30
0.0
 41
1.0
 10
395.315236762165
 20
-178.8532724792508
 30
0.0
 41
0.7071067811865476
 10
389.1495261656434
 20
-173.2410255606568
 30
0.0
 41
1.0
 10
387.0350736211562
 20
-171.3163763914262
 30
0.0
 41
0.8756189363895539
 10
387.4931205316688
 20
-170.3527840066871
 30
0.0
 41
0.8568780719447928
  0
LINE
  5
1CA
330
1BF
100
AcDbEntity
  8
0
  6
Continuous
 62
     0
370
    30
100
AcDbLine
 10
395.8155
 20
-152.634774
 30
0.0
 11
387.491654
 21
-170.355888
 31
0.0
  0
LINE
  5
1CB
330
1BF
100
AcDbEntity
  8
0
  6
Continuous
 62
     0
370
    30
100
AcDbLine
 10
419.347252
 20
-163.691747
 30
0.0
 11
411.024865
 21
-181.409754
 31
0.0
  0
SPLINE
  5
1CC
330
1BF
100
AcDbEntity
  8
0
  6
Continuous
 62
     0
370
    30
100
AcDbSpline
210
0.0
220
0.0
230
1.0
 70
     8
 71
     3
 72
    16
 73
    12
 74
     0
 42
0.000000001
 43
0.0
 40
0.0
 40
0.0
 40
0.0
 40
0.0
 40
1.591223573938972
 40
4.289451286719435
 40
11.24680298834292
 40
14.09006529568262
 40
18.67458080846453
 40
23.26221762151749
 40
26.39406338257614
 40
32.54022414293414
 40
36.51863007648549
 40
36.51863007648549
 40
36.51863007648549
 40
36.51863007648549
 10
444.8938124909159
 20
-140.9391024645952
 30
0.0
 10
444.4588122268916
 20
-141.0693442532341
 30
0.0
 10
443.2803595876358
 20
-141.4490477596254
 30
0.0
 10
440.1643618808487
 20
-142.6453896013871
 30
0.0
 10
436.6929333858698
 20
-144.4722587657955
 30
0.0
 10
432.8497377998527
 20
-147.0989233905002
 30
0.0
 10
429.7739640093021
 20
-149.60167713126
 30
0.0
 10
426.8671758711027
 20
-152.503155051241
 30
0.0
 10
423.8820831490631
 20
-156.0349159649552
 30
0.0
 10
421.4056153377398
 20
-159.6609673562286
 30
0.0
 10
419.8845090842035
 20
-162.5479495346507
 30
0.0
 10
419.3487111529347
 20
-163.6886405296481
 30
0.0
  0
SPLINE
  5
1CD
330
1BF
100
AcDbEntity
  8
0
  6
Continuous
 62
     0
370
    30
100
AcDbSpline
210
0.0
220
0.0
230
1.0
 70
     8
 71
     3
 72
    16
 73
    12
 74
     0
 42
0.000000001
 43
0.0
 40
0.0
 40
0.0
 40
0.0
 40
0.0
 40
4.317308796811552
 40
11.34647386316302
 40
15.7995408417969
 40
22.98693112598337
 40
34.71318112302696
 40
41.87635244071221
 40
46.30520760672464
 40
53.28169106801737
 40
57.85342189546065
 40
57.85342189546065
 40
57.85342189546065
 40
57.85342189546065
 10
437.4363368674346
 20
-116.0315522573752
 30
0.0
 10
436.1293757431641
 20
-116.4228645576515
 30
0.0
 10
432.7111752767447
 20
-117.577445724392
 30
0.0
 10
428.0488741786384
 20
-119.6301208331318
 30
0.0
 10
422.7129945495521
 20
-122.5545981064874
 30
0.0
 10
416.3011149778318
 20
-126.8171810365478
 30
0.0
 10
409.7611139945824
 20
-132.5697654140222
 30
0.0
 10
404.6424453259455
 20
-138.4370388309621
 30
0.0
 10
400.9708218338737
 20
-143.4067998148031
 30
0.0
 10
398.1777267753693
 20
-147.9043536065951
 30
0.0
 10
396.4508419226141
 20
-151.2821577395066
 30
0.0
 10
395.8154998043054
 20
-152.6347740739348
 30
0.0
  0
LINE
  5
1CE
330
1BF
100
AcDbEntity
  8
0
  6
Continuous
 62
     0
370
    30
100
AcDbLine
 10
444.893812
 20
-140.939102
 30
0.0
 11
560.102463
 21
-106.444915
 31
0.0
  0
LINE
  5
1CF
330
1BF
100
AcDbEntity
  8
0
  6
Continuous
 62
     0
370
    30
100
AcDbLine
 10
437.44177
 20
-116.029926
 30
0.0
 11
552.644987
 21
-81.537365
 31
0.0
  0
SPLINE
  5
1D0
330
1BF
100
AcDbEntity
  8
0
  6
Continuous
 62
     0
370
    30
100
AcDbSpline
210
0.0
220
0.0
230
1.0
 70
     8
 71
     3
 72
    11
 73
     7
 74
     0
 42
0.000000001
 43
0.0
 40
0.0
 40
0.0
 40
0.0
 40
0.0
 40
0.9839282002767671
 40
2.196558151778518
 40
3.694627234169067
 40
4.821237336626559
 40
4.821237336626559
 40
4.821237336626559
 40
4.821237336626559
 10
390.4451596210774
 20
-174.4082830662829
 30
0.0
 10
390.5785972777937
 20
-174.7045160404162
 30
0.0
 10
390.9099426848383
 20
-175.3516789562672
 30
0.0
 10
391.5775375387911
 20
-176.3787995114712
 30
0.0
 10
392.3911919838501
 20
-177.3612877494381
 30
0.0
 10
393.0130193778448
 20
-177.974936057244
 30
0.0
 10
393.2901428387123
 20
-178.2271836905742
 30
0.0
  0
SPLINE
  5
1D1
330
1BF
100
AcDbEntity
  8
0
  6
Continuous
 62
     0
370
    30
100
AcDbSpline
210
0.0
220
0.0
230
1.0
 70
     8
 71
     3
 72
    15
 73
    11
 74
     0
 42
0.000000001
 43
0.0
 40
0.0
 40
0.0
 40
0.0
 40
0.0
 40
1.60285611401255
 40
3.414626545789466
 40
5.345543849338704
 40
6.75690031196286
 40
8.432689742791414
 40
9.489317020093537
 40
11.68792060341566
 40
13.764969235954
 40
13.764969235954
 40
13.764969235954
 40
13.764969235954
 10
406.0202383578156
 20
-181.7241076772208
 30
0.0
 10
405.5103419700221
 20
-181.8648509120544
 30
0.0
 10
404.3971430868883
 20
-182.0766530837037
 30
0.0
 10
402.6209446050226
 20
-182.1400155460967
 30
0.0
 10
400.9127394441102
 20
-181.9519522819759
 30
0.0
 10
399.2817364015535
 20
-181.5768112117503
 30
0.0
 10
397.9723668428343
 20
-181.1304085642055
 30
0.0
 10
396.468976724201
 20
-180.4634950217614
 30
0.0
 10
394.9255703564402
 20
-179.5731544590125
 30
0.0
 10
393.8007514445191
 20
-178.6919576322025
 30
0.0
 10
393.2901447948349
 20
-178.2271854711065
 30
0.0
  0
SPLINE
  5
1D2
330
1BF
100
AcDbEntity
  8
0
  6
Continuous
 62
     0
370
    30
100
AcDbSpline
210
0.0
220
0.0
230
1.0
 70
     8
 71
     3
 72
    16
 73
    12
 74
     0
 42
0.000000001
 43
0.0
 40
0.0
 40
0.0
 40
0.0
 40
0.0
 40
1.869322214334693
 40
4.866187914949777
 40
8.0062588994358
 40
11.50766317550265
 40
16.00110975792527
 40
23.09864693569027
 40
27.40490991760371
 40
30.99410754451232
 40
33.36444981851495
 40
33.36444981851495
 40
33.36444981851495
 40
33.36444981851495
 10
548.2088524037148
 20
-65.11994800682123
 30
0.0
 10
547.9517116684588
 20
-65.19693754207827
 30
0.0
 10
547.2978837023363
 20
-65.45017441676498
 30
0.0
 10
546.3031802734755
 20
-66.08655941951776
 30
0.0
 10
545.2478050398661
 20
-67.16308303622742
 30
0.0
 10
544.2137804587405
 20
-68.76623961772145
 30
0.0
 10
543.1172360319489
 20
-71.48552141253805
 30
0.0
 10
542.4370544642627
 20
-75.11171859681326
 30
0.0
 10
542.2512260423044
 20
-79.09927207570587
 30
0.0
 10
542.3409454780972
 20
-82.04820334651924
 30
0.0
 10
542.4872246961922
 20
-83.83594895017526
 30
0.0
 10
542.5601045161385
 20
-84.55684137749444
 30
0.0
  0
SPLINE
  5
1D3
330
1BF
100
AcDbEntity
  8
0
  6
Continuous
 62
     0
370
    30
100
AcDbSpline
210
0.0
220
0.0
230
1.0
 70
     8
 71
     3
 72
    10
 73
     6
 74
     0
 42
0.000000001
 43
0.0
 40
22.14162475176922
 40
22.14162475176922
 40
22.14162475176922
 40
22.14162475176922
 40
27.40490991760371
 40
31.73926484065237
 40
33.36442625733876
 40
33.36442625733876
 40
33.36442625733876
 40
33.36442625733876
 10
555.1313312746547
 20
-117.2976171735461
 30
0.0
 10
554.2946512524766
 20
-116.3028860727798
 30
0.0
 10
552.7856685142815
 20
-114.2702879683923
 30
0.0
 10
551.102268771083
 20
-111.491672492044
 30
0.0
 10
550.2474419995496
 20
-109.9047784287356
 30
0.0
 10
550.0175716933113
 20
-109.4643941135917
 30
0.0
  0
LINE
  5
1D4
330
1BF
100
AcDbEntity
  8
0
  6
Continuous
 62
     0
370
    30
100
AcDbLine
 10
548.208852
 20
-65.119948
 30
0.0
 11
552.168017
 21
-63.93455
 31
0.0
  0
SPLINE
  5
1D5
330
1BF
100
AcDbEntity
  8
0
  6
Continuous
 62
     0
370
     0
100
AcDbSpline
210
0.0
220
0.0
230
1.0
 70
     8
 71
     3
 72
    14
 73
    10
 74
     0
 42
0.000000001
 43
0.0
 40
0.0
 40
0.0
 40
0.0
 40
0.0
 40
4.985091455020042
 40
9.970147469987424
 40
14.95499429598457
 40
19.93965986576175
 40
24.92412306109084
 40
29.90843907769889
 40
34.89265281904023
 40
34.89265281904023
 40
34.89265281904023
 40
34.89265281904023
 10
568.3630400033724
 20
-149.0551017621513
 30
0.0
 10
568.5713738984941
 20
-147.5726586992467
 30
0.0
 10
568.7931353618353
 20
-144.4386261313085
 30
0.0
 10
568.5987096086592
 20
-139.4860642925623
 30
0.0
 10
567.8654232187378
 20
-134.5152954330179
 30
0.0
 10
566.6300219657887
 20
-129.7761841007318
 30
0.0
 10
564.9485395877061
 20
-125.510933521554
 30
0.0
 10
562.9059556465731
 20
-121.9464707933539
 30
0.0
 10
561.3694046123462
 20
-120.1615178014044
 30
0.0
 10
560.5814246256714
 20
-119.4442706677773
 30
0.0
  0
SPLINE
  5
1D6
330
1BF
100
AcDbEntity
  8
0
  6
Continuous
 62
     0
370
     0
100
AcDbSpline
210
0.0
220
0.0
230
1.0
 70
     8
 71
     3
 72
    10
 73
     6
 74
     0
 42
0.000000001
 43
0.0
 40
0.0
 40
0.0
 40
0.0
 40
0.0
 40
4.984213741341138
 40
9.96852975794907
 40
12.79397270031392
 40
12.79397270031392
 40
12.79397270031392
 40
12.79397270031392
 10
560.5814246256714
 20
-119.4442706677773
 30
0.0
 10
559.7934446389966
 20
-118.7270235341501
 30
0.0
 10
558.1660625190225
 20
-117.6320531470651
 30
0.0
 10
556.0753326568308
 20
-117.188014637992
 30
0.0
 10
554.8479002415236
 20
-117.3825808302521
 30
0.0
 10
554.4138499314129
 20
-117.5126729416633
 30
0.0
  0
SPLINE
  5
1D7
330
1BF
100
AcDbEntity
  8
0
  6
Continuous
 62
     0
370
     0
100
AcDbSpline
210
0.0
220
0.0
230
1.0
 70
     8
 71
     3
 72
     8
 73
     4
 74
     0
 42
0.000000001
 43
0.0
 40
0.0
 40
0.0
 40
0.0
 40
0.0
 40
3.653222443064019
 40
3.653222443064019
 40
3.653222443064019
 40
3.653222443064019
 10
546.7857312292415
 20
-130.7912471339233
 30
0.0
 10
546.6376482412932
 20
-131.8870553028304
 30
0.0
 10
546.6004629904046
 20
-133.0763613710729
 30
0.0
 10
546.5097687628742
 20
-134.2193097059787
 30
0.0
  0
LINE
  5
1D8
330
1BF
100
AcDbEntity
  8
0
  6
Continuous
 62
     0
370
     0
100
AcDbLine
 10
546.509769
 20
-134.21931
 30
0.0
 11
542.454407
 21
-184.548856
 31
0.0
  0
SPLINE
  5
1D9
330
1BF
100
AcDbEntity
  8
0
  6
Continuous
 62
     0
370
     0
100
AcDbSpline
210
0.0
220
0.0
230
1.0
 70
     8
 71
     3
 72
    14
 73
    10
 74
     0
 42
0.000000001
 43
0.0
 40
0.0
 40
0.0
 40
0.0
 40
0.0
 40
3.357648776851581
 40
6.714049718875667
 40
10.06778576981573
 40
13.41760088284698
 40
16.76445100049494
 40
20.11421126265042
 40
23.46800661548595
 40
23.46800661548595
 40
23.46800661548595
 40
23.46800661548595
 10
542.4544070478045
 20
-184.5488559910648
 30
0.0
 10
542.3720547881757
 20
-185.6000208990562
 30
0.0
 10
542.2539677089774
 20
-187.737594968688
 30
0.0
 10
542.277179805152
 20
-191.038018418801
 30
0.0
 10
542.5715032475912
 20
-194.3940362256526
 30
0.0
 10
543.2310346274503
 20
-197.6825603726713
 30
0.0
 10
544.3096022541662
 20
-200.6232988336231
 30
0.0
 10
545.7070736346642
 20
-202.944682783716
 30
0.0
 10
546.7468130815755
 20
-204.0767838680192
 30
0.0
 10
547.2770316496358
 20
-204.5594083314337
 30
0.0
  0
SPLINE
  5
1DA
330
1BF
100
AcDbEntity
  8
0
  6
Continuous
 62
     0
370
     0
100
AcDbSpline
210
0.0
220
0.0
230
1.0
 70
     8
 71
     3
 72
    44
 73
    40
 74
     0
 42
0.000000001
 43
0.0
 40
0.0000895826433412
 40
0.0000895826433412
 40
0.0000895826433412
 40
0.0000895826433412
 40
1.455705552509048
 40
2.911589491459075
 40
5.824081540223966
 40
8.7385626186377
 40
11.65580985318472
 40
14.57578990660517
 40
16.0365960848436
 40
17.49778930286209
 40
20.42097080379455
 40
23.34485787360984
 40
29.19406413397097
 40
35.04490031175023
 40
40.89750583142025
 40
46.75217532136676
 40
52.60924050520428
 40
58.46889873474503
 40
61.39961580463802
 40
64.33071643401544
 40
67.26188709628178
 40
67.99463745972156
 40
68.72736871187065
 40
69.46006464947662
 40
70.19267755734444
 40
70.92522637030976
 40
71.65766554638013
 40
72.3898692175285
 40
73.12154096575792
 40
73.85284092929396
 40
74.58380294679615
 40
76.04479523318956
 40
78.96357029084776
 40
81.87875183543906
 40
84.79115651387711
 40
87.70151606666711
 40
90.61036732582744
 40
92.06431495852438
 40
93.51784755801623
 40
93.51784755801623
 40
93.51784755801623
 40
93.51784755801623
 10
547.2770316496358
 20
-204.5594083314337
 30
0.0
 10
547.2732818438667
 20
-204.137591209221
 30
0.0
 10
547.2657819227729
 20
-203.2938792035417
 30
0.0
 10
547.2755351041977
 20
-201.5991741040885
 30
0.0
 10
547.3434257302226
 20
-199.4655143073815
 30
0.0
 10
547.5228252902923
 20
-196.8814099694199
 30
0.0
 10
547.7819948469156
 20
-194.2790735685811
 30
0.0
 10
548.0432232895006
 20
-192.100870899864
 30
0.0
 10
548.2674173180743
 20
-190.3548372413779
 30
0.0
 10
548.4936177898442
 20
-188.6072723377961
 30
0.0
 10
548.7677911579913
 20
-186.4226998141825
 30
0.0
 10
549.205301411921
 20
-182.9264270806813
 30
0.0
 10
549.7399547922738
 20
-178.5572506158161
 30
0.0
 10
550.3809709467407
 20
-173.3149902236866
 30
0.0
 10
551.0301261990076
 20
-168.0711777520179
 30
0.0
 10
551.699201987354
 20
-162.823409503774
 30
0.0
 10
552.3998897917835
 20
-157.569411995004
 30
0.0
 10
553.0190782562087
 20
-153.1849634388491
 30
0.0
 10
553.5417211109441
 20
-149.6733232611626
 30
0.0
 10
553.9484116487179
 20
-147.0377604207862
 30
0.0
 10
554.2654723486694
 20
-145.0603800084484
 30
0.0
 10
554.4823901341833
 20
-143.7420285719049
 30
0.0
 10
554.5919255214901
 20
-143.0829068604066
 30
0.0
 10
554.702566239105
 20
-142.4238483400393
 30
0.0
 10
554.8143544016456
 20
-141.7648047450895
 30
0.0
 10
554.9272975244121
 20
-141.1058788105256
 30
0.0
 10
555.0414000888043
 20
-140.4470670428528
 30
0.0
 10
555.1566537247793
 20
-139.7884955655318
 30
0.0
 10
555.273146018717
 20
-139.1297816179503
 30
0.0
 10
555.390824506844
 20
-138.471321640642
 30
0.0
 10
555.5493625544435
 20
-137.5937657753145
 30
0.0
 10
555.8309556713798
 20
-136.0591353841328
 30
0.0
 10
556.2485254884723
 20
-133.8677792826969
 30
0.0
 10
556.7645470289033
 20
-131.240436595971
 30
0.0
 10
557.3268664344522
 20
-128.6144917167768
 30
0.0
 10
557.9410992704836
 20
-125.9902166895905
 30
0.0
 10
558.495931489673
 20
-123.8049335890798
 30
0.0
 10
558.9608687770906
 20
-122.0580799460025
 30
0.0
 10
559.1993951815699
 20
-121.1851628821288
 30
0.0
 10
559.3186414533949
 20
-120.7487666578803
 30
0.0
  0
SPLINE
  5
1DB
330
1BF
100
AcDbEntity
  8
0
  6
Continuous
 62
     0
370
     0
100
AcDbSpline
210
0.0
220
0.0
230
1.0
 70
     8
 71
     3
 72
    14
 73
    10
 74
     0
 42
0.000000001
 43
0.0
 40
0.0
 40
0.0
 40
0.0
 40
0.0
 40
4.690236058045249
 40
9.379816625478325
 40
14.07059875641934
 40
18.76087985972481
 40
23.45161344182406
 40
28.14254872603605
 40
32.83347914028535
 40
32.83347914028535
 40
32.83347914028535
 40
32.83347914028535
 10
559.3186410744165
 20
-120.748766312924
 30
0.0
 10
558.5771381082043
 20
-120.0738237106486
 30
0.0
 10
557.0418755521998
 20
-119.0450316355714
 30
0.0
 10
554.7250729136766
 20
-118.5630929149391
 30
0.0
 10
552.5109614510181
 20
-119.154318332364
 30
0.0
 10
550.5134419370511
 20
-120.7793885289472
 30
0.0
 10
548.8287833382241
 20
-123.344068381082
 30
0.0
 10
547.5427666548798
 20
-126.7121657515797
 30
0.0
 10
546.9758776007889
 20
-129.3841716141979
 30
0.0
 10
546.7857312292425
 20
-130.7912471339133
 30
0.0
  0
SPLINE
  5
1DC
330
1BF
100
AcDbEntity
  8
0
  6
Continuous
 62
     0
370
     0
100
AcDbSpline
210
0.0
220
0.0
230
1.0
 70
     8
 71
     3
 72
     8
 73
     4
 74
     0
 42
0.000000001
 43
0.0
 40
0.0
 40
0.0
 40
0.0
 40
0.0
 40
3.653222443064009
 40
3.653222443064009
 40
3.653222443064009
 40
3.653222443064009
 10
566.4054203358331
 20
-148.6497790920012
 30
0.0
 10
566.2464401162085
 20
-149.7356682168599
 30
0.0
 10
565.9658968746953
 20
-150.7034612718823
 30
0.0
 10
565.7465635794126
 20
-151.7293177971223
 30
0.0
  0
LINE
  5
1DD
330
1BF
100
AcDbEntity
  8
0
  6
Continuous
 62
     0
370
     0
100
AcDbLine
 10
565.746564
 20
-151.729318
 30
0.0
 11
556.070304
 21
-196.942524
 31
0.0
  0
SPLINE
  5
1DE
330
1BF
100
AcDbEntity
  8
0
  6
Continuous
 62
     0
370
     0
100
AcDbSpline
210
0.0
220
0.0
230
1.0
 70
     8
 71
     3
 72
    14
 73
    10
 74
     0
 42
0.000000001
 43
0.0
 40
0.0
 40
0.0
 40
0.0
 40
0.0
 40
3.357648776850946
 40
6.714049718873458
 40
10.06778576981201
 40
13.41760088284155
 40
16.76445100048876
 40
20.114211262641
 40
23.4680066154798
 40
23.4680066154798
 40
23.4680066154798
 40
23.4680066154798
 10
556.0703035517961
 20
-196.9425244907725
 30
0.0
 10
555.867744557696
 20
-197.8842729958097
 30
0.0
 10
555.4133853769324
 20
-199.7157603563237
 30
0.0
 10
554.5573203957956
 20
-202.2158348457713
 30
0.0
 10
553.4772390659192
 20
-204.3208210273857
 30
0.0
 10
552.1353560788627
 20
-205.787587335164
 30
0.0
 10
550.5585159545694
 20
-206.311280147519
 30
0.0
 10
548.8949335799474
 20
-205.8463851705072
 30
0.0
 10
547.8072505971736
 20
-205.0420314389001
 30
0.0
 10
547.2770316496359
 20
-204.5594083314338
 30
0.0
  0
SPLINE
  5
1DF
330
1BF
100
AcDbEntity
  8
0
  6
Continuous
 62
     0
370
     0
100
AcDbSpline
210
0.0
220
0.0
230
1.0
 70
     8
 71
     3
 72
    14
 73
    10
 74
     0
 42
0.000000001
 43
0.0
 40
0.0
 40
0.0
 40
0.0
 40
0.0
 40
4.69023605813218
 40
9.379816625518114
 40
14.0705987563707
 40
18.76087985973196
 40
23.45161344181452
 40
28.14254872602785
 40
32.83347914028615
 40
32.83347914028615
 40
32.83347914028615
 40
32.83347914028615
 10
559.3186410743351
 20
-120.7487663128499
 30
0.0
 10
560.0601451934326
 20
-121.4237089856764
 30
0.0
 10
561.5020219422643
 20
-123.1048139497336
 30
0.0
 10
563.4053280101176
 20
-126.4641667903374
 30
0.0
 10
564.9578879992231
 20
-130.483949211563
 30
0.0
 10
566.0812533961026
 20
-134.9497587599631
 30
0.0
 10
566.7244091223481
 20
-139.6332971878942
 30
0.0
 10
566.8622751500751
 20
-144.2974627458894
 30
0.0
 10
566.6095593279515
 20
-147.2554401483059
 30
0.0
 10
566.4054203358348
 20
-148.6497790919918
 30
0.0
  0
ARC
  5
1E0
330
1BF
100
AcDbEntity
  8
0
  6
Continuous
 62
     0
370
     0
100
AcDbCircle
 10
548.314923
 20
-204.58108
 30
0.0
 40
1.038111519549216
100
AcDbArc
 50
178.804141
 51
226.435725
  0
ARC
  5
1E1
330
1BF
100
AcDbEntity
  8
0
  6
Continuous
 62
     0
370
     0
100
AcDbCircle
 10
561.184357
 20
-121.291375
 30
0.0
 40
1.943018515806856
100
AcDbArc
 50
108.077745
 51
163.783925
  0
SPLINE
  5
1E2
330
1BF
100
AcDbEntity
  8
0
  6
Continuous
 62
     0
370
     0
100
AcDbSpline
210
0.0
220
0.0
230
1.0
 70
     8
 71
     7
 72
    26
 73
    18
 74
     0
 42
0.000000001
 43
0.0
 40
-0.0000000000000264
 40
-0.0000000000000264
 40
-0.0000000000000264
 40
-0.0000000000000264
 40
-0.0000000000000264
 40
-0.0000000000000264
 40
-0.0000000000000264
 40
-0.0000000000000264
 40
0.3899999999999839
 40
0.3899999999999839
 40
0.3899999999999839
 40
0.3899999999999839
 40
0.3899999999999839
 40
0.6436379999999904
 40
0.6436379999999904
 40
0.6436379999999904
 40
0.6436379999999904
 40
0.6436379999999904
 40
0.7330439429248851
 40
0.7330439429248851
 40
0.7330439429248851
 40
0.7330439429248851
 40
0.7330439429248851
 40
0.7330439429248851
 40
0.7330439429248851
 40
0.7330439429248851
 10
563.6820549946418
 20
-170.9353840388897
 30
0.0
 10
563.7884232665513
 20
-170.9228407966282
 30
0.0
 10
563.8899581794637
 20
-170.9047186663131
 30
0.0
 10
563.9872760682739
 20
-170.8839281548964
 30
0.0
 10
564.0840431524348
 20
-170.8614937910115
 30
0.0
 10
564.1769268725952
 20
-170.8389310524859
 30
0.0
 10
564.3274677182047
 20
-170.8020312151061
 30
0.0
 10
564.4727930707928
 20
-170.7641724776507
 30
0.0
 10
564.5295316258962
 20
-170.7491241611716
 30
0.0
 10
564.5834673384159
 20
-170.7328001245149
 30
0.0
 10
564.6364567960146
 20
-170.7164328602254
 30
0.0
 10
564.7024457931022
 20
-170.6897594440029
 30
0.0
 10
564.7500881603248
 20
-170.6526728726387
 30
0.0
 10
564.7609974997492
 20
-170.6421961718708
 30
0.0
 10
564.7701995151515
 20
-170.6308474935744
 30
0.0
 10
564.7773677799746
 20
-170.6185611733358
 30
0.0
 10
564.7823756677673
 20
-170.60538261412
 30
0.0
 10
564.7852830414752
 20
-170.5914242143355
 30
0.0
  0
ARC
  5
1E3
330
1BF
100
AcDbEntity
  8
0
  6
Continuous
 62
     0
370
     0
100
AcDbCircle
 10
-336.459004
 20
61.622775
 30
0.0
 40
930.2448301376371
100
AcDbArc
 50
346.134253
 51
346.73804
  0
LINE
  5
1E4
330
1BF
100
AcDbEntity
  8
0
  6
Continuous
 62
     0
370
     0
100
AcDbLine
 10
568.977491
 20
-151.778716
 30
0.0
 11
567.700191
 21
-152.153474
 31
0.0
  0
LINE
  5
1E5
330
1BF
100
AcDbEntity
  8
0
  6
Continuous
 62
     0
370
     0
100
AcDbLine
 10
567.700191
 20
-152.153474
 30
0.0
 11
563.682055
 21
-170.935384
 31
0.0
  0
LINE
  5
1E6
330
1BF
100
AcDbEntity
  8
0
  6
Continuous
 62
     0
370
     0
100
AcDbLine
 10
563.682055
 20
-170.935384
 30
0.0
 11
558.003751
 21
-197.479851
 31
0.0
  0
SPLINE
  5
1E7
330
1BF
100
AcDbEntity
  8
0
  6
Continuous
 62
     0
370
     0
100
AcDbSpline
210
0.0
220
0.0
230
1.0
 70
     8
 71
     7
 72
    26
 73
    18
 74
     0
 42
0.000000001
 43
0.0
 40
0.0
 40
0.0
 40
0.0
 40
0.0
 40
0.0
 40
0.0
 40
0.0
 40
0.0
 40
0.4874999999999879
 40
0.4874999999999879
 40
0.4874999999999879
 40
0.4874999999999879
 40
0.4874999999999879
 40
0.7499999999999812
 40
0.7499999999999812
 40
0.7499999999999812
 40
0.7499999999999812
 40
0.7499999999999812
 40
0.7748940609718445
 40
0.7748940609718445
 40
0.7748940609718445
 40
0.7748940609718445
 40
0.7748940609718445
 40
0.7748940609718445
 40
0.7748940609718445
 40
0.7748940609718445
 10
558.00375084389
 20
-197.4798505641062
 30
0.0
 10
558.1455501456956
 20
-197.4631492632306
 30
0.0
 10
558.2849004347919
 20
-197.4443195799706
 30
0.0
 10
558.4211855878463
 20
-197.4229245567668
 30
0.0
 10
558.5535445093527
 20
-197.3983127122817
 30
0.0
 10
558.680544645203
 20
-197.3697334700647
 30
0.0
 10
558.86445186068
 20
-197.3173778791049
 30
0.0
 10
559.0170195099912
 20
-197.2471081883753
 30
0.0
 10
559.0656703053808
 20
-197.2199851917615
 30
0.0
 10
559.108402125678
 20
-197.190002296953
 30
0.0
 10
559.1435398187919
 20
-197.1566873534038
 30
0.0
 10
559.1713855029983
 20
-197.1165253418723
 30
0.0
 10
559.1864697205768
 20
-197.0729089740033
 30
0.0
 10
559.1876797506585
 20
-197.0691054075226
 30
0.0
 10
559.1887924814779
 20
-197.0652767665244
 30
0.0
 10
559.1898072682778
 20
-197.0614235360267
 30
0.0
 10
559.1907235639858
 20
-197.0575462380691
 30
0.0
 10
559.1915409238156
 20
-197.053645427692
 30
0.0
  0
SPLINE
  5
1E8
330
1BF
100
AcDbEntity
  8
0
  6
Continuous
 62
     0
370
     0
100
AcDbSpline
210
0.0
220
0.0
230
1.0
 70
     8
 71
     3
 72
     8
 73
     4
 74
     0
 42
0.000000001
 43
0.0
 40
0.0
 40
0.0
 40
0.0
 40
0.0
 40
3.675194520389781
 40
3.675194520389781
 40
3.675194520389781
 40
3.675194520389781
 10
567.7001874203308
 20
-152.1534697041216
 30
0.0
 10
567.9210095195887
 20
-151.1206230109123
 30
0.0
 10
568.2007701382943
 20
-150.1487075402191
 30
0.0
 10
568.3630194836505
 20
-149.0550827790544
 30
0.0
  0
SPLINE
  5
1E9
330
1BF
100
AcDbEntity
  8
0
  6
Continuous
 62
     0
370
    30
100
AcDbSpline
210
0.0
220
0.0
230
1.0
 70
     8
 71
     3
 72
    12
 73
     8
 74
     0
 42
0.000000001
 43
0.0
 40
0.0
 40
0.0
 40
0.0
 40
0.0
 40
4.881839710274229
 40
9.763678047156
 40
14.64551936117352
 40
19.52736359612886
 40
21.40111561480569
 40
21.40111561480569
 40
21.40111561480569
 40
21.40111561480569
 10
592.2373278241653
 20
-142.0284093751803
 30
0.0
 10
592.2775927534237
 20
-143.4223967068313
 30
0.0
 10
592.1855362868695
 20
-146.0587167125715
 30
0.0
 10
591.5354265096532
 20
-149.3260543771317
 30
0.0
 10
590.4055812387438
 20
-151.7552560217484
 30
0.0
 10
589.1708526473451
 20
-152.9223715100981
 30
0.0
 10
588.3430629938186
 20
-153.270382681332
 30
0.0
 10
588.1058207415216
 20
-153.3413674451492
 30
0.0
  0
ARC
  5
1EA
330
1BF
100
AcDbEntity
  8
0
  6
Continuous
 62
     0
370
     0
100
AcDbCircle
 10
546.731143
 20
-134.000042
 30
0.0
 40
0.3117281845293958
100
AcDbArc
 50
126.841319
 51
224.702638
  0
ARC
  5
1EB
330
1BF
100
AcDbEntity
  8
0
  6
Continuous
 62
     0
370
     0
100
AcDbCircle
 10
567.357826
 20
-149.018317
 30
0.0
 40
3.153794910816522
100
AcDbArc
 50
239.273022
 51
276.232101
  0
SPLINE
  5
1EC
330
1BF
100
AcDbEntity
  8
0
  6
Continuous
 62
     0
370
    30
100
AcDbSpline
210
0.0
220
0.0
230
1.0
 70
     8
 71
     3
 72
    12
 73
     8
 74
     0
 42
0.000000001
 43
0.0
 40
0.0
 40
0.0
 40
0.0
 40
0.0
 40
9.184421489724677
 40
18.36176712170833
 40
27.52966411077037
 40
36.69288242013261
 40
44.91846507041983
 40
44.91846507041983
 40
44.91846507041983
 40
44.91846507041983
 10
591.495455414138
 20
-139.1418173565397
 30
0.0
 10
590.2996613646428
 20
-136.7793177967141
 30
0.0
 10
587.3928246323126
 20
-131.6225041110311
 30
0.0
 10
582.1258618621134
 20
-123.8219432017103
 30
0.0
 10
576.7265923111645
 20
-117.1938111454632
 30
0.0
 10
572.3838509434157
 20
-113.2406447640096
 30
0.0
 10
570.6182464803164
 20
-112.6616340104947
 30
0.0
 10
570.0683419609189
 20
-112.826278824777
 30
0.0
  0
ARC
  5
1ED
330
1BF
100
AcDbEntity
  8
0
  6
Continuous
 62
     0
370
    30
100
AcDbCircle
 10
585.361485
 20
-142.256916
 30
0.0
 40
6.879638934385094
100
AcDbArc
 50
1.903421
 51
26.92345
  0
ARC
  5
1EE
330
1BF
100
AcDbEntity
  8
0
  6
Continuous
 62
     0
370
     0
100
AcDbCircle
 10
557.719637
 20
-194.754858
 30
0.0
 40
2.739763274002898
100
AcDbArc
 50
232.986112
 51
275.952283
  0
ARC
  5
1EF
330
1BF
100
AcDbEntity
  8
0
  6
Continuous
 62
     0
370
     0
100
AcDbCircle
 10
568.004751
 20
-145.855699
 30
0.0
 40
3.219401866163165
100
AcDbArc
 50
240.213779
 51
276.389713
  0
ARC
  5
1F0
330
1BF
100
AcDbEntity
  8
0
  6
Continuous
 62
     0
370
     0
100
AcDbCircle
 10
542.621005
 20
-184.348107
 30
0.0
 40
0.2608955690855634
100
AcDbArc
 50
180.133979
 51
230.305973
  0
ARC
  5
1F1
330
1BF
100
AcDbEntity
  8
0
  6
Continuous
 62
     0
370
     0
100
AcDbCircle
 10
547.071662
 20
-130.550976
 30
0.0
 40
0.3734376390606716
100
AcDbArc
 50
174.932083
 51
220.045567
  0
SPLINE
  5
1F2
330
1BF
100
AcDbEntity
  8
0
  6
Continuous
 62
     0
370
     0
100
AcDbSpline
210
0.0
220
0.0
230
1.0
 70
     8
 71
     7
 72
    31
 73
    23
 74
     0
 42
0.000000001
 43
0.0
 40
0.0
 40
0.0
 40
0.0
 40
0.0
 40
0.0
 40
0.0
 40
0.0
 40
0.0
 40
0.11
 40
0.11
 40
0.11
 40
0.11
 40
0.11
 40
0.55
 40
0.55
 40
0.55
 40
0.55
 40
0.55
 40
0.65
 40
0.65
 40
0.65
 40
0.65
 40
0.65
 40
0.6878041412826653
 40
0.6878041412826653
 40
0.6878041412826653
 40
0.6878041412826653
 40
0.6878041412826653
 40
0.6878041412826653
 40
0.6878041412826653
 40
0.6878041412826653
 10
558.0037508438899
 20
-197.4798505641061
 30
0.0
 10
557.9311764311559
 20
-197.8160506905871
 30
0.0
 10
557.8563674458333
 20
-198.1496554696457
 30
0.0
 10
557.7792106260304
 20
-198.4804569336974
 30
0.0
 10
557.6996853953912
 20
-198.8083436519699
 30
0.0
 10
557.6176555074651
 20
-199.1330561049463
 30
0.0
 10
557.1946033554369
 20
-200.7397056187953
 30
0.0
 10
556.7047181970344
 20
-202.2556350658344
 30
0.0
 10
556.263703354241
 20
-203.394308948977
 30
0.0
 10
555.7676057051096
 20
-204.4358574222175
 30
0.0
 10
555.2064283239281
 20
-205.3502605882974
 30
0.0
 10
554.435331096073
 20
-206.2475561408306
 30
0.0
 10
553.5815523607848
 20
-206.8240994125497
 30
0.0
 10
553.420744380036
 20
-206.9194978848123
 30
0.0
 10
553.2574004278802
 20
-207.0031745436152
 30
0.0
 10
553.0917405977821
 20
-207.0750354502266
 30
0.0
 10
552.8605433252382
 20
-207.1574303805769
 30
0.0
 10
552.6257945951257
 20
-207.2169158840939
 30
0.0
 10
552.5611411327778
 20
-207.2315106641925
 30
0.0
 10
552.4962463132395
 20
-207.2443809393129
 30
0.0
 10
552.4311231720071
 20
-207.2555277426242
 30
0.0
 10
552.3657848668608
 20
-207.2649542335013
 30
0.0
 10
552.3002446171464
 20
-207.2726657148839
 30
0.0
  0
LINE
  5
1F3
330
1BF
100
AcDbEntity
  8
0
  6
Continuous
 62
     0
370
     0
100
AcDbLine
 10
570.479424
 20
-151.368972
 30
0.0
 11
568.977425
 21
-151.77864
 31
0.0
  0
LINE
  5
1F4
330
1BF
100
AcDbEntity
  8
0
  6
Continuous
 62
     0
370
     0
100
AcDbLine
 10
570.48651
 20
-151.393299
 30
0.0
 11
570.479331
 21
-151.369061
 31
0.0
  0
LINE
  5
1F5
330
1BF
100
AcDbEntity
  8
0
  6
Continuous
 62
     0
370
     0
100
AcDbLine
 10
570.479331
 20
-151.369061
 30
0.0
 11
570.383327
 21
-151.051853
 31
0.0
  0
ARC
  5
1F6
330
1BF
100
AcDbEntity
  8
0
  6
Continuous
 62
     0
370
     0
100
AcDbCircle
 10
538.692635
 20
-160.866059
 30
0.0
 40
33.1755716912087
100
AcDbArc
 50
17.207092
 51
21.335325
  0
LINE
  5
1F7
330
1BF
100
AcDbEntity
  8
0
  6
Continuous
 62
     0
370
     0
100
AcDbLine
 10
569.594589
 20
-148.795937
 30
0.0
 11
568.36304
 21
-149.055102
 31
0.0
  0
ELLIPSE
  5
1F8
330
1BF
100
AcDbEntity
  8
0
  6
Continuous
 62
     0
370
    30
100
AcDbEllipse
 10
584.458737
 20
-131.479538
 30
0.0
 11
6.338854311238388
 21
-21.17141766677174
 31
0.0
210
0.0
220
0.0
230
1.0
 40
0.395646
 41
6.107801775801999
 42
8.842881409203729
  0
ELLIPSE
  5
1F9
330
1BF
100
AcDbEntity
  8
0
  6
Continuous
 62
     0
370
    30
100
AcDbEllipse
 10
584.458737
 20
-131.479538
 30
0.0
 11
6.338854311238388
 21
-21.17141766677174
 31
0.0
210
0.0
220
0.0
230
1.0
 40
0.395646
 41
2.559696102024143
 42
3.644144835990578
  0
ELLIPSE
  5
1FA
330
1BF
100
AcDbEntity
  8
0
  6
Continuous
 62
     0
370
    30
100
AcDbEllipse
 10
594.313675
 20
-128.528909
 30
0.0
 11
6.338854311238389
 21
-21.17141766677174
 31
0.0
210
0.0
220
0.0
230
1.0
 40
0.395646
 41
-0.0000000037342245
 42
2.559696102024148
  0
ELLIPSE
  5
1FB
330
1BF
100
AcDbEntity
  8
0
  6
Continuous
 62
     0
370
    30
100
AcDbEllipse
 10
594.313675
 20
-128.528909
 30
0.0
 11
6.338854311238389
 21
-21.17141766677174
 31
0.0
210
0.0
220
0.0
230
1.0
 40
0.395646
 41
2.559696102024148
 42
3.141592649855575
  0
ELLIPSE
  5
1FC
330
1BF
100
AcDbEntity
  8
0
  6
Continuous
 62
     0
370
     0
100
AcDbEllipse
 10
594.313675
 20
-128.528909
 30
0.0
 11
8.461366614548979
 21
-28.26048964569078
 31
0.0
210
0.0
220
0.0
230
1.0
 40
0.395646
 41
5.559170749110741
 42
8.842881409203732
  0
ELLIPSE
  5
1FD
330
1BF
100
AcDbEntity
  8
0
  6
Continuous
 62
     0
370
     0
100
AcDbEllipse
 10
594.313675
 20
-128.528909
 30
0.0
 11
8.461366614548979
 21
-28.26048964569078
 31
0.0
210
0.0
220
0.0
230
1.0
 40
0.395646
 41
2.559696102024146
 42
3.865607204190196
  0
ELLIPSE
  5
1FE
330
1BF
100
AcDbEntity
  8
0
  6
Continuous
 62
     0
370
     0
100
AcDbEllipse
 10
594.753582
 20
-128.397198
 30
0.0
 11
8.604779608015912
 21
-28.73948099561774
 31
0.0
210
0.0
220
0.0
230
1.0
 40
0.395646
 41
6.283183483386007
 42
8.84288140920373
  0
ELLIPSE
  5
1FF
330
1BF
100
AcDbEntity
  8
0
  6
Continuous
 62
     0
370
     0
100
AcDbEllipse
 10
594.753582
 20
-128.397198
 30
0.0
 11
8.604779608015912
 21
-28.73948099561774
 31
0.0
210
0.0
220
0.0
230
1.0
 40
0.395646
 41
2.559696102024145
 42
3.141592649855571
  0
ELLIPSE
  5
200
330
1BF
100
AcDbEntity
  8
0
  6
Continuous
 62
     0
370
     0
100
AcDbEllipse
 10
598.272839
 20
-127.34351
 30
0.0
 11
8.60477960801591
 21
-28.73948099561774
 31
0.0
210
0.0
220
0.0
230
1.0
 40
0.395646
 41
-0.0000000037342183
 42
2.559696102024145
  0
ELLIPSE
  5
201
330
1BF
100
AcDbEntity
  8
0
  6
Continuous
 62
     0
370
     0
100
AcDbEllipse
 10
598.272839
 20
-127.34351
 30
0.0
 11
8.60477960801591
 21
-28.73948099561774
 31
0.0
210
0.0
220
0.0
230
1.0
 40
0.395646
 41
2.559696102024145
 42
3.141592649855407
  0
SPLINE
  5
202
330
1BF
100
AcDbEntity
  8
0
  6
Continuous
 62
     0
370
    30
100
AcDbSpline
210
0.0
220
0.0
230
1.0
 70
     8
 71
     3
 72
    23
 73
    19
 74
     0
 42
0.000000001
 43
0.0
 40
45.31622295715804
 40
45.31622295715804
 40
45.31622295715804
 40
45.31622295715804
 40
49.3380435244566
 40
53.74417316006344
 40
57.50776065193873
 40
61.31785407872286
 40
65.40285674138433
 40
69.46149270394262
 40
73.59957481727122
 40
78.16410956094178
 40
83.13093794425914
 40
87.20170946479516
 40
91.06530307957414
 40
94.97742606774175
 40
98.93136923174852
 40
103.0606391199874
 40
107.2645876530161
 40
108.2650145409883
 40
108.2650145409883
 40
108.2650145409883
 40
108.2650145409883
 10
590.8959480058462
 20
-150.6207259540298
 30
0.0
 10
591.3697245314307
 20
-150.3605191199279
 30
0.0
 10
592.2739622681241
 20
-149.5517687463838
 30
0.0
 10
593.2580873486427
 20
-147.6272511391807
 30
0.0
 10
593.874848285873
 20
-145.1011889932912
 30
0.0
 10
594.1384318316384
 20
-142.1553573201109
 30
0.0
 10
594.0388286723396
 20
-138.7241468339856
 30
0.0
 10
593.5485806463712
 20
-134.9057331437095
 30
0.0
 10
592.6541243885124
 20
-130.7921015865194
 30
0.0
 10
591.2998054763418
 20
-126.4121630414814
 30
0.0
 10
589.5910895540867
 20
-122.3130241566486
 30
0.0
 10
587.7339748087503
 20
-118.8694903451576
 30
0.0
 10
585.9052604712916
 20
-116.1892681018494
 30
0.0
 10
584.040863771793
 20
-114.0998788083505
 30
0.0
 10
582.1499471964948
 20
-112.626946664672
 30
0.0
 10
580.3047986550846
 20
-111.8756651976934
 30
0.0
 10
579.0335803560054
 20
-111.9219997090811
 30
0.0
 10
578.3890760043905
 20
-112.1622478636291
 30
0.0
 10
578.2677000051308
 20
-112.2162599655009
 30
0.0
  0
SPLINE
  5
203
330
1BF
100
AcDbEntity
  8
0
  6
Continuous
 62
     0
370
     0
100
AcDbSpline
210
0.0
220
0.0
230
1.0
 70
     8
 71
     3
 72
    12
 73
     8
 74
     0
 42
0.000000001
 43
0.0
 40
10.77132338380989
 40
10.77132338380989
 40
10.77132338380989
 40
10.77132338380989
 40
12.9489303802004
 40
17.26830506602635
 40
21.5879308077578
 40
25.90692386251014
 40
30.2240322176519
 40
30.2240322176519
 40
30.2240322176519
 40
30.2240322176519
 10
573.0410000415038
 20
-157.8520407038878
 30
0.0
 10
573.0631401009523
 20
-157.8454118348388
 30
0.0
 10
573.067860723402
 20
-157.7468261252648
 30
0.0
 10
572.8096869782021
 20
-157.1987691956648
 30
0.0
 10
572.1876303312586
 20
-155.9397487377637
 30
0.0
 10
571.3667158662158
 20
-154.0607048755377
 30
0.0
 10
570.7679704073835
 20
-152.3598189452331
 30
0.0
 10
570.4865098229844
 20
-151.3932991710323
 30
0.0
  0
SPLINE
  5
204
330
1BF
100
AcDbEntity
  8
0
  6
Continuous
 62
     0
370
    30
100
AcDbSpline
210
0.0
220
0.0
230
1.0
 70
     8
 71
     3
 72
     9
 73
     5
 74
     0
 42
0.000000001
 43
0.0
 40
0.0
 40
0.0
 40
0.0
 40
0.0
 40
8.159342769096375
 40
17.41073140629722
 40
17.41073140629722
 40
17.41073140629722
 40
17.41073140629722
 10
589.6680598886716
 20
-98.6040292019605
 30
0.0
 10
590.7862142647128
 20
-98.26924682813912
 30
0.0
 10
593.4162720721979
 20
-98.39084895984728
 30
0.0
 10
596.207084957498
 20
-100.1783711854227
 30
0.0
 10
597.6856864243771
 20
-101.524246304592
 30
0.0
  0
SPLINE
  5
205
330
1BF
100
AcDbEntity
  8
0
  6
Continuous
 62
     0
370
    30
100
AcDbSpline
210
0.0
220
0.0
230
1.0
 70
     8
 71
     3
 72
    15
 73
    11
 74
     0
 42
0.000000001
 43
0.0
 40
0.0
 40
0.0
 40
0.0
 40
0.0
 40
5.2492275650128
 40
11.64535886131896
 40
23.08335666015784
 40
34.40318211335363
 40
45.64054630987076
 40
59.08437627065635
 40
70.09305047765666
 40
76.19949121909914
 40
76.19949121909914
 40
76.19949121909914
 40
76.19949121909914
 10
606.8776190197824
 20
-156.082991218622
 30
0.0
 10
607.5983902770915
 20
-155.8671878218144
 30
0.0
 10
609.0919717085981
 20
-155.0296657992752
 30
0.0
 10
611.3901741288962
 20
-151.9745001029107
 30
0.0
 10
612.977117212363
 20
-145.7618192245069
 30
0.0
 10
612.7585905577972
 20
-135.9148894899821
 30
0.0
 10
610.3938344422172
 20
-124.1972029858344
 30
0.0
 10
606.0932677617654
 20
-112.9661870001921
 30
0.0
 10
601.4155710516718
 20
-105.4139913818633
 30
0.0
 10
598.6637885306797
 20
-102.4145492869236
 30
0.0
 10
597.6856864625204
 20
-101.5242463393113
 30
0.0
  0
LINE
  5
206
330
1BF
100
AcDbEntity
  8
0
  6
Continuous
 62
     0
370
    30
100
AcDbLine
 10
586.148803
 20
-99.657717
 30
0.0
 11
589.66806
 21
-98.604029
 31
0.0
  0
LINE
  5
207
330
1BF
100
AcDbEntity
  8
0
  6
Continuous
 62
     0
370
    30
100
AcDbLine
 10
603.358362
 20
-157.136679
 30
0.0
 11
606.877619
 21
-156.082991
 31
0.0
  0
SPLINE
  5
208
330
1BF
100
AcDbEntity
  8
0
  6
Continuous
 62
     0
370
    30
100
AcDbSpline
210
0.0
220
0.0
230
1.0
 70
     8
 71
     3
 72
    10
 73
     6
 74
     0
 42
0.000000001
 43
0.0
 40
71.66560230151076
 40
71.66560230151076
 40
71.66560230151076
 40
71.66560230151076
 40
74.85862842352516
 40
85.94123475896292
 40
93.60954298199728
 40
93.60954298199728
 40
93.60954298199728
 40
93.60954298199728
 10
580.4871170311325
 20
-109.5993560729345
 30
0.0
 10
580.582386370951
 20
-108.8195418110922
 30
0.0
 10
581.1280330872031
 20
-105.48968504477
 30
0.0
 10
582.7838770443591
 20
-101.5891504391516
 30
0.0
 10
585.0979976486122
 20
-99.97233429039683
 30
0.0
 10
586.1488026437762
 20
-99.6577167400499
 30
0.0
  0
SPLINE
  5
209
330
1BF
100
AcDbEntity
  8
0
  6
Continuous
 62
     0
370
    30
100
AcDbSpline
210
0.0
220
0.0
230
1.0
 70
     8
 71
     3
 72
    10
 73
     6
 74
     0
 42
0.000000001
 43
0.0
 40
0.0
 40
0.0
 40
0.0
 40
0.0
 40
8.150383145429709
 40
21.42626983840599
 40
21.94790576065574
 40
21.94790576065574
 40
21.94790576065574
 40
21.94790576065574
 10
603.3583617748869
 20
-157.1366787567114
 30
0.0
 10
602.241948421366
 20
-157.4709398575585
 30
0.0
 10
599.004323604049
 20
-157.3194256483106
 30
0.0
 10
595.4406397101311
 20
-154.5973785078866
 30
0.0
 10
593.2457175315394
 20
-152.0406458353228
 30
0.0
 10
593.1628120549776
 20
-151.9427942904303
 30
0.0
  0
LINE
  5
20A
330
1BF
100
AcDbEntity
  8
0
  6
Continuous
 62
     0
370
    30
100
AcDbLine
 10
578.119883
 20
-110.308121
 30
0.0
 11
587.974821
 21
-107.357491
 31
0.0
  0
LINE
  5
20B
330
1BF
100
AcDbEntity
  8
0
  6
Continuous
 62
     0
370
    30
100
AcDbLine
 10
590.797591
 20
-152.650956
 30
0.0
 11
600.652529
 21
-149.700326
 31
0.0
  0
ARC
  5
20C
330
1BF
100
AcDbEntity
  8
0
  6
Continuous
 62
     0
370
    30
100
AcDbCircle
 10
586.582125
 20
-130.919963
 30
0.0
 40
20.46858221086334
100
AcDbArc
 50
113.966755
 51
127.976381
  0
SPLINE
  5
20D
330
1BF
100
AcDbEntity
  8
0
  6
Continuous
 62
     0
370
    30
100
AcDbSpline
210
0.0
220
0.0
230
1.0
 70
     8
 71
     3
 72
    16
 73
    12
 74
     0
 42
0.000000001
 43
0.0
 40
4.130753969567035
 40
4.130753969567035
 40
4.130753969567035
 40
4.130753969567035
 40
5.017557705370563
 40
6.716576034578733
 40
7.98704149796666
 40
8.994741281282101
 40
10.49040739348731
 40
12.07148967952727
 40
13.4778147647662
 40
14.84906685858647
 40
15.52427125149406
 40
15.52427125149406
 40
15.52427125149406
 40
15.52427125149406
 10
566.6615375679631
 20
-161.3843007581523
 30
0.0
 10
566.6799617901731
 20
-161.3546042574088
 30
0.0
 10
566.7556810829416
 20
-161.2390952086946
 30
0.0
 10
566.9793431774494
 20
-160.9626554085507
 30
0.0
 10
567.4338649769959
 20
-160.5337554904825
 30
0.0
 10
568.0550720578938
 20
-160.0504551450785
 30
0.0
 10
568.9380530193654
 20
-159.4864226196199
 30
0.0
 10
570.0747943923935
 20
-158.915734506981
 30
0.0
 10
571.2667667141466
 20
-158.427402628542
 30
0.0
 10
572.25652195634
 20
-158.0966561126879
 30
0.0
 10
572.839781912777
 20
-157.9071969804829
 30
0.0
 10
573.0414109389399
 20
-157.851921362359
 30
0.0
  0
SPLINE
  5
20E
330
1BF
100
AcDbEntity
  8
0
  6
Continuous
 62
     0
370
    30
100
AcDbSpline
210
0.0
220
0.0
230
1.0
 70
     8
 71
     3
 72
    10
 73
     6
 74
     0
 42
0.000000001
 43
0.0
 40
0.0
 40
0.0
 40
0.0
 40
0.0
 40
3.861604179631184
 40
5.554921402788229
 40
7.946208856217356
 40
7.946208856217356
 40
7.946208856217356
 40
7.946208856217356
 10
547.5980642210351
 20
-205.331999087517
 30
0.0
 10
548.2570313180886
 20
-205.9330831953011
 30
0.0
 10
549.2587205277968
 20
-206.665278705469
 30
0.0
 10
550.8714436322757
 20
-207.2619700141805
 30
0.0
 10
551.7814782480414
 20
-207.3337756352275
 30
0.0
 10
552.3002456478421
 20
-207.2726744748181
 30
0.0
  0
SPLINE
  5
20F
330
1BF
100
AcDbEntity
  8
0
  6
Continuous
 62
     0
370
    30
100
AcDbSpline
210
0.0
220
0.0
230
1.0
 70
     8
 71
     3
 72
    21
 73
    17
 74
     0
 42
0.000000001
 43
0.0
 40
0.0
 40
0.0
 40
0.0
 40
0.0
 40
0.708760169496099
 40
1.537959271331065
 40
2.435355106891056
 40
3.402225682209715
 40
3.78924040251135
 40
4.666517635011212
 40
5.490114961008169
 40
6.738086704553957
 40
8.162047362328892
 40
10.13618081004575
 40
12.59576592854609
 40
14.04124420428756
 40
15.88850633433141
 40
17.42841488972957
 40
17.42841488972957
 40
17.42841488972957
 40
17.42841488972957
 10
552.3005944487697
 20
-207.2726245323806
 30
0.0
 10
552.5180930913168
 20
-207.2470071892615
 30
0.0
 10
552.9714488267139
 20
-207.1718775419009
 30
0.0
 10
553.6027041632269
 20
-206.993401000663
 30
0.0
 10
554.2045392963837
 20
-206.7361074755652
 30
0.0
 10
554.6422405797359
 20
-206.4752920165255
 30
0.0
 10
555.0414544866687
 20
-206.1864330869043
 30
0.0
 10
555.3867525717312
 20
-205.8912161711768
 30
0.0
 10
555.8336722442718
 20
-205.4291630902736
 30
0.0
 10
556.3152238968219
 20
-204.8196451170866
 30
0.0
 10
556.8896294839602
 20
-203.9132947234023
 30
0.0
 10
557.525735932992
 20
-202.6359339435801
 30
0.0
 10
558.0686493346844
 20
-201.2127393138018
 30
0.0
 10
558.5338685031188
 20
-199.7300325125476
 30
0.0
 10
558.8825054567393
 20
-198.4311232813174
 30
0.0
 10
559.1006280991357
 20
-197.4874421920443
 30
0.0
 10
559.191539624768
 20
-197.0536517213148
 30
0.0
  0
ARC
  5
210
330
1BF
100
AcDbEntity
  8
0
  6
Continuous
 62
     0
370
    30
100
AcDbCircle
 10
-9972.132643
 20
2042.943861
 30
0.0
 40
10766.91125107505
100
AcDbArc
 50
347.992216
 51
348.136145
  0
SPLINE
  5
211
330
1BF
100
AcDbEntity
  8
0
  6
Continuous
 62
     0
370
    30
100
AcDbSpline
210
0.0
220
0.0
230
1.0
 70
     8
 71
     3
 72
    18
 73
    14
 74
     0
 42
0.000000001
 43
0.0
 40
0.0
 40
0.0
 40
0.0
 40
0.0
 40
1.194148460941898
 40
2.353224001431157
 40
3.724542222537491
 40
6.460419460515302
 40
7.82588419437174
 40
9.139545856656477
 40
10.46314041294777
 40
10.72863786845573
 40
10.88447812536057
 40
10.96874889522923
 40
11.01653296980049
 40
11.01653296980049
 40
11.01653296980049
 40
11.01653296980049
 10
564.7843712305846
 20
-170.5954150088435
 30
0.0
 10
564.8666500162634
 20
-170.2649745585091
 30
0.0
 10
564.9673749475766
 20
-169.585338189228
 30
0.0
 10
565.1905490503797
 20
-168.5532007932179
 30
0.0
 10
565.4743637249072
 20
-167.073862702106
 30
0.0
 10
565.7860318738542
 20
-165.549070625554
 30
0.0
 10
566.0958137504826
 20
-164.0375868572672
 30
0.0
 10
566.3303526953678
 20
-162.9114820928098
 30
0.0
 10
566.5028213335504
 20
-162.0966745447229
 30
0.0
 10
566.6188619500128
 20
-161.5711085591679
 30
0.0
 10
566.6528866847888
 20
-161.4197617674105
 30
0.0
 10
566.67680951345
 20
-161.3157933011281
 30
0.0
 10
566.6837569929885
 20
-161.2861579011529
 30
0.0
 10
566.6851336232883
 20
-161.2803951157094
 30
0.0
  0
SPLINE
  5
212
330
1BF
100
AcDbEntity
  8
0
  6
Continuous
 62
     0
370
    30
100
AcDbSpline
210
0.0
220
0.0
230
1.0
 70
     8
 71
     3
 72
    19
 73
    15
 74
     0
 42
0.000000001
 43
0.0
 40
0.0
 40
0.0
 40
0.0
 40
0.0
 40
0.3074274037203105
 40
0.4598322811502382
 40
0.6616222435668526
 40
1.448115600092458
 40
2.230028441157695
 40
3.415954427258201
 40
4.599763845002544
 40
5.951111158345092
 40
7.301514514551664
 40
8.672392667590385
 40
10.03073314279858
 40
10.96579099544409
 40
10.96579099544409
 40
10.96579099544409
 40
10.96579099544409
 10
566.6784184000342
 20
-161.3082450894183
 30
0.0
 10
566.6902238644059
 20
-161.259615486675
 30
0.0
 10
566.61400091647
 20
-161.5911445985138
 30
0.0
 10
566.5803753967757
 20
-161.745985118946
 30
0.0
 10
566.502832931896
 20
-162.099862393167
 30
0.0
 10
566.3986448025845
 20
-162.5894016903728
 30
0.0
 10
566.2340512097684
 20
-163.3724573181007
 30
0.0
 10
566.0517351007741
 20
-164.2526704966142
 30
0.0
 10
565.8382170826835
 20
-165.292468152192
 30
0.0
 10
565.6192822659332
 20
-166.3766423133515
 30
0.0
 10
565.3891762773552
 20
-167.5131514794213
 30
0.0
 10
565.169238635056
 20
-168.6599656071353
 30
0.0
 10
564.9509178618687
 20
-169.6735638614925
 30
0.0
 10
564.8487940661314
 20
-170.3366859788181
 30
0.0
 10
564.7843712265376
 20
-170.5954150250969
 30
0.0
  0
SPLINE
  5
213
330
1BF
100
AcDbEntity
  8
0
  6
Continuous
 62
     0
370
    30
100
AcDbSpline
210
0.0
220
0.0
230
1.0
 70
     8
 71
     3
 72
    15
 73
    11
 74
     0
 42
0.000000001
 43
0.0
 40
0.0
 40
0.0
 40
0.0
 40
0.0
 40
0.4378329797125953
 40
0.6615189408510598
 40
1.109771115987139
 40
2.009261296325697
 40
2.684147915488379
 40
3.133395806950671
 40
3.357872990138934
 40
3.668379766779082
 40
3.668379766779082
 40
3.668379766779082
 40
3.668379766779082
 10
546.4208343621938
 20
-133.9700184313631
 30
0.0
 10
546.4322631931864
 20
-133.8283302614639
 30
0.0
 10
546.4521651308148
 20
-133.6276144149503
 30
0.0
 10
546.4766349577908
 20
-133.2782605623134
 30
0.0
 10
546.509647729428
 20
-132.7823183403825
 30
0.0
 10
546.5453156711634
 20
-132.1408791865484
 30
0.0
 10
546.5874122307227
 20
-131.5020612085251
 30
0.0
 10
546.6275301846663
 20
-131.0792949242083
 30
0.0
 10
546.6613441992032
 20
-130.7760719237257
 30
0.0
 10
546.6879417377073
 20
-130.6024223463278
 30
0.0
 10
546.6996939068424
 20
-130.5179896319429
 30
0.0
  0
LINE
  5
214
330
1BF
100
AcDbEntity
  8
0
  6
Continuous
 62
     0
370
    30
100
AcDbLine
 10
542.36012
 20
-184.348718
 30
0.0
 11
546.420834
 21
-133.970018
 31
0.0
  0
SPLINE
  5
215
330
1BF
100
AcDbEntity
  8
0
  6
Continuous
 62
     0
370
    30
100
AcDbSpline
210
0.0
220
0.0
230
1.0
 70
     8
 71
     3
 72
    11
 73
     7
 74
     0
 42
0.000000001
 43
0.0
 40
0.0
 40
0.0
 40
0.0
 40
0.0
 40
4.443442823197925
 40
9.877885274922457
 40
16.83396834528216
 40
21.79806849106126
 40
21.79806849106126
 40
21.79806849106126
 40
21.79806849106126
 10
546.6996743340758
 20
-130.5180600696536
 30
0.0
 10
546.8861466793136
 20
-129.1774655361726
 30
0.0
 10
547.4631060943364
 20
-126.3212506202102
 30
0.0
 10
549.0327925402835
 20
-122.1548727104392
 30
0.0
 10
551.3676469532033
 20
-118.9926528894662
 30
0.0
 10
553.4823434294449
 20
-117.7915186025619
 30
0.0
 10
554.4150217534427
 20
-117.5121015168491
 30
0.0
  0
SPLINE
  5
216
330
1BF
100
AcDbEntity
  8
0
  6
Continuous
 62
     0
370
    30
100
AcDbSpline
210
0.0
220
0.0
230
1.0
 70
     8
 71
     3
 72
    14
 73
    10
 74
     0
 42
0.000000001
 43
0.0
 40
0.0
 40
0.0
 40
0.0
 40
0.0
 40
3.676335419967555
 40
7.77333736100956
 40
12.22388029846006
 40
14.43014685840036
 40
17.3067235746776
 40
21.97635533032012
 40
24.401178049492
 40
24.401178049492
 40
24.401178049492
 40
24.401178049492
 10
542.360072675811
 20
-184.349202418969
 30
0.0
 10
542.2725327072253
 20
-185.5019016238004
 30
0.0
 10
542.1359188867068
 20
-187.9850503133994
 30
0.0
 10
542.2110239121382
 20
-192.0123676621635
 30
0.0
 10
542.666717996954
 20
-195.6025978569364
 30
0.0
 10
543.438457350559
 20
-198.6164075590754
 30
0.0
 10
544.520456321276
 20
-201.4411943994635
 30
0.0
 10
546.0065113801468
 20
-203.7378515989504
 30
0.0
 10
547.1848491687781
 20
-204.9566742928328
 30
0.0
 10
547.5994931319233
 20
-205.3332997302771
 30
0.0
  0
LINE
  5
217
330
1BF
100
AcDbEntity
  8
0
  6
Continuous
 62
     0
370
    30
100
AcDbLine
 10
588.105874
 20
-153.341545
 30
0.0
 11
573.040975
 21
-157.85207
 31
0.0
  0
LINE
  5
218
330
1BF
100
AcDbEntity
  8
0
  6
Continuous
 62
     0
370
    30
100
AcDbLine
 10
554.415687
 20
-117.511886
 30
0.0
 11
570.072531
 21
-112.824129
 31
0.0
  0
ENDBLK
  5
21A
330
1BF
100
AcDbEntity
  8
0
100
AcDbBlockEnd
  0
ENDSEC
  0
SECTION
  2
ENTITIES
  0
INSERT
  5
C6
330
1F
100
AcDbEntity
  8
0
  6
Continuous
 62
     7
370
     0
100
AcDbBlockReference
  2
a
 10
79.739868
 20
74.678719
 30
0.0
  0
INSERT
  5
11F
330
1F
100
AcDbEntity
  8
0
  6
Continuous
 62
     7
370
     0
100
AcDbBlockReference
  2
b
 10
-54.487717
 20
0.000015
 30
0.0
  0
INSERT
  5
16E
330
1F
100
AcDbEntity
  8
0
  6
Continuous
 62
     7
370
     0
100
AcDbBlockReference
  2
c
 10
190.862366
 20
0.000015
 30
0.0
  0
INSERT
  5
1BE
330
1F
100
AcDbEntity
  8
0
  6
Continuous
 62
     7
370
     0
100
AcDbBlockReference
  2
d
 10
0.0
 20
-67.180038
 30
0.0
  0
INSERT
  5
21B
330
1F
100
AcDbEntity
  8
0
  6
Continuous
 62
     7
370
     0
100
AcDbBlockReference
  2
e
 10
377.804504
 20
-225.492554
 30
0.0
  0
ENDSEC
  0
SECTION
  2
OBJECTS
  0
DICTIONARY
  5
C
330
0
100
AcDbDictionary
281
     1
  3
ACAD_GROUP
350
D
  3
ACAD_LAYOUT
350
1A
  3
ACAD_MATERIAL
350
43
  3
ACAD_MLEADERSTYLE
350
6B
  3
ACAD_MLINESTYLE
350
17
  3
ACAD_PLOTSETTINGS
350
19
  3
ACAD_PLOTSTYLENAME
350
E
  3
ACAD_SCALELIST
350
47
  3
ACAD_TABLESTYLE
350
69
  3
ACAD_VISUALSTYLE
350
2A
  3
AcDbVariableDictionary
350
21C
  0
DICTIONARY
  5
227
330
8
100
AcDbDictionary
280
     1
281
     1
  3
ACAD_XREC_ROUNDTRIP
360
228
  0
DICTIONARY
  5
D
102
{ACAD_REACTORS
330
C
102
}
330
C
100
AcDbDictionary
281
     1
  0
DICTIONARY
  5
1A
102
{ACAD_REACTORS
330
C
102
}
330
C
100
AcDbDictionary
281
     1
  3
Layout1
350
1E
  3
Layout2
350
26
  3
Model
350
22
  0
DICTIONARY
  5
43
102
{ACAD_REACTORS
330
C
102
}
330
C
100
AcDbDictionary
281
     1
  3
ByBlock
350
45
  3
ByLayer
350
44
  3
Global
350
46
  0
DICTIONARY
  5
6B
102
{ACAD_REACTORS
330
C
102
}
330
C
100
AcDbDictionary
281
     1
  3
Standard
350
6C
  0
DICTIONARY
  5
17
102
{ACAD_REACTORS
330
C
102
}
330
C
100
AcDbDictionary
281
     1
  3
Standard
350
18
  0
DICTIONARY
  5
19
102
{ACAD_REACTORS
330
C
102
}
330
C
100
AcDbDictionary
281
     1
  0
ACDBDICTIONARYWDFLT
  5
E
102
{ACAD_REACTORS
330
C
102
}
330
C
100
AcDbDictionary
281
     1
  3
Normal
350
F
100
AcDbDictionaryWithDefault
340
F
  0
DICTIONARY
  5
47
102
{ACAD_REACTORS
330
C
102
}
330
C
100
AcDbDictionary
281
     1
  3
A0
350
48
  3
A1
350
49
  3
A2
350
4A
  3
A3
350
4B
  3
A4
350
4C
  3
A5
350
4D
  3
A6
350
4E
  3
A7
350
4F
  3
A8
350
50
  3
A9
350
51
  3
B0
350
52
  3
B1
350
53
  3
B2
350
54
  3
B3
350
55
  3
B4
350
56
  3
B5
350
57
  3
B6
350
58
  3
B7
350
59
  3
B8
350
5A
  3
B9
350
5B
  3
C0
350
5C
  3
C1
350
5D
  3
C2
350
5E
  3
C3
350
5F
  3
C4
350
60
  3
C5
350
61
  3
C6
350
62
  3
C7
350
63
  3
C8
350
64
  3
C9
350
65
  3
D0
350
66
  3
D1
350
67
  3
D2
350
68
  0
DICTIONARY
  5
69
102
{ACAD_REACTORS
330
C
102
}
330
C
100
AcDbDictionary
281
     1
  3
Standard
350
6A
  0
DICTIONARY
  5
2A
102
{ACAD_REACTORS
330
C
102
}
330
C
100
AcDbDictionary
281
     1
  3
2dWireframe
350
2F
  3
Basic
350
32
  3
Brighten
350
36
  3
ColorChange
350
3A
  3
Conceptual
350
34
  3
Dim
350
35
  3
EdgeColorOff
350
3D
  3
Facepattern
350
39
  3
Flat
350
2B
  3
FlatWithEdges
350
2C
  3
Gouraud
350
2D
  3
GouraudWithEdges
350
2E
  3
Hidden
350
31
  3
JitterOff
350
3B
  3
Linepattern
350
38
  3
OverhangOff
350
3C
  3
Realistic
350
33
  3
Shaded
350
42
  3
Shaded with edges
350
41
  3
Shades of Gray
350
3E
  3
Sketchy
350
3F
  3
Thicken
350
37
  3
Wireframe
350
30
  3
X-Ray
350
40
  0
DICTIONARY
  5
21C
102
{ACAD_REACTORS
330
C
102
}
330
C
100
AcDbDictionary
281
     1
  3
CANNOSCALE
350
229
  3
CENTEREXE
350
223
  3
CENTERLTYPEFILE
350
224
  3
CMLEADERSTYLE
350
21E
  3
CTABLESTYLE
350
21D
  3
DIMASSOC
350
225
  3
HIDETEXT
350
226
  3
MSLTSCALE
350
22A
  3
PSOLHEIGHT
350
220
  3
PSOLWIDTH
350
21F
  0
XRECORD
  5
228
102
{ACAD_REACTORS
330
227
102
}
330
227
100
AcDbXrecord
280
     1
102
VTR_0.000_0.000_1.000_1.000_VISUALSTYLE
340
2F
102
VTR_0.000_0.000_1.000_1.000_GRIDDISPLAY
 70
     3
102
VTR_0.000_0.000_1.000_1.000_GRIDMAJOR
 70
     5
102
VTR_0.000_0.000_1.000_1.000_DEFAULTLIGHTING
280
     1
102
VTR_0.000_0.000_1.000_1.000_DEFAULTLIGHTINGTYPE
 70
     1
102
VTR_0.000_0.000_1.000_1.000_BRIGHTNESS
141
0.0
102
VTR_0.000_0.000_1.000_1.000_CONTRAST
142
0.0
  0
LAYOUT
  5
1E
102
{ACAD_REACTORS
330
1A
102
}
330
1A
100
AcDbPlotSettings
  1

  2
none_device
  4

  6

 40
0.0
 41
0.0
 42
0.0
 43
0.0
 44
0.0
 45
0.0
 46
0.0
 47
0.0
 48
0.0
 49
0.0
140
0.0
141
0.0
142
1.0
143
1.0
 70
   688
 72
     1
 73
     0
 74
     5
  7

 75
    16
147
1.0
148
0.0
149
0.0
100
AcDbLayout
  1
Layout1
 70
     1
 71
     1
 10
0.0
 20
0.0
 11
420.0
 21
297.0
 12
0.0
 22
0.0
 32
0.0
 14
1.000000E+20
 24
1.000000E+20
 34
1.000000E+20
 15
-1.000000E+20
 25
-1.000000E+20
 35
-1.000000E+20
146
0.0
 13
0.0
 23
0.0
 33
0.0
 16
1.0
 26
0.0
 36
0.0
 17
0.0
 27
1.0
 37
0.0
 76
     0
330
1B
  0
LAYOUT
  5
26
102
{ACAD_REACTORS
330
1A
102
}
330
1A
100
AcDbPlotSettings
  1

  2
none_device
  4

  6

 40
0.0
 41
0.0
 42
0.0
 43
0.0
 44
0.0
 45
0.0
 46
0.0
 47
0.0
 48
0.0
 49
0.0
140
0.0
141
0.0
142
1.0
143
1.0
 70
   688
 72
     1
 73
     0
 74
     5
  7

 75
    16
147
1.0
148
0.0
149
0.0
100
AcDbLayout
  1
Layout2
 70
     1
 71
     2
 10
0.0
 20
0.0
 11
0.0
 21
0.0
 12
0.0
 22
0.0
 32
0.0
 14
0.0
 24
0.0
 34
0.0
 15
0.0
 25
0.0
 35
0.0
146
0.0
 13
0.0
 23
0.0
 33
0.0
 16
1.0
 26
0.0
 36
0.0
 17
0.0
 27
1.0
 37
0.0
 76
     0
330
23
  0
LAYOUT
  5
22
102
{ACAD_REACTORS
330
1A
102
}
330
1A
100
AcDbPlotSettings
  1

  2
none_device
  4
Letter_(8.50_x_11.00_Inches)
  6

 40
6.35
 41
6.35
 42
6.350005
 43
6.350005
 44
215.9
 45
279.4
 46
0.0
 47
0.0
 48
0.0
 49
0.0
140
0.0
141
0.0
142
1.0
143
1.0
 70
  1712
 72
     1
 73
     0
 74
     0
  7

 75
     0
147
1.0
148
0.0
149
0.0
100
AcDbLayout
  1
Model
 70
     1
 71
     0
 10
-272.991852
 20
-296.541931
 11
613.611267
 21
182.192673
 12
0.0
 22
0.0
 32
0.0
 14
-272.991852
 24
-296.541931
 34
0.0
 15
613.611267
 25
182.192673
 35
0.0
146
0.0
 13
0.0
 23
0.0
 33
0.0
 16
1.0
 26
0.0
 36
0.0
 17
0.0
 27
1.0
 37
0.0
 76
     0
330
1F
331
29
  0
MATERIAL
  5
45
102
{ACAD_REACTORS
330
43
102
}
102
{ACAD_XDICTIONARY
360
25D
102
}
330
43
100
AcDbMaterial
  1
ByBlock
  0
MATERIAL
  5
44
102
{ACAD_REACTORS
330
43
102
}
102
{ACAD_XDICTIONARY
360
25B
102
}
330
43
100
AcDbMaterial
  1
ByLayer
  0
MATERIAL
  5
46
102
{ACAD_REACTORS
330
43
102
}
102
{ACAD_XDICTIONARY
360
25F
102
}
330
43
100
AcDbMaterial
  1
Global
  0
MLEADERSTYLE
  5
6C
102
{ACAD_REACTORS
330
6B
102
}
102
{ACAD_XDICTIONARY
360
262
102
}
330
6B
100
AcDbMLeaderStyle
170
     2
171
     1
172
     0
 90
        2
 40
0.0
 41
0.0
173
     1
 91
-1056964608
340
14
 92
       -2
290
     1
 42
2.0
291
     1
 43
8.0
  3
Standard
341
0
 44
4.0
300

342
11
174
     1
178
     6
175
     1
176
     0
 93
-1056964608
 45
4.0
292
     0
297
     0
 46
4.0
343
0
 94
-1056964608
 47
1.0
 49
1.0
140
1.0
293
     1
141
0.0
294
     1
177
     0
142
1.0
295
     0
296
     0
143
3.75
1001
ACAD_MLEADERVER
1070
     2
  0
MLINESTYLE
  5
18
102
{ACAD_REACTORS
330
17
102
}
330
17
100
AcDbMlineStyle
  2
Standard
 70
     0
  3

 62
   256
 51
90.0
 52
90.0
 71
     2
 49
0.5
 62
   256
  6
BYLAYER
 49
-0.5
 62
   256
  6
BYLAYER
  0
ACDBPLACEHOLDER
  5
F
102
{ACAD_REACTORS
330
E
102
}
330
E
  0
SCALE
  5
48
102
{ACAD_REACTORS
330
47
102
}
330
47
100
AcDbScale
 70
     0
300
1:1
140
1.0
141
1.0
290
     1
  0
SCALE
  5
49
102
{ACAD_REACTORS
330
47
102
}
330
47
100
AcDbScale
 70
     0
300
1:2
140
1.0
141
2.0
290
     0
  0
SCALE
  5
4A
102
{ACAD_REACTORS
330
47
102
}
330
47
100
AcDbScale
 70
     0
300
1:4
140
1.0
141
4.0
290
     0
  0
SCALE
  5
4B
102
{ACAD_REACTORS
330
47
102
}
330
47
100
AcDbScale
 70
     0
300
1:5
140
1.0
141
5.0
290
     0
  0
SCALE
  5
4C
102
{ACAD_REACTORS
330
47
102
}
330
47
100
AcDbScale
 70
     0
300
1:8
140
1.0
141
8.0
290
     0
  0
SCALE
  5
4D
102
{ACAD_REACTORS
330
47
102
}
330
47
100
AcDbScale
 70
     0
300
1:10
140
1.0
141
10.0
290
     0
  0
SCALE
  5
4E
102
{ACAD_REACTORS
330
47
102
}
330
47
100
AcDbScale
 70
     0
300
1:16
140
1.0
141
16.0
290
     0
  0
SCALE
  5
4F
102
{ACAD_REACTORS
330
47
102
}
330
47
100
AcDbScale
 70
     0
300
1:20
140
1.0
141
20.0
290
     0
  0
SCALE
  5
50
102
{ACAD_REACTORS
330
47
102
}
330
47
100
AcDbScale
 70
     0
300
1:30
140
1.0
141
30.0
290
     0
  0
SCALE
  5
51
102
{ACAD_REACTORS
330
47
102
}
330
47
100
AcDbScale
 70
     0
300
1:40
140
1.0
141
40.0
290
     0
  0
SCALE
  5
52
102
{ACAD_REACTORS
330
47
102
}
330
47
100
AcDbScale
 70
     0
300
1:50
140
1.0
141
50.0
290
     0
  0
SCALE
  5
53
102
{ACAD_REACTORS
330
47
102
}
330
47
100
AcDbScale
 70
     0
300
1:100
140
1.0
141
100.0
290
     0
  0
SCALE
  5
54
102
{ACAD_REACTORS
330
47
102
}
330
47
100
AcDbScale
 70
     0
300
2:1
140
2.0
141
1.0
290
     0
  0
SCALE
  5
55
102
{ACAD_REACTORS
330
47
102
}
330
47
100
AcDbScale
 70
     0
300
4:1
140
4.0
141
1.0
290
     0
  0
SCALE
  5
56
102
{ACAD_REACTORS
330
47
102
}
330
47
100
AcDbScale
 70
     0
300
8:1
140
8.0
141
1.0
290
     0
  0
SCALE
  5
57
102
{ACAD_REACTORS
330
47
102
}
330
47
100
AcDbScale
 70
     0
300
10:1
140
10.0
141
1.0
290
     0
  0
SCALE
  5
58
102
{ACAD_REACTORS
330
47
102
}
330
47
100
AcDbScale
 70
     0
300
100:1
140
100.0
141
1.0
290
     0
  0
SCALE
  5
59
102
{ACAD_REACTORS
330
47
102
}
330
47
100
AcDbScale
 70
     0
300
1/128" = 1'-0"
140
0.007812
141
12.0
290
     0
  0
SCALE
  5
5A
102
{ACAD_REACTORS
330
47
102
}
330
47
100
AcDbScale
 70
     0
300
1/64" = 1'-0"
140
0.015625
141
12.0
290
     0
  0
SCALE
  5
5B
102
{ACAD_REACTORS
330
47
102
}
330
47
100
AcDbScale
 70
     0
300
1/32" = 1'-0"
140
0.03125
141
12.0
290
     0
  0
SCALE
  5
5C
102
{ACAD_REACTORS
330
47
102
}
330
47
100
AcDbScale
 70
     0
300
1/16" = 1'-0"
140
0.0625
141
12.0
290
     0
  0
SCALE
  5
5D
102
{ACAD_REACTORS
330
47
102
}
330
47
100
AcDbScale
 70
     0
300
3/32" = 1'-0"
140
0.09375
141
12.0
290
     0
  0
SCALE
  5
5E
102
{ACAD_REACTORS
330
47
102
}
330
47
100
AcDbScale
 70
     0
300
1/8" = 1'-0"
140
0.125
141
12.0
290
     0
  0
SCALE
  5
5F
102
{ACAD_REACTORS
330
47
102
}
330
47
100
AcDbScale
 70
     0
300
3/16" = 1'-0"
140
0.1875
141
12.0
290
     0
  0
SCALE
  5
60
102
{ACAD_REACTORS
330
47
102
}
330
47
100
AcDbScale
 70
     0
300
1/4" = 1'-0"
140
0.25
141
12.0
290
     0
  0
SCALE
  5
61
102
{ACAD_REACTORS
330
47
102
}
330
47
100
AcDbScale
 70
     0
300
3/8" = 1'-0"
140
0.375
141
12.0
290
     0
  0
SCALE
  5
62
102
{ACAD_REACTORS
330
47
102
}
330
47
100
AcDbScale
 70
     0
300
1/2" = 1'-0"
140
0.5
141
12.0
290
     0
  0
SCALE
  5
63
102
{ACAD_REACTORS
330
47
102
}
330
47
100
AcDbScale
 70
     0
300
3/4" = 1'-0"
140
0.75
141
12.0
290
     0
  0
SCALE
  5
64
102
{ACAD_REACTORS
330
47
102
}
330
47
100
AcDbScale
 70
     0
300
1" = 1'-0"
140
1.0
141
12.0
290
     0
  0
SCALE
  5
65
102
{ACAD_REACTORS
330
47
102
}
330
47
100
AcDbScale
 70
     0
300
1-1/2" = 1'-0"
140
1.5
141
12.0
290
     0
  0
SCALE
  5
66
102
{ACAD_REACTORS
330
47
102
}
330
47
100
AcDbScale
 70
     0
300
3" = 1'-0"
140
3.0
141
12.0
290
     0
  0
SCALE
  5
67
102
{ACAD_REACTORS
330
47
102
}
330
47
100
AcDbScale
 70
     0
300
6" = 1'-0"
140
6.0
141
12.0
290
     0
  0
SCALE
  5
68
102
{ACAD_REACTORS
330
47
102
}
330
47
100
AcDbScale
 70
     0
300
1'-0" = 1'-0"
140
12.0
141
12.0
290
     0
  0
TABLESTYLE
  5
6A
102
{ACAD_REACTORS
330
69
102
}
330
69
100
AcDbTableStyle
  3
Standard
 70
     0
 71
     0
 40
1.5
 41
1.5
280
     0
281
     0
  7
Standard
140
4.5
170
     2
 62
     0
 63
   257
283
     0
274
    -2
284
     1
 64
     0
275
    -2
285
     1
 65
     0
276
    -2
286
     1
 66
     0
277
    -2
287
     1
 67
     0
278
    -2
288
     1
 68
     0
279
    -2
289
     1
 69
     0
  7
Standard
140
6.0
170
     5
 62
     0
 63
   257
283
     0
274
    -2
284
     1
 64
     0
275
    -2
285
     1
 65
     0
276
    -2
286
     1
 66
     0
277
    -2
287
     1
 67
     0
278
    -2
288
     1
 68
     0
279
    -2
289
     1
 69
     0
  7
Standard
140
4.5
170
     5
 62
     0
 63
   257
283
     0
274
    -2
284
     1
 64
     0
275
    -2
285
     1
 65
     0
276
    -2
286
     1
 66
     0
277
    -2
287
     1
 67
     0
278
    -2
288
     1
 68
     0
279
    -2
289
     1
 69
     0
  0
VISUALSTYLE
  5
2F
102
{ACAD_REACTORS
330
2A
102
}
102
{ACAD_XDICTIONARY
360
233
102
}
330
2A
100
AcDbVisualStyle
  2
2dWireframe
 70
     4
 71
     0
 72
     2
 73
     0
 90
        0
 40
0.6
 41
30.0
 62
     5
 63
     7
 74
     1
 91
        4
 64
     7
 65
   257
 75
     1
175
     1
 42
1.0
 92
        0
 66
   257
 43
1.0
 76
     1
 77
     6
 78
     2
 67
     7
 79
     5
170
     0
171
     0
290
     0
174
     0
 93
        1
 44
0.0
173
     0
291
     0
 45
0.0
1001
ACAD
1000
AcDbSavedByObjectVersion
1070
     0
  0
VISUALSTYLE
  5
32
102
{ACAD_REACTORS
330
2A
102
}
102
{ACAD_XDICTIONARY
360
239
102
}
330
2A
100
AcDbVisualStyle
  2
Basic
 70
     7
 71
     1
 72
     0
 73
     1
 90
        0
 40
0.6
 41
30.0
 62
     5
 63
     7
 74
     0
 91
        4
 64
     7
 65
   257
 75
     1
175
     1
 42
1.0
 92
        8
 66
     7
 43
1.0
 76
     1
 77
     6
 78
     2
 67
     7
 79
     5
170
     0
171
     0
290
     0
174
     0
 93
        1
 44
0.0
173
     0
291
     1
 45
0.0
1001
ACAD
1000
AcDbSavedByObjectVersion
1070
     0
  0
VISUALSTYLE
  5
36
102
{ACAD_REACTORS
330
2A
102
}
102
{ACAD_XDICTIONARY
360
241
102
}
330
2A
100
AcDbVisualStyle
  2
Brighten
 70
    12
 71
     2
 72
     2
 73
     0
 90
        0
 40
0.6
 41
30.0
 62
     5
 63
     7
 74
     1
 91
        4
 64
     7
 65
   257
 75
     1
175
     1
 42
1.0
 92
        8
 66
     7
 43
1.0
 76
     1
 77
     6
 78
     2
 67
     7
 79
     5
170
     0
171
     0
290
     0
174
     0
 93
        1
 44
50.0
173
     0
291
     1
 45
0.0
1001
ACAD
1000
AcDbSavedByObjectVersion
1070
     0
  0
VISUALSTYLE
  5
3A
102
{ACAD_REACTORS
330
2A
102
}
102
{ACAD_XDICTIONARY
360
249
102
}
330
2A
100
AcDbVisualStyle
  2
ColorChange
 70
    16
 71
     2
 72
     2
 73
     3
 90
        0
 40
0.6
 41
30.0
 62
     5
 63
     8
 74
     1
 91
        4
 64
     7
 65
   257
 75
     1
175
     1
 42
1.0
 92
        8
 66
     8
 43
1.0
 76
     1
 77
     6
 78
     2
 67
     7
 79
     5
170
     0
171
     0
290
     0
174
     0
 93
        1
 44
0.0
173
     0
291
     1
 45
0.0
1001
ACAD
1000
AcDbSavedByObjectVersion
1070
     0
  0
VISUALSTYLE
  5
34
102
{ACAD_REACTORS
330
2A
102
}
102
{ACAD_XDICTIONARY
360
23D
102
}
330
2A
100
AcDbVisualStyle
  2
Conceptual
 70
     9
 71
     3
 72
     2
 73
     0
 90
        0
 40
0.6
 41
30.0
 62
     5
 63
     7
 74
     2
 91
        2
 64
     7
 65
   257
 75
     1
175
     1
 42
179.0
 92
        8
 66
     7
 43
1.0
 76
     1
 77
     6
 78
     2
 67
     7
 79
     3
170
     0
171
     0
290
     0
174
     0
 93
        1
 44
0.0
173
     0
291
     0
 45
0.0
1001
ACAD
1000
AcDbSavedByObjectVersion
1070
     0
  0
VISUALSTYLE
  5
35
102
{ACAD_REACTORS
330
2A
102
}
102
{ACAD_XDICTIONARY
360
23F
102
}
330
2A
100
AcDbVisualStyle
  2
Dim
 70
    11
 71
     2
 72
     2
 73
     0
 90
        0
 40
0.6
 41
30.0
 62
     5
 63
     7
 74
     1
 91
        4
 64
     7
 65
   257
 75
     1
175
     1
 42
1.0
 92
        8
 66
     7
 43
1.0
 76
     1
 77
     6
 78
     2
 67
     7
 79
     5
170
     0
171
     0
290
     0
174
     0
 93
        1
 44
-50.0
173
     0
291
     1
 45
0.0
1001
ACAD
1000
AcDbSavedByObjectVersion
1070
     0
  0
VISUALSTYLE
  5
3D
102
{ACAD_REACTORS
330
2A
102
}
102
{ACAD_XDICTIONARY
360
24F
102
}
330
2A
100
AcDbVisualStyle
  2
EdgeColorOff
 70
    22
 71
     2
 72
     2
 73
     0
 90
        0
 40
0.6
 41
30.0
 62
     5
 63
     7
 74
     1
 91
        4
 64
     7
 65
   257
 75
     1
175
     1
 42
1.0
 92
        8
 66
     7
 43
1.0
 76
     1
 77
     6
 78
     2
 67
     7
 79
     5
170
     0
171
     0
290
     0
174
     0
 93
        1
 44
0.0
173
     0
291
     1
 45
0.0
1001
ACAD
1000
AcDbSavedByObjectVersion
1070
     0
  0
VISUALSTYLE
  5
39
102
{ACAD_REACTORS
330
2A
102
}
102
{ACAD_XDICTIONARY
360
247
102
}
330
2A
100
AcDbVisualStyle
  2
Facepattern
 70
    15
 71
     2
 72
     2
 73
     0
 90
        0
 40
0.6
 41
30.0
 62
     5
 63
     7
 74
     1
 91
        4
 64
     7
 65
   257
 75
     1
175
     1
 42
1.0
 92
        8
 66
     7
 43
1.0
 76
     1
 77
     6
 78
     2
 67
     7
 79
     5
170
     0
171
     0
290
     0
174
     0
 93
        1
 44
0.0
173
     0
291
     1
 45
0.0
1001
ACAD
1000
AcDbSavedByObjectVersion
1070
     0
  0
VISUALSTYLE
  5
2B
102
{ACAD_REACTORS
330
2A
102
}
102
{ACAD_XDICTIONARY
360
22B
102
}
330
2A
100
AcDbVisualStyle
  2
Flat
 70
     0
 71
     2
 72
     1
 73
     1
 90
        2
 40
0.6
 41
30.0
 62
     5
 63
     7
 74
     0
 91
        0
 64
     7
 65
   257
 75
     1
175
     1
 42
1.0
 92
        8
 66
     7
 43
1.0
 76
     1
 77
     6
 78
     2
 67
     7
 79
     5
170
     0
171
     0
290
     0
174
     0
 93
       13
 44
0.0
173
     0
291
     1
 45
0.0
1001
ACAD
1000
AcDbSavedByObjectVersion
1070
     0
  0
VISUALSTYLE
  5
2C
102
{ACAD_REACTORS
330
2A
102
}
102
{ACAD_XDICTIONARY
360
22D
102
}
330
2A
100
AcDbVisualStyle
  2
FlatWithEdges
 70
     1
 71
     2
 72
     1
 73
     1
 90
        2
 40
0.6
 41
30.0
 62
     5
 63
     7
 74
     1
 91
        0
 64
     7
 65
   257
 75
     1
175
     1
 42
1.0
 92
        0
 66
   257
 43
1.0
 76
     1
 77
     6
 78
     2
 67
     7
 79
     5
170
     0
171
     0
290
     0
174
     0
 93
       13
 44
0.0
173
     0
291
     1
 45
0.0
1001
ACAD
1000
AcDbSavedByObjectVersion
1070
     0
  0
VISUALSTYLE
  5
2D
102
{ACAD_REACTORS
330
2A
102
}
102
{ACAD_XDICTIONARY
360
22F
102
}
330
2A
100
AcDbVisualStyle
  2
Gouraud
 70
     2
 71
     2
 72
     2
 73
     1
 90
        2
 40
0.6
 41
30.0
 62
     5
 63
     7
 74
     0
 91
        0
 64
     7
 65
   257
 75
     1
175
     1
 42
1.0
 92
        0
 66
     7
 43
1.0
 76
     1
 77
     6
 78
     2
 67
     7
 79
     5
170
     0
171
     0
290
     0
174
     0
 93
       13
 44
0.0
173
     0
291
     1
 45
0.0
1001
ACAD
1000
AcDbSavedByObjectVersion
1070
     0
  0
VISUALSTYLE
  5
2E
102
{ACAD_REACTORS
330
2A
102
}
102
{ACAD_XDICTIONARY
360
231
102
}
330
2A
100
AcDbVisualStyle
  2
GouraudWithEdges
 70
     3
 71
     2
 72
     2
 73
     1
 90
        2
 40
0.6
 41
30.0
 62
     5
 63
     7
 74
     1
 91
        0
 64
     7
 65
   257
 75
     1
175
     1
 42
1.0
 92
        0
 66
   257
 43
1.0
 76
     1
 77
     6
 78
     2
 67
     7
 79
     5
170
     0
171
     0
290
     0
174
     0
 93
       13
 44
0.0
173
     0
291
     1
 45
0.0
1001
ACAD
1000
AcDbSavedByObjectVersion
1070
     0
  0
VISUALSTYLE
  5
31
102
{ACAD_REACTORS
330
2A
102
}
102
{ACAD_XDICTIONARY
360
237
102
}
330
2A
100
AcDbVisualStyle
  2
Hidden
 70
     6
 71
     1
 72
     2
 73
     2
 90
        0
 40
0.6
 41
30.0
 62
     5
 63
     7
 74
     2
 91
        2
 64
     7
 65
   257
 75
     2
175
     1
 42
40.0
 92
        0
 66
   257
 43
1.0
 76
     1
 77
     6
 78
     2
 67
     7
 79
     3
170
     0
171
     0
290
     0
174
     0
 93
        1
 44
0.0
173
     0
291
     0
 45
0.0
1001
ACAD
1000
AcDbSavedByObjectVersion
1070
     0
  0
VISUALSTYLE
  5
3B
102
{ACAD_REACTORS
330
2A
102
}
102
{ACAD_XDICTIONARY
360
24B
102
}
330
2A
100
AcDbVisualStyle
  2
JitterOff
 70
    20
 71
     2
 72
     2
 73
     0
 90
        0
 40
0.6
 41
30.0
 62
     5
 63
     7
 74
     1
 91
        4
 64
     7
 65
   257
 75
     1
175
     1
 42
1.0
 92
       10
 66
     7
 43
1.0
 76
     1
 77
     6
 78
     2
 67
     7
 79
     5
170
     0
171
     0
290
     0
174
     0
 93
        1
 44
0.0
173
     0
291
     1
 45
0.0
1001
ACAD
1000
AcDbSavedByObjectVersion
1070
     0
  0
VISUALSTYLE
  5
38
102
{ACAD_REACTORS
330
2A
102
}
102
{ACAD_XDICTIONARY
360
245
102
}
330
2A
100
AcDbVisualStyle
  2
Linepattern
 70
    14
 71
     2
 72
     2
 73
     0
 90
        0
 40
0.6
 41
30.0
 62
     5
 63
     7
 74
     1
 91
        4
 64
     7
 65
   257
 75
     7
175
     7
 42
1.0
 92
        8
 66
     7
 43
1.0
 76
     1
 77
     6
 78
     2
 67
     7
 79
     5
170
     0
171
     0
290
     0
174
     0
 93
        1
 44
0.0
173
     0
291
     1
 45
0.0
1001
ACAD
1000
AcDbSavedByObjectVersion
1070
     0
  0
VISUALSTYLE
  5
3C
102
{ACAD_REACTORS
330
2A
102
}
102
{ACAD_XDICTIONARY
360
24D
102
}
330
2A
100
AcDbVisualStyle
  2
OverhangOff
 70
    21
 71
     2
 72
     2
 73
     0
 90
        0
 40
0.6
 41
30.0
 62
     5
 63
     7
 74
     1
 91
        4
 64
     7
 65
   257
 75
     1
175
     1
 42
1.0
 92
        9
 66
     7
 43
1.0
 76
     1
 77
     6
 78
     2
 67
     7
 79
     5
170
     0
171
     0
290
     0
174
     0
 93
        1
 44
0.0
173
     0
291
     1
 45
0.0
1001
ACAD
1000
AcDbSavedByObjectVersion
1070
     0
  0
VISUALSTYLE
  5
33
102
{ACAD_REACTORS
330
2A
102
}
102
{ACAD_XDICTIONARY
360
23B
102
}
330
2A
100
AcDbVisualStyle
  2
Realistic
 70
     8
 71
     2
 72
     3
 73
     0
 90
        2
 40
0.6
 41
30.0
 62
     5
 63
     7
 74
     0
 91
        0
 64
     7
 65
   257
 75
     1
175
     1
 42
1.0
 92
        8
 66
   257
 43
1.0
 76
     1
 77
     6
 78
     2
 67
     7
 79
     3
170
     0
171
     0
290
     0
174
     0
 93
       13
 44
0.0
173
     0
291
     0
 45
0.0
1001
ACAD
1000
AcDbSavedByObjectVersion
1070
     0
  0
VISUALSTYLE
  5
42
102
{ACAD_REACTORS
330
2A
102
}
102
{ACAD_XDICTIONARY
360
259
102
}
330
2A
100
AcDbVisualStyle
  2
Shaded
 70
    27
 71
     2
 72
     2
 73
     1
 90
        2
 40
0.6
 41
30.0
 62
     5
 63
     7
 74
     0
 91
        4
 64
     7
 65
   257
 75
     1
175
     1
 42
1.0
 92
        8
 66
   257
 43
1.0
 76
     1
 77
     6
 78
     2
 67
     8
 79
     3
170
     0
171
     0
290
     0
174
     0
 93
        5
 44
0.0
173
     0
291
     0
 45
0.0
1001
ACAD
1000
AcDbSavedByObjectVersion
1070
     0
  0
VISUALSTYLE
  5
41
102
{ACAD_REACTORS
330
2A
102
}
102
{ACAD_XDICTIONARY
360
257
102
}
330
2A
100
AcDbVisualStyle
  2
Shaded with edges
 70
    26
 71
     2
 72
     2
 73
     1
 90
        2
 40
0.6
 41
30.0
 62
     5
 63
     7
 74
     1
 91
       10
 64
     7
 65
   257
 75
     2
175
     1
 42
1.0
 92
        8
 66
   257
 43
1.0
 76
     1
 77
     6
 78
     2
 67
     7
 79
     3
170
     0
171
     0
290
     0
174
     0
 93
        5
 44
0.0
173
     0
291
     0
 45
0.0
1001
ACAD
1000
AcDbSavedByObjectVersion
1070
     0
  0
VISUALSTYLE
  5
3E
102
{ACAD_REACTORS
330
2A
102
}
102
{ACAD_XDICTIONARY
360
251
102
}
330
2A
100
AcDbVisualStyle
  2
Shades of Gray
 70
    23
 71
     2
 72
     2
 73
     3
 90
        0
 40
0.6
 41
30.0
 62
     5
 63
     7
 74
     2
 91
        2
 64
     7
 65
     7
 75
     1
175
     1
 42
40.0
 92
        8
 66
     7
 43
1.0
 76
     1
 77
     6
 78
     2
 67
     7
 79
     3
170
     0
171
     0
290
     0
174
     0
 93
        1
 44
0.0
173
     0
291
     0
 45
0.0
1001
ACAD
1000
AcDbSavedByObjectVersion
1070
     0
  0
VISUALSTYLE
  5
3F
102
{ACAD_REACTORS
330
2A
102
}
102
{ACAD_XDICTIONARY
360
253
102
}
330
2A
100
AcDbVisualStyle
  2
Sketchy
 70
    24
 71
     1
 72
     2
 73
     2
 90
        0
 40
0.6
 41
30.0
 62
     5
 63
     7
 74
     2
 91
        2
 64
     7
 65
     7
 75
     1
175
     1
 42
40.0
 92
       11
 66
     7
 43
1.0
 76
     1
 77
     6
 78
     2
 67
     7
 79
     6
170
     0
171
     0
290
     0
174
     0
 93
        1
 44
0.0
173
     0
291
     0
 45
0.0
1001
ACAD
1000
AcDbSavedByObjectVersion
1070
     0
  0
VISUALSTYLE
  5
37
102
{ACAD_REACTORS
330
2A
102
}
102
{ACAD_XDICTIONARY
360
243
102
}
330
2A
100
AcDbVisualStyle
  2
Thicken
 70
    13
 71
     2
 72
     2
 73
     0
 90
        0
 40
0.6
 41
30.0
 62
     5
 63
     7
 74
     1
 91
        4
 64
     7
 65
   257
 75
     1
175
     1
 42
1.0
 92
       12
 66
     7
 43
1.0
 76
     1
 77
     6
 78
     2
 67
     7
 79
     5
170
     0
171
     0
290
     0
174
     0
 93
        1
 44
0.0
173
     0
291
     1
 45
0.0
1001
ACAD
1000
AcDbSavedByObjectVersion
1070
     0
  0
VISUALSTYLE
  5
30
102
{ACAD_REACTORS
330
2A
102
}
102
{ACAD_XDICTIONARY
360
235
102
}
330
2A
100
AcDbVisualStyle
  2
Wireframe
 70
     5
 71
     0
 72
     2
 73
     0
 90
        0
 40
0.6
 41
30.0
 62
     5
 63
     7
 74
     1
 91
        4
 64
     7
 65
   257
 75
     1
175
     1
 42
1.0
 92
        0
 66
   257
 43
1.0
 76
     1
 77
     6
 78
     2
 67
     7
 79
     3
170
     0
171
     0
290
     0
174
     0
 93
        1
 44
0.0
173
     0
291
     0
 45
0.0
1001
ACAD
1000
AcDbSavedByObjectVersion
1070
     0
  0
VISUALSTYLE
  5
40
102
{ACAD_REACTORS
330
2A
102
}
102
{ACAD_XDICTIONARY
360
255
102
}
330
2A
100
AcDbVisualStyle
  2
X-Ray
 70
    25
 71
     2
 72
     2
 73
     1
 90
        1
 40
0.5
 41
30.0
 62
     5
 63
     7
 74
     1
 91
        0
 64
     7
 65
   257
 75
     1
175
     1
 42
1.0
 92
        8
 66
     7
 43
1.0
 76
     1
 77
     6
 78
     2
 67
     7
 79
     3
170
     0
171
     0
290
     0
174
     0
 93
       13
 44
0.0
173
     0
291
     0
 45
0.0
1001
ACAD
1000
AcDbSavedByObjectVersion
1070
     0
  0
DICTIONARYVAR
  5
229
102
{ACAD_REACTORS
330
21C
102
}
330
21C
100
DictionaryVariables
280
     0
  1
1:1
  0
DICTIONARYVAR
  5
223
102
{ACAD_REACTORS
330
21C
102
}
330
21C
100
DictionaryVariables
280
     0
  1
3.500000
  0
DICTIONARYVAR
  5
224
102
{ACAD_REACTORS
330
21C
102
}
330
21C
100
DictionaryVariables
280
     0
  1
acadiso.lin
  0
DICTIONARYVAR
  5
21E
102
{ACAD_REACTORS
330
21C
102
}
330
21C
100
DictionaryVariables
280
     0
  1
Standard
  0
DICTIONARYVAR
  5
21D
102
{ACAD_REACTORS
330
21C
102
}
330
21C
100
DictionaryVariables
280
     0
  1
Standard
  0
DICTIONARYVAR
  5
225
102
{ACAD_REACTORS
330
21C
102
}
330
21C
100
DictionaryVariables
280
     0
  1
2
  0
DICTIONARYVAR
  5
226
102
{ACAD_REACTORS
330
21C
102
}
330
21C
100
DictionaryVariables
280
     0
  1
1
  0
DICTIONARYVAR
  5
22A
102
{ACAD_REACTORS
330
21C
102
}
330
21C
100
DictionaryVariables
280
     0
  1
1
  0
DICTIONARYVAR
  5
220
102
{ACAD_REACTORS
330
21C
102
}
330
21C
100
DictionaryVariables
280
     0
  1
80.000000
  0
DICTIONARYVAR
  5
21F
102
{ACAD_REACTORS
330
21C
102
}
330
21C
100
DictionaryVariables
280
     0
  1
5.000000
  0
DICTIONARY
  5
25D
330
45
100
AcDbDictionary
280
     1
281
     1
  3
ACAD_XREC_ROUNDTRIP
360
25E
  0
DICTIONARY
  5
25B
330
44
100
AcDbDictionary
280
     1
281
     1
  3
ACAD_XREC_ROUNDTRIP
360
25C
  0
DICTIONARY
  5
25F
330
46
100
AcDbDictionary
280
     1
281
     1
  3
ACAD_XREC_ROUNDTRIP
360
260
  0
DICTIONARY
  5
262
330
6C
100
AcDbDictionary
280
     1
281
     1
  3
ACAD_XREC_ROUNDTRIP
360
263
  0
DICTIONARY
  5
233
330
2F
100
AcDbDictionary
280
     1
281
     1
  3
ACAD_XREC_ROUNDTRIP
360
234
  0
DICTIONARY
  5
239
330
32
100
AcDbDictionary
280
     1
281
     1
  3
ACAD_XREC_ROUNDTRIP
360
23A
  0
DICTIONARY
  5
241
330
36
100
AcDbDictionary
280
     1
281
     1
  3
ACAD_XREC_ROUNDTRIP
360
242
  0
DICTIONARY
  5
249
330
3A
100
AcDbDictionary
280
     1
281
     1
  3
ACAD_XREC_ROUNDTRIP
360
24A
  0
DICTIONARY
  5
23D
330
34
100
AcDbDictionary
280
     1
281
     1
  3
ACAD_XREC_ROUNDTRIP
360
23E
  0
DICTIONARY
  5
23F
330
35
100
AcDbDictionary
280
     1
281
     1
  3
ACAD_XREC_ROUNDTRIP
360
240
  0
DICTIONARY
  5
24F
330
3D
100
AcDbDictionary
280
     1
281
     1
  3
ACAD_XREC_ROUNDTRIP
360
250
  0
DICTIONARY
  5
247
330
39
100
AcDbDictionary
280
     1
281
     1
  3
ACAD_XREC_ROUNDTRIP
360
248
  0
DICTIONARY
  5
22B
330
2B
100
AcDbDictionary
280
     1
281
     1
  3
ACAD_XREC_ROUNDTRIP
360
22C
  0
DICTIONARY
  5
22D
330
2C
100
AcDbDictionary
280
     1
281
     1
  3
ACAD_XREC_ROUNDTRIP
360
22E
  0
DICTIONARY
  5
22F
330
2D
100
AcDbDictionary
280
     1
281
     1
  3
ACAD_XREC_ROUNDTRIP
360
230
  0
DICTIONARY
  5
231
330
2E
100
AcDbDictionary
280
     1
281
     1
  3
ACAD_XREC_ROUNDTRIP
360
232
  0
DICTIONARY
  5
237
330
31
100
AcDbDictionary
280
     1
281
     1
  3
ACAD_XREC_ROUNDTRIP
360
238
  0
DICTIONARY
  5
24B
330
3B
100
AcDbDictionary
280
     1
281
     1
  3
ACAD_XREC_ROUNDTRIP
360
24C
  0
DICTIONARY
  5
245
330
38
100
AcDbDictionary
280
     1
281
     1
  3
ACAD_XREC_ROUNDTRIP
360
246
  0
DICTIONARY
  5
24D
330
3C
100
AcDbDictionary
280
     1
281
     1
  3
ACAD_XREC_ROUNDTRIP
360
24E
  0
DICTIONARY
  5
23B
330
33
100
AcDbDictionary
280
     1
281
     1
  3
ACAD_XREC_ROUNDTRIP
360
23C
  0
DICTIONARY
  5
259
330
42
100
AcDbDictionary
280
     1
281
     1
  3
ACAD_XREC_ROUNDTRIP
360
25A
  0
DICTIONARY
  5
257
330
41
100
AcDbDictionary
280
     1
281
     1
  3
ACAD_XREC_ROUNDTRIP
360
258
  0
DICTIONARY
  5
251
330
3E
100
AcDbDictionary
280
     1
281
     1
  3
ACAD_XREC_ROUNDTRIP
360
252
  0
DICTIONARY
  5
253
330
3F
100
AcDbDictionary
280
     1
281
     1
  3
ACAD_XREC_ROUNDTRIP
360
254
  0
DICTIONARY
  5
243
330
37
100
AcDbDictionary
280
     1
281
     1
  3
ACAD_XREC_ROUNDTRIP
360
244
  0
DICTIONARY
  5
235
330
30
100
AcDbDictionary
280
     1
281
     1
  3
ACAD_XREC_ROUNDTRIP
360
236
  0
DICTIONARY
  5
255
330
40
100
AcDbDictionary
280
     1
281
     1
  3
ACAD_XREC_ROUNDTRIP
360
256
  0
XRECORD
  5
25E
102
{ACAD_REACTORS
330
25D
102
}
330
25D
100
AcDbXrecord
280
     1
102
MATERIAL
148
0.0
149
0.0
149
0.0
 93
        0
 94
      127
282
     0
 72
     1
 77
     1
171
     1
175
     1
179
     1
273
     0
  0
XRECORD
  5
25C
102
{ACAD_REACTORS
330
25B
102
}
330
25B
100
AcDbXrecord
280
     1
102
MATERIAL
148
0.0
149
0.0
149
0.0
 93
        0
 94
      127
282
     0
 72
     1
 77
     1
171
     1
175
     1
179
     1
273
     0
  0
XRECORD
  5
260
102
{ACAD_REACTORS
330
25F
102
}
330
25F
100
AcDbXrecord
280
     1
102
MATERIAL
148
0.0
149
0.0
149
0.0
 93
        0
 94
      127
282
     0
 72
     1
 77
     1
171
     1
175
     1
179
     1
273
     0
  0
XRECORD
  5
263
102
{ACAD_REACTORS
330
262
102
}
330
262
100
AcDbXrecord
280
     1
102
ACAD_ROUNDTRIP_2010_MLEADER_STYLE
  0
XRECORD
  5
234
102
{ACAD_REACTORS
330
233
102
}
330
233
100
AcDbXrecord
280
     1
102
RTVSPropertyOp0
 70
     1
102
RTVSPropertyOp1
 70
     1
102
RTVSPropertyOp2
 70
     1
102
RTVSPropertyOp3
 70
     1
102
RTVSPropertyOp4
 70
     1
102
RTVSPropertyOp5
 70
     1
102
RTVSPropertyOp6
 70
     1
102
RTVSPropertyOp7
 70
     1
102
RTVSPropertyOp8
 70
     1
102
RTVSPropertyOp9
 70
     1
102
RTVSPropertyOp10
 70
     1
102
RTVSPropertyOp11
 70
     1
102
RTVSPropertyOp12
 70
     1
102
RTVSPropertyOp13
 70
     1
102
RTVSPropertyOp14
 70
     1
102
RTVSPropertyOp15
 70
     1
102
RTVSPropertyOp16
 70
     1
102
RTVSPropertyOp17
 70
     1
102
RTVSPropertyOp18
 70
     1
102
RTVSPropertyOp19
 70
     1
102
RTVSPropertyOp20
 70
     1
102
RTVSPropertyOp21
 70
     1
102
RTVSPropertyOp22
 70
     1
102
RTVSPropertyOp23
 70
     1
102
RTVSPropertyOp24
 70
     1
102
RTVSPropertyOp25
 70
     1
102
RTVSPropertyOp26
 70
     1
102
RTVSPropertyOp27
 70
     1
102
RTVSPropertyOp28
 70
     1
102
RTVSPropertyOp29
 70
     1
102
RTVSPropertyOp30
 70
     1
102
RTVSPropertyOp31
 70
     1
102
RTVSPropertyOp32
 70
     1
102
RTVSPropertyOp33
 70
     1
102
RTVSPropertyOp34
 70
     1
102
RTVSPropertyOp35
 70
     1
102
RTVSPropertyOp36
 70
     1
102
RTVSPropertyOp37
 70
     1
102
RTVSPropertyOp38
 70
     1
102
RTVSPropertyOp39
 70
     1
102
RTVSPropertyOp40
 70
     1
102
RTVSPropertyOp41
 70
     1
102
RTVSPropertyOp42
 70
     1
102
RTVSPropertyOp43
 70
     1
102
RTVSPropertyOp44
 70
     1
102
RTVSPropertyOp45
 70
     1
102
RTVSPropertyOp46
 70
     1
102
RTVSPropertyOp47
 70
     1
102
RTVSPropertyOp48
 70
     1
102
RTVSPropertyOp49
 70
     1
102
RTVSPropertyOp50
 70
     1
102
RTVSPropertyOp51
 70
     0
102
RTVSPropertyOp52
 70
     0
102
RTVSPropertyOp53
 70
     1
102
RTVSPropertyOp54
 70
     1
102
RTVSPropertyOp55
 70
     1
102
RTVSPropertyOp56
 70
     1
102
RTVSPropertyOp57
 70
     1
102
RTVSPost2010Prop28
280
     1
102
RTVSPost2010PropOp28
 70
     1
102
RTVSPost2010Prop29
280
     1
102
RTVSPost2010PropOp29
 70
     1
102
RTVSPost2010Prop30
280
     0
102
RTVSPost2010PropOp30
 70
     1
102
RTVSPost2010Prop31
280
     0
102
RTVSPost2010PropOp31
 70
     1
102
RTVSPost2010Prop32
280
     0
102
RTVSPost2010PropOp32
 70
     1
102
RTVSPost2010Prop33
280
     0
102
RTVSPost2010PropOp33
 70
     1
102
RTVSPost2010Prop34
280
     0
102
RTVSPost2010PropOp34
 70
     1
102
RTVSPost2010Prop35
280
     0
102
RTVSPost2010PropOp35
 70
     1
102
RTVSPost2010Prop36
280
     0
102
RTVSPost2010PropOp36
 70
     1
102
RTVSPost2010Prop37
 90
       50
102
RTVSPost2010PropOp37
 70
     1
102
RTVSPost2010Prop38
140
0.0
102
RTVSPost2010PropOp38
 70
     1
102
RTVSPost2010Prop39
140
1.0
102
RTVSPost2010PropOp39
 70
     1
102
RTVSPost2010Prop40
 90
        0
102
RTVSPost2010PropOp40
 70
     1
102
RTVSPost2010Prop41ColorIndex
 90
       18
102
RTVSPost2010Prop41ColorRGB
 90
        0
102
RTVSPost2010PropOp41
 70
     1
102
RTVSPost2010Prop42
 90
       50
102
RTVSPost2010PropOp42
 70
     1
102
RTVSPost2010Prop43
 90
        3
102
RTVSPost2010PropOp43
 70
     1
102
RTVSPost2010Prop44ColorIndex
 90
        5
102
RTVSPost2010Prop44ColorRGB
 90
      255
102
RTVSPost2010PropOp44
 70
     1
102
RTVSPost2010Prop45
280
     0
102
RTVSPost2010PropOp45
 70
     1
102
RTVSPost2010Prop46
 90
       50
102
RTVSPost2010PropOp46
 70
     1
102
RTVSPost2010Prop47
 90
       50
102
RTVSPost2010PropOp47
 70
     1
102
RTVSPost2010Prop48
 90
       50
102
RTVSPost2010PropOp48
 70
     1
102
RTVSPost2010Prop49
280
     0
102
RTVSPost2010PropOp49
 70
     1
102
RTVSPost2010Prop50
 90
       50
102
RTVSPost2010PropOp50
 70
     1
102
RTVSPost2010Prop51ColorIndex
 90
      256
102
RTVSPost2010Prop51ColorRGB
 90
-16777216
102
RTVSPost2010PropOp51
 70
     0
102
RTVSPost2010Prop52
140
1.0
102
RTVSPost2010PropOp52
 70
     0
102
RTVSPost2010Prop53
 90
        2
102
RTVSPost2010PropOp53
 70
     1
102
RTVSPost2010Prop54
  1
strokes_ogs.tif
102
RTVSPost2010PropOp54
 70
     1
102
RTVSPost2010Prop55
280
     0
102
RTVSPost2010PropOp55
 70
     1
102
RTVSPost2010Prop56
140
1.0
102
RTVSPost2010PropOp56
 70
     1
102
RTVSPost2010Prop57
140
1.0
102
RTVSPost2010PropOp57
 70
     1
  0
XRECORD
  5
23A
102
{ACAD_REACTORS
330
239
102
}
330
239
100
AcDbXrecord
280
     1
102
RTVSPropertyOp0
 70
     1
102
RTVSPropertyOp1
 70
     1
102
RTVSPropertyOp2
 70
     1
102
RTVSPropertyOp3
 70
     1
102
RTVSPropertyOp4
 70
     1
102
RTVSPropertyOp5
 70
     1
102
RTVSPropertyOp6
 70
     1
102
RTVSPropertyOp7
 70
     1
102
RTVSPropertyOp8
 70
     1
102
RTVSPropertyOp9
 70
     1
102
RTVSPropertyOp10
 70
     1
102
RTVSPropertyOp11
 70
     1
102
RTVSPropertyOp12
 70
     1
102
RTVSPropertyOp13
 70
     1
102
RTVSPropertyOp14
 70
     1
102
RTVSPropertyOp15
 70
     1
102
RTVSPropertyOp16
 70
     1
102
RTVSPropertyOp17
 70
     1
102
RTVSPropertyOp18
 70
     1
102
RTVSPropertyOp19
 70
     1
102
RTVSPropertyOp20
 70
     1
102
RTVSPropertyOp21
 70
     1
102
RTVSPropertyOp22
 70
     1
102
RTVSPropertyOp23
 70
     1
102
RTVSPropertyOp24
 70
     1
102
RTVSPropertyOp25
 70
     1
102
RTVSPropertyOp26
 70
     1
102
RTVSPropertyOp27
 70
     1
102
RTVSPropertyOp28
 70
     1
102
RTVSPropertyOp29
 70
     1
102
RTVSPropertyOp30
 70
     1
102
RTVSPropertyOp31
 70
     1
102
RTVSPropertyOp32
 70
     1
102
RTVSPropertyOp33
 70
     1
102
RTVSPropertyOp34
 70
     1
102
RTVSPropertyOp35
 70
     1
102
RTVSPropertyOp36
 70
     1
102
RTVSPropertyOp37
 70
     1
102
RTVSPropertyOp38
 70
     1
102
RTVSPropertyOp39
 70
     1
102
RTVSPropertyOp40
 70
     1
102
RTVSPropertyOp41
 70
     1
102
RTVSPropertyOp42
 70
     1
102
RTVSPropertyOp43
 70
     1
102
RTVSPropertyOp44
 70
     1
102
RTVSPropertyOp45
 70
     1
102
RTVSPropertyOp46
 70
     1
102
RTVSPropertyOp47
 70
     1
102
RTVSPropertyOp48
 70
     1
102
RTVSPropertyOp49
 70
     1
102
RTVSPropertyOp50
 70
     1
102
RTVSPropertyOp51
 70
     0
102
RTVSPropertyOp52
 70
     0
102
RTVSPropertyOp53
 70
     1
102
RTVSPropertyOp54
 70
     1
102
RTVSPropertyOp55
 70
     1
102
RTVSPropertyOp56
 70
     1
102
RTVSPropertyOp57
 70
     1
102
RTVSPost2010Prop28
280
     0
102
RTVSPost2010PropOp28
 70
     1
102
RTVSPost2010Prop29
280
     1
102
RTVSPost2010PropOp29
 70
     1
102
RTVSPost2010Prop30
280
     1
102
RTVSPost2010PropOp30
 70
     1
102
RTVSPost2010Prop31
280
     0
102
RTVSPost2010PropOp31
 70
     1
102
RTVSPost2010Prop32
280
     0
102
RTVSPost2010PropOp32
 70
     1
102
RTVSPost2010Prop33
280
     0
102
RTVSPost2010PropOp33
 70
     1
102
RTVSPost2010Prop34
280
     0
102
RTVSPost2010PropOp34
 70
     1
102
RTVSPost2010Prop35
280
     0
102
RTVSPost2010PropOp35
 70
     1
102
RTVSPost2010Prop36
280
     0
102
RTVSPost2010PropOp36
 70
     1
102
RTVSPost2010Prop37
 90
       50
102
RTVSPost2010PropOp37
 70
     1
102
RTVSPost2010Prop38
140
0.0
102
RTVSPost2010PropOp38
 70
     1
102
RTVSPost2010Prop39
140
1.0
102
RTVSPost2010PropOp39
 70
     1
102
RTVSPost2010Prop40
 90
        0
102
RTVSPost2010PropOp40
 70
     1
102
RTVSPost2010Prop41ColorIndex
 90
       18
102
RTVSPost2010Prop41ColorRGB
 90
        0
102
RTVSPost2010PropOp41
 70
     1
102
RTVSPost2010Prop42
 90
       50
102
RTVSPost2010PropOp42
 70
     1
102
RTVSPost2010Prop43
 90
        3
102
RTVSPost2010PropOp43
 70
     1
102
RTVSPost2010Prop44ColorIndex
 90
        5
102
RTVSPost2010Prop44ColorRGB
 90
      255
102
RTVSPost2010PropOp44
 70
     1
102
RTVSPost2010Prop45
280
     0
102
RTVSPost2010PropOp45
 70
     1
102
RTVSPost2010Prop46
 90
       50
102
RTVSPost2010PropOp46
 70
     1
102
RTVSPost2010Prop47
 90
       50
102
RTVSPost2010PropOp47
 70
     1
102
RTVSPost2010Prop48
 90
       50
102
RTVSPost2010PropOp48
 70
     1
102
RTVSPost2010Prop49
280
     0
102
RTVSPost2010PropOp49
 70
     1
102
RTVSPost2010Prop50
 90
       50
102
RTVSPost2010PropOp50
 70
     1
102
RTVSPost2010Prop51ColorIndex
 90
      256
102
RTVSPost2010Prop51ColorRGB
 90
-16777216
102
RTVSPost2010PropOp51
 70
     0
102
RTVSPost2010Prop52
140
1.0
102
RTVSPost2010PropOp52
 70
     0
102
RTVSPost2010Prop53
 90
        2
102
RTVSPost2010PropOp53
 70
     1
102
RTVSPost2010Prop54
  1
strokes_ogs.tif
102
RTVSPost2010PropOp54
 70
     1
102
RTVSPost2010Prop55
280
     0
102
RTVSPost2010PropOp55
 70
     1
102
RTVSPost2010Prop56
140
1.0
102
RTVSPost2010PropOp56
 70
     1
102
RTVSPost2010Prop57
140
1.0
102
RTVSPost2010PropOp57
 70
     1
  0
XRECORD
  5
242
102
{ACAD_REACTORS
330
241
102
}
330
241
100
AcDbXrecord
280
     1
102
RTVSPropertyOp0
 70
     1
102
RTVSPropertyOp1
 70
     1
102
RTVSPropertyOp2
 70
     1
102
RTVSPropertyOp3
 70
     1
102
RTVSPropertyOp4
 70
     1
102
RTVSPropertyOp5
 70
     1
102
RTVSPropertyOp6
 70
     1
102
RTVSPropertyOp7
 70
     1
102
RTVSPropertyOp8
 70
     1
102
RTVSPropertyOp9
 70
     1
102
RTVSPropertyOp10
 70
     1
102
RTVSPropertyOp11
 70
     1
102
RTVSPropertyOp12
 70
     1
102
RTVSPropertyOp13
 70
     1
102
RTVSPropertyOp14
 70
     1
102
RTVSPropertyOp15
 70
     1
102
RTVSPropertyOp16
 70
     1
102
RTVSPropertyOp17
 70
     1
102
RTVSPropertyOp18
 70
     1
102
RTVSPropertyOp19
 70
     1
102
RTVSPropertyOp20
 70
     1
102
RTVSPropertyOp21
 70
     1
102
RTVSPropertyOp22
 70
     1
102
RTVSPropertyOp23
 70
     1
102
RTVSPropertyOp24
 70
     1
102
RTVSPropertyOp25
 70
     1
102
RTVSPropertyOp26
 70
     1
102
RTVSPropertyOp27
 70
     1
102
RTVSPropertyOp28
 70
     1
102
RTVSPropertyOp29
 70
     1
102
RTVSPropertyOp30
 70
     1
102
RTVSPropertyOp31
 70
     1
102
RTVSPropertyOp32
 70
     1
102
RTVSPropertyOp33
 70
     1
102
RTVSPropertyOp34
 70
     1
102
RTVSPropertyOp35
 70
     1
102
RTVSPropertyOp36
 70
     1
102
RTVSPropertyOp37
 70
     1
102
RTVSPropertyOp38
 70
     1
102
RTVSPropertyOp39
 70
     1
102
RTVSPropertyOp40
 70
     1
102
RTVSPropertyOp41
 70
     1
102
RTVSPropertyOp42
 70
     1
102
RTVSPropertyOp43
 70
     1
102
RTVSPropertyOp44
 70
     1
102
RTVSPropertyOp45
 70
     1
102
RTVSPropertyOp46
 70
     1
102
RTVSPropertyOp47
 70
     1
102
RTVSPropertyOp48
 70
     1
102
RTVSPropertyOp49
 70
     1
102
RTVSPropertyOp50
 70
     1
102
RTVSPropertyOp51
 70
     0
102
RTVSPropertyOp52
 70
     0
102
RTVSPropertyOp53
 70
     1
102
RTVSPropertyOp54
 70
     1
102
RTVSPropertyOp55
 70
     1
102
RTVSPropertyOp56
 70
     1
102
RTVSPropertyOp57
 70
     1
102
RTVSPost2010Prop28
280
     0
102
RTVSPost2010PropOp28
 70
     1
102
RTVSPost2010Prop29
280
     1
102
RTVSPost2010PropOp29
 70
     1
102
RTVSPost2010Prop30
280
     1
102
RTVSPost2010PropOp30
 70
     1
102
RTVSPost2010Prop31
280
     0
102
RTVSPost2010PropOp31
 70
     1
102
RTVSPost2010Prop32
280
     0
102
RTVSPost2010PropOp32
 70
     1
102
RTVSPost2010Prop33
280
     0
102
RTVSPost2010PropOp33
 70
     1
102
RTVSPost2010Prop34
280
     0
102
RTVSPost2010PropOp34
 70
     1
102
RTVSPost2010Prop35
280
     0
102
RTVSPost2010PropOp35
 70
     1
102
RTVSPost2010Prop36
280
     0
102
RTVSPost2010PropOp36
 70
     1
102
RTVSPost2010Prop37
 90
       50
102
RTVSPost2010PropOp37
 70
     1
102
RTVSPost2010Prop38
140
0.0
102
RTVSPost2010PropOp38
 70
     1
102
RTVSPost2010Prop39
140
1.0
102
RTVSPost2010PropOp39
 70
     1
102
RTVSPost2010Prop40
 90
        0
102
RTVSPost2010PropOp40
 70
     1
102
RTVSPost2010Prop41ColorIndex
 90
       18
102
RTVSPost2010Prop41ColorRGB
 90
        0
102
RTVSPost2010PropOp41
 70
     1
102
RTVSPost2010Prop42
 90
       50
102
RTVSPost2010PropOp42
 70
     1
102
RTVSPost2010Prop43
 90
        3
102
RTVSPost2010PropOp43
 70
     1
102
RTVSPost2010Prop44ColorIndex
 90
        5
102
RTVSPost2010Prop44ColorRGB
 90
      255
102
RTVSPost2010PropOp44
 70
     1
102
RTVSPost2010Prop45
280
     0
102
RTVSPost2010PropOp45
 70
     1
102
RTVSPost2010Prop46
 90
       50
102
RTVSPost2010PropOp46
 70
     1
102
RTVSPost2010Prop47
 90
       50
102
RTVSPost2010PropOp47
 70
     1
102
RTVSPost2010Prop48
 90
       50
102
RTVSPost2010PropOp48
 70
     1
102
RTVSPost2010Prop49
280
     0
102
RTVSPost2010PropOp49
 70
     1
102
RTVSPost2010Prop50
 90
       50
102
RTVSPost2010PropOp50
 70
     1
102
RTVSPost2010Prop51ColorIndex
 90
      256
102
RTVSPost2010Prop51ColorRGB
 90
-16777216
102
RTVSPost2010PropOp51
 70
     0
102
RTVSPost2010Prop52
140
1.0
102
RTVSPost2010PropOp52
 70
     0
102
RTVSPost2010Prop53
 90
        2
102
RTVSPost2010PropOp53
 70
     1
102
RTVSPost2010Prop54
  1
strokes_ogs.tif
102
RTVSPost2010PropOp54
 70
     1
102
RTVSPost2010Prop55
280
     0
102
RTVSPost2010PropOp55
 70
     1
102
RTVSPost2010Prop56
140
1.0
102
RTVSPost2010PropOp56
 70
     1
102
RTVSPost2010Prop57
140
1.0
102
RTVSPost2010PropOp57
 70
     1
  0
XRECORD
  5
24A
102
{ACAD_REACTORS
330
249
102
}
330
249
100
AcDbXrecord
280
     1
102
RTVSPropertyOp0
 70
     1
102
RTVSPropertyOp1
 70
     1
102
RTVSPropertyOp2
 70
     1
102
RTVSPropertyOp3
 70
     1
102
RTVSPropertyOp4
 70
     1
102
RTVSPropertyOp5
 70
     1
102
RTVSPropertyOp6
 70
     1
102
RTVSPropertyOp7
 70
     1
102
RTVSPropertyOp8
 70
     1
102
RTVSPropertyOp9
 70
     1
102
RTVSPropertyOp10
 70
     1
102
RTVSPropertyOp11
 70
     1
102
RTVSPropertyOp12
 70
     1
102
RTVSPropertyOp13
 70
     1
102
RTVSPropertyOp14
 70
     1
102
RTVSPropertyOp15
 70
     1
102
RTVSPropertyOp16
 70
     1
102
RTVSPropertyOp17
 70
     1
102
RTVSPropertyOp18
 70
     1
102
RTVSPropertyOp19
 70
     1
102
RTVSPropertyOp20
 70
     1
102
RTVSPropertyOp21
 70
     1
102
RTVSPropertyOp22
 70
     1
102
RTVSPropertyOp23
 70
     1
102
RTVSPropertyOp24
 70
     1
102
RTVSPropertyOp25
 70
     1
102
RTVSPropertyOp26
 70
     1
102
RTVSPropertyOp27
 70
     1
102
RTVSPropertyOp28
 70
     1
102
RTVSPropertyOp29
 70
     1
102
RTVSPropertyOp30
 70
     1
102
RTVSPropertyOp31
 70
     1
102
RTVSPropertyOp32
 70
     1
102
RTVSPropertyOp33
 70
     1
102
RTVSPropertyOp34
 70
     1
102
RTVSPropertyOp35
 70
     1
102
RTVSPropertyOp36
 70
     1
102
RTVSPropertyOp37
 70
     1
102
RTVSPropertyOp38
 70
     1
102
RTVSPropertyOp39
 70
     1
102
RTVSPropertyOp40
 70
     1
102
RTVSPropertyOp41
 70
     1
102
RTVSPropertyOp42
 70
     1
102
RTVSPropertyOp43
 70
     1
102
RTVSPropertyOp44
 70
     1
102
RTVSPropertyOp45
 70
     1
102
RTVSPropertyOp46
 70
     1
102
RTVSPropertyOp47
 70
     1
102
RTVSPropertyOp48
 70
     1
102
RTVSPropertyOp49
 70
     1
102
RTVSPropertyOp50
 70
     1
102
RTVSPropertyOp51
 70
     0
102
RTVSPropertyOp52
 70
     0
102
RTVSPropertyOp53
 70
     1
102
RTVSPropertyOp54
 70
     1
102
RTVSPropertyOp55
 70
     1
102
RTVSPropertyOp56
 70
     1
102
RTVSPropertyOp57
 70
     1
102
RTVSPost2010Prop28
280
     0
102
RTVSPost2010PropOp28
 70
     1
102
RTVSPost2010Prop29
280
     1
102
RTVSPost2010PropOp29
 70
     1
102
RTVSPost2010Prop30
280
     1
102
RTVSPost2010PropOp30
 70
     1
102
RTVSPost2010Prop31
280
     0
102
RTVSPost2010PropOp31
 70
     1
102
RTVSPost2010Prop32
280
     0
102
RTVSPost2010PropOp32
 70
     1
102
RTVSPost2010Prop33
280
     0
102
RTVSPost2010PropOp33
 70
     1
102
RTVSPost2010Prop34
280
     0
102
RTVSPost2010PropOp34
 70
     1
102
RTVSPost2010Prop35
280
     0
102
RTVSPost2010PropOp35
 70
     1
102
RTVSPost2010Prop36
280
     0
102
RTVSPost2010PropOp36
 70
     1
102
RTVSPost2010Prop37
 90
       50
102
RTVSPost2010PropOp37
 70
     1
102
RTVSPost2010Prop38
140
0.0
102
RTVSPost2010PropOp38
 70
     1
102
RTVSPost2010Prop39
140
1.0
102
RTVSPost2010PropOp39
 70
     1
102
RTVSPost2010Prop40
 90
        0
102
RTVSPost2010PropOp40
 70
     1
102
RTVSPost2010Prop41ColorIndex
 90
       18
102
RTVSPost2010Prop41ColorRGB
 90
        0
102
RTVSPost2010PropOp41
 70
     1
102
RTVSPost2010Prop42
 90
       50
102
RTVSPost2010PropOp42
 70
     1
102
RTVSPost2010Prop43
 90
        3
102
RTVSPost2010PropOp43
 70
     1
102
RTVSPost2010Prop44ColorIndex
 90
        5
102
RTVSPost2010Prop44ColorRGB
 90
      255
102
RTVSPost2010PropOp44
 70
     1
102
RTVSPost2010Prop45
280
     0
102
RTVSPost2010PropOp45
 70
     1
102
RTVSPost2010Prop46
 90
       50
102
RTVSPost2010PropOp46
 70
     1
102
RTVSPost2010Prop47
 90
       50
102
RTVSPost2010PropOp47
 70
     1
102
RTVSPost2010Prop48
 90
       50
102
RTVSPost2010PropOp48
 70
     1
102
RTVSPost2010Prop49
280
     0
102
RTVSPost2010PropOp49
 70
     1
102
RTVSPost2010Prop50
 90
       50
102
RTVSPost2010PropOp50
 70
     1
102
RTVSPost2010Prop51ColorIndex
 90
      256
102
RTVSPost2010Prop51ColorRGB
 90
-16777216
102
RTVSPost2010PropOp51
 70
     0
102
RTVSPost2010Prop52
140
1.0
102
RTVSPost2010PropOp52
 70
     0
102
RTVSPost2010Prop53
 90
        2
102
RTVSPost2010PropOp53
 70
     1
102
RTVSPost2010Prop54
  1
strokes_ogs.tif
102
RTVSPost2010PropOp54
 70
     1
102
RTVSPost2010Prop55
280
     0
102
RTVSPost2010PropOp55
 70
     1
102
RTVSPost2010Prop56
140
1.0
102
RTVSPost2010PropOp56
 70
     1
102
RTVSPost2010Prop57
140
1.0
102
RTVSPost2010PropOp57
 70
     1
  0
XRECORD
  5
23E
102
{ACAD_REACTORS
330
23D
102
}
330
23D
100
AcDbXrecord
280
     1
102
RTVSPropertyOp0
 70
     1
102
RTVSPropertyOp1
 70
     1
102
RTVSPropertyOp2
 70
     1
102
RTVSPropertyOp3
 70
     1
102
RTVSPropertyOp4
 70
     1
102
RTVSPropertyOp5
 70
     1
102
RTVSPropertyOp6
 70
     1
102
RTVSPropertyOp7
 70
     1
102
RTVSPropertyOp8
 70
     1
102
RTVSPropertyOp9
 70
     1
102
RTVSPropertyOp10
 70
     1
102
RTVSPropertyOp11
 70
     1
102
RTVSPropertyOp12
 70
     1
102
RTVSPropertyOp13
 70
     1
102
RTVSPropertyOp14
 70
     1
102
RTVSPropertyOp15
 70
     1
102
RTVSPropertyOp16
 70
     1
102
RTVSPropertyOp17
 70
     1
102
RTVSPropertyOp18
 70
     1
102
RTVSPropertyOp19
 70
     1
102
RTVSPropertyOp20
 70
     1
102
RTVSPropertyOp21
 70
     1
102
RTVSPropertyOp22
 70
     1
102
RTVSPropertyOp23
 70
     1
102
RTVSPropertyOp24
 70
     1
102
RTVSPropertyOp25
 70
     1
102
RTVSPropertyOp26
 70
     1
102
RTVSPropertyOp27
 70
     1
102
RTVSPropertyOp28
 70
     1
102
RTVSPropertyOp29
 70
     1
102
RTVSPropertyOp30
 70
     1
102
RTVSPropertyOp31
 70
     1
102
RTVSPropertyOp32
 70
     1
102
RTVSPropertyOp33
 70
     1
102
RTVSPropertyOp34
 70
     1
102
RTVSPropertyOp35
 70
     1
102
RTVSPropertyOp36
 70
     1
102
RTVSPropertyOp37
 70
     1
102
RTVSPropertyOp38
 70
     1
102
RTVSPropertyOp39
 70
     1
102
RTVSPropertyOp40
 70
     1
102
RTVSPropertyOp41
 70
     1
102
RTVSPropertyOp42
 70
     1
102
RTVSPropertyOp43
 70
     1
102
RTVSPropertyOp44
 70
     1
102
RTVSPropertyOp45
 70
     1
102
RTVSPropertyOp46
 70
     1
102
RTVSPropertyOp47
 70
     1
102
RTVSPropertyOp48
 70
     1
102
RTVSPropertyOp49
 70
     1
102
RTVSPropertyOp50
 70
     1
102
RTVSPropertyOp51
 70
     0
102
RTVSPropertyOp52
 70
     0
102
RTVSPropertyOp53
 70
     1
102
RTVSPropertyOp54
 70
     1
102
RTVSPropertyOp55
 70
     1
102
RTVSPropertyOp56
 70
     1
102
RTVSPropertyOp57
 70
     1
102
RTVSPost2010Prop28
280
     0
102
RTVSPost2010PropOp28
 70
     1
102
RTVSPost2010Prop29
280
     1
102
RTVSPost2010PropOp29
 70
     1
102
RTVSPost2010Prop30
280
     1
102
RTVSPost2010PropOp30
 70
     1
102
RTVSPost2010Prop31
280
     0
102
RTVSPost2010PropOp31
 70
     1
102
RTVSPost2010Prop32
280
     0
102
RTVSPost2010PropOp32
 70
     1
102
RTVSPost2010Prop33
280
     0
102
RTVSPost2010PropOp33
 70
     1
102
RTVSPost2010Prop34
280
     0
102
RTVSPost2010PropOp34
 70
     1
102
RTVSPost2010Prop35
280
     0
102
RTVSPost2010PropOp35
 70
     1
102
RTVSPost2010Prop36
280
     0
102
RTVSPost2010PropOp36
 70
     1
102
RTVSPost2010Prop37
 90
       50
102
RTVSPost2010PropOp37
 70
     1
102
RTVSPost2010Prop38
140
0.0
102
RTVSPost2010PropOp38
 70
     1
102
RTVSPost2010Prop39
140
1.0
102
RTVSPost2010PropOp39
 70
     1
102
RTVSPost2010Prop40
 90
        0
102
RTVSPost2010PropOp40
 70
     1
102
RTVSPost2010Prop41ColorIndex
 90
       18
102
RTVSPost2010Prop41ColorRGB
 90
        0
102
RTVSPost2010PropOp41
 70
     1
102
RTVSPost2010Prop42
 90
       50
102
RTVSPost2010PropOp42
 70
     1
102
RTVSPost2010Prop43
 90
        3
102
RTVSPost2010PropOp43
 70
     1
102
RTVSPost2010Prop44ColorIndex
 90
        5
102
RTVSPost2010Prop44ColorRGB
 90
      255
102
RTVSPost2010PropOp44
 70
     1
102
RTVSPost2010Prop45
280
     0
102
RTVSPost2010PropOp45
 70
     1
102
RTVSPost2010Prop46
 90
       50
102
RTVSPost2010PropOp46
 70
     1
102
RTVSPost2010Prop47
 90
       50
102
RTVSPost2010PropOp47
 70
     1
102
RTVSPost2010Prop48
 90
       50
102
RTVSPost2010PropOp48
 70
     1
102
RTVSPost2010Prop49
280
     0
102
RTVSPost2010PropOp49
 70
     1
102
RTVSPost2010Prop50
 90
       50
102
RTVSPost2010PropOp50
 70
     1
102
RTVSPost2010Prop51ColorIndex
 90
      256
102
RTVSPost2010Prop51ColorRGB
 90
-16777216
102
RTVSPost2010PropOp51
 70
     0
102
RTVSPost2010Prop52
140
1.0
102
RTVSPost2010PropOp52
 70
     0
102
RTVSPost2010Prop53
 90
        2
102
RTVSPost2010PropOp53
 70
     1
102
RTVSPost2010Prop54
  1
strokes_ogs.tif
102
RTVSPost2010PropOp54
 70
     1
102
RTVSPost2010Prop55
280
     0
102
RTVSPost2010PropOp55
 70
     1
102
RTVSPost2010Prop56
140
1.0
102
RTVSPost2010PropOp56
 70
     1
102
RTVSPost2010Prop57
140
1.0
102
RTVSPost2010PropOp57
 70
     1
  0
XRECORD
  5
240
102
{ACAD_REACTORS
330
23F
102
}
330
23F
100
AcDbXrecord
280
     1
102
RTVSPropertyOp0
 70
     1
102
RTVSPropertyOp1
 70
     1
102
RTVSPropertyOp2
 70
     1
102
RTVSPropertyOp3
 70
     1
102
RTVSPropertyOp4
 70
     1
102
RTVSPropertyOp5
 70
     1
102
RTVSPropertyOp6
 70
     1
102
RTVSPropertyOp7
 70
     1
102
RTVSPropertyOp8
 70
     1
102
RTVSPropertyOp9
 70
     1
102
RTVSPropertyOp10
 70
     1
102
RTVSPropertyOp11
 70
     1
102
RTVSPropertyOp12
 70
     1
102
RTVSPropertyOp13
 70
     1
102
RTVSPropertyOp14
 70
     1
102
RTVSPropertyOp15
 70
     1
102
RTVSPropertyOp16
 70
     1
102
RTVSPropertyOp17
 70
     1
102
RTVSPropertyOp18
 70
     1
102
RTVSPropertyOp19
 70
     1
102
RTVSPropertyOp20
 70
     1
102
RTVSPropertyOp21
 70
     1
102
RTVSPropertyOp22
 70
     1
102
RTVSPropertyOp23
 70
     1
102
RTVSPropertyOp24
 70
     1
102
RTVSPropertyOp25
 70
     1
102
RTVSPropertyOp26
 70
     1
102
RTVSPropertyOp27
 70
     1
102
RTVSPropertyOp28
 70
     1
102
RTVSPropertyOp29
 70
     1
102
RTVSPropertyOp30
 70
     1
102
RTVSPropertyOp31
 70
     1
102
RTVSPropertyOp32
 70
     1
102
RTVSPropertyOp33
 70
     1
102
RTVSPropertyOp34
 70
     1
102
RTVSPropertyOp35
 70
     1
102
RTVSPropertyOp36
 70
     1
102
RTVSPropertyOp37
 70
     1
102
RTVSPropertyOp38
 70
     1
102
RTVSPropertyOp39
 70
     1
102
RTVSPropertyOp40
 70
     1
102
RTVSPropertyOp41
 70
     1
102
RTVSPropertyOp42
 70
     1
102
RTVSPropertyOp43
 70
     1
102
RTVSPropertyOp44
 70
     1
102
RTVSPropertyOp45
 70
     1
102
RTVSPropertyOp46
 70
     1
102
RTVSPropertyOp47
 70
     1
102
RTVSPropertyOp48
 70
     1
102
RTVSPropertyOp49
 70
     1
102
RTVSPropertyOp50
 70
     1
102
RTVSPropertyOp51
 70
     0
102
RTVSPropertyOp52
 70
     0
102
RTVSPropertyOp53
 70
     1
102
RTVSPropertyOp54
 70
     1
102
RTVSPropertyOp55
 70
     1
102
RTVSPropertyOp56
 70
     1
102
RTVSPropertyOp57
 70
     1
102
RTVSPost2010Prop28
280
     0
102
RTVSPost2010PropOp28
 70
     1
102
RTVSPost2010Prop29
280
     1
102
RTVSPost2010PropOp29
 70
     1
102
RTVSPost2010Prop30
280
     1
102
RTVSPost2010PropOp30
 70
     1
102
RTVSPost2010Prop31
280
     0
102
RTVSPost2010PropOp31
 70
     1
102
RTVSPost2010Prop32
280
     0
102
RTVSPost2010PropOp32
 70
     1
102
RTVSPost2010Prop33
280
     0
102
RTVSPost2010PropOp33
 70
     1
102
RTVSPost2010Prop34
280
     0
102
RTVSPost2010PropOp34
 70
     1
102
RTVSPost2010Prop35
280
     0
102
RTVSPost2010PropOp35
 70
     1
102
RTVSPost2010Prop36
280
     0
102
RTVSPost2010PropOp36
 70
     1
102
RTVSPost2010Prop37
 90
       50
102
RTVSPost2010PropOp37
 70
     1
102
RTVSPost2010Prop38
140
0.0
102
RTVSPost2010PropOp38
 70
     1
102
RTVSPost2010Prop39
140
1.0
102
RTVSPost2010PropOp39
 70
     1
102
RTVSPost2010Prop40
 90
        0
102
RTVSPost2010PropOp40
 70
     1
102
RTVSPost2010Prop41ColorIndex
 90
       18
102
RTVSPost2010Prop41ColorRGB
 90
        0
102
RTVSPost2010PropOp41
 70
     1
102
RTVSPost2010Prop42
 90
       50
102
RTVSPost2010PropOp42
 70
     1
102
RTVSPost2010Prop43
 90
        3
102
RTVSPost2010PropOp43
 70
     1
102
RTVSPost2010Prop44ColorIndex
 90
        5
102
RTVSPost2010Prop44ColorRGB
 90
      255
102
RTVSPost2010PropOp44
 70
     1
102
RTVSPost2010Prop45
280
     0
102
RTVSPost2010PropOp45
 70
     1
102
RTVSPost2010Prop46
 90
       50
102
RTVSPost2010PropOp46
 70
     1
102
RTVSPost2010Prop47
 90
       50
102
RTVSPost2010PropOp47
 70
     1
102
RTVSPost2010Prop48
 90
       50
102
RTVSPost2010PropOp48
 70
     1
102
RTVSPost2010Prop49
280
     0
102
RTVSPost2010PropOp49
 70
     1
102
RTVSPost2010Prop50
 90
       50
102
RTVSPost2010PropOp50
 70
     1
102
RTVSPost2010Prop51ColorIndex
 90
      256
102
RTVSPost2010Prop51ColorRGB
 90
-16777216
102
RTVSPost2010PropOp51
 70
     0
102
RTVSPost2010Prop52
140
1.0
102
RTVSPost2010PropOp52
 70
     0
102
RTVSPost2010Prop53
 90
        2
102
RTVSPost2010PropOp53
 70
     1
102
RTVSPost2010Prop54
  1
strokes_ogs.tif
102
RTVSPost2010PropOp54
 70
     1
102
RTVSPost2010Prop55
280
     0
102
RTVSPost2010PropOp55
 70
     1
102
RTVSPost2010Prop56
140
1.0
102
RTVSPost2010PropOp56
 70
     1
102
RTVSPost2010Prop57
140
1.0
102
RTVSPost2010PropOp57
 70
     1
  0
XRECORD
  5
250
102
{ACAD_REACTORS
330
24F
102
}
330
24F
100
AcDbXrecord
280
     1
102
RTVSPropertyOp0
 70
     0
102
RTVSPropertyOp1
 70
     0
102
RTVSPropertyOp2
 70
     0
102
RTVSPropertyOp3
 70
     0
102
RTVSPropertyOp4
 70
     0
102
RTVSPropertyOp5
 70
     0
102
RTVSPropertyOp6
 70
     0
102
RTVSPropertyOp7
 70
     0
102
RTVSPropertyOp8
 70
     0
102
RTVSPropertyOp9
 70
     0
102
RTVSPropertyOp10
 70
     0
102
RTVSPropertyOp11
 70
     0
102
RTVSPropertyOp12
 70
     0
102
RTVSPropertyOp13
 70
     0
102
RTVSPropertyOp14
 70
     2
102
RTVSPropertyOp15
 70
     0
102
RTVSPropertyOp16
 70
     0
102
RTVSPropertyOp17
 70
     0
102
RTVSPropertyOp18
 70
     0
102
RTVSPropertyOp19
 70
     0
102
RTVSPropertyOp20
 70
     0
102
RTVSPropertyOp21
 70
     0
102
RTVSPropertyOp22
 70
     0
102
RTVSPropertyOp23
 70
     0
102
RTVSPropertyOp24
 70
     0
102
RTVSPropertyOp25
 70
     0
102
RTVSPropertyOp26
 70
     0
102
RTVSPropertyOp27
 70
     0
102
RTVSPropertyOp28
 70
     0
102
RTVSPropertyOp29
 70
     0
102
RTVSPropertyOp30
 70
     0
102
RTVSPropertyOp31
 70
     0
102
RTVSPropertyOp32
 70
     0
102
RTVSPropertyOp33
 70
     0
102
RTVSPropertyOp34
 70
     0
102
RTVSPropertyOp35
 70
     0
102
RTVSPropertyOp36
 70
     0
102
RTVSPropertyOp37
 70
     0
102
RTVSPropertyOp38
 70
     0
102
RTVSPropertyOp39
 70
     0
102
RTVSPropertyOp40
 70
     0
102
RTVSPropertyOp41
 70
     0
102
RTVSPropertyOp42
 70
     0
102
RTVSPropertyOp43
 70
     0
102
RTVSPropertyOp44
 70
     0
102
RTVSPropertyOp45
 70
     0
102
RTVSPropertyOp46
 70
     0
102
RTVSPropertyOp47
 70
     0
102
RTVSPropertyOp48
 70
     0
102
RTVSPropertyOp49
 70
     0
102
RTVSPropertyOp50
 70
     0
102
RTVSPropertyOp51
 70
     0
102
RTVSPropertyOp52
 70
     0
102
RTVSPropertyOp53
 70
     0
102
RTVSPropertyOp54
 70
     0
102
RTVSPropertyOp55
 70
     0
102
RTVSPropertyOp56
 70
     0
102
RTVSPropertyOp57
 70
     0
102
RTVSPost2010Prop28
280
     0
102
RTVSPost2010PropOp28
 70
     0
102
RTVSPost2010Prop29
280
     1
102
RTVSPost2010PropOp29
 70
     0
102
RTVSPost2010Prop30
280
     1
102
RTVSPost2010PropOp30
 70
     0
102
RTVSPost2010Prop31
280
     0
102
RTVSPost2010PropOp31
 70
     0
102
RTVSPost2010Prop32
280
     0
102
RTVSPost2010PropOp32
 70
     0
102
RTVSPost2010Prop33
280
     0
102
RTVSPost2010PropOp33
 70
     0
102
RTVSPost2010Prop34
280
     0
102
RTVSPost2010PropOp34
 70
     0
102
RTVSPost2010Prop35
280
     0
102
RTVSPost2010PropOp35
 70
     0
102
RTVSPost2010Prop36
280
     0
102
RTVSPost2010PropOp36
 70
     0
102
RTVSPost2010Prop37
 90
       50
102
RTVSPost2010PropOp37
 70
     0
102
RTVSPost2010Prop38
140
0.0
102
RTVSPost2010PropOp38
 70
     0
102
RTVSPost2010Prop39
140
1.0
102
RTVSPost2010PropOp39
 70
     0
102
RTVSPost2010Prop40
 90
        0
102
RTVSPost2010PropOp40
 70
     0
102
RTVSPost2010Prop41ColorIndex
 90
       18
102
RTVSPost2010Prop41ColorRGB
 90
        0
102
RTVSPost2010PropOp41
 70
     0
102
RTVSPost2010Prop42
 90
       50
102
RTVSPost2010PropOp42
 70
     0
102
RTVSPost2010Prop43
 90
        3
102
RTVSPost2010PropOp43
 70
     0
102
RTVSPost2010Prop44ColorIndex
 90
        5
102
RTVSPost2010Prop44ColorRGB
 90
      255
102
RTVSPost2010PropOp44
 70
     0
102
RTVSPost2010Prop45
280
     0
102
RTVSPost2010PropOp45
 70
     0
102
RTVSPost2010Prop46
 90
       50
102
RTVSPost2010PropOp46
 70
     0
102
RTVSPost2010Prop47
 90
       50
102
RTVSPost2010PropOp47
 70
     0
102
RTVSPost2010Prop48
 90
       50
102
RTVSPost2010PropOp48
 70
     0
102
RTVSPost2010Prop49
280
     0
102
RTVSPost2010PropOp49
 70
     0
102
RTVSPost2010Prop50
 90
       50
102
RTVSPost2010PropOp50
 70
     0
102
RTVSPost2010Prop51ColorIndex
 90
      256
102
RTVSPost2010Prop51ColorRGB
 90
-16777216
102
RTVSPost2010PropOp51
 70
     0
102
RTVSPost2010Prop52
140
1.0
102
RTVSPost2010PropOp52
 70
     0
102
RTVSPost2010Prop53
 90
        2
102
RTVSPost2010PropOp53
 70
     0
102
RTVSPost2010Prop54
  1
strokes_ogs.tif
102
RTVSPost2010PropOp54
 70
     0
102
RTVSPost2010Prop55
280
     0
102
RTVSPost2010PropOp55
 70
     0
102
RTVSPost2010Prop56
140
1.0
102
RTVSPost2010PropOp56
 70
     0
102
RTVSPost2010Prop57
140
1.0
102
RTVSPost2010PropOp57
 70
     0
  0
XRECORD
  5
248
102
{ACAD_REACTORS
330
247
102
}
330
247
100
AcDbXrecord
280
     1
102
RTVSPropertyOp0
 70
     1
102
RTVSPropertyOp1
 70
     1
102
RTVSPropertyOp2
 70
     1
102
RTVSPropertyOp3
 70
     1
102
RTVSPropertyOp4
 70
     1
102
RTVSPropertyOp5
 70
     1
102
RTVSPropertyOp6
 70
     1
102
RTVSPropertyOp7
 70
     1
102
RTVSPropertyOp8
 70
     1
102
RTVSPropertyOp9
 70
     1
102
RTVSPropertyOp10
 70
     1
102
RTVSPropertyOp11
 70
     1
102
RTVSPropertyOp12
 70
     1
102
RTVSPropertyOp13
 70
     1
102
RTVSPropertyOp14
 70
     1
102
RTVSPropertyOp15
 70
     1
102
RTVSPropertyOp16
 70
     1
102
RTVSPropertyOp17
 70
     1
102
RTVSPropertyOp18
 70
     1
102
RTVSPropertyOp19
 70
     1
102
RTVSPropertyOp20
 70
     1
102
RTVSPropertyOp21
 70
     1
102
RTVSPropertyOp22
 70
     1
102
RTVSPropertyOp23
 70
     1
102
RTVSPropertyOp24
 70
     1
102
RTVSPropertyOp25
 70
     1
102
RTVSPropertyOp26
 70
     1
102
RTVSPropertyOp27
 70
     1
102
RTVSPropertyOp28
 70
     1
102
RTVSPropertyOp29
 70
     1
102
RTVSPropertyOp30
 70
     1
102
RTVSPropertyOp31
 70
     1
102
RTVSPropertyOp32
 70
     1
102
RTVSPropertyOp33
 70
     1
102
RTVSPropertyOp34
 70
     1
102
RTVSPropertyOp35
 70
     1
102
RTVSPropertyOp36
 70
     1
102
RTVSPropertyOp37
 70
     1
102
RTVSPropertyOp38
 70
     1
102
RTVSPropertyOp39
 70
     1
102
RTVSPropertyOp40
 70
     1
102
RTVSPropertyOp41
 70
     1
102
RTVSPropertyOp42
 70
     1
102
RTVSPropertyOp43
 70
     1
102
RTVSPropertyOp44
 70
     1
102
RTVSPropertyOp45
 70
     1
102
RTVSPropertyOp46
 70
     1
102
RTVSPropertyOp47
 70
     1
102
RTVSPropertyOp48
 70
     1
102
RTVSPropertyOp49
 70
     1
102
RTVSPropertyOp50
 70
     1
102
RTVSPropertyOp51
 70
     0
102
RTVSPropertyOp52
 70
     0
102
RTVSPropertyOp53
 70
     1
102
RTVSPropertyOp54
 70
     1
102
RTVSPropertyOp55
 70
     1
102
RTVSPropertyOp56
 70
     1
102
RTVSPropertyOp57
 70
     1
102
RTVSPost2010Prop28
280
     0
102
RTVSPost2010PropOp28
 70
     1
102
RTVSPost2010Prop29
280
     1
102
RTVSPost2010PropOp29
 70
     1
102
RTVSPost2010Prop30
280
     1
102
RTVSPost2010PropOp30
 70
     1
102
RTVSPost2010Prop31
280
     0
102
RTVSPost2010PropOp31
 70
     1
102
RTVSPost2010Prop32
280
     0
102
RTVSPost2010PropOp32
 70
     1
102
RTVSPost2010Prop33
280
     0
102
RTVSPost2010PropOp33
 70
     1
102
RTVSPost2010Prop34
280
     0
102
RTVSPost2010PropOp34
 70
     1
102
RTVSPost2010Prop35
280
     0
102
RTVSPost2010PropOp35
 70
     1
102
RTVSPost2010Prop36
280
     0
102
RTVSPost2010PropOp36
 70
     1
102
RTVSPost2010Prop37
 90
       50
102
RTVSPost2010PropOp37
 70
     1
102
RTVSPost2010Prop38
140
0.0
102
RTVSPost2010PropOp38
 70
     1
102
RTVSPost2010Prop39
140
1.0
102
RTVSPost2010PropOp39
 70
     1
102
RTVSPost2010Prop40
 90
        0
102
RTVSPost2010PropOp40
 70
     1
102
RTVSPost2010Prop41ColorIndex
 90
       18
102
RTVSPost2010Prop41ColorRGB
 90
        0
102
RTVSPost2010PropOp41
 70
     1
102
RTVSPost2010Prop42
 90
       50
102
RTVSPost2010PropOp42
 70
     1
102
RTVSPost2010Prop43
 90
        3
102
RTVSPost2010PropOp43
 70
     1
102
RTVSPost2010Prop44ColorIndex
 90
        5
102
RTVSPost2010Prop44ColorRGB
 90
      255
102
RTVSPost2010PropOp44
 70
     1
102
RTVSPost2010Prop45
280
     0
102
RTVSPost2010PropOp45
 70
     1
102
RTVSPost2010Prop46
 90
       50
102
RTVSPost2010PropOp46
 70
     1
102
RTVSPost2010Prop47
 90
       50
102
RTVSPost2010PropOp47
 70
     1
102
RTVSPost2010Prop48
 90
       50
102
RTVSPost2010PropOp48
 70
     1
102
RTVSPost2010Prop49
280
     0
102
RTVSPost2010PropOp49
 70
     1
102
RTVSPost2010Prop50
 90
       50
102
RTVSPost2010PropOp50
 70
     1
102
RTVSPost2010Prop51ColorIndex
 90
      256
102
RTVSPost2010Prop51ColorRGB
 90
-16777216
102
RTVSPost2010PropOp51
 70
     0
102
RTVSPost2010Prop52
140
1.0
102
RTVSPost2010PropOp52
 70
     0
102
RTVSPost2010Prop53
 90
        2
102
RTVSPost2010PropOp53
 70
     1
102
RTVSPost2010Prop54
  1
strokes_ogs.tif
102
RTVSPost2010PropOp54
 70
     1
102
RTVSPost2010Prop55
280
     0
102
RTVSPost2010PropOp55
 70
     1
102
RTVSPost2010Prop56
140
1.0
102
RTVSPost2010PropOp56
 70
     1
102
RTVSPost2010Prop57
140
1.0
102
RTVSPost2010PropOp57
 70
     1
  0
XRECORD
  5
22C
102
{ACAD_REACTORS
330
22B
102
}
330
22B
100
AcDbXrecord
280
     1
102
RTVSPropertyOp0
 70
     1
102
RTVSPropertyOp1
 70
     1
102
RTVSPropertyOp2
 70
     1
102
RTVSPropertyOp3
 70
     1
102
RTVSPropertyOp4
 70
     1
102
RTVSPropertyOp5
 70
     1
102
RTVSPropertyOp6
 70
     1
102
RTVSPropertyOp7
 70
     1
102
RTVSPropertyOp8
 70
     1
102
RTVSPropertyOp9
 70
     1
102
RTVSPropertyOp10
 70
     1
102
RTVSPropertyOp11
 70
     1
102
RTVSPropertyOp12
 70
     1
102
RTVSPropertyOp13
 70
     1
102
RTVSPropertyOp14
 70
     1
102
RTVSPropertyOp15
 70
     1
102
RTVSPropertyOp16
 70
     1
102
RTVSPropertyOp17
 70
     1
102
RTVSPropertyOp18
 70
     1
102
RTVSPropertyOp19
 70
     1
102
RTVSPropertyOp20
 70
     1
102
RTVSPropertyOp21
 70
     1
102
RTVSPropertyOp22
 70
     1
102
RTVSPropertyOp23
 70
     1
102
RTVSPropertyOp24
 70
     1
102
RTVSPropertyOp25
 70
     1
102
RTVSPropertyOp26
 70
     1
102
RTVSPropertyOp27
 70
     1
102
RTVSPropertyOp28
 70
     1
102
RTVSPropertyOp29
 70
     1
102
RTVSPropertyOp30
 70
     1
102
RTVSPropertyOp31
 70
     1
102
RTVSPropertyOp32
 70
     1
102
RTVSPropertyOp33
 70
     1
102
RTVSPropertyOp34
 70
     1
102
RTVSPropertyOp35
 70
     1
102
RTVSPropertyOp36
 70
     1
102
RTVSPropertyOp37
 70
     1
102
RTVSPropertyOp38
 70
     1
102
RTVSPropertyOp39
 70
     1
102
RTVSPropertyOp40
 70
     1
102
RTVSPropertyOp41
 70
     1
102
RTVSPropertyOp42
 70
     1
102
RTVSPropertyOp43
 70
     1
102
RTVSPropertyOp44
 70
     1
102
RTVSPropertyOp45
 70
     1
102
RTVSPropertyOp46
 70
     1
102
RTVSPropertyOp47
 70
     1
102
RTVSPropertyOp48
 70
     1
102
RTVSPropertyOp49
 70
     1
102
RTVSPropertyOp50
 70
     1
102
RTVSPropertyOp51
 70
     0
102
RTVSPropertyOp52
 70
     0
102
RTVSPropertyOp53
 70
     1
102
RTVSPropertyOp54
 70
     1
102
RTVSPropertyOp55
 70
     1
102
RTVSPropertyOp56
 70
     1
102
RTVSPropertyOp57
 70
     1
102
RTVSPost2010Prop28
280
     0
102
RTVSPost2010PropOp28
 70
     1
102
RTVSPost2010Prop29
280
     1
102
RTVSPost2010PropOp29
 70
     1
102
RTVSPost2010Prop30
280
     1
102
RTVSPost2010PropOp30
 70
     1
102
RTVSPost2010Prop31
280
     0
102
RTVSPost2010PropOp31
 70
     1
102
RTVSPost2010Prop32
280
     0
102
RTVSPost2010PropOp32
 70
     1
102
RTVSPost2010Prop33
280
     0
102
RTVSPost2010PropOp33
 70
     1
102
RTVSPost2010Prop34
280
     0
102
RTVSPost2010PropOp34
 70
     1
102
RTVSPost2010Prop35
280
     0
102
RTVSPost2010PropOp35
 70
     1
102
RTVSPost2010Prop36
280
     0
102
RTVSPost2010PropOp36
 70
     1
102
RTVSPost2010Prop37
 90
       50
102
RTVSPost2010PropOp37
 70
     1
102
RTVSPost2010Prop38
140
0.0
102
RTVSPost2010PropOp38
 70
     1
102
RTVSPost2010Prop39
140
1.0
102
RTVSPost2010PropOp39
 70
     1
102
RTVSPost2010Prop40
 90
        0
102
RTVSPost2010PropOp40
 70
     1
102
RTVSPost2010Prop41ColorIndex
 90
       18
102
RTVSPost2010Prop41ColorRGB
 90
        0
102
RTVSPost2010PropOp41
 70
     1
102
RTVSPost2010Prop42
 90
       50
102
RTVSPost2010PropOp42
 70
     1
102
RTVSPost2010Prop43
 90
        3
102
RTVSPost2010PropOp43
 70
     1
102
RTVSPost2010Prop44ColorIndex
 90
        5
102
RTVSPost2010Prop44ColorRGB
 90
      255
102
RTVSPost2010PropOp44
 70
     1
102
RTVSPost2010Prop45
280
     0
102
RTVSPost2010PropOp45
 70
     1
102
RTVSPost2010Prop46
 90
       50
102
RTVSPost2010PropOp46
 70
     1
102
RTVSPost2010Prop47
 90
       50
102
RTVSPost2010PropOp47
 70
     1
102
RTVSPost2010Prop48
 90
       50
102
RTVSPost2010PropOp48
 70
     1
102
RTVSPost2010Prop49
280
     0
102
RTVSPost2010PropOp49
 70
     1
102
RTVSPost2010Prop50
 90
       50
102
RTVSPost2010PropOp50
 70
     1
102
RTVSPost2010Prop51ColorIndex
 90
      256
102
RTVSPost2010Prop51ColorRGB
 90
-16777216
102
RTVSPost2010PropOp51
 70
     0
102
RTVSPost2010Prop52
140
1.0
102
RTVSPost2010PropOp52
 70
     0
102
RTVSPost2010Prop53
 90
        2
102
RTVSPost2010PropOp53
 70
     1
102
RTVSPost2010Prop54
  1
strokes_ogs.tif
102
RTVSPost2010PropOp54
 70
     1
102
RTVSPost2010Prop55
280
     0
102
RTVSPost2010PropOp55
 70
     1
102
RTVSPost2010Prop56
140
1.0
102
RTVSPost2010PropOp56
 70
     1
102
RTVSPost2010Prop57
140
1.0
102
RTVSPost2010PropOp57
 70
     1
  0
XRECORD
  5
22E
102
{ACAD_REACTORS
330
22D
102
}
330
22D
100
AcDbXrecord
280
     1
102
RTVSPropertyOp0
 70
     1
102
RTVSPropertyOp1
 70
     1
102
RTVSPropertyOp2
 70
     1
102
RTVSPropertyOp3
 70
     1
102
RTVSPropertyOp4
 70
     1
102
RTVSPropertyOp5
 70
     1
102
RTVSPropertyOp6
 70
     1
102
RTVSPropertyOp7
 70
     1
102
RTVSPropertyOp8
 70
     1
102
RTVSPropertyOp9
 70
     1
102
RTVSPropertyOp10
 70
     1
102
RTVSPropertyOp11
 70
     1
102
RTVSPropertyOp12
 70
     1
102
RTVSPropertyOp13
 70
     1
102
RTVSPropertyOp14
 70
     1
102
RTVSPropertyOp15
 70
     1
102
RTVSPropertyOp16
 70
     1
102
RTVSPropertyOp17
 70
     1
102
RTVSPropertyOp18
 70
     1
102
RTVSPropertyOp19
 70
     1
102
RTVSPropertyOp20
 70
     1
102
RTVSPropertyOp21
 70
     1
102
RTVSPropertyOp22
 70
     1
102
RTVSPropertyOp23
 70
     1
102
RTVSPropertyOp24
 70
     1
102
RTVSPropertyOp25
 70
     1
102
RTVSPropertyOp26
 70
     1
102
RTVSPropertyOp27
 70
     1
102
RTVSPropertyOp28
 70
     1
102
RTVSPropertyOp29
 70
     1
102
RTVSPropertyOp30
 70
     1
102
RTVSPropertyOp31
 70
     1
102
RTVSPropertyOp32
 70
     1
102
RTVSPropertyOp33
 70
     1
102
RTVSPropertyOp34
 70
     1
102
RTVSPropertyOp35
 70
     1
102
RTVSPropertyOp36
 70
     1
102
RTVSPropertyOp37
 70
     1
102
RTVSPropertyOp38
 70
     1
102
RTVSPropertyOp39
 70
     1
102
RTVSPropertyOp40
 70
     1
102
RTVSPropertyOp41
 70
     1
102
RTVSPropertyOp42
 70
     1
102
RTVSPropertyOp43
 70
     1
102
RTVSPropertyOp44
 70
     1
102
RTVSPropertyOp45
 70
     1
102
RTVSPropertyOp46
 70
     1
102
RTVSPropertyOp47
 70
     1
102
RTVSPropertyOp48
 70
     1
102
RTVSPropertyOp49
 70
     1
102
RTVSPropertyOp50
 70
     1
102
RTVSPropertyOp51
 70
     0
102
RTVSPropertyOp52
 70
     0
102
RTVSPropertyOp53
 70
     1
102
RTVSPropertyOp54
 70
     1
102
RTVSPropertyOp55
 70
     1
102
RTVSPropertyOp56
 70
     1
102
RTVSPropertyOp57
 70
     1
102
RTVSPost2010Prop28
280
     0
102
RTVSPost2010PropOp28
 70
     1
102
RTVSPost2010Prop29
280
     1
102
RTVSPost2010PropOp29
 70
     1
102
RTVSPost2010Prop30
280
     1
102
RTVSPost2010PropOp30
 70
     1
102
RTVSPost2010Prop31
280
     0
102
RTVSPost2010PropOp31
 70
     1
102
RTVSPost2010Prop32
280
     0
102
RTVSPost2010PropOp32
 70
     1
102
RTVSPost2010Prop33
280
     0
102
RTVSPost2010PropOp33
 70
     1
102
RTVSPost2010Prop34
280
     0
102
RTVSPost2010PropOp34
 70
     1
102
RTVSPost2010Prop35
280
     0
102
RTVSPost2010PropOp35
 70
     1
102
RTVSPost2010Prop36
280
     0
102
RTVSPost2010PropOp36
 70
     1
102
RTVSPost2010Prop37
 90
       50
102
RTVSPost2010PropOp37
 70
     1
102
RTVSPost2010Prop38
140
0.0
102
RTVSPost2010PropOp38
 70
     1
102
RTVSPost2010Prop39
140
1.0
102
RTVSPost2010PropOp39
 70
     1
102
RTVSPost2010Prop40
 90
        0
102
RTVSPost2010PropOp40
 70
     1
102
RTVSPost2010Prop41ColorIndex
 90
       18
102
RTVSPost2010Prop41ColorRGB
 90
        0
102
RTVSPost2010PropOp41
 70
     1
102
RTVSPost2010Prop42
 90
       50
102
RTVSPost2010PropOp42
 70
     1
102
RTVSPost2010Prop43
 90
        3
102
RTVSPost2010PropOp43
 70
     1
102
RTVSPost2010Prop44ColorIndex
 90
        5
102
RTVSPost2010Prop44ColorRGB
 90
      255
102
RTVSPost2010PropOp44
 70
     1
102
RTVSPost2010Prop45
280
     0
102
RTVSPost2010PropOp45
 70
     1
102
RTVSPost2010Prop46
 90
       50
102
RTVSPost2010PropOp46
 70
     1
102
RTVSPost2010Prop47
 90
       50
102
RTVSPost2010PropOp47
 70
     1
102
RTVSPost2010Prop48
 90
       50
102
RTVSPost2010PropOp48
 70
     1
102
RTVSPost2010Prop49
280
     0
102
RTVSPost2010PropOp49
 70
     1
102
RTVSPost2010Prop50
 90
       50
102
RTVSPost2010PropOp50
 70
     1
102
RTVSPost2010Prop51ColorIndex
 90
      256
102
RTVSPost2010Prop51ColorRGB
 90
-16777216
102
RTVSPost2010PropOp51
 70
     0
102
RTVSPost2010Prop52
140
1.0
102
RTVSPost2010PropOp52
 70
     0
102
RTVSPost2010Prop53
 90
        2
102
RTVSPost2010PropOp53
 70
     1
102
RTVSPost2010Prop54
  1
strokes_ogs.tif
102
RTVSPost2010PropOp54
 70
     1
102
RTVSPost2010Prop55
280
     0
102
RTVSPost2010PropOp55
 70
     1
102
RTVSPost2010Prop56
140
1.0
102
RTVSPost2010PropOp56
 70
     1
102
RTVSPost2010Prop57
140
1.0
102
RTVSPost2010PropOp57
 70
     1
  0
XRECORD
  5
230
102
{ACAD_REACTORS
330
22F
102
}
330
22F
100
AcDbXrecord
280
     1
102
RTVSPropertyOp0
 70
     1
102
RTVSPropertyOp1
 70
     1
102
RTVSPropertyOp2
 70
     1
102
RTVSPropertyOp3
 70
     1
102
RTVSPropertyOp4
 70
     1
102
RTVSPropertyOp5
 70
     1
102
RTVSPropertyOp6
 70
     1
102
RTVSPropertyOp7
 70
     1
102
RTVSPropertyOp8
 70
     1
102
RTVSPropertyOp9
 70
     1
102
RTVSPropertyOp10
 70
     1
102
RTVSPropertyOp11
 70
     1
102
RTVSPropertyOp12
 70
     1
102
RTVSPropertyOp13
 70
     1
102
RTVSPropertyOp14
 70
     1
102
RTVSPropertyOp15
 70
     1
102
RTVSPropertyOp16
 70
     1
102
RTVSPropertyOp17
 70
     1
102
RTVSPropertyOp18
 70
     1
102
RTVSPropertyOp19
 70
     1
102
RTVSPropertyOp20
 70
     1
102
RTVSPropertyOp21
 70
     1
102
RTVSPropertyOp22
 70
     1
102
RTVSPropertyOp23
 70
     1
102
RTVSPropertyOp24
 70
     1
102
RTVSPropertyOp25
 70
     1
102
RTVSPropertyOp26
 70
     1
102
RTVSPropertyOp27
 70
     1
102
RTVSPropertyOp28
 70
     1
102
RTVSPropertyOp29
 70
     1
102
RTVSPropertyOp30
 70
     1
102
RTVSPropertyOp31
 70
     1
102
RTVSPropertyOp32
 70
     1
102
RTVSPropertyOp33
 70
     1
102
RTVSPropertyOp34
 70
     1
102
RTVSPropertyOp35
 70
     1
102
RTVSPropertyOp36
 70
     1
102
RTVSPropertyOp37
 70
     1
102
RTVSPropertyOp38
 70
     1
102
RTVSPropertyOp39
 70
     1
102
RTVSPropertyOp40
 70
     1
102
RTVSPropertyOp41
 70
     1
102
RTVSPropertyOp42
 70
     1
102
RTVSPropertyOp43
 70
     1
102
RTVSPropertyOp44
 70
     1
102
RTVSPropertyOp45
 70
     1
102
RTVSPropertyOp46
 70
     1
102
RTVSPropertyOp47
 70
     1
102
RTVSPropertyOp48
 70
     1
102
RTVSPropertyOp49
 70
     1
102
RTVSPropertyOp50
 70
     1
102
RTVSPropertyOp51
 70
     0
102
RTVSPropertyOp52
 70
     0
102
RTVSPropertyOp53
 70
     1
102
RTVSPropertyOp54
 70
     1
102
RTVSPropertyOp55
 70
     1
102
RTVSPropertyOp56
 70
     1
102
RTVSPropertyOp57
 70
     1
102
RTVSPost2010Prop28
280
     0
102
RTVSPost2010PropOp28
 70
     1
102
RTVSPost2010Prop29
280
     1
102
RTVSPost2010PropOp29
 70
     1
102
RTVSPost2010Prop30
280
     1
102
RTVSPost2010PropOp30
 70
     1
102
RTVSPost2010Prop31
280
     0
102
RTVSPost2010PropOp31
 70
     1
102
RTVSPost2010Prop32
280
     0
102
RTVSPost2010PropOp32
 70
     1
102
RTVSPost2010Prop33
280
     0
102
RTVSPost2010PropOp33
 70
     1
102
RTVSPost2010Prop34
280
     0
102
RTVSPost2010PropOp34
 70
     1
102
RTVSPost2010Prop35
280
     0
102
RTVSPost2010PropOp35
 70
     1
102
RTVSPost2010Prop36
280
     0
102
RTVSPost2010PropOp36
 70
     1
102
RTVSPost2010Prop37
 90
       50
102
RTVSPost2010PropOp37
 70
     1
102
RTVSPost2010Prop38
140
0.0
102
RTVSPost2010PropOp38
 70
     1
102
RTVSPost2010Prop39
140
1.0
102
RTVSPost2010PropOp39
 70
     1
102
RTVSPost2010Prop40
 90
        0
102
RTVSPost2010PropOp40
 70
     1
102
RTVSPost2010Prop41ColorIndex
 90
       18
102
RTVSPost2010Prop41ColorRGB
 90
        0
102
RTVSPost2010PropOp41
 70
     1
102
RTVSPost2010Prop42
 90
       50
102
RTVSPost2010PropOp42
 70
     1
102
RTVSPost2010Prop43
 90
        3
102
RTVSPost2010PropOp43
 70
     1
102
RTVSPost2010Prop44ColorIndex
 90
        5
102
RTVSPost2010Prop44ColorRGB
 90
      255
102
RTVSPost2010PropOp44
 70
     1
102
RTVSPost2010Prop45
280
     0
102
RTVSPost2010PropOp45
 70
     1
102
RTVSPost2010Prop46
 90
       50
102
RTVSPost2010PropOp46
 70
     1
102
RTVSPost2010Prop47
 90
       50
102
RTVSPost2010PropOp47
 70
     1
102
RTVSPost2010Prop48
 90
       50
102
RTVSPost2010PropOp48
 70
     1
102
RTVSPost2010Prop49
280
     0
102
RTVSPost2010PropOp49
 70
     1
102
RTVSPost2010Prop50
 90
       50
102
RTVSPost2010PropOp50
 70
     1
102
RTVSPost2010Prop51ColorIndex
 90
      256
102
RTVSPost2010Prop51ColorRGB
 90
-16777216
102
RTVSPost2010PropOp51
 70
     0
102
RTVSPost2010Prop52
140
1.0
102
RTVSPost2010PropOp52
 70
     0
102
RTVSPost2010Prop53
 90
        2
102
RTVSPost2010PropOp53
 70
     1
102
RTVSPost2010Prop54
  1
strokes_ogs.tif
102
RTVSPost2010PropOp54
 70
     1
102
RTVSPost2010Prop55
280
     0
102
RTVSPost2010PropOp55
 70
     1
102
RTVSPost2010Prop56
140
1.0
102
RTVSPost2010PropOp56
 70
     1
102
RTVSPost2010Prop57
140
1.0
102
RTVSPost2010PropOp57
 70
     1
  0
XRECORD
  5
232
102
{ACAD_REACTORS
330
231
102
}
330
231
100
AcDbXrecord
280
     1
102
RTVSPropertyOp0
 70
     1
102
RTVSPropertyOp1
 70
     1
102
RTVSPropertyOp2
 70
     1
102
RTVSPropertyOp3
 70
     1
102
RTVSPropertyOp4
 70
     1
102
RTVSPropertyOp5
 70
     1
102
RTVSPropertyOp6
 70
     1
102
RTVSPropertyOp7
 70
     1
102
RTVSPropertyOp8
 70
     1
102
RTVSPropertyOp9
 70
     1
102
RTVSPropertyOp10
 70
     1
102
RTVSPropertyOp11
 70
     1
102
RTVSPropertyOp12
 70
     1
102
RTVSPropertyOp13
 70
     1
102
RTVSPropertyOp14
 70
     1
102
RTVSPropertyOp15
 70
     1
102
RTVSPropertyOp16
 70
     1
102
RTVSPropertyOp17
 70
     1
102
RTVSPropertyOp18
 70
     1
102
RTVSPropertyOp19
 70
     1
102
RTVSPropertyOp20
 70
     1
102
RTVSPropertyOp21
 70
     1
102
RTVSPropertyOp22
 70
     1
102
RTVSPropertyOp23
 70
     1
102
RTVSPropertyOp24
 70
     1
102
RTVSPropertyOp25
 70
     1
102
RTVSPropertyOp26
 70
     1
102
RTVSPropertyOp27
 70
     1
102
RTVSPropertyOp28
 70
     1
102
RTVSPropertyOp29
 70
     1
102
RTVSPropertyOp30
 70
     1
102
RTVSPropertyOp31
 70
     1
102
RTVSPropertyOp32
 70
     1
102
RTVSPropertyOp33
 70
     1
102
RTVSPropertyOp34
 70
     1
102
RTVSPropertyOp35
 70
     1
102
RTVSPropertyOp36
 70
     1
102
RTVSPropertyOp37
 70
     1
102
RTVSPropertyOp38
 70
     1
102
RTVSPropertyOp39
 70
     1
102
RTVSPropertyOp40
 70
     1
102
RTVSPropertyOp41
 70
     1
102
RTVSPropertyOp42
 70
     1
102
RTVSPropertyOp43
 70
     1
102
RTVSPropertyOp44
 70
     1
102
RTVSPropertyOp45
 70
     1
102
RTVSPropertyOp46
 70
     1
102
RTVSPropertyOp47
 70
     1
102
RTVSPropertyOp48
 70
     1
102
RTVSPropertyOp49
 70
     1
102
RTVSPropertyOp50
 70
     1
102
RTVSPropertyOp51
 70
     0
102
RTVSPropertyOp52
 70
     0
102
RTVSPropertyOp53
 70
     1
102
RTVSPropertyOp54
 70
     1
102
RTVSPropertyOp55
 70
     1
102
RTVSPropertyOp56
 70
     1
102
RTVSPropertyOp57
 70
     1
102
RTVSPost2010Prop28
280
     0
102
RTVSPost2010PropOp28
 70
     1
102
RTVSPost2010Prop29
280
     1
102
RTVSPost2010PropOp29
 70
     1
102
RTVSPost2010Prop30
280
     1
102
RTVSPost2010PropOp30
 70
     1
102
RTVSPost2010Prop31
280
     0
102
RTVSPost2010PropOp31
 70
     1
102
RTVSPost2010Prop32
280
     0
102
RTVSPost2010PropOp32
 70
     1
102
RTVSPost2010Prop33
280
     0
102
RTVSPost2010PropOp33
 70
     1
102
RTVSPost2010Prop34
280
     0
102
RTVSPost2010PropOp34
 70
     1
102
RTVSPost2010Prop35
280
     0
102
RTVSPost2010PropOp35
 70
     1
102
RTVSPost2010Prop36
280
     0
102
RTVSPost2010PropOp36
 70
     1
102
RTVSPost2010Prop37
 90
       50
102
RTVSPost2010PropOp37
 70
     1
102
RTVSPost2010Prop38
140
0.0
102
RTVSPost2010PropOp38
 70
     1
102
RTVSPost2010Prop39
140
1.0
102
RTVSPost2010PropOp39
 70
     1
102
RTVSPost2010Prop40
 90
        0
102
RTVSPost2010PropOp40
 70
     1
102
RTVSPost2010Prop41ColorIndex
 90
       18
102
RTVSPost2010Prop41ColorRGB
 90
        0
102
RTVSPost2010PropOp41
 70
     1
102
RTVSPost2010Prop42
 90
       50
102
RTVSPost2010PropOp42
 70
     1
102
RTVSPost2010Prop43
 90
        3
102
RTVSPost2010PropOp43
 70
     1
102
RTVSPost2010Prop44ColorIndex
 90
        5
102
RTVSPost2010Prop44ColorRGB
 90
      255
102
RTVSPost2010PropOp44
 70
     1
102
RTVSPost2010Prop45
280
     0
102
RTVSPost2010PropOp45
 70
     1
102
RTVSPost2010Prop46
 90
       50
102
RTVSPost2010PropOp46
 70
     1
102
RTVSPost2010Prop47
 90
       50
102
RTVSPost2010PropOp47
 70
     1
102
RTVSPost2010Prop48
 90
       50
102
RTVSPost2010PropOp48
 70
     1
102
RTVSPost2010Prop49
280
     0
102
RTVSPost2010PropOp49
 70
     1
102
RTVSPost2010Prop50
 90
       50
102
RTVSPost2010PropOp50
 70
     1
102
RTVSPost2010Prop51ColorIndex
 90
      256
102
RTVSPost2010Prop51ColorRGB
 90
-16777216
102
RTVSPost2010PropOp51
 70
     0
102
RTVSPost2010Prop52
140
1.0
102
RTVSPost2010PropOp52
 70
     0
102
RTVSPost2010Prop53
 90
        2
102
RTVSPost2010PropOp53
 70
     1
102
RTVSPost2010Prop54
  1
strokes_ogs.tif
102
RTVSPost2010PropOp54
 70
     1
102
RTVSPost2010Prop55
280
     0
102
RTVSPost2010PropOp55
 70
     1
102
RTVSPost2010Prop56
140
1.0
102
RTVSPost2010PropOp56
 70
     1
102
RTVSPost2010Prop57
140
1.0
102
RTVSPost2010PropOp57
 70
     1
  0
XRECORD
  5
238
102
{ACAD_REACTORS
330
237
102
}
330
237
100
AcDbXrecord
280
     1
102
RTVSPropertyOp0
 70
     1
102
RTVSPropertyOp1
 70
     1
102
RTVSPropertyOp2
 70
     1
102
RTVSPropertyOp3
 70
     1
102
RTVSPropertyOp4
 70
     1
102
RTVSPropertyOp5
 70
     1
102
RTVSPropertyOp6
 70
     1
102
RTVSPropertyOp7
 70
     1
102
RTVSPropertyOp8
 70
     1
102
RTVSPropertyOp9
 70
     1
102
RTVSPropertyOp10
 70
     1
102
RTVSPropertyOp11
 70
     1
102
RTVSPropertyOp12
 70
     1
102
RTVSPropertyOp13
 70
     1
102
RTVSPropertyOp14
 70
     1
102
RTVSPropertyOp15
 70
     1
102
RTVSPropertyOp16
 70
     1
102
RTVSPropertyOp17
 70
     1
102
RTVSPropertyOp18
 70
     1
102
RTVSPropertyOp19
 70
     1
102
RTVSPropertyOp20
 70
     1
102
RTVSPropertyOp21
 70
     1
102
RTVSPropertyOp22
 70
     1
102
RTVSPropertyOp23
 70
     1
102
RTVSPropertyOp24
 70
     1
102
RTVSPropertyOp25
 70
     1
102
RTVSPropertyOp26
 70
     1
102
RTVSPropertyOp27
 70
     1
102
RTVSPropertyOp28
 70
     1
102
RTVSPropertyOp29
 70
     1
102
RTVSPropertyOp30
 70
     1
102
RTVSPropertyOp31
 70
     1
102
RTVSPropertyOp32
 70
     1
102
RTVSPropertyOp33
 70
     1
102
RTVSPropertyOp34
 70
     1
102
RTVSPropertyOp35
 70
     1
102
RTVSPropertyOp36
 70
     1
102
RTVSPropertyOp37
 70
     1
102
RTVSPropertyOp38
 70
     1
102
RTVSPropertyOp39
 70
     1
102
RTVSPropertyOp40
 70
     1
102
RTVSPropertyOp41
 70
     1
102
RTVSPropertyOp42
 70
     1
102
RTVSPropertyOp43
 70
     1
102
RTVSPropertyOp44
 70
     1
102
RTVSPropertyOp45
 70
     1
102
RTVSPropertyOp46
 70
     1
102
RTVSPropertyOp47
 70
     1
102
RTVSPropertyOp48
 70
     1
102
RTVSPropertyOp49
 70
     1
102
RTVSPropertyOp50
 70
     1
102
RTVSPropertyOp51
 70
     0
102
RTVSPropertyOp52
 70
     0
102
RTVSPropertyOp53
 70
     1
102
RTVSPropertyOp54
 70
     1
102
RTVSPropertyOp55
 70
     1
102
RTVSPropertyOp56
 70
     1
102
RTVSPropertyOp57
 70
     1
102
RTVSPost2010Prop28
280
     0
102
RTVSPost2010PropOp28
 70
     1
102
RTVSPost2010Prop29
280
     1
102
RTVSPost2010PropOp29
 70
     1
102
RTVSPost2010Prop30
280
     1
102
RTVSPost2010PropOp30
 70
     1
102
RTVSPost2010Prop31
280
     0
102
RTVSPost2010PropOp31
 70
     1
102
RTVSPost2010Prop32
280
     0
102
RTVSPost2010PropOp32
 70
     1
102
RTVSPost2010Prop33
280
     0
102
RTVSPost2010PropOp33
 70
     1
102
RTVSPost2010Prop34
280
     0
102
RTVSPost2010PropOp34
 70
     1
102
RTVSPost2010Prop35
280
     0
102
RTVSPost2010PropOp35
 70
     1
102
RTVSPost2010Prop36
280
     0
102
RTVSPost2010PropOp36
 70
     1
102
RTVSPost2010Prop37
 90
       50
102
RTVSPost2010PropOp37
 70
     1
102
RTVSPost2010Prop38
140
0.0
102
RTVSPost2010PropOp38
 70
     1
102
RTVSPost2010Prop39
140
1.0
102
RTVSPost2010PropOp39
 70
     1
102
RTVSPost2010Prop40
 90
        0
102
RTVSPost2010PropOp40
 70
     1
102
RTVSPost2010Prop41ColorIndex
 90
       18
102
RTVSPost2010Prop41ColorRGB
 90
        0
102
RTVSPost2010PropOp41
 70
     1
102
RTVSPost2010Prop42
 90
       50
102
RTVSPost2010PropOp42
 70
     1
102
RTVSPost2010Prop43
 90
        3
102
RTVSPost2010PropOp43
 70
     1
102
RTVSPost2010Prop44ColorIndex
 90
        5
102
RTVSPost2010Prop44ColorRGB
 90
      255
102
RTVSPost2010PropOp44
 70
     1
102
RTVSPost2010Prop45
280
     0
102
RTVSPost2010PropOp45
 70
     1
102
RTVSPost2010Prop46
 90
       50
102
RTVSPost2010PropOp46
 70
     1
102
RTVSPost2010Prop47
 90
       50
102
RTVSPost2010PropOp47
 70
     1
102
RTVSPost2010Prop48
 90
       50
102
RTVSPost2010PropOp48
 70
     1
102
RTVSPost2010Prop49
280
     0
102
RTVSPost2010PropOp49
 70
     1
102
RTVSPost2010Prop50
 90
       50
102
RTVSPost2010PropOp50
 70
     1
102
RTVSPost2010Prop51ColorIndex
 90
      256
102
RTVSPost2010Prop51ColorRGB
 90
-16777216
102
RTVSPost2010PropOp51
 70
     0
102
RTVSPost2010Prop52
140
1.0
102
RTVSPost2010PropOp52
 70
     0
102
RTVSPost2010Prop53
 90
        2
102
RTVSPost2010PropOp53
 70
     1
102
RTVSPost2010Prop54
  1
strokes_ogs.tif
102
RTVSPost2010PropOp54
 70
     1
102
RTVSPost2010Prop55
280
     0
102
RTVSPost2010PropOp55
 70
     1
102
RTVSPost2010Prop56
140
1.0
102
RTVSPost2010PropOp56
 70
     1
102
RTVSPost2010Prop57
140
1.0
102
RTVSPost2010PropOp57
 70
     1
  0
XRECORD
  5
24C
102
{ACAD_REACTORS
330
24B
102
}
330
24B
100
AcDbXrecord
280
     1
102
RTVSPropertyOp0
 70
     0
102
RTVSPropertyOp1
 70
     0
102
RTVSPropertyOp2
 70
     0
102
RTVSPropertyOp3
 70
     0
102
RTVSPropertyOp4
 70
     0
102
RTVSPropertyOp5
 70
     0
102
RTVSPropertyOp6
 70
     0
102
RTVSPropertyOp7
 70
     0
102
RTVSPropertyOp8
 70
     0
102
RTVSPropertyOp9
 70
     0
102
RTVSPropertyOp10
 70
     0
102
RTVSPropertyOp11
 70
     0
102
RTVSPropertyOp12
 70
     0
102
RTVSPropertyOp13
 70
     0
102
RTVSPropertyOp14
 70
     2
102
RTVSPropertyOp15
 70
     0
102
RTVSPropertyOp16
 70
     0
102
RTVSPropertyOp17
 70
     0
102
RTVSPropertyOp18
 70
     0
102
RTVSPropertyOp19
 70
     0
102
RTVSPropertyOp20
 70
     0
102
RTVSPropertyOp21
 70
     0
102
RTVSPropertyOp22
 70
     0
102
RTVSPropertyOp23
 70
     0
102
RTVSPropertyOp24
 70
     0
102
RTVSPropertyOp25
 70
     0
102
RTVSPropertyOp26
 70
     0
102
RTVSPropertyOp27
 70
     0
102
RTVSPropertyOp28
 70
     0
102
RTVSPropertyOp29
 70
     0
102
RTVSPropertyOp30
 70
     0
102
RTVSPropertyOp31
 70
     0
102
RTVSPropertyOp32
 70
     0
102
RTVSPropertyOp33
 70
     0
102
RTVSPropertyOp34
 70
     0
102
RTVSPropertyOp35
 70
     0
102
RTVSPropertyOp36
 70
     0
102
RTVSPropertyOp37
 70
     0
102
RTVSPropertyOp38
 70
     0
102
RTVSPropertyOp39
 70
     0
102
RTVSPropertyOp40
 70
     0
102
RTVSPropertyOp41
 70
     0
102
RTVSPropertyOp42
 70
     0
102
RTVSPropertyOp43
 70
     0
102
RTVSPropertyOp44
 70
     0
102
RTVSPropertyOp45
 70
     0
102
RTVSPropertyOp46
 70
     0
102
RTVSPropertyOp47
 70
     0
102
RTVSPropertyOp48
 70
     0
102
RTVSPropertyOp49
 70
     0
102
RTVSPropertyOp50
 70
     0
102
RTVSPropertyOp51
 70
     0
102
RTVSPropertyOp52
 70
     0
102
RTVSPropertyOp53
 70
     0
102
RTVSPropertyOp54
 70
     0
102
RTVSPropertyOp55
 70
     0
102
RTVSPropertyOp56
 70
     0
102
RTVSPropertyOp57
 70
     0
102
RTVSPost2010Prop28
280
     0
102
RTVSPost2010PropOp28
 70
     0
102
RTVSPost2010Prop29
280
     1
102
RTVSPost2010PropOp29
 70
     0
102
RTVSPost2010Prop30
280
     1
102
RTVSPost2010PropOp30
 70
     0
102
RTVSPost2010Prop31
280
     0
102
RTVSPost2010PropOp31
 70
     0
102
RTVSPost2010Prop32
280
     0
102
RTVSPost2010PropOp32
 70
     0
102
RTVSPost2010Prop33
280
     0
102
RTVSPost2010PropOp33
 70
     0
102
RTVSPost2010Prop34
280
     0
102
RTVSPost2010PropOp34
 70
     0
102
RTVSPost2010Prop35
280
     0
102
RTVSPost2010PropOp35
 70
     0
102
RTVSPost2010Prop36
280
     0
102
RTVSPost2010PropOp36
 70
     0
102
RTVSPost2010Prop37
 90
       50
102
RTVSPost2010PropOp37
 70
     0
102
RTVSPost2010Prop38
140
0.0
102
RTVSPost2010PropOp38
 70
     0
102
RTVSPost2010Prop39
140
1.0
102
RTVSPost2010PropOp39
 70
     0
102
RTVSPost2010Prop40
 90
        0
102
RTVSPost2010PropOp40
 70
     0
102
RTVSPost2010Prop41ColorIndex
 90
       18
102
RTVSPost2010Prop41ColorRGB
 90
        0
102
RTVSPost2010PropOp41
 70
     0
102
RTVSPost2010Prop42
 90
       50
102
RTVSPost2010PropOp42
 70
     0
102
RTVSPost2010Prop43
 90
        3
102
RTVSPost2010PropOp43
 70
     0
102
RTVSPost2010Prop44ColorIndex
 90
        5
102
RTVSPost2010Prop44ColorRGB
 90
      255
102
RTVSPost2010PropOp44
 70
     0
102
RTVSPost2010Prop45
280
     0
102
RTVSPost2010PropOp45
 70
     0
102
RTVSPost2010Prop46
 90
       50
102
RTVSPost2010PropOp46
 70
     0
102
RTVSPost2010Prop47
 90
       50
102
RTVSPost2010PropOp47
 70
     0
102
RTVSPost2010Prop48
 90
       50
102
RTVSPost2010PropOp48
 70
     0
102
RTVSPost2010Prop49
280
     0
102
RTVSPost2010PropOp49
 70
     0
102
RTVSPost2010Prop50
 90
       50
102
RTVSPost2010PropOp50
 70
     0
102
RTVSPost2010Prop51ColorIndex
 90
      256
102
RTVSPost2010Prop51ColorRGB
 90
-16777216
102
RTVSPost2010PropOp51
 70
     0
102
RTVSPost2010Prop52
140
1.0
102
RTVSPost2010PropOp52
 70
     0
102
RTVSPost2010Prop53
 90
        2
102
RTVSPost2010PropOp53
 70
     0
102
RTVSPost2010Prop54
  1
strokes_ogs.tif
102
RTVSPost2010PropOp54
 70
     0
102
RTVSPost2010Prop55
280
     0
102
RTVSPost2010PropOp55
 70
     0
102
RTVSPost2010Prop56
140
1.0
102
RTVSPost2010PropOp56
 70
     0
102
RTVSPost2010Prop57
140
1.0
102
RTVSPost2010PropOp57
 70
     0
  0
XRECORD
  5
246
102
{ACAD_REACTORS
330
245
102
}
330
245
100
AcDbXrecord
280
     1
102
RTVSPropertyOp0
 70
     1
102
RTVSPropertyOp1
 70
     1
102
RTVSPropertyOp2
 70
     1
102
RTVSPropertyOp3
 70
     1
102
RTVSPropertyOp4
 70
     1
102
RTVSPropertyOp5
 70
     1
102
RTVSPropertyOp6
 70
     1
102
RTVSPropertyOp7
 70
     1
102
RTVSPropertyOp8
 70
     1
102
RTVSPropertyOp9
 70
     1
102
RTVSPropertyOp10
 70
     1
102
RTVSPropertyOp11
 70
     1
102
RTVSPropertyOp12
 70
     1
102
RTVSPropertyOp13
 70
     1
102
RTVSPropertyOp14
 70
     1
102
RTVSPropertyOp15
 70
     1
102
RTVSPropertyOp16
 70
     1
102
RTVSPropertyOp17
 70
     1
102
RTVSPropertyOp18
 70
     1
102
RTVSPropertyOp19
 70
     1
102
RTVSPropertyOp20
 70
     1
102
RTVSPropertyOp21
 70
     1
102
RTVSPropertyOp22
 70
     1
102
RTVSPropertyOp23
 70
     1
102
RTVSPropertyOp24
 70
     1
102
RTVSPropertyOp25
 70
     1
102
RTVSPropertyOp26
 70
     1
102
RTVSPropertyOp27
 70
     1
102
RTVSPropertyOp28
 70
     1
102
RTVSPropertyOp29
 70
     1
102
RTVSPropertyOp30
 70
     1
102
RTVSPropertyOp31
 70
     1
102
RTVSPropertyOp32
 70
     1
102
RTVSPropertyOp33
 70
     1
102
RTVSPropertyOp34
 70
     1
102
RTVSPropertyOp35
 70
     1
102
RTVSPropertyOp36
 70
     1
102
RTVSPropertyOp37
 70
     1
102
RTVSPropertyOp38
 70
     1
102
RTVSPropertyOp39
 70
     1
102
RTVSPropertyOp40
 70
     1
102
RTVSPropertyOp41
 70
     1
102
RTVSPropertyOp42
 70
     1
102
RTVSPropertyOp43
 70
     1
102
RTVSPropertyOp44
 70
     1
102
RTVSPropertyOp45
 70
     1
102
RTVSPropertyOp46
 70
     1
102
RTVSPropertyOp47
 70
     1
102
RTVSPropertyOp48
 70
     1
102
RTVSPropertyOp49
 70
     1
102
RTVSPropertyOp50
 70
     1
102
RTVSPropertyOp51
 70
     0
102
RTVSPropertyOp52
 70
     0
102
RTVSPropertyOp53
 70
     1
102
RTVSPropertyOp54
 70
     1
102
RTVSPropertyOp55
 70
     1
102
RTVSPropertyOp56
 70
     1
102
RTVSPropertyOp57
 70
     1
102
RTVSPost2010Prop28
280
     0
102
RTVSPost2010PropOp28
 70
     1
102
RTVSPost2010Prop29
280
     1
102
RTVSPost2010PropOp29
 70
     1
102
RTVSPost2010Prop30
280
     1
102
RTVSPost2010PropOp30
 70
     1
102
RTVSPost2010Prop31
280
     0
102
RTVSPost2010PropOp31
 70
     1
102
RTVSPost2010Prop32
280
     0
102
RTVSPost2010PropOp32
 70
     1
102
RTVSPost2010Prop33
280
     0
102
RTVSPost2010PropOp33
 70
     1
102
RTVSPost2010Prop34
280
     0
102
RTVSPost2010PropOp34
 70
     1
102
RTVSPost2010Prop35
280
     0
102
RTVSPost2010PropOp35
 70
     1
102
RTVSPost2010Prop36
280
     0
102
RTVSPost2010PropOp36
 70
     1
102
RTVSPost2010Prop37
 90
       50
102
RTVSPost2010PropOp37
 70
     1
102
RTVSPost2010Prop38
140
0.0
102
RTVSPost2010PropOp38
 70
     1
102
RTVSPost2010Prop39
140
1.0
102
RTVSPost2010PropOp39
 70
     1
102
RTVSPost2010Prop40
 90
        0
102
RTVSPost2010PropOp40
 70
     1
102
RTVSPost2010Prop41ColorIndex
 90
       18
102
RTVSPost2010Prop41ColorRGB
 90
        0
102
RTVSPost2010PropOp41
 70
     1
102
RTVSPost2010Prop42
 90
       50
102
RTVSPost2010PropOp42
 70
     1
102
RTVSPost2010Prop43
 90
        3
102
RTVSPost2010PropOp43
 70
     1
102
RTVSPost2010Prop44ColorIndex
 90
        5
102
RTVSPost2010Prop44ColorRGB
 90
      255
102
RTVSPost2010PropOp44
 70
     1
102
RTVSPost2010Prop45
280
     0
102
RTVSPost2010PropOp45
 70
     1
102
RTVSPost2010Prop46
 90
       50
102
RTVSPost2010PropOp46
 70
     1
102
RTVSPost2010Prop47
 90
       50
102
RTVSPost2010PropOp47
 70
     1
102
RTVSPost2010Prop48
 90
       50
102
RTVSPost2010PropOp48
 70
     1
102
RTVSPost2010Prop49
280
     0
102
RTVSPost2010PropOp49
 70
     1
102
RTVSPost2010Prop50
 90
       50
102
RTVSPost2010PropOp50
 70
     1
102
RTVSPost2010Prop51ColorIndex
 90
      256
102
RTVSPost2010Prop51ColorRGB
 90
-16777216
102
RTVSPost2010PropOp51
 70
     0
102
RTVSPost2010Prop52
140
1.0
102
RTVSPost2010PropOp52
 70
     0
102
RTVSPost2010Prop53
 90
        2
102
RTVSPost2010PropOp53
 70
     1
102
RTVSPost2010Prop54
  1
strokes_ogs.tif
102
RTVSPost2010PropOp54
 70
     1
102
RTVSPost2010Prop55
280
     0
102
RTVSPost2010PropOp55
 70
     1
102
RTVSPost2010Prop56
140
1.0
102
RTVSPost2010PropOp56
 70
     1
102
RTVSPost2010Prop57
140
1.0
102
RTVSPost2010PropOp57
 70
     1
  0
XRECORD
  5
24E
102
{ACAD_REACTORS
330
24D
102
}
330
24D
100
AcDbXrecord
280
     1
102
RTVSPropertyOp0
 70
     0
102
RTVSPropertyOp1
 70
     0
102
RTVSPropertyOp2
 70
     0
102
RTVSPropertyOp3
 70
     0
102
RTVSPropertyOp4
 70
     0
102
RTVSPropertyOp5
 70
     0
102
RTVSPropertyOp6
 70
     0
102
RTVSPropertyOp7
 70
     0
102
RTVSPropertyOp8
 70
     0
102
RTVSPropertyOp9
 70
     0
102
RTVSPropertyOp10
 70
     0
102
RTVSPropertyOp11
 70
     0
102
RTVSPropertyOp12
 70
     0
102
RTVSPropertyOp13
 70
     0
102
RTVSPropertyOp14
 70
     2
102
RTVSPropertyOp15
 70
     0
102
RTVSPropertyOp16
 70
     0
102
RTVSPropertyOp17
 70
     0
102
RTVSPropertyOp18
 70
     0
102
RTVSPropertyOp19
 70
     0
102
RTVSPropertyOp20
 70
     0
102
RTVSPropertyOp21
 70
     0
102
RTVSPropertyOp22
 70
     0
102
RTVSPropertyOp23
 70
     0
102
RTVSPropertyOp24
 70
     0
102
RTVSPropertyOp25
 70
     0
102
RTVSPropertyOp26
 70
     0
102
RTVSPropertyOp27
 70
     0
102
RTVSPropertyOp28
 70
     0
102
RTVSPropertyOp29
 70
     0
102
RTVSPropertyOp30
 70
     0
102
RTVSPropertyOp31
 70
     0
102
RTVSPropertyOp32
 70
     0
102
RTVSPropertyOp33
 70
     0
102
RTVSPropertyOp34
 70
     0
102
RTVSPropertyOp35
 70
     0
102
RTVSPropertyOp36
 70
     0
102
RTVSPropertyOp37
 70
     0
102
RTVSPropertyOp38
 70
     0
102
RTVSPropertyOp39
 70
     0
102
RTVSPropertyOp40
 70
     0
102
RTVSPropertyOp41
 70
     0
102
RTVSPropertyOp42
 70
     0
102
RTVSPropertyOp43
 70
     0
102
RTVSPropertyOp44
 70
     0
102
RTVSPropertyOp45
 70
     0
102
RTVSPropertyOp46
 70
     0
102
RTVSPropertyOp47
 70
     0
102
RTVSPropertyOp48
 70
     0
102
RTVSPropertyOp49
 70
     0
102
RTVSPropertyOp50
 70
     0
102
RTVSPropertyOp51
 70
     0
102
RTVSPropertyOp52
 70
     0
102
RTVSPropertyOp53
 70
     0
102
RTVSPropertyOp54
 70
     0
102
RTVSPropertyOp55
 70
     0
102
RTVSPropertyOp56
 70
     0
102
RTVSPropertyOp57
 70
     0
102
RTVSPost2010Prop28
280
     0
102
RTVSPost2010PropOp28
 70
     0
102
RTVSPost2010Prop29
280
     1
102
RTVSPost2010PropOp29
 70
     0
102
RTVSPost2010Prop30
280
     1
102
RTVSPost2010PropOp30
 70
     0
102
RTVSPost2010Prop31
280
     0
102
RTVSPost2010PropOp31
 70
     0
102
RTVSPost2010Prop32
280
     0
102
RTVSPost2010PropOp32
 70
     0
102
RTVSPost2010Prop33
280
     0
102
RTVSPost2010PropOp33
 70
     0
102
RTVSPost2010Prop34
280
     0
102
RTVSPost2010PropOp34
 70
     0
102
RTVSPost2010Prop35
280
     0
102
RTVSPost2010PropOp35
 70
     0
102
RTVSPost2010Prop36
280
     0
102
RTVSPost2010PropOp36
 70
     0
102
RTVSPost2010Prop37
 90
       50
102
RTVSPost2010PropOp37
 70
     0
102
RTVSPost2010Prop38
140
0.0
102
RTVSPost2010PropOp38
 70
     0
102
RTVSPost2010Prop39
140
1.0
102
RTVSPost2010PropOp39
 70
     0
102
RTVSPost2010Prop40
 90
        0
102
RTVSPost2010PropOp40
 70
     0
102
RTVSPost2010Prop41ColorIndex
 90
       18
102
RTVSPost2010Prop41ColorRGB
 90
        0
102
RTVSPost2010PropOp41
 70
     0
102
RTVSPost2010Prop42
 90
       50
102
RTVSPost2010PropOp42
 70
     0
102
RTVSPost2010Prop43
 90
        3
102
RTVSPost2010PropOp43
 70
     0
102
RTVSPost2010Prop44ColorIndex
 90
        5
102
RTVSPost2010Prop44ColorRGB
 90
      255
102
RTVSPost2010PropOp44
 70
     0
102
RTVSPost2010Prop45
280
     0
102
RTVSPost2010PropOp45
 70
     0
102
RTVSPost2010Prop46
 90
       50
102
RTVSPost2010PropOp46
 70
     0
102
RTVSPost2010Prop47
 90
       50
102
RTVSPost2010PropOp47
 70
     0
102
RTVSPost2010Prop48
 90
       50
102
RTVSPost2010PropOp48
 70
     0
102
RTVSPost2010Prop49
280
     0
102
RTVSPost2010PropOp49
 70
     0
102
RTVSPost2010Prop50
 90
       50
102
RTVSPost2010PropOp50
 70
     0
102
RTVSPost2010Prop51ColorIndex
 90
      256
102
RTVSPost2010Prop51ColorRGB
 90
-16777216
102
RTVSPost2010PropOp51
 70
     0
102
RTVSPost2010Prop52
140
1.0
102
RTVSPost2010PropOp52
 70
     0
102
RTVSPost2010Prop53
 90
        2
102
RTVSPost2010PropOp53
 70
     0
102
RTVSPost2010Prop54
  1
strokes_ogs.tif
102
RTVSPost2010PropOp54
 70
     0
102
RTVSPost2010Prop55
280
     0
102
RTVSPost2010PropOp55
 70
     0
102
RTVSPost2010Prop56
140
1.0
102
RTVSPost2010PropOp56
 70
     0
102
RTVSPost2010Prop57
140
1.0
102
RTVSPost2010PropOp57
 70
     0
  0
XRECORD
  5
23C
102
{ACAD_REACTORS
330
23B
102
}
330
23B
100
AcDbXrecord
280
     1
102
RTVSPropertyOp0
 70
     1
102
RTVSPropertyOp1
 70
     1
102
RTVSPropertyOp2
 70
     1
102
RTVSPropertyOp3
 70
     1
102
RTVSPropertyOp4
 70
     1
102
RTVSPropertyOp5
 70
     1
102
RTVSPropertyOp6
 70
     1
102
RTVSPropertyOp7
 70
     1
102
RTVSPropertyOp8
 70
     1
102
RTVSPropertyOp9
 70
     1
102
RTVSPropertyOp10
 70
     1
102
RTVSPropertyOp11
 70
     1
102
RTVSPropertyOp12
 70
     1
102
RTVSPropertyOp13
 70
     1
102
RTVSPropertyOp14
 70
     1
102
RTVSPropertyOp15
 70
     1
102
RTVSPropertyOp16
 70
     1
102
RTVSPropertyOp17
 70
     1
102
RTVSPropertyOp18
 70
     1
102
RTVSPropertyOp19
 70
     1
102
RTVSPropertyOp20
 70
     1
102
RTVSPropertyOp21
 70
     1
102
RTVSPropertyOp22
 70
     1
102
RTVSPropertyOp23
 70
     1
102
RTVSPropertyOp24
 70
     1
102
RTVSPropertyOp25
 70
     1
102
RTVSPropertyOp26
 70
     1
102
RTVSPropertyOp27
 70
     1
102
RTVSPropertyOp28
 70
     1
102
RTVSPropertyOp29
 70
     1
102
RTVSPropertyOp30
 70
     1
102
RTVSPropertyOp31
 70
     1
102
RTVSPropertyOp32
 70
     1
102
RTVSPropertyOp33
 70
     1
102
RTVSPropertyOp34
 70
     1
102
RTVSPropertyOp35
 70
     1
102
RTVSPropertyOp36
 70
     1
102
RTVSPropertyOp37
 70
     1
102
RTVSPropertyOp38
 70
     1
102
RTVSPropertyOp39
 70
     1
102
RTVSPropertyOp40
 70
     1
102
RTVSPropertyOp41
 70
     1
102
RTVSPropertyOp42
 70
     1
102
RTVSPropertyOp43
 70
     1
102
RTVSPropertyOp44
 70
     1
102
RTVSPropertyOp45
 70
     1
102
RTVSPropertyOp46
 70
     1
102
RTVSPropertyOp47
 70
     1
102
RTVSPropertyOp48
 70
     1
102
RTVSPropertyOp49
 70
     1
102
RTVSPropertyOp50
 70
     1
102
RTVSPropertyOp51
 70
     0
102
RTVSPropertyOp52
 70
     0
102
RTVSPropertyOp53
 70
     1
102
RTVSPropertyOp54
 70
     1
102
RTVSPropertyOp55
 70
     1
102
RTVSPropertyOp56
 70
     1
102
RTVSPropertyOp57
 70
     1
102
RTVSPost2010Prop28
280
     0
102
RTVSPost2010PropOp28
 70
     1
102
RTVSPost2010Prop29
280
     1
102
RTVSPost2010PropOp29
 70
     1
102
RTVSPost2010Prop30
280
     1
102
RTVSPost2010PropOp30
 70
     1
102
RTVSPost2010Prop31
280
     0
102
RTVSPost2010PropOp31
 70
     1
102
RTVSPost2010Prop32
280
     0
102
RTVSPost2010PropOp32
 70
     1
102
RTVSPost2010Prop33
280
     0
102
RTVSPost2010PropOp33
 70
     1
102
RTVSPost2010Prop34
280
     0
102
RTVSPost2010PropOp34
 70
     1
102
RTVSPost2010Prop35
280
     0
102
RTVSPost2010PropOp35
 70
     1
102
RTVSPost2010Prop36
280
     0
102
RTVSPost2010PropOp36
 70
     1
102
RTVSPost2010Prop37
 90
       50
102
RTVSPost2010PropOp37
 70
     1
102
RTVSPost2010Prop38
140
0.0
102
RTVSPost2010PropOp38
 70
     1
102
RTVSPost2010Prop39
140
1.0
102
RTVSPost2010PropOp39
 70
     1
102
RTVSPost2010Prop40
 90
        0
102
RTVSPost2010PropOp40
 70
     1
102
RTVSPost2010Prop41ColorIndex
 90
       18
102
RTVSPost2010Prop41ColorRGB
 90
        0
102
RTVSPost2010PropOp41
 70
     1
102
RTVSPost2010Prop42
 90
       50
102
RTVSPost2010PropOp42
 70
     1
102
RTVSPost2010Prop43
 90
        3
102
RTVSPost2010PropOp43
 70
     1
102
RTVSPost2010Prop44ColorIndex
 90
        5
102
RTVSPost2010Prop44ColorRGB
 90
      255
102
RTVSPost2010PropOp44
 70
     1
102
RTVSPost2010Prop45
280
     0
102
RTVSPost2010PropOp45
 70
     1
102
RTVSPost2010Prop46
 90
       50
102
RTVSPost2010PropOp46
 70
     1
102
RTVSPost2010Prop47
 90
       50
102
RTVSPost2010PropOp47
 70
     1
102
RTVSPost2010Prop48
 90
       50
102
RTVSPost2010PropOp48
 70
     1
102
RTVSPost2010Prop49
280
     0
102
RTVSPost2010PropOp49
 70
     1
102
RTVSPost2010Prop50
 90
       50
102
RTVSPost2010PropOp50
 70
     1
102
RTVSPost2010Prop51ColorIndex
 90
      256
102
RTVSPost2010Prop51ColorRGB
 90
-16777216
102
RTVSPost2010PropOp51
 70
     0
102
RTVSPost2010Prop52
140
1.0
102
RTVSPost2010PropOp52
 70
     0
102
RTVSPost2010Prop53
 90
        2
102
RTVSPost2010PropOp53
 70
     1
102
RTVSPost2010Prop54
  1
strokes_ogs.tif
102
RTVSPost2010PropOp54
 70
     1
102
RTVSPost2010Prop55
280
     0
102
RTVSPost2010PropOp55
 70
     1
102
RTVSPost2010Prop56
140
1.0
102
RTVSPost2010PropOp56
 70
     1
102
RTVSPost2010Prop57
140
1.0
102
RTVSPost2010PropOp57
 70
     1
  0
XRECORD
  5
25A
102
{ACAD_REACTORS
330
259
102
}
330
259
100
AcDbXrecord
280
     1
102
RTVSPropertyOp0
 70
     1
102
RTVSPropertyOp1
 70
     1
102
RTVSPropertyOp2
 70
     1
102
RTVSPropertyOp3
 70
     1
102
RTVSPropertyOp4
 70
     1
102
RTVSPropertyOp5
 70
     1
102
RTVSPropertyOp6
 70
     1
102
RTVSPropertyOp7
 70
     1
102
RTVSPropertyOp8
 70
     1
102
RTVSPropertyOp9
 70
     1
102
RTVSPropertyOp10
 70
     1
102
RTVSPropertyOp11
 70
     1
102
RTVSPropertyOp12
 70
     1
102
RTVSPropertyOp13
 70
     1
102
RTVSPropertyOp14
 70
     1
102
RTVSPropertyOp15
 70
     1
102
RTVSPropertyOp16
 70
     1
102
RTVSPropertyOp17
 70
     1
102
RTVSPropertyOp18
 70
     1
102
RTVSPropertyOp19
 70
     1
102
RTVSPropertyOp20
 70
     1
102
RTVSPropertyOp21
 70
     1
102
RTVSPropertyOp22
 70
     1
102
RTVSPropertyOp23
 70
     1
102
RTVSPropertyOp24
 70
     1
102
RTVSPropertyOp25
 70
     1
102
RTVSPropertyOp26
 70
     1
102
RTVSPropertyOp27
 70
     1
102
RTVSPropertyOp28
 70
     1
102
RTVSPropertyOp29
 70
     1
102
RTVSPropertyOp30
 70
     1
102
RTVSPropertyOp31
 70
     1
102
RTVSPropertyOp32
 70
     1
102
RTVSPropertyOp33
 70
     1
102
RTVSPropertyOp34
 70
     1
102
RTVSPropertyOp35
 70
     1
102
RTVSPropertyOp36
 70
     1
102
RTVSPropertyOp37
 70
     1
102
RTVSPropertyOp38
 70
     1
102
RTVSPropertyOp39
 70
     1
102
RTVSPropertyOp40
 70
     1
102
RTVSPropertyOp41
 70
     1
102
RTVSPropertyOp42
 70
     1
102
RTVSPropertyOp43
 70
     1
102
RTVSPropertyOp44
 70
     1
102
RTVSPropertyOp45
 70
     1
102
RTVSPropertyOp46
 70
     1
102
RTVSPropertyOp47
 70
     1
102
RTVSPropertyOp48
 70
     1
102
RTVSPropertyOp49
 70
     1
102
RTVSPropertyOp50
 70
     1
102
RTVSPropertyOp51
 70
     0
102
RTVSPropertyOp52
 70
     0
102
RTVSPropertyOp53
 70
     1
102
RTVSPropertyOp54
 70
     1
102
RTVSPropertyOp55
 70
     1
102
RTVSPropertyOp56
 70
     1
102
RTVSPropertyOp57
 70
     1
102
RTVSPost2010Prop28
280
     0
102
RTVSPost2010PropOp28
 70
     1
102
RTVSPost2010Prop29
280
     1
102
RTVSPost2010PropOp29
 70
     1
102
RTVSPost2010Prop30
280
     1
102
RTVSPost2010PropOp30
 70
     1
102
RTVSPost2010Prop31
280
     0
102
RTVSPost2010PropOp31
 70
     1
102
RTVSPost2010Prop32
280
     0
102
RTVSPost2010PropOp32
 70
     1
102
RTVSPost2010Prop33
280
     0
102
RTVSPost2010PropOp33
 70
     1
102
RTVSPost2010Prop34
280
     0
102
RTVSPost2010PropOp34
 70
     1
102
RTVSPost2010Prop35
280
     0
102
RTVSPost2010PropOp35
 70
     1
102
RTVSPost2010Prop36
280
     0
102
RTVSPost2010PropOp36
 70
     1
102
RTVSPost2010Prop37
 90
       50
102
RTVSPost2010PropOp37
 70
     1
102
RTVSPost2010Prop38
140
0.0
102
RTVSPost2010PropOp38
 70
     1
102
RTVSPost2010Prop39
140
1.0
102
RTVSPost2010PropOp39
 70
     1
102
RTVSPost2010Prop40
 90
        0
102
RTVSPost2010PropOp40
 70
     1
102
RTVSPost2010Prop41ColorIndex
 90
       18
102
RTVSPost2010Prop41ColorRGB
 90
        0
102
RTVSPost2010PropOp41
 70
     1
102
RTVSPost2010Prop42
 90
       50
102
RTVSPost2010PropOp42
 70
     1
102
RTVSPost2010Prop43
 90
        3
102
RTVSPost2010PropOp43
 70
     1
102
RTVSPost2010Prop44ColorIndex
 90
        5
102
RTVSPost2010Prop44ColorRGB
 90
      255
102
RTVSPost2010PropOp44
 70
     1
102
RTVSPost2010Prop45
280
     0
102
RTVSPost2010PropOp45
 70
     1
102
RTVSPost2010Prop46
 90
       50
102
RTVSPost2010PropOp46
 70
     1
102
RTVSPost2010Prop47
 90
       50
102
RTVSPost2010PropOp47
 70
     1
102
RTVSPost2010Prop48
 90
       50
102
RTVSPost2010PropOp48
 70
     1
102
RTVSPost2010Prop49
280
     0
102
RTVSPost2010PropOp49
 70
     1
102
RTVSPost2010Prop50
 90
       50
102
RTVSPost2010PropOp50
 70
     1
102
RTVSPost2010Prop51ColorIndex
 90
      256
102
RTVSPost2010Prop51ColorRGB
 90
-16777216
102
RTVSPost2010PropOp51
 70
     0
102
RTVSPost2010Prop52
140
1.0
102
RTVSPost2010PropOp52
 70
     0
102
RTVSPost2010Prop53
 90
        2
102
RTVSPost2010PropOp53
 70
     1
102
RTVSPost2010Prop54
  1
strokes_ogs.tif
102
RTVSPost2010PropOp54
 70
     1
102
RTVSPost2010Prop55
280
     0
102
RTVSPost2010PropOp55
 70
     1
102
RTVSPost2010Prop56
140
1.0
102
RTVSPost2010PropOp56
 70
     1
102
RTVSPost2010Prop57
140
1.0
102
RTVSPost2010PropOp57
 70
     1
  0
XRECORD
  5
258
102
{ACAD_REACTORS
330
257
102
}
330
257
100
AcDbXrecord
280
     1
102
RTVSPropertyOp0
 70
     1
102
RTVSPropertyOp1
 70
     1
102
RTVSPropertyOp2
 70
     1
102
RTVSPropertyOp3
 70
     1
102
RTVSPropertyOp4
 70
     1
102
RTVSPropertyOp5
 70
     1
102
RTVSPropertyOp6
 70
     1
102
RTVSPropertyOp7
 70
     1
102
RTVSPropertyOp8
 70
     1
102
RTVSPropertyOp9
 70
     1
102
RTVSPropertyOp10
 70
     1
102
RTVSPropertyOp11
 70
     1
102
RTVSPropertyOp12
 70
     1
102
RTVSPropertyOp13
 70
     1
102
RTVSPropertyOp14
 70
     1
102
RTVSPropertyOp15
 70
     1
102
RTVSPropertyOp16
 70
     1
102
RTVSPropertyOp17
 70
     1
102
RTVSPropertyOp18
 70
     1
102
RTVSPropertyOp19
 70
     1
102
RTVSPropertyOp20
 70
     1
102
RTVSPropertyOp21
 70
     1
102
RTVSPropertyOp22
 70
     1
102
RTVSPropertyOp23
 70
     1
102
RTVSPropertyOp24
 70
     1
102
RTVSPropertyOp25
 70
     1
102
RTVSPropertyOp26
 70
     1
102
RTVSPropertyOp27
 70
     1
102
RTVSPropertyOp28
 70
     1
102
RTVSPropertyOp29
 70
     1
102
RTVSPropertyOp30
 70
     1
102
RTVSPropertyOp31
 70
     1
102
RTVSPropertyOp32
 70
     1
102
RTVSPropertyOp33
 70
     1
102
RTVSPropertyOp34
 70
     1
102
RTVSPropertyOp35
 70
     1
102
RTVSPropertyOp36
 70
     1
102
RTVSPropertyOp37
 70
     1
102
RTVSPropertyOp38
 70
     1
102
RTVSPropertyOp39
 70
     1
102
RTVSPropertyOp40
 70
     1
102
RTVSPropertyOp41
 70
     1
102
RTVSPropertyOp42
 70
     1
102
RTVSPropertyOp43
 70
     1
102
RTVSPropertyOp44
 70
     1
102
RTVSPropertyOp45
 70
     1
102
RTVSPropertyOp46
 70
     1
102
RTVSPropertyOp47
 70
     1
102
RTVSPropertyOp48
 70
     1
102
RTVSPropertyOp49
 70
     1
102
RTVSPropertyOp50
 70
     1
102
RTVSPropertyOp51
 70
     0
102
RTVSPropertyOp52
 70
     0
102
RTVSPropertyOp53
 70
     1
102
RTVSPropertyOp54
 70
     1
102
RTVSPropertyOp55
 70
     1
102
RTVSPropertyOp56
 70
     1
102
RTVSPropertyOp57
 70
     1
102
RTVSPost2010Prop28
280
     0
102
RTVSPost2010PropOp28
 70
     1
102
RTVSPost2010Prop29
280
     1
102
RTVSPost2010PropOp29
 70
     1
102
RTVSPost2010Prop30
280
     1
102
RTVSPost2010PropOp30
 70
     1
102
RTVSPost2010Prop31
280
     0
102
RTVSPost2010PropOp31
 70
     1
102
RTVSPost2010Prop32
280
     0
102
RTVSPost2010PropOp32
 70
     1
102
RTVSPost2010Prop33
280
     0
102
RTVSPost2010PropOp33
 70
     1
102
RTVSPost2010Prop34
280
     0
102
RTVSPost2010PropOp34
 70
     1
102
RTVSPost2010Prop35
280
     0
102
RTVSPost2010PropOp35
 70
     1
102
RTVSPost2010Prop36
280
     0
102
RTVSPost2010PropOp36
 70
     1
102
RTVSPost2010Prop37
 90
       50
102
RTVSPost2010PropOp37
 70
     1
102
RTVSPost2010Prop38
140
0.0
102
RTVSPost2010PropOp38
 70
     1
102
RTVSPost2010Prop39
140
1.0
102
RTVSPost2010PropOp39
 70
     1
102
RTVSPost2010Prop40
 90
        0
102
RTVSPost2010PropOp40
 70
     1
102
RTVSPost2010Prop41ColorIndex
 90
       18
102
RTVSPost2010Prop41ColorRGB
 90
        0
102
RTVSPost2010PropOp41
 70
     1
102
RTVSPost2010Prop42
 90
       50
102
RTVSPost2010PropOp42
 70
     1
102
RTVSPost2010Prop43
 90
        3
102
RTVSPost2010PropOp43
 70
     1
102
RTVSPost2010Prop44ColorIndex
 90
        5
102
RTVSPost2010Prop44ColorRGB
 90
      255
102
RTVSPost2010PropOp44
 70
     1
102
RTVSPost2010Prop45
280
     0
102
RTVSPost2010PropOp45
 70
     1
102
RTVSPost2010Prop46
 90
       50
102
RTVSPost2010PropOp46
 70
     1
102
RTVSPost2010Prop47
 90
       50
102
RTVSPost2010PropOp47
 70
     1
102
RTVSPost2010Prop48
 90
       50
102
RTVSPost2010PropOp48
 70
     1
102
RTVSPost2010Prop49
280
     0
102
RTVSPost2010PropOp49
 70
     1
102
RTVSPost2010Prop50
 90
       50
102
RTVSPost2010PropOp50
 70
     1
102
RTVSPost2010Prop51ColorIndex
 90
      256
102
RTVSPost2010Prop51ColorRGB
 90
-16777216
102
RTVSPost2010PropOp51
 70
     0
102
RTVSPost2010Prop52
140
1.0
102
RTVSPost2010PropOp52
 70
     0
102
RTVSPost2010Prop53
 90
        2
102
RTVSPost2010PropOp53
 70
     1
102
RTVSPost2010Prop54
  1
strokes_ogs.tif
102
RTVSPost2010PropOp54
 70
     1
102
RTVSPost2010Prop55
280
     0
102
RTVSPost2010PropOp55
 70
     1
102
RTVSPost2010Prop56
140
1.0
102
RTVSPost2010PropOp56
 70
     1
102
RTVSPost2010Prop57
140
1.0
102
RTVSPost2010PropOp57
 70
     1
  0
XRECORD
  5
252
102
{ACAD_REACTORS
330
251
102
}
330
251
100
AcDbXrecord
280
     1
102
RTVSPropertyOp0
 70
     1
102
RTVSPropertyOp1
 70
     1
102
RTVSPropertyOp2
 70
     1
102
RTVSPropertyOp3
 70
     1
102
RTVSPropertyOp4
 70
     1
102
RTVSPropertyOp5
 70
     1
102
RTVSPropertyOp6
 70
     1
102
RTVSPropertyOp7
 70
     1
102
RTVSPropertyOp8
 70
     1
102
RTVSPropertyOp9
 70
     1
102
RTVSPropertyOp10
 70
     1
102
RTVSPropertyOp11
 70
     1
102
RTVSPropertyOp12
 70
     1
102
RTVSPropertyOp13
 70
     1
102
RTVSPropertyOp14
 70
     1
102
RTVSPropertyOp15
 70
     1
102
RTVSPropertyOp16
 70
     1
102
RTVSPropertyOp17
 70
     1
102
RTVSPropertyOp18
 70
     1
102
RTVSPropertyOp19
 70
     1
102
RTVSPropertyOp20
 70
     1
102
RTVSPropertyOp21
 70
     1
102
RTVSPropertyOp22
 70
     1
102
RTVSPropertyOp23
 70
     1
102
RTVSPropertyOp24
 70
     1
102
RTVSPropertyOp25
 70
     1
102
RTVSPropertyOp26
 70
     1
102
RTVSPropertyOp27
 70
     1
102
RTVSPropertyOp28
 70
     1
102
RTVSPropertyOp29
 70
     1
102
RTVSPropertyOp30
 70
     1
102
RTVSPropertyOp31
 70
     1
102
RTVSPropertyOp32
 70
     1
102
RTVSPropertyOp33
 70
     1
102
RTVSPropertyOp34
 70
     1
102
RTVSPropertyOp35
 70
     1
102
RTVSPropertyOp36
 70
     1
102
RTVSPropertyOp37
 70
     1
102
RTVSPropertyOp38
 70
     1
102
RTVSPropertyOp39
 70
     1
102
RTVSPropertyOp40
 70
     1
102
RTVSPropertyOp41
 70
     1
102
RTVSPropertyOp42
 70
     1
102
RTVSPropertyOp43
 70
     1
102
RTVSPropertyOp44
 70
     1
102
RTVSPropertyOp45
 70
     1
102
RTVSPropertyOp46
 70
     1
102
RTVSPropertyOp47
 70
     1
102
RTVSPropertyOp48
 70
     1
102
RTVSPropertyOp49
 70
     1
102
RTVSPropertyOp50
 70
     1
102
RTVSPropertyOp51
 70
     0
102
RTVSPropertyOp52
 70
     0
102
RTVSPropertyOp53
 70
     1
102
RTVSPropertyOp54
 70
     1
102
RTVSPropertyOp55
 70
     1
102
RTVSPropertyOp56
 70
     1
102
RTVSPropertyOp57
 70
     1
102
RTVSPost2010Prop28
280
     0
102
RTVSPost2010PropOp28
 70
     1
102
RTVSPost2010Prop29
280
     1
102
RTVSPost2010PropOp29
 70
     1
102
RTVSPost2010Prop30
280
     1
102
RTVSPost2010PropOp30
 70
     1
102
RTVSPost2010Prop31
280
     0
102
RTVSPost2010PropOp31
 70
     1
102
RTVSPost2010Prop32
280
     0
102
RTVSPost2010PropOp32
 70
     1
102
RTVSPost2010Prop33
280
     0
102
RTVSPost2010PropOp33
 70
     1
102
RTVSPost2010Prop34
280
     0
102
RTVSPost2010PropOp34
 70
     1
102
RTVSPost2010Prop35
280
     0
102
RTVSPost2010PropOp35
 70
     1
102
RTVSPost2010Prop36
280
     0
102
RTVSPost2010PropOp36
 70
     1
102
RTVSPost2010Prop37
 90
       50
102
RTVSPost2010PropOp37
 70
     1
102
RTVSPost2010Prop38
140
0.0
102
RTVSPost2010PropOp38
 70
     1
102
RTVSPost2010Prop39
140
1.0
102
RTVSPost2010PropOp39
 70
     1
102
RTVSPost2010Prop40
 90
        0
102
RTVSPost2010PropOp40
 70
     1
102
RTVSPost2010Prop41ColorIndex
 90
       18
102
RTVSPost2010Prop41ColorRGB
 90
        0
102
RTVSPost2010PropOp41
 70
     1
102
RTVSPost2010Prop42
 90
       50
102
RTVSPost2010PropOp42
 70
     1
102
RTVSPost2010Prop43
 90
        3
102
RTVSPost2010PropOp43
 70
     1
102
RTVSPost2010Prop44ColorIndex
 90
        5
102
RTVSPost2010Prop44ColorRGB
 90
      255
102
RTVSPost2010PropOp44
 70
     1
102
RTVSPost2010Prop45
280
     0
102
RTVSPost2010PropOp45
 70
     1
102
RTVSPost2010Prop46
 90
       50
102
RTVSPost2010PropOp46
 70
     1
102
RTVSPost2010Prop47
 90
       50
102
RTVSPost2010PropOp47
 70
     1
102
RTVSPost2010Prop48
 90
       50
102
RTVSPost2010PropOp48
 70
     1
102
RTVSPost2010Prop49
280
     0
102
RTVSPost2010PropOp49
 70
     1
102
RTVSPost2010Prop50
 90
       50
102
RTVSPost2010PropOp50
 70
     1
102
RTVSPost2010Prop51ColorIndex
 90
      256
102
RTVSPost2010Prop51ColorRGB
 90
-16777216
102
RTVSPost2010PropOp51
 70
     0
102
RTVSPost2010Prop52
140
1.0
102
RTVSPost2010PropOp52
 70
     0
102
RTVSPost2010Prop53
 90
        2
102
RTVSPost2010PropOp53
 70
     1
102
RTVSPost2010Prop54
  1
strokes_ogs.tif
102
RTVSPost2010PropOp54
 70
     1
102
RTVSPost2010Prop55
280
     0
102
RTVSPost2010PropOp55
 70
     1
102
RTVSPost2010Prop56
140
1.0
102
RTVSPost2010PropOp56
 70
     1
102
RTVSPost2010Prop57
140
1.0
102
RTVSPost2010PropOp57
 70
     1
  0
XRECORD
  5
254
102
{ACAD_REACTORS
330
253
102
}
330
253
100
AcDbXrecord
280
     1
102
RTVSPropertyOp0
 70
     1
102
RTVSPropertyOp1
 70
     1
102
RTVSPropertyOp2
 70
     1
102
RTVSPropertyOp3
 70
     1
102
RTVSPropertyOp4
 70
     1
102
RTVSPropertyOp5
 70
     1
102
RTVSPropertyOp6
 70
     1
102
RTVSPropertyOp7
 70
     1
102
RTVSPropertyOp8
 70
     1
102
RTVSPropertyOp9
 70
     1
102
RTVSPropertyOp10
 70
     1
102
RTVSPropertyOp11
 70
     1
102
RTVSPropertyOp12
 70
     1
102
RTVSPropertyOp13
 70
     1
102
RTVSPropertyOp14
 70
     1
102
RTVSPropertyOp15
 70
     1
102
RTVSPropertyOp16
 70
     1
102
RTVSPropertyOp17
 70
     1
102
RTVSPropertyOp18
 70
     1
102
RTVSPropertyOp19
 70
     1
102
RTVSPropertyOp20
 70
     1
102
RTVSPropertyOp21
 70
     1
102
RTVSPropertyOp22
 70
     1
102
RTVSPropertyOp23
 70
     1
102
RTVSPropertyOp24
 70
     1
102
RTVSPropertyOp25
 70
     1
102
RTVSPropertyOp26
 70
     1
102
RTVSPropertyOp27
 70
     1
102
RTVSPropertyOp28
 70
     1
102
RTVSPropertyOp29
 70
     1
102
RTVSPropertyOp30
 70
     1
102
RTVSPropertyOp31
 70
     1
102
RTVSPropertyOp32
 70
     1
102
RTVSPropertyOp33
 70
     1
102
RTVSPropertyOp34
 70
     1
102
RTVSPropertyOp35
 70
     1
102
RTVSPropertyOp36
 70
     1
102
RTVSPropertyOp37
 70
     1
102
RTVSPropertyOp38
 70
     1
102
RTVSPropertyOp39
 70
     1
102
RTVSPropertyOp40
 70
     1
102
RTVSPropertyOp41
 70
     1
102
RTVSPropertyOp42
 70
     1
102
RTVSPropertyOp43
 70
     1
102
RTVSPropertyOp44
 70
     1
102
RTVSPropertyOp45
 70
     1
102
RTVSPropertyOp46
 70
     1
102
RTVSPropertyOp47
 70
     1
102
RTVSPropertyOp48
 70
     1
102
RTVSPropertyOp49
 70
     1
102
RTVSPropertyOp50
 70
     1
102
RTVSPropertyOp51
 70
     0
102
RTVSPropertyOp52
 70
     0
102
RTVSPropertyOp53
 70
     1
102
RTVSPropertyOp54
 70
     1
102
RTVSPropertyOp55
 70
     1
102
RTVSPropertyOp56
 70
     1
102
RTVSPropertyOp57
 70
     1
102
RTVSPost2010Prop28
280
     0
102
RTVSPost2010PropOp28
 70
     1
102
RTVSPost2010Prop29
280
     1
102
RTVSPost2010PropOp29
 70
     1
102
RTVSPost2010Prop30
280
     1
102
RTVSPost2010PropOp30
 70
     1
102
RTVSPost2010Prop31
280
     0
102
RTVSPost2010PropOp31
 70
     1
102
RTVSPost2010Prop32
280
     0
102
RTVSPost2010PropOp32
 70
     1
102
RTVSPost2010Prop33
280
     0
102
RTVSPost2010PropOp33
 70
     1
102
RTVSPost2010Prop34
280
     0
102
RTVSPost2010PropOp34
 70
     1
102
RTVSPost2010Prop35
280
     0
102
RTVSPost2010PropOp35
 70
     1
102
RTVSPost2010Prop36
280
     0
102
RTVSPost2010PropOp36
 70
     1
102
RTVSPost2010Prop37
 90
       50
102
RTVSPost2010PropOp37
 70
     1
102
RTVSPost2010Prop38
140
0.0
102
RTVSPost2010PropOp38
 70
     1
102
RTVSPost2010Prop39
140
1.0
102
RTVSPost2010PropOp39
 70
     1
102
RTVSPost2010Prop40
 90
        0
102
RTVSPost2010PropOp40
 70
     1
102
RTVSPost2010Prop41ColorIndex
 90
       18
102
RTVSPost2010Prop41ColorRGB
 90
        0
102
RTVSPost2010PropOp41
 70
     1
102
RTVSPost2010Prop42
 90
       50
102
RTVSPost2010PropOp42
 70
     1
102
RTVSPost2010Prop43
 90
        3
102
RTVSPost2010PropOp43
 70
     1
102
RTVSPost2010Prop44ColorIndex
 90
        5
102
RTVSPost2010Prop44ColorRGB
 90
      255
102
RTVSPost2010PropOp44
 70
     1
102
RTVSPost2010Prop45
280
     0
102
RTVSPost2010PropOp45
 70
     1
102
RTVSPost2010Prop46
 90
       50
102
RTVSPost2010PropOp46
 70
     1
102
RTVSPost2010Prop47
 90
       50
102
RTVSPost2010PropOp47
 70
     1
102
RTVSPost2010Prop48
 90
       50
102
RTVSPost2010PropOp48
 70
     1
102
RTVSPost2010Prop49
280
     0
102
RTVSPost2010PropOp49
 70
     1
102
RTVSPost2010Prop50
 90
       50
102
RTVSPost2010PropOp50
 70
     1
102
RTVSPost2010Prop51ColorIndex
 90
      256
102
RTVSPost2010Prop51ColorRGB
 90
-16777216
102
RTVSPost2010PropOp51
 70
     0
102
RTVSPost2010Prop52
140
1.0
102
RTVSPost2010PropOp52
 70
     0
102
RTVSPost2010Prop53
 90
        2
102
RTVSPost2010PropOp53
 70
     1
102
RTVSPost2010Prop54
  1
strokes_ogs.tif
102
RTVSPost2010PropOp54
 70
     1
102
RTVSPost2010Prop55
280
     0
102
RTVSPost2010PropOp55
 70
     1
102
RTVSPost2010Prop56
140
1.0
102
RTVSPost2010PropOp56
 70
     1
102
RTVSPost2010Prop57
140
1.0
102
RTVSPost2010PropOp57
 70
     1
  0
XRECORD
  5
244
102
{ACAD_REACTORS
330
243
102
}
330
243
100
AcDbXrecord
280
     1
102
RTVSPropertyOp0
 70
     1
102
RTVSPropertyOp1
 70
     1
102
RTVSPropertyOp2
 70
     1
102
RTVSPropertyOp3
 70
     1
102
RTVSPropertyOp4
 70
     1
102
RTVSPropertyOp5
 70
     1
102
RTVSPropertyOp6
 70
     1
102
RTVSPropertyOp7
 70
     1
102
RTVSPropertyOp8
 70
     1
102
RTVSPropertyOp9
 70
     1
102
RTVSPropertyOp10
 70
     1
102
RTVSPropertyOp11
 70
     1
102
RTVSPropertyOp12
 70
     1
102
RTVSPropertyOp13
 70
     1
102
RTVSPropertyOp14
 70
     1
102
RTVSPropertyOp15
 70
     1
102
RTVSPropertyOp16
 70
     1
102
RTVSPropertyOp17
 70
     1
102
RTVSPropertyOp18
 70
     1
102
RTVSPropertyOp19
 70
     1
102
RTVSPropertyOp20
 70
     1
102
RTVSPropertyOp21
 70
     1
102
RTVSPropertyOp22
 70
     1
102
RTVSPropertyOp23
 70
     1
102
RTVSPropertyOp24
 70
     1
102
RTVSPropertyOp25
 70
     1
102
RTVSPropertyOp26
 70
     1
102
RTVSPropertyOp27
 70
     1
102
RTVSPropertyOp28
 70
     1
102
RTVSPropertyOp29
 70
     1
102
RTVSPropertyOp30
 70
     1
102
RTVSPropertyOp31
 70
     1
102
RTVSPropertyOp32
 70
     1
102
RTVSPropertyOp33
 70
     1
102
RTVSPropertyOp34
 70
     1
102
RTVSPropertyOp35
 70
     1
102
RTVSPropertyOp36
 70
     1
102
RTVSPropertyOp37
 70
     1
102
RTVSPropertyOp38
 70
     1
102
RTVSPropertyOp39
 70
     1
102
RTVSPropertyOp40
 70
     1
102
RTVSPropertyOp41
 70
     1
102
RTVSPropertyOp42
 70
     1
102
RTVSPropertyOp43
 70
     1
102
RTVSPropertyOp44
 70
     1
102
RTVSPropertyOp45
 70
     1
102
RTVSPropertyOp46
 70
     1
102
RTVSPropertyOp47
 70
     1
102
RTVSPropertyOp48
 70
     1
102
RTVSPropertyOp49
 70
     1
102
RTVSPropertyOp50
 70
     1
102
RTVSPropertyOp51
 70
     0
102
RTVSPropertyOp52
 70
     0
102
RTVSPropertyOp53
 70
     1
102
RTVSPropertyOp54
 70
     1
102
RTVSPropertyOp55
 70
     1
102
RTVSPropertyOp56
 70
     1
102
RTVSPropertyOp57
 70
     1
102
RTVSPost2010Prop28
280
     0
102
RTVSPost2010PropOp28
 70
     1
102
RTVSPost2010Prop29
280
     1
102
RTVSPost2010PropOp29
 70
     1
102
RTVSPost2010Prop30
280
     1
102
RTVSPost2010PropOp30
 70
     1
102
RTVSPost2010Prop31
280
     0
102
RTVSPost2010PropOp31
 70
     1
102
RTVSPost2010Prop32
280
     0
102
RTVSPost2010PropOp32
 70
     1
102
RTVSPost2010Prop33
280
     0
102
RTVSPost2010PropOp33
 70
     1
102
RTVSPost2010Prop34
280
     0
102
RTVSPost2010PropOp34
 70
     1
102
RTVSPost2010Prop35
280
     0
102
RTVSPost2010PropOp35
 70
     1
102
RTVSPost2010Prop36
280
     0
102
RTVSPost2010PropOp36
 70
     1
102
RTVSPost2010Prop37
 90
       50
102
RTVSPost2010PropOp37
 70
     1
102
RTVSPost2010Prop38
140
0.0
102
RTVSPost2010PropOp38
 70
     1
102
RTVSPost2010Prop39
140
1.0
102
RTVSPost2010PropOp39
 70
     1
102
RTVSPost2010Prop40
 90
        0
102
RTVSPost2010PropOp40
 70
     1
102
RTVSPost2010Prop41ColorIndex
 90
       18
102
RTVSPost2010Prop41ColorRGB
 90
        0
102
RTVSPost2010PropOp41
 70
     1
102
RTVSPost2010Prop42
 90
       50
102
RTVSPost2010PropOp42
 70
     1
102
RTVSPost2010Prop43
 90
        3
102
RTVSPost2010PropOp43
 70
     1
102
RTVSPost2010Prop44ColorIndex
 90
        5
102
RTVSPost2010Prop44ColorRGB
 90
      255
102
RTVSPost2010PropOp44
 70
     1
102
RTVSPost2010Prop45
280
     0
102
RTVSPost2010PropOp45
 70
     1
102
RTVSPost2010Prop46
 90
       50
102
RTVSPost2010PropOp46
 70
     1
102
RTVSPost2010Prop47
 90
       50
102
RTVSPost2010PropOp47
 70
     1
102
RTVSPost2010Prop48
 90
       50
102
RTVSPost2010PropOp48
 70
     1
102
RTVSPost2010Prop49
280
     0
102
RTVSPost2010PropOp49
 70
     1
102
RTVSPost2010Prop50
 90
       50
102
RTVSPost2010PropOp50
 70
     1
102
RTVSPost2010Prop51ColorIndex
 90
      256
102
RTVSPost2010Prop51ColorRGB
 90
-16777216
102
RTVSPost2010PropOp51
 70
     0
102
RTVSPost2010Prop52
140
1.0
102
RTVSPost2010PropOp52
 70
     0
102
RTVSPost2010Prop53
 90
        2
102
RTVSPost2010PropOp53
 70
     1
102
RTVSPost2010Prop54
  1
strokes_ogs.tif
102
RTVSPost2010PropOp54
 70
     1
102
RTVSPost2010Prop55
280
     0
102
RTVSPost2010PropOp55
 70
     1
102
RTVSPost2010Prop56
140
1.0
102
RTVSPost2010PropOp56
 70
     1
102
RTVSPost2010Prop57
140
1.0
102
RTVSPost2010PropOp57
 70
     1
  0
XRECORD
  5
236
102
{ACAD_REACTORS
330
235
102
}
330
235
100
AcDbXrecord
280
     1
102
RTVSPropertyOp0
 70
     1
102
RTVSPropertyOp1
 70
     1
102
RTVSPropertyOp2
 70
     1
102
RTVSPropertyOp3
 70
     1
102
RTVSPropertyOp4
 70
     1
102
RTVSPropertyOp5
 70
     1
102
RTVSPropertyOp6
 70
     1
102
RTVSPropertyOp7
 70
     1
102
RTVSPropertyOp8
 70
     1
102
RTVSPropertyOp9
 70
     1
102
RTVSPropertyOp10
 70
     1
102
RTVSPropertyOp11
 70
     1
102
RTVSPropertyOp12
 70
     1
102
RTVSPropertyOp13
 70
     1
102
RTVSPropertyOp14
 70
     1
102
RTVSPropertyOp15
 70
     1
102
RTVSPropertyOp16
 70
     1
102
RTVSPropertyOp17
 70
     1
102
RTVSPropertyOp18
 70
     1
102
RTVSPropertyOp19
 70
     1
102
RTVSPropertyOp20
 70
     1
102
RTVSPropertyOp21
 70
     1
102
RTVSPropertyOp22
 70
     1
102
RTVSPropertyOp23
 70
     1
102
RTVSPropertyOp24
 70
     1
102
RTVSPropertyOp25
 70
     1
102
RTVSPropertyOp26
 70
     1
102
RTVSPropertyOp27
 70
     1
102
RTVSPropertyOp28
 70
     1
102
RTVSPropertyOp29
 70
     1
102
RTVSPropertyOp30
 70
     1
102
RTVSPropertyOp31
 70
     1
102
RTVSPropertyOp32
 70
     1
102
RTVSPropertyOp33
 70
     1
102
RTVSPropertyOp34
 70
     1
102
RTVSPropertyOp35
 70
     1
102
RTVSPropertyOp36
 70
     1
102
RTVSPropertyOp37
 70
     1
102
RTVSPropertyOp38
 70
     1
102
RTVSPropertyOp39
 70
     1
102
RTVSPropertyOp40
 70
     1
102
RTVSPropertyOp41
 70
     1
102
RTVSPropertyOp42
 70
     1
102
RTVSPropertyOp43
 70
     1
102
RTVSPropertyOp44
 70
     1
102
RTVSPropertyOp45
 70
     1
102
RTVSPropertyOp46
 70
     1
102
RTVSPropertyOp47
 70
     1
102
RTVSPropertyOp48
 70
     1
102
RTVSPropertyOp49
 70
     1
102
RTVSPropertyOp50
 70
     1
102
RTVSPropertyOp51
 70
     0
102
RTVSPropertyOp52
 70
     0
102
RTVSPropertyOp53
 70
     1
102
RTVSPropertyOp54
 70
     1
102
RTVSPropertyOp55
 70
     1
102
RTVSPropertyOp56
 70
     1
102
RTVSPropertyOp57
 70
     1
102
RTVSPost2010Prop28
280
     0
102
RTVSPost2010PropOp28
 70
     1
102
RTVSPost2010Prop29
280
     1
102
RTVSPost2010PropOp29
 70
     1
102
RTVSPost2010Prop30
280
     1
102
RTVSPost2010PropOp30
 70
     1
102
RTVSPost2010Prop31
280
     0
102
RTVSPost2010PropOp31
 70
     1
102
RTVSPost2010Prop32
280
     0
102
RTVSPost2010PropOp32
 70
     1
102
RTVSPost2010Prop33
280
     0
102
RTVSPost2010PropOp33
 70
     1
102
RTVSPost2010Prop34
280
     0
102
RTVSPost2010PropOp34
 70
     1
102
RTVSPost2010Prop35
280
     0
102
RTVSPost2010PropOp35
 70
     1
102
RTVSPost2010Prop36
280
     0
102
RTVSPost2010PropOp36
 70
     1
102
RTVSPost2010Prop37
 90
       50
102
RTVSPost2010PropOp37
 70
     1
102
RTVSPost2010Prop38
140
0.0
102
RTVSPost2010PropOp38
 70
     1
102
RTVSPost2010Prop39
140
1.0
102
RTVSPost2010PropOp39
 70
     1
102
RTVSPost2010Prop40
 90
        0
102
RTVSPost2010PropOp40
 70
     1
102
RTVSPost2010Prop41ColorIndex
 90
       18
102
RTVSPost2010Prop41ColorRGB
 90
        0
102
RTVSPost2010PropOp41
 70
     1
102
RTVSPost2010Prop42
 90
       50
102
RTVSPost2010PropOp42
 70
     1
102
RTVSPost2010Prop43
 90
        3
102
RTVSPost2010PropOp43
 70
     1
102
RTVSPost2010Prop44ColorIndex
 90
        5
102
RTVSPost2010Prop44ColorRGB
 90
      255
102
RTVSPost2010PropOp44
 70
     1
102
RTVSPost2010Prop45
280
     0
102
RTVSPost2010PropOp45
 70
     1
102
RTVSPost2010Prop46
 90
       50
102
RTVSPost2010PropOp46
 70
     1
102
RTVSPost2010Prop47
 90
       50
102
RTVSPost2010PropOp47
 70
     1
102
RTVSPost2010Prop48
 90
       50
102
RTVSPost2010PropOp48
 70
     1
102
RTVSPost2010Prop49
280
     0
102
RTVSPost2010PropOp49
 70
     1
102
RTVSPost2010Prop50
 90
       50
102
RTVSPost2010PropOp50
 70
     1
102
RTVSPost2010Prop51ColorIndex
 90
      256
102
RTVSPost2010Prop51ColorRGB
 90
-16777216
102
RTVSPost2010PropOp51
 70
     0
102
RTVSPost2010Prop52
140
1.0
102
RTVSPost2010PropOp52
 70
     0
102
RTVSPost2010Prop53
 90
        2
102
RTVSPost2010PropOp53
 70
     1
102
RTVSPost2010Prop54
  1
strokes_ogs.tif
102
RTVSPost2010PropOp54
 70
     1
102
RTVSPost2010Prop55
280
     0
102
RTVSPost2010PropOp55
 70
     1
102
RTVSPost2010Prop56
140
1.0
102
RTVSPost2010PropOp56
 70
     1
102
RTVSPost2010Prop57
140
1.0
102
RTVSPost2010PropOp57
 70
     1
  0
XRECORD
  5
256
102
{ACAD_REACTORS
330
255
102
}
330
255
100
AcDbXrecord
280
     1
102
RTVSPropertyOp0
 70
     1
102
RTVSPropertyOp1
 70
     1
102
RTVSPropertyOp2
 70
     1
102
RTVSPropertyOp3
 70
     1
102
RTVSPropertyOp4
 70
     1
102
RTVSPropertyOp5
 70
     1
102
RTVSPropertyOp6
 70
     1
102
RTVSPropertyOp7
 70
     1
102
RTVSPropertyOp8
 70
     1
102
RTVSPropertyOp9
 70
     1
102
RTVSPropertyOp10
 70
     1
102
RTVSPropertyOp11
 70
     1
102
RTVSPropertyOp12
 70
     1
102
RTVSPropertyOp13
 70
     1
102
RTVSPropertyOp14
 70
     1
102
RTVSPropertyOp15
 70
     1
102
RTVSPropertyOp16
 70
     1
102
RTVSPropertyOp17
 70
     1
102
RTVSPropertyOp18
 70
     1
102
RTVSPropertyOp19
 70
     1
102
RTVSPropertyOp20
 70
     1
102
RTVSPropertyOp21
 70
     1
102
RTVSPropertyOp22
 70
     1
102
RTVSPropertyOp23
 70
     1
102
RTVSPropertyOp24
 70
     1
102
RTVSPropertyOp25
 70
     1
102
RTVSPropertyOp26
 70
     1
102
RTVSPropertyOp27
 70
     1
102
RTVSPropertyOp28
 70
     1
102
RTVSPropertyOp29
 70
     1
102
RTVSPropertyOp30
 70
     1
102
RTVSPropertyOp31
 70
     1
102
RTVSPropertyOp32
 70
     1
102
RTVSPropertyOp33
 70
     1
102
RTVSPropertyOp34
 70
     1
102
RTVSPropertyOp35
 70
     1
102
RTVSPropertyOp36
 70
     1
102
RTVSPropertyOp37
 70
     1
102
RTVSPropertyOp38
 70
     1
102
RTVSPropertyOp39
 70
     1
102
RTVSPropertyOp40
 70
     1
102
RTVSPropertyOp41
 70
     1
102
RTVSPropertyOp42
 70
     1
102
RTVSPropertyOp43
 70
     1
102
RTVSPropertyOp44
 70
     1
102
RTVSPropertyOp45
 70
     1
102
RTVSPropertyOp46
 70
     1
102
RTVSPropertyOp47
 70
     1
102
RTVSPropertyOp48
 70
     1
102
RTVSPropertyOp49
 70
     1
102
RTVSPropertyOp50
 70
     1
102
RTVSPropertyOp51
 70
     0
102
RTVSPropertyOp52
 70
     0
102
RTVSPropertyOp53
 70
     1
102
RTVSPropertyOp54
 70
     1
102
RTVSPropertyOp55
 70
     1
102
RTVSPropertyOp56
 70
     1
102
RTVSPropertyOp57
 70
     1
102
RTVSPost2010Prop28
280
     0
102
RTVSPost2010PropOp28
 70
     1
102
RTVSPost2010Prop29
280
     1
102
RTVSPost2010PropOp29
 70
     1
102
RTVSPost2010Prop30
280
     1
102
RTVSPost2010PropOp30
 70
     1
102
RTVSPost2010Prop31
280
     0
102
RTVSPost2010PropOp31
 70
     1
102
RTVSPost2010Prop32
280
     0
102
RTVSPost2010PropOp32
 70
     1
102
RTVSPost2010Prop33
280
     0
102
RTVSPost2010PropOp33
 70
     1
102
RTVSPost2010Prop34
280
     0
102
RTVSPost2010PropOp34
 70
     1
102
RTVSPost2010Prop35
280
     0
102
RTVSPost2010PropOp35
 70
     1
102
RTVSPost2010Prop36
280
     0
102
RTVSPost2010PropOp36
 70
     1
102
RTVSPost2010Prop37
 90
       50
102
RTVSPost2010PropOp37
 70
     1
102
RTVSPost2010Prop38
140
0.0
102
RTVSPost2010PropOp38
 70
     1
102
RTVSPost2010Prop39
140
1.0
102
RTVSPost2010PropOp39
 70
     1
102
RTVSPost2010Prop40
 90
        0
102
RTVSPost2010PropOp40
 70
     1
102
RTVSPost2010Prop41ColorIndex
 90
       18
102
RTVSPost2010Prop41ColorRGB
 90
        0
102
RTVSPost2010PropOp41
 70
     1
102
RTVSPost2010Prop42
 90
       50
102
RTVSPost2010PropOp42
 70
     1
102
RTVSPost2010Prop43
 90
        3
102
RTVSPost2010PropOp43
 70
     1
102
RTVSPost2010Prop44ColorIndex
 90
        5
102
RTVSPost2010Prop44ColorRGB
 90
      255
102
RTVSPost2010PropOp44
 70
     1
102
RTVSPost2010Prop45
280
     0
102
RTVSPost2010PropOp45
 70
     1
102
RTVSPost2010Prop46
 90
       50
102
RTVSPost2010PropOp46
 70
     1
102
RTVSPost2010Prop47
 90
       50
102
RTVSPost2010PropOp47
 70
     1
102
RTVSPost2010Prop48
 90
       50
102
RTVSPost2010PropOp48
 70
     1
102
RTVSPost2010Prop49
280
     0
102
RTVSPost2010PropOp49
 70
     1
102
RTVSPost2010Prop50
 90
       50
102
RTVSPost2010PropOp50
 70
     1
102
RTVSPost2010Prop51ColorIndex
 90
      256
102
RTVSPost2010Prop51ColorRGB
 90
-16777216
102
RTVSPost2010PropOp51
 70
     0
102
RTVSPost2010Prop52
140
1.0
102
RTVSPost2010PropOp52
 70
     0
102
RTVSPost2010Prop53
 90
        2
102
RTVSPost2010PropOp53
 70
     1
102
RTVSPost2010Prop54
  1
strokes_ogs.tif
102
RTVSPost2010PropOp54
 70
     1
102
RTVSPost2010Prop55
280
     0
102
RTVSPost2010PropOp55
 70
     1
102
RTVSPost2010Prop56
140
1.0
102
RTVSPost2010PropOp56
 70
     1
102
RTVSPost2010Prop57
140
1.0
102
RTVSPost2010PropOp57
 70
     1
  0
ENDSEC
  0
EOF
