  0
SECTION
  2
HEADER
  9
$ACADVER
  1
AC1015
  9
$ACADMAINTVER
 70
     6
  9
$DWGCODEPAGE
  3
ANSI_1252
  9
$INSBASE
 10
0.0
 20
0.0
 30
0.0
  9
$EXTMIN
 10
-307.364716
 20
-303.82074
 30
0.0
  9
$EXTMAX
 10
634.478821
 20
185.805542
 30
0.0
  9
$LIMMIN
 10
-307.364716
 20
-303.82074
  9
$LIMMAX
 10
634.478821
 20
185.805542
  9
$ORTHOMODE
 70
     0
  9
$REGENMODE
 70
     1
  9
$FILLMODE
 70
     1
  9
$QTEXTMODE
 70
     0
  9
$MIRRTEXT
 70
     1
  9
$LTSCALE
 40
1.0
  9
$ATTMODE
 70
     1
  9
$TEXTSIZE
 40
2.5
  9
$TRACEWID
 40
1.0
  9
$TEXTSTYLE
  7
Standard
  9
$CLAYER
  8
0
  9
$CELTYPE
  6
ByLayer
  9
$CECOLOR
 62
   256
  9
$CELTSCALE
 40
1.0
  9
$DISPSILH
 70
     0
  9
$DIMSCALE
 40
1.0
  9
$DIMASZ
 40
2.5
  9
$DIMEXO
 40
0.625
  9
$DIMDLI
 40
3.75
  9
$DIMRND
 40
0.0
  9
$DIMDLE
 40
0.0
  9
$DIMEXE
 40
1.25
  9
$DIMTP
 40
0.0
  9
$DIMTM
 40
0.0
  9
$DIMTXT
 40
2.5
  9
$DIMCEN
 40
2.5
  9
$DIMTSZ
 40
0.0
  9
$DIMTOL
 70
     0
  9
$DIMLIM
 70
     0
  9
$DIMTIH
 70
     0
  9
$DIMTOH
 70
     0
  9
$DIMSE1
 70
     0
  9
$DIMSE2
 70
     0
  9
$DIMTAD
 70
     1
  9
$DIMZIN
 70
     8
  9
$DIMBLK
  1

  9
$DIMASO
 70
     1
  9
$DIMSHO
 70
     1
  9
$DIMPOST
  1

  9
$DIMAPOST
  1

  9
$DIMALT
 70
     0
  9
$DIMALTD
 70
     3
  9
$DIMALTF
 40
0.03937
  9
$DIMLFAC
 40
1.0
  9
$DIMTOFL
 70
     1
  9
$DIMTVP
 40
0.0
  9
$DIMTIX
 70
     0
  9
$DIMSOXD
 70
     0
  9
$DIMSAH
 70
     0
  9
$DIMBLK1
  1

  9
$DIMBLK2
  1

  9
$DIMSTYLE
  2
ISO-25
  9
$DIMCLRD
 70
     0
  9
$DIMCLRE
 70
     0
  9
$DIMCLRT
 70
     0
  9
$DIMTFAC
 40
1.0
  9
$DIMGAP
 40
0.625
  9
$DIMJUST
 70
     0
  9
$DIMSD1
 70
     0
  9
$DIMSD2
 70
     0
  9
$DIMTOLJ
 70
     0
  9
$DIMTZIN
 70
     8
  9
$DIMALTZ
 70
     0
  9
$DIMALTTZ
 70
     0
  9
$DIMUPT
 70
     0
  9
$DIMDEC
 70
     2
  9
$DIMTDEC
 70
     2
  9
$DIMALTU
 70
     2
  9
$DIMALTTD
 70
     3
  9
$DIMTXSTY
  7
Standard
  9
$DIMAUNIT
 70
     0
  9
$DIMADEC
 70
     0
  9
$DIMALTRND
 40
0.0
  9
$DIMAZIN
 70
     0
  9
$DIMDSEP
 70
    44
  9
$DIMATFIT
 70
     3
  9
$DIMFRAC
 70
     0
  9
$DIMLDRBLK
  1

  9
$DIMLUNIT
 70
     2
  9
$DIMLWD
 70
    -2
  9
$DIMLWE
 70
    -2
  9
$DIMTMOVE
 70
     0
  9
$LUNITS
 70
     2
  9
$LUPREC
 70
     4
  9
$SKETCHINC
 40
1.0
  9
$FILLETRAD
 40
10.0
  9
$AUNITS
 70
     0
  9
$AUPREC
 70
     0
  9
$MENU
  1
.
  9
$ELEVATION
 40
0.0
  9
$PELEVATION
 40
0.0
  9
$THICKNESS
 40
0.0
  9
$LIMCHECK
 70
     0
  9
$CHAMFERA
 40
0.0
  9
$CHAMFERB
 40
0.0
  9
$CHAMFERC
 40
0.0
  9
$CHAMFERD
 40
0.0
  9
$SKPOLY
 70
     0
  9
$TDCREATE
 40
2459548.461732454
  9
$TDUCREATE
 40
2459548.420065787
  9
$TDUPDATE
 40
2459548.46173316
  9
$TDUUPDATE
 40
2459548.420066493
  9
$TDINDWG
 40
0.0000000116
  9
$TDUSRTIMER
 40
0.0000000116
  9
$USRTIMER
 70
     1
  9
$ANGBASE
 50
0.0
  9
$ANGDIR
 70
     0
  9
$PDMODE
 70
     0
  9
$PDSIZE
 40
0.0
  9
$PLINEWID
 40
0.0
  9
$SPLFRAME
 70
     0
  9
$SPLINETYPE
 70
     6
  9
$SPLINESEGS
 70
     8
  9
$HANDSEED
  5
26B
  9
$SURFTAB1
 70
     6
  9
$SURFTAB2
 70
     6
  9
$SURFTYPE
 70
     6
  9
$SURFU
 70
     6
  9
$SURFV
 70
     6
  9
$UCSBASE
  2

  9
$UCSNAME
  2

  9
$UCSORG
 10
0.0
 20
0.0
 30
0.0
  9
$UCSXDIR
 10
1.0
 20
0.0
 30
0.0
  9
$UCSYDIR
 10
0.0
 20
1.0
 30
0.0
  9
$UCSORTHOREF
  2

  9
$UCSORTHOVIEW
 70
     0
  9
$UCSORGTOP
 10
0.0
 20
0.0
 30
0.0
  9
$UCSORGBOTTOM
 10
0.0
 20
0.0
 30
0.0
  9
$UCSORGLEFT
 10
0.0
 20
0.0
 30
0.0
  9
$UCSORGRIGHT
 10
0.0
 20
0.0
 30
0.0
  9
$UCSORGFRONT
 10
0.0
 20
0.0
 30
0.0
  9
$UCSORGBACK
 10
0.0
 20
0.0
 30
0.0
  9
$PUCSBASE
  2

  9
$PUCSNAME
  2

  9
$PUCSORG
 10
0.0
 20
0.0
 30
0.0
  9
$PUCSXDIR
 10
1.0
 20
0.0
 30
0.0
  9
$PUCSYDIR
 10
0.0
 20
1.0
 30
0.0
  9
$PUCSORTHOREF
  2

  9
$PUCSORTHOVIEW
 70
     0
  9
$PUCSORGTOP
 10
0.0
 20
0.0
 30
0.0
  9
$PUCSORGBOTTOM
 10
0.0
 20
0.0
 30
0.0
  9
$PUCSORGLEFT
 10
0.0
 20
0.0
 30
0.0
  9
$PUCSORGRIGHT
 10
0.0
 20
0.0
 30
0.0
  9
$PUCSORGFRONT
 10
0.0
 20
0.0
 30
0.0
  9
$PUCSORGBACK
 10
0.0
 20
0.0
 30
0.0
  9
$USERI1
 70
     0
  9
$USERI2
 70
     0
  9
$USERI3
 70
     0
  9
$USERI4
 70
     0
  9
$USERI5
 70
     0
  9
$USERR1
 40
0.0
  9
$USERR2
 40
0.0
  9
$USERR3
 40
0.0
  9
$USERR4
 40
0.0
  9
$USERR5
 40
0.0
  9
$WORLDVIEW
 70
     1
  9
$SHADEDGE
 70
     3
  9
$SHADEDIF
 70
    70
  9
$TILEMODE
 70
     1
  9
$MAXACTVP
 70
    64
  9
$PINSBASE
 10
0.0
 20
0.0
 30
0.0
  9
$PLIMCHECK
 70
     0
  9
$PEXTMIN
 10
1.000000E+20
 20
1.000000E+20
 30
1.000000E+20
  9
$PEXTMAX
 10
-1.000000E+20
 20
-1.000000E+20
 30
-1.000000E+20
  9
$PLIMMIN
 10
0.0
 20
0.0
  9
$PLIMMAX
 10
420.0
 20
297.0
  9
$UNITMODE
 70
     0
  9
$VISRETAIN
 70
     1
  9
$PLINEGEN
 70
     0
  9
$PSLTSCALE
 70
     1
  9
$TREEDEPTH
 70
  3020
  9
$CMLSTYLE
  2
Standard
  9
$CMLJUST
 70
     0
  9
$CMLSCALE
 40
20.0
  9
$PROXYGRAPHICS
 70
     1
  9
$MEASUREMENT
 70
     1
  9
$CELWEIGHT
370
    -1
  9
$ENDCAPS
280
     0
  9
$JOINSTYLE
280
     0
  9
$LWDISPLAY
290
     0
  9
$INSUNITS
 70
     4
  9
$HYPERLINKBASE
  1

  9
$STYLESHEET
  1

  9
$XEDIT
290
     1
  9
$CEPSNTYPE
380
     0
  9
$PSTYLEMODE
290
     1
  9
$FINGERPRINTGUID
  2
{e0b3d9d3-6cb3-496a-80c0-a5c2da56daf0}
  9
$VERSIONGUID
  2
{FAEB1C32-E019-11D5-929B-00C0DF256EC4}
  9
$EXTNAMES
290
     1
  9
$PSVPSCALE
 40
0.0
  9
$OLESTARTUP
290
     0
  0
ENDSEC
  0
SECTION
  2
CLASSES
  0
CLASS
  1
ACDBDICTIONARYWDFLT
  2
AcDbDictionaryWithDefault
  3
ObjectDBX Classes
 90
        0
280
     0
281
     0
  0
CLASS
  1
VISUALSTYLE
  2
AcDbVisualStyle
  3
ObjectDBX Classes
 90
     4095
280
     0
281
     0
  0
CLASS
  1
MATERIAL
  2
AcDbMaterial
  3
ObjectDBX Classes
 90
     1153
280
     0
281
     0
  0
CLASS
  1
SCALE
  2
AcDbScale
  3
ObjectDBX Classes
 90
     1153
280
     0
281
     0
  0
CLASS
  1
TABLESTYLE
  2
AcDbTableStyle
  3
ObjectDBX Classes
 90
     4095
280
     0
281
     0
  0
CLASS
  1
MLEADERSTYLE
  2
AcDbMLeaderStyle
  3
ACDB_MLEADERSTYLE_CLASS
 90
     4095
280
     0
281
     0
  0
CLASS
  1
SUN
  2
AcDbSun
  3
SCENEOE
 90
     1153
280
     0
281
     0
  0
CLASS
  1
DICTIONARYVAR
  2
AcDbDictionaryVar
  3
ObjectDBX Classes
 90
        0
280
     0
281
     0
  0
CLASS
  1
ACDBPLACEHOLDER
  2
AcDbPlaceHolder
  3
ObjectDBX Classes
 90
        0
280
     0
281
     0
  0
CLASS
  1
LAYOUT
  2
AcDbLayout
  3
ObjectDBX Classes
 90
        0
280
     0
281
     0
  0
ENDSEC
  0
SECTION
  2
TABLES
  0
TABLE
  2
VPORT
  5
8
102
{ACAD_XDICTIONARY
360
22E
102
}
330
0
100
AcDbSymbolTable
 70
     1
  0
VPORT
  5
29
330
8
100
AcDbSymbolTableRecord
100
AcDbViewportTableRecord
  2
*Active
 70
     0
 10
0.0
 20
0.0
 11
1.0
 21
1.0
 12
344.186916
 22
148.5
 13
0.0
 23
0.0
 14
10.0
 24
10.0
 15
10.0
 25
10.0
 16
0.0
 26
0.0
 36
1.0
 17
0.0
 27
0.0
 37
0.0
 40
297.0
 41
1.972973
 42
50.0
 43
0.0
 44
0.0
 50
0.0
 51
0.0
 71
     0
 72
   100
 73
     1
 74
     3
 75
     0
 76
     0
 77
     0
 78
     0
281
     0
 65
     1
110
0.0
120
0.0
130
0.0
111
1.0
121
0.0
131
0.0
112
0.0
122
1.0
132
0.0
 79
     0
146
0.0
  0
ENDTAB
  0
TABLE
  2
LTYPE
  5
5
330
0
100
AcDbSymbolTable
 70
     1
  0
LTYPE
  5
14
330
5
100
AcDbSymbolTableRecord
100
AcDbLinetypeTableRecord
  2
ByBlock
 70
     0
  3

 72
    65
 73
     0
 40
0.0
  0
LTYPE
  5
15
330
5
100
AcDbSymbolTableRecord
100
AcDbLinetypeTableRecord
  2
ByLayer
 70
     0
  3

 72
    65
 73
     0
 40
0.0
  0
LTYPE
  5
16
330
5
100
AcDbSymbolTableRecord
100
AcDbLinetypeTableRecord
  2
Continuous
 70
     0
  3
Solid line
 72
    65
 73
     0
 40
0.0
  0
ENDTAB
  0
TABLE
  2
LAYER
  5
2
330
0
100
AcDbSymbolTable
 70
     1
  0
LAYER
  5
10
330
2
100
AcDbSymbolTableRecord
100
AcDbLayerTableRecord
  2
0
 70
     0
 62
   106
  6
Continuous
370
     0
390
F
  0
ENDTAB
  0
TABLE
  2
STYLE
  5
3
330
0
100
AcDbSymbolTable
 70
     4
  0
STYLE
  5
11
330
3
100
AcDbSymbolTableRecord
100
AcDbTextStyleTableRecord
  2
Standard
 70
     0
 40
0.0
 41
1.0
 50
0.0
 71
     0
 42
2.5
  3
txt
  4

  0
STYLE
  5
6E
330
3
100
AcDbSymbolTableRecord
100
AcDbTextStyleTableRecord
  2
Default
 70
     0
 40
0.0
 41
1.0
 50
0.0
 71
     0
 42
2.5
  3

  4

1001
ACAD
1000
txt
1071
        0
  0
STYLE
  5
6F
330
3
100
AcDbSymbolTableRecord
100
AcDbTextStyleTableRecord
  2
ISO
 70
     0
 40
0.0
 41
1.0
 50
0.0
 71
     0
 42
2.5
  3

  4

1001
ACAD
1000
txt
1071
        0
  0
STYLE
  5
70
330
3
100
AcDbSymbolTableRecord
100
AcDbTextStyleTableRecord
  2
zucchetti
 70
     0
 40
0.0
 41
1.0
 50
0.0
 71
     0
 42
2.5
  3

  4

1001
ACAD
1000
Arial
1071
        0
  0
ENDTAB
  0
TABLE
  2
VIEW
  5
6
330
0
100
AcDbSymbolTable
 70
     0
  0
ENDTAB
  0
TABLE
  2
UCS
  5
7
330
0
100
AcDbSymbolTable
 70
     0
  0
ENDTAB
  0
TABLE
  2
APPID
  5
9
330
0
100
AcDbSymbolTable
 70
     2
  0
APPID
  5
12
330
9
100
AcDbSymbolTableRecord
100
AcDbRegAppTableRecord
  2
ACAD
 70
     0
  0
APPID
  5
268
330
9
100
AcDbSymbolTableRecord
100
AcDbRegAppTableRecord
  2
ACAD_MLEADERVER
 70
     0
  0
ENDTAB
  0
TABLE
  2
DIMSTYLE
  5
A
330
0
100
AcDbSymbolTable
 70
     4
100
AcDbDimStyleTable
  0
DIMSTYLE
105
27
330
A
100
AcDbSymbolTableRecord
100
AcDbDimStyleTableRecord
  2
ISO-25
 70
     0
 41
2.5
 42
0.625
 43
3.75
 44
1.25
 73
     0
 74
     0
 77
     1
 78
     8
140
2.5
141
2.5
143
0.03937
147
0.625
171
     3
172
     1
178
     0
271
     2
272
     2
274
     3
278
    44
283
     0
284
     8
340
11
  0
DIMSTYLE
105
71
330
A
100
AcDbSymbolTableRecord
100
AcDbDimStyleTableRecord
  2
Default
 70
     0
  3
<>
 41
4.375
 42
1.05
 44
2.1
 73
     0
 74
     0
 77
     1
 78
     8
140
3.5
146
0.4
147
1.75
172
     1
271
     2
178
     3
271
     2
272
     3
284
     8
340
6E
341
72
342
72
  0
DIMSTYLE
105
79
330
A
100
AcDbSymbolTableRecord
100
AcDbDimStyleTableRecord
  2
ISO
 70
     0
  3
<>
 41
4.375
 42
1.05
 44
2.1
 73
     0
 74
     0
 77
     1
 78
     8
140
3.5
146
0.4
147
1.75
172
     1
271
     2
178
     3
271
     2
272
     3
284
     8
340
6F
341
72
342
72
  0
DIMSTYLE
105
7A
330
A
100
AcDbSymbolTableRecord
100
AcDbDimStyleTableRecord
  2
zucchetti
 70
     0
  3
<>
 41
3.0
 42
0.9
 44
1.8
 73
     0
 74
     0
 77
     1
 78
     8
140
3.0
146
0.6
147
1.5
172
     1
176
     3
177
     3
271
     2
178
     3
271
     2
272
     2
284
     8
340
70
  0
ENDTAB
  0
TABLE
  2
BLOCK_RECORD
  5
1
330
0
100
AcDbSymbolTable
 70
     7
  0
BLOCK_RECORD
  5
1F
330
1
100
AcDbSymbolTableRecord
100
AcDbBlockTableRecord
  2
*Model_Space
340
22
  0
BLOCK_RECORD
  5
1B
330
1
100
AcDbSymbolTableRecord
100
AcDbBlockTableRecord
  2
*Paper_Space
340
1E
  0
BLOCK_RECORD
  5
23
330
1
100
AcDbSymbolTableRecord
100
AcDbBlockTableRecord
  2
*Paper_Space0
340
26
  0
BLOCK_RECORD
  5
72
330
1
100
AcDbSymbolTableRecord
100
AcDbBlockTableRecord
  2
_Closed
340
0
  0
BLOCK_RECORD
  5
7B
330
1
100
AcDbSymbolTableRecord
100
AcDbBlockTableRecord
  2
a
340
0
102
{BLKREFS
331
C6
102
}
  0
BLOCK_RECORD
  5
C7
330
1
100
AcDbSymbolTableRecord
100
AcDbBlockTableRecord
  2
b
340
0
102
{BLKREFS
331
11F
102
}
  0
BLOCK_RECORD
  5
120
330
1
100
AcDbSymbolTableRecord
100
AcDbBlockTableRecord
  2
c
340
0
102
{BLKREFS
331
16E
102
}
  0
BLOCK_RECORD
  5
16F
330
1
100
AcDbSymbolTableRecord
100
AcDbBlockTableRecord
  2
d
340
0
102
{BLKREFS
331
1BE
102
}
  0
BLOCK_RECORD
  5
1BF
330
1
100
AcDbSymbolTableRecord
100
AcDbBlockTableRecord
  2
e
340
0
102
{BLKREFS
331
222
102
}
  0
ENDTAB
  0
ENDSEC
  0
SECTION
  2
BLOCKS
  0
BLOCK
  5
20
330
1F
100
AcDbEntity
  8
0
100
AcDbBlockBegin
  2
*Model_Space
 70
     0
 10
0.0
 20
0.0
 30
0.0
  3
*Model_Space
  1

  0
ENDBLK
  5
21
330
1F
100
AcDbEntity
  8
0
100
AcDbBlockEnd
  0
BLOCK
  5
1C
330
1B
100
AcDbEntity
 67
     1
  8
0
100
AcDbBlockBegin
  2
*Paper_Space
 70
     0
 10
0.0
 20
0.0
 30
0.0
  3
*Paper_Space
  1

  0
ENDBLK
  5
1D
330
1B
100
AcDbEntity
 67
     1
  8
0
100
AcDbBlockEnd
  0
BLOCK
  5
24
330
23
100
AcDbEntity
  8
0
100
AcDbBlockBegin
  2
*Paper_Space0
 70
     0
 10
0.0
 20
0.0
 30
0.0
  3
*Paper_Space0
  1

  0
ENDBLK
  5
25
330
23
100
AcDbEntity
  8
0
100
AcDbBlockEnd
  0
BLOCK
  5
73
330
72
100
AcDbEntity
  8
0
100
AcDbBlockBegin
  2
_Closed
 70
     0
 10
0.0
 20
0.0
 30
0.0
  3
_Closed
  1

  0
LINE
  5
75
330
72
100
AcDbEntity
  8
0
  6
ByBlock
 62
     0
370
    -2
100
AcDbLine
 10
-1.0
 20
0.166667
 30
0.0
 11
0.0
 21
0.0
 31
0.0
  0
LINE
  5
76
330
72
100
AcDbEntity
  8
0
  6
ByBlock
 62
     0
370
    -2
100
AcDbLine
 10
0.0
 20
0.0
 30
0.0
 11
-1.0
 21
-0.166667
 31
0.0
  0
LINE
  5
77
330
72
100
AcDbEntity
  8
0
  6
ByBlock
 62
     0
370
    -2
100
AcDbLine
 10
-1.0
 20
0.166667
 30
0.0
 11
-1.0
 21
-0.166667
 31
0.0
  0
LINE
  5
78
330
72
100
AcDbEntity
  8
0
  6
ByBlock
 62
     0
370
    -2
100
AcDbLine
 10
0.0
 20
0.0
 30
0.0
 11
-1.0
 21
0.0
 31
0.0
  0
ENDBLK
  5
74
330
72
100
AcDbEntity
  8
0
100
AcDbBlockEnd
  0
BLOCK
  5
C4
330
7B
100
AcDbEntity
  8
0
100
AcDbBlockBegin
  2
a
 70
     0
 10
99.377304
 20
78.291603
 30
0.0
  3
a
  1

  0
ARC
  5
7C
330
7B
100
AcDbEntity
  8
0
  6
Continuous
 62
     0
370
    30
100
AcDbCircle
 10
218.00899
 20
155.808471
 30
0.0
 40
21.99393697203812
100
AcDbArc
 50
359.573391
 51
89.999398
  0
ARC
  5
7D
330
7B
100
AcDbEntity
  8
0
  6
Continuous
 62
     0
370
    30
100
AcDbCircle
 10
218.009453
 20
155.808471
 30
0.0
 40
21.99393697203801
100
AcDbArc
 50
90.000602
 51
180.426609
  0
SPLINE
  5
7E
330
7B
100
AcDbEntity
  8
0
  6
Continuous
 62
     0
370
     0
100
AcDbSpline
210
0.0
220
0.0
230
1.0
 70
     8
 71
     3
 72
     8
 73
     4
 74
     0
 42
0.000000001
 43
0.0
 40
0.0
 40
0.0
 40
0.0
 40
0.0
 40
3.653222443064019
 40
3.653222443064019
 40
3.653222443064019
 40
3.653222443064019
 10
197.3258021275921
 20
155.9199954453664
 30
0.0
 10
197.3372901799873
 20
154.7218255036849
 30
0.0
 10
197.5938424318929
 20
153.5395898497597
 30
0.0
 10
197.7294559881463
 20
152.3493206901522
 30
0.0
  0
LINE
  5
7F
330
7B
100
AcDbEntity
  8
0
  6
Continuous
 62
     0
370
     0
100
AcDbLine
 10
197.729456
 20
152.349321
 30
0.0
 11
203.655105
 21
99.926868
 31
0.0
  0
SPLINE
  5
80
330
7B
100
AcDbEntity
  8
0
  6
Continuous
 62
     0
370
     0
100
AcDbSpline
210
0.0
220
0.0
230
1.0
 70
     8
 71
     3
 72
    14
 73
    10
 74
     0
 42
0.000000001
 43
0.0
 40
0.0
 40
0.0
 40
0.0
 40
0.0
 40
3.357648776851581
 40
6.714049718875667
 40
10.06778576981573
 40
13.41760088284698
 40
16.76445100049494
 40
20.11421126265042
 40
23.46800661548595
 40
23.46800661548595
 40
23.46800661548595
 40
23.46800661548595
 10
203.6551053451179
 20
99.92686805429366
 30
0.0
 10
203.7818293879897
 20
98.8331351392857
 30
0.0
 10
204.1363333216484
 20
96.6557322019751
 30
0.0
 10
205.0632826023704
 20
93.47297297417346
 30
0.0
 10
206.5122041630055
 20
90.47677894385804
 30
0.0
 10
208.6221302098877
 20
87.86745640484618
 30
0.0
 10
211.4215075259269
 20
85.96665147029648
 30
0.0
 10
214.6485239577945
 20
84.94791052445701
 30
0.0
 10
216.8912899097121
 20
84.76822593566249
 30
0.0
 10
218.0092216939904
 20
84.76822522336263
 30
0.0
  0
LINE
  5
81
330
7B
100
AcDbEntity
  8
0
  6
Continuous
 62
     0
370
     0
100
AcDbLine
 10
218.009222
 20
84.768225
 30
0.0
 11
218.009222
 21
176.740088
 31
0.0
  0
ARC
  5
82
330
7B
100
AcDbEntity
  8
0
  6
Continuous
 62
     0
370
     0
100
AcDbCircle
 10
218.008633
 20
156.056805
 30
0.0
 40
20.68328310523918
100
AcDbArc
 50
89.998369
 51
180.378986
  0
SPLINE
  5
83
330
7B
100
AcDbEntity
  8
0
  6
Continuous
 62
     0
370
     0
100
AcDbSpline
210
0.0
220
0.0
230
1.0
 70
     8
 71
     3
 72
     8
 73
     4
 74
     0
 42
0.000000001
 43
0.0
 40
0.0
 40
0.0
 40
0.0
 40
0.0
 40
3.653222443064009
 40
3.653222443064009
 40
3.653222443064009
 40
3.653222443064009
 10
238.6926412603886
 20
155.9199954453664
 30
0.0
 10
238.6811532081171
 20
154.7218255036802
 30
0.0
 10
238.4246009559761
 20
153.5395898497752
 30
0.0
 10
238.2889873998346
 20
152.3493206901522
 30
0.0
  0
LINE
  5
84
330
7B
100
AcDbEntity
  8
0
  6
Continuous
 62
     0
370
     0
100
AcDbLine
 10
238.288987
 20
152.349321
 30
0.0
 11
232.363338
 21
99.926868
 31
0.0
  0
SPLINE
  5
85
330
7B
100
AcDbEntity
  8
0
  6
Continuous
 62
     0
370
     0
100
AcDbSpline
210
0.0
220
0.0
230
1.0
 70
     8
 71
     3
 72
    14
 73
    10
 74
     0
 42
0.000000001
 43
0.0
 40
0.0
 40
0.0
 40
0.0
 40
0.0
 40
3.357648776850946
 40
6.714049718873458
 40
10.06778576981201
 40
13.41760088284155
 40
16.76445100048876
 40
20.114211262641
 40
23.4680066154798
 40
23.4680066154798
 40
23.4680066154798
 40
23.4680066154798
 10
232.363338042863
 20
99.92686805429383
 30
0.0
 10
232.2366139999667
 20
98.83313513928945
 30
0.0
 10
231.8821100663253
 20
96.6557322019783
 30
0.0
 10
230.9551607856238
 20
93.4729729741693
 30
0.0
 10
229.5062392249742
 20
90.47677894386504
 30
0.0
 10
227.3963131780985
 20
87.86745640484514
 30
0.0
 10
224.5969358620617
 20
85.96665147031018
 30
0.0
 10
221.369919430181
 20
84.94791052444954
 30
0.0
 10
219.1271534782697
 20
84.76822593565035
 30
0.0
 10
218.0092216939904
 20
84.76822522336259
 30
0.0
  0
ARC
  5
86
330
7B
100
AcDbEntity
  8
0
  6
Continuous
 62
     0
370
     0
100
AcDbCircle
 10
218.009811
 20
156.056805
 30
0.0
 40
20.68328310527698
100
AcDbArc
 50
359.621014
 51
90.001631
  0
LINE
  5
87
330
7B
100
AcDbEntity
  8
0
  6
Continuous
 62
     0
370
     0
100
AcDbLine
 10
196.436302
 20
151.844105
 30
0.0
 11
196.408312
 21
152.052556
 31
0.0
  0
LINE
  5
88
330
7B
100
AcDbEntity
  8
0
  6
Continuous
 62
     0
370
     0
100
AcDbLine
 10
196.421688
 20
152.052556
 30
0.0
 11
198.880215
 21
130.277366
 31
0.0
  0
LINE
  5
89
330
7B
100
AcDbEntity
  8
0
  6
Continuous
 62
     0
370
     0
100
AcDbLine
 10
198.880215
 20
130.277366
 30
0.0
 11
202.353888
 21
99.50295
 31
0.0
  0
SPLINE
  5
8A
330
7B
100
AcDbEntity
  8
0
  6
Continuous
 62
     0
370
     0
100
AcDbSpline
210
0.0
220
0.0
230
1.0
 70
     8
 71
     3
 72
     8
 73
     4
 74
     0
 42
0.000000001
 43
0.0
 40
0.0
 40
0.0
 40
0.0
 40
0.0
 40
3.675194520389778
 40
3.675194520389778
 40
3.675194520389778
 40
3.675194520389778
 10
196.4216953311942
 20
152.0525570669427
 30
0.0
 10
196.2866316064801
 20
153.2499690134681
 30
0.0
 10
196.0258541523267
 20
154.4399802485666
 30
0.0
 10
196.0161688995898
 20
155.6447122648002
 30
0.0
  0
LINE
  5
8B
330
7B
100
AcDbEntity
  8
0
  6
Continuous
 62
     0
370
     0
100
AcDbLine
 10
218.009235
 20
83.202189
 30
0.0
 11
218.00923
 21
83.127559
 31
0.0
  0
LINE
  5
8C
330
7B
100
AcDbEntity
  8
0
  6
Continuous
 62
     0
370
     0
100
AcDbLine
 10
218.009235
 20
84.768225
 30
0.0
 11
218.009235
 21
83.202189
 31
0.0
  0
LINE
  5
8D
330
7B
100
AcDbEntity
  8
0
  6
Continuous
 62
     0
370
     0
100
AcDbLine
 10
218.009222
 20
176.740088
 30
0.0
 11
218.009222
 21
177.802408
 31
0.0
  0
LINE
  5
8E
330
7B
100
AcDbEntity
  8
0
  6
Continuous
 62
     0
370
     0
100
AcDbLine
 10
239.582142
 20
151.844105
 30
0.0
 11
239.610131
 21
152.052556
 31
0.0
  0
LINE
  5
8F
330
7B
100
AcDbEntity
  8
0
  6
Continuous
 62
     0
370
     0
100
AcDbLine
 10
239.596755
 20
152.052556
 30
0.0
 11
237.138229
 21
130.277366
 31
0.0
  0
LINE
  5
90
330
7B
100
AcDbEntity
  8
0
  6
Continuous
 62
     0
370
     0
100
AcDbLine
 10
237.138229
 20
130.277366
 30
0.0
 11
233.664556
 21
99.50295
 31
0.0
  0
SPLINE
  5
91
330
7B
100
AcDbEntity
  8
0
  6
Continuous
 62
     0
370
     0
100
AcDbSpline
210
0.0
220
0.0
230
1.0
 70
     8
 71
     3
 72
     8
 73
     4
 74
     0
 42
0.000000001
 43
0.0
 40
0.0
 40
0.0
 40
0.0
 40
0.0
 40
3.675194520389781
 40
3.675194520389781
 40
3.675194520389781
 40
3.675194520389781
 10
239.5967480567865
 20
152.0525570669427
 30
0.0
 10
239.7318117815005
 20
153.2499690134681
 30
0.0
 10
239.992589235654
 20
154.4399802485666
 30
0.0
 10
240.0022744883909
 20
155.6447122648002
 30
0.0
  0
LINE
  5
92
330
7B
100
AcDbEntity
  8
0
  6
Continuous
 62
     0
370
    30
100
AcDbLine
 10
239.679559
 20
152.052565
 30
0.0
 11
239.673612
 21
152.018389
 31
0.0
  0
LINE
  5
93
330
7B
100
AcDbEntity
  8
0
  6
Continuous
 62
     0
370
    30
100
AcDbLine
 10
196.344831
 20
152.018389
 30
0.0
 11
196.338885
 21
152.052565
 31
0.0
  0
SPLINE
  5
94
330
7B
100
AcDbEntity
  8
0
  6
Continuous
 62
     0
370
     0
100
AcDbSpline
210
0.0
220
0.0
230
1.0
 70
     8
 71
     7
 72
    16
 73
     8
 74
     0
 42
0.000000001
 43
0.0
 40
0.0
 40
0.0
 40
0.0
 40
0.0
 40
0.0
 40
0.0
 40
0.0
 40
0.0
 40
1.0
 40
1.0
 40
1.0
 40
1.0
 40
1.0
 40
1.0
 40
1.0
 40
1.0
 10
196.4216880345535
 20
152.0525562698559
 30
0.0
 10
196.4214601600979
 20
152.1106424932158
 30
0.0
 10
196.494844692906
 20
152.1691028416635
 30
0.0
 10
196.6423391194611
 20
152.2242909279426
 30
0.0
 10
196.8563585236653
 20
152.2723840732042
 30
0.0
 10
197.1220528007502
 20
152.3103072314415
 30
0.0
 10
197.4199547757562
 20
152.3361537341989
 30
0.0
 10
197.7294236559624
 20
152.3493536979707
 30
0.0
  0
SPLINE
  5
95
330
7B
100
AcDbEntity
  8
0
  6
Continuous
 62
     0
370
     0
100
AcDbSpline
210
0.0
220
0.0
230
1.0
 70
     8
 71
     7
 72
    16
 73
     8
 74
     0
 42
0.000000001
 43
0.0
 40
0.0
 40
0.0
 40
0.0
 40
0.0
 40
0.0
 40
0.0
 40
0.0
 40
0.0
 40
1.0
 40
1.0
 40
1.0
 40
1.0
 40
1.0
 40
1.0
 40
1.0
 40
1.0
 10
239.5967553534273
 20
152.0525562698559
 30
0.0
 10
239.5969832278828
 20
152.1106424932158
 30
0.0
 10
239.5235986950747
 20
152.1691028416635
 30
0.0
 10
239.3761042685196
 20
152.2242909279426
 30
0.0
 10
239.1620848643155
 20
152.2723840732042
 30
0.0
 10
238.8963905872306
 20
152.3103072314415
 30
0.0
 10
238.5984886122245
 20
152.3361537341989
 30
0.0
 10
238.2890197320183
 20
152.3493536979707
 30
0.0
  0
SPLINE
  5
96
330
7B
100
AcDbEntity
  8
0
  6
Continuous
 62
     0
370
     0
100
AcDbSpline
210
0.0
220
0.0
230
1.0
 70
     8
 71
     7
 72
    36
 73
    28
 74
     0
 42
0.000000001
 43
0.0
 40
0.0
 40
0.0
 40
0.0
 40
0.0
 40
0.0
 40
0.0
 40
0.0
 40
0.0
 40
0.11
 40
0.11
 40
0.11
 40
0.11
 40
0.11
 40
0.55
 40
0.55
 40
0.55
 40
0.55
 40
0.55
 40
0.65
 40
0.65
 40
0.65
 40
0.65
 40
0.65
 40
0.77
 40
0.77
 40
0.77
 40
0.77
 40
0.77
 40
1.0
 40
1.0
 40
1.0
 40
1.0
 40
1.0
 40
1.0
 40
1.0
 40
1.0
 10
202.3538877811888
 20
99.50294964393262
 30
0.0
 10
202.3991137285503
 20
99.11259080449696
 30
0.0
 10
202.4492015533772
 20
98.72277671758738
 30
0.0
 10
202.5044181634491
 20
98.33360915310365
 30
0.0
 10
202.5648317836378
 20
97.94517806986605
 30
0.0
 10
202.6307659911671
 20
97.55761496212756
 30
0.0
 10
202.9890264812534
 20
95.6248147653111
 30
0.0
 10
203.4962085785275
 20
93.72101667362128
 30
0.0
 10
204.0133630491728
 20
92.2264802523903
 30
0.0
 10
204.6592470470301
 20
90.77754078831052
 30
0.0
 10
205.4605444107604
 20
89.39449968292305
 30
0.0
 10
206.6578262034298
 20
87.84263669723344
 30
0.0
 10
208.0952205935122
 20
86.52900332901501
 30
0.0
 10
208.3694869211059
 20
86.2943847003639
 30
0.0
 10
208.6516226853402
 20
86.06890105140502
 30
0.0
 10
208.9412426895874
 20
85.85283795144412
 30
0.0
 10
209.5941875770168
 20
85.39916137274818
 30
0.0
 10
210.2796559374306
 20
84.9941514804434
 30
0.0
 10
210.662448201687
 20
84.788080345874
 30
0.0
 10
211.0533952151723
 20
84.59726757801911
 30
0.0
 10
211.4514861196225
 20
84.421575209417
 30
0.0
 10
212.6310380411205
 20
83.9533143927724
 30
0.0
 10
213.8570115911598
 20
83.61134728876837
 30
0.0
 10
214.6767960968409
 20
83.43937109332171
 30
0.0
 10
215.505228911395
 20
83.31729186713059
 30
0.0
 10
216.3385516948724
 20
83.2388826831658
 30
0.0
 10
217.1738932527612
 20
83.20218903869909
 30
0.0
 10
218.0092348108516
 20
83.20218903126298
 30
0.0
  0
SPLINE
  5
97
330
7B
100
AcDbEntity
  8
0
  6
Continuous
 62
     0
370
     0
100
AcDbSpline
210
0.0
220
0.0
230
1.0
 70
     8
 71
     3
 72
    11
 73
     7
 74
     0
 42
0.000000001
 43
0.0
 40
0.0
 40
0.0
 40
0.0
 40
0.0
 40
0.5463209427519092
 40
1.092641883762446
 40
1.638962823031614
 40
2.183354679579054
 40
2.183354679579054
 40
2.183354679579054
 40
2.183354679579054
 10
233.664555606792
 20
99.50294964393262
 30
0.0
 10
233.6645555571991
 20
99.53598062012894
 30
0.0
 10
233.599575463998
 20
99.60991099432113
 30
0.0
 10
233.3189458053211
 20
99.72852711720108
 30
0.0
 10
232.8912798274398
 20
99.84050956020039
 30
0.0
 10
232.5414315354267
 20
99.90176950134276
 30
0.0
 10
232.3633434680074
 20
99.92687369123749
 30
0.0
  0
SPLINE
  5
98
330
7B
100
AcDbEntity
  8
0
  6
Continuous
 62
     0
370
     0
100
AcDbSpline
210
0.0
220
0.0
230
1.0
 70
     8
 71
     3
 72
    11
 73
     7
 74
     0
 42
0.000000001
 43
0.0
 40
0.0
 40
0.0
 40
0.0
 40
0.0
 40
0.5084500309309365
 40
1.01690006218892
 40
1.525350093773952
 40
2.033085648011041
 40
2.033085648011041
 40
2.033085648011041
 40
2.033085648011041
 10
240.0023177609353
 20
155.6447119199784
 30
0.0
 10
240.0023841358708
 20
155.6777361665557
 30
0.0
 10
239.9371513032765
 20
155.7442275079185
 30
0.0
 10
239.6550196386284
 20
155.8307659755272
 30
0.0
 10
239.2245981491226
 20
155.8939312200458
 30
0.0
 10
238.8722100786204
 20
155.9152337598745
 30
0.0
 10
238.6926325922541
 20
155.9199857234011
 30
0.0
  0
LINE
  5
99
330
7B
100
AcDbEntity
  8
0
  6
Continuous
 62
     0
370
     0
100
AcDbLine
 10
196.338674
 20
152.052565
 30
0.0
 11
196.408455
 21
152.052572
 31
0.0
  0
SPLINE
  5
9A
330
7B
100
AcDbEntity
  8
0
  6
Continuous
 62
     0
370
     0
100
AcDbSpline
210
0.0
220
0.0
230
1.0
 70
     8
 71
     3
 72
    11
 73
     7
 74
     0
 42
0.000000001
 43
0.0
 40
0.0
 40
0.0
 40
0.0
 40
0.0
 40
0.5463209427519092
 40
1.092641883762446
 40
1.638962823031614
 40
2.183354679579053
 40
2.183354679579053
 40
2.183354679579053
 40
2.183354679579053
 10
202.3538877811888
 20
99.50294964393262
 30
0.0
 10
202.3538878307816
 20
99.53598062012894
 30
0.0
 10
202.4188679239828
 20
99.60991099432113
 30
0.0
 10
202.6994975826597
 20
99.7285271172011
 30
0.0
 10
203.1271635605409
 20
99.84050956020039
 30
0.0
 10
203.477011852554
 20
99.90176950134274
 30
0.0
 10
203.6550999199733
 20
99.92687369123749
 30
0.0
  0
SPLINE
  5
9B
330
7B
100
AcDbEntity
  8
0
  6
Continuous
 62
     0
370
     0
100
AcDbSpline
210
0.0
220
0.0
230
1.0
 70
     8
 71
     3
 72
    11
 73
     7
 74
     0
 42
0.000000001
 43
0.0
 40
0.0
 40
0.0
 40
0.0
 40
0.0
 40
0.5084500309309368
 40
1.01690006218892
 40
1.525350093773953
 40
2.033085648011039
 40
2.033085648011039
 40
2.033085648011039
 40
2.033085648011039
 10
196.0161256270455
 20
155.6447119199784
 30
0.0
 10
196.0160592521099
 20
155.6777361665557
 30
0.0
 10
196.0812920847042
 20
155.7442275079185
 30
0.0
 10
196.3634237493523
 20
155.8307659755272
 30
0.0
 10
196.7938452388581
 20
155.8939312200458
 30
0.0
 10
197.1462333093604
 20
155.9152337598745
 30
0.0
 10
197.3258107957266
 20
155.9199857234011
 30
0.0
  0
SPLINE
  5
9C
330
7B
100
AcDbEntity
  8
0
  6
Continuous
 62
     0
370
     0
100
AcDbSpline
210
0.0
220
0.0
230
1.0
 70
     8
 71
     7
 72
    36
 73
    28
 74
     0
 42
0.000000001
 43
0.0
 40
0.0
 40
0.0
 40
0.0
 40
0.0
 40
0.0
 40
0.0
 40
0.0
 40
0.0
 40
0.11
 40
0.11
 40
0.11
 40
0.11
 40
0.11
 40
0.55
 40
0.55
 40
0.55
 40
0.55
 40
0.55
 40
0.65
 40
0.65
 40
0.65
 40
0.65
 40
0.65
 40
0.77
 40
0.77
 40
0.77
 40
0.77
 40
0.77
 40
1.0
 40
1.0
 40
1.0
 40
1.0
 40
1.0
 40
1.0
 40
1.0
 40
1.0
 10
233.6645556067919
 20
99.50294964393262
 30
0.0
 10
233.6193296594304
 20
99.11259080449696
 30
0.0
 10
233.5692418346036
 20
98.72277671758738
 30
0.0
 10
233.5140252245317
 20
98.33360915310365
 30
0.0
 10
233.4536116043429
 20
97.94517806986605
 30
0.0
 10
233.3876773968136
 20
97.55761496212756
 30
0.0
 10
233.0294169067273
 20
95.6248147653111
 30
0.0
 10
232.5222348094533
 20
93.72101667362128
 30
0.0
 10
232.0050803388079
 20
92.2264802523903
 30
0.0
 10
231.3591963409506
 20
90.77754078831052
 30
0.0
 10
230.5578989772203
 20
89.39449968292305
 30
0.0
 10
229.3606171845509
 20
87.84263669723344
 30
0.0
 10
227.9232227944686
 20
86.52900332901501
 30
0.0
 10
227.6489564668748
 20
86.2943847003639
 30
0.0
 10
227.3668207026406
 20
86.06890105140502
 30
0.0
 10
227.0772006983933
 20
85.85283795144412
 30
0.0
 10
226.4242558109639
 20
85.39916137274818
 30
0.0
 10
225.7387874505501
 20
84.9941514804434
 30
0.0
 10
225.3559951862937
 20
84.788080345874
 30
0.0
 10
224.9650481728085
 20
84.59726757801911
 30
0.0
 10
224.5669572683582
 20
84.421575209417
 30
0.0
 10
223.3874053468603
 20
83.9533143927724
 30
0.0
 10
222.1614317968209
 20
83.61134728876837
 30
0.0
 10
221.3416472911399
 20
83.43937109332171
 30
0.0
 10
220.5132144765857
 20
83.31729186713059
 30
0.0
 10
219.6798916931083
 20
83.2388826831658
 30
0.0
 10
218.8445501352195
 20
83.20218903869909
 30
0.0
 10
218.0092085771291
 20
83.20218903126298
 30
0.0
  0
ARC
  5
9D
330
7B
100
AcDbEntity
  8
0
  6
Continuous
 62
     0
370
    30
100
AcDbCircle
 10
218.037552
 20
155.811034
 30
0.0
 40
22.02206617279059
100
AcDbArc
 50
180.761879
 51
188.65564
  0
LINE
  5
9E
330
7B
100
AcDbEntity
  8
0
  6
Continuous
 62
     0
370
    30
100
AcDbLine
 10
196.266302
 20
152.496813
 30
0.0
 11
196.338636
 21
152.052521
 31
0.0
  0
LINE
  5
9F
330
7B
100
AcDbEntity
  8
0
  6
Continuous
 62
     0
370
    30
100
AcDbLine
 10
196.338636
 20
152.052521
 30
0.0
 11
196.344587
 21
152.018347
 31
0.0
  0
LINE
  5
A0
330
7B
100
AcDbEntity
  8
0
  6
Continuous
 62
     0
370
     0
100
AcDbLine
 10
239.679769
 20
152.052565
 30
0.0
 11
239.609988
 21
152.052572
 31
0.0
  0
LINE
  5
A1
330
7B
100
AcDbEntity
  8
0
  6
Continuous
 62
     0
370
    30
100
AcDbLine
 10
239.673856
 20
152.018347
 30
0.0
 11
239.679807
 21
152.052521
 31
0.0
  0
LINE
  5
A2
330
7B
100
AcDbEntity
  8
0
  6
Continuous
 62
     0
370
    30
100
AcDbLine
 10
239.679807
 20
152.052521
 30
0.0
 11
239.752142
 21
152.496813
 31
0.0
  0
ARC
  5
A3
330
7B
100
AcDbEntity
  8
0
  6
Continuous
 62
     0
370
    30
100
AcDbCircle
 10
217.980891
 20
155.811034
 30
0.0
 40
22.02206617279178
100
AcDbArc
 50
351.34436
 51
359.238121
  0
ARC
  5
A4
330
7B
100
AcDbEntity
  8
0
  6
Continuous
 62
     0
370
    30
100
AcDbCircle
 10
218.012025
 20
155.80553
 30
0.0
 40
22.1
100
AcDbArc
 50
345.276096
 51
90.0
  0
ARC
  5
A5
330
7B
100
AcDbEntity
  8
0
  6
Continuous
 62
     0
370
    30
100
AcDbCircle
 10
218.012025
 20
155.80553
 30
0.0
 40
22.1
100
AcDbArc
 50
90.0
 51
194.62301
  0
ARC
  5
A6
330
7B
100
AcDbEntity
  8
0
  6
Continuous
 62
     0
370
     0
100
AcDbCircle
 10
218.012025
 20
155.80553
 30
0.0
 40
29.49999999999999
100
AcDbArc
 50
311.403932
 51
90.0
  0
ARC
  5
A7
330
7B
100
AcDbEntity
  8
0
  6
Continuous
 62
     0
370
     0
100
AcDbCircle
 10
218.012025
 20
155.80553
 30
0.0
 40
29.49999999999999
100
AcDbArc
 50
90.0
 51
228.57994
  0
ARC
  5
A8
330
7B
100
AcDbEntity
  8
0
  6
Continuous
 62
     0
370
    30
100
AcDbCircle
 10
218.012025
 20
155.80553
 30
0.0
 40
30.0
100
AcDbArc
 50
310.35956
 51
90.0
  0
ARC
  5
A9
330
7B
100
AcDbEntity
  8
0
  6
Continuous
 62
     0
370
    30
100
AcDbCircle
 10
218.012025
 20
155.80553
 30
0.0
 40
30.0
100
AcDbArc
 50
90.0
 51
229.624892
  0
LINE
  5
AA
330
7B
100
AcDbEntity
  8
0
  6
Continuous
 62
     0
370
    30
100
AcDbLine
 10
239.485293
 20
151.065337
 30
0.0
 11
239.673856
 21
152.018347
 31
0.0
  0
LINE
  5
AB
330
7B
100
AcDbEntity
  8
0
  6
Continuous
 62
     0
370
    30
100
AcDbLine
 10
196.344587
 20
152.018347
 30
0.0
 11
196.53315
 21
151.065337
 31
0.0
  0
SPLINE
  5
AC
330
7B
100
AcDbEntity
  8
0
  6
Continuous
 62
     0
370
    30
100
AcDbSpline
210
0.0
220
0.0
230
1.0
 70
     8
 71
     3
 72
    16
 73
    12
 74
     0
 42
0.000000001
 43
0.0
 40
0.0
 40
0.0
 40
0.0
 40
0.0
 40
1.550144395625686
 40
4.263898427094494
 40
6.974646689818812
 40
9.28902240867012
 40
11.95192154780436
 40
14.20239377902589
 40
16.81470570836068
 40
20.55235518572262
 40
25.38189841274233
 40
25.38189841274233
 40
25.38189841274233
 40
25.38189841274233
 10
218.0092137118422
 20
83.1275588836536
 30
0.0
 10
218.5258094756494
 20
83.12765247456257
 30
0.0
 10
219.9473570887036
 20
83.17801875627681
 30
0.0
 10
222.2540528953341
 20
83.51805698691342
 30
0.0
 10
224.7093821297217
 20
84.33889725198885
 30
0.0
 10
226.9444425079175
 20
85.60345287618904
 30
0.0
 10
228.7677691801219
 20
87.18151453970748
 30
0.0
 10
230.3261820376797
 20
89.13871755997071
 30
0.0
 10
231.7273228828859
 20
91.62494892313751
 30
0.0
 10
232.9766578662737
 20
95.11273434436579
 30
0.0
 10
233.4804070328738
 20
97.90222827700222
 30
0.0
 10
233.6633087049701
 20
99.48107075245366
 30
0.0
  0
LINE
  5
AD
330
7B
100
AcDbEntity
  8
0
  6
Continuous
 62
     0
370
    30
100
AcDbLine
 10
239.967137
 20
154.554598
 30
0.0
 11
239.960657
 21
154.445848
 31
0.0
  0
SPLINE
  5
AE
330
7B
100
AcDbEntity
  8
0
  6
Continuous
 62
     0
370
    30
100
AcDbSpline
210
0.0
220
0.0
230
1.0
 70
     8
 71
     3
 72
    16
 73
    12
 74
     0
 42
0.000000001
 43
0.0
 40
0.0
 40
0.0
 40
0.0
 40
0.0
 40
1.550144395625686
 40
4.263898427094494
 40
6.974646689818819
 40
9.28902240867012
 40
11.95192154780433
 40
14.20239377902585
 40
16.81470570836062
 40
20.55235518572244
 40
25.38189841274234
 40
25.38189841274234
 40
25.38189841274234
 40
25.38189841274234
 10
218.0092296761385
 20
83.1275588836536
 30
0.0
 10
217.4926339123314
 20
83.12765247456257
 30
0.0
 10
216.0710862992771
 20
83.17801875627681
 30
0.0
 10
213.7643904926466
 20
83.51805698691345
 30
0.0
 10
211.309061258259
 20
84.33889725198885
 30
0.0
 10
209.0740008800632
 20
85.60345287618904
 30
0.0
 10
207.2506742078588
 20
87.18151453970745
 30
0.0
 10
205.6922613503011
 20
89.13871755997069
 30
0.0
 10
204.2911205050949
 20
91.62494892313738
 30
0.0
 10
203.041785521707
 20
95.11273434436595
 30
0.0
 10
202.538036355107
 20
97.90222827700215
 30
0.0
 10
202.3551346830107
 20
99.48107075245366
 30
0.0
  0
LINE
  5
AF
330
7B
100
AcDbEntity
  8
0
  6
Continuous
 62
     0
370
    30
100
AcDbLine
 10
196.051307
 20
154.554598
 30
0.0
 11
196.057787
 21
154.445848
 31
0.0
  0
ARC
  5
B0
330
7B
100
AcDbEntity
  8
0
  6
Continuous
 62
     0
370
     0
100
AcDbCircle
 10
138.012024
 20
155.805531
 30
0.0
 40
29.5
100
AcDbArc
 50
296.147146
 51
192.182043
  0
ARC
  5
B1
330
7B
100
AcDbEntity
  8
0
  6
Continuous
 62
     0
370
     0
100
AcDbCircle
 10
138.012024
 20
155.805531
 30
0.0
 40
29.5
100
AcDbArc
 50
192.182043
 51
243.852854
  0
ARC
  5
B2
330
7B
100
AcDbEntity
  8
0
  6
Continuous
 62
     0
370
    30
100
AcDbCircle
 10
138.012024
 20
155.805531
 30
0.0
 40
30.0
100
AcDbArc
 50
295.679289
 51
192.182043
  0
ARC
  5
B3
330
7B
100
AcDbEntity
  8
0
  6
Continuous
 62
     0
370
    30
100
AcDbCircle
 10
138.012024
 20
155.805531
 30
0.0
 40
30.0
100
AcDbArc
 50
192.182043
 51
244.320711
  0
ELLIPSE
  5
B4
330
7B
100
AcDbEntity
  8
0
  6
Continuous
 62
     0
370
    30
100
AcDbEllipse
 10
138.012024
 20
115.740384
 30
0.0
 11
8.905732765799213
 21
-1.354128603857354E-7
 31
0.0
210
0.0
220
0.0
230
1.0
 40
0.5
 41
0.0089170605956017
 42
1.570796332391797
  0
ELLIPSE
  5
B5
330
7B
100
AcDbEntity
  8
0
  6
Continuous
 62
     0
370
    30
100
AcDbEllipse
 10
138.012024
 20
115.740384
 30
0.0
 11
8.905732765799213
 21
-1.354128603857354E-7
 31
0.0
210
0.0
220
0.0
230
1.0
 40
0.5
 41
1.570796332391797
 42
3.132675592994184
  0
ELLIPSE
  5
B6
330
7B
100
AcDbEntity
  8
0
  6
Continuous
 62
     0
370
    30
100
AcDbEllipse
 10
138.012024
 20
114.203835
 30
0.0
 11
8.933135395009275
 21
-1.358295210357917E-7
 31
0.0
210
0.0
220
0.0
230
1.0
 40
0.5
 41
5.601466467030761
 42
7.853981628189637
  0
ELLIPSE
  5
B7
330
7B
100
AcDbEntity
  8
0
  6
Continuous
 62
     0
370
    30
100
AcDbEllipse
 10
138.012024
 20
114.203835
 30
0.0
 11
8.933135395009275
 21
-1.358295210357917E-7
 31
0.0
210
0.0
220
0.0
230
1.0
 40
0.5
 41
1.570796321010051
 42
3.823311521022998
  0
ARC
  5
B8
330
7B
100
AcDbEntity
  8
0
  6
Continuous
 62
     0
370
    30
100
AcDbCircle
 10
138.012024
 20
155.805531
 30
0.0
 40
13.00000000000001
100
AcDbArc
 50
359.999999
 51
180.0
  0
LINE
  5
B9
330
7B
100
AcDbEntity
  8
0
  6
Continuous
 62
     0
370
    30
100
AcDbLine
 10
125.012024
 20
155.805531
 30
0.0
 11
125.012024
 21
133.305531
 31
0.0
  0
SPLINE
  5
BA
330
7B
100
AcDbEntity
  8
0
  6
Continuous
 62
     0
370
     0
100
AcDbSpline
210
0.0
220
0.0
230
1.0
 70
    12
 71
     2
 72
     8
 73
     5
 74
     0
 42
0.000000001
 43
0.0
 40
0.0
 40
0.0
 40
0.0
 40
0.25
 40
0.25
 40
0.4999999999999911
 40
0.4999999999999911
 40
0.4999999999999911
 10
125.0120239257812
 20
133.3055305480956
 30
0.0
 41
1.0
 10
125.0120239257812
 20
139.8055305480956
 30
0.0
 41
0.7071067811865476
 10
138.0120239257812
 20
139.8055305480956
 30
0.0
 41
1.0
 10
151.0120239257812
 20
139.8055305480956
 30
0.0
 41
0.7071067811865476
 10
151.0120239257813
 20
133.305530548096
 30
0.0
 41
1.0
  0
LINE
  5
BB
330
7B
100
AcDbEntity
  8
0
  6
Continuous
 62
     0
370
    30
100
AcDbLine
 10
125.012024
 20
133.305531
 30
0.0
 11
125.012024
 21
115.842466
 31
0.0
  0
SPLINE
  5
BC
330
7B
100
AcDbEntity
  8
0
  6
Continuous
 62
     0
370
    30
100
AcDbSpline
210
0.0
220
0.0
230
1.0
 70
    15
 71
     2
 72
    12
 73
     9
 74
     0
 42
0.000000001
 43
0.0
 40
0.0
 40
0.0
 40
0.0
 40
0.25
 40
0.25
 40
0.5
 40
0.5
 40
0.75
 40
0.75
 40
1.0
 40
1.0
 40
1.0
 10
125.0120239257812
 20
115.8424656947479
 30
0.0
 41
1.0
 10
125.0120239257812
 20
109.3424656947479
 30
0.0
 41
0.7071067811865476
 10
138.0120239257812
 20
109.3424656947479
 30
0.0
 41
1.0
 10
151.0120239257812
 20
109.3424656947479
 30
0.0
 41
0.7071067811865476
 10
151.0120239257812
 20
115.8424656947479
 30
0.0
 41
1.0
 10
151.0120239257812
 20
122.3424656947479
 30
0.0
 41
0.7071067811865476
 10
138.0120239257812
 20
122.3424656947479
 30
0.0
 41
1.0
 10
125.0120239257812
 20
122.3424656947479
 30
0.0
 41
0.7071067811865476
 10
125.0120239257812
 20
115.8424656947479
 30
0.0
 41
1.0
  0
ELLIPSE
  5
BD
330
7B
100
AcDbEntity
  8
0
  6
Continuous
 62
     0
370
    30
100
AcDbEllipse
 10
138.012024
 20
115.842466
 30
0.0
 11
-9.020021160004054
 21
1.371506307382891E-7
 31
0.0
210
0.0
220
0.0
230
-1.0
 40
0.5
 41
6.131478172201885
 42
7.853981627602892
  0
ELLIPSE
  5
BE
330
7B
100
AcDbEntity
  8
0
  6
Continuous
 62
     0
370
    30
100
AcDbEllipse
 10
138.012024
 20
115.842466
 30
0.0
 11
-9.020021160004054
 21
1.371506307382891E-7
 31
0.0
210
0.0
220
0.0
230
-1.0
 40
0.5
 41
1.570796320423307
 42
3.293299788567489
  0
LINE
  5
BF
330
7B
100
AcDbEntity
  8
0
  6
Continuous
 62
     0
370
    30
100
AcDbLine
 10
151.012024
 20
133.305531
 30
0.0
 11
151.012024
 21
115.842466
 31
0.0
  0
LINE
  5
C0
330
7B
100
AcDbEntity
  8
0
  6
Continuous
 62
     0
370
    30
100
AcDbLine
 10
151.012024
 20
155.80553
 30
0.0
 11
151.012024
 21
133.305531
 31
0.0
  0
SPLINE
  5
C1
330
7B
100
AcDbEntity
  8
0
  6
Continuous
 62
     0
370
    30
100
AcDbSpline
210
0.0
220
0.0
230
1.0
 70
     8
 71
     3
 72
    13
 73
     9
 74
     0
 42
0.000000001
 43
0.0
 40
0.0
 40
0.0
 40
0.0
 40
0.0
 40
1.426227772362799
 40
3.287425926258172
 40
7.650111929300781
 40
11.36415291341611
 40
13.2830127097501
 40
14.63369818676229
 40
14.63369818676229
 40
14.63369818676229
 40
14.63369818676229
 10
131.0755211417516
 20
111.3893263177216
 30
0.0
 10
131.4740967752234
 20
111.1437487549454
 30
0.0
 10
132.4306418467246
 20
110.6323812065329
 30
0.0
 10
134.8076068554862
 20
109.7414314714091
 30
0.0
 10
138.134127224283
 20
109.3131795757882
 30
0.0
 10
141.4545479600851
 20
109.8241551320082
 30
0.0
 10
143.6216312827263
 20
110.6452509719855
 30
0.0
 10
144.5710297573036
 20
111.1567363825606
 30
0.0
 10
144.9485259835219
 20
111.3893261073557
 30
0.0
  0
LINE
  5
C2
330
7B
100
AcDbEntity
  8
0
  6
Continuous
 62
     0
370
    30
100
AcDbLine
 10
129.106645
 20
115.78009
 30
0.0
 11
129.079243
 21
114.243663
 31
0.0
  0
LINE
  5
C3
330
7B
100
AcDbEntity
  8
0
  6
Continuous
 62
     0
370
    30
100
AcDbLine
 10
146.917402
 20
115.78009
 30
0.0
 11
146.944804
 21
114.243663
 31
0.0
  0
ENDBLK
  5
C5
330
7B
100
AcDbEntity
  8
0
100
AcDbBlockEnd
  0
BLOCK
  5
11D
330
C7
100
AcDbEntity
  8
0
100
AcDbBlockBegin
  2
b
 70
     0
 10
-53.160736
 20
0.000015
 30
0.0
  3
b
  1

  0
LINE
  5
C8
330
C7
100
AcDbEntity
  8
0
  6
Continuous
 62
     0
370
    30
100
AcDbLine
 10
-106.50157
 20
133.607238
 30
0.0
 11
-111.129744
 21
133.486045
 31
0.0
  0
ARC
  5
C9
330
C7
100
AcDbEntity
  8
0
  6
Continuous
 62
     0
370
    30
100
AcDbCircle
 10
-111.136288
 20
133.735959
 30
0.0
 40
0.25
100
AcDbArc
 50
188.0
 51
271.5
  0
LINE
  5
CA
330
C7
100
AcDbEntity
  8
0
  6
Continuous
 62
     0
370
    30
100
AcDbLine
 10
-95.33395
 20
133.815009
 30
0.0
 11
-106.271291
 21
133.815009
 31
0.0
  0
LINE
  5
CB
330
C7
100
AcDbEntity
  8
0
  6
Continuous
 62
     0
370
     0
100
AcDbLine
 10
-122.465364
 20
155.644727
 30
0.0
 11
-118.665614
 21
177.802423
 31
0.0
  0
SPLINE
  5
CC
330
C7
100
AcDbEntity
  8
0
  6
Continuous
 62
     0
370
    30
100
AcDbSpline
210
0.0
220
0.0
230
1.0
 70
     8
 71
     3
 72
    44
 73
    40
 74
     0
 42
0.000000001
 43
0.0
 40
0.0000895826433412
 40
0.0000895826433412
 40
0.0000895826433412
 40
0.0000895826433412
 40
1.455705552509048
 40
2.911589491459075
 40
5.824081540223966
 40
8.7385626186377
 40
11.65580985318472
 40
14.57578990660517
 40
16.0365960848436
 40
17.49778930286209
 40
20.42097080379455
 40
23.34485787360984
 40
29.19406413397097
 40
35.04490031175023
 40
40.89750583142025
 40
46.75217532136676
 40
52.60924050520428
 40
58.46889873474503
 40
61.39961580463802
 40
64.33071643401544
 40
67.26188709628178
 40
67.99463745972156
 40
68.72736871187065
 40
69.46006464947662
 40
70.19267755734444
 40
70.92522637030976
 40
71.65766554638013
 40
72.3898692175285
 40
73.12154096575792
 40
73.85284092929396
 40
74.58380294679615
 40
76.04479523318956
 40
78.96357029084776
 40
81.87875183543906
 40
84.79115651387711
 40
87.70151606666711
 40
90.61036732582744
 40
92.06431495852438
 40
93.51784755801623
 40
93.51784755801623
 40
93.51784755801623
 40
93.51784755801623
 10
-137.09789515584
 20
84.7682404821517
 30
0.0
 10
-137.0848997574285
 20
85.25322789131842
 30
0.0
 10
-137.0589061357323
 20
86.2232919851842
 30
0.0
 10
-136.9787898327472
 20
88.16327096659808
 30
0.0
 10
-136.8153936718559
 20
90.5866413263299
 30
0.0
 10
-136.5082386341578
 20
93.48825445361418
 30
0.0
 10
-136.1106473429395
 20
96.38338689046788
 30
0.0
 10
-135.7280472065863
 20
98.79145597198637
 30
0.0
 10
-135.4047221645142
 20
100.7166696447106
 30
0.0
 10
-135.0790785902091
 20
102.6429502873576
 30
0.0
 10
-134.6816632653963
 20
105.0538791024521
 30
0.0
 10
-134.0470721874972
 20
108.9128631815308
 30
0.0
 10
-133.2676370676077
 20
113.7394584249597
 30
0.0
 10
-132.3329842334542
 20
119.5307062404312
 30
0.0
 10
-131.3891166106032
 20
125.3209394753521
 30
0.0
 10
-130.4226893032123
 20
131.1088696281885
 30
0.0
 10
-129.4204638910396
 20
136.8930897853737
 30
0.0
 10
-128.5453560072915
 20
141.7081747764091
 30
0.0
 10
-127.8144163115567
 20
145.555552641463
 30
0.0
 10
-127.2495987910534
 20
148.4381377157057
 30
0.0
 10
-126.8124159436602
 20
150.5967539899361
 30
0.0
 10
-126.5147231217188
 20
152.0340402460841
 30
0.0
 10
-126.3646685144645
 20
152.75225184569
 30
0.0
 10
-126.2133736637638
 20
153.4700114856692
 30
0.0
 10
-126.0607892478229
 20
154.1873600542666
 30
0.0
 10
-125.906911008879
 20
154.9041771650014
 30
0.0
 10
-125.7517337653226
 20
155.6204652849779
 30
0.0
 10
-125.59527207466
 20
156.3360826615075
 30
0.0
 10
-125.4374118380556
 20
157.0514381373007
 30
0.0
 10
-125.2782282211624
 20
157.7660951241583
 30
0.0
 10
-125.0641627714167
 20
158.7179622087021
 30
0.0
 10
-124.6849248669482
 20
160.3810516130629
 30
0.0
 10
-124.1259998499118
 20
162.7505269786429
 30
0.0
 10
-123.4385870400965
 20
165.5861487755876
 30
0.0
 10
-122.6991746091426
 20
168.4042722748706
 30
0.0
 10
-121.9014595226181
 20
171.2026574384123
 30
0.0
 10
-121.1884461557206
 20
173.5180422803781
 30
0.0
 10
-120.5943989620728
 20
175.3615414285093
 30
0.0
 10
-120.2905849184044
 20
176.2806266687652
 30
0.0
 10
-120.1386994752788
 20
176.7401036530643
 30
0.0
  0
LINE
  5
CD
330
C7
100
AcDbEntity
  8
0
  6
Continuous
 62
     0
370
     0
100
AcDbLine
 10
-123.974593
 20
155.920011
 30
0.0
 11
-124.632909
 21
152.349336
 31
0.0
  0
LINE
  5
CE
330
C7
100
AcDbEntity
  8
0
  6
Continuous
 62
     0
370
     0
100
AcDbLine
 10
-124.632909
 20
152.349336
 30
0.0
 11
-134.301976
 21
99.926883
 31
0.0
  0
LINE
  5
CF
330
C7
100
AcDbEntity
  8
0
  6
Continuous
 62
     0
370
     0
100
AcDbLine
 10
-134.301976
 20
99.926883
 30
0.0
 11
-137.097895
 21
84.76824
 31
0.0
  0
LINE
  5
D0
330
C7
100
AcDbEntity
  8
0
  6
Continuous
 62
     0
370
     0
100
AcDbLine
 10
-120.138699
 20
176.740104
 30
0.0
 11
-123.974593
 21
155.920011
 31
0.0
  0
SPLINE
  5
D1
330
C7
100
AcDbEntity
  8
0
  6
Continuous
 62
     0
370
    30
100
AcDbSpline
210
0.0
220
0.0
230
1.0
 70
     8
 71
     3
 72
     8
 73
     4
 74
     0
 42
0.000000001
 43
0.0
 40
0.0
 40
0.0
 40
0.0
 40
0.0
 40
1.0
 40
1.0
 40
1.0
 40
1.0
 10
-135.8274884223188
 20
83.20220429005204
 30
0.0
 10
-134.6780945134792
 20
82.99020819231154
 30
0.0
 10
-134.0262896298091
 20
83.22863927832083
 30
0.0
 10
-133.8649832461747
 20
83.93314820983653
 30
0.0
  0
ARC
  5
D2
330
C7
100
AcDbEntity
  8
0
  6
Continuous
 62
     0
370
    30
100
AcDbCircle
 10
-118.665614
 20
176.249923
 30
0.0
 40
1.552499995295734
100
AcDbArc
 50
90.0
 51
161.594746
  0
SPLINE
  5
D3
330
C7
100
AcDbEntity
  8
0
  6
Continuous
 62
     0
370
    30
100
AcDbSpline
210
0.0
220
0.0
230
1.0
 70
     8
 71
     3
 72
     8
 73
     4
 74
     0
 42
0.000000001
 43
0.0
 40
0.2452077231187211
 40
0.2452077231187211
 40
0.2452077231187211
 40
0.2452077231187211
 40
34.96414112467822
 40
34.96414112467822
 40
34.96414112467822
 40
34.96414112467822
 10
-127.2044161710882
 20
118.3580033406641
 30
0.0
 10
-129.4098744095141
 20
106.9970300756651
 30
0.0
 10
-131.2267091278632
 20
95.55452148165323
 30
0.0
 10
-133.7884079319679
 20
84.26887690818941
 30
0.0
  0
SPLINE
  5
D4
330
C7
100
AcDbEntity
  8
0
  6
Continuous
 62
     0
370
     0
100
AcDbSpline
210
0.0
220
0.0
230
1.0
 70
     8
 71
     7
 72
    31
 73
    23
 74
     0
 42
0.000000001
 43
0.0
 40
-0.0000000000000264
 40
-0.0000000000000264
 40
-0.0000000000000264
 40
-0.0000000000000264
 40
-0.0000000000000264
 40
-0.0000000000000264
 40
-0.0000000000000264
 40
-0.0000000000000264
 40
0.3899999999999839
 40
0.3899999999999839
 40
0.3899999999999839
 40
0.3899999999999839
 40
0.3899999999999839
 40
0.6436379999999904
 40
0.6436379999999904
 40
0.6436379999999904
 40
0.6436379999999904
 40
0.6436379999999904
 40
0.7742999999999939
 40
0.7742999999999939
 40
0.7742999999999939
 40
0.7742999999999939
 40
0.7742999999999939
 40
1.0
 40
1.0
 40
1.0
 40
1.0
 40
1.0
 40
1.0
 40
1.0
 40
1.0
 10
-127.1444841940774
 20
130.277380818254
 30
0.0
 10
-127.0243589038478
 20
130.2552263295847
 30
0.0
 10
-126.9040245109086
 20
130.2342188830989
 30
0.0
 10
-126.785100844053
 20
130.2136085586323
 30
0.0
 10
-126.6645028076305
 20
130.1922316574828
 30
0.0
 10
-126.5469212953585
 20
130.1706197577256
 30
0.0
 10
-126.3544021234729
 20
130.1335024698216
 30
0.0
 10
-126.1635698035116
 20
130.0939958373186
 30
0.0
 10
-126.0883216374186
 20
130.0779445844403
 30
0.0
 10
-126.0144630555947
 20
130.0621371035554
 30
0.0
 10
-125.9411044400899
 20
130.0459867852811
 30
0.0
 10
-125.8315626293015
 20
130.0227183303653
 30
0.0
 10
-125.7354877752296
 20
130.0071731567275
 30
0.0
 10
-125.705053505279
 20
130.0031391165291
 30
0.0
 10
-125.6773893762033
 20
130.0006142453187
 30
0.0
 10
-125.65409511695
 20
130.0002931537626
 30
0.0
 10
-125.6008300960257
 20
130.0041695164975
 30
0.0
 10
-125.5721042122009
 20
130.0191858680694
 30
0.0
 10
-125.5611574771929
 20
130.0317340776656
 30
0.0
 10
-125.5527097713557
 20
130.0453845872702
 30
0.0
 10
-125.5469310143349
 20
130.0601674844355
 30
0.0
 10
-125.5420580551108
 20
130.0753960499559
 30
0.0
 10
-125.5371272795314
 20
130.090614073224
 30
0.0
  0
ARC
  5
D5
330
C7
100
AcDbEntity
  8
0
  6
Continuous
 62
     0
370
     0
100
AcDbCircle
 10
-6906.2188
 20
1331.241503
 30
0.0
 40
6886.247701440438
100
AcDbArc
 50
349.954657
 51
350.140179
  0
LINE
  5
D6
330
C7
100
AcDbEntity
  8
0
  6
Continuous
 62
     0
370
     0
100
AcDbLine
 10
-121.68338
 20
152.052571
 30
0.0
 11
-123.127954
 21
152.052572
 31
0.0
  0
LINE
  5
D7
330
C7
100
AcDbEntity
  8
0
  6
Continuous
 62
     0
370
     0
100
AcDbLine
 10
-123.127954
 20
152.052572
 30
0.0
 11
-127.144484
 21
130.277381
 31
0.0
  0
LINE
  5
D8
330
C7
100
AcDbEntity
  8
0
  6
Continuous
 62
     0
370
     0
100
AcDbLine
 10
-127.144484
 20
130.277381
 30
0.0
 11
-132.820951
 21
99.502965
 31
0.0
  0
SPLINE
  5
D9
330
C7
100
AcDbEntity
  8
0
  6
Continuous
 62
     0
370
     0
100
AcDbSpline
210
0.0
220
0.0
230
1.0
 70
     8
 71
     7
 72
    26
 73
    18
 74
     0
 42
0.000000001
 43
0.0
 40
0.0
 40
0.0
 40
0.0
 40
0.0
 40
0.0
 40
0.0
 40
0.0
 40
0.0
 40
0.4874999999999879
 40
0.4874999999999879
 40
0.4874999999999879
 40
0.4874999999999879
 40
0.4874999999999879
 40
0.7499999999999812
 40
0.7499999999999812
 40
0.7499999999999812
 40
0.7499999999999812
 40
0.7499999999999812
 40
0.9999999999999749
 40
0.9999999999999749
 40
0.9999999999999749
 40
0.9999999999999749
 40
0.9999999999999749
 40
0.9999999999999749
 40
0.9999999999999749
 40
0.9999999999999749
 10
-132.8209505160189
 20
99.50296490272166
 30
0.0
 10
-132.6608318266317
 20
99.47343234410336
 30
0.0
 10
-132.5007311766872
 20
99.44380197087008
 30
0.0
 10
-132.3408425925763
 20
99.41417284268402
 30
0.0
 10
-132.1814002250035
 20
99.38468506986266
 30
0.0
 10
-132.0231520412926
 20
99.35562952840428
 30
0.0
 10
-131.782613434731
 20
99.31218498430029
 30
0.0
 10
-131.5561161662527
 20
99.27393270826043
 30
0.0
 10
-131.4791949994064
 20
99.2613967179027
 30
0.0
 10
-131.4055472912687
 20
99.25000680382988
 30
0.0
 10
-131.3364932880354
 20
99.24018547366533
 30
0.0
 10
-131.2150305017981
 20
99.2252614256008
 30
0.0
 10
-131.1255264243355
 20
99.21999729990206
 30
0.0
 10
-131.0907988768613
 20
99.22003729380617
 30
0.0
 10
-131.0659392928455
 20
99.22283231557702
 30
0.0
 10
-131.0499228879244
 20
99.2280127284431
 30
0.0
 10
-131.0416277353688
 20
99.23525248748076
 30
0.0
 10
-131.0399650942713
 20
99.24424666806289
 30
0.0
  0
LINE
  5
DA
330
C7
100
AcDbEntity
  8
0
  6
Continuous
 62
     0
370
     0
100
AcDbLine
 10
-131.039965
 20
99.244247
 30
0.0
 11
-125.537127
 21
130.090614
 31
0.0
  0
LINE
  5
DB
330
C7
100
AcDbEntity
  8
0
  6
Continuous
 62
     0
370
     0
100
AcDbLine
 10
-123.127953
 20
152.052572
 30
0.0
 11
-122.465364
 21
155.644728
 31
0.0
  0
LINE
  5
DC
330
C7
100
AcDbEntity
  8
0
  6
Continuous
 62
     0
370
    30
100
AcDbLine
 10
-95.333951
 20
155.504515
 30
0.0
 11
-95.33395
 21
133.815009
 31
0.0
  0
LINE
  5
DD
330
C7
100
AcDbEntity
  8
0
  6
Continuous
 62
     0
370
     0
100
AcDbLine
 10
-123.127954
 20
152.052572
 30
0.0
 11
-124.633109
 21
152.349369
 31
0.0
  0
SPLINE
  5
DE
330
C7
100
AcDbEntity
  8
0
  6
Continuous
 62
     0
370
     0
100
AcDbSpline
210
0.0
220
0.0
230
1.0
 70
     8
 71
     3
 72
    16
 73
    12
 74
     0
 42
0.000000001
 43
0.0
 40
0.0
 40
0.0
 40
0.0
 40
0.0
 40
0.797441057574457
 40
1.595041030504316
 40
3.190093146509989
 40
6.378895936046177
 40
9.567728770520644
 40
12.75632614595556
 40
15.94462681573975
 40
19.13152948820149
 40
22.31725034989159
 40
22.31725034989159
 40
22.31725034989159
 40
22.31725034989159
 10
-125.5370025878419
 20
130.0905914562817
 30
0.0
 10
-125.5748598474479
 20
129.8605206361267
 30
0.0
 10
-125.6422510485791
 20
129.4311648006743
 30
0.0
 10
-125.7782062248093
 20
128.5614707729554
 30
0.0
 10
-125.9990277151696
 20
127.1049711653496
 30
0.0
 10
-126.2814757859005
 20
125.1637766488452
 30
0.0
 10
-126.5671357145816
 20
123.0972427859932
 30
0.0
 10
-126.8020159676498
 20
121.3262692516707
 30
0.0
 10
-126.9849137421288
 20
119.9078081677282
 30
0.0
 10
-127.1096530473556
 20
118.9245473448532
 30
0.0
 10
-127.1486506877254
 20
118.6377915407529
 30
0.0
 10
-127.1576284688745
 20
118.5987068362055
 30
0.0
  0
LINE
  5
DF
330
C7
100
AcDbEntity
  8
0
  6
Continuous
 62
     0
370
    30
100
AcDbLine
 10
-95.937002
 20
158.924724
 30
0.0
 11
-102.806802
 21
177.799115
 31
0.0
  0
ARC
  5
E0
330
C7
100
AcDbEntity
  8
0
  6
Continuous
 62
     0
370
    30
100
AcDbCircle
 10
-105.434345
 20
155.486882
 30
0.0
 40
10.10040948503794
100
AcDbArc
 50
0.100021
 51
19.899209
  0
SPLINE
  5
E1
330
C7
100
AcDbEntity
  8
0
  6
Continuous
 62
     0
370
     0
100
AcDbSpline
210
0.0
220
0.0
230
1.0
 70
     8
 71
     3
 72
    11
 73
     7
 74
     0
 42
0.000000001
 43
0.0
 40
0.0
 40
0.0
 40
0.0
 40
0.0
 40
0.5463209427519092
 40
1.092641883762446
 40
1.638962823031614
 40
2.183354679579054
 40
2.183354679579054
 40
2.183354679579054
 40
2.183354679579054
 10
-132.8209505160194
 20
99.50296490272169
 30
0.0
 10
-133.000036813567
 20
99.535995878918
 30
0.0
 10
-133.3600528657739
 20
99.60992625311019
 30
0.0
 10
-133.8268840387595
 20
99.72854237599014
 30
0.0
 10
-134.1653877805843
 20
99.84052481898945
 30
0.0
 10
-134.2777671559597
 20
99.90178476013182
 30
0.0
 10
-134.3020099128921
 20
99.92688895002655
 30
0.0
  0
LINE
  5
E2
330
C7
100
AcDbEntity
  8
0
  6
Continuous
 62
     0
370
     0
100
AcDbLine
 10
-122.465364
 20
155.644727
 30
0.0
 11
-123.974539
 21
155.920001
 31
0.0
  0
LINE
  5
E3
330
C7
100
AcDbEntity
  8
0
  6
Continuous
 62
     0
370
     0
100
AcDbLine
 10
-132.820951
 20
99.502965
 30
0.0
 11
-135.827488
 21
83.202204
 31
0.0
  0
LINE
  5
E4
330
C7
100
AcDbEntity
  8
0
  6
Continuous
 62
     0
370
     0
100
AcDbLine
 10
-120.013818
 20
152.05258
 30
0.0
 11
-121.683378
 21
152.052588
 31
0.0
  0
LINE
  5
E5
330
C7
100
AcDbEntity
  8
0
  6
Continuous
 62
     0
370
    30
100
AcDbLine
 10
-133.864983
 20
83.933148
 30
0.0
 11
-131.039965
 21
99.244247
 31
0.0
  0
LINE
  5
E6
330
C7
100
AcDbEntity
  8
0
  6
Continuous
 62
     0
370
     0
100
AcDbLine
 10
-120.003794
 20
152.018362
 30
0.0
 11
-120.013946
 21
152.052536
 31
0.0
  0
LINE
  5
E7
330
C7
100
AcDbEntity
  8
0
  6
Continuous
 62
     0
370
     0
100
AcDbLine
 10
-120.013946
 20
152.052536
 30
0.0
 11
-120.146249
 21
152.496829
 31
0.0
  0
LINE
  5
E8
330
C7
100
AcDbEntity
  8
0
  6
Continuous
 62
     0
370
     0
100
AcDbLine
 10
-120.146249
 20
152.496829
 30
0.0
 11
-121.069379
 21
155.518224
 31
0.0
  0
LINE
  5
E9
330
C7
100
AcDbEntity
  8
0
  6
Continuous
 62
     0
370
     0
100
AcDbLine
 10
-121.069379
 20
155.518224
 30
0.0
 11
-122.465364
 21
155.644727
 31
0.0
  0
LINE
  5
EA
330
C7
100
AcDbEntity
  8
0
  6
Continuous
 62
     0
370
    30
100
AcDbLine
 10
-92.310811
 20
177.905546
 30
0.0
 11
-81.109654
 21
177.905546
 31
0.0
  0
ARC
  5
EB
330
C7
100
AcDbEntity
  8
0
  6
Continuous
 62
     0
370
    30
100
AcDbCircle
 10
-80.609634
 20
185.305525
 30
0.0
 40
0.5000205010612376
100
AcDbArc
 50
90.002349
 51
179.997651
  0
LINE
  5
EC
330
C7
100
AcDbEntity
  8
0
  6
Continuous
 62
     0
370
    30
100
AcDbLine
 10
-80.609654
 20
185.805546
 30
0.0
 11
-76.609654
 21
185.805546
 31
0.0
  0
ARC
  5
ED
330
C7
100
AcDbEntity
  8
0
  6
Continuous
 62
     0
370
    30
100
AcDbCircle
 10
-76.609675
 20
185.305525
 30
0.0
 40
0.500020501319566
100
AcDbArc
 50
0.002349
 51
89.997651
  0
LINE
  5
EE
330
C7
100
AcDbEntity
  8
0
  6
Continuous
 62
     0
370
    30
100
AcDbLine
 10
-92.310811
 20
133.705546
 30
0.0
 11
-92.310811
 21
177.905546
 31
0.0
  0
LINE
  5
EF
330
C7
100
AcDbEntity
  8
0
  6
Continuous
 62
     0
370
    30
100
AcDbLine
 10
-81.109654
 20
126.305546
 30
0.0
 11
-81.109654
 21
185.305546
 31
0.0
  0
LINE
  5
F0
330
C7
100
AcDbEntity
  8
0
  6
Continuous
 62
     0
370
     0
100
AcDbLine
 10
-80.609654
 20
125.805546
 30
0.0
 11
-80.609654
 21
185.805546
 31
0.0
  0
LINE
  5
F1
330
C7
100
AcDbEntity
  8
0
  6
Continuous
 62
     0
370
     0
100
AcDbLine
 10
-76.609654
 20
125.805546
 30
0.0
 11
-76.609654
 21
185.805546
 31
0.0
  0
LINE
  5
F2
330
C7
100
AcDbEntity
  8
0
  6
Continuous
 62
     0
370
    30
100
AcDbLine
 10
-76.109654
 20
126.305546
 30
0.0
 11
-76.109654
 21
185.305546
 31
0.0
  0
ARC
  5
F3
330
C7
100
AcDbEntity
  8
0
  6
Continuous
 62
     0
370
    30
100
AcDbCircle
 10
-106.508114
 20
133.857152
 30
0.0
 40
0.25
100
AcDbArc
 50
271.5
 51
349.909546
  0
SPLINE
  5
F4
330
C7
100
AcDbEntity
  8
0
  6
Continuous
 62
     0
370
    30
100
AcDbSpline
210
0.0
220
0.0
230
1.0
 70
     8
 71
     3
 72
    14
 73
    10
 74
     0
 42
0.000000001
 43
0.0
 40
0.0
 40
0.0
 40
0.0
 40
0.0
 40
3.401008889856664
 40
6.802570927594001
 40
10.20190553123124
 40
13.59799775804897
 40
16.99340414716547
 40
20.39028810464048
 40
23.78991121549566
 40
23.78991121549566
 40
23.78991121549566
 40
23.78991121549566
 10
-127.1571523061602
 20
118.5986140447303
 30
0.0
 10
-126.9396797022214
 20
119.7112292056966
 30
0.0
 10
-126.3259276455597
 20
121.9029024130849
 30
0.0
 10
-125.0185713967612
 20
125.0508455575559
 30
0.0
 10
-123.2556036733745
 20
127.9774112270127
 30
0.0
 10
-120.9229841662691
 20
130.4893334764964
 30
0.0
 10
-118.0348615662915
 20
132.3466726638947
 30
0.0
 10
-114.7870130097995
 20
133.4395354582529
 30
0.0
 10
-112.5257444184654
 20
133.7143513428128
 30
0.0
 10
-111.3941173469038
 20
133.7741833597251
 30
0.0
  0
LINE
  5
F5
330
C7
100
AcDbEntity
  8
0
  6
Continuous
 62
     0
370
     0
100
AcDbLine
 10
-106.808359
 20
133.871547
 30
0.0
 11
-111.383855
 21
133.701166
 31
0.0
  0
SPLINE
  5
F6
330
C7
100
AcDbEntity
  8
0
  6
Continuous
 62
     0
370
     0
100
AcDbSpline
210
0.0
220
0.0
230
1.0
 70
     8
 71
     3
 72
    14
 73
    10
 74
     0
 42
0.000000001
 43
0.0
 40
0.0
 40
0.0
 40
0.0
 40
0.0
 40
4.314007735145603
 40
8.630569001405853
 40
12.9489303802004
 40
17.26830506602635
 40
21.5879308077578
 40
25.90692386251014
 40
30.2240322176519
 40
30.2240322176519
 40
30.2240322176519
 40
30.2240322176519
 10
-109.7714600014742
 20
133.9439924501409
 30
0.0
 10
-109.9004754675484
 20
134.0988742818835
 30
0.0
 10
-110.391761482917
 20
134.6896712080609
 30
0.0
 10
-111.6500829891693
 20
136.3079114407348
 30
0.0
 10
-113.2548927493185
 20
138.534163522928
 30
0.0
 10
-115.0463599505956
 20
141.2692634020531
 30
0.0
 10
-116.8860339763464
 20
144.4468152447178
 30
0.0
 10
-118.6255828902054
 20
148.0229039133295
 30
0.0
 10
-119.6039122610664
 20
150.6566847680846
 30
0.0
 10
-120.0037939270237
 20
152.0183618525966
 30
0.0
  0
SPLINE
  5
F7
330
C7
100
AcDbEntity
  8
0
  6
Continuous
 62
     0
370
    30
100
AcDbSpline
210
0.0
220
0.0
230
1.0
 70
     8
 71
     3
 72
    27
 73
    23
 74
     0
 42
0.000000001
 43
0.0
 40
0.0
 40
0.0
 40
0.0
 40
0.0
 40
0.2139230752751237
 40
0.3070084267663173
 40
0.6184110025644949
 40
0.7730647880983061
 40
0.9275952811745504
 40
1.082005948818115
 40
1.236308742900774
 40
1.294485779438213
 40
1.41080720468163
 40
1.468954500226956
 40
1.527094938140011
 40
1.585230172614811
 40
1.614296833067246
 40
1.6433628349859
 40
1.657895715161413
 40
1.672428512817131
 40
1.67969489650404
 40
1.686961269859927
 40
1.694227636325789
 40
1.703051027813466
 40
1.703051027813466
 40
1.703051027813466
 40
1.703051027813466
 10
-106.8083585419222
 20
133.8715465585668
 30
0.0
 10
-106.7637616678394
 20
133.8675615050367
 30
0.0
 10
-106.7032465061484
 20
133.8619396933227
 30
0.0
 10
-106.5921594479582
 20
133.851153923729
 30
0.0
 10
-106.504842439097
 20
133.8421660262532
 30
0.0
 10
-106.4255947916099
 20
133.83363504269
 30
0.0
 10
-106.3752898240455
 20
133.8280727411424
 30
0.0
 10
-106.3340211048239
 20
133.8234079911681
 30
0.0
 10
-106.3085215709943
 20
133.8204749253894
 30
0.0
 10
-106.2901293456121
 20
133.8183421897723
 30
0.0
 10
-106.2797109779917
 20
133.8171257666761
 30
0.0
 10
-106.2718961751043
 20
133.8162094392775
 30
0.0
 10
-106.267336105117
 20
133.8156737954611
 30
0.0
 10
-106.2646255744835
 20
133.8153536673111
 30
0.0
 10
-106.2630988274282
 20
133.815175738375
 30
0.0
 10
-106.2624380412822
 20
133.8150927802149
 30
0.0
 10
-106.262021743747
 20
133.8150540626636
 30
0.0
 10
-106.2619446607878
 20
133.8150185593923
 30
0.0
 10
-106.2616597136721
 20
133.8150391687511
 30
0.0
 10
-106.2621891684348
 20
133.8149359732795
 30
0.0
 10
-106.2598219214851
 20
133.8153230903672
 30
0.0
 10
-106.266636229002
 20
133.8141801777436
 30
0.0
 10
-106.2666362288805
 20
133.8141801777436
 30
0.0
  0
ARC
  5
F8
330
C7
100
AcDbEntity
  8
0
  6
Continuous
 62
     0
370
    30
100
AcDbCircle
 10
-108.841844
 20
111.333154
 30
0.0
 40
22.62994085665028
100
AcDbArc
 50
84.844552
 51
92.354318
  0
ARC
  5
F9
330
C7
100
AcDbEntity
  8
0
  6
Continuous
 62
     0
370
    30
100
AcDbCircle
 10
-109.33034
 20
121.894532
 30
0.0
 40
12.05758279581178
100
AcDbArc
 50
92.099835
 51
99.85528
  0
LINE
  5
FA
330
C7
100
AcDbEntity
  8
0
  6
Continuous
 62
     0
370
    30
100
AcDbLine
 10
-111.383855
 20
133.701166
 30
0.0
 11
-111.394117
 21
133.774183
 31
0.0
  0
ARC
  5
FB
330
C7
100
AcDbEntity
  8
0
  6
Continuous
 62
     0
370
    30
100
AcDbCircle
 10
-76.609675
 20
126.305566
 30
0.0
 40
0.5000205011018122
100
AcDbArc
 50
270.002349
 51
359.997651
  0
LINE
  5
FC
330
C7
100
AcDbEntity
  8
0
  6
Continuous
 62
     0
370
    30
100
AcDbLine
 10
-80.609654
 20
125.805546
 30
0.0
 11
-76.609654
 21
125.805546
 31
0.0
  0
ARC
  5
FD
330
C7
100
AcDbEntity
  8
0
  6
Continuous
 62
     0
370
    30
100
AcDbCircle
 10
-80.609634
 20
126.305566
 30
0.0
 40
0.5000204998921498
100
AcDbArc
 50
180.002349
 51
269.997651
  0
LINE
  5
FE
330
C7
100
AcDbEntity
  8
0
  6
Continuous
 62
     0
370
    30
100
AcDbLine
 10
-92.310811
 20
133.705546
 30
0.0
 11
-81.109654
 21
133.705546
 31
0.0
  0
ARC
  5
FF
330
C7
100
AcDbEntity
  8
0
  6
Continuous
 62
     0
370
    30
100
AcDbCircle
 10
-89.912305
 20
155.940193
 30
0.0
 40
20.53095440789303
100
AcDbArc
 50
254.688199
 51
263.291167
  0
ARC
  5
100
330
C7
100
AcDbEntity
  8
0
  6
Continuous
 62
     0
370
    30
100
AcDbCircle
 10
-89.920235
 20
155.706935
 30
0.0
 40
20.49423791781264
100
AcDbArc
 50
96.698588
 51
122.837023
  0
SPLINE
  5
101
330
C7
100
AcDbEntity
  8
0
  6
Continuous
 62
     0
370
    30
100
AcDbSpline
210
0.0
220
0.0
230
1.0
 70
     8
 71
     3
 72
    18
 73
    14
 74
     0
 42
0.000000001
 43
0.0
 40
0.0
 40
0.0
 40
0.0
 40
0.0
 40
0.8483284189568001
 40
2.133537335134711
 40
3.403948216524601
 40
5.817331659633081
 40
9.089981257824569
 40
10.78597267589055
 40
12.53241477044243
 40
15.23671715266029
 40
17.07314609001385
 40
18.37075704088627
 40
19.66471735573594
 40
19.66471735573594
 40
19.66471735573594
 40
19.66471735573594
 10
-126.0013900749059
 20
122.597643024368
 30
0.0
 10
-125.9037352254022
 20
122.8558922690474
 30
0.0
 10
-125.6407553603426
 20
123.5201433554887
 30
0.0
 10
-125.1807914448227
 20
124.5545884089364
 30
0.0
 10
-124.4263989080732
 20
126.0306786706026
 30
0.0
 10
-123.1927145456307
 20
127.9989838890333
 30
0.0
 10
-121.543593401308
 20
129.8454743929328
 30
0.0
 10
-119.7743722606861
 20
131.2242974328788
 30
0.0
 10
-118.0078655596694
 20
132.271052789062
 30
0.0
 10
-116.0477226327021
 20
133.0363845560567
 30
0.0
 10
-114.1490903210097
 20
133.4795710732522
 30
0.0
 10
-112.6862969644908
 20
133.6765073451812
 30
0.0
 10
-111.825381345639
 20
133.7674160105933
 30
0.0
 10
-111.3941151353606
 20
133.7741832176088
 30
0.0
  0
LINE
  5
102
330
C7
100
AcDbEntity
  8
0
  6
Continuous
 62
     0
370
    30
100
AcDbLine
 10
-127.154895
 20
118.611528
 30
0.0
 11
-127.203949
 21
118.357913
 31
0.0
  0
LINE
  5
103
330
C7
100
AcDbEntity
  8
0
  6
Continuous
 62
     0
370
    30
100
AcDbLine
 10
-133.788342
 20
84.268862
 30
0.0
 11
-133.563787
 21
85.264639
 31
0.0
  0
ARC
  5
104
330
C7
100
AcDbEntity
  8
0
  6
Continuous
 62
     0
370
    30
100
AcDbCircle
 10
-135.546699
 20
84.728291
 30
0.0
 40
1.551711482492411
100
AcDbArc
 50
178.524457
 51
259.574591
  0
ARC
  5
105
330
C7
100
AcDbEntity
  8
0
  6
Continuous
 62
     0
370
    30
100
AcDbCircle
 10
-134.904224
 20
84.158244
 30
0.0
 40
1.063379189351023
100
AcDbArc
 50
325.601795
 51
347.825977
  0
LINE
  5
106
330
C7
100
AcDbEntity
  8
0
  6
Continuous
 62
     0
370
    30
100
AcDbLine
 10
-133.788312
 20
84.268993
 30
0.0
 11
-133.563787
 21
85.264639
 31
0.0
  0
LINE
  5
107
330
C7
100
AcDbEntity
  8
0
  6
Continuous
 62
     0
370
    30
100
AcDbLine
 10
-118.665614
 20
177.802423
 30
0.0
 11
-102.807947
 21
177.802423
 31
0.0
  0
LINE
  5
108
330
C7
100
AcDbEntity
  8
0
  6
Continuous
 62
     0
370
    30
100
AcDbLine
 10
-76.106372
 20
185.305546
 30
0.0
 11
-76.106372
 21
185.805546
 31
0.0
  0
LINE
  5
109
330
C7
100
AcDbEntity
  8
0
  6
Continuous
 62
     0
370
    30
100
AcDbLine
 10
-76.106372
 20
125.805546
 30
0.0
 11
-76.106372
 21
126.305546
 31
0.0
  0
LINE
  5
10A
330
C7
100
AcDbEntity
  8
0
  6
Continuous
 62
     0
370
    30
100
AcDbLine
 10
-303.877899
 20
120.193265
 30
0.0
 11
-304.788757
 21
118.670418
 31
0.0
  0
SPLINE
  5
10B
330
C7
100
AcDbEntity
  8
0
  6
Continuous
 62
     0
370
    30
100
AcDbSpline
210
0.0
220
0.0
230
1.0
 70
     8
 71
     3
 72
     8
 73
     4
 74
     0
 42
0.000000001
 43
0.0
 40
-0.0587217815354702
 40
-0.0587217815354702
 40
-0.0587217815354702
 40
-0.0587217815354702
 40
0.5033770751751501
 40
0.5033770751751501
 40
0.5033770751751501
 40
0.5033770751751501
 10
-304.7887574963902
 20
118.6704182005048
 30
0.0
 10
-303.8785512453462
 20
115.7840951129821
 30
0.0
 10
-301.5058278987124
 20
113.2010281127692
 30
0.0
 10
-298.6198545613963
 20
111.4890007695831
 30
0.0
  0
LINE
  5
10C
330
C7
100
AcDbEntity
  8
0
  6
Continuous
 62
     0
370
    30
100
AcDbLine
 10
-288.452718
 20
111.287533
 30
0.0
 11
-303.877899
 21
120.193265
 31
0.0
  0
LINE
  5
10D
330
C7
100
AcDbEntity
  8
0
  6
Continuous
 62
     0
370
    30
100
AcDbLine
 10
-289.316113
 20
109.737283
 30
0.0
 11
-304.788757
 21
118.670418
 31
0.0
  0
LINE
  5
10E
330
C7
100
AcDbEntity
  8
0
  6
Continuous
 62
     0
370
     0
100
AcDbLine
 10
-247.052923
 20
142.805546
 30
0.0
 11
-247.052923
 21
168.805546
 31
0.0
  0
SPLINE
  5
10F
330
C7
100
AcDbEntity
  8
0
  6
Continuous
 62
     0
370
     0
100
AcDbSpline
210
0.0
220
0.0
230
1.0
 70
    12
 71
     2
 72
     8
 73
     5
 74
     0
 42
0.000000001
 43
0.0
 40
0.25
 40
0.25
 40
0.25
 40
0.5
 40
0.5
 40
0.75
 40
0.75
 40
0.75
 10
-297.2823966091407
 20
139.8055458068847
 30
0.0
 41
1.0
 10
-297.2823971773887
 20
139.8055458068847
 30
0.0
 41
0.7071067811865476
 10
-286.0240669281911
 20
133.3055458068847
 30
0.0
 41
1.0
 10
-274.7657366789933
 20
126.8055458068848
 30
0.0
 41
0.7071067811865476
 10
-274.7657361107451
 20
126.8055458068847
 30
0.0
 41
1.0
  0
LINE
  5
110
330
C7
100
AcDbEntity
  8
0
  6
Continuous
 62
     0
370
    30
100
AcDbLine
 10
-284.848041
 20
109.342481
 30
0.0
 11
-307.364702
 21
122.342481
 31
0.0
  0
LINE
  5
111
330
C7
100
AcDbEntity
  8
0
  6
Continuous
 62
     0
370
    30
100
AcDbLine
 10
-303.917939
 20
120.352492
 30
0.0
 11
-303.877899
 21
120.193265
 31
0.0
  0
LINE
  5
112
330
C7
100
AcDbEntity
  8
0
  6
Continuous
 62
     0
370
    30
100
AcDbLine
 10
-76.609127
 20
125.805546
 30
0.0
 11
-76.106372
 21
125.805546
 31
0.0
  0
LINE
  5
113
330
C7
100
AcDbEntity
  8
0
  6
Continuous
 62
     0
370
    30
100
AcDbLine
 10
-76.609651
 20
185.805546
 30
0.0
 11
-76.106372
 21
185.805546
 31
0.0
  0
LINE
  5
114
330
C7
100
AcDbEntity
  8
0
  6
Continuous
 62
     0
370
    30
100
AcDbLine
 10
-247.052923
 20
142.805546
 30
0.0
 11
-128.33458
 21
142.805546
 31
0.0
  0
LINE
  5
115
330
C7
100
AcDbEntity
  8
0
  6
Continuous
 62
     0
370
    30
100
AcDbLine
 10
-247.052923
 20
168.805546
 30
0.0
 11
-122.578072
 21
168.805546
 31
0.0
  0
LINE
  5
116
330
C7
100
AcDbEntity
  8
0
  6
Continuous
 62
     0
370
    30
100
AcDbLine
 10
-297.282397
 20
139.805546
 30
0.0
 11
-307.364702
 21
122.342481
 31
0.0
  0
LINE
  5
117
330
C7
100
AcDbEntity
  8
0
  6
Continuous
 62
     0
370
    30
100
AcDbLine
 10
-274.765736
 20
126.805546
 30
0.0
 11
-284.848041
 21
109.342481
 31
0.0
  0
ARC
  5
118
330
C7
100
AcDbEntity
  8
0
  6
Continuous
 62
     0
370
    30
100
AcDbCircle
 10
-247.052921
 20
110.805542
 30
0.0
 40
32.00000355765046
100
AcDbArc
 50
90.000004
 51
149.999996
  0
ARC
  5
119
330
C7
100
AcDbEntity
  8
0
  6
Continuous
 62
     0
370
    30
100
AcDbCircle
 10
-247.052919
 20
110.805539
 30
0.0
 40
58.00000644830043
100
AcDbArc
 50
90.000004
 51
149.999996
  0
SPLINE
  5
11A
330
C7
100
AcDbEntity
  8
0
  6
Continuous
 62
     0
370
    30
100
AcDbSpline
210
0.0
220
0.0
230
1.0
 70
     8
 71
     3
 72
     8
 73
     4
 74
     0
 42
0.000000001
 43
0.0
 40
-0.0587217815354702
 40
-0.0587217815354702
 40
-0.0587217815354702
 40
-0.0587217815354702
 40
0.5033770751751501
 40
0.5033770751751501
 40
0.5033770751751501
 40
0.5033770751751501
 10
-289.3161131907691
 20
109.737282685245
 30
0.0
 10
-292.2708454437945
 20
109.0823829234985
 30
0.0
 10
-295.6942087471086
 20
109.8456881709405
 30
0.0
 10
-298.6198545613963
 20
111.4890007695828
 30
0.0
  0
LINE
  5
11B
330
C7
100
AcDbEntity
  8
0
  6
Continuous
 62
     0
370
    30
100
AcDbLine
 10
-288.452718
 20
111.287533
 30
0.0
 11
-289.316113
 21
109.737283
 31
0.0
  0
LINE
  5
11C
330
C7
100
AcDbEntity
  8
0
  6
Continuous
 62
     0
370
    30
100
AcDbLine
 10
-288.294804
 20
111.33247
 30
0.0
 11
-288.452718
 21
111.287533
 31
0.0
  0
ENDBLK
  5
11E
330
C7
100
AcDbEntity
  8
0
100
AcDbBlockEnd
  0
BLOCK
  5
16C
330
120
100
AcDbEntity
  8
0
100
AcDbBlockBegin
  2
c
 70
     0
 10
139.630219
 20
0.000015
 30
0.0
  3
c
  1

  0
SPLINE
  5
121
330
120
100
AcDbEntity
  8
0
  6
Continuous
 62
     0
370
    30
100
AcDbSpline
210
0.0
220
0.0
230
1.0
 70
     8
 71
     3
 72
    63
 73
    59
 74
     0
 42
0.000000001
 43
0.0
 40
-14.49621089134451
 40
-14.49621089134451
 40
-14.49621089134451
 40
-14.49621089134451
 40
-14.3667804369575
 40
-14.2373499825705
 40
-14.10791952818349
 40
-13.97848907379649
 40
-13.84905861940948
 40
-13.71962816502248
 40
-13.59019771063547
 40
-13.46076725624847
 40
-13.33133680186147
 40
-13.20190634747446
 40
-13.07247589308746
 40
-12.94304543870045
 40
-12.81361498431345
 40
-12.68418452992644
 40
-12.55475407553944
 40
-12.42532362115243
 40
-12.29589316676543
 40
-12.16646271237842
 40
-12.03703225799142
 40
-11.90760180360441
 40
-11.77817134921741
 40
-11.64874089483041
 40
-11.5193104404434
 40
-11.3898799860564
 40
-11.26044953166939
 40
-11.13101907728239
 40
-11.00158862289538
 40
-10.87215816850838
 40
-10.74272771412138
 40
-10.61329725973437
 40
-10.48386680534736
 40
-10.35443635096036
 40
-10.22500589657336
 40
-10.09557544218635
 40
-9.966144987799346
 40
-9.836714533412344
 40
-9.707284079025339
 40
-9.577853624638333
 40
-9.448423170251328
 40
-9.318992715864326
 40
-9.18956226147732
 40
-9.060131807090317
 40
-8.930701352703313
 40
-8.801270898316307
 40
-8.671840443929302
 40
-8.542409989542298
 40
-8.412979535155294
 40
-8.283549080768289
 40
-8.154118626381283
 40
-8.024688171994281
 40
-7.895257717607276
 40
-7.765827263220271
 40
-7.636396808833267
 40
-7.506966354446262
 40
-7.377535900059257
 40
-7.248105445672253
 40
-7.248105445672253
 40
-7.248105445672253
 40
-7.248105445672253
 10
438.2438837425962
 20
133.4860451079459
 30
0.0
 10
438.2438837446098
 20
133.4860451077719
 30
0.0
 10
438.2414554838483
 20
133.4861086937712
 30
0.0
 10
438.2305397586547
 20
133.4863945317145
 30
0.0
 10
438.212385044319
 20
133.4868699292501
 30
0.0
 10
438.1870484622896
 20
133.4875333906015
 30
0.0
 10
438.1546097308274
 20
133.4883828282739
 30
0.0
 10
438.1151709141814
 20
133.489415569622
 30
0.0
 10
438.0688561014613
 20
133.4906283652596
 30
0.0
 10
438.0158110162015
 20
133.4920173992828
 30
0.0
 10
437.9562025578662
 20
133.4935783012768
 30
0.0
 10
437.890218276717
 20
133.4953061600663
 30
0.0
 10
437.8180657837156
 20
133.4971955391683
 30
0.0
 10
437.7399720972981
 20
133.4992404938973
 30
0.0
 10
437.6561829290936
 20
133.5014345900691
 30
0.0
 10
437.5669619108248
 20
133.5037709242453
 30
0.0
 10
437.4725897648236
 20
133.5062421454543
 30
0.0
 10
437.3733634207756
 20
133.50884047832
 30
0.0
 10
437.2695950814691
 20
133.5115577475258
 30
0.0
 10
437.1616112404913
 20
133.5143854035375
 30
0.0
 10
437.0497516549544
 20
133.5173145495031
 30
0.0
 10
436.9343682764998
 20
133.5203359692459
 30
0.0
 10
436.8158241439232
 20
133.5234401562614
 30
0.0
 10
436.6944922409234
 20
133.5266173436288
 30
0.0
 10
436.5707543225553
 20
133.5298575347414
 30
0.0
 10
436.4449997140891
 20
133.5331505347589
 30
0.0
 10
436.3176240860466
 20
133.5364859826852
 30
0.0
 10
436.1890282092795
 20
133.5398533839671
 30
0.0
 10
436.0596166939918
 20
133.5432421435142
 30
0.0
 10
435.9297967166872
 20
133.5466415990354
 30
0.0
 10
435.7999767390438
 20
133.5500410545858
 30
0.0
 10
435.6705652227397
 20
133.5534298142207
 30
0.0
 10
435.5419693442832
 20
133.5567972156486
 30
0.0
 10
435.4145937138842
 20
133.5601326637786
 30
0.0
 10
435.2888391023998
 20
133.5634256640571
 30
0.0
 10
435.1651011803624
 20
133.5666658554867
 30
0.0
 10
435.0437692730534
 20
133.5698430432266
 30
0.0
 10
434.9252251355415
 20
133.5729472306687
 30
0.0
 10
434.8098417515412
 20
133.5759686508907
 30
0.0
 10
434.6979821598661
 20
133.578897797387
 30
0.0
 10
434.5899983121744
 20
133.5817254539789
 30
0.0
 10
434.4862299656024
 20
133.5844427238126
 30
0.0
 10
434.3870036137591
 20
133.5870410573521
 30
0.0
 10
434.2926314594574
 20
133.5895122792786
 30
0.0
 10
434.203410432408
 20
133.5918486142136
 30
0.0
 10
434.1196212549721
 20
133.5940427111833
 30
0.0
 10
434.0415275589003
 20
133.5960876667467
 30
0.0
 10
433.9693750558517
 20
133.5979770467171
 30
0.0
 10
433.9033907642965
 20
133.5997049064061
 30
0.0
 10
433.8437822952255
 20
133.6012658093279
 30
0.0
 10
433.7907371989372
 20
133.6026548443043
 30
0.0
 10
433.7444223749285
 20
133.6038676409176
 30
0.0
 10
433.7049835467706
 20
133.6049003832607
 30
0.0
 10
433.6725448036077
 20
133.6057498219443
 30
0.0
 10
433.647208209728
 20
133.60641328432
 30
0.0
 10
433.6290534834284
 20
133.6068886828897
 30
0.0
 10
433.6181377461944
 20
133.6071745218736
 30
0.0
 10
433.6157094773816
 20
133.6072381085689
 30
0.0
 10
433.615709475368
 20
133.6072381087428
 30
0.0
  0
ARC
  5
122
330
120
100
AcDbEntity
  8
0
  6
Continuous
 62
     0
370
    30
100
AcDbCircle
 10
438.250428
 20
133.735959
 30
0.0
 40
0.25
100
AcDbArc
 50
268.5
 51
352.0
  0
LINE
  5
123
330
120
100
AcDbEntity
  8
0
  6
Continuous
 62
     0
370
    30
100
AcDbLine
 10
422.448089
 20
133.815009
 30
0.0
 11
433.385431
 21
133.815009
 31
0.0
  0
LINE
  5
124
330
120
100
AcDbEntity
  8
0
  6
Continuous
 62
     0
370
     0
100
AcDbLine
 10
445.779754
 20
177.802423
 30
0.0
 11
447.321961
 21
168.805546
 31
0.0
  0
LINE
  5
125
330
120
100
AcDbEntity
  8
0
  6
Continuous
 62
     0
370
     0
100
AcDbLine
 10
453.507354
 20
142.805546
 30
0.0
 11
461.416115
 21
99.926883
 31
0.0
  0
LINE
  5
126
330
120
100
AcDbEntity
  8
0
  6
Continuous
 62
     0
370
     0
100
AcDbLine
 10
461.416115
 20
99.926883
 30
0.0
 11
464.212035
 21
84.76824
 31
0.0
  0
SPLINE
  5
127
330
120
100
AcDbEntity
  8
0
  6
Continuous
 62
     0
370
    30
100
AcDbSpline
210
0.0
220
0.0
230
1.0
 70
     8
 71
     3
 72
    11
 73
     7
 74
     0
 42
0.000000001
 43
0.0
 40
85.20976460977761
 40
85.20976460977761
 40
85.20976460977761
 40
85.20976460977761
 40
87.70151606666711
 40
90.61036732582744
 40
92.06431495852438
 40
93.51784755801623
 40
93.51784755801623
 40
93.51784755801623
 40
93.51784755801623
 10
449.6922152375147
 20
168.8055458068847
 30
0.0
 10
449.4705500946393
 20
169.6059193408462
 30
0.0
 10
448.974561442064
 20
171.3359198782929
 30
0.0
 10
448.302585702786
 20
173.5180422803781
 30
0.0
 10
447.7085385091382
 20
175.3615414285093
 30
0.0
 10
447.4047244654698
 20
176.2806266687652
 30
0.0
 10
447.2528390223442
 20
176.7401036530643
 30
0.0
  0
SPLINE
  5
128
330
120
100
AcDbEntity
  8
0
  6
Continuous
 62
     0
370
    30
100
AcDbSpline
210
0.0
220
0.0
230
1.0
 70
     8
 71
     3
 72
    24
 73
    20
 74
     0
 42
0.000000001
 43
0.0
 40
0.0000895826433412
 40
0.0000895826433412
 40
0.0000895826433412
 40
0.0000895826433412
 40
1.455705552509048
 40
2.911589491459075
 40
5.824081540223966
 40
8.7385626186377
 40
11.65580985318472
 40
14.57578990660517
 40
16.0365960848436
 40
17.49778930286209
 40
20.42097080379455
 40
23.34485787360984
 40
29.19406413397097
 40
35.04490031175023
 40
40.89750583142025
 40
46.75217532136676
 40
52.60924050520428
 40
58.46889873474503
 40
58.60743527936609
 40
58.60743527936609
 40
58.60743527936609
 40
58.60743527936609
 10
464.2120347029058
 20
84.7682404821517
 30
0.0
 10
464.1990393044944
 20
85.25322789131842
 30
0.0
 10
464.1730456827981
 20
86.2232919851842
 30
0.0
 10
464.0929293798131
 20
88.16327096659808
 30
0.0
 10
463.9295332189217
 20
90.5866413263299
 30
0.0
 10
463.6223781812232
 20
93.48825445361418
 30
0.0
 10
463.2247868900049
 20
96.38338689046788
 30
0.0
 10
462.8421867536517
 20
98.79145597198637
 30
0.0
 10
462.5188617115796
 20
100.7166696447106
 30
0.0
 10
462.1932181372745
 20
102.6429502873576
 30
0.0
 10
461.7958028124617
 20
105.0538791024521
 30
0.0
 10
461.161211734563
 20
108.9128631815308
 30
0.0
 10
460.3817766146735
 20
113.7394584249597
 30
0.0
 10
459.4471237805201
 20
119.5307062404312
 30
0.0
 10
458.5032561576691
 20
125.3209394753521
 30
0.0
 10
457.5368288502782
 20
131.1088696281885
 30
0.0
 10
456.5346034381055
 20
136.8930897853737
 30
0.0
 10
455.8263137225758
 20
140.7902951950001
 30
0.0
 10
455.4572530579434
 20
142.7600526542727
 30
0.0
 10
455.4487233667938
 20
142.8055458068848
 30
0.0
  0
LINE
  5
129
330
120
100
AcDbEntity
  8
0
  6
Continuous
 62
     0
370
     0
100
AcDbLine
 10
447.252839
 20
176.740104
 30
0.0
 11
448.714758
 21
168.805546
 31
0.0
  0
SPLINE
  5
12A
330
120
100
AcDbEntity
  8
0
  6
Continuous
 62
     0
370
     0
100
AcDbSpline
210
0.0
220
0.0
230
1.0
 70
     8
 71
     7
 72
    31
 73
    23
 74
     0
 42
0.000000001
 43
0.0
 40
-0.0000000000000264
 40
-0.0000000000000264
 40
-0.0000000000000264
 40
-0.0000000000000264
 40
-0.0000000000000264
 40
-0.0000000000000264
 40
-0.0000000000000264
 40
-0.0000000000000264
 40
0.3899999999999839
 40
0.3899999999999839
 40
0.3899999999999839
 40
0.3899999999999839
 40
0.3899999999999839
 40
0.6436379999999904
 40
0.6436379999999904
 40
0.6436379999999904
 40
0.6436379999999904
 40
0.6436379999999904
 40
0.7742999999999939
 40
0.7742999999999939
 40
0.7742999999999939
 40
0.7742999999999939
 40
0.7742999999999939
 40
1.0
 40
1.0
 40
1.0
 40
1.0
 40
1.0
 40
1.0
 40
1.0
 40
1.0
 10
454.2586237411429
 20
130.277380818254
 30
0.0
 10
454.1384984509132
 20
130.2552263295847
 30
0.0
 10
454.018164057974
 20
130.2342188830989
 30
0.0
 10
453.8992403911184
 20
130.2136085586323
 30
0.0
 10
453.7786423546959
 20
130.1922316574828
 30
0.0
 10
453.6610608424244
 20
130.1706197577256
 30
0.0
 10
453.4685416705383
 20
130.1335024698216
 30
0.0
 10
453.2777093505774
 20
130.0939958373186
 30
0.0
 10
453.202461184484
 20
130.0779445844403
 30
0.0
 10
453.1286026026601
 20
130.0621371035554
 30
0.0
 10
453.0552439871553
 20
130.0459867852811
 30
0.0
 10
452.9457021763674
 20
130.0227183303653
 30
0.0
 10
452.849627322295
 20
130.0071731567275
 30
0.0
 10
452.8191930523444
 20
130.0031391165291
 30
0.0
 10
452.7915289232687
 20
130.0006142453187
 30
0.0
 10
452.7682346640158
 20
130.0002931537626
 30
0.0
 10
452.7149696430915
 20
130.0041695164975
 30
0.0
 10
452.6862437592663
 20
130.0191858680694
 30
0.0
 10
452.6752970242587
 20
130.0317340776656
 30
0.0
 10
452.6668493184216
 20
130.0453845872702
 30
0.0
 10
452.6610705614003
 20
130.0601674844355
 30
0.0
 10
452.6561976021762
 20
130.0753960499559
 30
0.0
 10
452.6512668265968
 20
130.090614073224
 30
0.0
  0
LINE
  5
12B
330
120
100
AcDbEntity
  8
0
  6
Continuous
 62
     0
370
     0
100
AcDbLine
 10
452.651267
 20
130.090614
 30
0.0
 11
450.412986
 21
142.805546
 31
0.0
  0
LINE
  5
12C
330
120
100
AcDbEntity
  8
0
  6
Continuous
 62
     0
370
     0
100
AcDbLine
 10
451.947748
 20
142.805546
 30
0.0
 11
454.258624
 21
130.277381
 31
0.0
  0
LINE
  5
12D
330
120
100
AcDbEntity
  8
0
  6
Continuous
 62
     0
370
     0
100
AcDbLine
 10
454.258624
 20
130.277381
 30
0.0
 11
459.93509
 21
99.502965
 31
0.0
  0
SPLINE
  5
12E
330
120
100
AcDbEntity
  8
0
  6
Continuous
 62
     0
370
     0
100
AcDbSpline
210
0.0
220
0.0
230
1.0
 70
     8
 71
     7
 72
    26
 73
    18
 74
     0
 42
0.000000001
 43
0.0
 40
0.0
 40
0.0
 40
0.0
 40
0.0
 40
0.0
 40
0.0
 40
0.0
 40
0.0
 40
0.4874999999999879
 40
0.4874999999999879
 40
0.4874999999999879
 40
0.4874999999999879
 40
0.4874999999999879
 40
0.7499999999999812
 40
0.7499999999999812
 40
0.7499999999999812
 40
0.7499999999999812
 40
0.7499999999999812
 40
0.9999999999999749
 40
0.9999999999999749
 40
0.9999999999999749
 40
0.9999999999999749
 40
0.9999999999999749
 40
0.9999999999999749
 40
0.9999999999999749
 40
0.9999999999999749
 10
459.9350900630843
 20
99.50296490272166
 30
0.0
 10
459.7749713736971
 20
99.47343234410336
 30
0.0
 10
459.6148707237526
 20
99.44380197087008
 30
0.0
 10
459.4549821396417
 20
99.41417284268402
 30
0.0
 10
459.2955397720689
 20
99.38468506986266
 30
0.0
 10
459.137291588358
 20
99.35562952840428
 30
0.0
 10
458.8967529817965
 20
99.31218498430029
 30
0.0
 10
458.6702557133181
 20
99.27393270826043
 30
0.0
 10
458.5933345464719
 20
99.2613967179027
 30
0.0
 10
458.5196868383341
 20
99.25000680382988
 30
0.0
 10
458.4506328351008
 20
99.24018547366533
 30
0.0
 10
458.3291700488635
 20
99.2252614256008
 30
0.0
 10
458.2396659714009
 20
99.21999729990206
 30
0.0
 10
458.2049384239267
 20
99.22003729380617
 30
0.0
 10
458.1800788399109
 20
99.22283231557702
 30
0.0
 10
458.1640624349898
 20
99.2280127284431
 30
0.0
 10
458.1557672824347
 20
99.23525248748076
 30
0.0
 10
458.1541046413367
 20
99.24424666806289
 30
0.0
  0
LINE
  5
12F
330
120
100
AcDbEntity
  8
0
  6
Continuous
 62
     0
370
     0
100
AcDbLine
 10
458.154105
 20
99.244247
 30
0.0
 11
452.651267
 21
130.090614
 31
0.0
  0
SPLINE
  5
130
330
120
100
AcDbEntity
  8
0
  6
Continuous
 62
     0
370
    30
100
AcDbSpline
210
0.0
220
0.0
230
1.0
 70
     8
 71
     3
 72
     8
 73
     4
 74
     0
 42
0.000000001
 43
0.0
 40
0.0
 40
0.0
 40
0.0
 40
0.0
 40
0.7943489614766492
 40
0.7943489614766492
 40
0.7943489614766492
 40
0.7943489614766492
 10
462.9416279693828
 20
83.20220429005204
 30
0.0
 10
462.0286081115685
 20
83.03380540997478
 30
0.0
 10
461.4295620883907
 20
83.1496217013578
 30
0.0
 10
461.1409359409753
 20
83.5574976901112
 30
0.0
  0
ARC
  5
131
330
120
100
AcDbEntity
  8
0
  6
Continuous
 62
     0
370
    30
100
AcDbCircle
 10
445.779754
 20
176.249923
 30
0.0
 40
1.552499994888696
100
AcDbArc
 50
18.405254
 51
90.0
  0
SPLINE
  5
132
330
120
100
AcDbEntity
  8
0
  6
Continuous
 62
     0
370
    30
100
AcDbSpline
210
0.0
220
0.0
230
1.0
 70
     8
 71
     3
 72
     8
 73
     4
 74
     0
 42
0.000000001
 43
0.0
 40
0.2452077231408809
 40
0.2452077231408809
 40
0.2452077231408809
 40
0.2452077231408809
 40
34.96414112467822
 40
34.96414112467822
 40
34.96414112467822
 40
34.96414112467822
 10
454.3185557181585
 20
118.3580033406423
 30
0.0
 10
456.524013956595
 20
106.9970300756505
 30
0.0
 10
458.3408486748796
 20
95.554521481646
 30
0.0
 10
460.9025474790322
 20
84.26887690818941
 30
0.0
  0
LINE
  5
133
330
120
100
AcDbEntity
  8
0
  6
Continuous
 62
     0
370
    30
100
AcDbLine
 10
422.448089
 20
133.815009
 30
0.0
 11
422.44809
 21
142.805546
 31
0.0
  0
SPLINE
  5
134
330
120
100
AcDbEntity
  8
0
  6
Continuous
 62
     0
370
     0
100
AcDbSpline
210
0.0
220
0.0
230
1.0
 70
     8
 71
     3
 72
    16
 73
    12
 74
     0
 42
0.000000001
 43
0.0
 40
0.0
 40
0.0
 40
0.0
 40
0.0
 40
0.7974410575744677
 40
1.595041030504307
 40
3.190093146509994
 40
6.378895936046185
 40
9.567728770520663
 40
12.75632614595555
 40
15.94462681573973
 40
19.1315294882015
 40
22.31725034989164
 40
22.31725034989164
 40
22.31725034989164
 40
22.31725034989164
 10
452.6511421349073
 20
130.0905914562817
 30
0.0
 10
452.6889993945133
 20
129.8605206361267
 30
0.0
 10
452.7563905956445
 20
129.4311648006743
 30
0.0
 10
452.8923457718752
 20
128.5614707729554
 30
0.0
 10
453.1131672622346
 20
127.1049711653496
 30
0.0
 10
453.3956153329664
 20
125.1637766488452
 30
0.0
 10
453.681275261647
 20
123.0972427859932
 30
0.0
 10
453.9161555147152
 20
121.3262692516707
 30
0.0
 10
454.0990532891942
 20
119.9078081677282
 30
0.0
 10
454.223792594421
 20
118.9245473448532
 30
0.0
 10
454.2627902347908
 20
118.6377915407529
 30
0.0
 10
454.2717680159403
 20
118.5987068362055
 30
0.0
  0
LINE
  5
135
330
120
100
AcDbEntity
  8
0
  6
Continuous
 62
     0
370
    30
100
AcDbLine
 10
429.920941
 20
177.799115
 30
0.0
 11
426.647537
 21
168.805546
 31
0.0
  0
LINE
  5
136
330
120
100
AcDbEntity
  8
0
  6
Continuous
 62
     0
370
     0
100
AcDbLine
 10
459.93509
 20
99.502965
 30
0.0
 11
462.941628
 21
83.202204
 31
0.0
  0
LINE
  5
137
330
120
100
AcDbEntity
  8
0
  6
Continuous
 62
     0
370
    30
100
AcDbLine
 10
460.979123
 20
83.933148
 30
0.0
 11
458.154105
 21
99.244247
 31
0.0
  0
SPLINE
  5
138
330
120
100
AcDbEntity
  8
0
  6
Continuous
 62
     0
370
     0
100
AcDbSpline
210
0.0
220
0.0
230
1.0
 70
     8
 71
     3
 72
    11
 73
     7
 74
     0
 42
0.000000001
 43
0.0
 40
0.0
 40
0.0
 40
0.0
 40
0.0
 40
0.5463209427519092
 40
1.092641883762446
 40
1.638962823031614
 40
2.183354679579053
 40
2.183354679579053
 40
2.183354679579053
 40
2.183354679579053
 10
459.9350900630848
 20
99.50296490272169
 30
0.0
 10
460.1141763606324
 20
99.535995878918
 30
0.0
 10
460.4741924128393
 20
99.60992625311019
 30
0.0
 10
460.941023585825
 20
99.72854237599016
 30
0.0
 10
461.2795273276497
 20
99.84052481898945
 30
0.0
 10
461.3919067030251
 20
99.9017847601318
 30
0.0
 10
461.416149459958
 20
99.92688895002655
 30
0.0
  0
LINE
  5
139
330
120
100
AcDbEntity
  8
0
  6
Continuous
 62
     0
370
    30
100
AcDbLine
 10
419.42495
 20
177.905546
 30
0.0
 11
408.223794
 21
177.905546
 31
0.0
  0
LINE
  5
13A
330
120
100
AcDbEntity
  8
0
  6
Continuous
 62
     0
370
    30
100
AcDbLine
 10
419.42495
 20
142.805546
 30
0.0
 11
419.42495
 21
133.705546
 31
0.0
  0
LINE
  5
13B
330
120
100
AcDbEntity
  8
0
  6
Continuous
 62
     0
370
    30
100
AcDbLine
 10
419.42495
 20
177.905546
 30
0.0
 11
419.42495
 21
168.805546
 31
0.0
  0
ARC
  5
13C
330
120
100
AcDbEntity
  8
0
  6
Continuous
 62
     0
370
    30
100
AcDbCircle
 10
433.622254
 20
133.857152
 30
0.0
 40
0.25
100
AcDbArc
 50
190.090454
 51
268.5
  0
ARC
  5
13D
330
120
100
AcDbEntity
  8
0
  6
Continuous
 62
     0
370
    30
100
AcDbCircle
 10
429.747818
 20
113.679781
 30
0.0
 40
25.01191098615745
100
AcDbArc
 50
11.34169
 51
20.888441
  0
SPLINE
  5
13E
330
120
100
AcDbEntity
  8
0
  6
Continuous
 62
     0
370
     0
100
AcDbSpline
210
0.0
220
0.0
230
1.0
 70
     8
 71
     3
 72
    52
 73
    48
 74
     0
 42
0.000000001
 43
0.0
 40
-16.06223401168096
 40
-16.06223401168096
 40
-16.06223401168096
 40
-16.06223401168096
 40
-15.91882120800524
 40
-15.77540840432951
 40
-15.63199560065379
 40
-15.48858279697806
 40
-15.34516999330234
 40
-15.20175718962662
 40
-15.0583443859509
 40
-14.91493158227517
 40
-14.77151877859945
 40
-14.62810597492373
 40
-14.484693171248
 40
-14.34128036757228
 40
-14.19786756389656
 40
-14.05445476022084
 40
-13.91104195654511
 40
-13.76762915286939
 40
-13.62421634919367
 40
-13.48080354551795
 40
-13.33739074184222
 40
-13.1939779381665
 40
-13.05056513449078
 40
-12.90715233081506
 40
-12.76373952713933
 40
-12.62032672346361
 40
-12.47691391978789
 40
-12.33350111611216
 40
-12.19008831243644
 40
-12.04667550876072
 40
-11.903262705085
 40
-11.75984990140927
 40
-11.61643709773355
 40
-11.47302429405783
 40
-11.3296114903821
 40
-11.18619868670638
 40
-11.04278588303066
 40
-10.89937307935493
 40
-10.75596027567921
 40
-10.61254747200349
 40
-10.46913466832777
 40
-10.32572186465204
 40
-10.18230906097632
 40
-10.0388962573006
 40
-9.895483453624877
 40
-9.752070649949154
 40
-9.73429361622592
 40
-9.73429361622592
 40
-9.73429361622592
 40
-9.73429361622592
 10
438.4979949965068
 20
133.7011661643653
 30
0.0
 10
438.4979949987387
 20
133.7011661641724
 30
0.0
 10
438.4953069563776
 20
133.7012662601178
 30
0.0
 10
438.4832234387254
 20
133.7017162206214
 30
0.0
 10
438.4631264861796
 20
133.7024645819683
 30
0.0
 10
438.4350793311878
 20
133.7035089895367
 30
0.0
 10
438.3991702204767
 20
133.704846157234
 30
0.0
 10
438.3555121373929
 20
133.706471877836
 30
0.0
 10
438.3042424464184
 20
133.7083810362242
 30
0.0
 10
438.245522460968
 20
133.7105676254801
 30
0.0
 10
438.179536935842
 20
133.7130247657847
 30
0.0
 10
438.1064934859128
 20
133.7157447260657
 30
0.0
 10
438.0266219328983
 20
133.7187189483217
 30
0.0
 10
437.9401735822539
 20
133.7219380745493
 30
0.0
 10
437.8474204324739
 20
133.7253919761862
 30
0.0
 10
437.7486543192817
 20
133.7290697859801
 30
0.0
 10
437.6441859974102
 20
133.7329599321808
 30
0.0
 10
437.5343441628493
 20
133.7370501749492
 30
0.0
 10
437.4194744186489
 20
133.7413276448681
 30
0.0
 10
437.2999381875202
 20
133.7457788834347
 30
0.0
 10
437.1761115746726
 20
133.7503898854057
 30
0.0
 10
437.0483841844398
 20
133.755146142863
 30
0.0
 10
436.917157894447
 20
133.760032690861
 30
0.0
 10
436.7828455911517
 20
133.7650341545118
 30
0.0
 10
436.6458698707497
 20
133.7701347973605
 30
0.0
 10
436.5066617095349
 20
133.7753185708974
 30
0.0
 10
436.3656591078839
 20
133.7805691650535
 30
0.0
 10
436.2233057121471
 20
133.7858700595167
 30
0.0
 10
436.0800494187738
 20
133.7912045757121
 30
0.0
 10
435.9363409650623
 20
133.7965559292781
 30
0.0
 10
435.7926325109752
 20
133.8019072828766
 30
0.0
 10
435.6493762164755
 20
133.8072417991693
 30
0.0
 10
435.5070228188665
 20
133.8125426937944
 30
0.0
 10
435.3660202146016
 20
133.8177932881763
 30
0.0
 10
435.2268120500407
 20
133.8229770620025
 30
0.0
 10
435.089836325571
 20
133.8280777052028
 30
0.0
 10
434.9555240174977
 20
133.8330791692665
 30
0.0
 10
434.8242977220334
 20
133.8379657177374
 30
0.0
 10
434.6965703256528
 20
133.8427219757261
 30
0.0
 10
434.5727437059977
 20
133.8473329782854
 30
0.0
 10
434.4532074674275
 20
133.8517842174953
 30
0.0
 10
434.3383377151713
 20
133.8560616881105
 30
0.0
 10
434.2284958719679
 20
133.8601519316258
 30
0.0
 10
434.1240275408936
 20
133.8640420786219
 30
0.0
 10
434.0252614179672
 20
133.8677198892572
 30
0.0
 10
433.9595935073745
 20
133.8701652028394
 30
0.0
 10
433.926170770646
 20
133.8714097844279
 30
0.0
 10
433.9225009323231
 20
133.8715464402993
 30
0.0
  0
ARC
  5
13F
330
120
100
AcDbEntity
  8
0
  6
Continuous
 62
     0
370
     0
100
AcDbCircle
 10
386.432685
 20
175.545301
 30
0.0
 40
65.39239594337396
100
AcDbArc
 50
320.492471
 51
329.955922
  0
SPLINE
  5
140
330
120
100
AcDbEntity
  8
0
  6
Continuous
 62
     0
370
    30
100
AcDbSpline
210
0.0
220
0.0
230
1.0
 70
     8
 71
     3
 72
    25
 73
    21
 74
     0
 42
0.000000001
 43
0.0
 40
0.0
 40
0.0
 40
0.0
 40
0.0
 40
0.0088485965055557
 40
0.016113685617262
 40
0.0233787816306194
 40
0.0451741311745553
 40
0.0597044570357042
 40
0.0887653504234928
 40
0.1178269011211985
 40
0.2340821321960602
 40
0.2922192033651464
 40
0.3503647153485683
 40
0.4666869690711065
 40
0.6209996164413714
 40
0.6981954610441181
 40
0.852674928896622
 40
1.009755909860094
 40
1.29846167704308
 40
1.396036435546207
 40
1.703047509472162
 40
1.703047509472162
 40
1.703047509472162
 40
1.703047509472162
 10
433.3807757759459
 20
133.8141801777436
 30
0.0
 10
433.3786484050756
 20
133.814536990606
 30
0.0
 10
433.3747743686254
 20
133.8151867626106
 30
0.0
 10
433.3761211529481
 20
133.8149708317047
 30
0.0
 10
433.3757264344631
 20
133.8150610918434
 30
0.0
 10
433.3761905281085
 20
133.8150357448627
 30
0.0
 10
433.3765393262515
 20
133.8150993456875
 30
0.0
 10
433.3772518647675
 20
133.8151736621026
 30
0.0
 10
433.3795128672919
 20
133.8154454051614
 30
0.0
 10
433.3840842540885
 20
133.8159800763821
 30
0.0
 10
433.3918942699906
 20
133.8168964218598
 30
0.0
 10
433.4014433821831
 20
133.8180123764196
 30
0.0
 10
433.4186116492174
 20
133.820009009251
 30
0.0
 10
433.4427849468457
 20
133.8227895486157
 30
0.0
 10
433.4752781418465
 20
133.8264755911397
 30
0.0
 10
433.5136948255017
 20
133.8307728431446
 30
0.0
 10
433.5846999788905
 20
133.8385227614045
 30
0.0
 10
433.6638968186476
 20
133.8468296694405
 30
0.0
 10
433.7807713637417
 20
133.8584768787447
 30
0.0
 10
433.8585188263369
 20
133.8658291906854
 30
0.0
 10
433.9225009323231
 20
133.8715464402993
 30
0.0
  0
ARC
  5
141
330
120
100
AcDbEntity
  8
0
  6
Continuous
 62
     0
370
    30
100
AcDbCircle
 10
435.955983
 20
111.333096
 30
0.0
 40
22.62999741732164
100
AcDbArc
 50
87.645689
 51
95.155428
  0
ARC
  5
142
330
120
100
AcDbEntity
  8
0
  6
Continuous
 62
     0
370
    30
100
AcDbCircle
 10
436.444472
 20
121.89442
 30
0.0
 40
12.05769372854198
100
AcDbArc
 50
80.144776
 51
87.900152
  0
LINE
  5
143
330
120
100
AcDbEntity
  8
0
  6
Continuous
 62
     0
370
    30
100
AcDbLine
 10
438.497995
 20
133.701166
 30
0.0
 11
438.508257
 21
133.774183
 31
0.0
  0
LINE
  5
144
330
120
100
AcDbEntity
  8
0
  6
Continuous
 62
     0
370
    30
100
AcDbLine
 10
419.42495
 20
133.705546
 30
0.0
 11
408.223794
 21
133.705546
 31
0.0
  0
ARC
  5
145
330
120
100
AcDbEntity
  8
0
  6
Continuous
 62
     0
370
    30
100
AcDbCircle
 10
417.026445
 20
155.940193
 30
0.0
 40
20.53095440537653
100
AcDbArc
 50
276.708833
 51
285.311801
  0
ARC
  5
146
330
120
100
AcDbEntity
  8
0
  6
Continuous
 62
     0
370
    30
100
AcDbCircle
 10
417.034374
 20
155.706935
 30
0.0
 40
20.49423791778698
100
AcDbArc
 50
57.162977
 51
83.301412
  0
LINE
  5
147
330
120
100
AcDbEntity
  8
0
  6
Continuous
 62
     0
370
    30
100
AcDbLine
 10
460.902481
 20
84.268862
 30
0.0
 11
460.677927
 21
85.264639
 31
0.0
  0
SPLINE
  5
148
330
120
100
AcDbEntity
  8
0
  6
Continuous
 62
     0
370
    30
100
AcDbSpline
210
0.0
220
0.0
230
1.0
 70
     8
 71
     3
 72
    18
 73
    14
 74
     0
 42
0.000000001
 43
0.0
 40
0.0
 40
0.0
 40
0.0
 40
0.0
 40
0.8483284189568006
 40
2.133537335134553
 40
3.403948216524095
 40
5.817331659632858
 40
9.089981257824086
 40
10.78597267589008
 40
12.53241477044238
 40
15.23671715265986
 40
17.07314609001342
 40
18.37075704095216
 40
19.66471735586682
 40
19.66471735586682
 40
19.66471735586682
 40
19.66471735586682
 10
453.1155296219717
 20
122.597643024368
 30
0.0
 10
453.0178747724676
 20
122.8558922690474
 30
0.0
 10
452.754894907408
 20
123.5201433554886
 30
0.0
 10
452.2949309918886
 20
124.5545884089361
 30
0.0
 10
451.5405384551382
 20
126.0306786706026
 30
0.0
 10
450.3068540926956
 20
127.9989838890326
 30
0.0
 10
448.6577329483739
 20
129.8454743929326
 30
0.0
 10
446.8885118077524
 20
131.2242974328788
 30
0.0
 10
445.1220051067362
 20
132.2710527890615
 30
0.0
 10
443.1618621797675
 20
133.0363845560569
 30
0.0
 10
441.2632298680542
 20
133.4795710732566
 30
0.0
 10
439.8004365114912
 20
133.6765073451904
 30
0.0
 10
438.9395208925957
 20
133.7674160105998
 30
0.0
 10
438.5082546822955
 20
133.7741832176156
 30
0.0
  0
LINE
  5
149
330
120
100
AcDbEntity
  8
0
  6
Continuous
 62
     0
370
    30
100
AcDbLine
 10
454.269035
 20
118.611528
 30
0.0
 11
454.318089
 21
118.357913
 31
0.0
  0
LINE
  5
14A
330
120
100
AcDbEntity
  8
0
  6
Continuous
 62
     0
370
    30
100
AcDbLine
 10
460.902451
 20
84.268993
 30
0.0
 11
460.677927
 21
85.264639
 31
0.0
  0
ARC
  5
14B
330
120
100
AcDbEntity
  8
0
  6
Continuous
 62
     0
370
    30
100
AcDbCircle
 10
462.660839
 20
84.728291
 30
0.0
 40
1.551711482575448
100
AcDbArc
 50
280.425409
 51
1.475543
  0
ARC
  5
14C
330
120
100
AcDbEntity
  8
0
  6
Continuous
 62
     0
370
    30
100
AcDbCircle
 10
462.018363
 20
84.158244
 30
0.0
 40
1.063379176187921
100
AcDbArc
 50
192.174022
 51
214.398205
  0
LINE
  5
14D
330
120
100
AcDbEntity
  8
0
  6
Continuous
 62
     0
370
    30
100
AcDbLine
 10
445.779754
 20
177.802423
 30
0.0
 11
429.922087
 21
177.802423
 31
0.0
  0
LINE
  5
14E
330
120
100
AcDbEntity
  8
0
  6
Continuous
 62
     0
370
    30
100
AcDbLine
 10
403.220518
 20
185.805546
 30
0.0
 11
403.220518
 21
149.474992
 31
0.0
  0
LINE
  5
14F
330
120
100
AcDbEntity
  8
0
  6
Continuous
 62
     0
370
    30
100
AcDbLine
 10
403.220518
 20
149.474992
 30
0.0
 11
403.220518
 21
125.805546
 31
0.0
  0
LINE
  5
150
330
120
100
AcDbEntity
  8
0
  6
Continuous
 62
     0
370
    30
100
AcDbLine
 10
408.220518
 20
185.305546
 30
0.0
 11
408.220518
 21
149.580501
 31
0.0
  0
LINE
  5
151
330
120
100
AcDbEntity
  8
0
  6
Continuous
 62
     0
370
    30
100
AcDbLine
 10
408.220518
 20
149.580501
 30
0.0
 11
408.220518
 21
126.305546
 31
0.0
  0
LINE
  5
152
330
120
100
AcDbEntity
  8
0
  6
Continuous
 62
     0
370
     0
100
AcDbLine
 10
407.720518
 20
185.805546
 30
0.0
 11
407.720518
 21
149.474992
 31
0.0
  0
LINE
  5
153
330
120
100
AcDbEntity
  8
0
  6
Continuous
 62
     0
370
     0
100
AcDbLine
 10
407.720518
 20
149.474992
 30
0.0
 11
407.720518
 21
125.805546
 31
0.0
  0
LINE
  5
154
330
120
100
AcDbEntity
  8
0
  6
Continuous
 62
     0
370
    30
100
AcDbLine
 10
630.992046
 20
120.193265
 30
0.0
 11
631.902904
 21
118.670418
 31
0.0
  0
SPLINE
  5
155
330
120
100
AcDbEntity
  8
0
  6
Continuous
 62
     0
370
    30
100
AcDbSpline
210
0.0
220
0.0
230
1.0
 70
     8
 71
     3
 72
     8
 73
     4
 74
     0
 42
0.000000001
 43
0.0
 40
-0.0587217815354702
 40
-0.0587217815354702
 40
-0.0587217815354702
 40
-0.0587217815354702
 40
0.5033770751751501
 40
0.5033770751751501
 40
0.5033770751751501
 40
0.5033770751751501
 10
631.9029040370328
 20
118.6704182005048
 30
0.0
 10
630.9926977859889
 20
115.7840951129821
 30
0.0
 10
628.619974439355
 20
113.2010281127692
 30
0.0
 10
625.734001102039
 20
111.4890007695831
 30
0.0
  0
LINE
  5
156
330
120
100
AcDbEntity
  8
0
  6
Continuous
 62
     0
370
    30
100
AcDbLine
 10
630.992046
 20
120.193265
 30
0.0
 11
615.566864
 21
111.287533
 31
0.0
  0
LINE
  5
157
330
120
100
AcDbEntity
  8
0
  6
Continuous
 62
     0
370
    30
100
AcDbLine
 10
631.902904
 20
118.670418
 30
0.0
 11
616.43026
 21
109.737283
 31
0.0
  0
LINE
  5
158
330
120
100
AcDbEntity
  8
0
  6
Continuous
 62
     0
370
     0
100
AcDbLine
 10
574.16707
 20
168.805546
 30
0.0
 11
574.16707
 21
155.805546
 31
0.0
  0
LINE
  5
159
330
120
100
AcDbEntity
  8
0
  6
Continuous
 62
     0
370
     0
100
AcDbLine
 10
574.16707
 20
155.805546
 30
0.0
 11
574.16707
 21
142.805546
 31
0.0
  0
LINE
  5
15A
330
120
100
AcDbEntity
  8
0
  6
Continuous
 62
     0
370
     0
100
AcDbLine
 10
601.879883
 20
126.805546
 30
0.0
 11
613.138213
 21
133.305546
 31
0.0
  0
LINE
  5
15B
330
120
100
AcDbEntity
  8
0
  6
Continuous
 62
     0
370
     0
100
AcDbLine
 10
613.138213
 20
133.305546
 30
0.0
 11
624.396543
 21
139.805546
 31
0.0
  0
SPLINE
  5
15C
330
120
100
AcDbEntity
  8
0
  6
Continuous
 62
     0
370
    30
100
AcDbSpline
210
0.0
220
0.0
230
1.0
 70
    12
 71
     2
 72
     6
 73
     3
 74
     0
 42
0.000000001
 43
0.0
 40
0.75
 40
0.75
 40
0.75
 40
1.0
 40
1.0
 40
1.0
 10
634.4788483437394
 20
122.342480953537
 30
0.0
 41
1.0
 10
634.4788489119874
 20
122.342480953537
 30
0.0
 41
0.7071067811865476
 10
623.2205186627898
 20
115.842480953537
 30
0.0
 41
1.0
  0
LINE
  5
15D
330
120
100
AcDbEntity
  8
0
  6
Continuous
 62
     0
370
    30
100
AcDbLine
 10
623.220519
 20
115.842481
 30
0.0
 11
611.962188
 21
109.342481
 31
0.0
  0
LINE
  5
15E
330
120
100
AcDbEntity
  8
0
  6
Continuous
 62
     0
370
    30
100
AcDbLine
 10
631.032086
 20
120.352492
 30
0.0
 11
630.992046
 21
120.193265
 31
0.0
  0
ARC
  5
15F
330
120
100
AcDbEntity
  8
0
  6
Continuous
 62
     0
370
    30
100
AcDbCircle
 10
407.720518
 20
126.305546
 30
0.0
 40
0.5000000000000036
100
AcDbArc
 50
270.0
 51
360.0
  0
ARC
  5
160
330
120
100
AcDbEntity
  8
0
  6
Continuous
 62
     0
370
    30
100
AcDbCircle
 10
407.720518
 20
185.305546
 30
0.0
 40
0.5
100
AcDbArc
 50
0.0
 51
90.0
  0
LINE
  5
161
330
120
100
AcDbEntity
  8
0
  6
Continuous
 62
     0
370
    30
100
AcDbLine
 10
407.720518
 20
125.805546
 30
0.0
 11
403.220518
 21
125.805546
 31
0.0
  0
LINE
  5
162
330
120
100
AcDbEntity
  8
0
  6
Continuous
 62
     0
370
    30
100
AcDbLine
 10
407.720518
 20
185.805546
 30
0.0
 11
403.220518
 21
185.805546
 31
0.0
  0
LINE
  5
163
330
120
100
AcDbEntity
  8
0
  6
Continuous
 62
     0
370
    30
100
AcDbLine
 10
574.16707
 20
142.805546
 30
0.0
 11
408.220518
 21
142.805546
 31
0.0
  0
LINE
  5
164
330
120
100
AcDbEntity
  8
0
  6
Continuous
 62
     0
370
    30
100
AcDbLine
 10
574.16707
 20
168.805546
 30
0.0
 11
408.220518
 21
168.805546
 31
0.0
  0
LINE
  5
165
330
120
100
AcDbEntity
  8
0
  6
Continuous
 62
     0
370
    30
100
AcDbLine
 10
624.396543
 20
139.805546
 30
0.0
 11
634.478848
 21
122.342481
 31
0.0
  0
LINE
  5
166
330
120
100
AcDbEntity
  8
0
  6
Continuous
 62
     0
370
    30
100
AcDbLine
 10
601.879883
 20
126.805546
 30
0.0
 11
611.962188
 21
109.342481
 31
0.0
  0
ARC
  5
167
330
120
100
AcDbEntity
  8
0
  6
Continuous
 62
     0
370
    30
100
AcDbCircle
 10
574.167068
 20
110.805542
 30
0.0
 40
32.00000355769228
100
AcDbArc
 50
30.000004
 51
89.999996
  0
ARC
  5
168
330
120
100
AcDbEntity
  8
0
  6
Continuous
 62
     0
370
    30
100
AcDbCircle
 10
574.167066
 20
110.805539
 30
0.0
 40
58.00000644831122
100
AcDbArc
 50
30.000004
 51
89.999996
  0
SPLINE
  5
169
330
120
100
AcDbEntity
  8
0
  6
Continuous
 62
     0
370
    30
100
AcDbSpline
210
0.0
220
0.0
230
1.0
 70
     8
 71
     3
 72
     8
 73
     4
 74
     0
 42
0.000000001
 43
0.0
 40
-0.0587217815354702
 40
-0.0587217815354702
 40
-0.0587217815354702
 40
-0.0587217815354702
 40
0.5033770751751501
 40
0.5033770751751501
 40
0.5033770751751501
 40
0.5033770751751501
 10
616.4302597314115
 20
109.737282685245
 30
0.0
 10
619.3849919844372
 20
109.0823829234985
 30
0.0
 10
622.8083552877513
 20
109.8456881709405
 30
0.0
 10
625.734001102039
 20
111.4890007695828
 30
0.0
  0
LINE
  5
16A
330
120
100
AcDbEntity
  8
0
  6
Continuous
 62
     0
370
    30
100
AcDbLine
 10
615.566864
 20
111.287533
 30
0.0
 11
616.43026
 21
109.737283
 31
0.0
  0
LINE
  5
16B
330
120
100
AcDbEntity
  8
0
  6
Continuous
 62
     0
370
    30
100
AcDbLine
 10
615.408951
 20
111.33247
 30
0.0
 11
615.566864
 21
111.287533
 31
0.0
  0
ENDBLK
  5
16D
330
120
100
AcDbEntity
  8
0
100
AcDbBlockEnd
  0
BLOCK
  5
1BC
330
16F
100
AcDbEntity
  8
0
100
AcDbBlockBegin
  2
d
 70
     0
 10
0.0
 20
-38.058929
 30
0.0
  3
d
  1

  0
SPLINE
  5
170
330
16F
100
AcDbEntity
  8
0
  6
Continuous
 62
     0
370
     0
100
AcDbSpline
210
0.0
220
0.0
230
1.0
 70
     8
 71
     3
 72
    14
 73
    10
 74
     0
 42
0.000000001
 43
0.0
 40
0.0
 40
0.0
 40
0.0
 40
0.0
 40
4.985091455020042
 40
9.970147469987424
 40
14.95499429598457
 40
19.93965986576175
 40
24.92412306109084
 40
29.90843907769889
 40
34.89265281904023
 40
34.89265281904023
 40
34.89265281904023
 40
34.89265281904023
 10
240.0023177609353
 20
-107.3635604102178
 30
0.0
 10
240.0145195683297
 20
-107.075115751144
 30
0.0
 10
239.6703783496482
 20
-106.5204291130331
 30
0.0
 10
238.0706931482287
 20
-105.7120555474653
 30
0.0
 10
235.4595931981818
 20
-104.9872757149574
 30
0.0
 10
231.9584746541643
 20
-104.3775682372225
 30
0.0
 10
227.7354573181024
 20
-103.9165057417449
 30
0.0
 10
223.0060999688878
 20
-103.6289538526394
 30
0.0
 10
219.6706262744376
 20
-103.5638123730291
 30
0.0
 10
218.0092216939905
 20
-103.5638123730291
 30
0.0
  0
SPLINE
  5
171
330
16F
100
AcDbEntity
  8
0
  6
Continuous
 62
     0
370
     0
100
AcDbSpline
210
0.0
220
0.0
230
1.0
 70
     8
 71
     3
 72
    14
 73
    10
 74
     0
 42
0.000000001
 43
0.0
 40
0.0
 40
0.0
 40
0.0
 40
0.0
 40
4.984213741341138
 40
9.96852975794907
 40
14.95299295327749
 40
19.93765852305448
 40
24.92250534905095
 40
29.9075613640182
 40
34.89265281903796
 40
34.89265281903796
 40
34.89265281903796
 40
34.89265281903796
 10
218.0092216939904
 20
-103.5638123730291
 30
0.0
 10
216.3478171135433
 20
-103.5638123730291
 30
0.0
 10
213.0123434190934
 20
-103.6289538526421
 30
0.0
 10
208.2829860698783
 20
-103.9165057417363
 30
0.0
 10
204.0599687338186
 20
-104.3775682372407
 30
0.0
 10
200.558850189801
 20
-104.9872757149756
 30
0.0
 10
197.947750239752
 20
-105.7120555474571
 30
0.0
 10
196.3480650383331
 20
-106.5204291130349
 30
0.0
 10
196.0039238196512
 20
-107.075115751144
 30
0.0
 10
196.0161256270455
 20
-107.3635604102178
 30
0.0
  0
SPLINE
  5
172
330
16F
100
AcDbEntity
  8
0
  6
Continuous
 62
     0
370
     0
100
AcDbSpline
210
0.0
220
0.0
230
1.0
 70
     8
 71
     3
 72
     8
 73
     4
 74
     0
 42
0.000000001
 43
0.0
 40
0.0
 40
0.0
 40
0.0
 40
0.0
 40
3.653222443064019
 40
3.653222443064019
 40
3.653222443064019
 40
3.653222443064019
 10
197.3258021275921
 20
-108.8727890795071
 30
0.0
 10
197.3372901799873
 20
-109.0899283981566
 30
0.0
 10
197.5938424318929
 20
-109.3125618230242
 30
0.0
 10
197.7294559881463
 20
-109.5311046317643
 30
0.0
  0
LINE
  5
173
330
16F
100
AcDbEntity
  8
0
  6
Continuous
 62
     0
370
     0
100
AcDbLine
 10
197.729456
 20
-109.531105
 30
0.0
 11
203.655105
 21
-119.20017
 31
0.0
  0
SPLINE
  5
174
330
16F
100
AcDbEntity
  8
0
  6
Continuous
 62
     0
370
     0
100
AcDbSpline
210
0.0
220
0.0
230
1.0
 70
     8
 71
     3
 72
    14
 73
    10
 74
     0
 42
0.000000001
 43
0.0
 40
0.0
 40
0.0
 40
0.0
 40
0.0
 40
3.357648776851581
 40
6.714049718875667
 40
10.06778576981573
 40
13.41760088284698
 40
16.76445100049494
 40
20.11421126265042
 40
23.46800661548595
 40
23.46800661548595
 40
23.46800661548595
 40
23.46800661548595
 10
203.6551053451179
 20
-119.200169648338
 30
0.0
 10
203.7818293879897
 20
-119.4010037656649
 30
0.0
 10
204.1363333216484
 20
-119.8038050131504
 30
0.0
 10
205.0632826023704
 20
-120.3903696285697
 30
0.0
 10
206.5122041630055
 20
-120.9435314815355
 30
0.0
 10
208.6221302098877
 20
-121.4241612260957
 30
0.0
 10
211.4215075259269
 20
-121.774967143399
 30
0.0
 10
214.6485239577945
 20
-121.9624485836443
 30
0.0
 10
216.8912899097121
 20
-121.9960887377656
 30
0.0
 10
218.0092216939904
 20
-121.9960889785179
 30
0.0
  0
LINE
  5
175
330
16F
100
AcDbEntity
  8
0
  6
Continuous
 62
     0
370
     0
100
AcDbLine
 10
218.009222
 20
-121.996089
 30
0.0
 11
218.009222
 21
-105.036897
 31
0.0
  0
SPLINE
  5
176
330
16F
100
AcDbEntity
  8
0
  6
Continuous
 62
     0
370
     0
100
AcDbSpline
210
0.0
220
0.0
230
1.0
 70
     8
 71
     3
 72
    14
 73
    10
 74
     0
 42
0.000000001
 43
0.0
 40
0.0
 40
0.0
 40
0.0
 40
0.0
 40
4.690236058045249
 40
9.379816625478325
 40
14.07059875641934
 40
18.76087985972481
 40
23.45161344182406
 40
28.14254872603605
 40
32.83347914028535
 40
32.83347914028535
 40
32.83347914028535
 40
32.83347914028535
 10
218.0092216940761
 20
-105.0368973181749
 30
0.0
 10
216.4458096747279
 20
-105.0368966714773
 30
0.0
 10
213.3072573248535
 20
-105.102705870479
 30
0.0
 10
208.8583448820757
 20
-105.3938751530181
 30
0.0
 10
204.88745392739
 20
-105.8598675840108
 30
0.0
 10
201.5973624444232
 20
-106.475575772175
 30
0.0
 10
199.1433398502039
 20
-107.2089780398178
 30
0.0
 10
197.6422577808101
 20
-108.0183328586545
 30
0.0
 10
197.3110508620381
 20
-108.593970734918
 30
0.0
 10
197.3258021275915
 20
-108.8727890795053
 30
0.0
  0
SPLINE
  5
177
330
16F
100
AcDbEntity
  8
0
  6
Continuous
 62
     0
370
     0
100
AcDbSpline
210
0.0
220
0.0
230
1.0
 70
     8
 71
     3
 72
     8
 73
     4
 74
     0
 42
0.000000001
 43
0.0
 40
0.0
 40
0.0
 40
0.0
 40
0.0
 40
3.653222443064009
 40
3.653222443064009
 40
3.653222443064009
 40
3.653222443064009
 10
238.6926412603886
 20
-108.8727890795071
 30
0.0
 10
238.6811532081171
 20
-109.0899283981375
 30
0.0
 10
238.4246009559761
 20
-109.3125618230397
 30
0.0
 10
238.2889873998346
 20
-109.5311046317647
 30
0.0
  0
LINE
  5
178
330
16F
100
AcDbEntity
  8
0
  6
Continuous
 62
     0
370
     0
100
AcDbLine
 10
238.288987
 20
-109.531105
 30
0.0
 11
232.363338
 21
-119.20017
 31
0.0
  0
SPLINE
  5
179
330
16F
100
AcDbEntity
  8
0
  6
Continuous
 62
     0
370
     0
100
AcDbSpline
210
0.0
220
0.0
230
1.0
 70
     8
 71
     3
 72
    14
 73
    10
 74
     0
 42
0.000000001
 43
0.0
 40
0.0
 40
0.0
 40
0.0
 40
0.0
 40
3.357648776850946
 40
6.714049718873458
 40
10.06778576981201
 40
13.41760088284155
 40
16.76445100048876
 40
20.114211262641
 40
23.4680066154798
 40
23.4680066154798
 40
23.4680066154798
 40
23.4680066154798
 10
232.363338042863
 20
-119.2001696483389
 30
0.0
 10
232.2366139999667
 20
-119.4010037656685
 30
0.0
 10
231.8821100663253
 20
-119.8038050131468
 30
0.0
 10
230.9551607856238
 20
-120.390369628567
 30
0.0
 10
229.5062392249742
 20
-120.9435314815446
 30
0.0
 10
227.3963131780985
 20
-121.4241612260762
 30
0.0
 10
224.5969358620617
 20
-121.774967143449
 30
0.0
 10
221.369919430181
 20
-121.9624485835416
 30
0.0
 10
219.1271534782697
 20
-121.996088737264
 30
0.0
 10
218.0092216939904
 20
-121.9960889785179
 30
0.0
  0
SPLINE
  5
17A
330
16F
100
AcDbEntity
  8
0
  6
Continuous
 62
     0
370
     0
100
AcDbSpline
210
0.0
220
0.0
230
1.0
 70
     8
 71
     3
 72
    14
 73
    10
 74
     0
 42
0.000000001
 43
0.0
 40
0.0
 40
0.0
 40
0.0
 40
0.0
 40
4.69023605813218
 40
9.379816625518114
 40
14.0705987563707
 40
18.76087985973196
 40
23.45161344181452
 40
28.14254872602785
 40
32.83347914028615
 40
32.83347914028615
 40
32.83347914028615
 40
32.83347914028615
 10
218.0092216939045
 20
-105.0368973181749
 30
0.0
 10
219.5726337132818
 20
-105.0368966714777
 30
0.0
 10
222.7111860631692
 20
-105.1027058704726
 30
0.0
 10
227.1600985059432
 20
-105.3938751530068
 30
0.0
 10
231.1309894605337
 20
-105.8598675840331
 30
0.0
 10
234.4210809435841
 20
-106.4755757721605
 30
0.0
 10
236.8751035377391
 20
-107.2089780398242
 30
0.0
 10
238.3761856072441
 20
-108.0183328586413
 30
0.0
 10
238.7073925257837
 20
-108.5939707349416
 30
0.0
 10
238.6926412603892
 20
-108.8727890795053
 30
0.0
  0
LINE
  5
17B
330
16F
100
AcDbEntity
  8
0
  6
Continuous
 62
     0
370
     0
100
AcDbLine
 10
218.009222
 20
-105.036897
 30
0.0
 11
218.009222
 21
-103.563812
 31
0.0
  0
ARC
  5
17C
330
16F
100
AcDbEntity
  8
0
  6
Continuous
 62
     0
370
     0
100
AcDbCircle
 10
197.959776
 20
-108.002556
 30
0.0
 40
1.546005950167286
100
AcDbArc
 50
211.619607
 51
261.431127
  0
ARC
  5
17D
330
16F
100
AcDbEntity
  8
0
  6
Continuous
 62
     0
370
     0
100
AcDbCircle
 10
238.058668
 20
-108.002556
 30
0.0
 40
1.546005948965834
100
AcDbArc
 50
278.568873
 51
328.380393
  0
SPLINE
  5
17E
330
16F
100
AcDbEntity
  8
0
  6
Continuous
 62
     0
370
    30
100
AcDbSpline
210
0.0
220
0.0
230
1.0
 70
     8
 71
     3
 72
    14
 73
    10
 74
     0
 42
0.000000001
 43
0.0
 40
0.0
 40
0.0
 40
0.0
 40
0.0
 40
9.184421489724677
 40
18.36176712170833
 40
27.52966411077037
 40
36.69288242013261
 40
45.86078162553695
 40
55.03810821226261
 40
64.22267964007013
 40
64.22267964007013
 40
64.22267964007013
 40
64.22267964007013
 10
239.7810764915429
 20
-80.83519833825221
 30
0.0
 10
239.3730121795867
 20
-81.87291054271054
 30
0.0
 10
237.4049478390934
 20
-83.91604130363885
 30
0.0
 10
231.288288951098
 20
-86.3657076569084
 30
0.0
 10
222.7500939135921
 20
-87.76327603254049
 30
0.0
 10
213.2683667155424
 20
-87.76303784501306
 30
0.0
 10
204.7300658987096
 20
-86.36643444344918
 30
0.0
 10
198.6133476720948
 20
-83.91724193999244
 30
0.0
 10
196.6454367278714
 20
-81.87294434555588
 30
0.0
 10
196.2373666185491
 20
-80.8352032476273
 30
0.0
  0
ARC
  5
17F
330
16F
100
AcDbEntity
  8
0
  6
Continuous
 62
     0
370
    30
100
AcDbCircle
 10
236.133544
 20
-79.164494
 30
0.0
 40
4.011950085601605
100
AcDbArc
 50
335.390469
 51
344.566594
  0
ARC
  5
180
330
16F
100
AcDbEntity
  8
0
  6
Continuous
 62
     0
370
    30
100
AcDbCircle
 10
199.8848
 20
-79.164545
 30
0.0
 40
4.011840968100932
100
AcDbArc
 50
195.433075
 51
204.609516
  0
ARC
  5
181
330
16F
100
AcDbEntity
  8
0
  6
Continuous
 62
     0
370
     0
100
AcDbCircle
 10
232.166315
 20
-117.710626
 30
0.0
 40
1.502551960362047
100
AcDbArc
 50
277.534837
 51
327.721084
  0
ARC
  5
182
330
16F
100
AcDbEntity
  8
0
  6
Continuous
 62
     0
370
     0
100
AcDbCircle
 10
238.466702
 20
-107.353799
 30
0.0
 40
1.535646350219662
100
AcDbArc
 50
278.460284
 51
359.635809
  0
ARC
  5
183
330
16F
100
AcDbEntity
  8
0
  6
Continuous
 62
     0
370
     0
100
AcDbCircle
 10
203.852128
 20
-117.710626
 30
0.0
 40
1.502551962776492
100
AcDbArc
 50
212.278916
 51
262.465163
  0
ARC
  5
184
330
16F
100
AcDbEntity
  8
0
  6
Continuous
 62
     0
370
     0
100
AcDbCircle
 10
197.551741
 20
-107.353799
 30
0.0
 40
1.535646350622599
100
AcDbArc
 50
180.364191
 51
261.539716
  0
LINE
  5
185
330
16F
100
AcDbEntity
  8
0
  6
Continuous
 62
     0
370
    30
100
AcDbLine
 10
240.112025
 20
-77.209008
 30
0.0
 11
218.012025
 21
-77.209008
 31
0.0
  0
LINE
  5
186
330
16F
100
AcDbEntity
  8
0
  6
Continuous
 62
     0
370
    30
100
AcDbLine
 10
218.012025
 20
-77.209008
 30
0.0
 11
195.912025
 21
-77.209008
 31
0.0
  0
LINE
  5
187
330
16F
100
AcDbEntity
  8
0
  6
Continuous
 62
     0
370
    30
100
AcDbLine
 10
247.512025
 20
-66.007851
 30
0.0
 11
218.012025
 21
-66.007851
 31
0.0
  0
LINE
  5
188
330
16F
100
AcDbEntity
  8
0
  6
Continuous
 62
     0
370
    30
100
AcDbLine
 10
218.012025
 20
-66.007851
 30
0.0
 11
188.512025
 21
-66.007851
 31
0.0
  0
LINE
  5
189
330
16F
100
AcDbEntity
  8
0
  6
Continuous
 62
     0
370
     0
100
AcDbLine
 10
248.012025
 20
-65.507851
 30
0.0
 11
218.012025
 21
-65.507851
 31
0.0
  0
LINE
  5
18A
330
16F
100
AcDbEntity
  8
0
  6
Continuous
 62
     0
370
     0
100
AcDbLine
 10
218.012025
 20
-65.507851
 30
0.0
 11
188.012025
 21
-65.507851
 31
0.0
  0
LINE
  5
18B
330
16F
100
AcDbEntity
  8
0
  6
Continuous
 62
     0
370
     0
100
AcDbLine
 10
248.012025
 20
-61.507851
 30
0.0
 11
218.012025
 21
-61.507851
 31
0.0
  0
LINE
  5
18C
330
16F
100
AcDbEntity
  8
0
  6
Continuous
 62
     0
370
     0
100
AcDbLine
 10
218.012025
 20
-61.507851
 30
0.0
 11
188.012025
 21
-61.507851
 31
0.0
  0
LINE
  5
18D
330
16F
100
AcDbEntity
  8
0
  6
Continuous
 62
     0
370
    30
100
AcDbLine
 10
247.512025
 20
-61.007851
 30
0.0
 11
218.012025
 21
-61.007851
 31
0.0
  0
LINE
  5
18E
330
16F
100
AcDbEntity
  8
0
  6
Continuous
 62
     0
370
    30
100
AcDbLine
 10
218.012025
 20
-61.007851
 30
0.0
 11
188.512025
 21
-61.007851
 31
0.0
  0
LINE
  5
18F
330
16F
100
AcDbEntity
  8
0
  6
Continuous
 62
     0
370
     0
100
AcDbLine
 10
196.237367
 20
-80.835203
 30
0.0
 11
198.770847
 21
-80.835203
 31
0.0
  0
LINE
  5
190
330
16F
100
AcDbEntity
  8
0
  6
Continuous
 62
     0
370
     0
100
AcDbLine
 10
237.253205
 20
-80.835199
 30
0.0
 11
239.781076
 21
-80.835198
 31
0.0
  0
LINE
  5
191
330
16F
100
AcDbEntity
  8
0
  6
Continuous
 62
     0
370
    30
100
AcDbLine
 10
240.000825
 20
-80.232147
 30
0.0
 11
237.677242
 21
-80.232147
 31
0.0
  0
LINE
  5
192
330
16F
100
AcDbEntity
  8
0
  6
Continuous
 62
     0
370
    30
100
AcDbLine
 10
198.346809
 20
-80.232147
 30
0.0
 11
196.017618
 21
-80.232147
 31
0.0
  0
ARC
  5
193
330
16F
100
AcDbEntity
  8
0
  6
Continuous
 62
     0
370
    30
100
AcDbCircle
 10
218.116202
 20
-74.816431
 30
0.0
 40
20.49999999769903
100
AcDbArc
 50
186.702326
 51
195.331632
  0
SPLINE
  5
194
330
16F
100
AcDbEntity
  8
0
  6
Continuous
 62
     0
370
    30
100
AcDbSpline
210
0.0
220
0.0
230
1.0
 70
     8
 71
     3
 72
    20
 73
    16
 74
     0
 42
0.000000001
 43
0.0
 40
0.0
 40
0.0
 40
0.0
 40
0.0
 40
2.033530702234261
 40
6.286354582571921
 40
10.58798005870877
 40
15.59833689218799
 40
19.95908500100664
 40
24.2500658792212
 40
28.35239977942428
 40
32.63144765811402
 40
37.20946466815066
 40
41.03790351906728
 40
44.93573991368111
 40
49.71977428954064
 40
52.37966492087619
 40
52.37966492087619
 40
52.37966492087619
 40
52.37966492087619
 10
237.2532051601007
 20
-80.83519862523099
 30
0.0
 10
237.0834773615209
 20
-81.05955106339388
 30
0.0
 10
236.4547141958158
 20
-81.7444249961527
 30
0.0
 10
234.8716983878561
 20
-82.83018387198263
 30
0.0
 10
232.0208884618882
 20
-84.04182159378479
 30
0.0
 10
228.3890903272362
 20
-85.00524914457583
 30
0.0
 10
224.2119163533735
 20
-85.64879124365552
 30
0.0
 10
220.0257958476979
 20
-85.94745471940178
 30
0.0
 10
215.7791501920493
 20
-85.93932541754884
 30
0.0
 10
211.5356424561063
 20
-85.6199621254982
 30
0.0
 10
207.683420018815
 20
-85.00060802928601
 30
0.0
 10
204.4055444399611
 20
-84.1467750661327
 30
0.0
 10
201.6248781584851
 20
-83.07457080886525
 30
0.0
 10
199.7753683040982
 20
-81.93640637405315
 30
0.0
 10
198.9927858932124
 20
-81.12857361955957
 30
0.0
 10
198.7708466810259
 20
-80.83520299397378
 30
0.0
  0
ARC
  5
195
330
16F
100
AcDbEntity
  8
0
  6
Continuous
 62
     0
370
    30
100
AcDbCircle
 10
203.359495
 20
-77.125715
 30
0.0
 40
5.90050729098909
100
AcDbArc
 50
211.81968
 51
218.95226
  0
ARC
  5
196
330
16F
100
AcDbEntity
  8
0
  6
Continuous
 62
     0
370
    30
100
AcDbCircle
 10
234.00961
 20
-78.103853
 30
0.0
 40
4.240419074396019
100
AcDbArc
 50
319.900156
 51
329.873796
  0
ARC
  5
197
330
16F
100
AcDbEntity
  8
0
  6
Continuous
 62
     0
370
    30
100
AcDbCircle
 10
188.512046
 20
-61.507871
 30
0.0
 40
0.5000204997029583
100
AcDbArc
 50
90.002349
 51
179.997651
  0
ARC
  5
198
330
16F
100
AcDbEntity
  8
0
  6
Continuous
 62
     0
370
    30
100
AcDbCircle
 10
247.512005
 20
-61.507871
 30
0.0
 40
0.5000205013410253
100
AcDbArc
 50
0.002349
 51
89.997651
  0
LINE
  5
199
330
16F
100
AcDbEntity
  8
0
  6
Continuous
 62
     0
370
    30
100
AcDbLine
 10
188.012025
 20
-65.507851
 30
0.0
 11
188.012025
 21
-61.507851
 31
0.0
  0
LINE
  5
19A
330
16F
100
AcDbEntity
  8
0
  6
Continuous
 62
     0
370
    30
100
AcDbLine
 10
248.012025
 20
-65.507851
 30
0.0
 11
248.012025
 21
-61.507851
 31
0.0
  0
ARC
  5
19B
330
16F
100
AcDbEntity
  8
0
  6
Continuous
 62
     0
370
    30
100
AcDbCircle
 10
188.512046
 20
-65.50783
 30
0.0
 40
0.5000205001961449
100
AcDbArc
 50
180.002349
 51
269.997651
  0
ARC
  5
19C
330
16F
100
AcDbEntity
  8
0
  6
Continuous
 62
     0
370
    30
100
AcDbCircle
 10
247.512005
 20
-65.50783
 30
0.0
 40
0.5000205013951442
100
AcDbArc
 50
270.002349
 51
359.997651
  0
LINE
  5
19D
330
16F
100
AcDbEntity
  8
0
  6
Continuous
 62
     0
370
    30
100
AcDbLine
 10
195.912025
 20
-77.209008
 30
0.0
 11
195.912025
 21
-66.007851
 31
0.0
  0
LINE
  5
19E
330
16F
100
AcDbEntity
  8
0
  6
Continuous
 62
     0
370
    30
100
AcDbLine
 10
240.112025
 20
-77.209008
 30
0.0
 11
240.112025
 21
-66.007851
 31
0.0
  0
ARC
  5
19F
330
16F
100
AcDbEntity
  8
0
  6
Continuous
 62
     0
370
    30
100
AcDbCircle
 10
217.879759
 20
-74.810962
 30
0.0
 40
20.5285359284457
100
AcDbArc
 50
344.674369
 51
353.291665
  0
LINE
  5
1A0
330
16F
100
AcDbEntity
  8
0
  6
Continuous
 62
     0
370
    30
100
AcDbLine
 10
239.391548
 20
-108.786229
 30
0.0
 11
239.375823
 21
-108.810113
 31
0.0
  0
ARC
  5
1A1
330
16F
100
AcDbEntity
  8
0
  6
Continuous
 62
     0
370
    30
100
AcDbCircle
 10
237.600243
 20
-107.17492
 30
0.0
 40
2.413822898600093
100
AcDbArc
 50
317.356944
 51
354.055834
  0
LINE
  5
1A2
330
16F
100
AcDbEntity
  8
0
  6
Continuous
 62
     0
370
    30
100
AcDbLine
 10
233.436688
 20
-118.513066
 30
0.0
 11
239.375173
 21
-108.813078
 31
0.0
  0
LINE
  5
1A3
330
16F
100
AcDbEntity
  8
0
  6
Continuous
 62
     0
370
    30
100
AcDbLine
 10
240.001095
 20
-107.424204
 30
0.0
 11
240.002934
 21
-107.335509
 31
0.0
  0
SPLINE
  5
1A4
330
16F
100
AcDbEntity
  8
0
  6
Continuous
 62
     0
370
    30
100
AcDbSpline
210
0.0
220
0.0
230
1.0
 70
     8
 71
     3
 72
    16
 73
    12
 74
     0
 42
0.000000001
 43
0.0
 40
0.0
 40
0.0
 40
0.0
 40
0.0
 40
1.437735109324588
 40
2.081603666332241
 40
3.752507049556536
 40
5.566106693913673
 40
8.760167503651427
 40
13.71034663754572
 40
15.03146081973656
 40
17.79839351391288
 40
23.92746956887283
 40
23.92746956887283
 40
23.92746956887283
 40
23.92746956887283
 10
233.4183368745464
 20
-118.5414961639003
 30
0.0
 10
233.3614238971608
 20
-118.6276785827099
 30
0.0
 10
233.1831189667278
 20
-118.8801041853926
 30
0.0
 10
232.8779361606315
 20
-119.2114027493221
 30
0.0
 10
232.477112120332
 20
-119.5741647486411
 30
0.0
 10
231.7192537600166
 20
-120.0832924986817
 30
0.0
 10
230.3179448301157
 20
-120.7400318455811
 30
0.0
 10
228.3995426444176
 20
-121.2404278017316
 30
0.0
 10
226.0492608117268
 20
-121.6020817600611
 30
0.0
 10
223.0523751153278
 20
-121.9145982436048
 30
0.0
 10
220.0390788728043
 20
-121.996923155556
 30
0.0
 10
218.0092085702591
 20
-121.9965767442218
 30
0.0
  0
LINE
  5
1A5
330
16F
100
AcDbEntity
  8
0
  6
Continuous
 62
     0
370
    30
100
AcDbLine
 10
196.626895
 20
-108.786229
 30
0.0
 11
196.642621
 21
-108.810113
 31
0.0
  0
ARC
  5
1A6
330
16F
100
AcDbEntity
  8
0
  6
Continuous
 62
     0
370
    30
100
AcDbCircle
 10
198.4182
 20
-107.17492
 30
0.0
 40
2.413822898878444
100
AcDbArc
 50
185.944166
 51
222.643056
  0
LINE
  5
1A7
330
16F
100
AcDbEntity
  8
0
  6
Continuous
 62
     0
370
    30
100
AcDbLine
 10
202.581756
 20
-118.513066
 30
0.0
 11
196.64327
 21
-108.813078
 31
0.0
  0
LINE
  5
1A8
330
16F
100
AcDbEntity
  8
0
  6
Continuous
 62
     0
370
    30
100
AcDbLine
 10
196.017348
 20
-107.424204
 30
0.0
 11
196.01551
 21
-107.335509
 31
0.0
  0
SPLINE
  5
1A9
330
16F
100
AcDbEntity
  8
0
  6
Continuous
 62
     0
370
    30
100
AcDbSpline
210
0.0
220
0.0
230
1.0
 70
     8
 71
     3
 72
    16
 73
    12
 74
     0
 42
0.000000001
 43
0.0
 40
0.0
 40
0.0
 40
0.0
 40
0.0
 40
1.437735109323873
 40
2.081603666330708
 40
3.752507049555148
 40
5.566106693912229
 40
8.760167503649708
 40
13.71034663754354
 40
15.03146081973428
 40
17.79839351391054
 40
23.92746956887248
 40
23.92746956887248
 40
23.92746956887248
 40
23.92746956887248
 10
202.6001065134345
 20
-118.5414961639008
 30
0.0
 10
202.6570194908197
 20
-118.6276785827094
 30
0.0
 10
202.8353244212528
 20
-118.8801041853931
 30
0.0
 10
203.1405072273488
 20
-119.2114027493203
 30
0.0
 10
203.5413312676483
 20
-119.5741647486416
 30
0.0
 10
204.2991896279636
 20
-120.0832924986817
 30
0.0
 10
205.700498557864
 20
-120.7400318455811
 30
0.0
 10
207.6189007435619
 20
-121.2404278017298
 30
0.0
 10
209.969182576252
 20
-121.602081760062
 30
0.0
 10
212.9660682726524
 20
-121.9145982436053
 30
0.0
 10
215.9793645151758
 20
-121.9969231555524
 30
0.0
 10
218.0092348177216
 20
-121.9965767442218
 30
0.0
  0
LINE
  5
1AA
330
16F
100
AcDbEntity
  8
0
  6
Continuous
 62
     0
370
    30
100
AcDbLine
 10
240.002929
 20
-107.334763
 30
0.0
 11
240.002929
 21
-80.236845
 31
0.0
  0
LINE
  5
1AB
330
16F
100
AcDbEntity
  8
0
  6
Continuous
 62
     0
370
    30
100
AcDbLine
 10
196.015514
 20
-107.334763
 30
0.0
 11
196.015514
 21
-80.236845
 31
0.0
  0
LINE
  5
1AC
330
16F
100
AcDbEntity
  8
0
  6
Continuous
 62
     0
370
    30
100
AcDbLine
 10
168.012024
 20
-61.004572
 30
0.0
 11
108.012024
 21
-61.004572
 31
0.0
  0
LINE
  5
1AD
330
16F
100
AcDbEntity
  8
0
  6
Continuous
 62
     0
370
    30
100
AcDbLine
 10
167.512024
 20
-66.004572
 30
0.0
 11
108.512024
 21
-66.004572
 31
0.0
  0
LINE
  5
1AE
330
16F
100
AcDbEntity
  8
0
  6
Continuous
 62
     0
370
     0
100
AcDbLine
 10
168.012024
 20
-65.504572
 30
0.0
 11
108.012024
 21
-65.504572
 31
0.0
  0
LINE
  5
1AF
330
16F
100
AcDbEntity
  8
0
  6
Continuous
 62
     0
370
     0
100
AcDbLine
 10
151.012024
 20
-231.951124
 30
0.0
 11
125.012024
 21
-231.951124
 31
0.0
  0
LINE
  5
1B0
330
16F
100
AcDbEntity
  8
0
  6
Continuous
 62
     0
370
    30
100
AcDbLine
 10
125.012024
 20
-231.951124
 30
0.0
 11
125.012024
 21
-270.922266
 31
0.0
  0
SPLINE
  5
1B1
330
16F
100
AcDbEntity
  8
0
  6
Continuous
 62
     0
370
     0
100
AcDbSpline
210
0.0
220
0.0
230
1.0
 70
    12
 71
     2
 72
     8
 73
     5
 74
     0
 42
0.000000001
 43
0.0
 40
0.0
 40
0.0
 40
0.0
 40
0.25
 40
0.25
 40
0.5
 40
0.5
 40
0.5
 10
125.0120239257812
 20
-270.9222658010422
 30
0.0
 41
1.0
 10
125.0120239257812
 20
-282.1805963343641
 30
0.0
 41
0.7071067811865476
 10
138.0120239257812
 20
-282.1805963343641
 30
0.0
 41
1.0
 10
151.0120239257812
 20
-282.1805963343641
 30
0.0
 41
0.7071067811865476
 10
151.0120239257812
 20
-270.9222658010422
 30
0.0
 41
1.0
  0
LINE
  5
1B2
330
16F
100
AcDbEntity
  8
0
  6
Continuous
 62
     0
370
    30
100
AcDbLine
 10
125.012024
 20
-270.922266
 30
0.0
 11
125.012024
 21
-281.00457
 31
0.0
  0
SPLINE
  5
1B3
330
16F
100
AcDbEntity
  8
0
  6
Continuous
 62
     0
370
    30
100
AcDbSpline
210
0.0
220
0.0
230
1.0
 70
    12
 71
     2
 72
     8
 73
     5
 74
     0
 42
0.000000001
 43
0.0
 40
0.5
 40
0.5
 40
0.5
 40
0.75
 40
0.75
 40
1.0
 40
1.0
 40
1.0
 10
151.0120239257812
 20
-281.0045702316634
 30
0.0
 41
1.0
 10
151.0120239257812
 20
-292.2629007649853
 30
0.0
 41
0.7071067811865476
 10
138.0120239257812
 20
-292.2629007649853
 30
0.0
 41
1.0
 10
125.0120239257812
 20
-292.2629007649853
 30
0.0
 41
0.7071067811865476
 10
125.0120239257812
 20
-281.0045702316634
 30
0.0
 41
1.0
  0
LINE
  5
1B4
330
16F
100
AcDbEntity
  8
0
  6
Continuous
 62
     0
370
    30
100
AcDbLine
 10
125.012024
 20
-231.951124
 30
0.0
 11
125.012024
 21
-66.004572
 31
0.0
  0
ARC
  5
1B5
330
16F
100
AcDbEntity
  8
0
  6
Continuous
 62
     0
370
    30
100
AcDbCircle
 10
167.512024
 20
-65.504572
 30
0.0
 40
0.5
100
AcDbArc
 50
270.0
 51
0.0
  0
ARC
  5
1B6
330
16F
100
AcDbEntity
  8
0
  6
Continuous
 62
     0
370
    30
100
AcDbCircle
 10
108.512024
 20
-65.504572
 30
0.0
 40
0.5
100
AcDbArc
 50
180.0
 51
270.0
  0
LINE
  5
1B7
330
16F
100
AcDbEntity
  8
0
  6
Continuous
 62
     0
370
    30
100
AcDbLine
 10
168.012024
 20
-65.504572
 30
0.0
 11
168.012024
 21
-61.004572
 31
0.0
  0
LINE
  5
1B8
330
16F
100
AcDbEntity
  8
0
  6
Continuous
 62
     0
370
    30
100
AcDbLine
 10
108.012024
 20
-65.504572
 30
0.0
 11
108.012024
 21
-61.004572
 31
0.0
  0
LINE
  5
1B9
330
16F
100
AcDbEntity
  8
0
  6
Continuous
 62
     0
370
    30
100
AcDbLine
 10
151.012024
 20
-231.951124
 30
0.0
 11
151.012024
 21
-66.004572
 31
0.0
  0
LINE
  5
1BA
330
16F
100
AcDbEntity
  8
0
  6
Continuous
 62
     0
370
    30
100
AcDbLine
 10
151.012024
 20
-270.922266
 30
0.0
 11
151.012024
 21
-281.00457
 31
0.0
  0
LINE
  5
1BB
330
16F
100
AcDbEntity
  8
0
  6
Continuous
 62
     0
370
    30
100
AcDbLine
 10
151.012024
 20
-231.951124
 30
0.0
 11
151.012024
 21
-270.922266
 31
0.0
  0
ENDBLK
  5
1BD
330
16F
100
AcDbEntity
  8
0
100
AcDbBlockEnd
  0
BLOCK
  5
220
330
1BF
100
AcDbEntity
  8
0
100
AcDbBlockBegin
  2
e
 70
     0
 10
351.470886
 20
-223.378296
 30
0.0
  3
e
  1

  0
SPLINE
  5
1C0
330
1BF
100
AcDbEntity
  8
0
  6
Continuous
 62
     0
370
     0
100
AcDbSpline
210
0.0
220
0.0
230
1.0
 70
     8
 71
     3
 72
    14
 73
    10
 74
     0
 42
0.000000001
 43
0.0
 40
0.0
 40
0.0
 40
0.0
 40
0.0
 40
4.985091455020042
 40
9.970147469987424
 40
14.95499429598457
 40
19.93965986576175
 40
24.92412306109084
 40
29.90843907769889
 40
34.89265281904023
 40
34.89265281904023
 40
34.89265281904023
 40
34.89265281904023
 10
568.5062351290018
 20
-136.2076363247157
 30
0.0
 10
568.4776052311219
 20
-134.5774844532495
 30
0.0
 10
568.2120101600153
 20
-131.2503661829548
 30
0.0
 10
567.2870174004871
 20
-126.3335897834746
 30
0.0
 10
565.8579918506841
 20
-121.7232210691593
 30
0.0
 10
563.9970675935849
 20
-117.6542367020531
 30
0.0
 10
561.792638294563
 20
-114.3380685909732
 30
0.0
 10
559.3578502433522
 20
-111.9540962926747
 30
0.0
 10
557.6610171109542
 20
-111.0724340481364
 30
0.0
 10
556.8206229654504
 20
-110.821790162682
 30
0.0
  0
ARC
  5
1C1
330
1BF
100
AcDbEntity
  8
0
  6
Continuous
 62
     0
370
     0
100
AcDbCircle
 10
555.186153
 20
-116.04438
 30
0.0
 40
5.472379533378427
100
AcDbArc
 50
72.62189
 51
108.179012
  0
SPLINE
  5
1C2
330
1BF
100
AcDbEntity
  8
0
  6
Continuous
 62
     0
370
     0
100
AcDbSpline
210
0.0
220
0.0
230
1.0
 70
     8
 71
     3
 72
     8
 73
     4
 74
     0
 42
0.000000001
 43
0.0
 40
0.0
 40
0.0
 40
0.0
 40
0.0
 40
3.653222443064019
 40
3.653222443064019
 40
3.653222443064019
 40
3.653222443064019
 10
545.5958575280127
 20
-129.9327337463386
 30
0.0
 10
545.6221237746136
 20
-131.1310621630265
 30
0.0
 10
545.7649916129203
 20
-132.3528046251459
 30
0.0
 10
545.8515121379864
 20
-133.5627656304733
 30
0.0
  0
LINE
  5
1C3
330
1BF
100
AcDbEntity
  8
0
  6
Continuous
 62
     0
370
     0
100
AcDbLine
 10
545.851512
 20
-133.562766
 30
0.0
 11
549.601148
 21
-186.857728
 31
0.0
  0
SPLINE
  5
1C4
330
1BF
100
AcDbEntity
  8
0
  6
Continuous
 62
     0
370
     0
100
AcDbSpline
210
0.0
220
0.0
230
1.0
 70
     8
 71
     3
 72
    14
 73
    10
 74
     0
 42
0.000000001
 43
0.0
 40
0.0
 40
0.0
 40
0.0
 40
0.0
 40
3.357648776851581
 40
6.714049718875667
 40
10.06778576981573
 40
13.41760088284698
 40
16.76445100049494
 40
20.11421126265042
 40
23.46800661548595
 40
23.46800661548595
 40
23.46800661548595
 40
23.46800661548595
 10
549.6011477774648
 20
-186.8577275687062
 30
0.0
 10
549.6817044449759
 20
-187.9698779883505
 30
0.0
 10
549.8912631193019
 20
-190.2002059135413
 30
0.0
 10
550.4062223144884
 20
-193.5213699887592
 30
0.0
 10
551.1816827999874
 20
-196.7350747756438
 30
0.0
 10
552.2869441564335
 20
-199.6614567711197
 30
0.0
 10
553.730059881844
 20
-201.9838649352269
 30
0.0
 10
555.3773670320031
 20
-203.488907096431
 30
0.0
 10
556.5139903516318
 20
-204.0070078223115
 30
0.0
 10
557.0794776513267
 20
-204.1756627083039
 30
0.0
  0
SPLINE
  5
1C5
330
1BF
100
AcDbEntity
  8
0
  6
Continuous
 62
     0
370
     0
100
AcDbSpline
210
0.0
220
0.0
230
1.0
 70
     8
 71
     3
 72
    44
 73
    40
 74
     0
 42
0.000000001
 43
0.0
 40
0.0000895826433412
 40
0.0000895826433412
 40
0.0000895826433412
 40
0.0000895826433412
 40
1.455705552509048
 40
2.911589491459075
 40
5.824081540223966
 40
8.7385626186377
 40
11.65580985318472
 40
14.57578990660517
 40
16.0365960848436
 40
17.49778930286209
 40
20.42097080379455
 40
23.34485787360984
 40
29.19406413397097
 40
35.04490031175023
 40
40.89750583142025
 40
46.75217532136676
 40
52.60924050520428
 40
58.46889873474503
 40
61.39961580463802
 40
64.33071643401544
 40
67.26188709628178
 40
67.99463745972156
 40
68.72736871187065
 40
69.46006464947662
 40
70.19267755734444
 40
70.92522637030976
 40
71.65766554638013
 40
72.3898692175285
 40
73.12154096575792
 40
73.85284092929396
 40
74.58380294679615
 40
76.04479523318956
 40
78.96357029084776
 40
81.87875183543906
 40
84.79115651387711
 40
87.70151606666711
 40
90.61036732582744
 40
92.06431495852438
 40
93.51784755801623
 40
93.51784755801623
 40
93.51784755801623
 40
93.51784755801623
 10
557.0794776513267
 20
-204.1756627083039
 30
0.0
 10
557.0078614997527
 20
-203.7123682588316
 30
0.0
 10
556.8646163795613
 20
-202.7856939559066
 30
0.0
 10
556.6019388582823
 20
-200.9245789004352
 30
0.0
 10
556.3273530014977
 20
-198.5819231063994
 30
0.0
 10
556.0928797478357
 20
-195.7456037774814
 30
0.0
 10
555.9359876160379
 20
-192.8900023052041
 30
0.0
 10
555.8493774967194
 20
-190.5002237933605
 30
0.0
 10
555.7948841006828
 20
-188.5847296801516
 30
0.0
 10
555.7421696027894
 20
-186.6675725450929
 30
0.0
 10
555.6676006713988
 20
-184.2709187429366
 30
0.0
 10
555.5469585176276
 20
-180.4352110202191
 30
0.0
 10
555.3839946911658
 20
-175.6417415637778
 30
0.0
 10
555.1879857243334
 20
-169.8903980551103
 30
0.0
 10
554.9999420740273
 20
-164.1374255804438
 30
0.0
 10
554.831368372172
 20
-158.3802937033753
 30
0.0
 10
554.6936993926074
 20
-152.6166141486119
 30
0.0
 10
554.6136021016971
 20
-147.80715727844
 30
0.0
 10
554.5764142421473
 20
-143.9553630510814
 30
0.0
 10
554.5630740288857
 20
-141.0646413030671
 30
0.0
 10
554.5651099392311
 20
-138.8959340470262
 30
0.0
 10
554.5720471049137
 20
-137.4500732909407
 30
0.0
 10
554.5766108938282
 20
-136.7272122302703
 30
0.0
 10
554.5823004700151
 20
-136.004430841197
 30
0.0
 10
554.5891505787931
 20
-135.2816765068594
 30
0.0
 10
554.597185325997
 20
-134.5590621252602
 30
0.0
 10
554.6064086730047
 20
-133.8365839014669
 30
0.0
 10
554.6168324534276
 20
-133.1143802724503
 30
0.0
 10
554.6284835185843
 20
-132.392031686048
 30
0.0
 10
554.6413726667297
 20
-131.6699730446883
 30
0.0
 10
554.6602696470534
 20
-130.7076725310462
 30
0.0
 10
554.6977052266445
 20
-129.0248849088004
 30
0.0
 10
554.7667774795183
 20
-126.6221133118971
 30
0.0
 10
554.8651084762599
 20
-123.7414354052107
 30
0.0
 10
555.0103933324123
 20
-120.8627227797839
 30
0.0
 10
555.2083436693154
 20
-117.9863264274052
 30
0.0
 10
555.4169333870423
 20
-115.5914999332005
 30
0.0
 10
555.6052936959558
 20
-113.6773422300455
 30
0.0
 10
555.7056700047725
 20
-112.7208794917156
 30
0.0
 10
555.7558510906285
 20
-112.2427163945062
 30
0.0
  0
SPLINE
  5
1C6
330
1BF
100
AcDbEntity
  8
0
  6
Continuous
 62
     0
370
     0
100
AcDbSpline
210
0.0
220
0.0
230
1.0
 70
     8
 71
     3
 72
    14
 73
    10
 74
     0
 42
0.000000001
 43
0.0
 40
0.0
 40
0.0
 40
0.0
 40
0.0
 40
4.690236058045249
 40
9.379816625478325
 40
14.07059875641934
 40
18.76087985972481
 40
23.45161344182406
 40
28.14254872603605
 40
32.83347914028535
 40
32.83347914028535
 40
32.83347914028535
 40
32.83347914028535
 10
555.755850686442
 20
-112.2427162739624
 30
0.0
 10
554.9650250516162
 20
-112.0068558493218
 30
0.0
 10
553.3827606822914
 20
-111.8911322120716
 30
0.0
 10
551.155032746627
 20
-112.7980930055021
 30
0.0
 10
549.1833090264927
 20
-114.7279744972793
 30
0.0
 10
547.5676524525854
 20
-117.5722083347807
 30
0.0
 10
546.3835082779926
 20
-121.1773183707585
 30
0.0
 10
545.690613010394
 20
-125.3562336246741
 30
0.0
 10
545.5621302811862
 20
-128.3940168179972
 30
0.0
 10
545.5958575280124
 20
-129.932733746328
 30
0.0
  0
SPLINE
  5
1C7
330
1BF
100
AcDbEntity
  8
0
  6
Continuous
 62
     0
370
     0
100
AcDbSpline
210
0.0
220
0.0
230
1.0
 70
     8
 71
     3
 72
     8
 73
     4
 74
     0
 42
0.000000001
 43
0.0
 40
0.0
 40
0.0
 40
0.0
 40
0.0
 40
3.653222443064009
 40
3.653222443064009
 40
3.653222443064009
 40
3.653222443064009
 10
566.5205918367658
 20
-136.1734444144309
 30
0.0
 10
566.535235999229
 20
-137.3683065952509
 30
0.0
 10
566.4185583744014
 20
-138.5126407559441
 30
0.0
 10
566.3678831314916
 20
-139.6816837223579
 30
0.0
  0
LINE
  5
1C8
330
1BF
100
AcDbEntity
  8
0
  6
Continuous
 62
     0
370
     0
100
AcDbLine
 10
566.367883
 20
-139.681684
 30
0.0
 11
564.122734
 21
-191.188727
 31
0.0
  0
SPLINE
  5
1C9
330
1BF
100
AcDbEntity
  8
0
  6
Continuous
 62
     0
370
     0
100
AcDbSpline
210
0.0
220
0.0
230
1.0
 70
     8
 71
     3
 72
    14
 73
    10
 74
     0
 42
0.000000001
 43
0.0
 40
0.0
 40
0.0
 40
0.0
 40
0.0
 40
3.357648776850946
 40
6.714049718873458
 40
10.06778576981201
 40
13.41760088284155
 40
16.76445100048876
 40
20.114211262641
 40
23.4680066154798
 40
23.4680066154798
 40
23.4680066154798
 40
23.4680066154798
 10
564.122734494442
 20
-191.1887274182174
 30
0.0
 10
564.0750886217768
 20
-192.2626419898751
 30
0.0
 10
563.9260073430187
 20
-194.3860071145707
 30
0.0
 10
563.5032024825904
 20
-197.4274871536842
 30
0.0
 10
562.8128367494805
 20
-200.2040156694087
 30
0.0
 10
561.7835554206713
 20
-202.4937796265864
 30
0.0
 10
560.3946333207468
 20
-203.9715448715664
 30
0.0
 10
558.7772742377699
 20
-204.5029145794159
 30
0.0
 10
557.6449651159868
 20
-204.3443161086552
 30
0.0
 10
557.0794776513268
 20
-204.1756627083039
 30
0.0
  0
SPLINE
  5
1CA
330
1BF
100
AcDbEntity
  8
0
  6
Continuous
 62
     0
370
     0
100
AcDbSpline
210
0.0
220
0.0
230
1.0
 70
     8
 71
     3
 72
    14
 73
    10
 74
     0
 42
0.000000001
 43
0.0
 40
0.0
 40
0.0
 40
0.0
 40
0.0
 40
4.69023605813218
 40
9.379816625518114
 40
14.0705987563707
 40
18.76087985973196
 40
23.45161344181452
 40
28.14254872602785
 40
32.83347914028615
 40
32.83347914028615
 40
32.83347914028615
 40
32.83347914028615
 10
555.7558506863553
 20
-112.2427162739365
 30
0.0
 10
556.5466774961484
 20
-112.4785767867619
 30
0.0
 10
558.139583162156
 20
-113.3098337524564
 30
0.0
 10
560.4126734074127
 20
-115.5591439216182
 30
0.0
 10
562.4581692736124
 20
-118.6871436193576
 30
0.0
 10
564.170989884667
 20
-122.5240812478841
 30
0.0
 10
565.4694995384701
 20
-126.8696319510894
 30
0.0
 10
566.2951995581901
 20
-131.5014616205401
 30
0.0
 10
566.5017879593239
 20
-134.6391783158705
 30
0.0
 10
566.520591836766
 20
-136.1734444144205
 30
0.0
  0
ARC
  5
1CB
330
1BF
100
AcDbEntity
  8
0
  6
Continuous
 62
     0
370
     0
100
AcDbCircle
 10
558.372503
 20
-204.032166
 30
0.0
 40
1.300957316477991
100
AcDbArc
 50
186.332746
 51
251.332678
  0
ARC
  5
1CC
330
1BF
100
AcDbEntity
  8
0
  6
Continuous
 62
     0
370
     0
100
AcDbCircle
 10
557.422626
 20
-112.382309
 30
0.0
 40
1.672611036848872
100
AcDbArc
 50
111.095183
 51
175.212636
  0
SPLINE
  5
1CD
330
1BF
100
AcDbEntity
  8
0
  6
Continuous
 62
     0
370
     0
100
AcDbSpline
210
0.0
220
0.0
230
1.0
 70
     8
 71
     7
 72
    26
 73
    18
 74
     0
 42
0.000000001
 43
0.0
 40
-0.0000000000000264
 40
-0.0000000000000264
 40
-0.0000000000000264
 40
-0.0000000000000264
 40
-0.0000000000000264
 40
-0.0000000000000264
 40
-0.0000000000000264
 40
-0.0000000000000264
 40
0.3899999999999839
 40
0.3899999999999839
 40
0.3899999999999839
 40
0.3899999999999839
 40
0.3899999999999839
 40
0.6436379999999904
 40
0.6436379999999904
 40
0.6436379999999904
 40
0.6436379999999904
 40
0.6436379999999904
 40
0.7423186347169748
 40
0.7423186347169748
 40
0.7423186347169748
 40
0.7423186347169748
 40
0.7423186347169748
 40
0.7423186347169748
 40
0.7423186347169748
 40
0.7423186347169748
 10
567.4212957742745
 20
-161.1325852918795
 30
0.0
 10
567.5266388968051
 20
-161.1198071761005
 30
0.0
 10
567.6266507061285
 20
-161.1042986698125
 30
0.0
 10
567.7222413645179
 20
-161.0878677752549
 30
0.0
 10
567.8171943579857
 20
-161.0710412666032
 30
0.0
 10
567.9083174537691
 20
-161.0548921165394
 30
0.0
 10
568.0561102639997
 20
-161.0295846952129
 30
0.0
 10
568.1988242012784
 20
-161.0058052831324
 30
0.0
 10
568.2545602131189
 20
-160.9966925416186
 30
0.0
 10
568.3074023624038
 20
-160.9872391887832
 30
0.0
 10
568.3593286025684
 20
-160.9780868258478
 30
0.0
 10
568.4252226156939
 20
-160.963312037895
 30
0.0
 10
568.470637510529
 20
-160.9426438803474
 30
0.0
 10
568.481382259692
 20
-160.9362990231182
 30
0.0
 10
568.489880249671
 20
-160.9293396199425
 30
0.0
 10
568.495638549084
 20
-160.9216851409007
 30
0.0
 10
568.498592513543
 20
-160.9133782279183
 30
0.0
 10
568.4989403408188
 20
-160.9045119478729
 30
0.0
  0
ARC
  5
1CE
330
1BF
100
AcDbEntity
  8
0
  6
Continuous
 62
     0
370
     0
100
AcDbCircle
 10
-1000.702112
 20
-44.845812
 30
0.0
 40
1573.123265497036
100
AcDbArc
 50
356.124291
 51
356.556544
  0
LINE
  5
1CF
330
1BF
100
AcDbEntity
  8
0
  6
Continuous
 62
     0
370
     0
100
AcDbLine
 10
569.580974
 20
-139.333056
 30
0.0
 11
568.352606
 21
-139.737147
 31
0.0
  0
LINE
  5
1D0
330
1BF
100
AcDbEntity
  8
0
  6
Continuous
 62
     0
370
     0
100
AcDbLine
 10
568.352606
 20
-139.737147
 30
0.0
 11
567.421296
 21
-161.132585
 31
0.0
  0
LINE
  5
1D1
330
1BF
100
AcDbEntity
  8
0
  6
Continuous
 62
     0
370
     0
100
AcDbLine
 10
567.421296
 20
-161.132585
 30
0.0
 11
566.105565
 21
-191.370439
 31
0.0
  0
SPLINE
  5
1D2
330
1BF
100
AcDbEntity
  8
0
  6
Continuous
 62
     0
370
     0
100
AcDbSpline
210
0.0
220
0.0
230
1.0
 70
     8
 71
     7
 72
    26
 73
    18
 74
     0
 42
0.000000001
 43
0.0
 40
0.0
 40
0.0
 40
0.0
 40
0.0
 40
0.0
 40
0.0
 40
0.0
 40
0.0
 40
0.4874999999999879
 40
0.4874999999999879
 40
0.4874999999999879
 40
0.4874999999999879
 40
0.4874999999999879
 40
0.7499999999999812
 40
0.7499999999999812
 40
0.7499999999999812
 40
0.7499999999999812
 40
0.7499999999999812
 40
0.7915531740067776
 40
0.7915531740067776
 40
0.7915531740067776
 40
0.7915531740067776
 40
0.7915531740067776
 40
0.7915531740067776
 40
0.7915531740067776
 40
0.7915531740067776
 10
566.1055651703189
 20
-191.3704388834021
 30
0.0
 10
566.2459994964844
 20
-191.3534142167557
 30
0.0
 10
566.383836975112
 20
-191.3357124066989
 30
0.0
 10
566.5184249192416
 20
-191.317153423504
 30
0.0
 10
566.6488474726305
 20
-191.2974633282681
 30
0.0
 10
566.7736062881675
 20
-191.2763332673887
 30
0.0
 10
566.953400492279
 20
-191.2406346612155
 30
0.0
 10
567.1003609710214
 20
-191.1979751811642
 30
0.0
 10
567.1468348139122
 20
-191.1820547851797
 30
0.0
 10
567.187142440564
 20
-191.1650132437953
 30
0.0
 10
567.2195617873938
 20
-191.1466621338608
 30
0.0
 10
567.245514406067
 20
-191.1239111390683
 30
0.0
 10
567.2568101250301
 20
-191.0997384952062
 30
0.0
 10
567.2580764266968
 20
-191.0964092934427
 30
0.0
 10
567.2590622881594
 20
-191.0930554531286
 30
0.0
 10
567.2597654716059
 20
-191.089678122285
 30
0.0
 10
567.2601845858378
 20
-191.0862785422976
 30
0.0
 10
567.2603190973349
 20
-191.0828580231671
 30
0.0
  0
SPLINE
  5
1D3
330
1BF
100
AcDbEntity
  8
0
  6
Continuous
 62
     0
370
     0
100
AcDbSpline
210
0.0
220
0.0
230
1.0
 70
     8
 71
     3
 72
     8
 73
     4
 74
     0
 42
0.000000001
 43
0.0
 40
0.0
 40
0.0
 40
0.0
 40
0.0
 40
3.675194520389781
 40
3.675194520389781
 40
3.675194520389781
 40
3.675194520389781
 10
568.3526022898084
 20
-139.7371454329916
 30
0.0
 10
568.4036793843914
 20
-138.5606195282484
 30
0.0
 10
568.518725489293
 20
-137.4103661912606
 30
0.0
 10
568.506213195609
 20
-136.2076294650342
 30
0.0
  0
SPLINE
  5
1D4
330
1BF
100
AcDbEntity
  8
0
  6
Continuous
 62
     0
370
    30
100
AcDbSpline
210
0.0
220
0.0
230
1.0
 70
     8
 71
     3
 72
    13
 73
     9
 74
     0
 42
0.000000001
 43
0.0
 40
0.0
 40
0.0
 40
0.0
 40
0.0
 40
4.881839710274229
 40
9.763678047156
 40
14.64551936117352
 40
19.52736359612886
 40
24.40920304602579
 40
27.42290491991993
 40
27.42290491991993
 40
27.42290491991993
 40
27.42290491991993
 10
591.4730060548272
 20
-128.7129027945196
 30
0.0
 10
591.7387617187918
 20
-130.2515950336008
 30
0.0
 10
592.0870996917275
 20
-133.2801974947502
 30
0.0
 10
592.0272320969741
 20
-137.4117024930831
 30
0.0
 10
591.3898164345429
 20
-140.939295455359
 30
0.0
 10
590.2058594004068
 20
-143.6862486130292
 30
0.0
 10
588.7467389452564
 20
-145.2842512106101
 30
0.0
 10
587.6687362564741
 20
-145.8334395717399
 30
0.0
 10
587.2353519310482
 20
-145.9775476115533
 30
0.0
  0
ARC
  5
1D5
330
1BF
100
AcDbEntity
  8
0
  6
Continuous
 62
     0
370
     0
100
AcDbCircle
 10
545.839115
 20
-133.469302
 30
0.0
 40
0.0942766591591586
100
AcDbArc
 50
90.880429
 51
277.438774
  0
ARC
  5
1D6
330
1BF
100
AcDbEntity
  8
0
  6
Continuous
 62
     0
370
     0
100
AcDbCircle
 10
567.548129
 20
-132.979156
 30
0.0
 40
6.805705441515455
100
AcDbArc
 50
260.01192
 51
276.788594
  0
SPLINE
  5
1D7
330
1BF
100
AcDbEntity
  8
0
  6
Continuous
 62
     0
370
    30
100
AcDbSpline
210
0.0
220
0.0
230
1.0
 70
     8
 71
     3
 72
    12
 73
     8
 74
     0
 42
0.000000001
 43
0.0
 40
0.0
 40
0.0
 40
0.0
 40
0.0
 40
9.184421489724677
 40
18.36176712170833
 40
27.52966411077037
 40
36.69288242013261
 40
38.83606595830921
 40
38.83606595830921
 40
38.83606595830921
 40
38.83606595830921
 10
590.2693313364537
 20
-125.6078223471662
 30
0.0
 10
588.6997494333916
 20
-123.1358129303837
 30
0.0
 10
585.0198164033997
 20
-118.0902222136956
 30
0.0
 10
578.7080921686338
 20
-111.4785837753364
 30
0.0
 10
572.5537757078108
 20
-106.9467978158295
 30
0.0
 10
568.9829484317847
 20
-105.8817150700045
 30
0.0
 10
567.5974844523557
 20
-106.1521558745801
 30
0.0
 10
567.3565566121948
 20
-106.2330302393763
 30
0.0
  0
ARC
  5
1D8
330
1BF
100
AcDbEntity
  8
0
  6
Continuous
 62
     0
370
    30
100
AcDbCircle
 10
583.037706
 20
-130.19698
 30
0.0
 40
8.564856811204518
100
AcDbArc
 50
9.9783
 51
32.399031
  0
ARC
  5
1D9
330
1BF
100
AcDbEntity
  8
0
  6
Continuous
 62
     0
370
     0
100
AcDbCircle
 10
565.539853
 20
-186.633982
 30
0.0
 40
4.77012109870795
100
AcDbArc
 50
252.717215
 51
276.811017
  0
ARC
  5
1DA
330
1BF
100
AcDbEntity
  8
0
  6
Continuous
 62
     0
370
     0
100
AcDbCircle
 10
567.636376
 20
-129.05263
 30
0.0
 40
7.207688518839438
100
AcDbArc
 50
261.094879
 51
276.931635
  0
ARC
  5
1DB
330
1BF
100
AcDbEntity
  8
0
  6
Continuous
 62
     0
370
     0
100
AcDbCircle
 10
549.589867
 20
-186.730848
 30
0.0
 40
0.127380286800469
100
AcDbArc
 50
223.081741
 51
275.065932
  0
ARC
  5
1DC
330
1BF
100
AcDbEntity
  8
0
  6
Continuous
 62
     0
370
     0
100
AcDbCircle
 10
545.630973
 20
-129.789111
 30
0.0
 40
0.1478368716130568
100
AcDbArc
 50
196.159901
 51
256.279838
  0
SPLINE
  5
1DD
330
1BF
100
AcDbEntity
  8
0
  6
Continuous
 62
     0
370
     0
100
AcDbSpline
210
0.0
220
0.0
230
1.0
 70
     8
 71
     7
 72
    36
 73
    28
 74
     0
 42
0.000000001
 43
0.0
 40
0.0
 40
0.0
 40
0.0
 40
0.0
 40
0.0
 40
0.0
 40
0.0
 40
0.0
 40
0.11
 40
0.11
 40
0.11
 40
0.11
 40
0.11
 40
0.55
 40
0.55
 40
0.55
 40
0.55
 40
0.55
 40
0.65
 40
0.65
 40
0.65
 40
0.65
 40
0.65
 40
0.77
 40
0.77
 40
0.77
 40
0.77
 40
0.77
 40
0.8606313219126094
 40
0.8606313219126094
 40
0.8606313219126094
 40
0.8606313219126094
 40
0.8606313219126094
 40
0.8606313219126094
 40
0.8606313219126094
 40
0.8606313219126094
 10
566.1055651703188
 20
-191.370438883402
 30
0.0
 10
566.0882910399281
 20
-191.7538147071853
 30
0.0
 10
566.0685497903302
 20
-192.1359125261751
 30
0.0
 10
566.0462049499647
 20
-192.516590345798
 30
0.0
 10
566.0212207172646
 20
-192.8957479515449
 30
0.0
 10
565.993431528744
 20
-193.2732050873783
 30
0.0
 10
565.8399520996704
 20
-195.1511644012577
 30
0.0
 10
565.6107268748034
 20
-196.977666797429
 30
0.0
 10
565.3705833153358
 20
-198.3935709269344
 30
0.0
 10
565.0646696124879
 20
-199.7444763235277
 30
0.0
 10
564.6791968096849
 20
-201.0060643174294
 30
0.0
 10
564.0958448542851
 20
-202.3766656856054
 30
0.0
 10
563.3876166882033
 20
-203.4729111242311
 30
0.0
 10
563.252250981822
 20
-203.6660569761223
 30
0.0
 10
563.1127735399853
 20
-203.8488843910148
 30
0.0
 10
562.9693751093561
 20
-204.0211660285267
 30
0.0
 10
562.6456051553969
 20
-204.3761515296818
 30
0.0
 10
562.3046852449479
 20
-204.6775837282028
 30
0.0
 10
562.1140137528303
 20
-204.8258212843946
 30
0.0
 10
561.9189983177537
 20
-204.9575764851951
 30
0.0
 10
561.7201522458209
 20
-205.0731397422579
 30
0.0
 10
561.3651264640715
 20
-205.2477341056082
 30
0.0
 10
561.0009399152764
 20
-205.3740713494809
 30
0.0
 10
560.8427243813193
 20
-205.4196618788513
 30
0.0
 10
560.6831766739376
 20
-205.4566701228746
 30
0.0
 10
560.5224657828687
 20
-205.4853282900764
 30
0.0
 10
560.3607475425794
 20
-205.5058967613238
 30
0.0
 10
560.1981640329755
 20
-205.5186482059671
 30
0.0
  0
LINE
  5
1DE
330
1BF
100
AcDbEntity
  8
0
  6
Continuous
 62
     0
370
     0
100
AcDbLine
 10
571.02806
 20
-138.874193
 30
0.0
 11
569.580901
 21
-139.333018
 31
0.0
  0
LINE
  5
1DF
330
1BF
100
AcDbEntity
  8
0
  6
Continuous
 62
     0
370
     0
100
AcDbLine
 10
571.039374
 20
-138.902913
 30
0.0
 11
571.027979
 21
-138.874276
 31
0.0
  0
LINE
  5
1E0
330
1BF
100
AcDbEntity
  8
0
  6
Continuous
 62
     0
370
     0
100
AcDbLine
 10
571.027979
 20
-138.874276
 30
0.0
 11
570.877012
 21
-138.50131
 31
0.0
  0
ARC
  5
1E1
330
1BF
100
AcDbEntity
  8
0
  6
Continuous
 62
     0
370
     0
100
AcDbCircle
 10
535.741251
 20
-152.961083
 30
0.0
 40
37.99482511829174
100
AcDbArc
 50
22.369129
 51
26.623064
  0
LINE
  5
1E2
330
1BF
100
AcDbEntity
  8
0
  6
Continuous
 62
     0
370
     0
100
AcDbLine
 10
569.707634
 20
-135.934881
 30
0.0
 11
568.506235
 21
-136.207636
 31
0.0
  0
ELLIPSE
  5
1E3
330
1BF
100
AcDbEntity
  8
0
  6
Continuous
 62
     0
370
    30
100
AcDbEllipse
 10
582.855574
 20
-124.260427
 30
0.0
 11
6.971777029278043
 21
-20.97151222620894
 31
0.0
210
0.0
220
0.0
230
1.0
 40
0.453702
 41
6.129707401390773
 42
9.11722013829844
  0
ELLIPSE
  5
1E4
330
1BF
100
AcDbEntity
  8
0
  6
Continuous
 62
     0
370
    30
100
AcDbEllipse
 10
582.855574
 20
-124.260427
 30
0.0
 11
6.971777029278043
 21
-20.97151222620894
 31
0.0
210
0.0
220
0.0
230
1.0
 40
0.453702
 41
2.834034831118855
 42
3.626926479448803
  0
ELLIPSE
  5
1E5
330
1BF
100
AcDbEntity
  8
0
  6
Continuous
 62
     0
370
    30
100
AcDbEllipse
 10
592.327817
 20
-121.111472
 30
0.0
 11
6.971777029278044
 21
-20.97151222620894
 31
0.0
210
0.0
220
0.0
230
1.0
 40
0.453702
 41
0.0000000070391311
 42
2.834034831118859
  0
ELLIPSE
  5
1E6
330
1BF
100
AcDbEntity
  8
0
  6
Continuous
 62
     0
370
    30
100
AcDbEllipse
 10
592.327817
 20
-121.111472
 30
0.0
 11
6.971777029278044
 21
-20.97151222620894
 31
0.0
210
0.0
220
0.0
230
1.0
 40
0.453702
 41
2.834034831118859
 42
3.141592660628923
  0
ELLIPSE
  5
1E7
330
1BF
100
AcDbEntity
  8
0
  6
Continuous
 62
     0
370
     0
100
AcDbEllipse
 10
592.327817
 20
-121.111472
 30
0.0
 11
9.306218206502365
 21
-27.99364754177211
 31
0.0
210
0.0
220
0.0
230
1.0
 40
0.453702
 41
5.559170759884092
 42
9.117220138298443
  0
ELLIPSE
  5
1E8
330
1BF
100
AcDbEntity
  8
0
  6
Continuous
 62
     0
370
     0
100
AcDbEllipse
 10
592.327817
 20
-121.111472
 30
0.0
 11
9.306218206502365
 21
-27.99364754177211
 31
0.0
210
0.0
220
0.0
230
1.0
 40
0.453702
 41
2.834034831118856
 42
3.865607214963544
  0
ELLIPSE
  5
1E9
330
1BF
100
AcDbEntity
  8
0
  6
Continuous
 62
     0
370
     0
100
AcDbEllipse
 10
592.750642
 20
-120.970908
 30
0.0
 11
9.463950718476983
 21
-28.46811614417503
 31
0.0
210
0.0
220
0.0
230
1.0
 40
0.453702
 41
0.000000007038965
 42
2.834034831118858
  0
ELLIPSE
  5
1EA
330
1BF
100
AcDbEntity
  8
0
  6
Continuous
 62
     0
370
     0
100
AcDbEllipse
 10
592.750642
 20
-120.970908
 30
0.0
 11
9.463950718476983
 21
-28.46811614417503
 31
0.0
210
0.0
220
0.0
230
1.0
 40
0.453702
 41
2.834034831118858
 42
3.141592695844746
  0
ELLIPSE
  5
1EB
330
1BF
100
AcDbEntity
  8
0
  6
Continuous
 62
     0
370
     0
100
AcDbEllipse
 10
596.133236
 20
-119.846397
 30
0.0
 11
9.46395071847698
 21
-28.46811614417502
 31
0.0
210
0.0
220
0.0
230
1.0
 40
0.453702
 41
0.0000000070391275
 42
2.834034831118862
  0
ELLIPSE
  5
1EC
330
1BF
100
AcDbEntity
  8
0
  6
Continuous
 62
     0
370
     0
100
AcDbEllipse
 10
596.133236
 20
-119.846397
 30
0.0
 11
9.46395071847698
 21
-28.46811614417502
 31
0.0
210
0.0
220
0.0
230
1.0
 40
0.453702
 41
2.834034831118862
 42
3.141592660628923
  0
SPLINE
  5
1ED
330
1BF
100
AcDbEntity
  8
0
  6
Continuous
 62
     0
370
    30
100
AcDbSpline
210
0.0
220
0.0
230
1.0
 70
     8
 71
     3
 72
    22
 73
    18
 74
     0
 42
0.000000001
 43
0.0
 40
41.25891039199043
 40
41.25891039199043
 40
41.25891039199043
 40
41.25891039199043
 40
44.2921689405612
 40
49.3380435244566
 40
53.74417316006344
 40
57.50776065193873
 40
61.31785407872286
 40
65.40285674138433
 40
69.46149270394262
 40
73.59957481727122
 40
78.16410956094178
 40
83.13093794425914
 40
87.20170946479516
 40
91.06530307957414
 40
94.97742606774175
 40
98.93136923174852
 40
102.895740774021
 40
102.895740774021
 40
102.895740774021
 40
102.895740774021
 10
590.542312734595
 20
-142.7829456298712
 30
0.0
 10
590.921783725688
 20
-142.4885105592012
 30
0.0
 10
591.856056350554
 20
-141.5200153353249
 30
0.0
 10
592.9402599603078
 20
-139.3056640472205
 30
0.0
 10
593.5761564036196
 20
-136.2081632861818
 30
0.0
 10
593.7271232678767
 20
-132.9334989210431
 30
0.0
 10
593.4852848638759
 20
-129.435993599935
 30
0.0
 10
592.8306916328411
 20
-125.6489493455467
 30
0.0
 10
591.7542776735914
 20
-121.7020957070296
 30
0.0
 10
590.2587038198794
 20
-117.7084049506094
 30
0.0
 10
588.2976753379593
 20
-113.7396243585349
 30
0.0
 10
586.0577243980792
 20
-110.3364255047145
 30
0.0
 10
583.7892974320628
 20
-107.7748896196907
 30
0.0
 10
581.6722171714463
 20
-106.0514224204535
 30
0.0
 10
579.61940034341
 20
-105.0173175730076
 30
0.0
 10
577.6706192173392
 20
-104.6993519293531
 30
0.0
 10
576.4978952904464
 20
-104.9832515237923
 30
0.0
 10
575.9549280120708
 20
-105.2470836078897
 30
0.0
  0
SPLINE
  5
1EE
330
1BF
100
AcDbEntity
  8
0
  6
Continuous
 62
     0
370
     0
100
AcDbSpline
210
0.0
220
0.0
230
1.0
 70
     8
 71
     3
 72
    14
 73
    10
 74
     0
 42
0.000000001
 43
0.0
 40
4.28097003653242
 40
4.28097003653242
 40
4.28097003653242
 40
4.28097003653242
 40
4.314007735145603
 40
8.630569001405853
 40
12.9489303802004
 40
17.26830506602635
 40
21.5879308077578
 40
25.90692386251014
 40
30.2240322176519
 40
30.2240322176519
 40
30.2240322176519
 40
30.2240322176519
 10
574.3696718902922
 20
-150.2540487165057
 30
0.0
 10
574.3721797692242
 20
-150.2532959926099
 30
0.0
 10
574.7013820474606
 20
-150.1534184957525
 30
0.0
 10
575.1019607067799
 20
-149.7505250750839
 30
0.0
 10
575.0678563100514
 20
-148.5994476682338
 30
0.0
 10
574.5295282911977
 20
-146.9411338140591
 30
0.0
 10
573.6014882692259
 20
-144.7954480576334
 30
0.0
 10
572.3975083793075
 20
-142.1566004846631
 30
0.0
 10
571.4889555359284
 20
-140.0450678289265
 30
0.0
 10
571.0393743077454
 20
-138.9029128132998
 30
0.0
  0
ARC
  5
1EF
330
1BF
100
AcDbEntity
  8
0
  6
Continuous
 62
     0
370
    30
100
AcDbCircle
 10
588.912169
 20
-98.562281
 30
0.0
 40
7.525980933513035
100
AcDbArc
 50
71.890904
 51
107.338645
  0
SPLINE
  5
1F0
330
1BF
100
AcDbEntity
  8
0
  6
Continuous
 62
     0
370
    30
100
AcDbSpline
210
0.0
220
0.0
230
1.0
 70
     8
 71
     3
 72
    15
 73
    11
 74
     0
 42
0.000000001
 43
0.0
 40
0.0
 40
0.0
 40
0.0
 40
0.0
 40
5.965039245771241
 40
13.46063014948987
 40
26.92700237050389
 40
38.21335226539927
 40
51.69061645779119
 40
65.15993329127151
 40
78.69892644584407
 40
84.46671863310037
 40
84.46671863310037
 40
84.46671863310037
 40
84.46671863310037
 10
605.5971871979137
 20
-148.3145127795857
 30
0.0
 10
606.5058292313154
 20
-148.0124434821213
 30
0.0
 10
608.4094921960611
 20
-146.8746895752933
 30
0.0
 10
611.2815397795684
 20
-142.7689092533362
 30
0.0
 10
612.8132024365495
 20
-134.9410715074143
 30
0.0
 10
611.7619027253054
 20
-123.1417542798468
 30
0.0
 10
608.0056324722806
 20
-110.6424482850515
 30
0.0
 10
601.6941712131846
 20
-99.22984182530888
 30
0.0
 10
595.7106409802961
 20
-93.31416560367418
 30
0.0
 10
592.2589661861184
 20
-91.70957611446298
 30
0.0
 10
591.2514486145404
 20
-91.40908867927482
 30
0.0
  0
LINE
  5
1F1
330
1BF
100
AcDbEntity
  8
0
  6
Continuous
 62
     0
370
    30
100
AcDbLine
 10
583.286691
 20
-92.502792
 30
0.0
 11
586.669286
 21
-91.378281
 31
0.0
  0
LINE
  5
1F2
330
1BF
100
AcDbEntity
  8
0
  6
Continuous
 62
     0
370
    30
100
AcDbLine
 10
602.214592
 20
-149.439024
 30
0.0
 11
605.597187
 21
-148.314513
 31
0.0
  0
SPLINE
  5
1F3
330
1BF
100
AcDbEntity
  8
0
  6
Continuous
 62
     0
370
    30
100
AcDbSpline
210
0.0
220
0.0
230
1.0
 70
     8
 71
     3
 72
    10
 73
     6
 74
     0
 42
0.000000001
 43
0.0
 40
71.69411303725792
 40
71.69411303725792
 40
71.69411303725792
 40
71.69411303725792
 40
74.25020445511183
 40
86.22131919848017
 40
93.68849215919319
 40
93.68849215919319
 40
93.68849215919319
 40
93.68849215919319
 10
576.8356014834768
 20
-102.9724971908268
 30
0.0
 10
576.9276601788993
 20
-102.3339729090993
 30
0.0
 10
577.5605671535075
 20
-98.82734657060654
 30
0.0
 10
579.4591484152505
 20
-94.69129565326062
 30
0.0
 10
582.1507438457431
 20
-92.88042620092548
 30
0.0
 10
583.2866908772507
 20
-92.50279154486014
 30
0.0
  0
SPLINE
  5
1F4
330
1BF
100
AcDbEntity
  8
0
  6
Continuous
 62
     0
370
    30
100
AcDbSpline
210
0.0
220
0.0
230
1.0
 70
     8
 71
     3
 72
    10
 73
     6
 74
     0
 42
0.000000001
 43
0.0
 40
0.0
 40
0.0
 40
0.0
 40
0.0
 40
7.674711091747321
 40
21.00088544315006
 40
21.99717647804474
 40
21.99717647804474
 40
21.99717647804474
 40
21.99717647804474
 10
602.2145924960395
 20
-149.439023772761
 30
0.0
 10
601.0472727685226
 20
-149.8270879796221
 30
0.0
 10
597.5394901499253
 20
-149.9764242337286
 30
0.0
 10
593.5155204222883
 20
-147.5860418838399
 30
0.0
 10
590.9557294629137
 20
-145.0936713654237
 30
0.0
 10
590.7780495629802
 20
-144.9158893153389
 30
0.0
  0
LINE
  5
1F5
330
1BF
100
AcDbEntity
  8
0
  6
Continuous
 62
     0
370
    30
100
AcDbLine
 10
575.883797
 20
-103.288915
 30
0.0
 11
585.35604
 21
-100.139959
 31
0.0
  0
LINE
  5
1F6
330
1BF
100
AcDbEntity
  8
0
  6
Continuous
 62
     0
370
    30
100
AcDbLine
 10
589.827351
 20
-145.23194
 30
0.0
 11
599.299594
 21
-142.082984
 31
0.0
  0
ARC
  5
1F7
330
1BF
100
AcDbEntity
  8
0
  6
Continuous
 62
     0
370
    30
100
AcDbCircle
 10
584.938456
 20
-123.722012
 30
0.0
 40
20.54329340354658
100
AcDbArc
 50
115.930427
 51
127.104216
  0
SPLINE
  5
1F8
330
1BF
100
AcDbEntity
  8
0
  6
Continuous
 62
     0
370
    30
100
AcDbSpline
210
0.0
220
0.0
230
1.0
 70
     8
 71
     3
 72
    14
 73
    10
 74
     0
 42
0.000000001
 43
0.0
 40
13.6044297906974
 40
13.6044297906974
 40
13.6044297906974
 40
13.6044297906974
 40
14.13528534509567
 40
16.54253681022637
 40
19.06350692698946
 40
19.9932028330919
 40
20.91061124165704
 40
21.59161666694385
 40
22.2605785184996
 40
22.2605785184996
 40
22.2605785184996
 40
22.2605785184996
 10
568.7339554180049
 20
-153.3517515802473
 30
0.0
 10
568.8101980327731
 20
-153.2780563501312
 30
0.0
 10
569.2565571223591
 20
-152.8613762509769
 30
0.0
 10
570.3076659322624
 20
-152.0620222828647
 30
0.0
 10
571.639535377358
 20
-151.3361831111647
 30
0.0
 10
572.6857673646034
 20
-150.8745285364089
 30
0.0
 10
573.3046060185924
 20
-150.6284401512877
 30
0.0
 10
573.8836653689889
 20
-150.4206278743646
 30
0.0
 10
574.2124348082328
 20
-150.3034103845719
 30
0.0
 10
574.404717064346
 20
-150.2429541230271
 30
0.0
  0
ARC
  5
1F9
330
1BF
100
AcDbEntity
  8
0
  6
Continuous
 62
     0
370
    30
100
AcDbCircle
 10
559.732778
 20
-199.567346
 30
0.0
 40
5.967978878597427
100
AcDbArc
 50
252.646573
 51
276.021727
  0
SPLINE
  5
1FA
330
1BF
100
AcDbEntity
  8
0
  6
Continuous
 62
     0
370
    30
100
AcDbSpline
210
0.0
220
0.0
230
1.0
 70
     8
 71
     3
 72
    20
 73
    16
 74
     0
 42
0.000000001
 43
0.0
 40
0.0
 40
0.0
 40
0.0
 40
0.0
 40
1.047707606574605
 40
2.035892580862269
 40
3.07626780945601
 40
4.390685258630576
 40
6.111903832337402
 40
7.149710037961846
 40
8.60785835287747
 40
10.34812770570024
 40
12.39562817371448
 40
14.93520174950485
 40
17.15892974165445
 40
19.38593771307186
 40
21.29313675540144
 40
21.29313675540144
 40
21.29313675540144
 40
21.29313675540144
 10
560.3622046863575
 20
-205.5022960584536
 30
0.0
 10
560.6688359850004
 20
-205.4651249838362
 30
0.0
 10
561.2324800951549
 20
-205.3619758087581
 30
0.0
 10
561.9774886568067
 20
-205.124595868802
 30
0.0
 10
562.6901858054077
 20
-204.7860762842665
 30
0.0
 10
563.4437305186101
 20
-204.2671913953207
 30
0.0
 10
564.0843199420475
 20
-203.6198766045142
 30
0.0
 10
564.6675150530552
 20
-202.8336212358251
 30
0.0
 10
565.1829353401713
 20
-201.9428488758758
 30
0.0
 10
565.7201554286651
 20
-200.7006395499148
 30
0.0
 10
566.2423779446208
 20
-199.0397882472463
 30
0.0
 10
566.6613829136971
 20
-197.0951984534129
 30
0.0
 10
566.9667085227871
 20
-194.9885833216032
 30
0.0
 10
567.1562633180965
 20
-193.008520316208
 30
0.0
 10
567.2362451947769
 20
-191.693044377992
 30
0.0
 10
567.2603189373226
 20
-191.0828638465641
 30
0.0
  0
ARC
  5
1FB
330
1BF
100
AcDbEntity
  8
0
  6
Continuous
 62
     0
370
    30
100
AcDbCircle
 10
-12400.738281
 20
356.282884
 30
0.0
 40
12979.54532875894
100
AcDbArc
 50
357.583039
 51
357.716368
  0
SPLINE
  5
1FC
330
1BF
100
AcDbEntity
  8
0
  6
Continuous
 62
     0
370
    30
100
AcDbSpline
210
0.0
220
0.0
230
1.0
 70
     8
 71
     3
 72
    19
 73
    15
 74
     0
 42
0.000000001
 43
0.0
 40
0.0
 40
0.0
 40
0.0
 40
0.0
 40
1.322346728761676
 40
2.615440763773758
 40
3.986646694628641
 40
5.359506892536622
 40
6.717083702978308
 40
8.07627088159795
 40
8.830291207169847
 40
9.588572432994546
 40
9.908631291914633
 40
10.09759605550834
 40
10.20068703674161
 40
10.25094331516483
 40
10.25094331516483
 40
10.25094331516483
 40
10.25094331516483
 10
568.4988829492423
 20
-160.905565776382
 30
0.0
 10
568.5280446034044
 20
-160.4879042311111
 30
0.0
 10
568.5192960229144
 20
-159.6404077197978
 30
0.0
 10
568.5740414733044
 20
-158.3728835938139
 30
0.0
 10
568.606706945781
 20
-157.0821232488658
 30
0.0
 10
568.6495159698246
 20
-155.7739806612126
 30
0.0
 10
568.6930698969604
 20
-154.4692744812526
 30
0.0
 10
568.7332663879075
 20
-153.3597787156707
 30
0.0
 10
568.7686171086118
 20
-152.4404108442974
 30
0.0
 10
568.7932070907721
 20
-151.8454635972129
 30
0.0
 10
568.8115503723144
 20
-151.4379553140683
 30
0.0
 10
568.8220021334677
 20
-151.2253138150076
 30
0.0
 10
568.8270195394241
 20
-151.1264274064002
 30
0.0
 10
568.8308911283482
 20
-151.0582453513999
 30
0.0
 10
568.8305528303536
 20
-151.0639389201961
 30
0.0
  0
SPLINE
  5
1FD
330
1BF
100
AcDbEntity
  8
0
  6
Continuous
 62
     0
370
    30
100
AcDbSpline
210
0.0
220
0.0
230
1.0
 70
     8
 71
     3
 72
    18
 73
    14
 74
     0
 42
0.000000001
 43
0.0
 40
0.0
 40
0.0
 40
0.0
 40
0.0
 40
0.2548032981246379
 40
0.4119828843739261
 40
0.6245918164328905
 40
1.438337901202941
 40
2.247560128458603
 40
3.474505074401673
 40
4.700153331876502
 40
6.055833778751765
 40
7.409192436775634
 40
8.780015980474403
 40
10.1981335622088
 40
10.1981335622088
 40
10.1981335622088
 40
10.1981335622088
 10
568.8246854369255
 20
-151.1578605963898
 30
0.0
 10
568.8289073901292
 20
-151.0924796421393
 30
0.0
 10
568.8156411679076
 20
-151.3506033407467
 30
0.0
 10
568.8078416001417
 20
-151.5221934069303
 30
0.0
 10
568.7896522478264
 20
-151.9255594595535
 30
0.0
 10
568.7661494527695
 20
-152.5036303141217
 30
0.0
 10
568.7309527283569
 20
-153.4224862324021
 30
0.0
 10
568.693454917261
 20
-154.4624293010056
 30
0.0
 10
568.6525475727667
 20
-155.6782706377561
 30
0.0
 10
568.6116638412991
 20
-156.9329432367613
 30
0.0
 10
568.577085255138
 20
-158.2369062268592
 30
0.0
 10
568.5218244755222
 20
-159.5544649829769
 30
0.0
 10
568.5301558637404
 20
-160.4576661572078
 30
0.0
 10
568.4988829492407
 20
-160.9055657764038
 30
0.0
  0
SPLINE
  5
1FE
330
1BF
100
AcDbEntity
  8
0
  6
Continuous
 62
     0
370
    30
100
AcDbSpline
210
0.0
220
0.0
230
1.0
 70
     8
 71
     3
 72
    11
 73
     7
 74
     0
 42
0.000000001
 43
0.0
 40
0.0
 40
0.0
 40
0.0
 40
0.0
 40
0.6700820467859798
 40
2.018362898078277
 40
3.141196090728124
 40
3.665724153074101
 40
3.665724153074101
 40
3.665724153074101
 40
3.665724153074101
 10
545.7448525967403
 20
-133.4712032135518
 30
0.0
 10
545.7292082535303
 20
-133.2486018431316
 30
0.0
 10
545.6872705041204
 20
-132.5807797282046
 30
0.0
 10
545.5849012463157
 20
-131.5372742215876
 30
0.0
 10
545.5024244722183
 20
-130.5484750225108
 30
0.0
 10
545.4920798118033
 20
-129.9998235941656
 30
0.0
 10
545.4889859350535
 20
-129.8303066366007
 30
0.0
  0
LINE
  5
1FF
330
1BF
100
AcDbEntity
  8
0
  6
Continuous
 62
     0
370
    30
100
AcDbLine
 10
549.496837
 20
-186.817855
 30
0.0
 11
545.744852
 21
-133.471203
 31
0.0
  0
SPLINE
  5
200
330
1BF
100
AcDbEntity
  8
0
  6
Continuous
 62
     0
370
    30
100
AcDbSpline
210
0.0
220
0.0
230
1.0
 70
     8
 71
     3
 72
    12
 73
     8
 74
     0
 42
0.000000001
 43
0.0
 40
0.0
 40
0.0
 40
0.0
 40
0.0
 40
5.656733396790492
 40
13.3246368875988
 40
21.73259972149613
 40
25.16023656443075
 40
27.65143495748925
 40
27.65143495748925
 40
27.65143495748925
 40
27.65143495748925
 10
545.4889776394216
 20
-129.8302570209605
 30
0.0
 10
545.4550000185367
 20
-127.9772305767017
 30
0.0
 10
545.6661182424627
 20
-123.6691031951121
 30
0.0
 10
547.1177901063428
 20
-117.4677701386772
 30
0.0
 10
549.5389599863056
 20
-113.3879137809138
 30
0.0
 10
551.9082897306175
 20
-111.5080787565703
 30
0.0
 10
553.0054917123919
 20
-111.0024998851928
 30
0.0
 10
553.4790126209004
 20
-110.8450826496944
 30
0.0
  0
SPLINE
  5
201
330
1BF
100
AcDbEntity
  8
0
  6
Continuous
 62
     0
370
    30
100
AcDbSpline
210
0.0
220
0.0
230
1.0
 70
     8
 71
     3
 72
    14
 73
    10
 74
     0
 42
0.000000001
 43
0.0
 40
0.0
 40
0.0
 40
0.0
 40
0.0
 40
7.77425252208033
 40
12.21814843626128
 40
15.07364705978728
 40
17.66333646733432
 40
20.93420305089699
 40
22.90973303594147
 40
24.62239419978098
 40
24.62239419978098
 40
24.62239419978098
 40
24.62239419978098
 10
549.496831219703
 20
-186.817853609447
 30
0.0
 10
549.688404676995
 20
-189.3850532041763
 30
0.0
 10
550.1721523406202
 20
-193.4865160482998
 30
0.0
 10
551.521161776172
 20
-198.2018545214574
 30
0.0
 10
552.7802808326236
 20
-200.8844933524442
 30
0.0
 10
554.1334863435561
 20
-202.8404682879504
 30
0.0
 10
555.5448699681413
 20
-204.1270610271986
 30
0.0
 10
556.8934195966019
 20
-204.8921520418588
 30
0.0
 10
557.6157418795433
 20
-205.1637589992544
 30
0.0
 10
557.956102246862
 20
-205.2646838713803
 30
0.0
  0
LINE
  5
202
330
1BF
100
AcDbEntity
  8
0
  6
Continuous
 62
     0
370
    30
100
AcDbLine
 10
587.235348
 20
-145.977535
 30
0.0
 11
574.404449
 21
-150.243044
 31
0.0
  0
LINE
  5
203
330
1BF
100
AcDbEntity
  8
0
  6
Continuous
 62
     0
370
    30
100
AcDbLine
 10
553.478847
 20
-110.845158
 30
0.0
 11
567.356139
 21
-106.231786
 31
0.0
  0
ELLIPSE
  5
204
330
1BF
100
AcDbEntity
  8
0
  6
Continuous
 62
     0
370
    30
100
AcDbEllipse
 10
556.09215
 20
-107.635899
 30
0.0
 11
9.463950718476982
 21
-28.46811614417503
 31
0.0
210
0.0
220
0.0
230
1.0
 40
0.453702
 41
1.468324492012798
 42
3.14159266062892
  0
ELLIPSE
  5
205
330
1BF
100
AcDbEntity
  8
0
  6
Continuous
 62
     0
370
     0
100
AcDbEllipse
 10
551.863907
 20
-109.041538
 30
0.0
 11
9.306218206502365
 21
-27.99364754177212
 31
0.0
210
0.0
220
0.0
230
1.0
 40
0.453702
 41
1.495437562541433
 42
4.25603519900392
  0
ELLIPSE
  5
206
330
1BF
100
AcDbEntity
  8
0
  6
Continuous
 62
     0
370
     0
100
AcDbEllipse
 10
551.863907
 20
-109.041538
 30
0.0
 11
9.306218206502365
 21
-27.99364754177212
 31
0.0
210
0.0
220
0.0
230
1.0
 40
0.453702
 41
5.168742775843711
 42
5.238117000684921
  0
ELLIPSE
  5
207
330
1BF
100
AcDbEntity
  8
0
  6
Continuous
 62
     0
370
     0
100
AcDbEllipse
 10
552.286731
 20
-108.900974
 30
0.0
 11
9.463950718476982
 21
-28.46811614417503
 31
0.0
210
0.0
220
0.0
230
1.0
 40
0.453702
 41
1.496695865582258
 42
3.141592660628909
  0
ELLIPSE
  5
208
330
1BF
100
AcDbEntity
  8
0
  6
Continuous
 62
     0
370
    30
100
AcDbEllipse
 10
376.823715
 20
-207.471842
 30
0.0
 11
8.561538149169328
 21
-2.451966683327484
 31
0.0
210
0.0
220
0.0
230
-1.0
 40
0.006786
 41
6.283080513445489
 42
8.86874617831175
  0
ELLIPSE
  5
209
330
1BF
100
AcDbEntity
  8
0
  6
Continuous
 62
     0
370
    30
100
AcDbEllipse
 10
376.823715
 20
-207.471842
 30
0.0
 11
8.561538149169328
 21
-2.451966683327484
 31
0.0
210
0.0
220
0.0
230
-1.0
 40
0.006786
 41
2.585560871132163
 42
3.141697475288384
  0
ELLIPSE
  5
20A
330
1BF
100
AcDbEntity
  8
0
  6
Continuous
 62
     0
370
    30
100
AcDbEllipse
 10
376.335231
 20
-209.177483
 30
0.0
 11
8.587881703544827
 21
-2.459511299320987
 31
0.0
210
0.0
220
0.0
230
-1.0
 40
0.006786
 41
6.283080513445798
 42
8.868746166930283
  0
ELLIPSE
  5
20B
330
1BF
100
AcDbEntity
  8
0
  6
Continuous
 62
     0
370
    30
100
AcDbEllipse
 10
376.335231
 20
-209.177483
 30
0.0
 11
8.587881703544827
 21
-2.459511299320987
 31
0.0
210
0.0
220
0.0
230
-1.0
 40
0.006786
 41
2.585560859750696
 42
3.141697475288781
  0
SPLINE
  5
20C
330
1BF
100
AcDbEntity
  8
0
  6
Continuous
 62
     0
370
     0
100
AcDbSpline
210
0.0
220
0.0
230
1.0
 70
    12
 71
     2
 72
    10
 73
     7
 74
     0
 42
0.000000001
 43
0.0
 40
0.3014954278865761
 40
0.3014954278865761
 40
0.3014954278865761
 40
0.5
 40
0.5
 40
0.75
 40
0.75
 40
0.80149549455603
 40
0.80149549455603
 40
0.80149549455603
 10
415.6324683758882
 20
-168.0299026549108
 30
0.0
 41
0.9041927266312657
 10
419.7271881412174
 20
-166.6686566606656
 30
0.0
 41
0.7674374276980488
 10
418.107261263869
 20
-157.654932583414
 30
0.0
 41
1.0
 10
415.8930305061307
 20
-145.3343362820018
 30
0.0
 41
0.7071067811865476
 10
409.3171946019045
 20
-143.3731219280417
 30
0.0
 41
1.0
 10
408.2979224302563
 20
-143.0691284521182
 30
0.0
 41
0.939669275380375
 10
407.430380008905
 20
-143.3575345800755
 30
0.0
 41
0.9041926347704401
  0
SPLINE
  5
20D
330
1BF
100
AcDbEntity
  8
0
  6
Continuous
 62
     0
370
     0
100
AcDbSpline
210
0.0
220
0.0
230
1.0
 70
    12
 71
     2
 72
    10
 73
     7
 74
     0
 42
0.000000001
 43
0.0
 40
0.15976124220704
 40
0.15976124220704
 40
0.15976124220704
 40
0.25
 40
0.25
 40
0.5
 40
0.5
 40
0.6597613003809846
 40
0.6597613003809846
 40
0.6597613003809846
 10
369.910284722581
 20
-184.3944782256322
 30
0.0
 41
0.8648786946512812
 10
369.9033526529674
 20
-184.4186827631069
 30
0.0
 41
0.8942787190731697
 10
371.7801447794433
 20
-184.9784278223591
 30
0.0
 41
1.0
 10
378.3559806836694
 20
-186.9396421763192
 30
0.0
 41
0.7071067811865476
 10
388.9836881257526
 20
-189.9349112945224
 30
0.0
 41
1.0
 10
394.8919198281552
 20
-191.6000628860425
 30
0.0
 41
0.8128279939583624
 10
394.9054197297124
 20
-191.5529156232234
 30
0.0
 41
0.8648787325577609
  0
SPLINE
  5
20E
330
1BF
100
AcDbEntity
  8
0
  6
Continuous
 62
     0
370
    30
100
AcDbSpline
210
0.0
220
0.0
230
1.0
 70
    12
 71
     2
 72
    10
 73
     7
 74
     0
 42
0.000000001
 43
0.0
 40
0.3402387567645975
 40
0.3402387567645975
 40
0.3402387567645975
 40
0.5
 40
0.5
 40
0.75
 40
0.75
 40
0.8402387577929723
 40
0.8402387577929723
 40
0.8402387577929723
 10
389.3537359432926
 20
-210.937744661206
 30
0.0
 41
0.8648786953213676
 10
389.3402334508333
 20
-210.9848911595593
 30
0.0
 41
0.8128280609085763
 10
383.43200434841
 20
-209.3197403008066
 30
0.0
 41
1.0
 10
372.8042969063269
 20
-206.3244711826035
 30
0.0
 41
0.7071067811865476
 10
366.2284610021007
 20
-204.3632568286433
 30
0.0
 41
1.0
 10
364.3516688756246
 20
-203.803511769391
 30
0.0
 41
0.8942787190731554
 10
364.3586009452385
 20
-203.7793072319165
 30
0.0
 41
0.8648786946512732
  0
SPLINE
  5
20F
330
1BF
100
AcDbEntity
  8
0
  6
Continuous
 62
     0
370
    30
100
AcDbSpline
210
0.0
220
0.0
230
1.0
 70
     8
 71
     3
 72
    16
 73
    12
 74
     0
 42
0.000000001
 43
0.0
 40
42.60682616313056
 40
42.60682616313056
 40
42.60682616313056
 40
42.60682616313056
 40
44.06199992619337
 40
46.56357800141885
 40
49.85395357508773
 40
52.67182922008661
 40
55.54281710901827
 40
58.3041938143412
 40
60.97053979281348
 40
63.65443771829271
 40
65.26403441016816
 40
65.26403441016816
 40
65.26403441016816
 40
65.26403441016816
 10
558.079192429409
 20
-109.3158183080339
 30
0.0
 10
557.9640941203409
 20
-108.8504328427302
 30
0.0
 10
557.6158877347325
 20
-107.5834430128617
 30
0.0
 10
556.8127472603258
 20
-105.2945882526185
 30
0.0
 10
555.611342428316
 20
-102.7471831933184
 30
0.0
 10
554.1603490920925
 20
-100.4364210147231
 30
0.0
 10
552.6860382127834
 20
-98.66749894937644
 30
0.0
 10
551.2012869663947
 20
-97.40759049972115
 30
0.0
 10
549.7793978635658
 20
-96.67984654874047
 30
0.0
 10
548.6356034270391
 20
-96.5078228124053
 30
0.0
 10
547.9916288547123
 20
-96.62910179756133
 30
0.0
 10
547.7606920431341
 20
-96.70607542930482
 30
0.0
  0
SPLINE
  5
210
330
1BF
100
AcDbEntity
  8
0
  6
Continuous
 62
     0
370
    30
100
AcDbSpline
210
0.0
220
0.0
230
1.0
 70
     8
 71
     3
 72
    15
 73
    11
 74
     0
 42
0.000000001
 43
0.0
 40
0.0
 40
0.0
 40
0.0
 40
0.0
 40
1.832489527009191
 40
4.916188281435526
 40
11.72094229620749
 40
15.94555116662898
 40
22.40521147240184
 40
27.79631399397768
 40
33.03912506319185
 40
33.40492124786266
 40
33.40492124786266
 40
33.40492124786266
 40
33.40492124786266
 10
542.8227804772102
 20
-80.43285784290845
 30
0.0
 10
542.5430840769897
 20
-80.52584021881682
 30
0.0
 10
541.8093106633844
 20
-80.8258838773146
 30
0.0
 10
540.1829278954688
 20
-81.85745727325357
 30
0.0
 10
538.5720695078282
 20
-83.82034499678974
 30
0.0
 10
537.1116130360119
 20
-87.1097200450514
 30
0.0
 10
536.2598739633086
 20
-90.82518885181395
 30
0.0
 10
535.9572704881161
 20
-95.43587665395765
 30
0.0
 10
536.1139837610617
 20
-98.69266527195461
 30
0.0
 10
536.2870012503132
 20
-100.4046447265145
 30
0.0
 10
536.2986802146519
 20
-100.5165109417538
 30
0.0
  0
SPLINE
  5
211
330
1BF
100
AcDbEntity
  8
0
  6
Continuous
 62
     0
370
    30
100
AcDbSpline
210
0.0
220
0.0
230
1.0
 70
     8
 71
     3
 72
     9
 73
     5
 74
     0
 42
0.000000001
 43
0.0
 40
31.24209860162456
 40
31.24209860162456
 40
31.24209860162456
 40
31.24209860162456
 40
31.55571435237429
 40
33.40492902050723
 40
33.40492902050723
 40
33.40492902050723
 40
33.40492902050723
 10
545.5419575138436
 20
-126.858368203705
 30
0.0
 10
545.4907535830789
 20
-126.7798627233267
 30
0.0
 10
545.1384647098731
 20
-126.2361983441681
 30
0.0
 10
544.7920708256163
 20
-125.6771628278409
 30
0.0
 10
544.5007579701953
 20
-125.1888825442612
 30
0.0
  0
LINE
  5
212
330
1BF
100
AcDbEntity
  8
0
  6
Continuous
 62
     0
370
    30
100
AcDbLine
 10
542.82278
 20
-80.432858
 30
0.0
 11
546.6282
 21
-79.167783
 31
0.0
  0
LINE
  5
213
330
1BF
100
AcDbEntity
  8
0
  6
Continuous
 62
     0
370
    30
100
AcDbLine
 10
415.632471
 20
-168.029902
 30
0.0
 11
545.712881
 21
-124.785924
 31
0.0
  0
LINE
  5
214
330
1BF
100
AcDbEntity
  8
0
  6
Continuous
 62
     0
370
    30
100
AcDbLine
 10
407.43038
 20
-143.357535
 30
0.0
 11
547.762862
 21
-96.705354
 31
0.0
  0
LINE
  5
215
330
1BF
100
AcDbEntity
  8
0
  6
Continuous
 62
     0
370
    30
100
AcDbLine
 10
369.910285
 20
-184.394478
 30
0.0
 11
364.358601
 21
-203.779307
 31
0.0
  0
LINE
  5
216
330
1BF
100
AcDbEntity
  8
0
  6
Continuous
 62
     0
370
    30
100
AcDbLine
 10
394.90542
 20
-191.552916
 30
0.0
 11
389.353736
 21
-210.937745
 31
0.0
  0
SPLINE
  5
217
330
1BF
100
AcDbEntity
  8
0
  6
Continuous
 62
     0
370
    30
100
AcDbSpline
210
0.0
220
0.0
230
1.0
 70
     8
 71
     3
 72
    15
 73
    11
 74
     0
 42
0.000000001
 43
0.0
 40
0.0
 40
0.0
 40
0.0
 40
0.0
 40
2.562187455706899
 40
6.766712600699846
 40
12.16748339813854
 40
17.66859455372979
 40
23.19424339113517
 40
28.12191395078947
 40
32.418602568252
 40
35.25505435334962
 40
35.25505435334962
 40
35.25505435334962
 40
35.25505435334962
 10
415.6324707103805
 20
-168.0299018788324
 30
0.0
 10
414.9933583016909
 20
-168.242368635485
 30
0.0
 10
413.3034492338063
 20
-168.8815232041149
 30
0.0
 10
410.2856295155308
 20
-170.4022448346655
 30
0.0
 10
406.6601611760818
 20
-172.9368761900382
 30
0.0
 10
403.0108032559666
 20
-176.4404088644177
 30
0.0
 10
399.8899539258604
 20
-180.4882335587163
 30
0.0
 10
397.4784826973828
 20
-184.6913403125234
 30
0.0
 10
395.9017170161334
 20
-188.3806577846034
 30
0.0
 10
395.1656351930379
 20
-190.6443205979266
 30
0.0
 10
394.9054197203645
 20
-191.5529156558667
 30
0.0
  0
SPLINE
  5
218
330
1BF
100
AcDbEntity
  8
0
  6
Continuous
 62
     0
370
    30
100
AcDbSpline
210
0.0
220
0.0
230
1.0
 70
     8
 71
     3
 72
    16
 73
    12
 74
     0
 42
0.000000001
 43
0.0
 40
0.0
 40
0.0
 40
0.0
 40
0.0
 40
4.441974139427256
 40
11.67840490900306
 40
15.80221808295304
 40
23.65519081907557
 40
35.6885989367232
 40
43.01547386375491
 40
47.53467333048339
 40
54.63414201444174
 40
59.3155492401182
 40
59.3155492401182
 40
59.3155492401182
 40
59.3155492401182
 10
407.4303800089051
 20
-143.3575345800755
 30
0.0
 10
406.1164436386217
 20
-143.7943400584132
 30
0.0
 10
402.6972985887514
 20
-145.0889062762033
 30
0.0
 10
398.2387320995657
 20
-147.3406445470148
 30
0.0
 10
393.0778243578624
 20
-150.6292369584782
 30
0.0
 10
387.0152838206102
 20
-155.4293083267505
 30
0.0
 10
381.0182915435115
 20
-162.0338464671912
 30
0.0
 10
376.6646028510899
 20
-168.6191421325032
 30
0.0
 10
373.6904865987221
 20
-174.1598795265794
 30
0.0
 10
371.5552345975212
 20
-179.1569075370259
 30
0.0
 10
370.3398023907203
 20
-182.8947302418895
 30
0.0
 10
369.9102847225943
 20
-184.394478225586
 30
0.0
  0
SPLINE
  5
219
330
1BF
100
AcDbEntity
  8
0
  6
Continuous
 62
     0
370
    30
100
AcDbSpline
210
0.0
220
0.0
230
1.0
 70
     8
 71
     3
 72
    24
 73
    20
 74
     0
 42
0.000000001
 43
0.0
 40
0.0
 40
0.0
 40
0.0
 40
0.0
 40
0.8383061391593041
 40
2.25836487108075
 40
4.005531951204261
 40
5.19578370595179
 40
6.100134431174542
 40
6.707751185218054
 40
7.318511797992883
 40
7.931924569788747
 40
8.23952279619641
 40
8.693228180075076
 40
8.950611531098154
 40
9.116112553506166
 40
9.231411754727802
 40
9.381317943207
 40
9.520305412147888
 40
9.58535400621368
 40
9.665425037186289
 40
9.665425037186289
 40
9.665425037186289
 40
9.665425037186289
 10
367.7474613873246
 20
-206.7184711498284
 30
0.0
 10
367.8935182618672
 20
-206.9566012599638
 30
0.0
 10
368.3162945668569
 20
-207.5805742274304
 30
0.0
 10
369.1871386833643
 20
-208.596560323534
 30
0.0
 10
370.2783059642314
 20
-209.5608096530045
 30
0.0
 10
371.326398231657
 20
-210.2985853070862
 30
0.0
 10
372.098908725324
 20
-210.7626351044692
 30
0.0
 10
372.7229158892613
 20
-211.096529352311
 30
0.0
 10
373.272180055095
 20
-211.3635240017072
 30
0.0
 10
373.739654369228
 20
-211.5691225599558
 30
0.0
 10
374.1641594571138
 20
-211.7417260766142
 30
0.0
 10
374.4816200250792
 20
-211.8623292978307
 30
0.0
 10
374.7568979965879
 20
-211.9602058209205
 30
0.0
 10
374.9266040772725
 20
-212.018122581084
 30
0.0
 10
375.0627464100431
 20
-212.0633018885909
 30
0.0
 10
375.190665650453
 20
-212.1046190799783
 30
0.0
 10
375.3027426969004
 20
-212.1397304919865
 30
0.0
 10
375.3913712752684
 20
-212.1668825268828
 30
0.0
 10
375.4357515233576
 20
-212.1802476932957
 30
0.0
 10
375.4580715111235
 20
-212.1869046030329
 30
0.0
  0
SPLINE
  5
21A
330
1BF
100
AcDbEntity
  8
0
  6
Continuous
 62
     0
370
    30
100
AcDbSpline
210
0.0
220
0.0
230
1.0
 70
     8
 71
     3
 72
    24
 73
    20
 74
     0
 42
0.000000001
 43
0.0
 40
0.0
 40
0.0
 40
0.0
 40
0.0
 40
1.119866057231734
 40
2.546234698689226
 40
4.301286565872163
 40
5.797685406635911
 40
6.707751183790748
 40
7.318511795356162
 40
7.624907233356073
 40
7.93192456520059
 40
8.239522790622072
 40
8.693229552414952
 40
8.9506130517115
 40
9.116113904769218
 40
9.231412847630194
 40
9.381318470958751
 40
9.52030526952492
 40
9.608991108172823
 40
9.682731473872627
 40
9.682731473872627
 40
9.682731473872627
 40
9.682731473872627
 10
384.922753703802
 20
-211.6373588330651
 30
0.0
 10
384.5889031051229
 20
-211.8039158068487
 30
0.0
 10
383.8062617535751
 20
-212.136865885538
 30
0.0
 10
382.4247165938267
 20
-212.5311736362071
 30
0.0
 10
380.8774949153927
 20
-212.7533593110695
 30
0.0
 10
379.4888532577323
 20
-212.7856582665835
 30
0.0
 10
378.4842898786224
 20
-212.7284366351453
 30
0.0
 10
377.8784747224204
 20
-212.6643516588379
 30
0.0
 10
377.4740499591928
 20
-212.6098513825627
 30
0.0
 10
377.1706104639891
 20
-212.5630984995337
 30
0.0
 10
376.8197264121681
 20
-212.5022624798078
 30
0.0
 10
376.4865510391277
 20
-212.436528092481
 30
0.0
 10
376.2011944459834
 20
-212.3738426428486
 30
0.0
 10
376.0265573125837
 20
-212.3331418299445
 30
0.0
 10
375.8871404946204
 20
-212.2994027914442
 30
0.0
 10
375.7567367897333
 20
-212.2667381930455
 30
0.0
 10
375.635494527745
 20
-212.2352291723454
 30
0.0
 10
375.5406315907721
 20
-212.2098598004494
 30
0.0
 10
375.491519068021
 20
-212.1964390349905
 30
0.0
 10
375.472153290463
 20
-212.1910951293087
 30
0.0
  0
LINE
  5
21B
330
1BF
100
AcDbEntity
  8
0
  6
Continuous
 62
     0
370
    30
100
AcDbLine
 10
375.458111
 20
-212.186916
 30
0.0
 11
375.472153
 21
-212.191095
 31
0.0
  0
LINE
  5
21C
330
1BF
100
AcDbEntity
  8
0
  6
Continuous
 62
     0
370
    30
100
AcDbLine
 10
368.262179
 20
-205.019869
 30
0.0
 11
367.747351
 21
-206.717966
 31
0.0
  0
LINE
  5
21D
330
1BF
100
AcDbEntity
  8
0
  6
Continuous
 62
     0
370
    30
100
AcDbLine
 10
385.385255
 20
-209.923802
 30
0.0
 11
384.923115
 21
-211.636989
 31
0.0
  0
LINE
  5
21E
330
1BF
100
AcDbEntity
  8
0
  6
Continuous
 62
     0
370
    30
100
AcDbLine
 10
385.384959
 20
-209.924138
 30
0.0
 11
385.450574
 21
-209.886404
 31
0.0
  0
LINE
  5
21F
330
1BF
100
AcDbEntity
  8
0
  6
Continuous
 62
     0
370
    30
100
AcDbLine
 10
368.262253
 20
-205.02031
 30
0.0
 11
368.226561
 21
-204.953563
 31
0.0
  0
ENDBLK
  5
221
330
1BF
100
AcDbEntity
  8
0
100
AcDbBlockEnd
  0
ENDSEC
  0
SECTION
  2
ENTITIES
  0
INSERT
  5
C6
330
1F
100
AcDbEntity
  8
0
  6
Continuous
 62
     7
370
     0
100
AcDbBlockReference
  2
a
 10
99.377304
 20
78.291603
 30
0.0
  0
INSERT
  5
11F
330
1F
100
AcDbEntity
  8
0
  6
Continuous
 62
     7
370
     0
100
AcDbBlockReference
  2
b
 10
-53.160736
 20
0.000015
 30
0.0
  0
INSERT
  5
16E
330
1F
100
AcDbEntity
  8
0
  6
Continuous
 62
     7
370
     0
100
AcDbBlockReference
  2
c
 10
139.630219
 20
0.000015
 30
0.0
  0
INSERT
  5
1BE
330
1F
100
AcDbEntity
  8
0
  6
Continuous
 62
     7
370
     0
100
AcDbBlockReference
  2
d
 10
0.0
 20
-38.058929
 30
0.0
  0
INSERT
  5
222
330
1F
100
AcDbEntity
  8
0
  6
Continuous
 62
     7
370
     0
100
AcDbBlockReference
  2
e
 10
351.470886
 20
-223.378296
 30
0.0
  0
ENDSEC
  0
SECTION
  2
OBJECTS
  0
DICTIONARY
  5
C
330
0
100
AcDbDictionary
281
     1
  3
ACAD_GROUP
350
D
  3
ACAD_LAYOUT
350
1A
  3
ACAD_MATERIAL
350
43
  3
ACAD_MLEADERSTYLE
350
6B
  3
ACAD_MLINESTYLE
350
17
  3
ACAD_PLOTSETTINGS
350
19
  3
ACAD_PLOTSTYLENAME
350
E
  3
ACAD_SCALELIST
350
47
  3
ACAD_TABLESTYLE
350
69
  3
ACAD_VISUALSTYLE
350
2A
  3
AcDbVariableDictionary
350
223
  0
DICTIONARY
  5
22E
330
8
100
AcDbDictionary
280
     1
281
     1
  3
ACAD_XREC_ROUNDTRIP
360
22F
  0
DICTIONARY
  5
D
102
{ACAD_REACTORS
330
C
102
}
330
C
100
AcDbDictionary
281
     1
  0
DICTIONARY
  5
1A
102
{ACAD_REACTORS
330
C
102
}
330
C
100
AcDbDictionary
281
     1
  3
Layout1
350
1E
  3
Layout2
350
26
  3
Model
350
22
  0
DICTIONARY
  5
43
102
{ACAD_REACTORS
330
C
102
}
330
C
100
AcDbDictionary
281
     1
  3
ByBlock
350
45
  3
ByLayer
350
44
  3
Global
350
46
  0
DICTIONARY
  5
6B
102
{ACAD_REACTORS
330
C
102
}
330
C
100
AcDbDictionary
281
     1
  3
Standard
350
6C
  0
DICTIONARY
  5
17
102
{ACAD_REACTORS
330
C
102
}
330
C
100
AcDbDictionary
281
     1
  3
Standard
350
18
  0
DICTIONARY
  5
19
102
{ACAD_REACTORS
330
C
102
}
330
C
100
AcDbDictionary
281
     1
  0
ACDBDICTIONARYWDFLT
  5
E
102
{ACAD_REACTORS
330
C
102
}
330
C
100
AcDbDictionary
281
     1
  3
Normal
350
F
100
AcDbDictionaryWithDefault
340
F
  0
DICTIONARY
  5
47
102
{ACAD_REACTORS
330
C
102
}
330
C
100
AcDbDictionary
281
     1
  3
A0
350
48
  3
A1
350
49
  3
A2
350
4A
  3
A3
350
4B
  3
A4
350
4C
  3
A5
350
4D
  3
A6
350
4E
  3
A7
350
4F
  3
A8
350
50
  3
A9
350
51
  3
B0
350
52
  3
B1
350
53
  3
B2
350
54
  3
B3
350
55
  3
B4
350
56
  3
B5
350
57
  3
B6
350
58
  3
B7
350
59
  3
B8
350
5A
  3
B9
350
5B
  3
C0
350
5C
  3
C1
350
5D
  3
C2
350
5E
  3
C3
350
5F
  3
C4
350
60
  3
C5
350
61
  3
C6
350
62
  3
C7
350
63
  3
C8
350
64
  3
C9
350
65
  3
D0
350
66
  3
D1
350
67
  3
D2
350
68
  0
DICTIONARY
  5
69
102
{ACAD_REACTORS
330
C
102
}
330
C
100
AcDbDictionary
281
     1
  3
Standard
350
6A
  0
DICTIONARY
  5
2A
102
{ACAD_REACTORS
330
C
102
}
330
C
100
AcDbDictionary
281
     1
  3
2dWireframe
350
2F
  3
Basic
350
32
  3
Brighten
350
36
  3
ColorChange
350
3A
  3
Conceptual
350
34
  3
Dim
350
35
  3
EdgeColorOff
350
3D
  3
Facepattern
350
39
  3
Flat
350
2B
  3
FlatWithEdges
350
2C
  3
Gouraud
350
2D
  3
GouraudWithEdges
350
2E
  3
Hidden
350
31
  3
JitterOff
350
3B
  3
Linepattern
350
38
  3
OverhangOff
350
3C
  3
Realistic
350
33
  3
Shaded
350
42
  3
Shaded with edges
350
41
  3
Shades of Gray
350
3E
  3
Sketchy
350
3F
  3
Thicken
350
37
  3
Wireframe
350
30
  3
X-Ray
350
40
  0
DICTIONARY
  5
223
102
{ACAD_REACTORS
330
C
102
}
330
C
100
AcDbDictionary
281
     1
  3
CANNOSCALE
350
230
  3
CENTEREXE
350
22A
  3
CENTERLTYPEFILE
350
22B
  3
CMLEADERSTYLE
350
225
  3
CTABLESTYLE
350
224
  3
DIMASSOC
350
22C
  3
HIDETEXT
350
22D
  3
MSLTSCALE
350
231
  3
PSOLHEIGHT
350
227
  3
PSOLWIDTH
350
226
  0
XRECORD
  5
22F
102
{ACAD_REACTORS
330
22E
102
}
330
22E
100
AcDbXrecord
280
     1
102
VTR_0.000_0.000_1.000_1.000_VISUALSTYLE
340
2F
102
VTR_0.000_0.000_1.000_1.000_GRIDDISPLAY
 70
     3
102
VTR_0.000_0.000_1.000_1.000_GRIDMAJOR
 70
     5
102
VTR_0.000_0.000_1.000_1.000_DEFAULTLIGHTING
280
     1
102
VTR_0.000_0.000_1.000_1.000_DEFAULTLIGHTINGTYPE
 70
     1
102
VTR_0.000_0.000_1.000_1.000_BRIGHTNESS
141
0.0
102
VTR_0.000_0.000_1.000_1.000_CONTRAST
142
0.0
  0
LAYOUT
  5
1E
102
{ACAD_REACTORS
330
1A
102
}
330
1A
100
AcDbPlotSettings
  1

  2
none_device
  4

  6

 40
0.0
 41
0.0
 42
0.0
 43
0.0
 44
0.0
 45
0.0
 46
0.0
 47
0.0
 48
0.0
 49
0.0
140
0.0
141
0.0
142
1.0
143
1.0
 70
   688
 72
     1
 73
     0
 74
     5
  7

 75
    16
147
1.0
148
0.0
149
0.0
100
AcDbLayout
  1
Layout1
 70
     1
 71
     1
 10
0.0
 20
0.0
 11
420.0
 21
297.0
 12
0.0
 22
0.0
 32
0.0
 14
1.000000E+20
 24
1.000000E+20
 34
1.000000E+20
 15
-1.000000E+20
 25
-1.000000E+20
 35
-1.000000E+20
146
0.0
 13
0.0
 23
0.0
 33
0.0
 16
1.0
 26
0.0
 36
0.0
 17
0.0
 27
1.0
 37
0.0
 76
     0
330
1B
  0
LAYOUT
  5
26
102
{ACAD_REACTORS
330
1A
102
}
330
1A
100
AcDbPlotSettings
  1

  2
none_device
  4

  6

 40
0.0
 41
0.0
 42
0.0
 43
0.0
 44
0.0
 45
0.0
 46
0.0
 47
0.0
 48
0.0
 49
0.0
140
0.0
141
0.0
142
1.0
143
1.0
 70
   688
 72
     1
 73
     0
 74
     5
  7

 75
    16
147
1.0
148
0.0
149
0.0
100
AcDbLayout
  1
Layout2
 70
     1
 71
     2
 10
0.0
 20
0.0
 11
0.0
 21
0.0
 12
0.0
 22
0.0
 32
0.0
 14
0.0
 24
0.0
 34
0.0
 15
0.0
 25
0.0
 35
0.0
146
0.0
 13
0.0
 23
0.0
 33
0.0
 16
1.0
 26
0.0
 36
0.0
 17
0.0
 27
1.0
 37
0.0
 76
     0
330
23
  0
LAYOUT
  5
22
102
{ACAD_REACTORS
330
1A
102
}
330
1A
100
AcDbPlotSettings
  1

  2
none_device
  4
Letter_(8.50_x_11.00_Inches)
  6

 40
6.35
 41
6.35
 42
6.350005
 43
6.350005
 44
215.9
 45
279.4
 46
0.0
 47
0.0
 48
0.0
 49
0.0
140
0.0
141
0.0
142
1.0
143
1.0
 70
  1712
 72
     1
 73
     0
 74
     0
  7

 75
     0
147
1.0
148
0.0
149
0.0
100
AcDbLayout
  1
Model
 70
     1
 71
     0
 10
-307.364716
 20
-303.82074
 11
634.478821
 21
185.805542
 12
0.0
 22
0.0
 32
0.0
 14
-307.364716
 24
-303.82074
 34
0.0
 15
634.478821
 25
185.805542
 35
0.0
146
0.0
 13
0.0
 23
0.0
 33
0.0
 16
1.0
 26
0.0
 36
0.0
 17
0.0
 27
1.0
 37
0.0
 76
     0
330
1F
331
29
  0
MATERIAL
  5
45
102
{ACAD_REACTORS
330
43
102
}
102
{ACAD_XDICTIONARY
360
264
102
}
330
43
100
AcDbMaterial
  1
ByBlock
  0
MATERIAL
  5
44
102
{ACAD_REACTORS
330
43
102
}
102
{ACAD_XDICTIONARY
360
262
102
}
330
43
100
AcDbMaterial
  1
ByLayer
  0
MATERIAL
  5
46
102
{ACAD_REACTORS
330
43
102
}
102
{ACAD_XDICTIONARY
360
266
102
}
330
43
100
AcDbMaterial
  1
Global
  0
MLEADERSTYLE
  5
6C
102
{ACAD_REACTORS
330
6B
102
}
102
{ACAD_XDICTIONARY
360
269
102
}
330
6B
100
AcDbMLeaderStyle
170
     2
171
     1
172
     0
 90
        2
 40
0.0
 41
0.0
173
     1
 91
-1056964608
340
14
 92
       -2
290
     1
 42
2.0
291
     1
 43
8.0
  3
Standard
341
0
 44
4.0
300

342
11
174
     1
178
     6
175
     1
176
     0
 93
-1056964608
 45
4.0
292
     0
297
     0
 46
4.0
343
0
 94
-1056964608
 47
1.0
 49
1.0
140
1.0
293
     1
141
0.0
294
     1
177
     0
142
1.0
295
     0
296
     0
143
3.75
1001
ACAD_MLEADERVER
1070
     2
  0
MLINESTYLE
  5
18
102
{ACAD_REACTORS
330
17
102
}
330
17
100
AcDbMlineStyle
  2
Standard
 70
     0
  3

 62
   256
 51
90.0
 52
90.0
 71
     2
 49
0.5
 62
   256
  6
BYLAYER
 49
-0.5
 62
   256
  6
BYLAYER
  0
ACDBPLACEHOLDER
  5
F
102
{ACAD_REACTORS
330
E
102
}
330
E
  0
SCALE
  5
48
102
{ACAD_REACTORS
330
47
102
}
330
47
100
AcDbScale
 70
     0
300
1:1
140
1.0
141
1.0
290
     1
  0
SCALE
  5
49
102
{ACAD_REACTORS
330
47
102
}
330
47
100
AcDbScale
 70
     0
300
1:2
140
1.0
141
2.0
290
     0
  0
SCALE
  5
4A
102
{ACAD_REACTORS
330
47
102
}
330
47
100
AcDbScale
 70
     0
300
1:4
140
1.0
141
4.0
290
     0
  0
SCALE
  5
4B
102
{ACAD_REACTORS
330
47
102
}
330
47
100
AcDbScale
 70
     0
300
1:5
140
1.0
141
5.0
290
     0
  0
SCALE
  5
4C
102
{ACAD_REACTORS
330
47
102
}
330
47
100
AcDbScale
 70
     0
300
1:8
140
1.0
141
8.0
290
     0
  0
SCALE
  5
4D
102
{ACAD_REACTORS
330
47
102
}
330
47
100
AcDbScale
 70
     0
300
1:10
140
1.0
141
10.0
290
     0
  0
SCALE
  5
4E
102
{ACAD_REACTORS
330
47
102
}
330
47
100
AcDbScale
 70
     0
300
1:16
140
1.0
141
16.0
290
     0
  0
SCALE
  5
4F
102
{ACAD_REACTORS
330
47
102
}
330
47
100
AcDbScale
 70
     0
300
1:20
140
1.0
141
20.0
290
     0
  0
SCALE
  5
50
102
{ACAD_REACTORS
330
47
102
}
330
47
100
AcDbScale
 70
     0
300
1:30
140
1.0
141
30.0
290
     0
  0
SCALE
  5
51
102
{ACAD_REACTORS
330
47
102
}
330
47
100
AcDbScale
 70
     0
300
1:40
140
1.0
141
40.0
290
     0
  0
SCALE
  5
52
102
{ACAD_REACTORS
330
47
102
}
330
47
100
AcDbScale
 70
     0
300
1:50
140
1.0
141
50.0
290
     0
  0
SCALE
  5
53
102
{ACAD_REACTORS
330
47
102
}
330
47
100
AcDbScale
 70
     0
300
1:100
140
1.0
141
100.0
290
     0
  0
SCALE
  5
54
102
{ACAD_REACTORS
330
47
102
}
330
47
100
AcDbScale
 70
     0
300
2:1
140
2.0
141
1.0
290
     0
  0
SCALE
  5
55
102
{ACAD_REACTORS
330
47
102
}
330
47
100
AcDbScale
 70
     0
300
4:1
140
4.0
141
1.0
290
     0
  0
SCALE
  5
56
102
{ACAD_REACTORS
330
47
102
}
330
47
100
AcDbScale
 70
     0
300
8:1
140
8.0
141
1.0
290
     0
  0
SCALE
  5
57
102
{ACAD_REACTORS
330
47
102
}
330
47
100
AcDbScale
 70
     0
300
10:1
140
10.0
141
1.0
290
     0
  0
SCALE
  5
58
102
{ACAD_REACTORS
330
47
102
}
330
47
100
AcDbScale
 70
     0
300
100:1
140
100.0
141
1.0
290
     0
  0
SCALE
  5
59
102
{ACAD_REACTORS
330
47
102
}
330
47
100
AcDbScale
 70
     0
300
1/128" = 1'-0"
140
0.007812
141
12.0
290
     0
  0
SCALE
  5
5A
102
{ACAD_REACTORS
330
47
102
}
330
47
100
AcDbScale
 70
     0
300
1/64" = 1'-0"
140
0.015625
141
12.0
290
     0
  0
SCALE
  5
5B
102
{ACAD_REACTORS
330
47
102
}
330
47
100
AcDbScale
 70
     0
300
1/32" = 1'-0"
140
0.03125
141
12.0
290
     0
  0
SCALE
  5
5C
102
{ACAD_REACTORS
330
47
102
}
330
47
100
AcDbScale
 70
     0
300
1/16" = 1'-0"
140
0.0625
141
12.0
290
     0
  0
SCALE
  5
5D
102
{ACAD_REACTORS
330
47
102
}
330
47
100
AcDbScale
 70
     0
300
3/32" = 1'-0"
140
0.09375
141
12.0
290
     0
  0
SCALE
  5
5E
102
{ACAD_REACTORS
330
47
102
}
330
47
100
AcDbScale
 70
     0
300
1/8" = 1'-0"
140
0.125
141
12.0
290
     0
  0
SCALE
  5
5F
102
{ACAD_REACTORS
330
47
102
}
330
47
100
AcDbScale
 70
     0
300
3/16" = 1'-0"
140
0.1875
141
12.0
290
     0
  0
SCALE
  5
60
102
{ACAD_REACTORS
330
47
102
}
330
47
100
AcDbScale
 70
     0
300
1/4" = 1'-0"
140
0.25
141
12.0
290
     0
  0
SCALE
  5
61
102
{ACAD_REACTORS
330
47
102
}
330
47
100
AcDbScale
 70
     0
300
3/8" = 1'-0"
140
0.375
141
12.0
290
     0
  0
SCALE
  5
62
102
{ACAD_REACTORS
330
47
102
}
330
47
100
AcDbScale
 70
     0
300
1/2" = 1'-0"
140
0.5
141
12.0
290
     0
  0
SCALE
  5
63
102
{ACAD_REACTORS
330
47
102
}
330
47
100
AcDbScale
 70
     0
300
3/4" = 1'-0"
140
0.75
141
12.0
290
     0
  0
SCALE
  5
64
102
{ACAD_REACTORS
330
47
102
}
330
47
100
AcDbScale
 70
     0
300
1" = 1'-0"
140
1.0
141
12.0
290
     0
  0
SCALE
  5
65
102
{ACAD_REACTORS
330
47
102
}
330
47
100
AcDbScale
 70
     0
300
1-1/2" = 1'-0"
140
1.5
141
12.0
290
     0
  0
SCALE
  5
66
102
{ACAD_REACTORS
330
47
102
}
330
47
100
AcDbScale
 70
     0
300
3" = 1'-0"
140
3.0
141
12.0
290
     0
  0
SCALE
  5
67
102
{ACAD_REACTORS
330
47
102
}
330
47
100
AcDbScale
 70
     0
300
6" = 1'-0"
140
6.0
141
12.0
290
     0
  0
SCALE
  5
68
102
{ACAD_REACTORS
330
47
102
}
330
47
100
AcDbScale
 70
     0
300
1'-0" = 1'-0"
140
12.0
141
12.0
290
     0
  0
TABLESTYLE
  5
6A
102
{ACAD_REACTORS
330
69
102
}
330
69
100
AcDbTableStyle
  3
Standard
 70
     0
 71
     0
 40
1.5
 41
1.5
280
     0
281
     0
  7
Standard
140
4.5
170
     2
 62
     0
 63
   257
283
     0
274
    -2
284
     1
 64
     0
275
    -2
285
     1
 65
     0
276
    -2
286
     1
 66
     0
277
    -2
287
     1
 67
     0
278
    -2
288
     1
 68
     0
279
    -2
289
     1
 69
     0
  7
Standard
140
6.0
170
     5
 62
     0
 63
   257
283
     0
274
    -2
284
     1
 64
     0
275
    -2
285
     1
 65
     0
276
    -2
286
     1
 66
     0
277
    -2
287
     1
 67
     0
278
    -2
288
     1
 68
     0
279
    -2
289
     1
 69
     0
  7
Standard
140
4.5
170
     5
 62
     0
 63
   257
283
     0
274
    -2
284
     1
 64
     0
275
    -2
285
     1
 65
     0
276
    -2
286
     1
 66
     0
277
    -2
287
     1
 67
     0
278
    -2
288
     1
 68
     0
279
    -2
289
     1
 69
     0
  0
VISUALSTYLE
  5
2F
102
{ACAD_REACTORS
330
2A
102
}
102
{ACAD_XDICTIONARY
360
23A
102
}
330
2A
100
AcDbVisualStyle
  2
2dWireframe
 70
     4
 71
     0
 72
     2
 73
     0
 90
        0
 40
0.6
 41
30.0
 62
     5
 63
     7
 74
     1
 91
        4
 64
     7
 65
   257
 75
     1
175
     1
 42
1.0
 92
        0
 66
   257
 43
1.0
 76
     1
 77
     6
 78
     2
 67
     7
 79
     5
170
     0
171
     0
290
     0
174
     0
 93
        1
 44
0.0
173
     0
291
     0
 45
0.0
1001
ACAD
1000
AcDbSavedByObjectVersion
1070
     0
  0
VISUALSTYLE
  5
32
102
{ACAD_REACTORS
330
2A
102
}
102
{ACAD_XDICTIONARY
360
240
102
}
330
2A
100
AcDbVisualStyle
  2
Basic
 70
     7
 71
     1
 72
     0
 73
     1
 90
        0
 40
0.6
 41
30.0
 62
     5
 63
     7
 74
     0
 91
        4
 64
     7
 65
   257
 75
     1
175
     1
 42
1.0
 92
        8
 66
     7
 43
1.0
 76
     1
 77
     6
 78
     2
 67
     7
 79
     5
170
     0
171
     0
290
     0
174
     0
 93
        1
 44
0.0
173
     0
291
     1
 45
0.0
1001
ACAD
1000
AcDbSavedByObjectVersion
1070
     0
  0
VISUALSTYLE
  5
36
102
{ACAD_REACTORS
330
2A
102
}
102
{ACAD_XDICTIONARY
360
248
102
}
330
2A
100
AcDbVisualStyle
  2
Brighten
 70
    12
 71
     2
 72
     2
 73
     0
 90
        0
 40
0.6
 41
30.0
 62
     5
 63
     7
 74
     1
 91
        4
 64
     7
 65
   257
 75
     1
175
     1
 42
1.0
 92
        8
 66
     7
 43
1.0
 76
     1
 77
     6
 78
     2
 67
     7
 79
     5
170
     0
171
     0
290
     0
174
     0
 93
        1
 44
50.0
173
     0
291
     1
 45
0.0
1001
ACAD
1000
AcDbSavedByObjectVersion
1070
     0
  0
VISUALSTYLE
  5
3A
102
{ACAD_REACTORS
330
2A
102
}
102
{ACAD_XDICTIONARY
360
250
102
}
330
2A
100
AcDbVisualStyle
  2
ColorChange
 70
    16
 71
     2
 72
     2
 73
     3
 90
        0
 40
0.6
 41
30.0
 62
     5
 63
     8
 74
     1
 91
        4
 64
     7
 65
   257
 75
     1
175
     1
 42
1.0
 92
        8
 66
     8
 43
1.0
 76
     1
 77
     6
 78
     2
 67
     7
 79
     5
170
     0
171
     0
290
     0
174
     0
 93
        1
 44
0.0
173
     0
291
     1
 45
0.0
1001
ACAD
1000
AcDbSavedByObjectVersion
1070
     0
  0
VISUALSTYLE
  5
34
102
{ACAD_REACTORS
330
2A
102
}
102
{ACAD_XDICTIONARY
360
244
102
}
330
2A
100
AcDbVisualStyle
  2
Conceptual
 70
     9
 71
     3
 72
     2
 73
     0
 90
        0
 40
0.6
 41
30.0
 62
     5
 63
     7
 74
     2
 91
        2
 64
     7
 65
   257
 75
     1
175
     1
 42
179.0
 92
        8
 66
     7
 43
1.0
 76
     1
 77
     6
 78
     2
 67
     7
 79
     3
170
     0
171
     0
290
     0
174
     0
 93
        1
 44
0.0
173
     0
291
     0
 45
0.0
1001
ACAD
1000
AcDbSavedByObjectVersion
1070
     0
  0
VISUALSTYLE
  5
35
102
{ACAD_REACTORS
330
2A
102
}
102
{ACAD_XDICTIONARY
360
246
102
}
330
2A
100
AcDbVisualStyle
  2
Dim
 70
    11
 71
     2
 72
     2
 73
     0
 90
        0
 40
0.6
 41
30.0
 62
     5
 63
     7
 74
     1
 91
        4
 64
     7
 65
   257
 75
     1
175
     1
 42
1.0
 92
        8
 66
     7
 43
1.0
 76
     1
 77
     6
 78
     2
 67
     7
 79
     5
170
     0
171
     0
290
     0
174
     0
 93
        1
 44
-50.0
173
     0
291
     1
 45
0.0
1001
ACAD
1000
AcDbSavedByObjectVersion
1070
     0
  0
VISUALSTYLE
  5
3D
102
{ACAD_REACTORS
330
2A
102
}
102
{ACAD_XDICTIONARY
360
256
102
}
330
2A
100
AcDbVisualStyle
  2
EdgeColorOff
 70
    22
 71
     2
 72
     2
 73
     0
 90
        0
 40
0.6
 41
30.0
 62
     5
 63
     7
 74
     1
 91
        4
 64
     7
 65
   257
 75
     1
175
     1
 42
1.0
 92
        8
 66
     7
 43
1.0
 76
     1
 77
     6
 78
     2
 67
     7
 79
     5
170
     0
171
     0
290
     0
174
     0
 93
        1
 44
0.0
173
     0
291
     1
 45
0.0
1001
ACAD
1000
AcDbSavedByObjectVersion
1070
     0
  0
VISUALSTYLE
  5
39
102
{ACAD_REACTORS
330
2A
102
}
102
{ACAD_XDICTIONARY
360
24E
102
}
330
2A
100
AcDbVisualStyle
  2
Facepattern
 70
    15
 71
     2
 72
     2
 73
     0
 90
        0
 40
0.6
 41
30.0
 62
     5
 63
     7
 74
     1
 91
        4
 64
     7
 65
   257
 75
     1
175
     1
 42
1.0
 92
        8
 66
     7
 43
1.0
 76
     1
 77
     6
 78
     2
 67
     7
 79
     5
170
     0
171
     0
290
     0
174
     0
 93
        1
 44
0.0
173
     0
291
     1
 45
0.0
1001
ACAD
1000
AcDbSavedByObjectVersion
1070
     0
  0
VISUALSTYLE
  5
2B
102
{ACAD_REACTORS
330
2A
102
}
102
{ACAD_XDICTIONARY
360
232
102
}
330
2A
100
AcDbVisualStyle
  2
Flat
 70
     0
 71
     2
 72
     1
 73
     1
 90
        2
 40
0.6
 41
30.0
 62
     5
 63
     7
 74
     0
 91
        0
 64
     7
 65
   257
 75
     1
175
     1
 42
1.0
 92
        8
 66
     7
 43
1.0
 76
     1
 77
     6
 78
     2
 67
     7
 79
     5
170
     0
171
     0
290
     0
174
     0
 93
       13
 44
0.0
173
     0
291
     1
 45
0.0
1001
ACAD
1000
AcDbSavedByObjectVersion
1070
     0
  0
VISUALSTYLE
  5
2C
102
{ACAD_REACTORS
330
2A
102
}
102
{ACAD_XDICTIONARY
360
234
102
}
330
2A
100
AcDbVisualStyle
  2
FlatWithEdges
 70
     1
 71
     2
 72
     1
 73
     1
 90
        2
 40
0.6
 41
30.0
 62
     5
 63
     7
 74
     1
 91
        0
 64
     7
 65
   257
 75
     1
175
     1
 42
1.0
 92
        0
 66
   257
 43
1.0
 76
     1
 77
     6
 78
     2
 67
     7
 79
     5
170
     0
171
     0
290
     0
174
     0
 93
       13
 44
0.0
173
     0
291
     1
 45
0.0
1001
ACAD
1000
AcDbSavedByObjectVersion
1070
     0
  0
VISUALSTYLE
  5
2D
102
{ACAD_REACTORS
330
2A
102
}
102
{ACAD_XDICTIONARY
360
236
102
}
330
2A
100
AcDbVisualStyle
  2
Gouraud
 70
     2
 71
     2
 72
     2
 73
     1
 90
        2
 40
0.6
 41
30.0
 62
     5
 63
     7
 74
     0
 91
        0
 64
     7
 65
   257
 75
     1
175
     1
 42
1.0
 92
        0
 66
     7
 43
1.0
 76
     1
 77
     6
 78
     2
 67
     7
 79
     5
170
     0
171
     0
290
     0
174
     0
 93
       13
 44
0.0
173
     0
291
     1
 45
0.0
1001
ACAD
1000
AcDbSavedByObjectVersion
1070
     0
  0
VISUALSTYLE
  5
2E
102
{ACAD_REACTORS
330
2A
102
}
102
{ACAD_XDICTIONARY
360
238
102
}
330
2A
100
AcDbVisualStyle
  2
GouraudWithEdges
 70
     3
 71
     2
 72
     2
 73
     1
 90
        2
 40
0.6
 41
30.0
 62
     5
 63
     7
 74
     1
 91
        0
 64
     7
 65
   257
 75
     1
175
     1
 42
1.0
 92
        0
 66
   257
 43
1.0
 76
     1
 77
     6
 78
     2
 67
     7
 79
     5
170
     0
171
     0
290
     0
174
     0
 93
       13
 44
0.0
173
     0
291
     1
 45
0.0
1001
ACAD
1000
AcDbSavedByObjectVersion
1070
     0
  0
VISUALSTYLE
  5
31
102
{ACAD_REACTORS
330
2A
102
}
102
{ACAD_XDICTIONARY
360
23E
102
}
330
2A
100
AcDbVisualStyle
  2
Hidden
 70
     6
 71
     1
 72
     2
 73
     2
 90
        0
 40
0.6
 41
30.0
 62
     5
 63
     7
 74
     2
 91
        2
 64
     7
 65
   257
 75
     2
175
     1
 42
40.0
 92
        0
 66
   257
 43
1.0
 76
     1
 77
     6
 78
     2
 67
     7
 79
     3
170
     0
171
     0
290
     0
174
     0
 93
        1
 44
0.0
173
     0
291
     0
 45
0.0
1001
ACAD
1000
AcDbSavedByObjectVersion
1070
     0
  0
VISUALSTYLE
  5
3B
102
{ACAD_REACTORS
330
2A
102
}
102
{ACAD_XDICTIONARY
360
252
102
}
330
2A
100
AcDbVisualStyle
  2
JitterOff
 70
    20
 71
     2
 72
     2
 73
     0
 90
        0
 40
0.6
 41
30.0
 62
     5
 63
     7
 74
     1
 91
        4
 64
     7
 65
   257
 75
     1
175
     1
 42
1.0
 92
       10
 66
     7
 43
1.0
 76
     1
 77
     6
 78
     2
 67
     7
 79
     5
170
     0
171
     0
290
     0
174
     0
 93
        1
 44
0.0
173
     0
291
     1
 45
0.0
1001
ACAD
1000
AcDbSavedByObjectVersion
1070
     0
  0
VISUALSTYLE
  5
38
102
{ACAD_REACTORS
330
2A
102
}
102
{ACAD_XDICTIONARY
360
24C
102
}
330
2A
100
AcDbVisualStyle
  2
Linepattern
 70
    14
 71
     2
 72
     2
 73
     0
 90
        0
 40
0.6
 41
30.0
 62
     5
 63
     7
 74
     1
 91
        4
 64
     7
 65
   257
 75
     7
175
     7
 42
1.0
 92
        8
 66
     7
 43
1.0
 76
     1
 77
     6
 78
     2
 67
     7
 79
     5
170
     0
171
     0
290
     0
174
     0
 93
        1
 44
0.0
173
     0
291
     1
 45
0.0
1001
ACAD
1000
AcDbSavedByObjectVersion
1070
     0
  0
VISUALSTYLE
  5
3C
102
{ACAD_REACTORS
330
2A
102
}
102
{ACAD_XDICTIONARY
360
254
102
}
330
2A
100
AcDbVisualStyle
  2
OverhangOff
 70
    21
 71
     2
 72
     2
 73
     0
 90
        0
 40
0.6
 41
30.0
 62
     5
 63
     7
 74
     1
 91
        4
 64
     7
 65
   257
 75
     1
175
     1
 42
1.0
 92
        9
 66
     7
 43
1.0
 76
     1
 77
     6
 78
     2
 67
     7
 79
     5
170
     0
171
     0
290
     0
174
     0
 93
        1
 44
0.0
173
     0
291
     1
 45
0.0
1001
ACAD
1000
AcDbSavedByObjectVersion
1070
     0
  0
VISUALSTYLE
  5
33
102
{ACAD_REACTORS
330
2A
102
}
102
{ACAD_XDICTIONARY
360
242
102
}
330
2A
100
AcDbVisualStyle
  2
Realistic
 70
     8
 71
     2
 72
     3
 73
     0
 90
        2
 40
0.6
 41
30.0
 62
     5
 63
     7
 74
     0
 91
        0
 64
     7
 65
   257
 75
     1
175
     1
 42
1.0
 92
        8
 66
   257
 43
1.0
 76
     1
 77
     6
 78
     2
 67
     7
 79
     3
170
     0
171
     0
290
     0
174
     0
 93
       13
 44
0.0
173
     0
291
     0
 45
0.0
1001
ACAD
1000
AcDbSavedByObjectVersion
1070
     0
  0
VISUALSTYLE
  5
42
102
{ACAD_REACTORS
330
2A
102
}
102
{ACAD_XDICTIONARY
360
260
102
}
330
2A
100
AcDbVisualStyle
  2
Shaded
 70
    27
 71
     2
 72
     2
 73
     1
 90
        2
 40
0.6
 41
30.0
 62
     5
 63
     7
 74
     0
 91
        4
 64
     7
 65
   257
 75
     1
175
     1
 42
1.0
 92
        8
 66
   257
 43
1.0
 76
     1
 77
     6
 78
     2
 67
     8
 79
     3
170
     0
171
     0
290
     0
174
     0
 93
        5
 44
0.0
173
     0
291
     0
 45
0.0
1001
ACAD
1000
AcDbSavedByObjectVersion
1070
     0
  0
VISUALSTYLE
  5
41
102
{ACAD_REACTORS
330
2A
102
}
102
{ACAD_XDICTIONARY
360
25E
102
}
330
2A
100
AcDbVisualStyle
  2
Shaded with edges
 70
    26
 71
     2
 72
     2
 73
     1
 90
        2
 40
0.6
 41
30.0
 62
     5
 63
     7
 74
     1
 91
       10
 64
     7
 65
   257
 75
     2
175
     1
 42
1.0
 92
        8
 66
   257
 43
1.0
 76
     1
 77
     6
 78
     2
 67
     7
 79
     3
170
     0
171
     0
290
     0
174
     0
 93
        5
 44
0.0
173
     0
291
     0
 45
0.0
1001
ACAD
1000
AcDbSavedByObjectVersion
1070
     0
  0
VISUALSTYLE
  5
3E
102
{ACAD_REACTORS
330
2A
102
}
102
{ACAD_XDICTIONARY
360
258
102
}
330
2A
100
AcDbVisualStyle
  2
Shades of Gray
 70
    23
 71
     2
 72
     2
 73
     3
 90
        0
 40
0.6
 41
30.0
 62
     5
 63
     7
 74
     2
 91
        2
 64
     7
 65
     7
 75
     1
175
     1
 42
40.0
 92
        8
 66
     7
 43
1.0
 76
     1
 77
     6
 78
     2
 67
     7
 79
     3
170
     0
171
     0
290
     0
174
     0
 93
        1
 44
0.0
173
     0
291
     0
 45
0.0
1001
ACAD
1000
AcDbSavedByObjectVersion
1070
     0
  0
VISUALSTYLE
  5
3F
102
{ACAD_REACTORS
330
2A
102
}
102
{ACAD_XDICTIONARY
360
25A
102
}
330
2A
100
AcDbVisualStyle
  2
Sketchy
 70
    24
 71
     1
 72
     2
 73
     2
 90
        0
 40
0.6
 41
30.0
 62
     5
 63
     7
 74
     2
 91
        2
 64
     7
 65
     7
 75
     1
175
     1
 42
40.0
 92
       11
 66
     7
 43
1.0
 76
     1
 77
     6
 78
     2
 67
     7
 79
     6
170
     0
171
     0
290
     0
174
     0
 93
        1
 44
0.0
173
     0
291
     0
 45
0.0
1001
ACAD
1000
AcDbSavedByObjectVersion
1070
     0
  0
VISUALSTYLE
  5
37
102
{ACAD_REACTORS
330
2A
102
}
102
{ACAD_XDICTIONARY
360
24A
102
}
330
2A
100
AcDbVisualStyle
  2
Thicken
 70
    13
 71
     2
 72
     2
 73
     0
 90
        0
 40
0.6
 41
30.0
 62
     5
 63
     7
 74
     1
 91
        4
 64
     7
 65
   257
 75
     1
175
     1
 42
1.0
 92
       12
 66
     7
 43
1.0
 76
     1
 77
     6
 78
     2
 67
     7
 79
     5
170
     0
171
     0
290
     0
174
     0
 93
        1
 44
0.0
173
     0
291
     1
 45
0.0
1001
ACAD
1000
AcDbSavedByObjectVersion
1070
     0
  0
VISUALSTYLE
  5
30
102
{ACAD_REACTORS
330
2A
102
}
102
{ACAD_XDICTIONARY
360
23C
102
}
330
2A
100
AcDbVisualStyle
  2
Wireframe
 70
     5
 71
     0
 72
     2
 73
     0
 90
        0
 40
0.6
 41
30.0
 62
     5
 63
     7
 74
     1
 91
        4
 64
     7
 65
   257
 75
     1
175
     1
 42
1.0
 92
        0
 66
   257
 43
1.0
 76
     1
 77
     6
 78
     2
 67
     7
 79
     3
170
     0
171
     0
290
     0
174
     0
 93
        1
 44
0.0
173
     0
291
     0
 45
0.0
1001
ACAD
1000
AcDbSavedByObjectVersion
1070
     0
  0
VISUALSTYLE
  5
40
102
{ACAD_REACTORS
330
2A
102
}
102
{ACAD_XDICTIONARY
360
25C
102
}
330
2A
100
AcDbVisualStyle
  2
X-Ray
 70
    25
 71
     2
 72
     2
 73
     1
 90
        1
 40
0.5
 41
30.0
 62
     5
 63
     7
 74
     1
 91
        0
 64
     7
 65
   257
 75
     1
175
     1
 42
1.0
 92
        8
 66
     7
 43
1.0
 76
     1
 77
     6
 78
     2
 67
     7
 79
     3
170
     0
171
     0
290
     0
174
     0
 93
       13
 44
0.0
173
     0
291
     0
 45
0.0
1001
ACAD
1000
AcDbSavedByObjectVersion
1070
     0
  0
DICTIONARYVAR
  5
230
102
{ACAD_REACTORS
330
223
102
}
330
223
100
DictionaryVariables
280
     0
  1
1:1
  0
DICTIONARYVAR
  5
22A
102
{ACAD_REACTORS
330
223
102
}
330
223
100
DictionaryVariables
280
     0
  1
3.500000
  0
DICTIONARYVAR
  5
22B
102
{ACAD_REACTORS
330
223
102
}
330
223
100
DictionaryVariables
280
     0
  1
acadiso.lin
  0
DICTIONARYVAR
  5
225
102
{ACAD_REACTORS
330
223
102
}
330
223
100
DictionaryVariables
280
     0
  1
Standard
  0
DICTIONARYVAR
  5
224
102
{ACAD_REACTORS
330
223
102
}
330
223
100
DictionaryVariables
280
     0
  1
Standard
  0
DICTIONARYVAR
  5
22C
102
{ACAD_REACTORS
330
223
102
}
330
223
100
DictionaryVariables
280
     0
  1
2
  0
DICTIONARYVAR
  5
22D
102
{ACAD_REACTORS
330
223
102
}
330
223
100
DictionaryVariables
280
     0
  1
1
  0
DICTIONARYVAR
  5
231
102
{ACAD_REACTORS
330
223
102
}
330
223
100
DictionaryVariables
280
     0
  1
1
  0
DICTIONARYVAR
  5
227
102
{ACAD_REACTORS
330
223
102
}
330
223
100
DictionaryVariables
280
     0
  1
80.000000
  0
DICTIONARYVAR
  5
226
102
{ACAD_REACTORS
330
223
102
}
330
223
100
DictionaryVariables
280
     0
  1
5.000000
  0
DICTIONARY
  5
264
330
45
100
AcDbDictionary
280
     1
281
     1
  3
ACAD_XREC_ROUNDTRIP
360
265
  0
DICTIONARY
  5
262
330
44
100
AcDbDictionary
280
     1
281
     1
  3
ACAD_XREC_ROUNDTRIP
360
263
  0
DICTIONARY
  5
266
330
46
100
AcDbDictionary
280
     1
281
     1
  3
ACAD_XREC_ROUNDTRIP
360
267
  0
DICTIONARY
  5
269
330
6C
100
AcDbDictionary
280
     1
281
     1
  3
ACAD_XREC_ROUNDTRIP
360
26A
  0
DICTIONARY
  5
23A
330
2F
100
AcDbDictionary
280
     1
281
     1
  3
ACAD_XREC_ROUNDTRIP
360
23B
  0
DICTIONARY
  5
240
330
32
100
AcDbDictionary
280
     1
281
     1
  3
ACAD_XREC_ROUNDTRIP
360
241
  0
DICTIONARY
  5
248
330
36
100
AcDbDictionary
280
     1
281
     1
  3
ACAD_XREC_ROUNDTRIP
360
249
  0
DICTIONARY
  5
250
330
3A
100
AcDbDictionary
280
     1
281
     1
  3
ACAD_XREC_ROUNDTRIP
360
251
  0
DICTIONARY
  5
244
330
34
100
AcDbDictionary
280
     1
281
     1
  3
ACAD_XREC_ROUNDTRIP
360
245
  0
DICTIONARY
  5
246
330
35
100
AcDbDictionary
280
     1
281
     1
  3
ACAD_XREC_ROUNDTRIP
360
247
  0
DICTIONARY
  5
256
330
3D
100
AcDbDictionary
280
     1
281
     1
  3
ACAD_XREC_ROUNDTRIP
360
257
  0
DICTIONARY
  5
24E
330
39
100
AcDbDictionary
280
     1
281
     1
  3
ACAD_XREC_ROUNDTRIP
360
24F
  0
DICTIONARY
  5
232
330
2B
100
AcDbDictionary
280
     1
281
     1
  3
ACAD_XREC_ROUNDTRIP
360
233
  0
DICTIONARY
  5
234
330
2C
100
AcDbDictionary
280
     1
281
     1
  3
ACAD_XREC_ROUNDTRIP
360
235
  0
DICTIONARY
  5
236
330
2D
100
AcDbDictionary
280
     1
281
     1
  3
ACAD_XREC_ROUNDTRIP
360
237
  0
DICTIONARY
  5
238
330
2E
100
AcDbDictionary
280
     1
281
     1
  3
ACAD_XREC_ROUNDTRIP
360
239
  0
DICTIONARY
  5
23E
330
31
100
AcDbDictionary
280
     1
281
     1
  3
ACAD_XREC_ROUNDTRIP
360
23F
  0
DICTIONARY
  5
252
330
3B
100
AcDbDictionary
280
     1
281
     1
  3
ACAD_XREC_ROUNDTRIP
360
253
  0
DICTIONARY
  5
24C
330
38
100
AcDbDictionary
280
     1
281
     1
  3
ACAD_XREC_ROUNDTRIP
360
24D
  0
DICTIONARY
  5
254
330
3C
100
AcDbDictionary
280
     1
281
     1
  3
ACAD_XREC_ROUNDTRIP
360
255
  0
DICTIONARY
  5
242
330
33
100
AcDbDictionary
280
     1
281
     1
  3
ACAD_XREC_ROUNDTRIP
360
243
  0
DICTIONARY
  5
260
330
42
100
AcDbDictionary
280
     1
281
     1
  3
ACAD_XREC_ROUNDTRIP
360
261
  0
DICTIONARY
  5
25E
330
41
100
AcDbDictionary
280
     1
281
     1
  3
ACAD_XREC_ROUNDTRIP
360
25F
  0
DICTIONARY
  5
258
330
3E
100
AcDbDictionary
280
     1
281
     1
  3
ACAD_XREC_ROUNDTRIP
360
259
  0
DICTIONARY
  5
25A
330
3F
100
AcDbDictionary
280
     1
281
     1
  3
ACAD_XREC_ROUNDTRIP
360
25B
  0
DICTIONARY
  5
24A
330
37
100
AcDbDictionary
280
     1
281
     1
  3
ACAD_XREC_ROUNDTRIP
360
24B
  0
DICTIONARY
  5
23C
330
30
100
AcDbDictionary
280
     1
281
     1
  3
ACAD_XREC_ROUNDTRIP
360
23D
  0
DICTIONARY
  5
25C
330
40
100
AcDbDictionary
280
     1
281
     1
  3
ACAD_XREC_ROUNDTRIP
360
25D
  0
XRECORD
  5
265
102
{ACAD_REACTORS
330
264
102
}
330
264
100
AcDbXrecord
280
     1
102
MATERIAL
148
0.0
149
0.0
149
0.0
 93
        0
 94
      127
282
     0
 72
     1
 77
     1
171
     1
175
     1
179
     1
273
     0
  0
XRECORD
  5
263
102
{ACAD_REACTORS
330
262
102
}
330
262
100
AcDbXrecord
280
     1
102
MATERIAL
148
0.0
149
0.0
149
0.0
 93
        0
 94
      127
282
     0
 72
     1
 77
     1
171
     1
175
     1
179
     1
273
     0
  0
XRECORD
  5
267
102
{ACAD_REACTORS
330
266
102
}
330
266
100
AcDbXrecord
280
     1
102
MATERIAL
148
0.0
149
0.0
149
0.0
 93
        0
 94
      127
282
     0
 72
     1
 77
     1
171
     1
175
     1
179
     1
273
     0
  0
XRECORD
  5
26A
102
{ACAD_REACTORS
330
269
102
}
330
269
100
AcDbXrecord
280
     1
102
ACAD_ROUNDTRIP_2010_MLEADER_STYLE
  0
XRECORD
  5
23B
102
{ACAD_REACTORS
330
23A
102
}
330
23A
100
AcDbXrecord
280
     1
102
RTVSPropertyOp0
 70
     1
102
RTVSPropertyOp1
 70
     1
102
RTVSPropertyOp2
 70
     1
102
RTVSPropertyOp3
 70
     1
102
RTVSPropertyOp4
 70
     1
102
RTVSPropertyOp5
 70
     1
102
RTVSPropertyOp6
 70
     1
102
RTVSPropertyOp7
 70
     1
102
RTVSPropertyOp8
 70
     1
102
RTVSPropertyOp9
 70
     1
102
RTVSPropertyOp10
 70
     1
102
RTVSPropertyOp11
 70
     1
102
RTVSPropertyOp12
 70
     1
102
RTVSPropertyOp13
 70
     1
102
RTVSPropertyOp14
 70
     1
102
RTVSPropertyOp15
 70
     1
102
RTVSPropertyOp16
 70
     1
102
RTVSPropertyOp17
 70
     1
102
RTVSPropertyOp18
 70
     1
102
RTVSPropertyOp19
 70
     1
102
RTVSPropertyOp20
 70
     1
102
RTVSPropertyOp21
 70
     1
102
RTVSPropertyOp22
 70
     1
102
RTVSPropertyOp23
 70
     1
102
RTVSPropertyOp24
 70
     1
102
RTVSPropertyOp25
 70
     1
102
RTVSPropertyOp26
 70
     1
102
RTVSPropertyOp27
 70
     1
102
RTVSPropertyOp28
 70
     1
102
RTVSPropertyOp29
 70
     1
102
RTVSPropertyOp30
 70
     1
102
RTVSPropertyOp31
 70
     1
102
RTVSPropertyOp32
 70
     1
102
RTVSPropertyOp33
 70
     1
102
RTVSPropertyOp34
 70
     1
102
RTVSPropertyOp35
 70
     1
102
RTVSPropertyOp36
 70
     1
102
RTVSPropertyOp37
 70
     1
102
RTVSPropertyOp38
 70
     1
102
RTVSPropertyOp39
 70
     1
102
RTVSPropertyOp40
 70
     1
102
RTVSPropertyOp41
 70
     1
102
RTVSPropertyOp42
 70
     1
102
RTVSPropertyOp43
 70
     1
102
RTVSPropertyOp44
 70
     1
102
RTVSPropertyOp45
 70
     1
102
RTVSPropertyOp46
 70
     1
102
RTVSPropertyOp47
 70
     1
102
RTVSPropertyOp48
 70
     1
102
RTVSPropertyOp49
 70
     1
102
RTVSPropertyOp50
 70
     1
102
RTVSPropertyOp51
 70
     0
102
RTVSPropertyOp52
 70
     0
102
RTVSPropertyOp53
 70
     1
102
RTVSPropertyOp54
 70
     1
102
RTVSPropertyOp55
 70
     1
102
RTVSPropertyOp56
 70
     1
102
RTVSPropertyOp57
 70
     1
102
RTVSPost2010Prop28
280
     1
102
RTVSPost2010PropOp28
 70
     1
102
RTVSPost2010Prop29
280
     1
102
RTVSPost2010PropOp29
 70
     1
102
RTVSPost2010Prop30
280
     0
102
RTVSPost2010PropOp30
 70
     1
102
RTVSPost2010Prop31
280
     0
102
RTVSPost2010PropOp31
 70
     1
102
RTVSPost2010Prop32
280
     0
102
RTVSPost2010PropOp32
 70
     1
102
RTVSPost2010Prop33
280
     0
102
RTVSPost2010PropOp33
 70
     1
102
RTVSPost2010Prop34
280
     0
102
RTVSPost2010PropOp34
 70
     1
102
RTVSPost2010Prop35
280
     0
102
RTVSPost2010PropOp35
 70
     1
102
RTVSPost2010Prop36
280
     0
102
RTVSPost2010PropOp36
 70
     1
102
RTVSPost2010Prop37
 90
       50
102
RTVSPost2010PropOp37
 70
     1
102
RTVSPost2010Prop38
140
0.0
102
RTVSPost2010PropOp38
 70
     1
102
RTVSPost2010Prop39
140
1.0
102
RTVSPost2010PropOp39
 70
     1
102
RTVSPost2010Prop40
 90
        0
102
RTVSPost2010PropOp40
 70
     1
102
RTVSPost2010Prop41ColorIndex
 90
       18
102
RTVSPost2010Prop41ColorRGB
 90
        0
102
RTVSPost2010PropOp41
 70
     1
102
RTVSPost2010Prop42
 90
       50
102
RTVSPost2010PropOp42
 70
     1
102
RTVSPost2010Prop43
 90
        3
102
RTVSPost2010PropOp43
 70
     1
102
RTVSPost2010Prop44ColorIndex
 90
        5
102
RTVSPost2010Prop44ColorRGB
 90
      255
102
RTVSPost2010PropOp44
 70
     1
102
RTVSPost2010Prop45
280
     0
102
RTVSPost2010PropOp45
 70
     1
102
RTVSPost2010Prop46
 90
       50
102
RTVSPost2010PropOp46
 70
     1
102
RTVSPost2010Prop47
 90
       50
102
RTVSPost2010PropOp47
 70
     1
102
RTVSPost2010Prop48
 90
       50
102
RTVSPost2010PropOp48
 70
     1
102
RTVSPost2010Prop49
280
     0
102
RTVSPost2010PropOp49
 70
     1
102
RTVSPost2010Prop50
 90
       50
102
RTVSPost2010PropOp50
 70
     1
102
RTVSPost2010Prop51ColorIndex
 90
      256
102
RTVSPost2010Prop51ColorRGB
 90
-16777216
102
RTVSPost2010PropOp51
 70
     0
102
RTVSPost2010Prop52
140
1.0
102
RTVSPost2010PropOp52
 70
     0
102
RTVSPost2010Prop53
 90
        2
102
RTVSPost2010PropOp53
 70
     1
102
RTVSPost2010Prop54
  1
strokes_ogs.tif
102
RTVSPost2010PropOp54
 70
     1
102
RTVSPost2010Prop55
280
     0
102
RTVSPost2010PropOp55
 70
     1
102
RTVSPost2010Prop56
140
1.0
102
RTVSPost2010PropOp56
 70
     1
102
RTVSPost2010Prop57
140
1.0
102
RTVSPost2010PropOp57
 70
     1
  0
XRECORD
  5
241
102
{ACAD_REACTORS
330
240
102
}
330
240
100
AcDbXrecord
280
     1
102
RTVSPropertyOp0
 70
     1
102
RTVSPropertyOp1
 70
     1
102
RTVSPropertyOp2
 70
     1
102
RTVSPropertyOp3
 70
     1
102
RTVSPropertyOp4
 70
     1
102
RTVSPropertyOp5
 70
     1
102
RTVSPropertyOp6
 70
     1
102
RTVSPropertyOp7
 70
     1
102
RTVSPropertyOp8
 70
     1
102
RTVSPropertyOp9
 70
     1
102
RTVSPropertyOp10
 70
     1
102
RTVSPropertyOp11
 70
     1
102
RTVSPropertyOp12
 70
     1
102
RTVSPropertyOp13
 70
     1
102
RTVSPropertyOp14
 70
     1
102
RTVSPropertyOp15
 70
     1
102
RTVSPropertyOp16
 70
     1
102
RTVSPropertyOp17
 70
     1
102
RTVSPropertyOp18
 70
     1
102
RTVSPropertyOp19
 70
     1
102
RTVSPropertyOp20
 70
     1
102
RTVSPropertyOp21
 70
     1
102
RTVSPropertyOp22
 70
     1
102
RTVSPropertyOp23
 70
     1
102
RTVSPropertyOp24
 70
     1
102
RTVSPropertyOp25
 70
     1
102
RTVSPropertyOp26
 70
     1
102
RTVSPropertyOp27
 70
     1
102
RTVSPropertyOp28
 70
     1
102
RTVSPropertyOp29
 70
     1
102
RTVSPropertyOp30
 70
     1
102
RTVSPropertyOp31
 70
     1
102
RTVSPropertyOp32
 70
     1
102
RTVSPropertyOp33
 70
     1
102
RTVSPropertyOp34
 70
     1
102
RTVSPropertyOp35
 70
     1
102
RTVSPropertyOp36
 70
     1
102
RTVSPropertyOp37
 70
     1
102
RTVSPropertyOp38
 70
     1
102
RTVSPropertyOp39
 70
     1
102
RTVSPropertyOp40
 70
     1
102
RTVSPropertyOp41
 70
     1
102
RTVSPropertyOp42
 70
     1
102
RTVSPropertyOp43
 70
     1
102
RTVSPropertyOp44
 70
     1
102
RTVSPropertyOp45
 70
     1
102
RTVSPropertyOp46
 70
     1
102
RTVSPropertyOp47
 70
     1
102
RTVSPropertyOp48
 70
     1
102
RTVSPropertyOp49
 70
     1
102
RTVSPropertyOp50
 70
     1
102
RTVSPropertyOp51
 70
     0
102
RTVSPropertyOp52
 70
     0
102
RTVSPropertyOp53
 70
     1
102
RTVSPropertyOp54
 70
     1
102
RTVSPropertyOp55
 70
     1
102
RTVSPropertyOp56
 70
     1
102
RTVSPropertyOp57
 70
     1
102
RTVSPost2010Prop28
280
     0
102
RTVSPost2010PropOp28
 70
     1
102
RTVSPost2010Prop29
280
     1
102
RTVSPost2010PropOp29
 70
     1
102
RTVSPost2010Prop30
280
     1
102
RTVSPost2010PropOp30
 70
     1
102
RTVSPost2010Prop31
280
     0
102
RTVSPost2010PropOp31
 70
     1
102
RTVSPost2010Prop32
280
     0
102
RTVSPost2010PropOp32
 70
     1
102
RTVSPost2010Prop33
280
     0
102
RTVSPost2010PropOp33
 70
     1
102
RTVSPost2010Prop34
280
     0
102
RTVSPost2010PropOp34
 70
     1
102
RTVSPost2010Prop35
280
     0
102
RTVSPost2010PropOp35
 70
     1
102
RTVSPost2010Prop36
280
     0
102
RTVSPost2010PropOp36
 70
     1
102
RTVSPost2010Prop37
 90
       50
102
RTVSPost2010PropOp37
 70
     1
102
RTVSPost2010Prop38
140
0.0
102
RTVSPost2010PropOp38
 70
     1
102
RTVSPost2010Prop39
140
1.0
102
RTVSPost2010PropOp39
 70
     1
102
RTVSPost2010Prop40
 90
        0
102
RTVSPost2010PropOp40
 70
     1
102
RTVSPost2010Prop41ColorIndex
 90
       18
102
RTVSPost2010Prop41ColorRGB
 90
        0
102
RTVSPost2010PropOp41
 70
     1
102
RTVSPost2010Prop42
 90
       50
102
RTVSPost2010PropOp42
 70
     1
102
RTVSPost2010Prop43
 90
        3
102
RTVSPost2010PropOp43
 70
     1
102
RTVSPost2010Prop44ColorIndex
 90
        5
102
RTVSPost2010Prop44ColorRGB
 90
      255
102
RTVSPost2010PropOp44
 70
     1
102
RTVSPost2010Prop45
280
     0
102
RTVSPost2010PropOp45
 70
     1
102
RTVSPost2010Prop46
 90
       50
102
RTVSPost2010PropOp46
 70
     1
102
RTVSPost2010Prop47
 90
       50
102
RTVSPost2010PropOp47
 70
     1
102
RTVSPost2010Prop48
 90
       50
102
RTVSPost2010PropOp48
 70
     1
102
RTVSPost2010Prop49
280
     0
102
RTVSPost2010PropOp49
 70
     1
102
RTVSPost2010Prop50
 90
       50
102
RTVSPost2010PropOp50
 70
     1
102
RTVSPost2010Prop51ColorIndex
 90
      256
102
RTVSPost2010Prop51ColorRGB
 90
-16777216
102
RTVSPost2010PropOp51
 70
     0
102
RTVSPost2010Prop52
140
1.0
102
RTVSPost2010PropOp52
 70
     0
102
RTVSPost2010Prop53
 90
        2
102
RTVSPost2010PropOp53
 70
     1
102
RTVSPost2010Prop54
  1
strokes_ogs.tif
102
RTVSPost2010PropOp54
 70
     1
102
RTVSPost2010Prop55
280
     0
102
RTVSPost2010PropOp55
 70
     1
102
RTVSPost2010Prop56
140
1.0
102
RTVSPost2010PropOp56
 70
     1
102
RTVSPost2010Prop57
140
1.0
102
RTVSPost2010PropOp57
 70
     1
  0
XRECORD
  5
249
102
{ACAD_REACTORS
330
248
102
}
330
248
100
AcDbXrecord
280
     1
102
RTVSPropertyOp0
 70
     1
102
RTVSPropertyOp1
 70
     1
102
RTVSPropertyOp2
 70
     1
102
RTVSPropertyOp3
 70
     1
102
RTVSPropertyOp4
 70
     1
102
RTVSPropertyOp5
 70
     1
102
RTVSPropertyOp6
 70
     1
102
RTVSPropertyOp7
 70
     1
102
RTVSPropertyOp8
 70
     1
102
RTVSPropertyOp9
 70
     1
102
RTVSPropertyOp10
 70
     1
102
RTVSPropertyOp11
 70
     1
102
RTVSPropertyOp12
 70
     1
102
RTVSPropertyOp13
 70
     1
102
RTVSPropertyOp14
 70
     1
102
RTVSPropertyOp15
 70
     1
102
RTVSPropertyOp16
 70
     1
102
RTVSPropertyOp17
 70
     1
102
RTVSPropertyOp18
 70
     1
102
RTVSPropertyOp19
 70
     1
102
RTVSPropertyOp20
 70
     1
102
RTVSPropertyOp21
 70
     1
102
RTVSPropertyOp22
 70
     1
102
RTVSPropertyOp23
 70
     1
102
RTVSPropertyOp24
 70
     1
102
RTVSPropertyOp25
 70
     1
102
RTVSPropertyOp26
 70
     1
102
RTVSPropertyOp27
 70
     1
102
RTVSPropertyOp28
 70
     1
102
RTVSPropertyOp29
 70
     1
102
RTVSPropertyOp30
 70
     1
102
RTVSPropertyOp31
 70
     1
102
RTVSPropertyOp32
 70
     1
102
RTVSPropertyOp33
 70
     1
102
RTVSPropertyOp34
 70
     1
102
RTVSPropertyOp35
 70
     1
102
RTVSPropertyOp36
 70
     1
102
RTVSPropertyOp37
 70
     1
102
RTVSPropertyOp38
 70
     1
102
RTVSPropertyOp39
 70
     1
102
RTVSPropertyOp40
 70
     1
102
RTVSPropertyOp41
 70
     1
102
RTVSPropertyOp42
 70
     1
102
RTVSPropertyOp43
 70
     1
102
RTVSPropertyOp44
 70
     1
102
RTVSPropertyOp45
 70
     1
102
RTVSPropertyOp46
 70
     1
102
RTVSPropertyOp47
 70
     1
102
RTVSPropertyOp48
 70
     1
102
RTVSPropertyOp49
 70
     1
102
RTVSPropertyOp50
 70
     1
102
RTVSPropertyOp51
 70
     0
102
RTVSPropertyOp52
 70
     0
102
RTVSPropertyOp53
 70
     1
102
RTVSPropertyOp54
 70
     1
102
RTVSPropertyOp55
 70
     1
102
RTVSPropertyOp56
 70
     1
102
RTVSPropertyOp57
 70
     1
102
RTVSPost2010Prop28
280
     0
102
RTVSPost2010PropOp28
 70
     1
102
RTVSPost2010Prop29
280
     1
102
RTVSPost2010PropOp29
 70
     1
102
RTVSPost2010Prop30
280
     1
102
RTVSPost2010PropOp30
 70
     1
102
RTVSPost2010Prop31
280
     0
102
RTVSPost2010PropOp31
 70
     1
102
RTVSPost2010Prop32
280
     0
102
RTVSPost2010PropOp32
 70
     1
102
RTVSPost2010Prop33
280
     0
102
RTVSPost2010PropOp33
 70
     1
102
RTVSPost2010Prop34
280
     0
102
RTVSPost2010PropOp34
 70
     1
102
RTVSPost2010Prop35
280
     0
102
RTVSPost2010PropOp35
 70
     1
102
RTVSPost2010Prop36
280
     0
102
RTVSPost2010PropOp36
 70
     1
102
RTVSPost2010Prop37
 90
       50
102
RTVSPost2010PropOp37
 70
     1
102
RTVSPost2010Prop38
140
0.0
102
RTVSPost2010PropOp38
 70
     1
102
RTVSPost2010Prop39
140
1.0
102
RTVSPost2010PropOp39
 70
     1
102
RTVSPost2010Prop40
 90
        0
102
RTVSPost2010PropOp40
 70
     1
102
RTVSPost2010Prop41ColorIndex
 90
       18
102
RTVSPost2010Prop41ColorRGB
 90
        0
102
RTVSPost2010PropOp41
 70
     1
102
RTVSPost2010Prop42
 90
       50
102
RTVSPost2010PropOp42
 70
     1
102
RTVSPost2010Prop43
 90
        3
102
RTVSPost2010PropOp43
 70
     1
102
RTVSPost2010Prop44ColorIndex
 90
        5
102
RTVSPost2010Prop44ColorRGB
 90
      255
102
RTVSPost2010PropOp44
 70
     1
102
RTVSPost2010Prop45
280
     0
102
RTVSPost2010PropOp45
 70
     1
102
RTVSPost2010Prop46
 90
       50
102
RTVSPost2010PropOp46
 70
     1
102
RTVSPost2010Prop47
 90
       50
102
RTVSPost2010PropOp47
 70
     1
102
RTVSPost2010Prop48
 90
       50
102
RTVSPost2010PropOp48
 70
     1
102
RTVSPost2010Prop49
280
     0
102
RTVSPost2010PropOp49
 70
     1
102
RTVSPost2010Prop50
 90
       50
102
RTVSPost2010PropOp50
 70
     1
102
RTVSPost2010Prop51ColorIndex
 90
      256
102
RTVSPost2010Prop51ColorRGB
 90
-16777216
102
RTVSPost2010PropOp51
 70
     0
102
RTVSPost2010Prop52
140
1.0
102
RTVSPost2010PropOp52
 70
     0
102
RTVSPost2010Prop53
 90
        2
102
RTVSPost2010PropOp53
 70
     1
102
RTVSPost2010Prop54
  1
strokes_ogs.tif
102
RTVSPost2010PropOp54
 70
     1
102
RTVSPost2010Prop55
280
     0
102
RTVSPost2010PropOp55
 70
     1
102
RTVSPost2010Prop56
140
1.0
102
RTVSPost2010PropOp56
 70
     1
102
RTVSPost2010Prop57
140
1.0
102
RTVSPost2010PropOp57
 70
     1
  0
XRECORD
  5
251
102
{ACAD_REACTORS
330
250
102
}
330
250
100
AcDbXrecord
280
     1
102
RTVSPropertyOp0
 70
     1
102
RTVSPropertyOp1
 70
     1
102
RTVSPropertyOp2
 70
     1
102
RTVSPropertyOp3
 70
     1
102
RTVSPropertyOp4
 70
     1
102
RTVSPropertyOp5
 70
     1
102
RTVSPropertyOp6
 70
     1
102
RTVSPropertyOp7
 70
     1
102
RTVSPropertyOp8
 70
     1
102
RTVSPropertyOp9
 70
     1
102
RTVSPropertyOp10
 70
     1
102
RTVSPropertyOp11
 70
     1
102
RTVSPropertyOp12
 70
     1
102
RTVSPropertyOp13
 70
     1
102
RTVSPropertyOp14
 70
     1
102
RTVSPropertyOp15
 70
     1
102
RTVSPropertyOp16
 70
     1
102
RTVSPropertyOp17
 70
     1
102
RTVSPropertyOp18
 70
     1
102
RTVSPropertyOp19
 70
     1
102
RTVSPropertyOp20
 70
     1
102
RTVSPropertyOp21
 70
     1
102
RTVSPropertyOp22
 70
     1
102
RTVSPropertyOp23
 70
     1
102
RTVSPropertyOp24
 70
     1
102
RTVSPropertyOp25
 70
     1
102
RTVSPropertyOp26
 70
     1
102
RTVSPropertyOp27
 70
     1
102
RTVSPropertyOp28
 70
     1
102
RTVSPropertyOp29
 70
     1
102
RTVSPropertyOp30
 70
     1
102
RTVSPropertyOp31
 70
     1
102
RTVSPropertyOp32
 70
     1
102
RTVSPropertyOp33
 70
     1
102
RTVSPropertyOp34
 70
     1
102
RTVSPropertyOp35
 70
     1
102
RTVSPropertyOp36
 70
     1
102
RTVSPropertyOp37
 70
     1
102
RTVSPropertyOp38
 70
     1
102
RTVSPropertyOp39
 70
     1
102
RTVSPropertyOp40
 70
     1
102
RTVSPropertyOp41
 70
     1
102
RTVSPropertyOp42
 70
     1
102
RTVSPropertyOp43
 70
     1
102
RTVSPropertyOp44
 70
     1
102
RTVSPropertyOp45
 70
     1
102
RTVSPropertyOp46
 70
     1
102
RTVSPropertyOp47
 70
     1
102
RTVSPropertyOp48
 70
     1
102
RTVSPropertyOp49
 70
     1
102
RTVSPropertyOp50
 70
     1
102
RTVSPropertyOp51
 70
     0
102
RTVSPropertyOp52
 70
     0
102
RTVSPropertyOp53
 70
     1
102
RTVSPropertyOp54
 70
     1
102
RTVSPropertyOp55
 70
     1
102
RTVSPropertyOp56
 70
     1
102
RTVSPropertyOp57
 70
     1
102
RTVSPost2010Prop28
280
     0
102
RTVSPost2010PropOp28
 70
     1
102
RTVSPost2010Prop29
280
     1
102
RTVSPost2010PropOp29
 70
     1
102
RTVSPost2010Prop30
280
     1
102
RTVSPost2010PropOp30
 70
     1
102
RTVSPost2010Prop31
280
     0
102
RTVSPost2010PropOp31
 70
     1
102
RTVSPost2010Prop32
280
     0
102
RTVSPost2010PropOp32
 70
     1
102
RTVSPost2010Prop33
280
     0
102
RTVSPost2010PropOp33
 70
     1
102
RTVSPost2010Prop34
280
     0
102
RTVSPost2010PropOp34
 70
     1
102
RTVSPost2010Prop35
280
     0
102
RTVSPost2010PropOp35
 70
     1
102
RTVSPost2010Prop36
280
     0
102
RTVSPost2010PropOp36
 70
     1
102
RTVSPost2010Prop37
 90
       50
102
RTVSPost2010PropOp37
 70
     1
102
RTVSPost2010Prop38
140
0.0
102
RTVSPost2010PropOp38
 70
     1
102
RTVSPost2010Prop39
140
1.0
102
RTVSPost2010PropOp39
 70
     1
102
RTVSPost2010Prop40
 90
        0
102
RTVSPost2010PropOp40
 70
     1
102
RTVSPost2010Prop41ColorIndex
 90
       18
102
RTVSPost2010Prop41ColorRGB
 90
        0
102
RTVSPost2010PropOp41
 70
     1
102
RTVSPost2010Prop42
 90
       50
102
RTVSPost2010PropOp42
 70
     1
102
RTVSPost2010Prop43
 90
        3
102
RTVSPost2010PropOp43
 70
     1
102
RTVSPost2010Prop44ColorIndex
 90
        5
102
RTVSPost2010Prop44ColorRGB
 90
      255
102
RTVSPost2010PropOp44
 70
     1
102
RTVSPost2010Prop45
280
     0
102
RTVSPost2010PropOp45
 70
     1
102
RTVSPost2010Prop46
 90
       50
102
RTVSPost2010PropOp46
 70
     1
102
RTVSPost2010Prop47
 90
       50
102
RTVSPost2010PropOp47
 70
     1
102
RTVSPost2010Prop48
 90
       50
102
RTVSPost2010PropOp48
 70
     1
102
RTVSPost2010Prop49
280
     0
102
RTVSPost2010PropOp49
 70
     1
102
RTVSPost2010Prop50
 90
       50
102
RTVSPost2010PropOp50
 70
     1
102
RTVSPost2010Prop51ColorIndex
 90
      256
102
RTVSPost2010Prop51ColorRGB
 90
-16777216
102
RTVSPost2010PropOp51
 70
     0
102
RTVSPost2010Prop52
140
1.0
102
RTVSPost2010PropOp52
 70
     0
102
RTVSPost2010Prop53
 90
        2
102
RTVSPost2010PropOp53
 70
     1
102
RTVSPost2010Prop54
  1
strokes_ogs.tif
102
RTVSPost2010PropOp54
 70
     1
102
RTVSPost2010Prop55
280
     0
102
RTVSPost2010PropOp55
 70
     1
102
RTVSPost2010Prop56
140
1.0
102
RTVSPost2010PropOp56
 70
     1
102
RTVSPost2010Prop57
140
1.0
102
RTVSPost2010PropOp57
 70
     1
  0
XRECORD
  5
245
102
{ACAD_REACTORS
330
244
102
}
330
244
100
AcDbXrecord
280
     1
102
RTVSPropertyOp0
 70
     1
102
RTVSPropertyOp1
 70
     1
102
RTVSPropertyOp2
 70
     1
102
RTVSPropertyOp3
 70
     1
102
RTVSPropertyOp4
 70
     1
102
RTVSPropertyOp5
 70
     1
102
RTVSPropertyOp6
 70
     1
102
RTVSPropertyOp7
 70
     1
102
RTVSPropertyOp8
 70
     1
102
RTVSPropertyOp9
 70
     1
102
RTVSPropertyOp10
 70
     1
102
RTVSPropertyOp11
 70
     1
102
RTVSPropertyOp12
 70
     1
102
RTVSPropertyOp13
 70
     1
102
RTVSPropertyOp14
 70
     1
102
RTVSPropertyOp15
 70
     1
102
RTVSPropertyOp16
 70
     1
102
RTVSPropertyOp17
 70
     1
102
RTVSPropertyOp18
 70
     1
102
RTVSPropertyOp19
 70
     1
102
RTVSPropertyOp20
 70
     1
102
RTVSPropertyOp21
 70
     1
102
RTVSPropertyOp22
 70
     1
102
RTVSPropertyOp23
 70
     1
102
RTVSPropertyOp24
 70
     1
102
RTVSPropertyOp25
 70
     1
102
RTVSPropertyOp26
 70
     1
102
RTVSPropertyOp27
 70
     1
102
RTVSPropertyOp28
 70
     1
102
RTVSPropertyOp29
 70
     1
102
RTVSPropertyOp30
 70
     1
102
RTVSPropertyOp31
 70
     1
102
RTVSPropertyOp32
 70
     1
102
RTVSPropertyOp33
 70
     1
102
RTVSPropertyOp34
 70
     1
102
RTVSPropertyOp35
 70
     1
102
RTVSPropertyOp36
 70
     1
102
RTVSPropertyOp37
 70
     1
102
RTVSPropertyOp38
 70
     1
102
RTVSPropertyOp39
 70
     1
102
RTVSPropertyOp40
 70
     1
102
RTVSPropertyOp41
 70
     1
102
RTVSPropertyOp42
 70
     1
102
RTVSPropertyOp43
 70
     1
102
RTVSPropertyOp44
 70
     1
102
RTVSPropertyOp45
 70
     1
102
RTVSPropertyOp46
 70
     1
102
RTVSPropertyOp47
 70
     1
102
RTVSPropertyOp48
 70
     1
102
RTVSPropertyOp49
 70
     1
102
RTVSPropertyOp50
 70
     1
102
RTVSPropertyOp51
 70
     0
102
RTVSPropertyOp52
 70
     0
102
RTVSPropertyOp53
 70
     1
102
RTVSPropertyOp54
 70
     1
102
RTVSPropertyOp55
 70
     1
102
RTVSPropertyOp56
 70
     1
102
RTVSPropertyOp57
 70
     1
102
RTVSPost2010Prop28
280
     0
102
RTVSPost2010PropOp28
 70
     1
102
RTVSPost2010Prop29
280
     1
102
RTVSPost2010PropOp29
 70
     1
102
RTVSPost2010Prop30
280
     1
102
RTVSPost2010PropOp30
 70
     1
102
RTVSPost2010Prop31
280
     0
102
RTVSPost2010PropOp31
 70
     1
102
RTVSPost2010Prop32
280
     0
102
RTVSPost2010PropOp32
 70
     1
102
RTVSPost2010Prop33
280
     0
102
RTVSPost2010PropOp33
 70
     1
102
RTVSPost2010Prop34
280
     0
102
RTVSPost2010PropOp34
 70
     1
102
RTVSPost2010Prop35
280
     0
102
RTVSPost2010PropOp35
 70
     1
102
RTVSPost2010Prop36
280
     0
102
RTVSPost2010PropOp36
 70
     1
102
RTVSPost2010Prop37
 90
       50
102
RTVSPost2010PropOp37
 70
     1
102
RTVSPost2010Prop38
140
0.0
102
RTVSPost2010PropOp38
 70
     1
102
RTVSPost2010Prop39
140
1.0
102
RTVSPost2010PropOp39
 70
     1
102
RTVSPost2010Prop40
 90
        0
102
RTVSPost2010PropOp40
 70
     1
102
RTVSPost2010Prop41ColorIndex
 90
       18
102
RTVSPost2010Prop41ColorRGB
 90
        0
102
RTVSPost2010PropOp41
 70
     1
102
RTVSPost2010Prop42
 90
       50
102
RTVSPost2010PropOp42
 70
     1
102
RTVSPost2010Prop43
 90
        3
102
RTVSPost2010PropOp43
 70
     1
102
RTVSPost2010Prop44ColorIndex
 90
        5
102
RTVSPost2010Prop44ColorRGB
 90
      255
102
RTVSPost2010PropOp44
 70
     1
102
RTVSPost2010Prop45
280
     0
102
RTVSPost2010PropOp45
 70
     1
102
RTVSPost2010Prop46
 90
       50
102
RTVSPost2010PropOp46
 70
     1
102
RTVSPost2010Prop47
 90
       50
102
RTVSPost2010PropOp47
 70
     1
102
RTVSPost2010Prop48
 90
       50
102
RTVSPost2010PropOp48
 70
     1
102
RTVSPost2010Prop49
280
     0
102
RTVSPost2010PropOp49
 70
     1
102
RTVSPost2010Prop50
 90
       50
102
RTVSPost2010PropOp50
 70
     1
102
RTVSPost2010Prop51ColorIndex
 90
      256
102
RTVSPost2010Prop51ColorRGB
 90
-16777216
102
RTVSPost2010PropOp51
 70
     0
102
RTVSPost2010Prop52
140
1.0
102
RTVSPost2010PropOp52
 70
     0
102
RTVSPost2010Prop53
 90
        2
102
RTVSPost2010PropOp53
 70
     1
102
RTVSPost2010Prop54
  1
strokes_ogs.tif
102
RTVSPost2010PropOp54
 70
     1
102
RTVSPost2010Prop55
280
     0
102
RTVSPost2010PropOp55
 70
     1
102
RTVSPost2010Prop56
140
1.0
102
RTVSPost2010PropOp56
 70
     1
102
RTVSPost2010Prop57
140
1.0
102
RTVSPost2010PropOp57
 70
     1
  0
XRECORD
  5
247
102
{ACAD_REACTORS
330
246
102
}
330
246
100
AcDbXrecord
280
     1
102
RTVSPropertyOp0
 70
     1
102
RTVSPropertyOp1
 70
     1
102
RTVSPropertyOp2
 70
     1
102
RTVSPropertyOp3
 70
     1
102
RTVSPropertyOp4
 70
     1
102
RTVSPropertyOp5
 70
     1
102
RTVSPropertyOp6
 70
     1
102
RTVSPropertyOp7
 70
     1
102
RTVSPropertyOp8
 70
     1
102
RTVSPropertyOp9
 70
     1
102
RTVSPropertyOp10
 70
     1
102
RTVSPropertyOp11
 70
     1
102
RTVSPropertyOp12
 70
     1
102
RTVSPropertyOp13
 70
     1
102
RTVSPropertyOp14
 70
     1
102
RTVSPropertyOp15
 70
     1
102
RTVSPropertyOp16
 70
     1
102
RTVSPropertyOp17
 70
     1
102
RTVSPropertyOp18
 70
     1
102
RTVSPropertyOp19
 70
     1
102
RTVSPropertyOp20
 70
     1
102
RTVSPropertyOp21
 70
     1
102
RTVSPropertyOp22
 70
     1
102
RTVSPropertyOp23
 70
     1
102
RTVSPropertyOp24
 70
     1
102
RTVSPropertyOp25
 70
     1
102
RTVSPropertyOp26
 70
     1
102
RTVSPropertyOp27
 70
     1
102
RTVSPropertyOp28
 70
     1
102
RTVSPropertyOp29
 70
     1
102
RTVSPropertyOp30
 70
     1
102
RTVSPropertyOp31
 70
     1
102
RTVSPropertyOp32
 70
     1
102
RTVSPropertyOp33
 70
     1
102
RTVSPropertyOp34
 70
     1
102
RTVSPropertyOp35
 70
     1
102
RTVSPropertyOp36
 70
     1
102
RTVSPropertyOp37
 70
     1
102
RTVSPropertyOp38
 70
     1
102
RTVSPropertyOp39
 70
     1
102
RTVSPropertyOp40
 70
     1
102
RTVSPropertyOp41
 70
     1
102
RTVSPropertyOp42
 70
     1
102
RTVSPropertyOp43
 70
     1
102
RTVSPropertyOp44
 70
     1
102
RTVSPropertyOp45
 70
     1
102
RTVSPropertyOp46
 70
     1
102
RTVSPropertyOp47
 70
     1
102
RTVSPropertyOp48
 70
     1
102
RTVSPropertyOp49
 70
     1
102
RTVSPropertyOp50
 70
     1
102
RTVSPropertyOp51
 70
     0
102
RTVSPropertyOp52
 70
     0
102
RTVSPropertyOp53
 70
     1
102
RTVSPropertyOp54
 70
     1
102
RTVSPropertyOp55
 70
     1
102
RTVSPropertyOp56
 70
     1
102
RTVSPropertyOp57
 70
     1
102
RTVSPost2010Prop28
280
     0
102
RTVSPost2010PropOp28
 70
     1
102
RTVSPost2010Prop29
280
     1
102
RTVSPost2010PropOp29
 70
     1
102
RTVSPost2010Prop30
280
     1
102
RTVSPost2010PropOp30
 70
     1
102
RTVSPost2010Prop31
280
     0
102
RTVSPost2010PropOp31
 70
     1
102
RTVSPost2010Prop32
280
     0
102
RTVSPost2010PropOp32
 70
     1
102
RTVSPost2010Prop33
280
     0
102
RTVSPost2010PropOp33
 70
     1
102
RTVSPost2010Prop34
280
     0
102
RTVSPost2010PropOp34
 70
     1
102
RTVSPost2010Prop35
280
     0
102
RTVSPost2010PropOp35
 70
     1
102
RTVSPost2010Prop36
280
     0
102
RTVSPost2010PropOp36
 70
     1
102
RTVSPost2010Prop37
 90
       50
102
RTVSPost2010PropOp37
 70
     1
102
RTVSPost2010Prop38
140
0.0
102
RTVSPost2010PropOp38
 70
     1
102
RTVSPost2010Prop39
140
1.0
102
RTVSPost2010PropOp39
 70
     1
102
RTVSPost2010Prop40
 90
        0
102
RTVSPost2010PropOp40
 70
     1
102
RTVSPost2010Prop41ColorIndex
 90
       18
102
RTVSPost2010Prop41ColorRGB
 90
        0
102
RTVSPost2010PropOp41
 70
     1
102
RTVSPost2010Prop42
 90
       50
102
RTVSPost2010PropOp42
 70
     1
102
RTVSPost2010Prop43
 90
        3
102
RTVSPost2010PropOp43
 70
     1
102
RTVSPost2010Prop44ColorIndex
 90
        5
102
RTVSPost2010Prop44ColorRGB
 90
      255
102
RTVSPost2010PropOp44
 70
     1
102
RTVSPost2010Prop45
280
     0
102
RTVSPost2010PropOp45
 70
     1
102
RTVSPost2010Prop46
 90
       50
102
RTVSPost2010PropOp46
 70
     1
102
RTVSPost2010Prop47
 90
       50
102
RTVSPost2010PropOp47
 70
     1
102
RTVSPost2010Prop48
 90
       50
102
RTVSPost2010PropOp48
 70
     1
102
RTVSPost2010Prop49
280
     0
102
RTVSPost2010PropOp49
 70
     1
102
RTVSPost2010Prop50
 90
       50
102
RTVSPost2010PropOp50
 70
     1
102
RTVSPost2010Prop51ColorIndex
 90
      256
102
RTVSPost2010Prop51ColorRGB
 90
-16777216
102
RTVSPost2010PropOp51
 70
     0
102
RTVSPost2010Prop52
140
1.0
102
RTVSPost2010PropOp52
 70
     0
102
RTVSPost2010Prop53
 90
        2
102
RTVSPost2010PropOp53
 70
     1
102
RTVSPost2010Prop54
  1
strokes_ogs.tif
102
RTVSPost2010PropOp54
 70
     1
102
RTVSPost2010Prop55
280
     0
102
RTVSPost2010PropOp55
 70
     1
102
RTVSPost2010Prop56
140
1.0
102
RTVSPost2010PropOp56
 70
     1
102
RTVSPost2010Prop57
140
1.0
102
RTVSPost2010PropOp57
 70
     1
  0
XRECORD
  5
257
102
{ACAD_REACTORS
330
256
102
}
330
256
100
AcDbXrecord
280
     1
102
RTVSPropertyOp0
 70
     0
102
RTVSPropertyOp1
 70
     0
102
RTVSPropertyOp2
 70
     0
102
RTVSPropertyOp3
 70
     0
102
RTVSPropertyOp4
 70
     0
102
RTVSPropertyOp5
 70
     0
102
RTVSPropertyOp6
 70
     0
102
RTVSPropertyOp7
 70
     0
102
RTVSPropertyOp8
 70
     0
102
RTVSPropertyOp9
 70
     0
102
RTVSPropertyOp10
 70
     0
102
RTVSPropertyOp11
 70
     0
102
RTVSPropertyOp12
 70
     0
102
RTVSPropertyOp13
 70
     0
102
RTVSPropertyOp14
 70
     2
102
RTVSPropertyOp15
 70
     0
102
RTVSPropertyOp16
 70
     0
102
RTVSPropertyOp17
 70
     0
102
RTVSPropertyOp18
 70
     0
102
RTVSPropertyOp19
 70
     0
102
RTVSPropertyOp20
 70
     0
102
RTVSPropertyOp21
 70
     0
102
RTVSPropertyOp22
 70
     0
102
RTVSPropertyOp23
 70
     0
102
RTVSPropertyOp24
 70
     0
102
RTVSPropertyOp25
 70
     0
102
RTVSPropertyOp26
 70
     0
102
RTVSPropertyOp27
 70
     0
102
RTVSPropertyOp28
 70
     0
102
RTVSPropertyOp29
 70
     0
102
RTVSPropertyOp30
 70
     0
102
RTVSPropertyOp31
 70
     0
102
RTVSPropertyOp32
 70
     0
102
RTVSPropertyOp33
 70
     0
102
RTVSPropertyOp34
 70
     0
102
RTVSPropertyOp35
 70
     0
102
RTVSPropertyOp36
 70
     0
102
RTVSPropertyOp37
 70
     0
102
RTVSPropertyOp38
 70
     0
102
RTVSPropertyOp39
 70
     0
102
RTVSPropertyOp40
 70
     0
102
RTVSPropertyOp41
 70
     0
102
RTVSPropertyOp42
 70
     0
102
RTVSPropertyOp43
 70
     0
102
RTVSPropertyOp44
 70
     0
102
RTVSPropertyOp45
 70
     0
102
RTVSPropertyOp46
 70
     0
102
RTVSPropertyOp47
 70
     0
102
RTVSPropertyOp48
 70
     0
102
RTVSPropertyOp49
 70
     0
102
RTVSPropertyOp50
 70
     0
102
RTVSPropertyOp51
 70
     0
102
RTVSPropertyOp52
 70
     0
102
RTVSPropertyOp53
 70
     0
102
RTVSPropertyOp54
 70
     0
102
RTVSPropertyOp55
 70
     0
102
RTVSPropertyOp56
 70
     0
102
RTVSPropertyOp57
 70
     0
102
RTVSPost2010Prop28
280
     0
102
RTVSPost2010PropOp28
 70
     0
102
RTVSPost2010Prop29
280
     1
102
RTVSPost2010PropOp29
 70
     0
102
RTVSPost2010Prop30
280
     1
102
RTVSPost2010PropOp30
 70
     0
102
RTVSPost2010Prop31
280
     0
102
RTVSPost2010PropOp31
 70
     0
102
RTVSPost2010Prop32
280
     0
102
RTVSPost2010PropOp32
 70
     0
102
RTVSPost2010Prop33
280
     0
102
RTVSPost2010PropOp33
 70
     0
102
RTVSPost2010Prop34
280
     0
102
RTVSPost2010PropOp34
 70
     0
102
RTVSPost2010Prop35
280
     0
102
RTVSPost2010PropOp35
 70
     0
102
RTVSPost2010Prop36
280
     0
102
RTVSPost2010PropOp36
 70
     0
102
RTVSPost2010Prop37
 90
       50
102
RTVSPost2010PropOp37
 70
     0
102
RTVSPost2010Prop38
140
0.0
102
RTVSPost2010PropOp38
 70
     0
102
RTVSPost2010Prop39
140
1.0
102
RTVSPost2010PropOp39
 70
     0
102
RTVSPost2010Prop40
 90
        0
102
RTVSPost2010PropOp40
 70
     0
102
RTVSPost2010Prop41ColorIndex
 90
       18
102
RTVSPost2010Prop41ColorRGB
 90
        0
102
RTVSPost2010PropOp41
 70
     0
102
RTVSPost2010Prop42
 90
       50
102
RTVSPost2010PropOp42
 70
     0
102
RTVSPost2010Prop43
 90
        3
102
RTVSPost2010PropOp43
 70
     0
102
RTVSPost2010Prop44ColorIndex
 90
        5
102
RTVSPost2010Prop44ColorRGB
 90
      255
102
RTVSPost2010PropOp44
 70
     0
102
RTVSPost2010Prop45
280
     0
102
RTVSPost2010PropOp45
 70
     0
102
RTVSPost2010Prop46
 90
       50
102
RTVSPost2010PropOp46
 70
     0
102
RTVSPost2010Prop47
 90
       50
102
RTVSPost2010PropOp47
 70
     0
102
RTVSPost2010Prop48
 90
       50
102
RTVSPost2010PropOp48
 70
     0
102
RTVSPost2010Prop49
280
     0
102
RTVSPost2010PropOp49
 70
     0
102
RTVSPost2010Prop50
 90
       50
102
RTVSPost2010PropOp50
 70
     0
102
RTVSPost2010Prop51ColorIndex
 90
      256
102
RTVSPost2010Prop51ColorRGB
 90
-16777216
102
RTVSPost2010PropOp51
 70
     0
102
RTVSPost2010Prop52
140
1.0
102
RTVSPost2010PropOp52
 70
     0
102
RTVSPost2010Prop53
 90
        2
102
RTVSPost2010PropOp53
 70
     0
102
RTVSPost2010Prop54
  1
strokes_ogs.tif
102
RTVSPost2010PropOp54
 70
     0
102
RTVSPost2010Prop55
280
     0
102
RTVSPost2010PropOp55
 70
     0
102
RTVSPost2010Prop56
140
1.0
102
RTVSPost2010PropOp56
 70
     0
102
RTVSPost2010Prop57
140
1.0
102
RTVSPost2010PropOp57
 70
     0
  0
XRECORD
  5
24F
102
{ACAD_REACTORS
330
24E
102
}
330
24E
100
AcDbXrecord
280
     1
102
RTVSPropertyOp0
 70
     1
102
RTVSPropertyOp1
 70
     1
102
RTVSPropertyOp2
 70
     1
102
RTVSPropertyOp3
 70
     1
102
RTVSPropertyOp4
 70
     1
102
RTVSPropertyOp5
 70
     1
102
RTVSPropertyOp6
 70
     1
102
RTVSPropertyOp7
 70
     1
102
RTVSPropertyOp8
 70
     1
102
RTVSPropertyOp9
 70
     1
102
RTVSPropertyOp10
 70
     1
102
RTVSPropertyOp11
 70
     1
102
RTVSPropertyOp12
 70
     1
102
RTVSPropertyOp13
 70
     1
102
RTVSPropertyOp14
 70
     1
102
RTVSPropertyOp15
 70
     1
102
RTVSPropertyOp16
 70
     1
102
RTVSPropertyOp17
 70
     1
102
RTVSPropertyOp18
 70
     1
102
RTVSPropertyOp19
 70
     1
102
RTVSPropertyOp20
 70
     1
102
RTVSPropertyOp21
 70
     1
102
RTVSPropertyOp22
 70
     1
102
RTVSPropertyOp23
 70
     1
102
RTVSPropertyOp24
 70
     1
102
RTVSPropertyOp25
 70
     1
102
RTVSPropertyOp26
 70
     1
102
RTVSPropertyOp27
 70
     1
102
RTVSPropertyOp28
 70
     1
102
RTVSPropertyOp29
 70
     1
102
RTVSPropertyOp30
 70
     1
102
RTVSPropertyOp31
 70
     1
102
RTVSPropertyOp32
 70
     1
102
RTVSPropertyOp33
 70
     1
102
RTVSPropertyOp34
 70
     1
102
RTVSPropertyOp35
 70
     1
102
RTVSPropertyOp36
 70
     1
102
RTVSPropertyOp37
 70
     1
102
RTVSPropertyOp38
 70
     1
102
RTVSPropertyOp39
 70
     1
102
RTVSPropertyOp40
 70
     1
102
RTVSPropertyOp41
 70
     1
102
RTVSPropertyOp42
 70
     1
102
RTVSPropertyOp43
 70
     1
102
RTVSPropertyOp44
 70
     1
102
RTVSPropertyOp45
 70
     1
102
RTVSPropertyOp46
 70
     1
102
RTVSPropertyOp47
 70
     1
102
RTVSPropertyOp48
 70
     1
102
RTVSPropertyOp49
 70
     1
102
RTVSPropertyOp50
 70
     1
102
RTVSPropertyOp51
 70
     0
102
RTVSPropertyOp52
 70
     0
102
RTVSPropertyOp53
 70
     1
102
RTVSPropertyOp54
 70
     1
102
RTVSPropertyOp55
 70
     1
102
RTVSPropertyOp56
 70
     1
102
RTVSPropertyOp57
 70
     1
102
RTVSPost2010Prop28
280
     0
102
RTVSPost2010PropOp28
 70
     1
102
RTVSPost2010Prop29
280
     1
102
RTVSPost2010PropOp29
 70
     1
102
RTVSPost2010Prop30
280
     1
102
RTVSPost2010PropOp30
 70
     1
102
RTVSPost2010Prop31
280
     0
102
RTVSPost2010PropOp31
 70
     1
102
RTVSPost2010Prop32
280
     0
102
RTVSPost2010PropOp32
 70
     1
102
RTVSPost2010Prop33
280
     0
102
RTVSPost2010PropOp33
 70
     1
102
RTVSPost2010Prop34
280
     0
102
RTVSPost2010PropOp34
 70
     1
102
RTVSPost2010Prop35
280
     0
102
RTVSPost2010PropOp35
 70
     1
102
RTVSPost2010Prop36
280
     0
102
RTVSPost2010PropOp36
 70
     1
102
RTVSPost2010Prop37
 90
       50
102
RTVSPost2010PropOp37
 70
     1
102
RTVSPost2010Prop38
140
0.0
102
RTVSPost2010PropOp38
 70
     1
102
RTVSPost2010Prop39
140
1.0
102
RTVSPost2010PropOp39
 70
     1
102
RTVSPost2010Prop40
 90
        0
102
RTVSPost2010PropOp40
 70
     1
102
RTVSPost2010Prop41ColorIndex
 90
       18
102
RTVSPost2010Prop41ColorRGB
 90
        0
102
RTVSPost2010PropOp41
 70
     1
102
RTVSPost2010Prop42
 90
       50
102
RTVSPost2010PropOp42
 70
     1
102
RTVSPost2010Prop43
 90
        3
102
RTVSPost2010PropOp43
 70
     1
102
RTVSPost2010Prop44ColorIndex
 90
        5
102
RTVSPost2010Prop44ColorRGB
 90
      255
102
RTVSPost2010PropOp44
 70
     1
102
RTVSPost2010Prop45
280
     0
102
RTVSPost2010PropOp45
 70
     1
102
RTVSPost2010Prop46
 90
       50
102
RTVSPost2010PropOp46
 70
     1
102
RTVSPost2010Prop47
 90
       50
102
RTVSPost2010PropOp47
 70
     1
102
RTVSPost2010Prop48
 90
       50
102
RTVSPost2010PropOp48
 70
     1
102
RTVSPost2010Prop49
280
     0
102
RTVSPost2010PropOp49
 70
     1
102
RTVSPost2010Prop50
 90
       50
102
RTVSPost2010PropOp50
 70
     1
102
RTVSPost2010Prop51ColorIndex
 90
      256
102
RTVSPost2010Prop51ColorRGB
 90
-16777216
102
RTVSPost2010PropOp51
 70
     0
102
RTVSPost2010Prop52
140
1.0
102
RTVSPost2010PropOp52
 70
     0
102
RTVSPost2010Prop53
 90
        2
102
RTVSPost2010PropOp53
 70
     1
102
RTVSPost2010Prop54
  1
strokes_ogs.tif
102
RTVSPost2010PropOp54
 70
     1
102
RTVSPost2010Prop55
280
     0
102
RTVSPost2010PropOp55
 70
     1
102
RTVSPost2010Prop56
140
1.0
102
RTVSPost2010PropOp56
 70
     1
102
RTVSPost2010Prop57
140
1.0
102
RTVSPost2010PropOp57
 70
     1
  0
XRECORD
  5
233
102
{ACAD_REACTORS
330
232
102
}
330
232
100
AcDbXrecord
280
     1
102
RTVSPropertyOp0
 70
     1
102
RTVSPropertyOp1
 70
     1
102
RTVSPropertyOp2
 70
     1
102
RTVSPropertyOp3
 70
     1
102
RTVSPropertyOp4
 70
     1
102
RTVSPropertyOp5
 70
     1
102
RTVSPropertyOp6
 70
     1
102
RTVSPropertyOp7
 70
     1
102
RTVSPropertyOp8
 70
     1
102
RTVSPropertyOp9
 70
     1
102
RTVSPropertyOp10
 70
     1
102
RTVSPropertyOp11
 70
     1
102
RTVSPropertyOp12
 70
     1
102
RTVSPropertyOp13
 70
     1
102
RTVSPropertyOp14
 70
     1
102
RTVSPropertyOp15
 70
     1
102
RTVSPropertyOp16
 70
     1
102
RTVSPropertyOp17
 70
     1
102
RTVSPropertyOp18
 70
     1
102
RTVSPropertyOp19
 70
     1
102
RTVSPropertyOp20
 70
     1
102
RTVSPropertyOp21
 70
     1
102
RTVSPropertyOp22
 70
     1
102
RTVSPropertyOp23
 70
     1
102
RTVSPropertyOp24
 70
     1
102
RTVSPropertyOp25
 70
     1
102
RTVSPropertyOp26
 70
     1
102
RTVSPropertyOp27
 70
     1
102
RTVSPropertyOp28
 70
     1
102
RTVSPropertyOp29
 70
     1
102
RTVSPropertyOp30
 70
     1
102
RTVSPropertyOp31
 70
     1
102
RTVSPropertyOp32
 70
     1
102
RTVSPropertyOp33
 70
     1
102
RTVSPropertyOp34
 70
     1
102
RTVSPropertyOp35
 70
     1
102
RTVSPropertyOp36
 70
     1
102
RTVSPropertyOp37
 70
     1
102
RTVSPropertyOp38
 70
     1
102
RTVSPropertyOp39
 70
     1
102
RTVSPropertyOp40
 70
     1
102
RTVSPropertyOp41
 70
     1
102
RTVSPropertyOp42
 70
     1
102
RTVSPropertyOp43
 70
     1
102
RTVSPropertyOp44
 70
     1
102
RTVSPropertyOp45
 70
     1
102
RTVSPropertyOp46
 70
     1
102
RTVSPropertyOp47
 70
     1
102
RTVSPropertyOp48
 70
     1
102
RTVSPropertyOp49
 70
     1
102
RTVSPropertyOp50
 70
     1
102
RTVSPropertyOp51
 70
     0
102
RTVSPropertyOp52
 70
     0
102
RTVSPropertyOp53
 70
     1
102
RTVSPropertyOp54
 70
     1
102
RTVSPropertyOp55
 70
     1
102
RTVSPropertyOp56
 70
     1
102
RTVSPropertyOp57
 70
     1
102
RTVSPost2010Prop28
280
     0
102
RTVSPost2010PropOp28
 70
     1
102
RTVSPost2010Prop29
280
     1
102
RTVSPost2010PropOp29
 70
     1
102
RTVSPost2010Prop30
280
     1
102
RTVSPost2010PropOp30
 70
     1
102
RTVSPost2010Prop31
280
     0
102
RTVSPost2010PropOp31
 70
     1
102
RTVSPost2010Prop32
280
     0
102
RTVSPost2010PropOp32
 70
     1
102
RTVSPost2010Prop33
280
     0
102
RTVSPost2010PropOp33
 70
     1
102
RTVSPost2010Prop34
280
     0
102
RTVSPost2010PropOp34
 70
     1
102
RTVSPost2010Prop35
280
     0
102
RTVSPost2010PropOp35
 70
     1
102
RTVSPost2010Prop36
280
     0
102
RTVSPost2010PropOp36
 70
     1
102
RTVSPost2010Prop37
 90
       50
102
RTVSPost2010PropOp37
 70
     1
102
RTVSPost2010Prop38
140
0.0
102
RTVSPost2010PropOp38
 70
     1
102
RTVSPost2010Prop39
140
1.0
102
RTVSPost2010PropOp39
 70
     1
102
RTVSPost2010Prop40
 90
        0
102
RTVSPost2010PropOp40
 70
     1
102
RTVSPost2010Prop41ColorIndex
 90
       18
102
RTVSPost2010Prop41ColorRGB
 90
        0
102
RTVSPost2010PropOp41
 70
     1
102
RTVSPost2010Prop42
 90
       50
102
RTVSPost2010PropOp42
 70
     1
102
RTVSPost2010Prop43
 90
        3
102
RTVSPost2010PropOp43
 70
     1
102
RTVSPost2010Prop44ColorIndex
 90
        5
102
RTVSPost2010Prop44ColorRGB
 90
      255
102
RTVSPost2010PropOp44
 70
     1
102
RTVSPost2010Prop45
280
     0
102
RTVSPost2010PropOp45
 70
     1
102
RTVSPost2010Prop46
 90
       50
102
RTVSPost2010PropOp46
 70
     1
102
RTVSPost2010Prop47
 90
       50
102
RTVSPost2010PropOp47
 70
     1
102
RTVSPost2010Prop48
 90
       50
102
RTVSPost2010PropOp48
 70
     1
102
RTVSPost2010Prop49
280
     0
102
RTVSPost2010PropOp49
 70
     1
102
RTVSPost2010Prop50
 90
       50
102
RTVSPost2010PropOp50
 70
     1
102
RTVSPost2010Prop51ColorIndex
 90
      256
102
RTVSPost2010Prop51ColorRGB
 90
-16777216
102
RTVSPost2010PropOp51
 70
     0
102
RTVSPost2010Prop52
140
1.0
102
RTVSPost2010PropOp52
 70
     0
102
RTVSPost2010Prop53
 90
        2
102
RTVSPost2010PropOp53
 70
     1
102
RTVSPost2010Prop54
  1
strokes_ogs.tif
102
RTVSPost2010PropOp54
 70
     1
102
RTVSPost2010Prop55
280
     0
102
RTVSPost2010PropOp55
 70
     1
102
RTVSPost2010Prop56
140
1.0
102
RTVSPost2010PropOp56
 70
     1
102
RTVSPost2010Prop57
140
1.0
102
RTVSPost2010PropOp57
 70
     1
  0
XRECORD
  5
235
102
{ACAD_REACTORS
330
234
102
}
330
234
100
AcDbXrecord
280
     1
102
RTVSPropertyOp0
 70
     1
102
RTVSPropertyOp1
 70
     1
102
RTVSPropertyOp2
 70
     1
102
RTVSPropertyOp3
 70
     1
102
RTVSPropertyOp4
 70
     1
102
RTVSPropertyOp5
 70
     1
102
RTVSPropertyOp6
 70
     1
102
RTVSPropertyOp7
 70
     1
102
RTVSPropertyOp8
 70
     1
102
RTVSPropertyOp9
 70
     1
102
RTVSPropertyOp10
 70
     1
102
RTVSPropertyOp11
 70
     1
102
RTVSPropertyOp12
 70
     1
102
RTVSPropertyOp13
 70
     1
102
RTVSPropertyOp14
 70
     1
102
RTVSPropertyOp15
 70
     1
102
RTVSPropertyOp16
 70
     1
102
RTVSPropertyOp17
 70
     1
102
RTVSPropertyOp18
 70
     1
102
RTVSPropertyOp19
 70
     1
102
RTVSPropertyOp20
 70
     1
102
RTVSPropertyOp21
 70
     1
102
RTVSPropertyOp22
 70
     1
102
RTVSPropertyOp23
 70
     1
102
RTVSPropertyOp24
 70
     1
102
RTVSPropertyOp25
 70
     1
102
RTVSPropertyOp26
 70
     1
102
RTVSPropertyOp27
 70
     1
102
RTVSPropertyOp28
 70
     1
102
RTVSPropertyOp29
 70
     1
102
RTVSPropertyOp30
 70
     1
102
RTVSPropertyOp31
 70
     1
102
RTVSPropertyOp32
 70
     1
102
RTVSPropertyOp33
 70
     1
102
RTVSPropertyOp34
 70
     1
102
RTVSPropertyOp35
 70
     1
102
RTVSPropertyOp36
 70
     1
102
RTVSPropertyOp37
 70
     1
102
RTVSPropertyOp38
 70
     1
102
RTVSPropertyOp39
 70
     1
102
RTVSPropertyOp40
 70
     1
102
RTVSPropertyOp41
 70
     1
102
RTVSPropertyOp42
 70
     1
102
RTVSPropertyOp43
 70
     1
102
RTVSPropertyOp44
 70
     1
102
RTVSPropertyOp45
 70
     1
102
RTVSPropertyOp46
 70
     1
102
RTVSPropertyOp47
 70
     1
102
RTVSPropertyOp48
 70
     1
102
RTVSPropertyOp49
 70
     1
102
RTVSPropertyOp50
 70
     1
102
RTVSPropertyOp51
 70
     0
102
RTVSPropertyOp52
 70
     0
102
RTVSPropertyOp53
 70
     1
102
RTVSPropertyOp54
 70
     1
102
RTVSPropertyOp55
 70
     1
102
RTVSPropertyOp56
 70
     1
102
RTVSPropertyOp57
 70
     1
102
RTVSPost2010Prop28
280
     0
102
RTVSPost2010PropOp28
 70
     1
102
RTVSPost2010Prop29
280
     1
102
RTVSPost2010PropOp29
 70
     1
102
RTVSPost2010Prop30
280
     1
102
RTVSPost2010PropOp30
 70
     1
102
RTVSPost2010Prop31
280
     0
102
RTVSPost2010PropOp31
 70
     1
102
RTVSPost2010Prop32
280
     0
102
RTVSPost2010PropOp32
 70
     1
102
RTVSPost2010Prop33
280
     0
102
RTVSPost2010PropOp33
 70
     1
102
RTVSPost2010Prop34
280
     0
102
RTVSPost2010PropOp34
 70
     1
102
RTVSPost2010Prop35
280
     0
102
RTVSPost2010PropOp35
 70
     1
102
RTVSPost2010Prop36
280
     0
102
RTVSPost2010PropOp36
 70
     1
102
RTVSPost2010Prop37
 90
       50
102
RTVSPost2010PropOp37
 70
     1
102
RTVSPost2010Prop38
140
0.0
102
RTVSPost2010PropOp38
 70
     1
102
RTVSPost2010Prop39
140
1.0
102
RTVSPost2010PropOp39
 70
     1
102
RTVSPost2010Prop40
 90
        0
102
RTVSPost2010PropOp40
 70
     1
102
RTVSPost2010Prop41ColorIndex
 90
       18
102
RTVSPost2010Prop41ColorRGB
 90
        0
102
RTVSPost2010PropOp41
 70
     1
102
RTVSPost2010Prop42
 90
       50
102
RTVSPost2010PropOp42
 70
     1
102
RTVSPost2010Prop43
 90
        3
102
RTVSPost2010PropOp43
 70
     1
102
RTVSPost2010Prop44ColorIndex
 90
        5
102
RTVSPost2010Prop44ColorRGB
 90
      255
102
RTVSPost2010PropOp44
 70
     1
102
RTVSPost2010Prop45
280
     0
102
RTVSPost2010PropOp45
 70
     1
102
RTVSPost2010Prop46
 90
       50
102
RTVSPost2010PropOp46
 70
     1
102
RTVSPost2010Prop47
 90
       50
102
RTVSPost2010PropOp47
 70
     1
102
RTVSPost2010Prop48
 90
       50
102
RTVSPost2010PropOp48
 70
     1
102
RTVSPost2010Prop49
280
     0
102
RTVSPost2010PropOp49
 70
     1
102
RTVSPost2010Prop50
 90
       50
102
RTVSPost2010PropOp50
 70
     1
102
RTVSPost2010Prop51ColorIndex
 90
      256
102
RTVSPost2010Prop51ColorRGB
 90
-16777216
102
RTVSPost2010PropOp51
 70
     0
102
RTVSPost2010Prop52
140
1.0
102
RTVSPost2010PropOp52
 70
     0
102
RTVSPost2010Prop53
 90
        2
102
RTVSPost2010PropOp53
 70
     1
102
RTVSPost2010Prop54
  1
strokes_ogs.tif
102
RTVSPost2010PropOp54
 70
     1
102
RTVSPost2010Prop55
280
     0
102
RTVSPost2010PropOp55
 70
     1
102
RTVSPost2010Prop56
140
1.0
102
RTVSPost2010PropOp56
 70
     1
102
RTVSPost2010Prop57
140
1.0
102
RTVSPost2010PropOp57
 70
     1
  0
XRECORD
  5
237
102
{ACAD_REACTORS
330
236
102
}
330
236
100
AcDbXrecord
280
     1
102
RTVSPropertyOp0
 70
     1
102
RTVSPropertyOp1
 70
     1
102
RTVSPropertyOp2
 70
     1
102
RTVSPropertyOp3
 70
     1
102
RTVSPropertyOp4
 70
     1
102
RTVSPropertyOp5
 70
     1
102
RTVSPropertyOp6
 70
     1
102
RTVSPropertyOp7
 70
     1
102
RTVSPropertyOp8
 70
     1
102
RTVSPropertyOp9
 70
     1
102
RTVSPropertyOp10
 70
     1
102
RTVSPropertyOp11
 70
     1
102
RTVSPropertyOp12
 70
     1
102
RTVSPropertyOp13
 70
     1
102
RTVSPropertyOp14
 70
     1
102
RTVSPropertyOp15
 70
     1
102
RTVSPropertyOp16
 70
     1
102
RTVSPropertyOp17
 70
     1
102
RTVSPropertyOp18
 70
     1
102
RTVSPropertyOp19
 70
     1
102
RTVSPropertyOp20
 70
     1
102
RTVSPropertyOp21
 70
     1
102
RTVSPropertyOp22
 70
     1
102
RTVSPropertyOp23
 70
     1
102
RTVSPropertyOp24
 70
     1
102
RTVSPropertyOp25
 70
     1
102
RTVSPropertyOp26
 70
     1
102
RTVSPropertyOp27
 70
     1
102
RTVSPropertyOp28
 70
     1
102
RTVSPropertyOp29
 70
     1
102
RTVSPropertyOp30
 70
     1
102
RTVSPropertyOp31
 70
     1
102
RTVSPropertyOp32
 70
     1
102
RTVSPropertyOp33
 70
     1
102
RTVSPropertyOp34
 70
     1
102
RTVSPropertyOp35
 70
     1
102
RTVSPropertyOp36
 70
     1
102
RTVSPropertyOp37
 70
     1
102
RTVSPropertyOp38
 70
     1
102
RTVSPropertyOp39
 70
     1
102
RTVSPropertyOp40
 70
     1
102
RTVSPropertyOp41
 70
     1
102
RTVSPropertyOp42
 70
     1
102
RTVSPropertyOp43
 70
     1
102
RTVSPropertyOp44
 70
     1
102
RTVSPropertyOp45
 70
     1
102
RTVSPropertyOp46
 70
     1
102
RTVSPropertyOp47
 70
     1
102
RTVSPropertyOp48
 70
     1
102
RTVSPropertyOp49
 70
     1
102
RTVSPropertyOp50
 70
     1
102
RTVSPropertyOp51
 70
     0
102
RTVSPropertyOp52
 70
     0
102
RTVSPropertyOp53
 70
     1
102
RTVSPropertyOp54
 70
     1
102
RTVSPropertyOp55
 70
     1
102
RTVSPropertyOp56
 70
     1
102
RTVSPropertyOp57
 70
     1
102
RTVSPost2010Prop28
280
     0
102
RTVSPost2010PropOp28
 70
     1
102
RTVSPost2010Prop29
280
     1
102
RTVSPost2010PropOp29
 70
     1
102
RTVSPost2010Prop30
280
     1
102
RTVSPost2010PropOp30
 70
     1
102
RTVSPost2010Prop31
280
     0
102
RTVSPost2010PropOp31
 70
     1
102
RTVSPost2010Prop32
280
     0
102
RTVSPost2010PropOp32
 70
     1
102
RTVSPost2010Prop33
280
     0
102
RTVSPost2010PropOp33
 70
     1
102
RTVSPost2010Prop34
280
     0
102
RTVSPost2010PropOp34
 70
     1
102
RTVSPost2010Prop35
280
     0
102
RTVSPost2010PropOp35
 70
     1
102
RTVSPost2010Prop36
280
     0
102
RTVSPost2010PropOp36
 70
     1
102
RTVSPost2010Prop37
 90
       50
102
RTVSPost2010PropOp37
 70
     1
102
RTVSPost2010Prop38
140
0.0
102
RTVSPost2010PropOp38
 70
     1
102
RTVSPost2010Prop39
140
1.0
102
RTVSPost2010PropOp39
 70
     1
102
RTVSPost2010Prop40
 90
        0
102
RTVSPost2010PropOp40
 70
     1
102
RTVSPost2010Prop41ColorIndex
 90
       18
102
RTVSPost2010Prop41ColorRGB
 90
        0
102
RTVSPost2010PropOp41
 70
     1
102
RTVSPost2010Prop42
 90
       50
102
RTVSPost2010PropOp42
 70
     1
102
RTVSPost2010Prop43
 90
        3
102
RTVSPost2010PropOp43
 70
     1
102
RTVSPost2010Prop44ColorIndex
 90
        5
102
RTVSPost2010Prop44ColorRGB
 90
      255
102
RTVSPost2010PropOp44
 70
     1
102
RTVSPost2010Prop45
280
     0
102
RTVSPost2010PropOp45
 70
     1
102
RTVSPost2010Prop46
 90
       50
102
RTVSPost2010PropOp46
 70
     1
102
RTVSPost2010Prop47
 90
       50
102
RTVSPost2010PropOp47
 70
     1
102
RTVSPost2010Prop48
 90
       50
102
RTVSPost2010PropOp48
 70
     1
102
RTVSPost2010Prop49
280
     0
102
RTVSPost2010PropOp49
 70
     1
102
RTVSPost2010Prop50
 90
       50
102
RTVSPost2010PropOp50
 70
     1
102
RTVSPost2010Prop51ColorIndex
 90
      256
102
RTVSPost2010Prop51ColorRGB
 90
-16777216
102
RTVSPost2010PropOp51
 70
     0
102
RTVSPost2010Prop52
140
1.0
102
RTVSPost2010PropOp52
 70
     0
102
RTVSPost2010Prop53
 90
        2
102
RTVSPost2010PropOp53
 70
     1
102
RTVSPost2010Prop54
  1
strokes_ogs.tif
102
RTVSPost2010PropOp54
 70
     1
102
RTVSPost2010Prop55
280
     0
102
RTVSPost2010PropOp55
 70
     1
102
RTVSPost2010Prop56
140
1.0
102
RTVSPost2010PropOp56
 70
     1
102
RTVSPost2010Prop57
140
1.0
102
RTVSPost2010PropOp57
 70
     1
  0
XRECORD
  5
239
102
{ACAD_REACTORS
330
238
102
}
330
238
100
AcDbXrecord
280
     1
102
RTVSPropertyOp0
 70
     1
102
RTVSPropertyOp1
 70
     1
102
RTVSPropertyOp2
 70
     1
102
RTVSPropertyOp3
 70
     1
102
RTVSPropertyOp4
 70
     1
102
RTVSPropertyOp5
 70
     1
102
RTVSPropertyOp6
 70
     1
102
RTVSPropertyOp7
 70
     1
102
RTVSPropertyOp8
 70
     1
102
RTVSPropertyOp9
 70
     1
102
RTVSPropertyOp10
 70
     1
102
RTVSPropertyOp11
 70
     1
102
RTVSPropertyOp12
 70
     1
102
RTVSPropertyOp13
 70
     1
102
RTVSPropertyOp14
 70
     1
102
RTVSPropertyOp15
 70
     1
102
RTVSPropertyOp16
 70
     1
102
RTVSPropertyOp17
 70
     1
102
RTVSPropertyOp18
 70
     1
102
RTVSPropertyOp19
 70
     1
102
RTVSPropertyOp20
 70
     1
102
RTVSPropertyOp21
 70
     1
102
RTVSPropertyOp22
 70
     1
102
RTVSPropertyOp23
 70
     1
102
RTVSPropertyOp24
 70
     1
102
RTVSPropertyOp25
 70
     1
102
RTVSPropertyOp26
 70
     1
102
RTVSPropertyOp27
 70
     1
102
RTVSPropertyOp28
 70
     1
102
RTVSPropertyOp29
 70
     1
102
RTVSPropertyOp30
 70
     1
102
RTVSPropertyOp31
 70
     1
102
RTVSPropertyOp32
 70
     1
102
RTVSPropertyOp33
 70
     1
102
RTVSPropertyOp34
 70
     1
102
RTVSPropertyOp35
 70
     1
102
RTVSPropertyOp36
 70
     1
102
RTVSPropertyOp37
 70
     1
102
RTVSPropertyOp38
 70
     1
102
RTVSPropertyOp39
 70
     1
102
RTVSPropertyOp40
 70
     1
102
RTVSPropertyOp41
 70
     1
102
RTVSPropertyOp42
 70
     1
102
RTVSPropertyOp43
 70
     1
102
RTVSPropertyOp44
 70
     1
102
RTVSPropertyOp45
 70
     1
102
RTVSPropertyOp46
 70
     1
102
RTVSPropertyOp47
 70
     1
102
RTVSPropertyOp48
 70
     1
102
RTVSPropertyOp49
 70
     1
102
RTVSPropertyOp50
 70
     1
102
RTVSPropertyOp51
 70
     0
102
RTVSPropertyOp52
 70
     0
102
RTVSPropertyOp53
 70
     1
102
RTVSPropertyOp54
 70
     1
102
RTVSPropertyOp55
 70
     1
102
RTVSPropertyOp56
 70
     1
102
RTVSPropertyOp57
 70
     1
102
RTVSPost2010Prop28
280
     0
102
RTVSPost2010PropOp28
 70
     1
102
RTVSPost2010Prop29
280
     1
102
RTVSPost2010PropOp29
 70
     1
102
RTVSPost2010Prop30
280
     1
102
RTVSPost2010PropOp30
 70
     1
102
RTVSPost2010Prop31
280
     0
102
RTVSPost2010PropOp31
 70
     1
102
RTVSPost2010Prop32
280
     0
102
RTVSPost2010PropOp32
 70
     1
102
RTVSPost2010Prop33
280
     0
102
RTVSPost2010PropOp33
 70
     1
102
RTVSPost2010Prop34
280
     0
102
RTVSPost2010PropOp34
 70
     1
102
RTVSPost2010Prop35
280
     0
102
RTVSPost2010PropOp35
 70
     1
102
RTVSPost2010Prop36
280
     0
102
RTVSPost2010PropOp36
 70
     1
102
RTVSPost2010Prop37
 90
       50
102
RTVSPost2010PropOp37
 70
     1
102
RTVSPost2010Prop38
140
0.0
102
RTVSPost2010PropOp38
 70
     1
102
RTVSPost2010Prop39
140
1.0
102
RTVSPost2010PropOp39
 70
     1
102
RTVSPost2010Prop40
 90
        0
102
RTVSPost2010PropOp40
 70
     1
102
RTVSPost2010Prop41ColorIndex
 90
       18
102
RTVSPost2010Prop41ColorRGB
 90
        0
102
RTVSPost2010PropOp41
 70
     1
102
RTVSPost2010Prop42
 90
       50
102
RTVSPost2010PropOp42
 70
     1
102
RTVSPost2010Prop43
 90
        3
102
RTVSPost2010PropOp43
 70
     1
102
RTVSPost2010Prop44ColorIndex
 90
        5
102
RTVSPost2010Prop44ColorRGB
 90
      255
102
RTVSPost2010PropOp44
 70
     1
102
RTVSPost2010Prop45
280
     0
102
RTVSPost2010PropOp45
 70
     1
102
RTVSPost2010Prop46
 90
       50
102
RTVSPost2010PropOp46
 70
     1
102
RTVSPost2010Prop47
 90
       50
102
RTVSPost2010PropOp47
 70
     1
102
RTVSPost2010Prop48
 90
       50
102
RTVSPost2010PropOp48
 70
     1
102
RTVSPost2010Prop49
280
     0
102
RTVSPost2010PropOp49
 70
     1
102
RTVSPost2010Prop50
 90
       50
102
RTVSPost2010PropOp50
 70
     1
102
RTVSPost2010Prop51ColorIndex
 90
      256
102
RTVSPost2010Prop51ColorRGB
 90
-16777216
102
RTVSPost2010PropOp51
 70
     0
102
RTVSPost2010Prop52
140
1.0
102
RTVSPost2010PropOp52
 70
     0
102
RTVSPost2010Prop53
 90
        2
102
RTVSPost2010PropOp53
 70
     1
102
RTVSPost2010Prop54
  1
strokes_ogs.tif
102
RTVSPost2010PropOp54
 70
     1
102
RTVSPost2010Prop55
280
     0
102
RTVSPost2010PropOp55
 70
     1
102
RTVSPost2010Prop56
140
1.0
102
RTVSPost2010PropOp56
 70
     1
102
RTVSPost2010Prop57
140
1.0
102
RTVSPost2010PropOp57
 70
     1
  0
XRECORD
  5
23F
102
{ACAD_REACTORS
330
23E
102
}
330
23E
100
AcDbXrecord
280
     1
102
RTVSPropertyOp0
 70
     1
102
RTVSPropertyOp1
 70
     1
102
RTVSPropertyOp2
 70
     1
102
RTVSPropertyOp3
 70
     1
102
RTVSPropertyOp4
 70
     1
102
RTVSPropertyOp5
 70
     1
102
RTVSPropertyOp6
 70
     1
102
RTVSPropertyOp7
 70
     1
102
RTVSPropertyOp8
 70
     1
102
RTVSPropertyOp9
 70
     1
102
RTVSPropertyOp10
 70
     1
102
RTVSPropertyOp11
 70
     1
102
RTVSPropertyOp12
 70
     1
102
RTVSPropertyOp13
 70
     1
102
RTVSPropertyOp14
 70
     1
102
RTVSPropertyOp15
 70
     1
102
RTVSPropertyOp16
 70
     1
102
RTVSPropertyOp17
 70
     1
102
RTVSPropertyOp18
 70
     1
102
RTVSPropertyOp19
 70
     1
102
RTVSPropertyOp20
 70
     1
102
RTVSPropertyOp21
 70
     1
102
RTVSPropertyOp22
 70
     1
102
RTVSPropertyOp23
 70
     1
102
RTVSPropertyOp24
 70
     1
102
RTVSPropertyOp25
 70
     1
102
RTVSPropertyOp26
 70
     1
102
RTVSPropertyOp27
 70
     1
102
RTVSPropertyOp28
 70
     1
102
RTVSPropertyOp29
 70
     1
102
RTVSPropertyOp30
 70
     1
102
RTVSPropertyOp31
 70
     1
102
RTVSPropertyOp32
 70
     1
102
RTVSPropertyOp33
 70
     1
102
RTVSPropertyOp34
 70
     1
102
RTVSPropertyOp35
 70
     1
102
RTVSPropertyOp36
 70
     1
102
RTVSPropertyOp37
 70
     1
102
RTVSPropertyOp38
 70
     1
102
RTVSPropertyOp39
 70
     1
102
RTVSPropertyOp40
 70
     1
102
RTVSPropertyOp41
 70
     1
102
RTVSPropertyOp42
 70
     1
102
RTVSPropertyOp43
 70
     1
102
RTVSPropertyOp44
 70
     1
102
RTVSPropertyOp45
 70
     1
102
RTVSPropertyOp46
 70
     1
102
RTVSPropertyOp47
 70
     1
102
RTVSPropertyOp48
 70
     1
102
RTVSPropertyOp49
 70
     1
102
RTVSPropertyOp50
 70
     1
102
RTVSPropertyOp51
 70
     0
102
RTVSPropertyOp52
 70
     0
102
RTVSPropertyOp53
 70
     1
102
RTVSPropertyOp54
 70
     1
102
RTVSPropertyOp55
 70
     1
102
RTVSPropertyOp56
 70
     1
102
RTVSPropertyOp57
 70
     1
102
RTVSPost2010Prop28
280
     0
102
RTVSPost2010PropOp28
 70
     1
102
RTVSPost2010Prop29
280
     1
102
RTVSPost2010PropOp29
 70
     1
102
RTVSPost2010Prop30
280
     1
102
RTVSPost2010PropOp30
 70
     1
102
RTVSPost2010Prop31
280
     0
102
RTVSPost2010PropOp31
 70
     1
102
RTVSPost2010Prop32
280
     0
102
RTVSPost2010PropOp32
 70
     1
102
RTVSPost2010Prop33
280
     0
102
RTVSPost2010PropOp33
 70
     1
102
RTVSPost2010Prop34
280
     0
102
RTVSPost2010PropOp34
 70
     1
102
RTVSPost2010Prop35
280
     0
102
RTVSPost2010PropOp35
 70
     1
102
RTVSPost2010Prop36
280
     0
102
RTVSPost2010PropOp36
 70
     1
102
RTVSPost2010Prop37
 90
       50
102
RTVSPost2010PropOp37
 70
     1
102
RTVSPost2010Prop38
140
0.0
102
RTVSPost2010PropOp38
 70
     1
102
RTVSPost2010Prop39
140
1.0
102
RTVSPost2010PropOp39
 70
     1
102
RTVSPost2010Prop40
 90
        0
102
RTVSPost2010PropOp40
 70
     1
102
RTVSPost2010Prop41ColorIndex
 90
       18
102
RTVSPost2010Prop41ColorRGB
 90
        0
102
RTVSPost2010PropOp41
 70
     1
102
RTVSPost2010Prop42
 90
       50
102
RTVSPost2010PropOp42
 70
     1
102
RTVSPost2010Prop43
 90
        3
102
RTVSPost2010PropOp43
 70
     1
102
RTVSPost2010Prop44ColorIndex
 90
        5
102
RTVSPost2010Prop44ColorRGB
 90
      255
102
RTVSPost2010PropOp44
 70
     1
102
RTVSPost2010Prop45
280
     0
102
RTVSPost2010PropOp45
 70
     1
102
RTVSPost2010Prop46
 90
       50
102
RTVSPost2010PropOp46
 70
     1
102
RTVSPost2010Prop47
 90
       50
102
RTVSPost2010PropOp47
 70
     1
102
RTVSPost2010Prop48
 90
       50
102
RTVSPost2010PropOp48
 70
     1
102
RTVSPost2010Prop49
280
     0
102
RTVSPost2010PropOp49
 70
     1
102
RTVSPost2010Prop50
 90
       50
102
RTVSPost2010PropOp50
 70
     1
102
RTVSPost2010Prop51ColorIndex
 90
      256
102
RTVSPost2010Prop51ColorRGB
 90
-16777216
102
RTVSPost2010PropOp51
 70
     0
102
RTVSPost2010Prop52
140
1.0
102
RTVSPost2010PropOp52
 70
     0
102
RTVSPost2010Prop53
 90
        2
102
RTVSPost2010PropOp53
 70
     1
102
RTVSPost2010Prop54
  1
strokes_ogs.tif
102
RTVSPost2010PropOp54
 70
     1
102
RTVSPost2010Prop55
280
     0
102
RTVSPost2010PropOp55
 70
     1
102
RTVSPost2010Prop56
140
1.0
102
RTVSPost2010PropOp56
 70
     1
102
RTVSPost2010Prop57
140
1.0
102
RTVSPost2010PropOp57
 70
     1
  0
XRECORD
  5
253
102
{ACAD_REACTORS
330
252
102
}
330
252
100
AcDbXrecord
280
     1
102
RTVSPropertyOp0
 70
     0
102
RTVSPropertyOp1
 70
     0
102
RTVSPropertyOp2
 70
     0
102
RTVSPropertyOp3
 70
     0
102
RTVSPropertyOp4
 70
     0
102
RTVSPropertyOp5
 70
     0
102
RTVSPropertyOp6
 70
     0
102
RTVSPropertyOp7
 70
     0
102
RTVSPropertyOp8
 70
     0
102
RTVSPropertyOp9
 70
     0
102
RTVSPropertyOp10
 70
     0
102
RTVSPropertyOp11
 70
     0
102
RTVSPropertyOp12
 70
     0
102
RTVSPropertyOp13
 70
     0
102
RTVSPropertyOp14
 70
     2
102
RTVSPropertyOp15
 70
     0
102
RTVSPropertyOp16
 70
     0
102
RTVSPropertyOp17
 70
     0
102
RTVSPropertyOp18
 70
     0
102
RTVSPropertyOp19
 70
     0
102
RTVSPropertyOp20
 70
     0
102
RTVSPropertyOp21
 70
     0
102
RTVSPropertyOp22
 70
     0
102
RTVSPropertyOp23
 70
     0
102
RTVSPropertyOp24
 70
     0
102
RTVSPropertyOp25
 70
     0
102
RTVSPropertyOp26
 70
     0
102
RTVSPropertyOp27
 70
     0
102
RTVSPropertyOp28
 70
     0
102
RTVSPropertyOp29
 70
     0
102
RTVSPropertyOp30
 70
     0
102
RTVSPropertyOp31
 70
     0
102
RTVSPropertyOp32
 70
     0
102
RTVSPropertyOp33
 70
     0
102
RTVSPropertyOp34
 70
     0
102
RTVSPropertyOp35
 70
     0
102
RTVSPropertyOp36
 70
     0
102
RTVSPropertyOp37
 70
     0
102
RTVSPropertyOp38
 70
     0
102
RTVSPropertyOp39
 70
     0
102
RTVSPropertyOp40
 70
     0
102
RTVSPropertyOp41
 70
     0
102
RTVSPropertyOp42
 70
     0
102
RTVSPropertyOp43
 70
     0
102
RTVSPropertyOp44
 70
     0
102
RTVSPropertyOp45
 70
     0
102
RTVSPropertyOp46
 70
     0
102
RTVSPropertyOp47
 70
     0
102
RTVSPropertyOp48
 70
     0
102
RTVSPropertyOp49
 70
     0
102
RTVSPropertyOp50
 70
     0
102
RTVSPropertyOp51
 70
     0
102
RTVSPropertyOp52
 70
     0
102
RTVSPropertyOp53
 70
     0
102
RTVSPropertyOp54
 70
     0
102
RTVSPropertyOp55
 70
     0
102
RTVSPropertyOp56
 70
     0
102
RTVSPropertyOp57
 70
     0
102
RTVSPost2010Prop28
280
     0
102
RTVSPost2010PropOp28
 70
     0
102
RTVSPost2010Prop29
280
     1
102
RTVSPost2010PropOp29
 70
     0
102
RTVSPost2010Prop30
280
     1
102
RTVSPost2010PropOp30
 70
     0
102
RTVSPost2010Prop31
280
     0
102
RTVSPost2010PropOp31
 70
     0
102
RTVSPost2010Prop32
280
     0
102
RTVSPost2010PropOp32
 70
     0
102
RTVSPost2010Prop33
280
     0
102
RTVSPost2010PropOp33
 70
     0
102
RTVSPost2010Prop34
280
     0
102
RTVSPost2010PropOp34
 70
     0
102
RTVSPost2010Prop35
280
     0
102
RTVSPost2010PropOp35
 70
     0
102
RTVSPost2010Prop36
280
     0
102
RTVSPost2010PropOp36
 70
     0
102
RTVSPost2010Prop37
 90
       50
102
RTVSPost2010PropOp37
 70
     0
102
RTVSPost2010Prop38
140
0.0
102
RTVSPost2010PropOp38
 70
     0
102
RTVSPost2010Prop39
140
1.0
102
RTVSPost2010PropOp39
 70
     0
102
RTVSPost2010Prop40
 90
        0
102
RTVSPost2010PropOp40
 70
     0
102
RTVSPost2010Prop41ColorIndex
 90
       18
102
RTVSPost2010Prop41ColorRGB
 90
        0
102
RTVSPost2010PropOp41
 70
     0
102
RTVSPost2010Prop42
 90
       50
102
RTVSPost2010PropOp42
 70
     0
102
RTVSPost2010Prop43
 90
        3
102
RTVSPost2010PropOp43
 70
     0
102
RTVSPost2010Prop44ColorIndex
 90
        5
102
RTVSPost2010Prop44ColorRGB
 90
      255
102
RTVSPost2010PropOp44
 70
     0
102
RTVSPost2010Prop45
280
     0
102
RTVSPost2010PropOp45
 70
     0
102
RTVSPost2010Prop46
 90
       50
102
RTVSPost2010PropOp46
 70
     0
102
RTVSPost2010Prop47
 90
       50
102
RTVSPost2010PropOp47
 70
     0
102
RTVSPost2010Prop48
 90
       50
102
RTVSPost2010PropOp48
 70
     0
102
RTVSPost2010Prop49
280
     0
102
RTVSPost2010PropOp49
 70
     0
102
RTVSPost2010Prop50
 90
       50
102
RTVSPost2010PropOp50
 70
     0
102
RTVSPost2010Prop51ColorIndex
 90
      256
102
RTVSPost2010Prop51ColorRGB
 90
-16777216
102
RTVSPost2010PropOp51
 70
     0
102
RTVSPost2010Prop52
140
1.0
102
RTVSPost2010PropOp52
 70
     0
102
RTVSPost2010Prop53
 90
        2
102
RTVSPost2010PropOp53
 70
     0
102
RTVSPost2010Prop54
  1
strokes_ogs.tif
102
RTVSPost2010PropOp54
 70
     0
102
RTVSPost2010Prop55
280
     0
102
RTVSPost2010PropOp55
 70
     0
102
RTVSPost2010Prop56
140
1.0
102
RTVSPost2010PropOp56
 70
     0
102
RTVSPost2010Prop57
140
1.0
102
RTVSPost2010PropOp57
 70
     0
  0
XRECORD
  5
24D
102
{ACAD_REACTORS
330
24C
102
}
330
24C
100
AcDbXrecord
280
     1
102
RTVSPropertyOp0
 70
     1
102
RTVSPropertyOp1
 70
     1
102
RTVSPropertyOp2
 70
     1
102
RTVSPropertyOp3
 70
     1
102
RTVSPropertyOp4
 70
     1
102
RTVSPropertyOp5
 70
     1
102
RTVSPropertyOp6
 70
     1
102
RTVSPropertyOp7
 70
     1
102
RTVSPropertyOp8
 70
     1
102
RTVSPropertyOp9
 70
     1
102
RTVSPropertyOp10
 70
     1
102
RTVSPropertyOp11
 70
     1
102
RTVSPropertyOp12
 70
     1
102
RTVSPropertyOp13
 70
     1
102
RTVSPropertyOp14
 70
     1
102
RTVSPropertyOp15
 70
     1
102
RTVSPropertyOp16
 70
     1
102
RTVSPropertyOp17
 70
     1
102
RTVSPropertyOp18
 70
     1
102
RTVSPropertyOp19
 70
     1
102
RTVSPropertyOp20
 70
     1
102
RTVSPropertyOp21
 70
     1
102
RTVSPropertyOp22
 70
     1
102
RTVSPropertyOp23
 70
     1
102
RTVSPropertyOp24
 70
     1
102
RTVSPropertyOp25
 70
     1
102
RTVSPropertyOp26
 70
     1
102
RTVSPropertyOp27
 70
     1
102
RTVSPropertyOp28
 70
     1
102
RTVSPropertyOp29
 70
     1
102
RTVSPropertyOp30
 70
     1
102
RTVSPropertyOp31
 70
     1
102
RTVSPropertyOp32
 70
     1
102
RTVSPropertyOp33
 70
     1
102
RTVSPropertyOp34
 70
     1
102
RTVSPropertyOp35
 70
     1
102
RTVSPropertyOp36
 70
     1
102
RTVSPropertyOp37
 70
     1
102
RTVSPropertyOp38
 70
     1
102
RTVSPropertyOp39
 70
     1
102
RTVSPropertyOp40
 70
     1
102
RTVSPropertyOp41
 70
     1
102
RTVSPropertyOp42
 70
     1
102
RTVSPropertyOp43
 70
     1
102
RTVSPropertyOp44
 70
     1
102
RTVSPropertyOp45
 70
     1
102
RTVSPropertyOp46
 70
     1
102
RTVSPropertyOp47
 70
     1
102
RTVSPropertyOp48
 70
     1
102
RTVSPropertyOp49
 70
     1
102
RTVSPropertyOp50
 70
     1
102
RTVSPropertyOp51
 70
     0
102
RTVSPropertyOp52
 70
     0
102
RTVSPropertyOp53
 70
     1
102
RTVSPropertyOp54
 70
     1
102
RTVSPropertyOp55
 70
     1
102
RTVSPropertyOp56
 70
     1
102
RTVSPropertyOp57
 70
     1
102
RTVSPost2010Prop28
280
     0
102
RTVSPost2010PropOp28
 70
     1
102
RTVSPost2010Prop29
280
     1
102
RTVSPost2010PropOp29
 70
     1
102
RTVSPost2010Prop30
280
     1
102
RTVSPost2010PropOp30
 70
     1
102
RTVSPost2010Prop31
280
     0
102
RTVSPost2010PropOp31
 70
     1
102
RTVSPost2010Prop32
280
     0
102
RTVSPost2010PropOp32
 70
     1
102
RTVSPost2010Prop33
280
     0
102
RTVSPost2010PropOp33
 70
     1
102
RTVSPost2010Prop34
280
     0
102
RTVSPost2010PropOp34
 70
     1
102
RTVSPost2010Prop35
280
     0
102
RTVSPost2010PropOp35
 70
     1
102
RTVSPost2010Prop36
280
     0
102
RTVSPost2010PropOp36
 70
     1
102
RTVSPost2010Prop37
 90
       50
102
RTVSPost2010PropOp37
 70
     1
102
RTVSPost2010Prop38
140
0.0
102
RTVSPost2010PropOp38
 70
     1
102
RTVSPost2010Prop39
140
1.0
102
RTVSPost2010PropOp39
 70
     1
102
RTVSPost2010Prop40
 90
        0
102
RTVSPost2010PropOp40
 70
     1
102
RTVSPost2010Prop41ColorIndex
 90
       18
102
RTVSPost2010Prop41ColorRGB
 90
        0
102
RTVSPost2010PropOp41
 70
     1
102
RTVSPost2010Prop42
 90
       50
102
RTVSPost2010PropOp42
 70
     1
102
RTVSPost2010Prop43
 90
        3
102
RTVSPost2010PropOp43
 70
     1
102
RTVSPost2010Prop44ColorIndex
 90
        5
102
RTVSPost2010Prop44ColorRGB
 90
      255
102
RTVSPost2010PropOp44
 70
     1
102
RTVSPost2010Prop45
280
     0
102
RTVSPost2010PropOp45
 70
     1
102
RTVSPost2010Prop46
 90
       50
102
RTVSPost2010PropOp46
 70
     1
102
RTVSPost2010Prop47
 90
       50
102
RTVSPost2010PropOp47
 70
     1
102
RTVSPost2010Prop48
 90
       50
102
RTVSPost2010PropOp48
 70
     1
102
RTVSPost2010Prop49
280
     0
102
RTVSPost2010PropOp49
 70
     1
102
RTVSPost2010Prop50
 90
       50
102
RTVSPost2010PropOp50
 70
     1
102
RTVSPost2010Prop51ColorIndex
 90
      256
102
RTVSPost2010Prop51ColorRGB
 90
-16777216
102
RTVSPost2010PropOp51
 70
     0
102
RTVSPost2010Prop52
140
1.0
102
RTVSPost2010PropOp52
 70
     0
102
RTVSPost2010Prop53
 90
        2
102
RTVSPost2010PropOp53
 70
     1
102
RTVSPost2010Prop54
  1
strokes_ogs.tif
102
RTVSPost2010PropOp54
 70
     1
102
RTVSPost2010Prop55
280
     0
102
RTVSPost2010PropOp55
 70
     1
102
RTVSPost2010Prop56
140
1.0
102
RTVSPost2010PropOp56
 70
     1
102
RTVSPost2010Prop57
140
1.0
102
RTVSPost2010PropOp57
 70
     1
  0
XRECORD
  5
255
102
{ACAD_REACTORS
330
254
102
}
330
254
100
AcDbXrecord
280
     1
102
RTVSPropertyOp0
 70
     0
102
RTVSPropertyOp1
 70
     0
102
RTVSPropertyOp2
 70
     0
102
RTVSPropertyOp3
 70
     0
102
RTVSPropertyOp4
 70
     0
102
RTVSPropertyOp5
 70
     0
102
RTVSPropertyOp6
 70
     0
102
RTVSPropertyOp7
 70
     0
102
RTVSPropertyOp8
 70
     0
102
RTVSPropertyOp9
 70
     0
102
RTVSPropertyOp10
 70
     0
102
RTVSPropertyOp11
 70
     0
102
RTVSPropertyOp12
 70
     0
102
RTVSPropertyOp13
 70
     0
102
RTVSPropertyOp14
 70
     2
102
RTVSPropertyOp15
 70
     0
102
RTVSPropertyOp16
 70
     0
102
RTVSPropertyOp17
 70
     0
102
RTVSPropertyOp18
 70
     0
102
RTVSPropertyOp19
 70
     0
102
RTVSPropertyOp20
 70
     0
102
RTVSPropertyOp21
 70
     0
102
RTVSPropertyOp22
 70
     0
102
RTVSPropertyOp23
 70
     0
102
RTVSPropertyOp24
 70
     0
102
RTVSPropertyOp25
 70
     0
102
RTVSPropertyOp26
 70
     0
102
RTVSPropertyOp27
 70
     0
102
RTVSPropertyOp28
 70
     0
102
RTVSPropertyOp29
 70
     0
102
RTVSPropertyOp30
 70
     0
102
RTVSPropertyOp31
 70
     0
102
RTVSPropertyOp32
 70
     0
102
RTVSPropertyOp33
 70
     0
102
RTVSPropertyOp34
 70
     0
102
RTVSPropertyOp35
 70
     0
102
RTVSPropertyOp36
 70
     0
102
RTVSPropertyOp37
 70
     0
102
RTVSPropertyOp38
 70
     0
102
RTVSPropertyOp39
 70
     0
102
RTVSPropertyOp40
 70
     0
102
RTVSPropertyOp41
 70
     0
102
RTVSPropertyOp42
 70
     0
102
RTVSPropertyOp43
 70
     0
102
RTVSPropertyOp44
 70
     0
102
RTVSPropertyOp45
 70
     0
102
RTVSPropertyOp46
 70
     0
102
RTVSPropertyOp47
 70
     0
102
RTVSPropertyOp48
 70
     0
102
RTVSPropertyOp49
 70
     0
102
RTVSPropertyOp50
 70
     0
102
RTVSPropertyOp51
 70
     0
102
RTVSPropertyOp52
 70
     0
102
RTVSPropertyOp53
 70
     0
102
RTVSPropertyOp54
 70
     0
102
RTVSPropertyOp55
 70
     0
102
RTVSPropertyOp56
 70
     0
102
RTVSPropertyOp57
 70
     0
102
RTVSPost2010Prop28
280
     0
102
RTVSPost2010PropOp28
 70
     0
102
RTVSPost2010Prop29
280
     1
102
RTVSPost2010PropOp29
 70
     0
102
RTVSPost2010Prop30
280
     1
102
RTVSPost2010PropOp30
 70
     0
102
RTVSPost2010Prop31
280
     0
102
RTVSPost2010PropOp31
 70
     0
102
RTVSPost2010Prop32
280
     0
102
RTVSPost2010PropOp32
 70
     0
102
RTVSPost2010Prop33
280
     0
102
RTVSPost2010PropOp33
 70
     0
102
RTVSPost2010Prop34
280
     0
102
RTVSPost2010PropOp34
 70
     0
102
RTVSPost2010Prop35
280
     0
102
RTVSPost2010PropOp35
 70
     0
102
RTVSPost2010Prop36
280
     0
102
RTVSPost2010PropOp36
 70
     0
102
RTVSPost2010Prop37
 90
       50
102
RTVSPost2010PropOp37
 70
     0
102
RTVSPost2010Prop38
140
0.0
102
RTVSPost2010PropOp38
 70
     0
102
RTVSPost2010Prop39
140
1.0
102
RTVSPost2010PropOp39
 70
     0
102
RTVSPost2010Prop40
 90
        0
102
RTVSPost2010PropOp40
 70
     0
102
RTVSPost2010Prop41ColorIndex
 90
       18
102
RTVSPost2010Prop41ColorRGB
 90
        0
102
RTVSPost2010PropOp41
 70
     0
102
RTVSPost2010Prop42
 90
       50
102
RTVSPost2010PropOp42
 70
     0
102
RTVSPost2010Prop43
 90
        3
102
RTVSPost2010PropOp43
 70
     0
102
RTVSPost2010Prop44ColorIndex
 90
        5
102
RTVSPost2010Prop44ColorRGB
 90
      255
102
RTVSPost2010PropOp44
 70
     0
102
RTVSPost2010Prop45
280
     0
102
RTVSPost2010PropOp45
 70
     0
102
RTVSPost2010Prop46
 90
       50
102
RTVSPost2010PropOp46
 70
     0
102
RTVSPost2010Prop47
 90
       50
102
RTVSPost2010PropOp47
 70
     0
102
RTVSPost2010Prop48
 90
       50
102
RTVSPost2010PropOp48
 70
     0
102
RTVSPost2010Prop49
280
     0
102
RTVSPost2010PropOp49
 70
     0
102
RTVSPost2010Prop50
 90
       50
102
RTVSPost2010PropOp50
 70
     0
102
RTVSPost2010Prop51ColorIndex
 90
      256
102
RTVSPost2010Prop51ColorRGB
 90
-16777216
102
RTVSPost2010PropOp51
 70
     0
102
RTVSPost2010Prop52
140
1.0
102
RTVSPost2010PropOp52
 70
     0
102
RTVSPost2010Prop53
 90
        2
102
RTVSPost2010PropOp53
 70
     0
102
RTVSPost2010Prop54
  1
strokes_ogs.tif
102
RTVSPost2010PropOp54
 70
     0
102
RTVSPost2010Prop55
280
     0
102
RTVSPost2010PropOp55
 70
     0
102
RTVSPost2010Prop56
140
1.0
102
RTVSPost2010PropOp56
 70
     0
102
RTVSPost2010Prop57
140
1.0
102
RTVSPost2010PropOp57
 70
     0
  0
XRECORD
  5
243
102
{ACAD_REACTORS
330
242
102
}
330
242
100
AcDbXrecord
280
     1
102
RTVSPropertyOp0
 70
     1
102
RTVSPropertyOp1
 70
     1
102
RTVSPropertyOp2
 70
     1
102
RTVSPropertyOp3
 70
     1
102
RTVSPropertyOp4
 70
     1
102
RTVSPropertyOp5
 70
     1
102
RTVSPropertyOp6
 70
     1
102
RTVSPropertyOp7
 70
     1
102
RTVSPropertyOp8
 70
     1
102
RTVSPropertyOp9
 70
     1
102
RTVSPropertyOp10
 70
     1
102
RTVSPropertyOp11
 70
     1
102
RTVSPropertyOp12
 70
     1
102
RTVSPropertyOp13
 70
     1
102
RTVSPropertyOp14
 70
     1
102
RTVSPropertyOp15
 70
     1
102
RTVSPropertyOp16
 70
     1
102
RTVSPropertyOp17
 70
     1
102
RTVSPropertyOp18
 70
     1
102
RTVSPropertyOp19
 70
     1
102
RTVSPropertyOp20
 70
     1
102
RTVSPropertyOp21
 70
     1
102
RTVSPropertyOp22
 70
     1
102
RTVSPropertyOp23
 70
     1
102
RTVSPropertyOp24
 70
     1
102
RTVSPropertyOp25
 70
     1
102
RTVSPropertyOp26
 70
     1
102
RTVSPropertyOp27
 70
     1
102
RTVSPropertyOp28
 70
     1
102
RTVSPropertyOp29
 70
     1
102
RTVSPropertyOp30
 70
     1
102
RTVSPropertyOp31
 70
     1
102
RTVSPropertyOp32
 70
     1
102
RTVSPropertyOp33
 70
     1
102
RTVSPropertyOp34
 70
     1
102
RTVSPropertyOp35
 70
     1
102
RTVSPropertyOp36
 70
     1
102
RTVSPropertyOp37
 70
     1
102
RTVSPropertyOp38
 70
     1
102
RTVSPropertyOp39
 70
     1
102
RTVSPropertyOp40
 70
     1
102
RTVSPropertyOp41
 70
     1
102
RTVSPropertyOp42
 70
     1
102
RTVSPropertyOp43
 70
     1
102
RTVSPropertyOp44
 70
     1
102
RTVSPropertyOp45
 70
     1
102
RTVSPropertyOp46
 70
     1
102
RTVSPropertyOp47
 70
     1
102
RTVSPropertyOp48
 70
     1
102
RTVSPropertyOp49
 70
     1
102
RTVSPropertyOp50
 70
     1
102
RTVSPropertyOp51
 70
     0
102
RTVSPropertyOp52
 70
     0
102
RTVSPropertyOp53
 70
     1
102
RTVSPropertyOp54
 70
     1
102
RTVSPropertyOp55
 70
     1
102
RTVSPropertyOp56
 70
     1
102
RTVSPropertyOp57
 70
     1
102
RTVSPost2010Prop28
280
     0
102
RTVSPost2010PropOp28
 70
     1
102
RTVSPost2010Prop29
280
     1
102
RTVSPost2010PropOp29
 70
     1
102
RTVSPost2010Prop30
280
     1
102
RTVSPost2010PropOp30
 70
     1
102
RTVSPost2010Prop31
280
     0
102
RTVSPost2010PropOp31
 70
     1
102
RTVSPost2010Prop32
280
     0
102
RTVSPost2010PropOp32
 70
     1
102
RTVSPost2010Prop33
280
     0
102
RTVSPost2010PropOp33
 70
     1
102
RTVSPost2010Prop34
280
     0
102
RTVSPost2010PropOp34
 70
     1
102
RTVSPost2010Prop35
280
     0
102
RTVSPost2010PropOp35
 70
     1
102
RTVSPost2010Prop36
280
     0
102
RTVSPost2010PropOp36
 70
     1
102
RTVSPost2010Prop37
 90
       50
102
RTVSPost2010PropOp37
 70
     1
102
RTVSPost2010Prop38
140
0.0
102
RTVSPost2010PropOp38
 70
     1
102
RTVSPost2010Prop39
140
1.0
102
RTVSPost2010PropOp39
 70
     1
102
RTVSPost2010Prop40
 90
        0
102
RTVSPost2010PropOp40
 70
     1
102
RTVSPost2010Prop41ColorIndex
 90
       18
102
RTVSPost2010Prop41ColorRGB
 90
        0
102
RTVSPost2010PropOp41
 70
     1
102
RTVSPost2010Prop42
 90
       50
102
RTVSPost2010PropOp42
 70
     1
102
RTVSPost2010Prop43
 90
        3
102
RTVSPost2010PropOp43
 70
     1
102
RTVSPost2010Prop44ColorIndex
 90
        5
102
RTVSPost2010Prop44ColorRGB
 90
      255
102
RTVSPost2010PropOp44
 70
     1
102
RTVSPost2010Prop45
280
     0
102
RTVSPost2010PropOp45
 70
     1
102
RTVSPost2010Prop46
 90
       50
102
RTVSPost2010PropOp46
 70
     1
102
RTVSPost2010Prop47
 90
       50
102
RTVSPost2010PropOp47
 70
     1
102
RTVSPost2010Prop48
 90
       50
102
RTVSPost2010PropOp48
 70
     1
102
RTVSPost2010Prop49
280
     0
102
RTVSPost2010PropOp49
 70
     1
102
RTVSPost2010Prop50
 90
       50
102
RTVSPost2010PropOp50
 70
     1
102
RTVSPost2010Prop51ColorIndex
 90
      256
102
RTVSPost2010Prop51ColorRGB
 90
-16777216
102
RTVSPost2010PropOp51
 70
     0
102
RTVSPost2010Prop52
140
1.0
102
RTVSPost2010PropOp52
 70
     0
102
RTVSPost2010Prop53
 90
        2
102
RTVSPost2010PropOp53
 70
     1
102
RTVSPost2010Prop54
  1
strokes_ogs.tif
102
RTVSPost2010PropOp54
 70
     1
102
RTVSPost2010Prop55
280
     0
102
RTVSPost2010PropOp55
 70
     1
102
RTVSPost2010Prop56
140
1.0
102
RTVSPost2010PropOp56
 70
     1
102
RTVSPost2010Prop57
140
1.0
102
RTVSPost2010PropOp57
 70
     1
  0
XRECORD
  5
261
102
{ACAD_REACTORS
330
260
102
}
330
260
100
AcDbXrecord
280
     1
102
RTVSPropertyOp0
 70
     1
102
RTVSPropertyOp1
 70
     1
102
RTVSPropertyOp2
 70
     1
102
RTVSPropertyOp3
 70
     1
102
RTVSPropertyOp4
 70
     1
102
RTVSPropertyOp5
 70
     1
102
RTVSPropertyOp6
 70
     1
102
RTVSPropertyOp7
 70
     1
102
RTVSPropertyOp8
 70
     1
102
RTVSPropertyOp9
 70
     1
102
RTVSPropertyOp10
 70
     1
102
RTVSPropertyOp11
 70
     1
102
RTVSPropertyOp12
 70
     1
102
RTVSPropertyOp13
 70
     1
102
RTVSPropertyOp14
 70
     1
102
RTVSPropertyOp15
 70
     1
102
RTVSPropertyOp16
 70
     1
102
RTVSPropertyOp17
 70
     1
102
RTVSPropertyOp18
 70
     1
102
RTVSPropertyOp19
 70
     1
102
RTVSPropertyOp20
 70
     1
102
RTVSPropertyOp21
 70
     1
102
RTVSPropertyOp22
 70
     1
102
RTVSPropertyOp23
 70
     1
102
RTVSPropertyOp24
 70
     1
102
RTVSPropertyOp25
 70
     1
102
RTVSPropertyOp26
 70
     1
102
RTVSPropertyOp27
 70
     1
102
RTVSPropertyOp28
 70
     1
102
RTVSPropertyOp29
 70
     1
102
RTVSPropertyOp30
 70
     1
102
RTVSPropertyOp31
 70
     1
102
RTVSPropertyOp32
 70
     1
102
RTVSPropertyOp33
 70
     1
102
RTVSPropertyOp34
 70
     1
102
RTVSPropertyOp35
 70
     1
102
RTVSPropertyOp36
 70
     1
102
RTVSPropertyOp37
 70
     1
102
RTVSPropertyOp38
 70
     1
102
RTVSPropertyOp39
 70
     1
102
RTVSPropertyOp40
 70
     1
102
RTVSPropertyOp41
 70
     1
102
RTVSPropertyOp42
 70
     1
102
RTVSPropertyOp43
 70
     1
102
RTVSPropertyOp44
 70
     1
102
RTVSPropertyOp45
 70
     1
102
RTVSPropertyOp46
 70
     1
102
RTVSPropertyOp47
 70
     1
102
RTVSPropertyOp48
 70
     1
102
RTVSPropertyOp49
 70
     1
102
RTVSPropertyOp50
 70
     1
102
RTVSPropertyOp51
 70
     0
102
RTVSPropertyOp52
 70
     0
102
RTVSPropertyOp53
 70
     1
102
RTVSPropertyOp54
 70
     1
102
RTVSPropertyOp55
 70
     1
102
RTVSPropertyOp56
 70
     1
102
RTVSPropertyOp57
 70
     1
102
RTVSPost2010Prop28
280
     0
102
RTVSPost2010PropOp28
 70
     1
102
RTVSPost2010Prop29
280
     1
102
RTVSPost2010PropOp29
 70
     1
102
RTVSPost2010Prop30
280
     1
102
RTVSPost2010PropOp30
 70
     1
102
RTVSPost2010Prop31
280
     0
102
RTVSPost2010PropOp31
 70
     1
102
RTVSPost2010Prop32
280
     0
102
RTVSPost2010PropOp32
 70
     1
102
RTVSPost2010Prop33
280
     0
102
RTVSPost2010PropOp33
 70
     1
102
RTVSPost2010Prop34
280
     0
102
RTVSPost2010PropOp34
 70
     1
102
RTVSPost2010Prop35
280
     0
102
RTVSPost2010PropOp35
 70
     1
102
RTVSPost2010Prop36
280
     0
102
RTVSPost2010PropOp36
 70
     1
102
RTVSPost2010Prop37
 90
       50
102
RTVSPost2010PropOp37
 70
     1
102
RTVSPost2010Prop38
140
0.0
102
RTVSPost2010PropOp38
 70
     1
102
RTVSPost2010Prop39
140
1.0
102
RTVSPost2010PropOp39
 70
     1
102
RTVSPost2010Prop40
 90
        0
102
RTVSPost2010PropOp40
 70
     1
102
RTVSPost2010Prop41ColorIndex
 90
       18
102
RTVSPost2010Prop41ColorRGB
 90
        0
102
RTVSPost2010PropOp41
 70
     1
102
RTVSPost2010Prop42
 90
       50
102
RTVSPost2010PropOp42
 70
     1
102
RTVSPost2010Prop43
 90
        3
102
RTVSPost2010PropOp43
 70
     1
102
RTVSPost2010Prop44ColorIndex
 90
        5
102
RTVSPost2010Prop44ColorRGB
 90
      255
102
RTVSPost2010PropOp44
 70
     1
102
RTVSPost2010Prop45
280
     0
102
RTVSPost2010PropOp45
 70
     1
102
RTVSPost2010Prop46
 90
       50
102
RTVSPost2010PropOp46
 70
     1
102
RTVSPost2010Prop47
 90
       50
102
RTVSPost2010PropOp47
 70
     1
102
RTVSPost2010Prop48
 90
       50
102
RTVSPost2010PropOp48
 70
     1
102
RTVSPost2010Prop49
280
     0
102
RTVSPost2010PropOp49
 70
     1
102
RTVSPost2010Prop50
 90
       50
102
RTVSPost2010PropOp50
 70
     1
102
RTVSPost2010Prop51ColorIndex
 90
      256
102
RTVSPost2010Prop51ColorRGB
 90
-16777216
102
RTVSPost2010PropOp51
 70
     0
102
RTVSPost2010Prop52
140
1.0
102
RTVSPost2010PropOp52
 70
     0
102
RTVSPost2010Prop53
 90
        2
102
RTVSPost2010PropOp53
 70
     1
102
RTVSPost2010Prop54
  1
strokes_ogs.tif
102
RTVSPost2010PropOp54
 70
     1
102
RTVSPost2010Prop55
280
     0
102
RTVSPost2010PropOp55
 70
     1
102
RTVSPost2010Prop56
140
1.0
102
RTVSPost2010PropOp56
 70
     1
102
RTVSPost2010Prop57
140
1.0
102
RTVSPost2010PropOp57
 70
     1
  0
XRECORD
  5
25F
102
{ACAD_REACTORS
330
25E
102
}
330
25E
100
AcDbXrecord
280
     1
102
RTVSPropertyOp0
 70
     1
102
RTVSPropertyOp1
 70
     1
102
RTVSPropertyOp2
 70
     1
102
RTVSPropertyOp3
 70
     1
102
RTVSPropertyOp4
 70
     1
102
RTVSPropertyOp5
 70
     1
102
RTVSPropertyOp6
 70
     1
102
RTVSPropertyOp7
 70
     1
102
RTVSPropertyOp8
 70
     1
102
RTVSPropertyOp9
 70
     1
102
RTVSPropertyOp10
 70
     1
102
RTVSPropertyOp11
 70
     1
102
RTVSPropertyOp12
 70
     1
102
RTVSPropertyOp13
 70
     1
102
RTVSPropertyOp14
 70
     1
102
RTVSPropertyOp15
 70
     1
102
RTVSPropertyOp16
 70
     1
102
RTVSPropertyOp17
 70
     1
102
RTVSPropertyOp18
 70
     1
102
RTVSPropertyOp19
 70
     1
102
RTVSPropertyOp20
 70
     1
102
RTVSPropertyOp21
 70
     1
102
RTVSPropertyOp22
 70
     1
102
RTVSPropertyOp23
 70
     1
102
RTVSPropertyOp24
 70
     1
102
RTVSPropertyOp25
 70
     1
102
RTVSPropertyOp26
 70
     1
102
RTVSPropertyOp27
 70
     1
102
RTVSPropertyOp28
 70
     1
102
RTVSPropertyOp29
 70
     1
102
RTVSPropertyOp30
 70
     1
102
RTVSPropertyOp31
 70
     1
102
RTVSPropertyOp32
 70
     1
102
RTVSPropertyOp33
 70
     1
102
RTVSPropertyOp34
 70
     1
102
RTVSPropertyOp35
 70
     1
102
RTVSPropertyOp36
 70
     1
102
RTVSPropertyOp37
 70
     1
102
RTVSPropertyOp38
 70
     1
102
RTVSPropertyOp39
 70
     1
102
RTVSPropertyOp40
 70
     1
102
RTVSPropertyOp41
 70
     1
102
RTVSPropertyOp42
 70
     1
102
RTVSPropertyOp43
 70
     1
102
RTVSPropertyOp44
 70
     1
102
RTVSPropertyOp45
 70
     1
102
RTVSPropertyOp46
 70
     1
102
RTVSPropertyOp47
 70
     1
102
RTVSPropertyOp48
 70
     1
102
RTVSPropertyOp49
 70
     1
102
RTVSPropertyOp50
 70
     1
102
RTVSPropertyOp51
 70
     0
102
RTVSPropertyOp52
 70
     0
102
RTVSPropertyOp53
 70
     1
102
RTVSPropertyOp54
 70
     1
102
RTVSPropertyOp55
 70
     1
102
RTVSPropertyOp56
 70
     1
102
RTVSPropertyOp57
 70
     1
102
RTVSPost2010Prop28
280
     0
102
RTVSPost2010PropOp28
 70
     1
102
RTVSPost2010Prop29
280
     1
102
RTVSPost2010PropOp29
 70
     1
102
RTVSPost2010Prop30
280
     1
102
RTVSPost2010PropOp30
 70
     1
102
RTVSPost2010Prop31
280
     0
102
RTVSPost2010PropOp31
 70
     1
102
RTVSPost2010Prop32
280
     0
102
RTVSPost2010PropOp32
 70
     1
102
RTVSPost2010Prop33
280
     0
102
RTVSPost2010PropOp33
 70
     1
102
RTVSPost2010Prop34
280
     0
102
RTVSPost2010PropOp34
 70
     1
102
RTVSPost2010Prop35
280
     0
102
RTVSPost2010PropOp35
 70
     1
102
RTVSPost2010Prop36
280
     0
102
RTVSPost2010PropOp36
 70
     1
102
RTVSPost2010Prop37
 90
       50
102
RTVSPost2010PropOp37
 70
     1
102
RTVSPost2010Prop38
140
0.0
102
RTVSPost2010PropOp38
 70
     1
102
RTVSPost2010Prop39
140
1.0
102
RTVSPost2010PropOp39
 70
     1
102
RTVSPost2010Prop40
 90
        0
102
RTVSPost2010PropOp40
 70
     1
102
RTVSPost2010Prop41ColorIndex
 90
       18
102
RTVSPost2010Prop41ColorRGB
 90
        0
102
RTVSPost2010PropOp41
 70
     1
102
RTVSPost2010Prop42
 90
       50
102
RTVSPost2010PropOp42
 70
     1
102
RTVSPost2010Prop43
 90
        3
102
RTVSPost2010PropOp43
 70
     1
102
RTVSPost2010Prop44ColorIndex
 90
        5
102
RTVSPost2010Prop44ColorRGB
 90
      255
102
RTVSPost2010PropOp44
 70
     1
102
RTVSPost2010Prop45
280
     0
102
RTVSPost2010PropOp45
 70
     1
102
RTVSPost2010Prop46
 90
       50
102
RTVSPost2010PropOp46
 70
     1
102
RTVSPost2010Prop47
 90
       50
102
RTVSPost2010PropOp47
 70
     1
102
RTVSPost2010Prop48
 90
       50
102
RTVSPost2010PropOp48
 70
     1
102
RTVSPost2010Prop49
280
     0
102
RTVSPost2010PropOp49
 70
     1
102
RTVSPost2010Prop50
 90
       50
102
RTVSPost2010PropOp50
 70
     1
102
RTVSPost2010Prop51ColorIndex
 90
      256
102
RTVSPost2010Prop51ColorRGB
 90
-16777216
102
RTVSPost2010PropOp51
 70
     0
102
RTVSPost2010Prop52
140
1.0
102
RTVSPost2010PropOp52
 70
     0
102
RTVSPost2010Prop53
 90
        2
102
RTVSPost2010PropOp53
 70
     1
102
RTVSPost2010Prop54
  1
strokes_ogs.tif
102
RTVSPost2010PropOp54
 70
     1
102
RTVSPost2010Prop55
280
     0
102
RTVSPost2010PropOp55
 70
     1
102
RTVSPost2010Prop56
140
1.0
102
RTVSPost2010PropOp56
 70
     1
102
RTVSPost2010Prop57
140
1.0
102
RTVSPost2010PropOp57
 70
     1
  0
XRECORD
  5
259
102
{ACAD_REACTORS
330
258
102
}
330
258
100
AcDbXrecord
280
     1
102
RTVSPropertyOp0
 70
     1
102
RTVSPropertyOp1
 70
     1
102
RTVSPropertyOp2
 70
     1
102
RTVSPropertyOp3
 70
     1
102
RTVSPropertyOp4
 70
     1
102
RTVSPropertyOp5
 70
     1
102
RTVSPropertyOp6
 70
     1
102
RTVSPropertyOp7
 70
     1
102
RTVSPropertyOp8
 70
     1
102
RTVSPropertyOp9
 70
     1
102
RTVSPropertyOp10
 70
     1
102
RTVSPropertyOp11
 70
     1
102
RTVSPropertyOp12
 70
     1
102
RTVSPropertyOp13
 70
     1
102
RTVSPropertyOp14
 70
     1
102
RTVSPropertyOp15
 70
     1
102
RTVSPropertyOp16
 70
     1
102
RTVSPropertyOp17
 70
     1
102
RTVSPropertyOp18
 70
     1
102
RTVSPropertyOp19
 70
     1
102
RTVSPropertyOp20
 70
     1
102
RTVSPropertyOp21
 70
     1
102
RTVSPropertyOp22
 70
     1
102
RTVSPropertyOp23
 70
     1
102
RTVSPropertyOp24
 70
     1
102
RTVSPropertyOp25
 70
     1
102
RTVSPropertyOp26
 70
     1
102
RTVSPropertyOp27
 70
     1
102
RTVSPropertyOp28
 70
     1
102
RTVSPropertyOp29
 70
     1
102
RTVSPropertyOp30
 70
     1
102
RTVSPropertyOp31
 70
     1
102
RTVSPropertyOp32
 70
     1
102
RTVSPropertyOp33
 70
     1
102
RTVSPropertyOp34
 70
     1
102
RTVSPropertyOp35
 70
     1
102
RTVSPropertyOp36
 70
     1
102
RTVSPropertyOp37
 70
     1
102
RTVSPropertyOp38
 70
     1
102
RTVSPropertyOp39
 70
     1
102
RTVSPropertyOp40
 70
     1
102
RTVSPropertyOp41
 70
     1
102
RTVSPropertyOp42
 70
     1
102
RTVSPropertyOp43
 70
     1
102
RTVSPropertyOp44
 70
     1
102
RTVSPropertyOp45
 70
     1
102
RTVSPropertyOp46
 70
     1
102
RTVSPropertyOp47
 70
     1
102
RTVSPropertyOp48
 70
     1
102
RTVSPropertyOp49
 70
     1
102
RTVSPropertyOp50
 70
     1
102
RTVSPropertyOp51
 70
     0
102
RTVSPropertyOp52
 70
     0
102
RTVSPropertyOp53
 70
     1
102
RTVSPropertyOp54
 70
     1
102
RTVSPropertyOp55
 70
     1
102
RTVSPropertyOp56
 70
     1
102
RTVSPropertyOp57
 70
     1
102
RTVSPost2010Prop28
280
     0
102
RTVSPost2010PropOp28
 70
     1
102
RTVSPost2010Prop29
280
     1
102
RTVSPost2010PropOp29
 70
     1
102
RTVSPost2010Prop30
280
     1
102
RTVSPost2010PropOp30
 70
     1
102
RTVSPost2010Prop31
280
     0
102
RTVSPost2010PropOp31
 70
     1
102
RTVSPost2010Prop32
280
     0
102
RTVSPost2010PropOp32
 70
     1
102
RTVSPost2010Prop33
280
     0
102
RTVSPost2010PropOp33
 70
     1
102
RTVSPost2010Prop34
280
     0
102
RTVSPost2010PropOp34
 70
     1
102
RTVSPost2010Prop35
280
     0
102
RTVSPost2010PropOp35
 70
     1
102
RTVSPost2010Prop36
280
     0
102
RTVSPost2010PropOp36
 70
     1
102
RTVSPost2010Prop37
 90
       50
102
RTVSPost2010PropOp37
 70
     1
102
RTVSPost2010Prop38
140
0.0
102
RTVSPost2010PropOp38
 70
     1
102
RTVSPost2010Prop39
140
1.0
102
RTVSPost2010PropOp39
 70
     1
102
RTVSPost2010Prop40
 90
        0
102
RTVSPost2010PropOp40
 70
     1
102
RTVSPost2010Prop41ColorIndex
 90
       18
102
RTVSPost2010Prop41ColorRGB
 90
        0
102
RTVSPost2010PropOp41
 70
     1
102
RTVSPost2010Prop42
 90
       50
102
RTVSPost2010PropOp42
 70
     1
102
RTVSPost2010Prop43
 90
        3
102
RTVSPost2010PropOp43
 70
     1
102
RTVSPost2010Prop44ColorIndex
 90
        5
102
RTVSPost2010Prop44ColorRGB
 90
      255
102
RTVSPost2010PropOp44
 70
     1
102
RTVSPost2010Prop45
280
     0
102
RTVSPost2010PropOp45
 70
     1
102
RTVSPost2010Prop46
 90
       50
102
RTVSPost2010PropOp46
 70
     1
102
RTVSPost2010Prop47
 90
       50
102
RTVSPost2010PropOp47
 70
     1
102
RTVSPost2010Prop48
 90
       50
102
RTVSPost2010PropOp48
 70
     1
102
RTVSPost2010Prop49
280
     0
102
RTVSPost2010PropOp49
 70
     1
102
RTVSPost2010Prop50
 90
       50
102
RTVSPost2010PropOp50
 70
     1
102
RTVSPost2010Prop51ColorIndex
 90
      256
102
RTVSPost2010Prop51ColorRGB
 90
-16777216
102
RTVSPost2010PropOp51
 70
     0
102
RTVSPost2010Prop52
140
1.0
102
RTVSPost2010PropOp52
 70
     0
102
RTVSPost2010Prop53
 90
        2
102
RTVSPost2010PropOp53
 70
     1
102
RTVSPost2010Prop54
  1
strokes_ogs.tif
102
RTVSPost2010PropOp54
 70
     1
102
RTVSPost2010Prop55
280
     0
102
RTVSPost2010PropOp55
 70
     1
102
RTVSPost2010Prop56
140
1.0
102
RTVSPost2010PropOp56
 70
     1
102
RTVSPost2010Prop57
140
1.0
102
RTVSPost2010PropOp57
 70
     1
  0
XRECORD
  5
25B
102
{ACAD_REACTORS
330
25A
102
}
330
25A
100
AcDbXrecord
280
     1
102
RTVSPropertyOp0
 70
     1
102
RTVSPropertyOp1
 70
     1
102
RTVSPropertyOp2
 70
     1
102
RTVSPropertyOp3
 70
     1
102
RTVSPropertyOp4
 70
     1
102
RTVSPropertyOp5
 70
     1
102
RTVSPropertyOp6
 70
     1
102
RTVSPropertyOp7
 70
     1
102
RTVSPropertyOp8
 70
     1
102
RTVSPropertyOp9
 70
     1
102
RTVSPropertyOp10
 70
     1
102
RTVSPropertyOp11
 70
     1
102
RTVSPropertyOp12
 70
     1
102
RTVSPropertyOp13
 70
     1
102
RTVSPropertyOp14
 70
     1
102
RTVSPropertyOp15
 70
     1
102
RTVSPropertyOp16
 70
     1
102
RTVSPropertyOp17
 70
     1
102
RTVSPropertyOp18
 70
     1
102
RTVSPropertyOp19
 70
     1
102
RTVSPropertyOp20
 70
     1
102
RTVSPropertyOp21
 70
     1
102
RTVSPropertyOp22
 70
     1
102
RTVSPropertyOp23
 70
     1
102
RTVSPropertyOp24
 70
     1
102
RTVSPropertyOp25
 70
     1
102
RTVSPropertyOp26
 70
     1
102
RTVSPropertyOp27
 70
     1
102
RTVSPropertyOp28
 70
     1
102
RTVSPropertyOp29
 70
     1
102
RTVSPropertyOp30
 70
     1
102
RTVSPropertyOp31
 70
     1
102
RTVSPropertyOp32
 70
     1
102
RTVSPropertyOp33
 70
     1
102
RTVSPropertyOp34
 70
     1
102
RTVSPropertyOp35
 70
     1
102
RTVSPropertyOp36
 70
     1
102
RTVSPropertyOp37
 70
     1
102
RTVSPropertyOp38
 70
     1
102
RTVSPropertyOp39
 70
     1
102
RTVSPropertyOp40
 70
     1
102
RTVSPropertyOp41
 70
     1
102
RTVSPropertyOp42
 70
     1
102
RTVSPropertyOp43
 70
     1
102
RTVSPropertyOp44
 70
     1
102
RTVSPropertyOp45
 70
     1
102
RTVSPropertyOp46
 70
     1
102
RTVSPropertyOp47
 70
     1
102
RTVSPropertyOp48
 70
     1
102
RTVSPropertyOp49
 70
     1
102
RTVSPropertyOp50
 70
     1
102
RTVSPropertyOp51
 70
     0
102
RTVSPropertyOp52
 70
     0
102
RTVSPropertyOp53
 70
     1
102
RTVSPropertyOp54
 70
     1
102
RTVSPropertyOp55
 70
     1
102
RTVSPropertyOp56
 70
     1
102
RTVSPropertyOp57
 70
     1
102
RTVSPost2010Prop28
280
     0
102
RTVSPost2010PropOp28
 70
     1
102
RTVSPost2010Prop29
280
     1
102
RTVSPost2010PropOp29
 70
     1
102
RTVSPost2010Prop30
280
     1
102
RTVSPost2010PropOp30
 70
     1
102
RTVSPost2010Prop31
280
     0
102
RTVSPost2010PropOp31
 70
     1
102
RTVSPost2010Prop32
280
     0
102
RTVSPost2010PropOp32
 70
     1
102
RTVSPost2010Prop33
280
     0
102
RTVSPost2010PropOp33
 70
     1
102
RTVSPost2010Prop34
280
     0
102
RTVSPost2010PropOp34
 70
     1
102
RTVSPost2010Prop35
280
     0
102
RTVSPost2010PropOp35
 70
     1
102
RTVSPost2010Prop36
280
     0
102
RTVSPost2010PropOp36
 70
     1
102
RTVSPost2010Prop37
 90
       50
102
RTVSPost2010PropOp37
 70
     1
102
RTVSPost2010Prop38
140
0.0
102
RTVSPost2010PropOp38
 70
     1
102
RTVSPost2010Prop39
140
1.0
102
RTVSPost2010PropOp39
 70
     1
102
RTVSPost2010Prop40
 90
        0
102
RTVSPost2010PropOp40
 70
     1
102
RTVSPost2010Prop41ColorIndex
 90
       18
102
RTVSPost2010Prop41ColorRGB
 90
        0
102
RTVSPost2010PropOp41
 70
     1
102
RTVSPost2010Prop42
 90
       50
102
RTVSPost2010PropOp42
 70
     1
102
RTVSPost2010Prop43
 90
        3
102
RTVSPost2010PropOp43
 70
     1
102
RTVSPost2010Prop44ColorIndex
 90
        5
102
RTVSPost2010Prop44ColorRGB
 90
      255
102
RTVSPost2010PropOp44
 70
     1
102
RTVSPost2010Prop45
280
     0
102
RTVSPost2010PropOp45
 70
     1
102
RTVSPost2010Prop46
 90
       50
102
RTVSPost2010PropOp46
 70
     1
102
RTVSPost2010Prop47
 90
       50
102
RTVSPost2010PropOp47
 70
     1
102
RTVSPost2010Prop48
 90
       50
102
RTVSPost2010PropOp48
 70
     1
102
RTVSPost2010Prop49
280
     0
102
RTVSPost2010PropOp49
 70
     1
102
RTVSPost2010Prop50
 90
       50
102
RTVSPost2010PropOp50
 70
     1
102
RTVSPost2010Prop51ColorIndex
 90
      256
102
RTVSPost2010Prop51ColorRGB
 90
-16777216
102
RTVSPost2010PropOp51
 70
     0
102
RTVSPost2010Prop52
140
1.0
102
RTVSPost2010PropOp52
 70
     0
102
RTVSPost2010Prop53
 90
        2
102
RTVSPost2010PropOp53
 70
     1
102
RTVSPost2010Prop54
  1
strokes_ogs.tif
102
RTVSPost2010PropOp54
 70
     1
102
RTVSPost2010Prop55
280
     0
102
RTVSPost2010PropOp55
 70
     1
102
RTVSPost2010Prop56
140
1.0
102
RTVSPost2010PropOp56
 70
     1
102
RTVSPost2010Prop57
140
1.0
102
RTVSPost2010PropOp57
 70
     1
  0
XRECORD
  5
24B
102
{ACAD_REACTORS
330
24A
102
}
330
24A
100
AcDbXrecord
280
     1
102
RTVSPropertyOp0
 70
     1
102
RTVSPropertyOp1
 70
     1
102
RTVSPropertyOp2
 70
     1
102
RTVSPropertyOp3
 70
     1
102
RTVSPropertyOp4
 70
     1
102
RTVSPropertyOp5
 70
     1
102
RTVSPropertyOp6
 70
     1
102
RTVSPropertyOp7
 70
     1
102
RTVSPropertyOp8
 70
     1
102
RTVSPropertyOp9
 70
     1
102
RTVSPropertyOp10
 70
     1
102
RTVSPropertyOp11
 70
     1
102
RTVSPropertyOp12
 70
     1
102
RTVSPropertyOp13
 70
     1
102
RTVSPropertyOp14
 70
     1
102
RTVSPropertyOp15
 70
     1
102
RTVSPropertyOp16
 70
     1
102
RTVSPropertyOp17
 70
     1
102
RTVSPropertyOp18
 70
     1
102
RTVSPropertyOp19
 70
     1
102
RTVSPropertyOp20
 70
     1
102
RTVSPropertyOp21
 70
     1
102
RTVSPropertyOp22
 70
     1
102
RTVSPropertyOp23
 70
     1
102
RTVSPropertyOp24
 70
     1
102
RTVSPropertyOp25
 70
     1
102
RTVSPropertyOp26
 70
     1
102
RTVSPropertyOp27
 70
     1
102
RTVSPropertyOp28
 70
     1
102
RTVSPropertyOp29
 70
     1
102
RTVSPropertyOp30
 70
     1
102
RTVSPropertyOp31
 70
     1
102
RTVSPropertyOp32
 70
     1
102
RTVSPropertyOp33
 70
     1
102
RTVSPropertyOp34
 70
     1
102
RTVSPropertyOp35
 70
     1
102
RTVSPropertyOp36
 70
     1
102
RTVSPropertyOp37
 70
     1
102
RTVSPropertyOp38
 70
     1
102
RTVSPropertyOp39
 70
     1
102
RTVSPropertyOp40
 70
     1
102
RTVSPropertyOp41
 70
     1
102
RTVSPropertyOp42
 70
     1
102
RTVSPropertyOp43
 70
     1
102
RTVSPropertyOp44
 70
     1
102
RTVSPropertyOp45
 70
     1
102
RTVSPropertyOp46
 70
     1
102
RTVSPropertyOp47
 70
     1
102
RTVSPropertyOp48
 70
     1
102
RTVSPropertyOp49
 70
     1
102
RTVSPropertyOp50
 70
     1
102
RTVSPropertyOp51
 70
     0
102
RTVSPropertyOp52
 70
     0
102
RTVSPropertyOp53
 70
     1
102
RTVSPropertyOp54
 70
     1
102
RTVSPropertyOp55
 70
     1
102
RTVSPropertyOp56
 70
     1
102
RTVSPropertyOp57
 70
     1
102
RTVSPost2010Prop28
280
     0
102
RTVSPost2010PropOp28
 70
     1
102
RTVSPost2010Prop29
280
     1
102
RTVSPost2010PropOp29
 70
     1
102
RTVSPost2010Prop30
280
     1
102
RTVSPost2010PropOp30
 70
     1
102
RTVSPost2010Prop31
280
     0
102
RTVSPost2010PropOp31
 70
     1
102
RTVSPost2010Prop32
280
     0
102
RTVSPost2010PropOp32
 70
     1
102
RTVSPost2010Prop33
280
     0
102
RTVSPost2010PropOp33
 70
     1
102
RTVSPost2010Prop34
280
     0
102
RTVSPost2010PropOp34
 70
     1
102
RTVSPost2010Prop35
280
     0
102
RTVSPost2010PropOp35
 70
     1
102
RTVSPost2010Prop36
280
     0
102
RTVSPost2010PropOp36
 70
     1
102
RTVSPost2010Prop37
 90
       50
102
RTVSPost2010PropOp37
 70
     1
102
RTVSPost2010Prop38
140
0.0
102
RTVSPost2010PropOp38
 70
     1
102
RTVSPost2010Prop39
140
1.0
102
RTVSPost2010PropOp39
 70
     1
102
RTVSPost2010Prop40
 90
        0
102
RTVSPost2010PropOp40
 70
     1
102
RTVSPost2010Prop41ColorIndex
 90
       18
102
RTVSPost2010Prop41ColorRGB
 90
        0
102
RTVSPost2010PropOp41
 70
     1
102
RTVSPost2010Prop42
 90
       50
102
RTVSPost2010PropOp42
 70
     1
102
RTVSPost2010Prop43
 90
        3
102
RTVSPost2010PropOp43
 70
     1
102
RTVSPost2010Prop44ColorIndex
 90
        5
102
RTVSPost2010Prop44ColorRGB
 90
      255
102
RTVSPost2010PropOp44
 70
     1
102
RTVSPost2010Prop45
280
     0
102
RTVSPost2010PropOp45
 70
     1
102
RTVSPost2010Prop46
 90
       50
102
RTVSPost2010PropOp46
 70
     1
102
RTVSPost2010Prop47
 90
       50
102
RTVSPost2010PropOp47
 70
     1
102
RTVSPost2010Prop48
 90
       50
102
RTVSPost2010PropOp48
 70
     1
102
RTVSPost2010Prop49
280
     0
102
RTVSPost2010PropOp49
 70
     1
102
RTVSPost2010Prop50
 90
       50
102
RTVSPost2010PropOp50
 70
     1
102
RTVSPost2010Prop51ColorIndex
 90
      256
102
RTVSPost2010Prop51ColorRGB
 90
-16777216
102
RTVSPost2010PropOp51
 70
     0
102
RTVSPost2010Prop52
140
1.0
102
RTVSPost2010PropOp52
 70
     0
102
RTVSPost2010Prop53
 90
        2
102
RTVSPost2010PropOp53
 70
     1
102
RTVSPost2010Prop54
  1
strokes_ogs.tif
102
RTVSPost2010PropOp54
 70
     1
102
RTVSPost2010Prop55
280
     0
102
RTVSPost2010PropOp55
 70
     1
102
RTVSPost2010Prop56
140
1.0
102
RTVSPost2010PropOp56
 70
     1
102
RTVSPost2010Prop57
140
1.0
102
RTVSPost2010PropOp57
 70
     1
  0
XRECORD
  5
23D
102
{ACAD_REACTORS
330
23C
102
}
330
23C
100
AcDbXrecord
280
     1
102
RTVSPropertyOp0
 70
     1
102
RTVSPropertyOp1
 70
     1
102
RTVSPropertyOp2
 70
     1
102
RTVSPropertyOp3
 70
     1
102
RTVSPropertyOp4
 70
     1
102
RTVSPropertyOp5
 70
     1
102
RTVSPropertyOp6
 70
     1
102
RTVSPropertyOp7
 70
     1
102
RTVSPropertyOp8
 70
     1
102
RTVSPropertyOp9
 70
     1
102
RTVSPropertyOp10
 70
     1
102
RTVSPropertyOp11
 70
     1
102
RTVSPropertyOp12
 70
     1
102
RTVSPropertyOp13
 70
     1
102
RTVSPropertyOp14
 70
     1
102
RTVSPropertyOp15
 70
     1
102
RTVSPropertyOp16
 70
     1
102
RTVSPropertyOp17
 70
     1
102
RTVSPropertyOp18
 70
     1
102
RTVSPropertyOp19
 70
     1
102
RTVSPropertyOp20
 70
     1
102
RTVSPropertyOp21
 70
     1
102
RTVSPropertyOp22
 70
     1
102
RTVSPropertyOp23
 70
     1
102
RTVSPropertyOp24
 70
     1
102
RTVSPropertyOp25
 70
     1
102
RTVSPropertyOp26
 70
     1
102
RTVSPropertyOp27
 70
     1
102
RTVSPropertyOp28
 70
     1
102
RTVSPropertyOp29
 70
     1
102
RTVSPropertyOp30
 70
     1
102
RTVSPropertyOp31
 70
     1
102
RTVSPropertyOp32
 70
     1
102
RTVSPropertyOp33
 70
     1
102
RTVSPropertyOp34
 70
     1
102
RTVSPropertyOp35
 70
     1
102
RTVSPropertyOp36
 70
     1
102
RTVSPropertyOp37
 70
     1
102
RTVSPropertyOp38
 70
     1
102
RTVSPropertyOp39
 70
     1
102
RTVSPropertyOp40
 70
     1
102
RTVSPropertyOp41
 70
     1
102
RTVSPropertyOp42
 70
     1
102
RTVSPropertyOp43
 70
     1
102
RTVSPropertyOp44
 70
     1
102
RTVSPropertyOp45
 70
     1
102
RTVSPropertyOp46
 70
     1
102
RTVSPropertyOp47
 70
     1
102
RTVSPropertyOp48
 70
     1
102
RTVSPropertyOp49
 70
     1
102
RTVSPropertyOp50
 70
     1
102
RTVSPropertyOp51
 70
     0
102
RTVSPropertyOp52
 70
     0
102
RTVSPropertyOp53
 70
     1
102
RTVSPropertyOp54
 70
     1
102
RTVSPropertyOp55
 70
     1
102
RTVSPropertyOp56
 70
     1
102
RTVSPropertyOp57
 70
     1
102
RTVSPost2010Prop28
280
     0
102
RTVSPost2010PropOp28
 70
     1
102
RTVSPost2010Prop29
280
     1
102
RTVSPost2010PropOp29
 70
     1
102
RTVSPost2010Prop30
280
     1
102
RTVSPost2010PropOp30
 70
     1
102
RTVSPost2010Prop31
280
     0
102
RTVSPost2010PropOp31
 70
     1
102
RTVSPost2010Prop32
280
     0
102
RTVSPost2010PropOp32
 70
     1
102
RTVSPost2010Prop33
280
     0
102
RTVSPost2010PropOp33
 70
     1
102
RTVSPost2010Prop34
280
     0
102
RTVSPost2010PropOp34
 70
     1
102
RTVSPost2010Prop35
280
     0
102
RTVSPost2010PropOp35
 70
     1
102
RTVSPost2010Prop36
280
     0
102
RTVSPost2010PropOp36
 70
     1
102
RTVSPost2010Prop37
 90
       50
102
RTVSPost2010PropOp37
 70
     1
102
RTVSPost2010Prop38
140
0.0
102
RTVSPost2010PropOp38
 70
     1
102
RTVSPost2010Prop39
140
1.0
102
RTVSPost2010PropOp39
 70
     1
102
RTVSPost2010Prop40
 90
        0
102
RTVSPost2010PropOp40
 70
     1
102
RTVSPost2010Prop41ColorIndex
 90
       18
102
RTVSPost2010Prop41ColorRGB
 90
        0
102
RTVSPost2010PropOp41
 70
     1
102
RTVSPost2010Prop42
 90
       50
102
RTVSPost2010PropOp42
 70
     1
102
RTVSPost2010Prop43
 90
        3
102
RTVSPost2010PropOp43
 70
     1
102
RTVSPost2010Prop44ColorIndex
 90
        5
102
RTVSPost2010Prop44ColorRGB
 90
      255
102
RTVSPost2010PropOp44
 70
     1
102
RTVSPost2010Prop45
280
     0
102
RTVSPost2010PropOp45
 70
     1
102
RTVSPost2010Prop46
 90
       50
102
RTVSPost2010PropOp46
 70
     1
102
RTVSPost2010Prop47
 90
       50
102
RTVSPost2010PropOp47
 70
     1
102
RTVSPost2010Prop48
 90
       50
102
RTVSPost2010PropOp48
 70
     1
102
RTVSPost2010Prop49
280
     0
102
RTVSPost2010PropOp49
 70
     1
102
RTVSPost2010Prop50
 90
       50
102
RTVSPost2010PropOp50
 70
     1
102
RTVSPost2010Prop51ColorIndex
 90
      256
102
RTVSPost2010Prop51ColorRGB
 90
-16777216
102
RTVSPost2010PropOp51
 70
     0
102
RTVSPost2010Prop52
140
1.0
102
RTVSPost2010PropOp52
 70
     0
102
RTVSPost2010Prop53
 90
        2
102
RTVSPost2010PropOp53
 70
     1
102
RTVSPost2010Prop54
  1
strokes_ogs.tif
102
RTVSPost2010PropOp54
 70
     1
102
RTVSPost2010Prop55
280
     0
102
RTVSPost2010PropOp55
 70
     1
102
RTVSPost2010Prop56
140
1.0
102
RTVSPost2010PropOp56
 70
     1
102
RTVSPost2010Prop57
140
1.0
102
RTVSPost2010PropOp57
 70
     1
  0
XRECORD
  5
25D
102
{ACAD_REACTORS
330
25C
102
}
330
25C
100
AcDbXrecord
280
     1
102
RTVSPropertyOp0
 70
     1
102
RTVSPropertyOp1
 70
     1
102
RTVSPropertyOp2
 70
     1
102
RTVSPropertyOp3
 70
     1
102
RTVSPropertyOp4
 70
     1
102
RTVSPropertyOp5
 70
     1
102
RTVSPropertyOp6
 70
     1
102
RTVSPropertyOp7
 70
     1
102
RTVSPropertyOp8
 70
     1
102
RTVSPropertyOp9
 70
     1
102
RTVSPropertyOp10
 70
     1
102
RTVSPropertyOp11
 70
     1
102
RTVSPropertyOp12
 70
     1
102
RTVSPropertyOp13
 70
     1
102
RTVSPropertyOp14
 70
     1
102
RTVSPropertyOp15
 70
     1
102
RTVSPropertyOp16
 70
     1
102
RTVSPropertyOp17
 70
     1
102
RTVSPropertyOp18
 70
     1
102
RTVSPropertyOp19
 70
     1
102
RTVSPropertyOp20
 70
     1
102
RTVSPropertyOp21
 70
     1
102
RTVSPropertyOp22
 70
     1
102
RTVSPropertyOp23
 70
     1
102
RTVSPropertyOp24
 70
     1
102
RTVSPropertyOp25
 70
     1
102
RTVSPropertyOp26
 70
     1
102
RTVSPropertyOp27
 70
     1
102
RTVSPropertyOp28
 70
     1
102
RTVSPropertyOp29
 70
     1
102
RTVSPropertyOp30
 70
     1
102
RTVSPropertyOp31
 70
     1
102
RTVSPropertyOp32
 70
     1
102
RTVSPropertyOp33
 70
     1
102
RTVSPropertyOp34
 70
     1
102
RTVSPropertyOp35
 70
     1
102
RTVSPropertyOp36
 70
     1
102
RTVSPropertyOp37
 70
     1
102
RTVSPropertyOp38
 70
     1
102
RTVSPropertyOp39
 70
     1
102
RTVSPropertyOp40
 70
     1
102
RTVSPropertyOp41
 70
     1
102
RTVSPropertyOp42
 70
     1
102
RTVSPropertyOp43
 70
     1
102
RTVSPropertyOp44
 70
     1
102
RTVSPropertyOp45
 70
     1
102
RTVSPropertyOp46
 70
     1
102
RTVSPropertyOp47
 70
     1
102
RTVSPropertyOp48
 70
     1
102
RTVSPropertyOp49
 70
     1
102
RTVSPropertyOp50
 70
     1
102
RTVSPropertyOp51
 70
     0
102
RTVSPropertyOp52
 70
     0
102
RTVSPropertyOp53
 70
     1
102
RTVSPropertyOp54
 70
     1
102
RTVSPropertyOp55
 70
     1
102
RTVSPropertyOp56
 70
     1
102
RTVSPropertyOp57
 70
     1
102
RTVSPost2010Prop28
280
     0
102
RTVSPost2010PropOp28
 70
     1
102
RTVSPost2010Prop29
280
     1
102
RTVSPost2010PropOp29
 70
     1
102
RTVSPost2010Prop30
280
     1
102
RTVSPost2010PropOp30
 70
     1
102
RTVSPost2010Prop31
280
     0
102
RTVSPost2010PropOp31
 70
     1
102
RTVSPost2010Prop32
280
     0
102
RTVSPost2010PropOp32
 70
     1
102
RTVSPost2010Prop33
280
     0
102
RTVSPost2010PropOp33
 70
     1
102
RTVSPost2010Prop34
280
     0
102
RTVSPost2010PropOp34
 70
     1
102
RTVSPost2010Prop35
280
     0
102
RTVSPost2010PropOp35
 70
     1
102
RTVSPost2010Prop36
280
     0
102
RTVSPost2010PropOp36
 70
     1
102
RTVSPost2010Prop37
 90
       50
102
RTVSPost2010PropOp37
 70
     1
102
RTVSPost2010Prop38
140
0.0
102
RTVSPost2010PropOp38
 70
     1
102
RTVSPost2010Prop39
140
1.0
102
RTVSPost2010PropOp39
 70
     1
102
RTVSPost2010Prop40
 90
        0
102
RTVSPost2010PropOp40
 70
     1
102
RTVSPost2010Prop41ColorIndex
 90
       18
102
RTVSPost2010Prop41ColorRGB
 90
        0
102
RTVSPost2010PropOp41
 70
     1
102
RTVSPost2010Prop42
 90
       50
102
RTVSPost2010PropOp42
 70
     1
102
RTVSPost2010Prop43
 90
        3
102
RTVSPost2010PropOp43
 70
     1
102
RTVSPost2010Prop44ColorIndex
 90
        5
102
RTVSPost2010Prop44ColorRGB
 90
      255
102
RTVSPost2010PropOp44
 70
     1
102
RTVSPost2010Prop45
280
     0
102
RTVSPost2010PropOp45
 70
     1
102
RTVSPost2010Prop46
 90
       50
102
RTVSPost2010PropOp46
 70
     1
102
RTVSPost2010Prop47
 90
       50
102
RTVSPost2010PropOp47
 70
     1
102
RTVSPost2010Prop48
 90
       50
102
RTVSPost2010PropOp48
 70
     1
102
RTVSPost2010Prop49
280
     0
102
RTVSPost2010PropOp49
 70
     1
102
RTVSPost2010Prop50
 90
       50
102
RTVSPost2010PropOp50
 70
     1
102
RTVSPost2010Prop51ColorIndex
 90
      256
102
RTVSPost2010Prop51ColorRGB
 90
-16777216
102
RTVSPost2010PropOp51
 70
     0
102
RTVSPost2010Prop52
140
1.0
102
RTVSPost2010PropOp52
 70
     0
102
RTVSPost2010Prop53
 90
        2
102
RTVSPost2010PropOp53
 70
     1
102
RTVSPost2010Prop54
  1
strokes_ogs.tif
102
RTVSPost2010PropOp54
 70
     1
102
RTVSPost2010Prop55
280
     0
102
RTVSPost2010PropOp55
 70
     1
102
RTVSPost2010Prop56
140
1.0
102
RTVSPost2010PropOp56
 70
     1
102
RTVSPost2010Prop57
140
1.0
102
RTVSPost2010PropOp57
 70
     1
  0
ENDSEC
  0
EOF
