  0
SECTION
  2
HEADER
  9
$ACADVER
  1
AC1015
  9
$ACADMAINTVER
 70
     6
  9
$DWGCODEPAGE
  3
ANSI_1252
  9
$INSBASE
 10
0.0
 20
0.0
 30
0.0
  9
$EXTMIN
 10
-121.514954
 20
-198.015747
 30
0.0
  9
$EXTMAX
 10
470.021118
 20
228.692642
 30
0.0
  9
$LIMMIN
 10
-121.514954
 20
-198.015747
  9
$LIMMAX
 10
470.021118
 20
228.692642
  9
$ORTHOMODE
 70
     0
  9
$REGENMODE
 70
     1
  9
$FILLMODE
 70
     1
  9
$QTEXTMODE
 70
     0
  9
$MIRRTEXT
 70
     1
  9
$LTSCALE
 40
1.0
  9
$ATTMODE
 70
     1
  9
$TEXTSIZE
 40
2.5
  9
$TRACEWID
 40
1.0
  9
$TEXTSTYLE
  7
Standard
  9
$CLAYER
  8
0
  9
$CELTYPE
  6
ByLayer
  9
$CECOLOR
 62
   256
  9
$CELTSCALE
 40
1.0
  9
$DISPSILH
 70
     0
  9
$DIMSCALE
 40
1.0
  9
$DIMASZ
 40
2.5
  9
$DIMEXO
 40
0.625
  9
$DIMDLI
 40
3.75
  9
$DIMRND
 40
0.0
  9
$DIMDLE
 40
0.0
  9
$DIMEXE
 40
1.25
  9
$DIMTP
 40
0.0
  9
$DIMTM
 40
0.0
  9
$DIMTXT
 40
2.5
  9
$DIMCEN
 40
2.5
  9
$DIMTSZ
 40
0.0
  9
$DIMTOL
 70
     0
  9
$DIMLIM
 70
     0
  9
$DIMTIH
 70
     0
  9
$DIMTOH
 70
     0
  9
$DIMSE1
 70
     0
  9
$DIMSE2
 70
     0
  9
$DIMTAD
 70
     1
  9
$DIMZIN
 70
     8
  9
$DIMBLK
  1

  9
$DIMASO
 70
     1
  9
$DIMSHO
 70
     1
  9
$DIMPOST
  1

  9
$DIMAPOST
  1

  9
$DIMALT
 70
     0
  9
$DIMALTD
 70
     3
  9
$DIMALTF
 40
0.03937
  9
$DIMLFAC
 40
1.0
  9
$DIMTOFL
 70
     1
  9
$DIMTVP
 40
0.0
  9
$DIMTIX
 70
     0
  9
$DIMSOXD
 70
     0
  9
$DIMSAH
 70
     0
  9
$DIMBLK1
  1

  9
$DIMBLK2
  1

  9
$DIMSTYLE
  2
ISO-25
  9
$DIMCLRD
 70
     0
  9
$DIMCLRE
 70
     0
  9
$DIMCLRT
 70
     0
  9
$DIMTFAC
 40
1.0
  9
$DIMGAP
 40
0.625
  9
$DIMJUST
 70
     0
  9
$DIMSD1
 70
     0
  9
$DIMSD2
 70
     0
  9
$DIMTOLJ
 70
     0
  9
$DIMTZIN
 70
     8
  9
$DIMALTZ
 70
     0
  9
$DIMALTTZ
 70
     0
  9
$DIMUPT
 70
     0
  9
$DIMDEC
 70
     2
  9
$DIMTDEC
 70
     2
  9
$DIMALTU
 70
     2
  9
$DIMALTTD
 70
     3
  9
$DIMTXSTY
  7
Standard
  9
$DIMAUNIT
 70
     0
  9
$DIMADEC
 70
     0
  9
$DIMALTRND
 40
0.0
  9
$DIMAZIN
 70
     0
  9
$DIMDSEP
 70
    44
  9
$DIMATFIT
 70
     3
  9
$DIMFRAC
 70
     0
  9
$DIMLDRBLK
  1

  9
$DIMLUNIT
 70
     2
  9
$DIMLWD
 70
    -2
  9
$DIMLWE
 70
    -2
  9
$DIMTMOVE
 70
     0
  9
$LUNITS
 70
     2
  9
$LUPREC
 70
     4
  9
$SKETCHINC
 40
1.0
  9
$FILLETRAD
 40
10.0
  9
$AUNITS
 70
     0
  9
$AUPREC
 70
     0
  9
$MENU
  1
.
  9
$ELEVATION
 40
0.0
  9
$PELEVATION
 40
0.0
  9
$THICKNESS
 40
0.0
  9
$LIMCHECK
 70
     0
  9
$CHAMFERA
 40
0.0
  9
$CHAMFERB
 40
0.0
  9
$CHAMFERC
 40
0.0
  9
$CHAMFERD
 40
0.0
  9
$SKPOLY
 70
     0
  9
$TDCREATE
 40
2459549.385367141
  9
$TDUCREATE
 40
2459549.343700475
  9
$TDUPDATE
 40
2459549.385367789
  9
$TDUUPDATE
 40
2459549.343701123
  9
$TDINDWG
 40
0.0000000116
  9
$TDUSRTIMER
 40
0.0000000116
  9
$USRTIMER
 70
     1
  9
$ANGBASE
 50
0.0
  9
$ANGDIR
 70
     0
  9
$PDMODE
 70
     0
  9
$PDSIZE
 40
0.0
  9
$PLINEWID
 40
0.0
  9
$SPLFRAME
 70
     0
  9
$SPLINETYPE
 70
     6
  9
$SPLINESEGS
 70
     8
  9
$HANDSEED
  5
283
  9
$SURFTAB1
 70
     6
  9
$SURFTAB2
 70
     6
  9
$SURFTYPE
 70
     6
  9
$SURFU
 70
     6
  9
$SURFV
 70
     6
  9
$UCSBASE
  2

  9
$UCSNAME
  2

  9
$UCSORG
 10
0.0
 20
0.0
 30
0.0
  9
$UCSXDIR
 10
1.0
 20
0.0
 30
0.0
  9
$UCSYDIR
 10
0.0
 20
1.0
 30
0.0
  9
$UCSORTHOREF
  2

  9
$UCSORTHOVIEW
 70
     0
  9
$UCSORGTOP
 10
0.0
 20
0.0
 30
0.0
  9
$UCSORGBOTTOM
 10
0.0
 20
0.0
 30
0.0
  9
$UCSORGLEFT
 10
0.0
 20
0.0
 30
0.0
  9
$UCSORGRIGHT
 10
0.0
 20
0.0
 30
0.0
  9
$UCSORGFRONT
 10
0.0
 20
0.0
 30
0.0
  9
$UCSORGBACK
 10
0.0
 20
0.0
 30
0.0
  9
$PUCSBASE
  2

  9
$PUCSNAME
  2

  9
$PUCSORG
 10
0.0
 20
0.0
 30
0.0
  9
$PUCSXDIR
 10
1.0
 20
0.0
 30
0.0
  9
$PUCSYDIR
 10
0.0
 20
1.0
 30
0.0
  9
$PUCSORTHOREF
  2

  9
$PUCSORTHOVIEW
 70
     0
  9
$PUCSORGTOP
 10
0.0
 20
0.0
 30
0.0
  9
$PUCSORGBOTTOM
 10
0.0
 20
0.0
 30
0.0
  9
$PUCSORGLEFT
 10
0.0
 20
0.0
 30
0.0
  9
$PUCSORGRIGHT
 10
0.0
 20
0.0
 30
0.0
  9
$PUCSORGFRONT
 10
0.0
 20
0.0
 30
0.0
  9
$PUCSORGBACK
 10
0.0
 20
0.0
 30
0.0
  9
$USERI1
 70
     0
  9
$USERI2
 70
     0
  9
$USERI3
 70
     0
  9
$USERI4
 70
     0
  9
$USERI5
 70
     0
  9
$USERR1
 40
0.0
  9
$USERR2
 40
0.0
  9
$USERR3
 40
0.0
  9
$USERR4
 40
0.0
  9
$USERR5
 40
0.0
  9
$WORLDVIEW
 70
     1
  9
$SHADEDGE
 70
     3
  9
$SHADEDIF
 70
    70
  9
$TILEMODE
 70
     1
  9
$MAXACTVP
 70
    64
  9
$PINSBASE
 10
0.0
 20
0.0
 30
0.0
  9
$PLIMCHECK
 70
     0
  9
$PEXTMIN
 10
1.000000E+20
 20
1.000000E+20
 30
1.000000E+20
  9
$PEXTMAX
 10
-1.000000E+20
 20
-1.000000E+20
 30
-1.000000E+20
  9
$PLIMMIN
 10
0.0
 20
0.0
  9
$PLIMMAX
 10
420.0
 20
297.0
  9
$UNITMODE
 70
     0
  9
$VISRETAIN
 70
     1
  9
$PLINEGEN
 70
     0
  9
$PSLTSCALE
 70
     1
  9
$TREEDEPTH
 70
  3020
  9
$CMLSTYLE
  2
Standard
  9
$CMLJUST
 70
     0
  9
$CMLSCALE
 40
20.0
  9
$PROXYGRAPHICS
 70
     1
  9
$MEASUREMENT
 70
     1
  9
$CELWEIGHT
370
    -1
  9
$ENDCAPS
280
     0
  9
$JOINSTYLE
280
     0
  9
$LWDISPLAY
290
     0
  9
$INSUNITS
 70
     4
  9
$HYPERLINKBASE
  1

  9
$STYLESHEET
  1

  9
$XEDIT
290
     1
  9
$CEPSNTYPE
380
     0
  9
$PSTYLEMODE
290
     1
  9
$FINGERPRINTGUID
  2
{5a68df75-d46c-4f12-a86a-960f27aab819}
  9
$VERSIONGUID
  2
{FAEB1C32-E019-11D5-929B-00C0DF256EC4}
  9
$EXTNAMES
290
     1
  9
$PSVPSCALE
 40
0.0
  9
$OLESTARTUP
290
     0
  0
ENDSEC
  0
SECTION
  2
CLASSES
  0
CLASS
  1
ACDBDICTIONARYWDFLT
  2
AcDbDictionaryWithDefault
  3
ObjectDBX Classes
 90
        0
280
     0
281
     0
  0
CLASS
  1
VISUALSTYLE
  2
AcDbVisualStyle
  3
ObjectDBX Classes
 90
     4095
280
     0
281
     0
  0
CLASS
  1
MATERIAL
  2
AcDbMaterial
  3
ObjectDBX Classes
 90
     1153
280
     0
281
     0
  0
CLASS
  1
SCALE
  2
AcDbScale
  3
ObjectDBX Classes
 90
     1153
280
     0
281
     0
  0
CLASS
  1
TABLESTYLE
  2
AcDbTableStyle
  3
ObjectDBX Classes
 90
     4095
280
     0
281
     0
  0
CLASS
  1
MLEADERSTYLE
  2
AcDbMLeaderStyle
  3
ACDB_MLEADERSTYLE_CLASS
 90
     4095
280
     0
281
     0
  0
CLASS
  1
SUN
  2
AcDbSun
  3
SCENEOE
 90
     1153
280
     0
281
     0
  0
CLASS
  1
DICTIONARYVAR
  2
AcDbDictionaryVar
  3
ObjectDBX Classes
 90
        0
280
     0
281
     0
  0
CLASS
  1
ACDBPLACEHOLDER
  2
AcDbPlaceHolder
  3
ObjectDBX Classes
 90
        0
280
     0
281
     0
  0
CLASS
  1
LAYOUT
  2
AcDbLayout
  3
ObjectDBX Classes
 90
        0
280
     0
281
     0
  0
ENDSEC
  0
SECTION
  2
TABLES
  0
TABLE
  2
VPORT
  5
8
102
{ACAD_XDICTIONARY
360
246
102
}
330
0
100
AcDbSymbolTable
 70
     1
  0
VPORT
  5
29
330
8
100
AcDbSymbolTableRecord
100
AcDbViewportTableRecord
  2
*Active
 70
     0
 10
0.0
 20
0.0
 11
1.0
 21
1.0
 12
344.186916
 22
148.5
 13
0.0
 23
0.0
 14
10.0
 24
10.0
 15
10.0
 25
10.0
 16
0.0
 26
0.0
 36
1.0
 17
0.0
 27
0.0
 37
0.0
 40
297.0
 41
1.972973
 42
50.0
 43
0.0
 44
0.0
 50
0.0
 51
0.0
 71
     0
 72
   100
 73
     1
 74
     3
 75
     0
 76
     0
 77
     0
 78
     0
281
     0
 65
     1
110
0.0
120
0.0
130
0.0
111
1.0
121
0.0
131
0.0
112
0.0
122
1.0
132
0.0
 79
     0
146
0.0
  0
ENDTAB
  0
TABLE
  2
LTYPE
  5
5
330
0
100
AcDbSymbolTable
 70
     1
  0
LTYPE
  5
14
330
5
100
AcDbSymbolTableRecord
100
AcDbLinetypeTableRecord
  2
ByBlock
 70
     0
  3

 72
    65
 73
     0
 40
0.0
  0
LTYPE
  5
15
330
5
100
AcDbSymbolTableRecord
100
AcDbLinetypeTableRecord
  2
ByLayer
 70
     0
  3

 72
    65
 73
     0
 40
0.0
  0
LTYPE
  5
16
330
5
100
AcDbSymbolTableRecord
100
AcDbLinetypeTableRecord
  2
Continuous
 70
     0
  3
Solid line
 72
    65
 73
     0
 40
0.0
  0
ENDTAB
  0
TABLE
  2
LAYER
  5
2
330
0
100
AcDbSymbolTable
 70
     1
  0
LAYER
  5
10
330
2
100
AcDbSymbolTableRecord
100
AcDbLayerTableRecord
  2
0
 70
     0
 62
   106
  6
Continuous
370
     0
390
F
  0
ENDTAB
  0
TABLE
  2
STYLE
  5
3
330
0
100
AcDbSymbolTable
 70
     4
  0
STYLE
  5
11
330
3
100
AcDbSymbolTableRecord
100
AcDbTextStyleTableRecord
  2
Standard
 70
     0
 40
0.0
 41
1.0
 50
0.0
 71
     0
 42
2.5
  3
txt
  4

  0
STYLE
  5
6E
330
3
100
AcDbSymbolTableRecord
100
AcDbTextStyleTableRecord
  2
Default
 70
     0
 40
0.0
 41
1.0
 50
0.0
 71
     0
 42
2.5
  3

  4

1001
ACAD
1000
txt
1071
        0
  0
STYLE
  5
6F
330
3
100
AcDbSymbolTableRecord
100
AcDbTextStyleTableRecord
  2
ISO
 70
     0
 40
0.0
 41
1.0
 50
0.0
 71
     0
 42
2.5
  3

  4

1001
ACAD
1000
txt
1071
        0
  0
STYLE
  5
70
330
3
100
AcDbSymbolTableRecord
100
AcDbTextStyleTableRecord
  2
zucchetti
 70
     0
 40
0.0
 41
1.0
 50
0.0
 71
     0
 42
2.5
  3

  4

1001
ACAD
1000
Arial
1071
        0
  0
ENDTAB
  0
TABLE
  2
VIEW
  5
6
330
0
100
AcDbSymbolTable
 70
     0
  0
ENDTAB
  0
TABLE
  2
UCS
  5
7
330
0
100
AcDbSymbolTable
 70
     0
  0
ENDTAB
  0
TABLE
  2
APPID
  5
9
330
0
100
AcDbSymbolTable
 70
     2
  0
APPID
  5
12
330
9
100
AcDbSymbolTableRecord
100
AcDbRegAppTableRecord
  2
ACAD
 70
     0
  0
APPID
  5
280
330
9
100
AcDbSymbolTableRecord
100
AcDbRegAppTableRecord
  2
ACAD_MLEADERVER
 70
     0
  0
ENDTAB
  0
TABLE
  2
DIMSTYLE
  5
A
330
0
100
AcDbSymbolTable
 70
     4
100
AcDbDimStyleTable
  0
DIMSTYLE
105
27
330
A
100
AcDbSymbolTableRecord
100
AcDbDimStyleTableRecord
  2
ISO-25
 70
     0
 41
2.5
 42
0.625
 43
3.75
 44
1.25
 73
     0
 74
     0
 77
     1
 78
     8
140
2.5
141
2.5
143
0.03937
147
0.625
171
     3
172
     1
178
     0
271
     2
272
     2
274
     3
278
    44
283
     0
284
     8
340
11
  0
DIMSTYLE
105
71
330
A
100
AcDbSymbolTableRecord
100
AcDbDimStyleTableRecord
  2
Default
 70
     0
  3
<>
 41
4.375
 42
1.05
 44
2.1
 73
     0
 74
     0
 77
     1
 78
     8
140
3.5
146
0.4
147
1.75
172
     1
271
     2
178
     3
271
     2
272
     3
284
     8
340
6E
341
72
342
72
  0
DIMSTYLE
105
79
330
A
100
AcDbSymbolTableRecord
100
AcDbDimStyleTableRecord
  2
ISO
 70
     0
  3
<>
 41
4.375
 42
1.05
 44
2.1
 73
     0
 74
     0
 77
     1
 78
     8
140
3.5
146
0.4
147
1.75
172
     1
271
     2
178
     3
271
     2
272
     3
284
     8
340
6F
341
72
342
72
  0
DIMSTYLE
105
7A
330
A
100
AcDbSymbolTableRecord
100
AcDbDimStyleTableRecord
  2
zucchetti
 70
     0
  3
<>
 41
3.0
 42
0.9
 44
1.8
 73
     0
 74
     0
 77
     1
 78
     8
140
3.0
146
0.6
147
1.5
172
     1
176
     3
177
     3
271
     2
178
     3
271
     2
272
     2
284
     8
340
70
  0
ENDTAB
  0
TABLE
  2
BLOCK_RECORD
  5
1
330
0
100
AcDbSymbolTable
 70
     7
  0
BLOCK_RECORD
  5
1F
330
1
100
AcDbSymbolTableRecord
100
AcDbBlockTableRecord
  2
*Model_Space
340
22
  0
BLOCK_RECORD
  5
1B
330
1
100
AcDbSymbolTableRecord
100
AcDbBlockTableRecord
  2
*Paper_Space
340
1E
  0
BLOCK_RECORD
  5
23
330
1
100
AcDbSymbolTableRecord
100
AcDbBlockTableRecord
  2
*Paper_Space0
340
26
  0
BLOCK_RECORD
  5
72
330
1
100
AcDbSymbolTableRecord
100
AcDbBlockTableRecord
  2
_Closed
340
0
  0
BLOCK_RECORD
  5
7B
330
1
100
AcDbSymbolTableRecord
100
AcDbBlockTableRecord
  2
a
340
0
102
{BLKREFS
331
B8
102
}
  0
BLOCK_RECORD
  5
B9
330
1
100
AcDbSymbolTableRecord
100
AcDbBlockTableRecord
  2
b
340
0
102
{BLKREFS
331
117
102
}
  0
BLOCK_RECORD
  5
118
330
1
100
AcDbSymbolTableRecord
100
AcDbBlockTableRecord
  2
c
340
0
102
{BLKREFS
331
176
102
}
  0
BLOCK_RECORD
  5
177
330
1
100
AcDbSymbolTableRecord
100
AcDbBlockTableRecord
  2
d
340
0
102
{BLKREFS
331
1D8
102
}
  0
BLOCK_RECORD
  5
1D9
330
1
100
AcDbSymbolTableRecord
100
AcDbBlockTableRecord
  2
e
340
0
102
{BLKREFS
331
23A
102
}
  0
ENDTAB
  0
ENDSEC
  0
SECTION
  2
BLOCKS
  0
BLOCK
  5
20
330
1F
100
AcDbEntity
  8
0
100
AcDbBlockBegin
  2
*Model_Space
 70
     0
 10
0.0
 20
0.0
 30
0.0
  3
*Model_Space
  1

  0
ENDBLK
  5
21
330
1F
100
AcDbEntity
  8
0
100
AcDbBlockEnd
  0
BLOCK
  5
1C
330
1B
100
AcDbEntity
 67
     1
  8
0
100
AcDbBlockBegin
  2
*Paper_Space
 70
     0
 10
0.0
 20
0.0
 30
0.0
  3
*Paper_Space
  1

  0
ENDBLK
  5
1D
330
1B
100
AcDbEntity
 67
     1
  8
0
100
AcDbBlockEnd
  0
BLOCK
  5
24
330
23
100
AcDbEntity
  8
0
100
AcDbBlockBegin
  2
*Paper_Space0
 70
     0
 10
0.0
 20
0.0
 30
0.0
  3
*Paper_Space0
  1

  0
ENDBLK
  5
25
330
23
100
AcDbEntity
  8
0
100
AcDbBlockEnd
  0
BLOCK
  5
73
330
72
100
AcDbEntity
  8
0
100
AcDbBlockBegin
  2
_Closed
 70
     0
 10
0.0
 20
0.0
 30
0.0
  3
_Closed
  1

  0
LINE
  5
75
330
72
100
AcDbEntity
  8
0
  6
ByBlock
 62
     0
370
    -2
100
AcDbLine
 10
-1.0
 20
0.166667
 30
0.0
 11
0.0
 21
0.0
 31
0.0
  0
LINE
  5
76
330
72
100
AcDbEntity
  8
0
  6
ByBlock
 62
     0
370
    -2
100
AcDbLine
 10
0.0
 20
0.0
 30
0.0
 11
-1.0
 21
-0.166667
 31
0.0
  0
LINE
  5
77
330
72
100
AcDbEntity
  8
0
  6
ByBlock
 62
     0
370
    -2
100
AcDbLine
 10
-1.0
 20
0.166667
 30
0.0
 11
-1.0
 21
-0.166667
 31
0.0
  0
LINE
  5
78
330
72
100
AcDbEntity
  8
0
  6
ByBlock
 62
     0
370
    -2
100
AcDbLine
 10
0.0
 20
0.0
 30
0.0
 11
-1.0
 21
0.0
 31
0.0
  0
ENDBLK
  5
74
330
72
100
AcDbEntity
  8
0
100
AcDbBlockEnd
  0
BLOCK
  5
B6
330
7B
100
AcDbEntity
  8
0
100
AcDbBlockBegin
  2
a
 70
     0
 10
70.80201
 20
65.188744
 30
0.0
  3
a
  1

  0
ARC
  5
7C
330
7B
100
AcDbEntity
  8
0
  6
Continuous
 62
     0
370
     0
100
AcDbCircle
 10
143.60399
 20
191.692837
 30
0.0
 40
10.64999998807905
100
AcDbArc
 50
22.44828
 51
202.44828
  0
ARC
  5
7D
330
7B
100
AcDbEntity
  8
0
  6
Continuous
 62
     0
370
     0
100
AcDbCircle
 10
143.60399
 20
191.692837
 30
0.0
 40
10.64999998807905
100
AcDbArc
 50
202.44828
 51
22.44828
  0
ARC
  5
7E
330
7B
100
AcDbEntity
  8
0
  6
Continuous
 62
     0
370
    30
100
AcDbCircle
 10
143.60399
 20
191.692837
 30
0.0
 40
10.94999999999999
100
AcDbArc
 50
22.44828
 51
202.44828
  0
ARC
  5
7F
330
7B
100
AcDbEntity
  8
0
  6
Continuous
 62
     0
370
    30
100
AcDbCircle
 10
143.60399
 20
191.692837
 30
0.0
 40
10.94999999999999
100
AcDbArc
 50
202.44828
 51
22.44828
  0
ARC
  5
80
330
7B
100
AcDbEntity
  8
0
  6
Continuous
 62
     0
370
    30
100
AcDbCircle
 10
143.60399
 20
191.692838
 30
0.0
 40
10.99999999999999
100
AcDbArc
 50
90.0
 51
270.0
  0
ARC
  5
81
330
7B
100
AcDbEntity
  8
0
  6
Continuous
 62
     0
370
    30
100
AcDbCircle
 10
143.60399
 20
191.692838
 30
0.0
 40
10.99999999999999
100
AcDbArc
 50
270.0
 51
90.0
  0
ARC
  5
82
330
7B
100
AcDbEntity
  8
0
  6
Continuous
 62
     0
370
    30
100
AcDbCircle
 10
143.60399
 20
158.692738
 30
0.0
 40
69.49989970932009
100
AcDbArc
 50
283.373891
 51
90.0
  0
ARC
  5
83
330
7B
100
AcDbEntity
  8
0
  6
Continuous
 62
     0
370
    30
100
AcDbCircle
 10
143.60399
 20
158.692738
 30
0.0
 40
69.49989970932009
100
AcDbArc
 50
90.0
 51
256.62584
  0
ARC
  5
84
330
7B
100
AcDbEntity
  8
0
  6
Continuous
 62
     0
370
    30
100
AcDbCircle
 10
143.60399
 20
158.692738
 30
0.0
 40
69.99989970932006
100
AcDbArc
 50
283.22683
 51
90.0
  0
ARC
  5
85
330
7B
100
AcDbEntity
  8
0
  6
Continuous
 62
     0
370
    30
100
AcDbCircle
 10
143.60399
 20
158.692738
 30
0.0
 40
69.99989970932006
100
AcDbArc
 50
90.0
 51
256.772953
  0
ARC
  5
86
330
7B
100
AcDbEntity
  8
0
  6
Continuous
 62
     0
370
    30
100
AcDbCircle
 10
143.60399
 20
143.692838
 30
0.0
 40
22.2
100
AcDbArc
 50
343.738861
 51
90.000503
  0
ARC
  5
87
330
7B
100
AcDbEntity
  8
0
  6
Continuous
 62
     0
370
    30
100
AcDbCircle
 10
143.60399
 20
143.692838
 30
0.0
 40
22.2
100
AcDbArc
 50
90.000503
 51
196.261608
  0
ARC
  5
88
330
7B
100
AcDbEntity
  8
0
  6
Continuous
 62
     0
370
    30
100
AcDbCircle
 10
143.603774
 20
143.692608
 30
0.0
 40
21.99393697203805
100
AcDbArc
 50
359.573392
 51
89.999398
  0
ARC
  5
89
330
7B
100
AcDbEntity
  8
0
  6
Continuous
 62
     0
370
    30
100
AcDbCircle
 10
143.604237
 20
143.692608
 30
0.0
 40
21.99393697203801
100
AcDbArc
 50
90.000603
 51
180.426609
  0
LINE
  5
8A
330
7B
100
AcDbEntity
  8
0
  6
Continuous
 62
     0
370
     0
100
AcDbLine
 10
165.274715
 20
139.936673
 30
0.0
 11
165.204524
 21
139.936738
 31
0.0
  0
LINE
  5
8B
330
7B
100
AcDbEntity
  8
0
  6
Continuous
 62
     0
370
     0
100
AcDbLine
 10
165.204524
 20
139.936738
 30
0.0
 11
165.180626
 21
139.745411
 31
0.0
  0
SPLINE
  5
8C
330
7B
100
AcDbEntity
  8
0
  6
Continuous
 62
     0
370
     0
100
AcDbSpline
210
0.0
220
0.0
230
1.0
 70
     8
 71
     3
 72
     8
 73
     4
 74
     0
 42
0.000000001
 43
0.0
 40
0.0
 40
0.0
 40
0.0
 40
0.0
 40
3.675194520389776
 40
3.675194520389776
 40
3.675194520389776
 40
3.675194520389776
 10
165.1915318474846
 20
139.936694417136
 30
0.0
 10
165.326595558379
 20
141.1341063652202
 30
0.0
 10
165.5873729987981
 20
142.3241176033284
 30
0.0
 10
165.5970582376309
 20
143.5288496196738
 30
0.0
  0
LINE
  5
8D
330
7B
100
AcDbEntity
  8
0
  6
Continuous
 62
     0
370
     0
100
AcDbLine
 10
121.933296
 20
139.936673
 30
0.0
 11
122.003487
 21
139.936738
 31
0.0
  0
LINE
  5
8E
330
7B
100
AcDbEntity
  8
0
  6
Continuous
 62
     0
370
     0
100
AcDbLine
 10
122.003487
 20
139.936738
 30
0.0
 11
122.027385
 21
139.74541
 31
0.0
  0
LINE
  5
8F
330
7B
100
AcDbEntity
  8
0
  6
Continuous
 62
     0
370
     0
100
AcDbLine
 10
165.191539
 20
139.936694
 30
0.0
 11
162.733013
 21
118.161503
 31
0.0
  0
LINE
  5
90
330
7B
100
AcDbEntity
  8
0
  6
Continuous
 62
     0
370
     0
100
AcDbLine
 10
162.733013
 20
118.161503
 30
0.0
 11
159.25934
 21
87.387087
 31
0.0
  0
LINE
  5
91
330
7B
100
AcDbEntity
  8
0
  6
Continuous
 62
     0
370
     0
100
AcDbLine
 10
143.603993
 20
71.086326
 30
0.0
 11
143.603998
 21
71.011696
 31
0.0
  0
SPLINE
  5
92
330
7B
100
AcDbEntity
  8
0
  6
Continuous
 62
     0
370
     0
100
AcDbSpline
210
0.0
220
0.0
230
1.0
 70
     8
 71
     3
 72
     8
 73
     4
 74
     0
 42
0.000000001
 43
0.0
 40
0.0
 40
0.0
 40
0.0
 40
0.0
 40
3.65322244306401
 40
3.65322244306401
 40
3.65322244306401
 40
3.65322244306401
 10
164.2874250064514
 20
143.8041327851251
 30
0.0
 10
164.2759369680084
 20
142.6059628433064
 30
0.0
 10
164.0193847295119
 20
141.4237271864404
 30
0.0
 10
163.8837711871076
 20
140.2334580252523
 30
0.0
  0
LINE
  5
93
330
7B
100
AcDbEntity
  8
0
  6
Continuous
 62
     0
370
     0
100
AcDbLine
 10
163.883771
 20
140.233458
 30
0.0
 11
157.958122
 21
87.811005
 31
0.0
  0
SPLINE
  5
94
330
7B
100
AcDbEntity
  8
0
  6
Continuous
 62
     0
370
     0
100
AcDbSpline
210
0.0
220
0.0
230
1.0
 70
     8
 71
     3
 72
    14
 73
    10
 74
     0
 42
0.000000001
 43
0.0
 40
0.0
 40
0.0
 40
0.0
 40
0.0
 40
3.357648776850982
 40
6.714049718873458
 40
10.06778576981202
 40
13.41760088284158
 40
16.76445100048879
 40
20.11421126264104
 40
23.46800661547982
 40
23.46800661547982
 40
23.46800661547982
 40
23.46800661547982
 10
157.9581224351581
 20
87.81100532100432
 30
0.0
 10
157.8313984048849
 20
86.71727240453738
 30
0.0
 10
157.4768944963736
 20
84.53986946313478
 30
0.0
 10
156.5499452524052
 20
81.35711022462756
 30
0.0
 10
155.1010237263355
 20
78.36091617760096
 30
0.0
 10
152.9910977095747
 20
75.75159361422979
 30
0.0
 10
150.1917204154757
 20
73.85078864738644
 30
0.0
 10
146.9647039953525
 20
72.83204766428187
 30
0.0
 10
144.721938045515
 20
72.65236304959832
 30
0.0
 10
143.6040062612357
 20
72.6523623244082
 30
0.0
  0
LINE
  5
95
330
7B
100
AcDbEntity
  8
0
  6
Continuous
 62
     0
370
     0
100
AcDbLine
 10
143.604006
 20
72.652362
 30
0.0
 11
143.604004
 21
164.624225
 31
0.0
  0
ARC
  5
96
330
7B
100
AcDbEntity
  8
0
  6
Continuous
 62
     0
370
     0
100
AcDbCircle
 10
143.604594
 20
143.940942
 30
0.0
 40
20.68328310527696
100
AcDbArc
 50
359.621014
 51
90.001632
  0
SPLINE
  5
97
330
7B
100
AcDbEntity
  8
0
  6
Continuous
 62
     0
370
     0
100
AcDbSpline
210
0.0
220
0.0
230
1.0
 70
     8
 71
     7
 72
    16
 73
     8
 74
     0
 42
0.000000001
 43
0.0
 40
0.0
 40
0.0
 40
0.0
 40
0.0
 40
0.0
 40
0.0
 40
0.0
 40
0.0
 40
1.0
 40
1.0
 40
1.0
 40
1.0
 40
1.0
 40
1.0
 40
1.0
 40
1.0
 10
157.9581278641059
 20
87.81101096190683
 30
0.0
 10
158.2658166164096
 20
87.76763906735319
 30
0.0
 10
158.5620227523283
 20
87.71231902556221
 30
0.0
 10
158.8262512588456
 20
87.64794041177586
 30
0.0
 10
159.0391343565713
 20
87.57858521830316
 30
0.0
 10
159.1859346155991
 20
87.50905475306082
 30
0.0
 10
159.2593376192613
 20
87.44395981752963
 30
0.0
 10
159.2593400039345
 20
87.38708900346599
 30
0.0
  0
LINE
  5
98
330
7B
100
AcDbEntity
  8
0
  6
Continuous
 62
     0
370
     0
100
AcDbLine
 10
143.604005
 20
164.624226
 30
0.0
 11
143.604005
 21
165.686545
 31
0.0
  0
LINE
  5
99
330
7B
100
AcDbEntity
  8
0
  6
Continuous
 62
     0
370
     0
100
AcDbLine
 10
143.603993
 20
72.652362
 30
0.0
 11
143.603993
 21
71.086326
 31
0.0
  0
SPLINE
  5
9A
330
7B
100
AcDbEntity
  8
0
  6
Continuous
 62
     0
370
     0
100
AcDbSpline
210
0.0
220
0.0
230
1.0
 70
     8
 71
     3
 72
    21
 73
    17
 74
     0
 42
0.000000001
 43
0.0
 40
0.0
 40
0.0
 40
0.0
 40
0.0
 40
0.7625472699044984
 40
1.527870988522846
 40
3.068173238571163
 40
6.184644795374176
 40
7.762267914638144
 40
9.344689078241554
 40
10.92485328317408
 40
12.49648425405301
 40
15.59751546688465
 40
18.64952673578841
 40
21.66346482859164
 40
23.1602384496008
 40
23.90640253390963
 40
24.65139873213821
 40
24.65139873213821
 40
24.65139873213821
 40
24.65139873213821
 10
143.604019396171
 20
71.0863261323087
 30
0.0
 10
143.3434082320987
 20
71.08609841278911
 30
0.0
 10
142.821487035037
 20
71.09566030639701
 30
0.0
 10
141.7724579350288
 20
71.15418745315228
 30
0.0
 10
139.9227630448789
 20
71.3719825592584
 30
0.0
 10
137.8237558370888
 20
71.93179888095031
 30
0.0
 10
135.8552744369309
 20
72.8626802573397
 30
0.0
 10
134.4710655603748
 20
73.7509454578414
 30
0.0
 10
133.2200086183024
 20
74.80804537727118
 30
0.0
 10
131.7630886358489
 20
76.39200285823226
 30
0.0
 10
130.3307716806985
 20
78.62299452796285
 30
0.0
 10
129.1474794148577
 20
81.48876744498682
 30
0.0
 10
128.5000248262208
 20
83.94105487035216
 30
0.0
 10
128.185150895477
 20
85.66532071905786
 30
0.0
 10
128.0385689887136
 20
86.64901768624347
 30
0.0
 10
127.9786221315708
 20
87.14119209630594
 30
0.0
 10
127.9486721783765
 20
87.38708656429566
 30
0.0
  0
SPLINE
  5
9B
330
7B
100
AcDbEntity
  8
0
  6
Continuous
 62
     0
370
     0
100
AcDbSpline
210
0.0
220
0.0
230
1.0
 70
     8
 71
     3
 72
     8
 73
     4
 74
     0
 42
0.000000001
 43
0.0
 40
0.0
 40
0.0
 40
0.0
 40
0.0
 40
3.653222443064019
 40
3.653222443064019
 40
3.653222443064019
 40
3.653222443064019
 10
122.920585873655
 20
143.8041323076989
 30
0.0
 10
122.9320739398786
 20
142.60596236615
 30
0.0
 10
123.1886262054287
 20
141.4237267151858
 30
0.0
 10
123.3242397754193
 20
140.2334575571434
 30
0.0
  0
LINE
  5
9C
330
7B
100
AcDbEntity
  8
0
  6
Continuous
 62
     0
370
     0
100
AcDbLine
 10
123.32424
 20
140.233458
 30
0.0
 11
129.24989
 21
87.811005
 31
0.0
  0
ARC
  5
9D
330
7B
100
AcDbEntity
  8
0
  6
Continuous
 62
     0
370
     0
100
AcDbCircle
 10
143.603417
 20
143.940942
 30
0.0
 40
20.68328310523923
100
AcDbArc
 50
89.998369
 51
180.378987
  0
SPLINE
  5
9E
330
7B
100
AcDbEntity
  8
0
  6
Continuous
 62
     0
370
     0
100
AcDbSpline
210
0.0
220
0.0
230
1.0
 70
     8
 71
     3
 72
     8
 73
     4
 74
     0
 42
0.000000001
 43
0.0
 40
0.0
 40
0.0
 40
0.0
 40
0.0
 40
3.675194520389776
 40
3.675194520389776
 40
3.675194520389776
 40
3.675194520389776
 10
122.0164791218923
 20
139.9366939188407
 30
0.0
 10
121.8814153833585
 20
141.1341058638072
 30
0.0
 10
121.6206379154709
 20
142.324117095896
 30
0.0
 10
121.6109526488298
 20
143.5288491120179
 30
0.0
  0
SPLINE
  5
9F
330
7B
100
AcDbEntity
  8
0
  6
Continuous
 62
     0
370
     0
100
AcDbSpline
210
0.0
220
0.0
230
1.0
 70
     8
 71
     7
 72
    16
 73
     8
 74
     0
 42
0.000000001
 43
0.0
 40
0.0
 40
0.0
 40
0.0
 40
0.0
 40
0.0
 40
0.0
 40
0.0
 40
0.0
 40
1.0
 40
1.0
 40
1.0
 40
1.0
 40
1.0
 40
1.0
 40
1.0
 40
1.0
 10
122.9205945411815
 20
143.8041225864316
 30
0.0
 10
122.610817518624
 20
143.7959258734298
 30
0.0
 10
122.3126063072774
 20
143.7744607430153
 30
0.0
 10
122.0466049100142
 20
143.7402740298298
 30
0.0
 10
121.8323214033002
 20
143.6952352366347
 30
0.0
 10
121.6845975810947
 20
143.6424638591814
 30
0.0
 10
121.6107950349227
 20
143.5857379475154
 30
0.0
 10
121.6109093762855
 20
143.5288487671956
 30
0.0
  0
LINE
  5
A0
330
7B
100
AcDbEntity
  8
0
  6
Continuous
 62
     0
370
    30
100
AcDbLine
 10
165.080077
 20
138.949472
 30
0.0
 11
165.26864
 21
139.902484
 31
0.0
  0
LINE
  5
A1
330
7B
100
AcDbEntity
  8
0
  6
Continuous
 62
     0
370
    30
100
AcDbLine
 10
165.26864
 20
139.902484
 30
0.0
 11
165.274591
 21
139.936658
 31
0.0
  0
SPLINE
  5
A2
330
7B
100
AcDbEntity
  8
0
  6
Continuous
 62
     0
370
     0
100
AcDbSpline
210
0.0
220
0.0
230
1.0
 70
     8
 71
     3
 72
    11
 73
     7
 74
     0
 42
0.000000001
 43
0.0
 40
0.0
 40
0.0
 40
0.0
 40
0.0
 40
0.5084500309309365
 40
1.01690006218892
 40
1.525350093773952
 40
2.033085648011041
 40
2.033085648011041
 40
2.033085648011041
 40
2.033085648011041
 10
165.5971015101753
 20
143.5288492748525
 30
0.0
 10
165.5971678847296
 20
143.5618735214305
 30
0.0
 10
165.531935051368
 20
143.6283648620405
 30
0.0
 10
165.2498033857211
 20
143.714903326393
 30
0.0
 10
164.8193818954863
 20
143.778068565944
 30
0.0
 10
164.4669938247382
 20
143.7993711017057
 30
0.0
 10
164.2874163383171
 20
143.8041230631598
 30
0.0
  0
LINE
  5
A3
330
7B
100
AcDbEntity
  8
0
  6
Continuous
 62
     0
370
     0
100
AcDbLine
 10
127.948672
 20
87.387089
 30
0.0
 11
124.474999
 21
118.161502
 31
0.0
  0
LINE
  5
A4
330
7B
100
AcDbEntity
  8
0
  6
Continuous
 62
     0
370
    30
100
AcDbLine
 10
165.274591
 20
139.936658
 30
0.0
 11
165.346925
 21
140.380951
 31
0.0
  0
ARC
  5
A5
330
7B
100
AcDbEntity
  8
0
  6
Continuous
 62
     0
370
    30
100
AcDbCircle
 10
143.575675
 20
143.695171
 30
0.0
 40
22.02206617278912
100
AcDbArc
 50
351.344361
 51
359.238121
  0
LINE
  5
A6
330
7B
100
AcDbEntity
  8
0
  6
Continuous
 62
     0
370
    30
100
AcDbLine
 10
121.93342
 20
139.936658
 30
0.0
 11
121.939371
 21
139.902483
 31
0.0
  0
LINE
  5
A7
330
7B
100
AcDbEntity
  8
0
  6
Continuous
 62
     0
370
    30
100
AcDbLine
 10
121.939371
 20
139.902483
 30
0.0
 11
122.119569
 21
138.987492
 31
0.0
  0
SPLINE
  5
A8
330
7B
100
AcDbEntity
  8
0
  6
Continuous
 62
     0
370
     0
100
AcDbSpline
210
0.0
220
0.0
230
1.0
 70
     8
 71
     7
 72
    16
 73
     8
 74
     0
 42
0.000000001
 43
0.0
 40
0.0
 40
0.0
 40
0.0
 40
0.0
 40
0.0
 40
0.0
 40
0.0
 40
0.0
 40
1.0
 40
1.0
 40
1.0
 40
1.0
 40
1.0
 40
1.0
 40
1.0
 40
1.0
 10
165.1915391441254
 20
139.9366936200493
 30
0.0
 10
165.1917670179105
 20
139.9947798434118
 30
0.0
 10
165.1183824844277
 20
140.0532401910125
 30
0.0
 10
164.9708880572356
 20
140.1084282755894
 30
0.0
 10
164.7568686524764
 20
140.1565214183809
 30
0.0
 10
164.4911743749539
 20
140.1944445735517
 30
0.0
 10
164.1932723996495
 20
140.220291072871
 30
0.0
 10
163.883803519291
 20
140.2334910330711
 30
0.0
  0
SPLINE
  5
A9
330
7B
100
AcDbEntity
  8
0
  6
Continuous
 62
     0
370
     0
100
AcDbSpline
210
0.0
220
0.0
230
1.0
 70
     8
 71
     3
 72
    14
 73
    10
 74
     0
 42
0.000000001
 43
0.0
 40
0.0
 40
0.0
 40
0.0
 40
0.0
 40
3.357659727039302
 40
6.714168333140132
 40
10.06786817318082
 40
13.41762334460882
 40
16.76451129115893
 40
20.11429153093614
 40
23.4681086927124
 40
23.4681086927124
 40
23.4681086927124
 40
23.4681086927124
 10
129.2498843122702
 20
87.81101062661841
 30
0.0
 10
129.3767405757359
 20
86.71726784825118
 30
0.0
 10
129.7310309258873
 20
84.53983127708432
 30
0.0
 10
130.658424753246
 20
81.35716964264391
 30
0.0
 10
132.1068068533175
 20
78.3606554510958
 30
0.0
 10
134.216991492025
 20
75.75161237315686
 30
0.0
 10
137.0162307882131
 20
73.85070118011274
 30
0.0
 10
140.2432782847723
 20
72.83184122990049
 30
0.0
 10
142.4860803434086
 20
72.65236649151092
 30
0.0
 10
143.6040193851726
 20
72.6523623273131
 30
0.0
  0
LINE
  5
AA
330
7B
100
AcDbEntity
  8
0
  6
Continuous
 62
     0
370
     0
100
AcDbLine
 10
124.474999
 20
118.161502
 30
0.0
 11
122.016472
 21
139.936693
 31
0.0
  0
SPLINE
  5
AB
330
7B
100
AcDbEntity
  8
0
  6
Continuous
 62
     0
370
     0
100
AcDbSpline
210
0.0
220
0.0
230
1.0
 70
     8
 71
     7
 72
    16
 73
     8
 74
     0
 42
0.000000001
 43
0.0
 40
0.0
 40
0.0
 40
0.0
 40
0.0
 40
0.0
 40
0.0
 40
0.0
 40
0.0
 40
1.0
 40
1.0
 40
1.0
 40
1.0
 40
1.0
 40
1.0
 40
1.0
 40
1.0
 10
122.0164718252515
 20
139.9366931217538
 30
0.0
 10
122.0162439501256
 20
139.9947793451111
 30
0.0
 10
122.089628482259
 20
140.0532396944057
 30
0.0
 10
122.2371229081771
 20
140.1084277823871
 30
0.0
 10
122.4511423118263
 20
140.1565209301187
 30
0.0
 10
122.7168365884735
 20
140.1944440914224
 30
0.0
 10
123.0147385631812
 20
140.220290597618
 30
0.0
 10
123.3242074432351
 20
140.2334905649615
 30
0.0
  0
SPLINE
  5
AC
330
7B
100
AcDbEntity
  8
0
  6
Continuous
 62
     0
370
     0
100
AcDbSpline
210
0.0
220
0.0
230
1.0
 70
     8
 71
     7
 72
    36
 73
    28
 74
     0
 42
0.000000001
 43
0.0
 40
0.0
 40
0.0
 40
0.0
 40
0.0
 40
0.0
 40
0.0
 40
0.0
 40
0.0
 40
0.11
 40
0.11
 40
0.11
 40
0.11
 40
0.11
 40
0.55
 40
0.55
 40
0.55
 40
0.55
 40
0.55
 40
0.65
 40
0.65
 40
0.65
 40
0.65
 40
0.65
 40
0.77
 40
0.77
 40
0.77
 40
0.77
 40
0.77
 40
1.0
 40
1.0
 40
1.0
 40
1.0
 40
1.0
 40
1.0
 40
1.0
 40
1.0
 10
159.2593400039797
 20
87.38708692566081
 30
0.0
 10
159.2141140611234
 20
86.99672808570318
 30
0.0
 10
159.1640262407955
 20
86.60691399821552
 30
0.0
 10
159.1088096352151
 20
86.21774643309452
 30
0.0
 10
159.0483960195094
 20
85.82931534915967
 30
0.0
 10
158.982461816453
 20
85.44175224066022
 30
0.0
 10
158.6242013486737
 20
83.50895203970897
 30
0.0
 10
158.1170192733719
 20
81.60515394216563
 30
0.0
 10
157.5998648199754
 20
80.11061751496602
 30
0.0
 10
156.9539808388407
 20
78.66167804343189
 30
0.0
 10
156.1526834910725
 20
77.27863692879643
 30
0.0
 10
154.9554017163136
 20
75.72677392928867
 30
0.0
 10
153.5180073413923
 20
74.41314054448085
 30
0.0
 10
153.2437410165062
 20
74.17852191266437
 30
0.0
 10
152.9616052548744
 20
73.95303826044928
 30
0.0
 10
152.6719852531208
 20
73.73697515714579
 30
0.0
 10
152.0190403709274
 20
73.28329857091403
 30
0.0
 10
151.333572015188
 20
72.87828867069808
 30
0.0
 10
150.9507797533099
 20
72.67221753171076
 30
0.0
 10
150.5598327420268
 20
72.48140475934385
 30
0.0
 10
150.1617418396043
 20
72.30571238614725
 30
0.0
 10
148.9821899235107
 20
71.83745155588912
 30
0.0
 10
147.7562163774181
 20
71.49548443773578
 30
0.0
 10
146.9364318737218
 20
71.32350823282776
 30
0.0
 10
146.1079990605767
 20
71.20142899707547
 30
0.0
 10
145.2746762780042
 20
71.12301980349307
 30
0.0
 10
144.4393347205389
 20
71.08632614938544
 30
0.0
 10
143.6039931624485
 20
71.08632613230841
 30
0.0
  0
LINE
  5
AD
330
7B
100
AcDbEntity
  8
0
  6
Continuous
 62
     0
370
    30
100
AcDbLine
 10
165.274591
 20
139.936658
 30
0.0
 11
165.26864
 21
139.902484
 31
0.0
  0
ARC
  5
AE
330
7B
100
AcDbEntity
  8
0
  6
Continuous
 62
     0
370
    30
100
AcDbCircle
 10
143.632336
 20
143.695171
 30
0.0
 40
22.02206617278978
100
AcDbArc
 50
180.76188
 51
188.655641
  0
LINE
  5
AF
330
7B
100
AcDbEntity
  8
0
  6
Continuous
 62
     0
370
    30
100
AcDbLine
 10
121.861086
 20
140.38095
 30
0.0
 11
121.93342
 21
139.936658
 31
0.0
  0
LINE
  5
B0
330
7B
100
AcDbEntity
  8
0
  6
Continuous
 62
     0
370
    30
100
AcDbLine
 10
121.939371
 20
139.902483
 30
0.0
 11
121.93342
 21
139.936658
 31
0.0
  0
SPLINE
  5
B1
330
7B
100
AcDbEntity
  8
0
  6
Continuous
 62
     0
370
     0
100
AcDbSpline
210
0.0
220
0.0
230
1.0
 70
     8
 71
     3
 72
    11
 73
     7
 74
     0
 42
0.000000001
 43
0.0
 40
0.0
 40
0.0
 40
0.0
 40
0.0
 40
0.5463209427519092
 40
1.092641883762446
 40
1.638962823031614
 40
2.183354679579053
 40
2.183354679579053
 40
2.183354679579053
 40
2.183354679579053
 10
127.9486721783765
 20
87.38708656429566
 30
0.0
 10
127.9486722275881
 20
87.42011754049197
 30
0.0
 10
128.013652319936
 20
87.49404791543411
 30
0.0
 10
128.2942819772439
 20
87.6126640415529
 30
0.0
 10
128.7219479538328
 20
87.72464648948801
 30
0.0
 10
129.0717962451388
 20
87.78590643466806
 30
0.0
 10
129.2498843122685
 20
87.81101062661817
 30
0.0
  0
LINE
  5
B2
330
7B
100
AcDbEntity
  8
0
  6
Continuous
 62
     0
370
    30
100
AcDbLine
 10
121.646091
 20
142.438735
 30
0.0
 11
121.65257
 21
142.329985
 31
0.0
  0
SPLINE
  5
B3
330
7B
100
AcDbEntity
  8
0
  6
Continuous
 62
     0
370
    30
100
AcDbSpline
210
0.0
220
0.0
230
1.0
 70
     8
 71
     3
 72
    18
 73
    14
 74
     0
 42
0.000000001
 43
0.0
 40
0.0
 40
0.0
 40
0.0
 40
0.0
 40
1.162516451680089
 40
4.263898427094491
 40
6.974646689818823
 40
8.517623687281944
 40
9.669442800780375
 40
11.19114742024719
 40
12.70630068905578
 40
14.57642348053159
 40
17.18732556177515
 40
20.92698745304716
 40
24.57417818738387
 40
24.57417818738387
 40
24.57417818738387
 40
24.57417818738387
 10
143.6040142623192
 20
71.01169598469929
 30
0.0
 10
143.2165548951096
 20
71.01176617568188
 30
0.0
 10
141.7952517218093
 20
71.04954949215961
 30
0.0
 10
139.4822526666294
 20
71.3610718811855
 30
0.0
 10
137.1485888864095
 20
72.14128008728281
 30
0.0
 10
135.5550353178004
 20
72.98174228911844
 30
0.0
 10
134.3907034990389
 20
73.76378379087356
 30
0.0
 10
133.3231483141291
 20
74.65808102903628
 30
0.0
 10
132.2047196024284
 20
75.84367251000137
 30
0.0
 10
131.0252153390215
 20
77.44676061231823
 30
0.0
 10
129.7386908497548
 20
79.85100545832697
 30
0.0
 10
128.6736803034351
 20
82.98691395032236
 30
0.0
 10
128.2150441805928
 20
85.38348329275686
 30
0.0
 10
128.0504098106527
 20
86.57358928231808
 30
0.0
  0
SPLINE
  5
B4
330
7B
100
AcDbEntity
  8
0
  6
Continuous
 62
     0
370
    30
100
AcDbSpline
210
0.0
220
0.0
230
1.0
 70
     8
 71
     3
 72
    18
 73
    14
 74
     0
 42
0.000000001
 43
0.0
 40
0.0
 40
0.0
 40
0.0
 40
0.0
 40
1.162516451680093
 40
4.2638984270945
 40
6.974646689818831
 40
8.51762368728193
 40
9.669442800780386
 40
11.1911474202472
 40
12.70630068905582
 40
14.57642348053166
 40
17.18732556177521
 40
20.92698745304725
 40
25.38195510286177
 40
25.38195510286177
 40
25.38195510286177
 40
25.38195510286177
 10
143.6039982980229
 20
71.0116959846991
 30
0.0
 10
143.9914576652309
 20
71.01176618462523
 30
0.0
 10
145.412760837659
 20
71.04954953391028
 30
0.0
 10
147.7257598856482
 20
71.36107197632612
 30
0.0
 10
150.0594236478589
 20
72.14128023629033
 30
0.0
 10
151.652977197068
 20
72.98174247490928
 30
0.0
 10
152.8173089977779
 20
73.76378400354014
 30
0.0
 10
153.8848641620452
 20
74.6580812663448
 30
0.0
 10
155.0032928463794
 20
75.84367277312612
 30
0.0
 10
156.1827970727829
 20
77.44676090266893
 30
0.0
 10
157.4693215065534
 20
79.85100577837397
 30
0.0
 10
158.6203803884371
 20
83.24028263444643
 30
0.0
 10
159.0893495676063
 20
85.9085811807789
 30
0.0
 10
159.2580931024103
 20
87.36520803416747
 30
0.0
  0
LINE
  5
B5
330
7B
100
AcDbEntity
  8
0
  6
Continuous
 62
     0
370
    30
100
AcDbLine
 10
165.56192
 20
142.438735
 30
0.0
 11
165.55544
 21
142.329986
 31
0.0
  0
ENDBLK
  5
B7
330
7B
100
AcDbEntity
  8
0
100
AcDbBlockEnd
  0
BLOCK
  5
115
330
B9
100
AcDbEntity
  8
0
100
AcDbBlockBegin
  2
b
 70
     0
 10
-36.487473
 20
-0.000015
 30
0.0
  3
b
  1

  0
LINE
  5
BA
330
B9
100
AcDbEntity
  8
0
  6
Continuous
 62
     0
370
     0
100
AcDbLine
 10
-91.167268
 20
121.908351
 30
0.0
 11
-96.290576
 21
121.717572
 31
0.0
  0
LINE
  5
BB
330
B9
100
AcDbEntity
  8
0
  6
Continuous
 62
     0
370
    30
100
AcDbLine
 10
-91.408291
 20
121.623644
 30
0.0
 11
-96.036465
 21
121.502451
 31
0.0
  0
ARC
  5
BC
330
B9
100
AcDbEntity
  8
0
  6
Continuous
 62
     0
370
    30
100
AcDbCircle
 10
-91.414835
 20
121.873558
 30
0.0
 40
0.25
100
AcDbArc
 50
271.5
 51
317.294081
  0
ARC
  5
BD
330
B9
100
AcDbEntity
  8
0
  6
Continuous
 62
     0
370
    30
100
AcDbCircle
 10
-96.043009
 20
121.752365
 30
0.0
 40
0.25
100
AcDbArc
 50
208.75945
 51
271.5
  0
SPLINE
  5
BE
330
B9
100
AcDbEntity
  8
0
  6
Continuous
 62
     0
370
    30
100
AcDbSpline
210
0.0
220
0.0
230
1.0
 70
    12
 71
     2
 72
     8
 73
     5
 74
     0
 42
0.000000001
 43
0.0
 40
0.6234333585667837
 40
0.6234333585667837
 40
0.6234333585667837
 40
0.666666666666667
 40
0.666666666666667
 40
1.0
 40
1.0
 40
1.0
 10
-97.46146076971756
 20
202.3428213892624
 30
0.0
 41
0.9697544701944063
 10
-97.46146080044078
 20
202.3428213895999
 30
0.0
 41
0.9826235050127656
 10
-97.46146083089752
 20
202.2504500450863
 30
0.0
 41
1.0
 10
-97.46146109733809
 20
201.4423706010702
 30
0.0
 41
0.866025403784439
 10
-97.46146119996843
 20
195.7595165571107
 30
0.0
 41
1.0
  0
LINE
  5
BF
330
B9
100
AcDbEntity
  8
0
  6
Continuous
 62
     0
370
    30
100
AcDbLine
 10
-97.461461
 20
195.759517
 30
0.0
 11
-97.461461
 21
181.042821
 31
0.0
  0
LINE
  5
C0
330
B9
100
AcDbEntity
  8
0
  6
Continuous
 62
     0
370
     0
100
AcDbLine
 10
-97.161461
 20
202.642817
 30
0.0
 11
-97.161461
 21
195.874071
 31
0.0
  0
LINE
  5
C1
330
B9
100
AcDbEntity
  8
0
  6
Continuous
 62
     0
370
     0
100
AcDbLine
 10
-97.161461
 20
195.874071
 30
0.0
 11
-97.161461
 21
180.742826
 31
0.0
  0
SPLINE
  5
C2
330
B9
100
AcDbEntity
  8
0
  6
Continuous
 62
     0
370
     0
100
AcDbSpline
210
0.0
220
0.0
230
1.0
 70
     8
 71
     3
 72
    17
 73
    13
 74
     0
 42
0.000000001
 43
0.0
 40
10.32805059928333
 40
10.32805059928333
 40
10.32805059928333
 40
10.32805059928333
 40
12.04939237312217
 40
13.77073414071106
 40
15.49207590829995
 40
17.21341767588882
 40
18.93475944347771
 40
20.65610121106659
 40
22.37744297865547
 40
24.09878474624435
 40
25.82012651383323
 40
27.5414682814222
 40
27.5414682814222
 40
27.5414682814222
 40
27.5414682814222
 10
-77.76146079128743
 20
182.7928250271715
 30
0.0
 10
-77.76146081674923
 20
182.7922995364351
 30
0.0
 10
-77.76146086767744
 20
182.905989656023
 30
0.0
 10
-77.76146094114756
 20
183.4141987319003
 30
0.0
 10
-77.76146100887217
 20
184.2405503983103
 30
0.0
 10
-77.76146106824854
 20
185.3532887232996
 30
0.0
 10
-77.76146111699518
 20
186.7096517169092
 30
0.0
 10
-77.76146115323832
 20
188.2575151314307
 30
0.0
 10
-77.76146117558528
 20
189.9373954381406
 30
0.0
 10
-77.76146118317774
 20
191.6847357804818
 30
0.0
 10
-77.7614611757233
 20
193.4323868486053
 30
0.0
 10
-77.76146116091354
 20
194.5529205443121
 30
0.0
 10
-77.76146115119104
 20
195.0912802676873
 30
0.0
  0
LINE
  5
C3
330
B9
100
AcDbEntity
  8
0
  6
Continuous
 62
     0
370
     0
100
AcDbLine
 10
-77.761461
 20
195.09128
 30
0.0
 11
-77.761461
 21
200.592818
 31
0.0
  0
LINE
  5
C4
330
B9
100
AcDbEntity
  8
0
  6
Continuous
 62
     0
370
     0
100
AcDbLine
 10
-90.058854
 20
180.742821
 30
0.0
 11
-90.058854
 21
195.874071
 31
0.0
  0
LINE
  5
C5
330
B9
100
AcDbEntity
  8
0
  6
Continuous
 62
     0
370
     0
100
AcDbLine
 10
-90.058854
 20
195.874071
 30
0.0
 11
-90.058854
 21
202.642821
 31
0.0
  0
SPLINE
  5
C6
330
B9
100
AcDbEntity
  8
0
  6
Continuous
 62
     0
370
     0
100
AcDbSpline
210
0.0
220
0.0
230
1.0
 70
     8
 71
     3
 72
    16
 73
    12
 74
     0
 42
0.000000001
 43
0.0
 40
12.5234989309831
 40
12.5234989309831
 40
12.5234989309831
 40
12.5234989309831
 40
14.31256813192214
 40
16.69799542440829
 40
19.08342267302633
 40
21.46884850520088
 40
23.85427371430498
 40
26.23969798909771
 40
28.62512826061312
 40
31.01056519575693
 40
33.39599714928826
 40
33.39599714928826
 40
33.39599714928826
 40
33.39599714928826
 10
-89.75886557910722
 20
181.0402665272908
 30
0.0
 10
-89.75886559122308
 20
181.0397768963745
 30
0.0
 10
-89.75886563163279
 20
181.1559162950433
 30
0.0
 10
-89.75886583863803
 20
181.7644191290032
 30
0.0
 10
-89.7588657954368
 20
182.9261466288236
 30
0.0
 10
-89.75886596710643
 20
184.5274433322745
 30
0.0
 10
-89.75886611088004
 20
186.4880637257016
 30
0.0
 10
-89.75886586545153
 20
188.7095943771318
 30
0.0
 10
-89.75886667532131
 20
191.0809971350455
 30
0.0
 10
-89.75886658297168
 20
193.4819806317882
 30
0.0
 10
-89.7588659995024
 20
195.0256245957927
 30
0.0
 10
-89.75886598623038
 20
195.7605162236203
 30
0.0
  0
LINE
  5
C7
330
B9
100
AcDbEntity
  8
0
  6
Continuous
 62
     0
370
     0
100
AcDbLine
 10
-89.758866
 20
195.760516
 30
0.0
 11
-89.758866
 21
202.345377
 31
0.0
  0
LINE
  5
C8
330
B9
100
AcDbEntity
  8
0
  6
Continuous
 62
     0
370
     0
100
AcDbLine
 10
-89.752221
 20
201.584095
 30
0.0
 11
-89.752222
 21
195.469797
 31
0.0
  0
LINE
  5
C9
330
B9
100
AcDbEntity
  8
0
  6
Continuous
 62
     0
370
     0
100
AcDbLine
 10
-89.752222
 20
195.469797
 30
0.0
 11
-89.752221
 21
181.801548
 31
0.0
  0
LINE
  5
CA
330
B9
100
AcDbEntity
  8
0
  6
Continuous
 62
     0
370
     0
100
AcDbLine
 10
-88.752259
 20
200.592821
 30
0.0
 11
-88.752259
 21
195.09128
 31
0.0
  0
LINE
  5
CB
330
B9
100
AcDbEntity
  8
0
  6
Continuous
 62
     0
370
     0
100
AcDbLine
 10
-88.752259
 20
195.09128
 30
0.0
 11
-88.752259
 21
182.792821
 31
0.0
  0
LINE
  5
CC
330
B9
100
AcDbEntity
  8
0
  6
Continuous
 62
     0
370
    30
100
AcDbLine
 10
-77.587517
 20
181.692823
 30
0.0
 11
-77.587517
 21
201.692823
 31
0.0
  0
LINE
  5
CD
330
B9
100
AcDbEntity
  8
0
  6
Continuous
 62
     0
370
    30
100
AcDbLine
 10
-77.587517
 20
201.692823
 30
0.0
 11
-76.587517
 21
202.692823
 31
0.0
  0
LINE
  5
CE
330
B9
100
AcDbEntity
  8
0
  6
Continuous
 62
     0
370
    30
100
AcDbLine
 10
-76.587517
 20
180.692823
 30
0.0
 11
-76.587517
 21
202.692823
 31
0.0
  0
LINE
  5
CF
330
B9
100
AcDbEntity
  8
0
  6
Continuous
 62
     0
370
    30
100
AcDbLine
 10
-66.487517
 20
89.192823
 30
0.0
 11
-66.487517
 21
228.192622
 31
0.0
  0
LINE
  5
D0
330
B9
100
AcDbEntity
  8
0
  6
Continuous
 62
     0
370
    30
100
AcDbLine
 10
-66.487517
 20
89.192823
 30
0.0
 11
-65.987517
 21
88.692823
 31
0.0
  0
LINE
  5
D1
330
B9
100
AcDbEntity
  8
0
  6
Continuous
 62
     0
370
    30
100
AcDbLine
 10
-65.987517
 20
88.692823
 30
0.0
 11
-65.987517
 21
228.692622
 31
0.0
  0
LINE
  5
D2
330
B9
100
AcDbEntity
  8
0
  6
Continuous
 62
     0
370
    30
100
AcDbLine
 10
-65.987517
 20
88.692823
 30
0.0
 11
-55.987528
 21
88.692823
 31
0.0
  0
LINE
  5
D3
330
B9
100
AcDbEntity
  8
0
  6
Continuous
 62
     0
370
    30
100
AcDbLine
 10
-55.987528
 20
88.692823
 30
0.0
 11
-55.987528
 21
228.692622
 31
0.0
  0
LINE
  5
D4
330
B9
100
AcDbEntity
  8
0
  6
Continuous
 62
     0
370
    30
100
AcDbLine
 10
-66.487517
 20
202.692823
 30
0.0
 11
-76.587517
 21
202.692823
 31
0.0
  0
LINE
  5
D5
330
B9
100
AcDbEntity
  8
0
  6
Continuous
 62
     0
370
    30
100
AcDbLine
 10
-76.680614
 20
165.892823
 30
0.0
 11
-76.680614
 21
121.492823
 31
0.0
  0
LINE
  5
D6
330
B9
100
AcDbEntity
  8
0
  6
Continuous
 62
     0
370
    30
100
AcDbLine
 10
-76.680614
 20
121.492823
 30
0.0
 11
-66.487517
 21
121.492823
 31
0.0
  0
LINE
  5
D7
330
B9
100
AcDbEntity
  8
0
  6
Continuous
 62
     0
370
    30
100
AcDbLine
 10
-79.751012
 20
121.699115
 30
0.0
 11
-91.188353
 21
121.699115
 31
0.0
  0
LINE
  5
D8
330
B9
100
AcDbEntity
  8
0
  6
Continuous
 62
     0
370
     0
100
AcDbLine
 10
-106.882426
 20
143.528834
 30
0.0
 11
-103.082676
 21
165.68653
 31
0.0
  0
ARC
  5
D9
330
B9
100
AcDbEntity
  8
0
  6
Continuous
 62
     0
370
    30
100
AcDbCircle
 10
-89.851407
 20
143.370989
 30
0.0
 40
10.10040946257969
100
AcDbArc
 50
0.100021
 51
19.899209
  0
LINE
  5
DA
330
B9
100
AcDbEntity
  8
0
  6
Continuous
 62
     0
370
     0
100
AcDbLine
 10
-104.430879
 20
139.936658
 30
0.0
 11
-106.100435
 21
139.936723
 31
0.0
  0
SPLINE
  5
DB
330
B9
100
AcDbEntity
  8
0
  6
Continuous
 62
     0
370
     0
100
AcDbSpline
210
0.0
220
0.0
230
1.0
 70
     8
 71
     3
 72
    18
 73
    14
 74
     0
 42
0.000000001
 43
0.0
 40
0.0
 40
0.0
 40
0.0
 40
0.0
 40
1.612020921592821
 40
3.224116834552438
 40
6.448183379388234
 40
9.67248244362937
 40
12.89652384406625
 40
16.12063455891719
 40
17.73307287272357
 40
19.34484000979756
 40
20.95705083966382
 40
21.76300101780322
 40
22.56861979264835
 40
22.56861979264835
 40
22.56861979264835
 40
22.56861979264835
 10
-106.1004352254945
 20
139.9367229309248
 30
0.0
 10
-106.1904888195108
 20
139.410610349053
 30
0.0
 10
-106.3818020522135
 20
138.3691176949659
 30
0.0
 10
-106.7396528124966
 20
136.2753642352012
 30
0.0
 10
-107.1961636968319
 20
133.6661247114307
 30
0.0
 10
-107.7431565353468
 20
130.5350255231204
 30
0.0
 10
-108.2882229682564
 20
127.4026194010656
 30
0.0
 10
-108.7482320611753
 20
124.7904520026271
 30
0.0
 10
-109.1152063854654
 20
122.6963872364084
 30
0.0
 10
-109.394422363815
 20
121.1244563358679
 30
0.0
 10
-109.6264599415442
 20
119.8118066863593
 30
0.0
 10
-109.8129311010673
 20
118.7644876052371
 30
0.0
 10
-109.9092756279731
 20
118.2341513300915
 30
0.0
 10
-109.9543723256388
 20
117.9747535521036
 30
0.0
  0
SPLINE
  5
DC
330
B9
100
AcDbEntity
  8
0
  6
Continuous
 62
     0
370
     0
100
AcDbSpline
210
0.0
220
0.0
230
1.0
 70
     8
 71
     3
 72
    17
 73
    13
 74
     0
 42
0.000000001
 43
0.0
 40
0.0
 40
0.0
 40
0.0
 40
0.0
 40
0.796876025657046
 40
1.594375716149768
 40
3.189591663228663
 40
4.784596642401483
 40
6.379767638693497
 40
9.568585047499532
 40
12.75731078586577
 40
15.94516772308054
 40
19.13264561178924
 40
22.31836371266836
 40
22.31836371266836
 40
22.31836371266836
 40
22.31836371266836
 10
-109.9543722926069
 20
117.9747536655424
 30
0.0
 10
-109.9930683900716
 20
117.7384695295978
 30
0.0
 10
-110.0576641208343
 20
117.3195135591647
 30
0.0
 10
-110.1962639216051
 20
116.4422258344625
 30
0.0
 10
-110.3522273799683
 20
115.4076279705657
 30
0.0
 10
-110.5297108477309
 20
114.2111653705123
 30
0.0
 10
-110.7456988460804
 20
112.7051268954374
 30
0.0
 10
-110.9841688868712
 20
110.9815206422619
 30
0.0
 10
-111.2193608802645
 20
109.2101392494885
 30
0.0
 10
-111.4021243156658
 20
107.7909474151515
 30
0.0
 10
-111.5248004383084
 20
106.8145692440834
 30
0.0
 10
-111.5676624284392
 20
106.5166229132337
 30
0.0
 10
-111.5742141337914
 20
106.4827204662773
 30
0.0
  0
SPLINE
  5
DD
330
B9
100
AcDbEntity
  8
0
  6
Continuous
 62
     0
370
    30
100
AcDbSpline
210
0.0
220
0.0
230
1.0
 70
     8
 71
     3
 72
    14
 73
    10
 74
     0
 42
0.000000001
 43
0.0
 40
0.0
 40
0.0
 40
0.0
 40
0.0
 40
3.341454141587589
 40
6.683510156799484
 40
10.02349257324497
 40
13.36048803168821
 40
16.69668072166059
 40
20.03403197351032
 40
23.34059401502745
 40
23.34059401502745
 40
23.34059401502745
 40
23.34059401502745
 10
-111.574214102219
 20
106.4827206281978
 30
0.0
 10
-111.3605496406879
 20
107.575852889243
 30
0.0
 10
-110.7604102492053
 20
109.729718369093
 30
0.0
 10
-109.4858136184498
 20
112.8263404113101
 30
0.0
 10
-107.7754468702999
 20
115.7135992729761
 30
0.0
 10
-105.5197107532572
 20
118.212375822063
 30
0.0
 10
-102.720781390381
 20
120.0939595759428
 30
0.0
 10
-99.56536659137517
 20
121.2353693378391
 30
0.0
 10
-97.36070182335651
 20
121.5519457138134
 30
0.0
 10
-96.2612410346322
 20
121.6304021964866
 30
0.0
  0
LINE
  5
DE
330
B9
100
AcDbEntity
  8
0
  6
Continuous
 62
     0
370
     0
100
AcDbLine
 10
-107.545015
 20
139.936679
 30
0.0
 11
-106.882426
 21
143.528834
 31
0.0
  0
SPLINE
  5
DF
330
B9
100
AcDbEntity
  8
0
  6
Continuous
 62
     0
370
     0
100
AcDbSpline
210
0.0
220
0.0
230
1.0
 70
     8
 71
     7
 72
    31
 73
    23
 74
     0
 42
0.000000001
 43
0.0
 40
-0.0000000000000264
 40
-0.0000000000000264
 40
-0.0000000000000264
 40
-0.0000000000000264
 40
-0.0000000000000264
 40
-0.0000000000000264
 40
-0.0000000000000264
 40
-0.0000000000000264
 40
0.3899999999999839
 40
0.3899999999999839
 40
0.3899999999999839
 40
0.3899999999999839
 40
0.3899999999999839
 40
0.6436379999999904
 40
0.6436379999999904
 40
0.6436379999999904
 40
0.6436379999999904
 40
0.6436379999999904
 40
0.7742999999999939
 40
0.7742999999999939
 40
0.7742999999999939
 40
0.7742999999999939
 40
0.7742999999999939
 40
1.0
 40
1.0
 40
1.0
 40
1.0
 40
1.0
 40
1.0
 40
1.0
 40
1.0
 10
-111.561545990136
 20
118.1614876224947
 30
0.0
 10
-111.4414206999063
 20
118.1393331338251
 30
0.0
 10
-111.3210863069673
 20
118.1183256872178
 30
0.0
 10
-111.2021626401115
 20
118.0977153625575
 30
0.0
 10
-111.081564603689
 20
118.0763384611645
 30
0.0
 10
-110.9639830914173
 20
118.0547265611337
 30
0.0
 10
-110.7714639195315
 20
118.0176092727429
 30
0.0
 10
-110.5806315995703
 20
117.9781026396606
 30
0.0
 10
-110.5053834334769
 20
117.9620513865398
 30
0.0
 10
-110.431524851653
 20
117.946243905374
 30
0.0
 10
-110.3581662361487
 20
117.9300935868062
 30
0.0
 10
-110.2486244253603
 20
117.9068251313264
 30
0.0
 10
-110.1525495712879
 20
117.8912799568585
 30
0.0
 10
-110.1221153013378
 20
117.8872459163419
 30
0.0
 10
-110.0944511722616
 20
117.8847210447762
 30
0.0
 10
-110.0711569130085
 20
117.8843999528256
 30
0.0
 10
-110.0178918920847
 20
117.8882763144266
 30
0.0
 10
-109.9891660082599
 20
117.9032926647514
 30
0.0
 10
-109.9782192732514
 20
117.9158408735502
 30
0.0
 10
-109.9697715674147
 20
117.9294913823603
 30
0.0
 10
-109.9639928103934
 20
117.9442742787302
 30
0.0
 10
-109.9591198511691
 20
117.9595028434559
 30
0.0
 10
-109.9541890755902
 20
117.9747208659293
 30
0.0
  0
LINE
  5
E0
330
B9
100
AcDbEntity
  8
0
  6
Continuous
 62
     0
370
     0
100
AcDbLine
 10
-107.545015
 20
139.936678
 30
0.0
 11
-111.561546
 21
118.161488
 31
0.0
  0
LINE
  5
E1
330
B9
100
AcDbEntity
  8
0
  6
Continuous
 62
     0
370
     0
100
AcDbLine
 10
-111.561546
 20
118.161488
 30
0.0
 11
-117.238012
 21
87.387072
 31
0.0
  0
SPLINE
  5
E2
330
B9
100
AcDbEntity
  8
0
  6
Continuous
 62
     0
370
     0
100
AcDbSpline
210
0.0
220
0.0
230
1.0
 70
     8
 71
     7
 72
    26
 73
    18
 74
     0
 42
0.000000001
 43
0.0
 40
0.0
 40
0.0
 40
0.0
 40
0.0
 40
0.0
 40
0.0
 40
0.0
 40
0.0
 40
0.4874999999999879
 40
0.4874999999999879
 40
0.4874999999999879
 40
0.4874999999999879
 40
0.4874999999999879
 40
0.7499999999999812
 40
0.7499999999999812
 40
0.7499999999999812
 40
0.7499999999999812
 40
0.7499999999999812
 40
0.9999999999999749
 40
0.9999999999999749
 40
0.9999999999999749
 40
0.9999999999999749
 40
0.9999999999999749
 40
0.9999999999999749
 40
0.9999999999999749
 40
0.9999999999999749
 10
-117.2380123120777
 20
87.38707166687172
 30
0.0
 10
-117.0778936226902
 20
87.35753910825342
 30
0.0
 10
-116.9177929727462
 20
87.32790873496087
 30
0.0
 10
-116.7579043886351
 20
87.29827960664548
 30
0.0
 10
-116.598462021062
 20
87.2687918336089
 30
0.0
 10
-116.4402138373512
 20
87.23973629183081
 30
0.0
 10
-116.1996752307896
 20
87.19629174701913
 30
0.0
 10
-115.9731779623112
 20
87.15803946981354
 30
0.0
 10
-115.896256795465
 20
87.14550347898329
 30
0.0
 10
-115.8226090873272
 20
87.13411356436488
 30
0.0
 10
-115.7535550840935
 20
87.12429223356948
 30
0.0
 10
-115.6320922978564
 20
87.10936818410147
 30
0.0
 10
-115.5425882203938
 20
87.10410405670329
 30
0.0
 10
-115.5078606729194
 20
87.1041440497166
 30
0.0
 10
-115.4830010889041
 20
87.10693907055455
 30
0.0
 10
-115.4669846839831
 20
87.11211948246941
 30
0.0
 10
-115.4586895314274
 20
87.11935924054855
 30
0.0
 10
-115.4570268903299
 20
87.1283534201728
 30
0.0
  0
LINE
  5
E3
330
B9
100
AcDbEntity
  8
0
  6
Continuous
 62
     0
370
     0
100
AcDbLine
 10
-115.457027
 20
87.128353
 30
0.0
 11
-109.954189
 21
117.974721
 31
0.0
  0
SPLINE
  5
E4
330
B9
100
AcDbEntity
  8
0
  6
Continuous
 62
     0
370
    30
100
AcDbSpline
210
0.0
220
0.0
230
1.0
 70
     8
 71
     3
 72
     8
 73
     4
 74
     0
 42
0.000000001
 43
0.0
 40
0.0
 40
0.0
 40
0.0
 40
0.0
 40
0.7943518780261709
 40
0.7943518780261709
 40
0.7943518780261709
 40
0.7943518780261709
 10
-120.2445502183762
 20
71.08631087351935
 30
0.0
 10
-119.3315270082974
 20
70.91791137514497
 30
0.0
 10
-118.7324799384464
 20
71.03372913529667
 30
0.0
 10
-118.4438550108021
 20
71.44160876629033
 30
0.0
  0
LINE
  5
E5
330
B9
100
AcDbEntity
  8
0
  6
Continuous
 62
     0
370
     0
100
AcDbLine
 10
-108.391655
 20
143.804118
 30
0.0
 11
-109.049971
 21
140.233443
 31
0.0
  0
LINE
  5
E6
330
B9
100
AcDbEntity
  8
0
  6
Continuous
 62
     0
370
     0
100
AcDbLine
 10
-109.049971
 20
140.233443
 30
0.0
 11
-118.719038
 21
87.81099
 31
0.0
  0
LINE
  5
E7
330
B9
100
AcDbEntity
  8
0
  6
Continuous
 62
     0
370
     0
100
AcDbLine
 10
-118.719038
 20
87.81099
 30
0.0
 11
-121.514957
 21
72.652347
 31
0.0
  0
SPLINE
  5
E8
330
B9
100
AcDbEntity
  8
0
  6
Continuous
 62
     0
370
    30
100
AcDbSpline
210
0.0
220
0.0
230
1.0
 70
     8
 71
     3
 72
    44
 73
    40
 74
     0
 42
0.000000001
 43
0.0
 40
0.0000895826433184
 40
0.0000895826433184
 40
0.0000895826433184
 40
0.0000895826433184
 40
1.455705552506579
 40
2.911589491455752
 40
5.824081540223627
 40
8.738562618644004
 40
11.65580985319745
 40
14.57578990662235
 40
16.03659608486232
 40
17.49778930288207
 40
20.42097080381651
 40
23.34485787363343
 40
29.19406413399674
 40
35.04490031177655
 40
40.89750583144499
 40
46.75217532138652
 40
52.60924050521431
 40
58.46889873474117
 40
61.39961580462718
 40
64.3307164339991
 40
67.26188709626257
 40
67.99463745970205
 40
68.72736871185101
 40
69.46006464945697
 40
70.192677557325
 40
70.92522637029062
 40
71.65766554636134
 40
72.38986921751011
 40
73.12154096573981
 40
73.85284092927583
 40
74.58380294677747
 40
76.04479523316759
 40
78.96357029080804
 40
81.87875183536413
 40
84.79115651375291
 40
87.70151606648814
 40
90.61036732559818
 40
92.064314958274
 40
93.51784755774796
 40
93.51784755774796
 40
93.51784755774796
 40
93.51784755774796
 10
-121.5149569518987
 20
72.65234706561914
 30
0.0
 10
-121.5019615534875
 20
73.13733447478602
 30
0.0
 10
-121.4759679317908
 20
74.10739856865257
 30
0.0
 10
-121.395851628806
 20
76.04737755006741
 30
0.0
 10
-121.2324554679146
 20
78.4707479097993
 30
0.0
 10
-120.9253004302166
 20
81.37236103708145
 30
0.0
 10
-120.5277091389985
 20
84.26749347393428
 30
0.0
 10
-120.1451090026453
 20
86.67556255545337
 30
0.0
 10
-119.8217839605727
 20
88.6007762281779
 30
0.0
 10
-119.4961403862681
 20
90.52705687082491
 30
0.0
 10
-119.0987250614548
 20
92.93798568591943
 30
0.0
 10
-118.4641339835559
 20
96.7969697649979
 30
0.0
 10
-117.6846988636664
 20
101.6235650084264
 30
0.0
 10
-116.750046029513
 20
107.4148128238977
 30
0.0
 10
-115.806178406662
 20
113.2050460588179
 30
0.0
 10
-114.8397510992713
 20
118.9929762116536
 30
0.0
 10
-113.8375256870991
 20
124.7771963688389
 30
0.0
 10
-112.9624178033505
 20
129.5922813598765
 30
0.0
 10
-112.2314781076152
 20
133.4396592249312
 30
0.0
 10
-111.6666605871112
 20
136.3222442991745
 30
0.0
 10
-111.2294777397183
 20
138.4808605734042
 30
0.0
 10
-110.9317849177767
 20
139.9181468295516
 30
0.0
 10
-110.7817303105226
 20
140.6363584291576
 30
0.0
 10
-110.6304354598219
 20
141.3541180691368
 30
0.0
 10
-110.4778510438807
 20
142.0714666377341
 30
0.0
 10
-110.3239728049371
 20
142.7882837484689
 30
0.0
 10
-110.1687955613806
 20
143.5045718684454
 30
0.0
 10
-110.0123338707181
 20
144.2201892449749
 30
0.0
 10
-109.8544736341137
 20
144.935544720768
 30
0.0
 10
-109.6952900172207
 20
145.6502017076255
 30
0.0
 10
-109.481224567475
 20
146.6020687921687
 30
0.0
 10
-109.1019866630074
 20
148.2651581965261
 30
0.0
 10
-108.5430616459719
 20
150.6346335621016
 30
0.0
 10
-107.8556488361562
 20
153.4702553590481
 30
0.0
 10
-107.116236405202
 20
156.2883788583354
 30
0.0
 10
-106.3185213186764
 20
159.0867640218821
 30
0.0
 10
-105.6055079517782
 20
161.4021488638485
 30
0.0
 10
-105.0114607581311
 20
163.2456480119785
 30
0.0
 10
-104.707646714463
 20
164.1647332522329
 30
0.0
 10
-104.5557612713376
 20
164.6242102365317
 30
0.0
  0
LINE
  5
E9
330
B9
100
AcDbEntity
  8
0
  6
Continuous
 62
     0
370
     0
100
AcDbLine
 10
-104.555761
 20
164.62421
 30
0.0
 11
-108.391655
 21
143.804118
 31
0.0
  0
SPLINE
  5
EA
330
B9
100
AcDbEntity
  8
0
  6
Continuous
 62
     0
370
     0
100
AcDbSpline
210
0.0
220
0.0
230
1.0
 70
     8
 71
     7
 72
    16
 73
     8
 74
     0
 42
0.000000001
 43
0.0
 40
0.0
 40
0.0
 40
0.0
 40
0.0
 40
0.0
 40
0.0
 40
0.0
 40
0.0
 40
1.0
 40
1.0
 40
1.0
 40
1.0
 40
1.0
 40
1.0
 40
1.0
 40
1.0
 10
-118.719071732804
 20
87.81099570311777
 30
0.0
 10
-118.6771946006209
 20
87.76762380856412
 30
0.0
 10
-118.5633245448025
 20
87.71230376677315
 30
0.0
 10
-118.3802541943305
 20
87.6479251529868
 30
0.0
 10
-118.1379492622243
 20
87.5785699595141
 30
0.0
 10
-117.8531839874486
 20
87.50903949427176
 30
0.0
 10
-117.5463625067907
 20
87.44394455874057
 30
0.0
 10
-117.2380235774294
 20
87.38707374467693
 30
0.0
  0
ARC
  5
EB
330
B9
100
AcDbEntity
  8
0
  6
Continuous
 62
     0
370
    30
100
AcDbCircle
 10
-103.082676
 20
164.13403
 30
0.0
 40
1.552499994566958
100
AcDbArc
 50
90.0
 51
161.594746
  0
SPLINE
  5
EC
330
B9
100
AcDbEntity
  8
0
  6
Continuous
 62
     0
370
    30
100
AcDbSpline
210
0.0
220
0.0
230
1.0
 70
     8
 71
     3
 72
     8
 73
     4
 74
     0
 42
0.000000001
 43
0.0
 40
0.2452070703443164
 40
0.2452070703443164
 40
0.2452070703443164
 40
0.2452070703443164
 40
34.96414840808595
 40
34.96414840808595
 40
34.96414840808595
 40
34.96414840808595
 10
-111.6214778427479
 20
106.2421105649478
 30
0.0
 10
-113.8269365999188
 20
94.88113470607985
 30
0.0
 10
-115.6437716380359
 20
83.43862347645154
 30
0.0
 10
-118.2054713402217
 20
72.1529763890814
 30
0.0
  0
SPLINE
  5
ED
330
B9
100
AcDbEntity
  8
0
  6
Continuous
 62
     0
370
     0
100
AcDbSpline
210
0.0
220
0.0
230
1.0
 70
     8
 71
     3
 72
    14
 73
    10
 74
     0
 42
0.000000001
 43
0.0
 40
0.0
 40
0.0
 40
0.0
 40
0.0
 40
4.302726272694154
 40
8.607970033122818
 40
12.91498592349899
 40
17.22299639511789
 40
21.53124926575671
 40
25.83887154380673
 40
30.14462411466932
 40
30.14462411466932
 40
30.14462411466932
 40
30.14462411466932
 10
-94.19580546470979
 20
121.836842621526
 30
0.0
 10
-94.3287340994957
 20
121.9964100250182
 30
0.0
 10
-94.82559037267015
 20
122.5946753177817
 30
0.0
 10
-96.0867443749164
 20
124.2182081739448
 30
0.0
 10
-97.69030090633487
 20
126.4450631147435
 30
0.0
 10
-99.47801487028755
 20
129.1772371248947
 30
0.0
 10
-101.3125914886414
 20
132.3491291099151
 30
0.0
 10
-103.046730419713
 20
135.917293925172
 30
0.0
 10
-104.0220259116445
 20
138.5443733739519
 30
0.0
 10
-104.4208557230822
 20
139.9024686861017
 30
0.0
  0
LINE
  5
EE
330
B9
100
AcDbEntity
  8
0
  6
Continuous
 62
     0
370
     0
100
AcDbLine
 10
-104.420856
 20
139.902469
 30
0.0
 11
-104.431008
 21
139.936643
 31
0.0
  0
LINE
  5
EF
330
B9
100
AcDbEntity
  8
0
  6
Continuous
 62
     0
370
     0
100
AcDbLine
 10
-106.882426
 20
143.528834
 30
0.0
 11
-108.391601
 21
143.804108
 31
0.0
  0
LINE
  5
F0
330
B9
100
AcDbEntity
  8
0
  6
Continuous
 62
     0
370
     0
100
AcDbLine
 10
-104.431008
 20
139.936643
 30
0.0
 11
-104.56331
 21
140.380936
 31
0.0
  0
LINE
  5
F1
330
B9
100
AcDbEntity
  8
0
  6
Continuous
 62
     0
370
     0
100
AcDbLine
 10
-104.56331
 20
140.380936
 30
0.0
 11
-105.486441
 21
143.402331
 31
0.0
  0
LINE
  5
F2
330
B9
100
AcDbEntity
  8
0
  6
Continuous
 62
     0
370
     0
100
AcDbLine
 10
-105.486441
 20
143.402331
 30
0.0
 11
-106.882426
 21
143.528834
 31
0.0
  0
LINE
  5
F3
330
B9
100
AcDbEntity
  8
0
  6
Continuous
 62
     0
370
     0
100
AcDbLine
 10
-107.545015
 20
139.936678
 30
0.0
 11
-109.05017
 21
140.233476
 31
0.0
  0
LINE
  5
F4
330
B9
100
AcDbEntity
  8
0
  6
Continuous
 62
     0
370
     0
100
AcDbLine
 10
-106.100439
 20
139.936694
 30
0.0
 11
-107.545015
 21
139.936679
 31
0.0
  0
LINE
  5
F5
330
B9
100
AcDbEntity
  8
0
  6
Continuous
 62
     0
370
     0
100
AcDbLine
 10
-117.238012
 20
87.387072
 30
0.0
 11
-120.24455
 21
71.086311
 31
0.0
  0
LINE
  5
F6
330
B9
100
AcDbEntity
  8
0
  6
Continuous
 62
     0
370
    30
100
AcDbLine
 10
-79.751013
 20
143.388621
 30
0.0
 11
-79.751012
 21
121.699115
 31
0.0
  0
SPLINE
  5
F7
330
B9
100
AcDbEntity
  8
0
  6
Continuous
 62
     0
370
    30
100
AcDbSpline
210
0.0
220
0.0
230
1.0
 70
     8
 71
     3
 72
    11
 73
     7
 74
     0
 42
0.000000001
 43
0.0
 40
32.11140425613715
 40
32.11140425613715
 40
32.11140425613715
 40
32.11140425613715
 40
36.69302645961226
 40
45.86094439878418
 40
55.03829037776859
 40
64.2228085122743
 40
64.2228085122743
 40
64.2228085122743
 40
64.2228085122743
 10
-87.22380762107794
 20
165.6832237373047
 30
0.0
 10
-87.22380804181901
 20
165.6832237225776
 30
0.0
 10
-87.0493347655623
 20
165.2038638139541
 30
0.0
 10
-85.88530200677451
 20
162.0057867850607
 30
0.0
 10
-83.4360311831831
 20
155.2763118847502
 30
0.0
 10
-81.39178700333855
 20
149.660046395479
 30
0.0
 10
-80.35406402182798
 20
146.808830825723
 30
0.0
  0
LINE
  5
F8
330
B9
100
AcDbEntity
  8
0
  6
Continuous
 62
     0
370
    30
100
AcDbLine
 10
-118.282045
 20
71.817255
 30
0.0
 11
-115.457027
 21
87.128353
 31
0.0
  0
LINE
  5
F9
330
B9
100
AcDbEntity
  8
0
  6
Continuous
 62
     0
370
    30
100
AcDbLine
 10
-66.487517
 20
165.892823
 30
0.0
 11
-76.680614
 21
165.892823
 31
0.0
  0
ARC
  5
FA
330
B9
100
AcDbEntity
  8
0
  6
Continuous
 62
     0
370
    30
100
AcDbCircle
 10
-75.294363
 20
143.895898
 30
0.0
 40
20.5
100
AcDbArc
 50
257.443778
 51
266.122588
  0
ARC
  5
FB
330
B9
100
AcDbEntity
  8
0
  6
Continuous
 62
     0
370
    30
100
AcDbCircle
 10
-75.294363
 20
143.489747
 30
0.0
 40
20.5
100
AcDbArc
 50
93.877412
 51
120.169063
  0
LINE
  5
FC
330
B9
100
AcDbEntity
  8
0
  6
Continuous
 62
     0
370
    30
100
AcDbLine
 10
-111.571957
 20
106.495634
 30
0.0
 11
-111.621011
 21
106.24202
 31
0.0
  0
LINE
  5
FD
330
B9
100
AcDbEntity
  8
0
  6
Continuous
 62
     0
370
    30
100
AcDbLine
 10
-118.205405
 20
72.152961
 30
0.0
 11
-117.980846
 21
73.14876
 31
0.0
  0
LINE
  5
FE
330
B9
100
AcDbEntity
  8
0
  6
Continuous
 62
     0
370
    30
100
AcDbLine
 10
-118.205373
 20
72.1531
 30
0.0
 11
-117.980852
 21
73.148731
 31
0.0
  0
ARC
  5
FF
330
B9
100
AcDbEntity
  8
0
  6
Continuous
 62
     0
370
    30
100
AcDbCircle
 10
-119.963761
 20
72.612398
 30
0.0
 40
1.551711482719774
100
AcDbArc
 50
178.524457
 51
259.574591
  0
ARC
  5
100
330
B9
100
AcDbEntity
  8
0
  6
Continuous
 62
     0
370
    30
100
AcDbCircle
 10
-119.321533
 20
72.042457
 30
0.0
 40
1.063643125278827
100
AcDbArc
 50
325.604895
 51
347.823197
  0
SPLINE
  5
101
330
B9
100
AcDbEntity
  8
0
  6
Continuous
 62
     0
370
    30
100
AcDbSpline
210
0.0
220
0.0
230
1.0
 70
     8
 71
     3
 72
    17
 73
    13
 74
     0
 42
0.000000001
 43
0.0
 40
0.0
 40
0.0
 40
0.0
 40
0.0
 40
0.84832862075845
 40
2.133548257278922
 40
3.403969633068131
 40
5.817352911752507
 40
9.090003596849265
 40
12.53243883134021
 40
16.15299836976676
 40
17.07317138282425
 40
18.16120298582168
 40
19.21307192675049
 40
19.21307192675049
 40
19.21307192675049
 40
19.21307192675049
 10
-110.4184495186455
 20
110.4817558285632
 30
0.0
 10
-110.3207945375402
 20
110.7400052285961
 30
0.0
 10
-110.0578137125422
 20
111.4042599938665
 30
0.0
 10
-109.5978431441583
 20
112.4387082471993
 30
0.0
 10
-108.8434622773257
 20
113.9148200478177
 30
0.0
 10
-107.6096391268291
 20
115.882995423032
 30
0.0
 10
-105.5711113827872
 20
118.1670600455524
 30
0.0
 10
-102.6992643262197
 20
120.123464105068
 30
0.0
 10
-100.1704381362231
 20
121.0113886010132
 30
0.0
 10
-98.33199289820823
 20
121.3915496479074
 30
0.0
 10
-97.32190150176075
 20
121.529610844531
 30
0.0
 10
-96.61263151979557
 20
121.6240568976766
 30
0.0
 10
-96.26217115229446
 20
121.6320815937097
 30
0.0
  0
LINE
  5
102
330
B9
100
AcDbEntity
  8
0
  6
Continuous
 62
     0
370
    30
100
AcDbLine
 10
-103.082676
 20
165.68653
 30
0.0
 11
-87.225009
 21
165.68653
 31
0.0
  0
LINE
  5
103
330
B9
100
AcDbEntity
  8
0
  6
Continuous
 62
     0
370
    30
100
AcDbLine
 10
-66.487517
 20
180.692823
 30
0.0
 11
-76.587517
 21
180.692823
 31
0.0
  0
LINE
  5
104
330
B9
100
AcDbEntity
  8
0
  6
Continuous
 62
     0
370
    30
100
AcDbLine
 10
-65.987517
 20
228.692622
 30
0.0
 11
-55.987528
 21
228.692622
 31
0.0
  0
LINE
  5
105
330
B9
100
AcDbEntity
  8
0
  6
Continuous
 62
     0
370
    30
100
AcDbLine
 10
-66.487517
 20
228.192622
 30
0.0
 11
-65.987517
 21
228.692622
 31
0.0
  0
LINE
  5
106
330
B9
100
AcDbEntity
  8
0
  6
Continuous
 62
     0
370
    30
100
AcDbLine
 10
-77.587517
 20
181.692823
 30
0.0
 11
-76.587517
 21
180.692823
 31
0.0
  0
ARC
  5
107
330
B9
100
AcDbEntity
  8
0
  6
Continuous
 62
     0
370
    30
100
AcDbCircle
 10
-88.752235
 20
181.792797
 30
0.0
 40
1.000024867026759
100
AcDbArc
 50
90.001412
 51
179.498588
  0
ARC
  5
108
330
B9
100
AcDbEntity
  8
0
  6
Continuous
 62
     0
370
    30
100
AcDbCircle
 10
-88.752235
 20
201.592846
 30
0.0
 40
1.000024867309119
100
AcDbArc
 50
180.501412
 51
269.998588
  0
LINE
  5
109
330
B9
100
AcDbEntity
  8
0
  6
Continuous
 62
     0
370
    30
100
AcDbLine
 10
-88.752259
 20
200.592821
 30
0.0
 11
-77.761461
 21
200.592821
 31
0.0
  0
LINE
  5
10A
330
B9
100
AcDbEntity
  8
0
  6
Continuous
 62
     0
370
    30
100
AcDbLine
 10
-88.752259
 20
182.792821
 30
0.0
 11
-77.761461
 21
182.792821
 31
0.0
  0
LINE
  5
10B
330
B9
100
AcDbEntity
  8
0
  6
Continuous
 62
     0
370
    30
100
AcDbLine
 10
-89.758865
 20
181.04026
 30
0.0
 11
-89.752221
 21
181.801548
 31
0.0
  0
LINE
  5
10C
330
B9
100
AcDbEntity
  8
0
  6
Continuous
 62
     0
370
    30
100
AcDbLine
 10
-89.758865
 20
202.345383
 30
0.0
 11
-89.752221
 21
201.584095
 31
0.0
  0
ARC
  5
10D
330
B9
100
AcDbEntity
  8
0
  6
Continuous
 62
     0
370
    30
100
AcDbCircle
 10
-90.058869
 20
181.042836
 30
0.0
 40
0.3000150256760089
100
AcDbArc
 50
270.002842
 51
359.496761
  0
ARC
  5
10E
330
B9
100
AcDbEntity
  8
0
  6
Continuous
 62
     0
370
    30
100
AcDbCircle
 10
-90.058869
 20
202.342806
 30
0.0
 40
0.300015026548301
100
AcDbArc
 50
0.503484
 51
89.997158
  0
LINE
  5
10F
330
B9
100
AcDbEntity
  8
0
  6
Continuous
 62
     0
370
    30
100
AcDbLine
 10
-97.161461
 20
202.642821
 30
0.0
 11
-90.058854
 21
202.642821
 31
0.0
  0
LINE
  5
110
330
B9
100
AcDbEntity
  8
0
  6
Continuous
 62
     0
370
    30
100
AcDbLine
 10
-97.161461
 20
180.742821
 30
0.0
 11
-90.058854
 21
180.742821
 31
0.0
  0
ARC
  5
111
330
B9
100
AcDbEntity
  8
0
  6
Continuous
 62
     0
370
    30
100
AcDbCircle
 10
-77.761557
 20
183.093071
 30
0.0
 40
0.3002496706869116
100
AcDbArc
 50
270.018308
 51
305.433009
  0
ARC
  5
112
330
B9
100
AcDbEntity
  8
0
  6
Continuous
 62
     0
370
    30
100
AcDbCircle
 10
-77.761556
 20
200.292574
 30
0.0
 40
0.3002469219423427
100
AcDbArc
 50
54.563279
 51
89.981858
  0
ARC
  5
113
330
B9
100
AcDbEntity
  8
0
  6
Continuous
 62
     0
370
    30
100
AcDbCircle
 10
-97.161446
 20
181.042837
 30
0.0
 40
0.3000152342257928
100
AcDbArc
 50
180.007165
 51
269.997093
  0
ARC
  5
114
330
B9
100
AcDbEntity
  8
0
  6
Continuous
 62
     0
370
    30
100
AcDbCircle
 10
-97.161446
 20
202.342806
 30
0.0
 40
0.3000152347092958
100
AcDbArc
 50
90.002907
 51
179.992674
  0
ENDBLK
  5
116
330
B9
100
AcDbEntity
  8
0
100
AcDbBlockEnd
  0
BLOCK
  5
174
330
118
100
AcDbEntity
  8
0
100
AcDbBlockBegin
  2
c
 70
     0
 10
238.015884
 20
-0.000015
 30
0.0
  3
c
  1

  0
SPLINE
  5
119
330
118
100
AcDbEntity
  8
0
  6
Continuous
 62
     0
370
     0
100
AcDbSpline
210
0.0
220
0.0
230
1.0
 70
     8
 71
     3
 72
    63
 73
    59
 74
     0
 42
0.000000001
 43
0.0
 40
-16.06223401168096
 40
-16.06223401168096
 40
-16.06223401168096
 40
-16.06223401168096
 40
-15.91882120800524
 40
-15.77540840432951
 40
-15.63199560065379
 40
-15.48858279697806
 40
-15.34516999330234
 40
-15.20175718962662
 40
-15.0583443859509
 40
-14.91493158227517
 40
-14.77151877859945
 40
-14.62810597492373
 40
-14.484693171248
 40
-14.34128036757228
 40
-14.19786756389656
 40
-14.05445476022084
 40
-13.91104195654511
 40
-13.76762915286939
 40
-13.62421634919367
 40
-13.48080354551795
 40
-13.33739074184222
 40
-13.1939779381665
 40
-13.05056513449078
 40
-12.90715233081506
 40
-12.76373952713933
 40
-12.62032672346361
 40
-12.47691391978789
 40
-12.33350111611216
 40
-12.19008831243644
 40
-12.04667550876072
 40
-11.903262705085
 40
-11.75984990140927
 40
-11.61643709773355
 40
-11.47302429405783
 40
-11.3296114903821
 40
-11.18619868670638
 40
-11.04278588303066
 40
-10.89937307935493
 40
-10.75596027567921
 40
-10.61254747200349
 40
-10.46913466832777
 40
-10.32572186465204
 40
-10.18230906097632
 40
-10.0388962573006
 40
-9.895483453624877
 40
-9.752070649949154
 40
-9.608657846273431
 40
-9.465245042597708
 40
-9.321832238921985
 40
-9.178419435246262
 40
-9.035006631570539
 40
-8.891593827894816
 40
-8.748181024219093
 40
-8.60476822054337
 40
-8.461355416867647
 40
-8.317942613191924
 40
-8.174529809516201
 40
-8.031117005840478
 40
-8.031117005840478
 40
-8.031117005840478
 40
-8.031117005840478
 10
365.9853697580838
 20
121.7175716607886
 30
0.0
 10
365.9853697601682
 20
121.7175716602383
 30
0.0
 10
365.9826817175122
 20
121.7176717554732
 30
0.0
 10
365.9705981994198
 20
121.7181217149276
 30
0.0
 10
365.9505012464367
 20
121.7188700752451
 30
0.0
 10
365.9224540910129
 20
121.7199144818072
 30
0.0
 10
365.8865449798752
 20
121.7212516485245
 30
0.0
 10
365.8428868963726
 20
121.7228773681758
 30
0.0
 10
365.7916172049877
 20
121.7247865256456
 30
0.0
 10
365.7328972191376
 20
121.7269731140183
 30
0.0
 10
365.6669116936218
 20
121.7294302534777
 30
0.0
 10
365.5938682433161
 20
121.7321502129542
 30
0.0
 10
365.5139966899385
 20
121.7351244344489
 30
0.0
 10
365.4275483389458
 20
121.7383435599606
 30
0.0
 10
365.3347951888329
 20
121.7417974609296
 30
0.0
 10
365.2360290753254
 20
121.7454752701055
 30
0.0
 10
365.1315607531565
 20
121.74936541574
 30
0.0
 10
365.021718918317
 20
121.7534556579958
 30
0.0
 10
364.9068491738569
 20
121.7577331274575
 30
0.0
 10
364.7873129424904
 20
121.7621843656236
 30
0.0
 10
364.663486329425
 20
121.7667953672521
 30
0.0
 10
364.5357589389971
 20
121.7715516244258
 30
0.0
 10
364.4045326488315
 20
121.7764381722002
 30
0.0
 10
364.2702203453864
 20
121.7814396356881
 30
0.0
 10
364.1332446248589
 20
121.786540278435
 30
0.0
 10
363.9940364635418
 20
121.7917240519317
 30
0.0
 10
363.8530338618127
 20
121.796974646109
 30
0.0
 10
363.7106804660229
 20
121.802275540655
 30
0.0
 10
363.567424172621
 20
121.8076100569945
 30
0.0
 10
363.4237157189059
 20
121.8129614107654
 30
0.0
 10
363.2800072648397
 20
121.818312764629
 30
0.0
 10
363.1367509703864
 20
121.8236472812461
 30
0.0
 10
362.9943975728477
 20
121.828948176254
 30
0.0
 10
362.853394968678
 20
121.8341987710757
 30
0.0
 10
362.7141868042359
 20
121.8393825453975
 30
0.0
 10
362.5772110799089
 20
121.8444831891475
 30
0.0
 10
362.4428987720019
 20
121.8494846538134
 30
0.0
 10
362.3116724767262
 20
121.8543712029371
 30
0.0
 10
362.1839450805558
 20
121.8591274616271
 30
0.0
 10
362.0601184611339
 20
121.8637384649339
 30
0.0
 10
361.9405822228166
 20
121.8681897049352
 30
0.0
 10
361.8257124708334
 20
121.8724671763833
 30
0.0
 10
361.715870627922
 20
121.8765574207703
 30
0.0
 10
361.6114022971578
 20
121.8804475686743
 30
0.0
 10
361.512636174559
 20
121.8841253802506
 30
0.0
 10
361.4198830148873
 20
121.8875792837435
 30
0.0
 10
361.3334346538979
 20
121.8907984118946
 30
0.0
 10
361.253563090118
 20
121.893772636136
 30
0.0
 10
361.1805196290361
 20
121.8964925984577
 30
0.0
 10
361.1145340924049
 20
121.898949740852
 30
0.0
 10
361.0558140951348
 20
121.9011363322399
 30
0.0
 10
361.0045443920612
 20
121.9030454927958
 30
0.0
 10
360.9608862966381
 20
121.9046712155945
 30
0.0
 10
360.924977173386
 20
121.9060083855105
 30
0.0
 10
360.8969300056913
 20
121.9070527953125
 30
0.0
 10
360.87683304032
 20
121.9078011589009
 30
0.0
 10
360.8647495097607
 20
121.908251121647
 30
0.0
 10
360.8620614587674
 20
121.9083512190833
 30
0.0
 10
360.862061456683
 20
121.9083512196336
 30
0.0
  0
SPLINE
  5
11A
330
118
100
AcDbEntity
  8
0
  6
Continuous
 62
     0
370
    30
100
AcDbSpline
210
0.0
220
0.0
230
1.0
 70
     8
 71
     3
 72
    63
 73
    59
 74
     0
 42
0.000000001
 43
0.0
 40
-14.49621089134451
 40
-14.49621089134451
 40
-14.49621089134451
 40
-14.49621089134451
 40
-14.3667804369575
 40
-14.2373499825705
 40
-14.10791952818349
 40
-13.97848907379649
 40
-13.84905861940948
 40
-13.71962816502248
 40
-13.59019771063547
 40
-13.46076725624847
 40
-13.33133680186147
 40
-13.20190634747446
 40
-13.07247589308746
 40
-12.94304543870045
 40
-12.81361498431345
 40
-12.68418452992644
 40
-12.55475407553944
 40
-12.42532362115243
 40
-12.29589316676543
 40
-12.16646271237842
 40
-12.03703225799142
 40
-11.90760180360441
 40
-11.77817134921741
 40
-11.64874089483041
 40
-11.5193104404434
 40
-11.3898799860564
 40
-11.26044953166939
 40
-11.13101907728239
 40
-11.00158862289538
 40
-10.87215816850838
 40
-10.74272771412138
 40
-10.61329725973437
 40
-10.48386680534736
 40
-10.35443635096036
 40
-10.22500589657336
 40
-10.09557544218635
 40
-9.966144987799346
 40
-9.836714533412344
 40
-9.707284079025339
 40
-9.577853624638333
 40
-9.448423170251328
 40
-9.318992715864326
 40
-9.18956226147732
 40
-9.060131807090317
 40
-8.930701352703313
 40
-8.801270898316307
 40
-8.671840443929302
 40
-8.542409989542298
 40
-8.412979535155294
 40
-8.283549080768289
 40
-8.154118626381283
 40
-8.024688171994281
 40
-7.895257717607276
 40
-7.765827263220271
 40
-7.636396808833267
 40
-7.506966354446262
 40
-7.377535900059257
 40
-7.248105445672253
 40
-7.248105445672253
 40
-7.248105445672253
 40
-7.248105445672253
 10
365.7312585038214
 20
121.5024506047847
 30
0.0
 10
365.7312585057014
 20
121.5024506042884
 30
0.0
 10
365.7288302446743
 20
121.5025141896468
 30
0.0
 10
365.7179145190833
 20
121.5028000266438
 30
0.0
 10
365.6997598043536
 20
121.503275423251
 30
0.0
 10
365.6744232219337
 20
121.5039388836948
 30
0.0
 10
365.6419844900859
 20
121.5047883204833
 30
0.0
 10
365.602545673062
 20
121.5058210609741
 30
0.0
 10
365.5562308599706
 20
121.5070338557834
 30
0.0
 10
365.503185774349
 20
121.5084228890102
 30
0.0
 10
365.4435773156615
 20
121.5099837902419
 30
0.0
 10
365.3775930341717
 20
121.5117116483059
 30
0.0
 10
365.3054405408411
 20
121.5136010267215
 30
0.0
 10
365.227346854108
 20
121.515645980805
 30
0.0
 10
365.1435576856022
 20
121.5178400763745
 30
0.0
 10
365.0543366670472
 20
121.5201764099936
 30
0.0
 10
364.9599645207759
 20
121.5226476306922
 30
0.0
 10
364.8607381764746
 20
121.5252459630958
 30
0.0
 10
364.756969836933
 20
121.5279632318895
 30
0.0
 10
364.6489859957373
 20
121.5307908875402
 30
0.0
 10
364.5371264100029
 20
121.5337200331971
 30
0.0
 10
364.4217430313699
 20
121.5367414526845
 30
0.0
 10
364.3031988986356
 20
121.5398456394986
 30
0.0
 10
364.1818669954985
 20
121.5430228267194
 30
0.0
 10
364.0581290770147
 20
121.5462630177404
 30
0.0
 10
363.9323744684536
 20
121.5495560177219
 30
0.0
 10
363.8049988403391
 20
121.5528914656678
 30
0.0
 10
363.6764029635217
 20
121.5562588670246
 30
0.0
 10
363.5469914482055
 20
121.5596476267021
 30
0.0
 10
363.4171714708955
 20
121.5630470824084
 30
0.0
 10
363.2873514932689
 20
121.5664465381982
 30
0.0
 10
363.1579399770042
 20
121.5698352981261
 30
0.0
 10
363.029344098609
 20
121.5732026998995
 30
0.0
 10
362.9019684682933
 20
121.5765381484266
 30
0.0
 10
362.7762138569137
 20
121.5798311491523
 30
0.0
 10
362.6524759350027
 20
121.5830713410781
 30
0.0
 10
362.5311440278413
 20
121.5862485293615
 30
0.0
 10
362.4125998904979
 20
121.5893527173926
 30
0.0
 10
362.2972165066856
 20
121.5923741382475
 30
0.0
 10
362.1853569152177
 20
121.5953032854182
 30
0.0
 10
362.0773730677529
 20
121.5981309427243
 30
0.0
 10
361.9736047214253
 20
121.6008482133095
 30
0.0
 10
361.8743783698437
 20
121.6034465476355
 30
0.0
 10
361.7800062158199
 20
121.605917770381
 30
0.0
 10
361.6907851890646
 20
121.6082541061651
 30
0.0
 10
361.6069960119371
 20
121.6104482040111
 30
0.0
 10
361.5289023161874
 20
121.6124931604753
 30
0.0
 10
361.4567498134743
 20
121.6143825413682
 30
0.0
 10
361.3907655222652
 20
121.6161104019985
 30
0.0
 10
361.3311570535518
 20
121.6176713058774
 30
0.0
 10
361.2781119576298
 20
121.6190603418238
 30
0.0
 10
361.231797133996
 20
121.6202731394167
 30
0.0
 10
361.1923583062201
 20
121.6213058827463
 30
0.0
 10
361.1599195634453
 20
121.6221553224198
 30
0.0
 10
361.134582969958
 20
121.6228187857859
 30
0.0
 10
361.1164282440541
 20
121.6232941853434
 30
0.0
 10
361.1055125072187
 20
121.6235800253093
 30
0.0
 10
361.1030842386715
 20
121.6236436126533
 30
0.0
 10
361.1030842367916
 20
121.6236436131497
 30
0.0
  0
ARC
  5
11B
330
118
100
AcDbEntity
  8
0
  6
Continuous
 62
     0
370
    30
100
AcDbCircle
 10
361.109628
 20
121.873558
 30
0.0
 40
0.25
100
AcDbArc
 50
222.705484
 51
268.5
  0
ARC
  5
11C
330
118
100
AcDbEntity
  8
0
  6
Continuous
 62
     0
370
    30
100
AcDbCircle
 10
365.737803
 20
121.752365
 30
0.0
 40
0.25
100
AcDbArc
 50
268.5
 51
331.24055
  0
LINE
  5
11D
330
118
100
AcDbEntity
  8
0
  6
Continuous
 62
     0
370
    30
100
AcDbLine
 10
367.156255
 20
187.626126
 30
0.0
 11
367.156254
 21
202.342821
 31
0.0
  0
LINE
  5
11E
330
118
100
AcDbEntity
  8
0
  6
Continuous
 62
     0
370
    30
100
AcDbLine
 10
367.156254
 20
181.042821
 30
0.0
 11
367.156255
 21
187.626126
 31
0.0
  0
LINE
  5
11F
330
118
100
AcDbEntity
  8
0
  6
Continuous
 62
     0
370
     0
100
AcDbLine
 10
366.856255
 20
187.511571
 30
0.0
 11
366.856254
 21
202.642817
 31
0.0
  0
LINE
  5
120
330
118
100
AcDbEntity
  8
0
  6
Continuous
 62
     0
370
     0
100
AcDbLine
 10
366.856254
 20
180.742826
 30
0.0
 11
366.856255
 21
187.511571
 31
0.0
  0
LINE
  5
121
330
118
100
AcDbEntity
  8
0
  6
Continuous
 62
     0
370
     0
100
AcDbLine
 10
347.456255
 20
188.294363
 30
0.0
 11
347.456254
 21
182.792825
 31
0.0
  0
SPLINE
  5
122
330
118
100
AcDbEntity
  8
0
  6
Continuous
 62
     0
370
     0
100
AcDbSpline
210
0.0
220
0.0
230
1.0
 70
     8
 71
     3
 72
    17
 73
    13
 74
     0
 42
0.000000001
 43
0.0
 40
37.86951889070549
 40
37.86951889070549
 40
37.86951889070549
 40
37.86951889070549
 40
39.59086065454431
 40
41.3122024221332
 40
43.03354418972209
 40
44.75488595731098
 40
46.47622772489986
 40
48.19756949248874
 40
49.91891126007762
 40
51.6402530276665
 40
53.36159479525539
 40
55.08293657284428
 40
55.08293657284428
 40
55.08293657284428
 40
55.08293657284428
 10
347.4562542325598
 20
200.5928177752043
 30
0.0
 10
347.4562542580215
 20
200.5933435853768
 30
0.0
 10
347.4562543089496
 20
200.4796530088747
 30
0.0
 10
347.45625438242
 20
199.9714440704664
 30
0.0
 10
347.4562544501443
 20
199.1450925411561
 30
0.0
 10
347.4562545095209
 20
198.0323535306681
 30
0.0
 10
347.4562545582673
 20
196.6759931419537
 30
0.0
 10
347.4562545945105
 20
195.1281199933501
 30
0.0
 10
347.4562546168581
 20
193.4482760180733
 30
0.0
 10
347.4562546244481
 20
191.7008000840817
 30
0.0
 10
347.4562546170027
 20
189.9536550477434
 30
0.0
 10
347.4562546021702
 20
188.8318623162205
 30
0.0
 10
347.4562545924632
 20
188.2943625253118
 30
0.0
  0
LINE
  5
123
330
118
100
AcDbEntity
  8
0
  6
Continuous
 62
     0
370
     0
100
AcDbLine
 10
359.753648
 20
187.511571
 30
0.0
 11
359.753648
 21
180.742821
 31
0.0
  0
LINE
  5
124
330
118
100
AcDbEntity
  8
0
  6
Continuous
 62
     0
370
     0
100
AcDbLine
 10
359.753648
 20
202.642821
 30
0.0
 11
359.753648
 21
187.511571
 31
0.0
  0
LINE
  5
125
330
118
100
AcDbEntity
  8
0
  6
Continuous
 62
     0
370
     0
100
AcDbLine
 10
359.453659
 20
187.625127
 30
0.0
 11
359.453659
 21
181.040267
 31
0.0
  0
SPLINE
  5
126
330
118
100
AcDbEntity
  8
0
  6
Continuous
 62
     0
370
     0
100
AcDbSpline
210
0.0
220
0.0
230
1.0
 70
     8
 71
     3
 72
    16
 73
    12
 74
     0
 42
0.000000001
 43
0.0
 40
12.52349881368185
 40
12.52349881368185
 40
12.52349881368185
 40
12.52349881368185
 40
14.31257385620632
 40
16.69800110019475
 40
19.08342838752071
 40
21.46885384326958
 40
23.85428010447855
 40
26.23969457895968
 40
28.62516467701306
 40
31.01046892436202
 40
33.39599683648494
 40
33.39599683648494
 40
33.39599683648494
 40
33.39599683648494
 10
359.4536590325615
 20
202.3453767536558
 30
0.0
 10
359.4536590388132
 20
202.3458658923658
 30
0.0
 10
359.4536590640685
 20
202.2297267854055
 30
0.0
 10
359.4536592792438
 20
201.6212235275895
 30
0.0
 10
359.4536592469185
 20
200.4594968200726
 30
0.0
 10
359.4536593852908
 20
198.8581985419469
 30
0.0
 10
359.4536595195793
 20
196.8975764889412
 30
0.0
 10
359.4536593435978
 20
194.6760460738815
 30
0.0
 10
359.4536599179394
 20
192.3046639841857
 30
0.0
 10
359.4536598662796
 20
189.9036802304332
 30
0.0
 10
359.4536594407753
 20
188.3600477690042
 30
0.0
 10
359.4536594275028
 20
187.6251265787464
 30
0.0
  0
LINE
  5
127
330
118
100
AcDbEntity
  8
0
  6
Continuous
 62
     0
370
     0
100
AcDbLine
 10
359.447015
 20
187.915845
 30
0.0
 11
359.447015
 21
201.584095
 31
0.0
  0
LINE
  5
128
330
118
100
AcDbEntity
  8
0
  6
Continuous
 62
     0
370
     0
100
AcDbLine
 10
359.447015
 20
181.801548
 30
0.0
 11
359.447015
 21
187.915845
 31
0.0
  0
LINE
  5
129
330
118
100
AcDbEntity
  8
0
  6
Continuous
 62
     0
370
     0
100
AcDbLine
 10
358.447053
 20
188.294363
 30
0.0
 11
358.447053
 21
200.592821
 31
0.0
  0
LINE
  5
12A
330
118
100
AcDbEntity
  8
0
  6
Continuous
 62
     0
370
     0
100
AcDbLine
 10
358.447053
 20
182.792821
 30
0.0
 11
358.447053
 21
188.294363
 31
0.0
  0
LINE
  5
12B
330
118
100
AcDbEntity
  8
0
  6
Continuous
 62
     0
370
    30
100
AcDbLine
 10
347.28231
 20
201.692823
 30
0.0
 11
347.28231
 21
181.692823
 31
0.0
  0
LINE
  5
12C
330
118
100
AcDbEntity
  8
0
  6
Continuous
 62
     0
370
    30
100
AcDbLine
 10
347.28231
 20
201.692823
 30
0.0
 11
346.28231
 21
202.692823
 31
0.0
  0
LINE
  5
12D
330
118
100
AcDbEntity
  8
0
  6
Continuous
 62
     0
370
    30
100
AcDbLine
 10
346.28231
 20
202.692823
 30
0.0
 11
346.28231
 21
180.692823
 31
0.0
  0
LINE
  5
12E
330
118
100
AcDbEntity
  8
0
  6
Continuous
 62
     0
370
    30
100
AcDbLine
 10
336.18231
 20
228.192622
 30
0.0
 11
336.18231
 21
89.192823
 31
0.0
  0
LINE
  5
12F
330
118
100
AcDbEntity
  8
0
  6
Continuous
 62
     0
370
    30
100
AcDbLine
 10
336.18231
 20
89.192823
 30
0.0
 11
335.68231
 21
88.692823
 31
0.0
  0
LINE
  5
130
330
118
100
AcDbEntity
  8
0
  6
Continuous
 62
     0
370
    30
100
AcDbLine
 10
335.68231
 20
228.692622
 30
0.0
 11
335.68231
 21
88.692823
 31
0.0
  0
LINE
  5
131
330
118
100
AcDbEntity
  8
0
  6
Continuous
 62
     0
370
    30
100
AcDbLine
 10
335.68231
 20
88.692823
 30
0.0
 11
325.682321
 21
88.692823
 31
0.0
  0
LINE
  5
132
330
118
100
AcDbEntity
  8
0
  6
Continuous
 62
     0
370
    30
100
AcDbLine
 10
325.682321
 20
228.692622
 30
0.0
 11
325.682321
 21
88.692823
 31
0.0
  0
LINE
  5
133
330
118
100
AcDbEntity
  8
0
  6
Continuous
 62
     0
370
    30
100
AcDbLine
 10
336.18231
 20
202.692823
 30
0.0
 11
346.28231
 21
202.692823
 31
0.0
  0
LINE
  5
134
330
118
100
AcDbEntity
  8
0
  6
Continuous
 62
     0
370
    30
100
AcDbLine
 10
346.375407
 20
121.492823
 30
0.0
 11
336.18231
 21
121.492823
 31
0.0
  0
LINE
  5
135
330
118
100
AcDbEntity
  8
0
  6
Continuous
 62
     0
370
    30
100
AcDbLine
 10
346.375407
 20
121.492823
 30
0.0
 11
346.375407
 21
165.892823
 31
0.0
  0
LINE
  5
136
330
118
100
AcDbEntity
  8
0
  6
Continuous
 62
     0
370
    30
100
AcDbLine
 10
349.445805
 20
121.699115
 30
0.0
 11
360.883147
 21
121.699115
 31
0.0
  0
LINE
  5
137
330
118
100
AcDbEntity
  8
0
  6
Continuous
 62
     0
370
     0
100
AcDbLine
 10
372.77747
 20
165.68653
 30
0.0
 11
376.57722
 21
143.528834
 31
0.0
  0
ARC
  5
138
330
118
100
AcDbEntity
  8
0
  6
Continuous
 62
     0
370
    30
100
AcDbCircle
 10
359.546197
 20
143.370974
 30
0.0
 40
10.10040632587225
100
AcDbArc
 50
160.100705
 51
179.899894
  0
SPLINE
  5
139
330
118
100
AcDbEntity
  8
0
  6
Continuous
 62
     0
370
    30
100
AcDbSpline
210
0.0
220
0.0
230
1.0
 70
     8
 71
     3
 72
    14
 73
    10
 74
     0
 42
0.000000001
 43
0.0
 40
0.0
 40
0.0
 40
0.0
 40
0.0
 40
3.341454141587589
 40
6.683510156799484
 40
10.02349257324497
 40
13.36048803168821
 40
16.69668072166059
 40
20.03403197351032
 40
23.34059401502745
 40
23.34059401502745
 40
23.34059401502745
 40
23.34059401502745
 10
381.26900754349
 20
106.4827206281978
 30
0.0
 10
381.0553430819589
 20
107.575852889243
 30
0.0
 10
380.4552036905038
 20
109.729718369093
 30
0.0
 10
379.1806070597122
 20
112.8263404113101
 30
0.0
 10
377.4702403115739
 20
115.7135992729761
 30
0.0
 10
375.2145041945205
 20
118.212375822063
 30
0.0
 10
372.4155748316527
 20
120.0939595759428
 30
0.0
 10
369.2601600326516
 20
121.2353693378391
 30
0.0
 10
367.0554952646266
 20
121.5519457138134
 30
0.0
 10
365.9560344759034
 20
121.6304021964866
 30
0.0
  0
LINE
  5
13A
330
118
100
AcDbEntity
  8
0
  6
Continuous
 62
     0
370
     0
100
AcDbLine
 10
374.125672
 20
139.936657
 30
0.0
 11
375.795229
 21
139.936722
 31
0.0
  0
SPLINE
  5
13B
330
118
100
AcDbEntity
  8
0
  6
Continuous
 62
     0
370
     0
100
AcDbSpline
210
0.0
220
0.0
230
1.0
 70
     8
 71
     3
 72
    18
 73
    14
 74
     0
 42
0.000000001
 43
0.0
 40
0.0
 40
0.0
 40
0.0
 40
0.0
 40
1.612020921592824
 40
3.224116834552439
 40
6.44818337938824
 40
9.672482443629374
 40
12.89652384406624
 40
16.12063455891717
 40
17.73307287272356
 40
19.34484000979757
 40
20.95705083966382
 40
21.76300101780322
 40
22.56861979264836
 40
22.56861979264836
 40
22.56861979264836
 40
22.56861979264836
 10
375.7952286667655
 20
139.9367224323296
 30
0.0
 10
375.8852822607819
 20
139.4106098518864
 30
0.0
 10
376.0765954934843
 20
138.3691172021532
 30
0.0
 10
376.4344462537676
 20
136.275363749934
 30
0.0
 10
376.890957138103
 20
133.6661242365835
 30
0.0
 10
377.4379499766176
 20
130.5350250607373
 30
0.0
 10
377.983016409527
 20
127.4026189510309
 30
0.0
 10
378.4430255024461
 20
124.7904515625081
 30
0.0
 10
378.8099998267364
 20
122.6963868036071
 30
0.0
 10
379.089215805086
 20
121.1244559082278
 30
0.0
 10
379.3212533828148
 20
119.8118062625948
 30
0.0
 10
379.5077245423383
 20
118.7644871849204
 30
0.0
 10
379.6040690692441
 20
118.2341509103963
 30
0.0
 10
379.6491657669098
 20
117.9747531336282
 30
0.0
  0
SPLINE
  5
13C
330
118
100
AcDbEntity
  8
0
  6
Continuous
 62
     0
370
     0
100
AcDbSpline
210
0.0
220
0.0
230
1.0
 70
     8
 71
     3
 72
    17
 73
    13
 74
     0
 42
0.000000001
 43
0.0
 40
0.0
 40
0.0
 40
0.0
 40
0.0
 40
0.7968760256570359
 40
1.594375716149764
 40
3.189591663228653
 40
4.784596642401474
 40
6.379767638693505
 40
9.56858504749953
 40
12.75731078586576
 40
15.94516772308055
 40
19.13264561178923
 40
22.31836371266836
 40
22.31836371266836
 40
22.31836371266836
 40
22.31836371266836
 10
379.6491657338779
 20
117.974753247067
 30
0.0
 10
379.6878618313426
 20
117.7384691137773
 30
0.0
 10
379.7524575621051
 20
117.3195131509359
 30
0.0
 10
379.8910573628762
 20
116.4422254396541
 30
0.0
 10
380.0470208212391
 20
115.4076275947849
 30
0.0
 10
380.224504289002
 20
114.2111650187382
 30
0.0
 10
380.4404922873509
 20
112.7051265779968
 30
0.0
 10
380.6789623281422
 20
110.9815203713769
 30
0.0
 10
380.9141543215355
 20
109.210139039773
 30
0.0
 10
381.0969177569366
 20
107.7909472714735
 30
0.0
 10
381.2195938795796
 20
106.8145691706711
 30
0.0
 10
381.26245586971
 20
106.5166228887351
 30
0.0
 10
381.2690075750625
 20
106.4827204662774
 30
0.0
  0
SPLINE
  5
13D
330
118
100
AcDbEntity
  8
0
  6
Continuous
 62
     0
370
    30
100
AcDbSpline
210
0.0
220
0.0
230
1.0
 70
     8
 71
     3
 72
     8
 73
     4
 74
     0
 42
0.000000001
 43
0.0
 40
0.0
 40
0.0
 40
0.0
 40
0.0
 40
1.0
 40
1.0
 40
1.0
 40
1.0
 10
389.9393436596483
 20
71.08631087351935
 30
0.0
 10
388.7899497508083
 20
70.87431477577886
 30
0.0
 10
388.1381448671386
 20
71.11274586178865
 30
0.0
 10
387.9768384835043
 20
71.81725479330353
 30
0.0
  0
SPLINE
  5
13E
330
118
100
AcDbEntity
  8
0
  6
Continuous
 62
     0
370
    30
100
AcDbSpline
210
0.0
220
0.0
230
1.0
 70
     8
 71
     3
 72
    44
 73
    40
 74
     0
 42
0.000000001
 43
0.0
 40
0.0000895826433184
 40
0.0000895826433184
 40
0.0000895826433184
 40
0.0000895826433184
 40
1.455705552506579
 40
2.911589491455752
 40
5.824081540223627
 40
8.738562618644004
 40
11.65580985319745
 40
14.57578990662235
 40
16.03659608486232
 40
17.49778930288207
 40
20.42097080381651
 40
23.34485787363343
 40
29.19406413399674
 40
35.04490031177655
 40
40.89750583144499
 40
46.75217532138652
 40
52.60924050521431
 40
58.46889873474117
 40
61.39961580462718
 40
64.3307164339991
 40
67.26188709626257
 40
67.99463745970205
 40
68.72736871185101
 40
69.46006464945697
 40
70.192677557325
 40
70.92522637029062
 40
71.65766554636134
 40
72.38986921751011
 40
73.12154096573981
 40
73.85284092927583
 40
74.58380294677747
 40
76.04479523316759
 40
78.96357029080804
 40
81.87875183536413
 40
84.79115651375291
 40
87.70151606648814
 40
90.61036732559818
 40
92.064314958274
 40
93.51784755774796
 40
93.51784755774796
 40
93.51784755774796
 40
93.51784755774796
 10
391.2097503931698
 20
72.65234706561914
 30
0.0
 10
391.1967549947585
 20
73.13733447478602
 30
0.0
 10
391.1707613730619
 20
74.10739856865257
 30
0.0
 10
391.090645070077
 20
76.04737755006741
 30
0.0
 10
390.9272489091857
 20
78.4707479097993
 30
0.0
 10
390.6200938714876
 20
81.37236103708145
 30
0.0
 10
390.2225025802695
 20
84.26749347393428
 30
0.0
 10
389.8399024439163
 20
86.67556255545337
 30
0.0
 10
389.5165774018437
 20
88.6007762281779
 30
0.0
 10
389.1909338275391
 20
90.52705687082491
 30
0.0
 10
388.7935185027259
 20
92.93798568591943
 30
0.0
 10
388.158927424827
 20
96.7969697649979
 30
0.0
 10
387.3794923049375
 20
101.6235650084264
 30
0.0
 10
386.444839470784
 20
107.4148128238977
 30
0.0
 10
385.500971847933
 20
113.2050460588179
 30
0.0
 10
384.5345445405424
 20
118.9929762116536
 30
0.0
 10
383.5323191283701
 20
124.7771963688389
 30
0.0
 10
382.6572112446215
 20
129.5922813598765
 30
0.0
 10
381.9262715488862
 20
133.4396592249312
 30
0.0
 10
381.3614540283825
 20
136.3222442991745
 30
0.0
 10
380.9242711809895
 20
138.4808605734042
 30
0.0
 10
380.6265783590479
 20
139.9181468295516
 30
0.0
 10
380.4765237517938
 20
140.6363584291576
 30
0.0
 10
380.3252289010932
 20
141.3541180691368
 30
0.0
 10
380.172644485152
 20
142.0714666377341
 30
0.0
 10
380.0187662462083
 20
142.7882837484689
 30
0.0
 10
379.8635890026519
 20
143.5045718684454
 30
0.0
 10
379.7071273119893
 20
144.2201892449749
 30
0.0
 10
379.5492670753849
 20
144.935544720768
 30
0.0
 10
379.390083458492
 20
145.6502017076255
 30
0.0
 10
379.1760180087463
 20
146.6020687921687
 30
0.0
 10
378.7967801042787
 20
148.2651581965261
 30
0.0
 10
378.2378550872431
 20
150.6346335621016
 30
0.0
 10
377.5504422774275
 20
153.4702553590481
 30
0.0
 10
376.811029846473
 20
156.2883788583354
 30
0.0
 10
376.0133147599474
 20
159.0867640218821
 30
0.0
 10
375.3003013930493
 20
161.4021488638485
 30
0.0
 10
374.7062541994021
 20
163.2456480119785
 30
0.0
 10
374.402440155734
 20
164.1647332522329
 30
0.0
 10
374.2505547126086
 20
164.6242102365317
 30
0.0
  0
ARC
  5
13F
330
118
100
AcDbEntity
  8
0
  6
Continuous
 62
     0
370
    30
100
AcDbCircle
 10
372.77747
 20
164.13403
 30
0.0
 40
1.552499994733952
100
AcDbArc
 50
18.405254
 51
90.0
  0
SPLINE
  5
140
330
118
100
AcDbEntity
  8
0
  6
Continuous
 62
     0
370
     0
100
AcDbSpline
210
0.0
220
0.0
230
1.0
 70
     8
 71
     3
 72
    21
 73
    17
 74
     0
 42
0.000000001
 43
0.0
 40
0.0
 40
0.0
 40
0.0
 40
0.0
 40
0.7625472699044984
 40
1.527870988522846
 40
3.068173238571163
 40
6.184644795374176
 40
7.762267914638144
 40
9.344689078241554
 40
10.92485328317408
 40
12.49648425405301
 40
15.59751546688465
 40
18.64952673578841
 40
21.66346482859164
 40
23.1602384496008
 40
23.90640253390963
 40
24.65139873213821
 40
24.65139873213821
 40
24.65139873213821
 40
24.65139873213821
 10
389.9393436596472
 20
71.08631087351964
 30
0.0
 10
389.9393856766781
 20
71.08608315400005
 30
0.0
 10
389.9376220979054
 20
71.09564504760795
 30
0.0
 10
389.9268273219568
 20
71.15417219436321
 30
0.0
 10
389.8866569577872
 20
71.37196730046934
 30
0.0
 10
389.7834036672527
 20
71.93178362216125
 30
0.0
 10
389.611710527671
 20
72.86266499855064
 30
0.0
 10
389.4478775429534
 20
73.75093019905233
 30
0.0
 10
389.2529043948639
 20
74.80803011848212
 30
0.0
 10
388.9607567865721
 20
76.3919875994432
 30
0.0
 10
388.5492691222828
 20
78.62297926917378
 30
0.0
 10
388.020701338708
 20
81.48875218619776
 30
0.0
 10
387.5683974609792
 20
83.9410396115631
 30
0.0
 10
387.2503710571125
 20
85.6653054602688
 30
0.0
 10
387.0689363829845
 20
86.6490024274544
 30
0.0
 10
386.9781589307372
 20
87.14117683751688
 30
0.0
 10
386.9328057533487
 20
87.3870713055066
 30
0.0
  0
LINE
  5
141
330
118
100
AcDbEntity
  8
0
  6
Continuous
 62
     0
370
     0
100
AcDbLine
 10
378.086448
 20
143.804117
 30
0.0
 11
378.744764
 21
140.233442
 31
0.0
  0
LINE
  5
142
330
118
100
AcDbEntity
  8
0
  6
Continuous
 62
     0
370
     0
100
AcDbLine
 10
378.744764
 20
140.233442
 30
0.0
 11
388.413831
 21
87.81099
 31
0.0
  0
LINE
  5
143
330
118
100
AcDbEntity
  8
0
  6
Continuous
 62
     0
370
     0
100
AcDbLine
 10
374.250555
 20
164.62421
 30
0.0
 11
378.086448
 21
143.804117
 31
0.0
  0
LINE
  5
144
330
118
100
AcDbEntity
  8
0
  6
Continuous
 62
     0
370
     0
100
AcDbLine
 10
385.15182
 20
87.128353
 30
0.0
 11
379.648983
 21
117.97472
 31
0.0
  0
LINE
  5
145
330
118
100
AcDbEntity
  8
0
  6
Continuous
 62
     0
370
     0
100
AcDbLine
 10
375.795235
 20
139.936678
 30
0.0
 11
377.239809
 21
139.936678
 31
0.0
  0
LINE
  5
146
330
118
100
AcDbEntity
  8
0
  6
Continuous
 62
     0
370
     0
100
AcDbLine
 10
377.239809
 20
139.936679
 30
0.0
 11
376.57722
 21
143.528834
 31
0.0
  0
LINE
  5
147
330
118
100
AcDbEntity
  8
0
  6
Continuous
 62
     0
370
     0
100
AcDbLine
 10
378.086394
 20
143.804107
 30
0.0
 11
376.57722
 21
143.528834
 31
0.0
  0
SPLINE
  5
148
330
118
100
AcDbEntity
  8
0
  6
Continuous
 62
     0
370
    30
100
AcDbSpline
210
0.0
220
0.0
230
1.0
 70
     8
 71
     3
 72
     8
 73
     4
 74
     0
 42
0.000000001
 43
0.0
 40
0.245208375679059
 40
0.245208375679059
 40
0.245208375679059
 40
0.245208375679059
 40
34.96414840809204
 40
34.96414840809204
 40
34.96414840809204
 40
34.96414840809204
 10
381.3162715327765
 20
106.2421092835254
 30
0.0
 10
383.5217301778191
 20
94.88113384566525
 30
0.0
 10
385.3385651755696
 20
83.43862305213888
 30
0.0
 10
387.9002647814926
 20
72.15297638907549
 30
0.0
  0
LINE
  5
149
330
118
100
AcDbEntity
  8
0
  6
Continuous
 62
     0
370
     0
100
AcDbLine
 10
386.932817
 20
87.387073
 30
0.0
 11
381.256339
 21
118.161487
 31
0.0
  0
LINE
  5
14A
330
118
100
AcDbEntity
  8
0
  6
Continuous
 62
     0
370
     0
100
AcDbLine
 10
374.125801
 20
139.936642
 30
0.0
 11
374.115649
 21
139.902468
 31
0.0
  0
SPLINE
  5
14B
330
118
100
AcDbEntity
  8
0
  6
Continuous
 62
     0
370
     0
100
AcDbSpline
210
0.0
220
0.0
230
1.0
 70
     8
 71
     3
 72
    14
 73
    10
 74
     0
 42
0.000000001
 43
0.0
 40
0.0
 40
0.0
 40
0.0
 40
0.0
 40
4.305752570864025
 40
8.613374848912244
 40
12.92162771954973
 40
17.22963819116729
 40
21.53665408154192
 40
25.84189784197021
 40
30.14462411466675
 40
30.14462411466675
 40
30.14462411466675
 40
30.14462411466675
 10
374.1156491643533
 20
139.9024681860238
 30
0.0
 10
373.7168193529153
 20
138.5443728793581
 30
0.0
 10
372.7415238609822
 20
135.9172934472838
 30
0.0
 10
371.0073849299129
 20
132.3491286718472
 30
0.0
 10
369.1728083115504
 20
129.1772367399453
 30
0.0
 10
367.3850943476093
 20
126.4450627953298
 30
0.0
 10
365.7815378161868
 20
124.2182079318669
 30
0.0
 10
364.5203838139419
 20
122.5946751637667
 30
0.0
 10
364.0235275407667
 20
121.9964099355359
 30
0.0
 10
363.8905989059808
 20
121.8368425648007
 30
0.0
  0
LINE
  5
14C
330
118
100
AcDbEntity
  8
0
  6
Continuous
 62
     0
370
     0
100
AcDbLine
 10
388.413865
 20
87.810995
 30
0.0
 11
391.209751
 21
72.652347
 31
0.0
  0
LINE
  5
14D
330
118
100
AcDbEntity
  8
0
  6
Continuous
 62
     0
370
     0
100
AcDbLine
 10
381.256339
 20
118.161487
 30
0.0
 11
377.239809
 21
139.936678
 31
0.0
  0
SPLINE
  5
14E
330
118
100
AcDbEntity
  8
0
  6
Continuous
 62
     0
370
     0
100
AcDbSpline
210
0.0
220
0.0
230
1.0
 70
     8
 71
     7
 72
    26
 73
    18
 74
     0
 42
0.000000001
 43
0.0
 40
0.0
 40
0.0
 40
0.0
 40
0.0
 40
0.0
 40
0.0
 40
0.0
 40
0.0
 40
0.2499999999999937
 40
0.2499999999999937
 40
0.2499999999999937
 40
0.2499999999999937
 40
0.2499999999999937
 40
0.512499999999987
 40
0.512499999999987
 40
0.512499999999987
 40
0.512499999999987
 40
0.512499999999987
 40
0.9999999999999749
 40
0.9999999999999749
 40
0.9999999999999749
 40
0.9999999999999749
 40
0.9999999999999749
 40
0.9999999999999749
 40
0.9999999999999749
 40
0.9999999999999749
 10
379.6489825168612
 20
117.9747204474537
 30
0.0
 10
379.6544441993401
 20
117.9578638669709
 30
0.0
 10
379.6598349447681
 20
117.9409943518037
 30
0.0
 10
379.666470344546
 20
117.9246997258154
 30
0.0
 10
379.6768546062949
 20
117.9101071575017
 30
0.0
 10
379.6900778919703
 20
117.8966332828548
 30
0.0
 10
379.7418822382003
 20
117.8793210115392
 30
0.0
 10
379.8499496400811
 20
117.888621612091
 30
0.0
 10
379.9227357326922
 20
117.9024891127425
 30
0.0
 10
379.9951272299438
 20
117.9179782569904
 30
0.0
 10
380.0704699058997
 20
117.9341063568493
 30
0.0
 10
380.2886997755331
 20
117.9811736199382
 30
0.0
 10
380.5132297490306
 20
118.0275325776344
 30
0.0
 10
380.6594964997851
 20
118.0553888993554
 30
0.0
 10
380.8073628023149
 20
118.0821970371893
 30
0.0
 10
380.9556975684934
 20
118.1078928833824
 30
0.0
 10
381.1061818635203
 20
118.1337938939648
 30
0.0
 10
381.2563394314068
 20
118.1614871809483
 30
0.0
  0
LINE
  5
14F
330
118
100
AcDbEntity
  8
0
  6
Continuous
 62
     0
370
     0
100
AcDbLine
 10
377.239809
 20
139.936678
 30
0.0
 11
378.744964
 21
140.233475
 31
0.0
  0
LINE
  5
150
330
118
100
AcDbEntity
  8
0
  6
Continuous
 62
     0
370
     0
100
AcDbLine
 10
376.57722
 20
143.528834
 30
0.0
 11
375.181234
 21
143.40233
 31
0.0
  0
LINE
  5
151
330
118
100
AcDbEntity
  8
0
  6
Continuous
 62
     0
370
     0
100
AcDbLine
 10
375.181234
 20
143.40233
 30
0.0
 11
374.258104
 21
140.380935
 31
0.0
  0
LINE
  5
152
330
118
100
AcDbEntity
  8
0
  6
Continuous
 62
     0
370
     0
100
AcDbLine
 10
374.258104
 20
140.380935
 30
0.0
 11
374.125801
 21
139.936642
 31
0.0
  0
SPLINE
  5
153
330
118
100
AcDbEntity
  8
0
  6
Continuous
 62
     0
370
    30
100
AcDbSpline
210
0.0
220
0.0
230
1.0
 70
    12
 71
     2
 72
     6
 73
     3
 74
     0
 42
0.000000001
 43
0.0
 40
0.0
 40
0.0
 40
0.0
 40
0.2475618167315173
 40
0.2475618167315173
 40
0.2475618167315173
 10
349.4458049903428
 20
121.6991151713303
 30
0.0
 41
1.0
 10
349.445805938512
 20
121.6991149209817
 30
0.0
 41
0.7099632905687996
 10
349.4458059516264
 20
143.3886208589962
 30
0.0
 41
0.9943426987825525
  0
LINE
  5
154
330
118
100
AcDbEntity
  8
0
  6
Continuous
 62
     0
370
    30
100
AcDbLine
 10
350.048862
 20
146.808828
 30
0.0
 11
356.918601
 21
165.683224
 31
0.0
  0
SPLINE
  5
155
330
118
100
AcDbEntity
  8
0
  6
Continuous
 62
     0
370
     0
100
AcDbSpline
210
0.0
220
0.0
230
1.0
 70
     8
 71
     3
 72
    11
 73
     7
 74
     0
 42
0.000000001
 43
0.0
 40
0.0
 40
0.0
 40
0.0
 40
0.0
 40
0.5463209427519092
 40
1.092641883762446
 40
1.638962823031614
 40
2.183354679579053
 40
2.183354679579053
 40
2.183354679579053
 40
2.183354679579053
 10
386.9328057533487
 20
87.3870713055066
 30
0.0
 10
387.1118920508968
 20
87.42010228170291
 30
0.0
 10
387.4719081031033
 20
87.49403265664505
 30
0.0
 10
387.9387392760891
 20
87.61264878276384
 30
0.0
 10
388.2772430179136
 20
87.72463123069895
 30
0.0
 10
388.3896223932891
 20
87.785891175879
 30
0.0
 10
388.4138651502219
 20
87.81099536782911
 30
0.0
  0
LINE
  5
156
330
118
100
AcDbEntity
  8
0
  6
Continuous
 62
     0
370
    30
100
AcDbLine
 10
387.976838
 20
71.817255
 30
0.0
 11
385.15182
 21
87.128353
 31
0.0
  0
SPLINE
  5
157
330
118
100
AcDbEntity
  8
0
  6
Continuous
 62
     0
370
     0
100
AcDbSpline
210
0.0
220
0.0
230
1.0
 70
     8
 71
     3
 72
     8
 73
     4
 74
     0
 42
0.000000001
 43
0.0
 40
0.0
 40
0.0
 40
0.0
 40
0.0
 40
1.0
 40
1.0
 40
1.0
 40
1.0
 10
385.1518203315979
 20
87.12835308290414
 30
0.0
 10
385.165551894105
 20
87.0540711666266
 30
0.0
 10
385.754273640001
 20
87.16970087327189
 30
0.0
 10
386.9328057533487
 20
87.3870713055066
 30
0.0
  0
LINE
  5
158
330
118
100
AcDbEntity
  8
0
  6
Continuous
 62
     0
370
    30
100
AcDbLine
 10
336.18231
 20
165.892823
 30
0.0
 11
346.375407
 21
165.892823
 31
0.0
  0
ARC
  5
159
330
118
100
AcDbEntity
  8
0
  6
Continuous
 62
     0
370
    30
100
AcDbCircle
 10
344.989156
 20
143.895898
 30
0.0
 40
20.5
100
AcDbArc
 50
273.877412
 51
282.556222
  0
ARC
  5
15A
330
118
100
AcDbEntity
  8
0
  6
Continuous
 62
     0
370
    30
100
AcDbCircle
 10
344.989156
 20
143.489747
 30
0.0
 40
20.5
100
AcDbArc
 50
59.830937
 51
86.122588
  0
LINE
  5
15B
330
118
100
AcDbEntity
  8
0
  6
Continuous
 62
     0
370
    30
100
AcDbLine
 10
387.900198
 20
72.152961
 30
0.0
 11
387.675639
 21
73.14876
 31
0.0
  0
LINE
  5
15C
330
118
100
AcDbEntity
  8
0
  6
Continuous
 62
     0
370
    30
100
AcDbLine
 10
381.26675
 20
106.495634
 30
0.0
 11
381.315805
 21
106.242019
 31
0.0
  0
LINE
  5
15D
330
118
100
AcDbEntity
  8
0
  6
Continuous
 62
     0
370
    30
100
AcDbLine
 10
387.900167
 20
72.1531
 30
0.0
 11
387.675646
 21
73.148731
 31
0.0
  0
ARC
  5
15E
330
118
100
AcDbEntity
  8
0
  6
Continuous
 62
     0
370
    30
100
AcDbCircle
 10
389.016321
 20
72.042455
 30
0.0
 40
1.063637550212329
100
AcDbArc
 50
192.176768
 51
214.39578
  0
ARC
  5
15F
330
118
100
AcDbEntity
  8
0
  6
Continuous
 62
     0
370
    30
100
AcDbCircle
 10
389.658555
 20
72.612398
 30
0.0
 40
1.551711482711463
100
AcDbArc
 50
280.425409
 51
1.475543
  0
SPLINE
  5
160
330
118
100
AcDbEntity
  8
0
  6
Continuous
 62
     0
370
    30
100
AcDbSpline
210
0.0
220
0.0
230
1.0
 70
     8
 71
     3
 72
    17
 73
    13
 74
     0
 42
0.000000001
 43
0.0
 40
0.0
 40
0.0
 40
0.0
 40
0.0
 40
0.8483282170978544
 40
2.133526409668026
 40
3.403926793467937
 40
5.817310401044438
 40
9.089958912137865
 40
12.53239070256437
 40
16.15294797696476
 40
17.0731207899807
 40
18.16118436782073
 40
19.21308531730503
 40
19.21308531730503
 40
19.21308531730503
 40
19.21308531730503
 10
380.1132476640976
 20
110.4817433883123
 30
0.0
 10
380.0155929461987
 20
110.7399924775906
 30
0.0
 10
379.7526150460324
 20
111.4042408696901
 30
0.0
 10
379.2926513251509
 20
112.4386763848123
 30
0.0
 10
378.5382798415551
 20
113.914777206204
 30
0.0
 10
377.3044666370417
 20
115.8829497183529
 30
0.0
 10
375.2659489327448
 20
118.1670207398668
 30
0.0
 10
372.3941129800885
 20
120.1234362425424
 30
0.0
 10
369.8652923836676
 20
121.0113711091716
 30
0.0
 10
368.0268388872578
 20
121.3915407434221
 30
0.0
 10
367.0167267653293
 20
121.5296076174692
 30
0.0
 10
366.3074355891685
 20
121.6240560929406
 30
0.0
 10
365.95696456355
 20
121.6320815390195
 30
0.0
  0
LINE
  5
161
330
118
100
AcDbEntity
  8
0
  6
Continuous
 62
     0
370
    30
100
AcDbLine
 10
372.77747
 20
165.68653
 30
0.0
 11
356.919802
 21
165.68653
 31
0.0
  0
LINE
  5
162
330
118
100
AcDbEntity
  8
0
  6
Continuous
 62
     0
370
    30
100
AcDbLine
 10
336.18231
 20
180.692823
 30
0.0
 11
346.28231
 21
180.692823
 31
0.0
  0
LINE
  5
163
330
118
100
AcDbEntity
  8
0
  6
Continuous
 62
     0
370
    30
100
AcDbLine
 10
335.68231
 20
228.692622
 30
0.0
 11
325.682321
 21
228.692622
 31
0.0
  0
LINE
  5
164
330
118
100
AcDbEntity
  8
0
  6
Continuous
 62
     0
370
    30
100
AcDbLine
 10
336.18231
 20
228.192622
 30
0.0
 11
335.68231
 21
228.692622
 31
0.0
  0
LINE
  5
165
330
118
100
AcDbEntity
  8
0
  6
Continuous
 62
     0
370
    30
100
AcDbLine
 10
347.28231
 20
181.692823
 30
0.0
 11
346.28231
 21
180.692823
 31
0.0
  0
ARC
  5
166
330
118
100
AcDbEntity
  8
0
  6
Continuous
 62
     0
370
    30
100
AcDbCircle
 10
358.447028
 20
181.792797
 30
0.0
 40
1.000024867106427
100
AcDbArc
 50
0.501412
 51
89.998588
  0
ARC
  5
167
330
118
100
AcDbEntity
  8
0
  6
Continuous
 62
     0
370
    30
100
AcDbCircle
 10
358.447028
 20
201.592846
 30
0.0
 40
1.00002486716375
100
AcDbArc
 50
270.001412
 51
359.498588
  0
LINE
  5
168
330
118
100
AcDbEntity
  8
0
  6
Continuous
 62
     0
370
    30
100
AcDbLine
 10
358.447053
 20
200.592821
 30
0.0
 11
347.456254
 21
200.592821
 31
0.0
  0
LINE
  5
169
330
118
100
AcDbEntity
  8
0
  6
Continuous
 62
     0
370
    30
100
AcDbLine
 10
358.447053
 20
182.792821
 30
0.0
 11
347.456254
 21
182.792821
 31
0.0
  0
LINE
  5
16A
330
118
100
AcDbEntity
  8
0
  6
Continuous
 62
     0
370
    30
100
AcDbLine
 10
359.453659
 20
181.04026
 30
0.0
 11
359.447015
 21
181.801548
 31
0.0
  0
LINE
  5
16B
330
118
100
AcDbEntity
  8
0
  6
Continuous
 62
     0
370
    30
100
AcDbLine
 10
359.453659
 20
202.345383
 30
0.0
 11
359.447015
 21
201.584095
 31
0.0
  0
ARC
  5
16C
330
118
100
AcDbEntity
  8
0
  6
Continuous
 62
     0
370
    30
100
AcDbCircle
 10
359.753662
 20
181.042836
 30
0.0
 40
0.3000150257687954
100
AcDbArc
 50
180.503239
 51
269.997158
  0
ARC
  5
16D
330
118
100
AcDbEntity
  8
0
  6
Continuous
 62
     0
370
    30
100
AcDbCircle
 10
359.753662
 20
202.342806
 30
0.0
 40
0.3000150267294877
100
AcDbArc
 50
90.002842
 51
179.496516
  0
LINE
  5
16E
330
118
100
AcDbEntity
  8
0
  6
Continuous
 62
     0
370
    30
100
AcDbLine
 10
366.856254
 20
202.642821
 30
0.0
 11
359.753648
 21
202.642821
 31
0.0
  0
LINE
  5
16F
330
118
100
AcDbEntity
  8
0
  6
Continuous
 62
     0
370
    30
100
AcDbLine
 10
366.856254
 20
180.742821
 30
0.0
 11
359.753648
 21
180.742821
 31
0.0
  0
ARC
  5
170
330
118
100
AcDbEntity
  8
0
  6
Continuous
 62
     0
370
    30
100
AcDbCircle
 10
347.45635
 20
183.093071
 30
0.0
 40
0.3002496639718825
100
AcDbArc
 50
234.566991
 51
269.981692
  0
ARC
  5
171
330
118
100
AcDbEntity
  8
0
  6
Continuous
 62
     0
370
    30
100
AcDbCircle
 10
347.456349
 20
200.292574
 30
0.0
 40
0.3002469245516475
100
AcDbArc
 50
90.018142
 51
125.436721
  0
ARC
  5
172
330
118
100
AcDbEntity
  8
0
  6
Continuous
 62
     0
370
    30
100
AcDbCircle
 10
366.856239
 20
181.042837
 30
0.0
 40
0.3000152340954305
100
AcDbArc
 50
270.002907
 51
359.992835
  0
ARC
  5
173
330
118
100
AcDbEntity
  8
0
  6
Continuous
 62
     0
370
    30
100
AcDbCircle
 10
366.856239
 20
202.342806
 30
0.0
 40
0.3000152343066258
100
AcDbArc
 50
0.007326
 51
89.997093
  0
ENDBLK
  5
175
330
118
100
AcDbEntity
  8
0
100
AcDbBlockEnd
  0
BLOCK
  5
1D6
330
177
100
AcDbEntity
  8
0
100
AcDbBlockBegin
  2
d
 70
     0
 10
0.000015
 20
-31.124374
 30
0.0
  3
d
  1

  0
SPLINE
  5
178
330
177
100
AcDbEntity
  8
0
  6
Continuous
 62
     0
370
    30
100
AcDbSpline
210
0.0
220
0.0
230
1.0
 70
    12
 71
     2
 72
    10
 73
     7
 74
     0
 42
0.000000001
 43
0.0
 40
0.125
 40
0.125
 40
0.125
 40
0.333333333333333
 40
0.333333333333333
 40
0.666666666666667
 40
0.666666666666667
 40
1.0
 40
1.0
 40
1.0
 10
132.9540258763414
 20
-92.09836552728814
 30
0.0
 41
0.9371994080239558
 10
132.9468617098771
 20
-92.0983656860594
 30
0.0
 41
0.9162658773652744
 10
135.1606478663856
 20
-92.09836581193395
 30
0.0
 41
1.0
 10
138.9081900629602
 20
-92.09836602501719
 30
0.0
 41
0.866025403784439
 10
145.0036398025217
 20
-92.09836598969491
 30
0.0
 41
1.0
 10
151.0990895420832
 20
-92.09836595437264
 30
0.0
 41
0.866025403784439
 10
153.44699708507
 20
-92.09836570596713
 30
0.0
 41
1.0
  0
LINE
  5
179
330
177
100
AcDbEntity
  8
0
  6
Continuous
 62
     0
370
    30
100
AcDbLine
 10
153.446997
 20
-92.098366
 30
0.0
 11
154.254005
 21
-92.098366
 31
0.0
  0
LINE
  5
17A
330
177
100
AcDbEntity
  8
0
  6
Continuous
 62
     0
370
     0
100
AcDbLine
 10
132.65401
 20
-91.798366
 30
0.0
 11
153.724264
 21
-91.798366
 31
0.0
  0
LINE
  5
17B
330
177
100
AcDbEntity
  8
0
  6
Continuous
 62
     0
370
     0
100
AcDbLine
 10
153.724264
 20
-91.798366
 30
0.0
 11
154.554001
 21
-91.798366
 31
0.0
  0
SPLINE
  5
17C
330
177
100
AcDbEntity
  8
0
  6
Continuous
 62
     0
370
     0
100
AcDbSpline
210
0.0
220
0.0
230
1.0
 70
     8
 71
     3
 72
     9
 73
     5
 74
     0
 42
0.000000001
 43
0.0
 40
24.09878474499442
 40
24.09878474499442
 40
24.09878474499442
 40
24.09878474499442
 40
25.82012651383323
 40
27.5414682814222
 40
27.5414682814222
 40
27.5414682814222
 40
27.5414682814222
 10
152.5040015229503
 20
-72.39836554977614
 30
0.0
 10
152.5045273317723
 20
-72.39836557523799
 30
0.0
 10
152.3908367463912
 20
-72.3983656261662
 30
0.0
 10
152.0520308206599
 20
-72.39836567514635
 30
0.0
 10
151.8296040531281
 20
-72.39836569867862
 30
0.0
  0
LINE
  5
17D
330
177
100
AcDbEntity
  8
0
  6
Continuous
 62
     0
370
     0
100
AcDbLine
 10
151.829604
 20
-72.398366
 30
0.0
 11
134.704009
 21
-72.398366
 31
0.0
  0
LINE
  5
17E
330
177
100
AcDbEntity
  8
0
  6
Continuous
 62
     0
370
     0
100
AcDbLine
 10
154.554005
 20
-84.695759
 30
0.0
 11
153.724264
 21
-84.695759
 31
0.0
  0
LINE
  5
17F
330
177
100
AcDbEntity
  8
0
  6
Continuous
 62
     0
370
     0
100
AcDbLine
 10
153.724264
 20
-84.695759
 30
0.0
 11
132.654005
 21
-84.695759
 31
0.0
  0
SPLINE
  5
180
330
177
100
AcDbEntity
  8
0
  6
Continuous
 62
     0
370
     0
100
AcDbSpline
210
0.0
220
0.0
230
1.0
 70
     8
 71
     3
 72
     9
 73
     5
 74
     0
 42
0.000000001
 43
0.0
 40
29.22149750562722
 40
29.22149750562722
 40
29.22149750562722
 40
29.22149750562722
 40
31.01056519575693
 40
33.39599714928826
 40
33.39599714928826
 40
33.39599714928826
 40
33.39599714928826
 10
154.2566622731833
 20
-84.39577087918008
 30
0.0
 10
154.2572022360449
 20
-84.39577093950679
 30
0.0
 10
154.1411455834902
 20
-84.39577089457356
 30
0.0
 10
153.7530418512961
 20
-84.39577046004388
 30
0.0
 10
153.4494166687897
 20
-84.39577049216723
 30
0.0
  0
LINE
  5
181
330
177
100
AcDbEntity
  8
0
  6
Continuous
 62
     0
370
     0
100
AcDbLine
 10
153.449417
 20
-84.39577
 30
0.0
 11
132.951376
 21
-84.395771
 31
0.0
  0
SPLINE
  5
182
330
177
100
AcDbEntity
  8
0
  6
Continuous
 62
     0
370
     0
100
AcDbSpline
210
0.0
220
0.0
230
1.0
 70
    12
 71
     2
 72
     8
 73
     5
 74
     0
 42
0.000000001
 43
0.0
 40
0.0648312757852288
 40
0.0648312757852288
 40
0.0648312757852288
 40
0.2500000000000002
 40
0.2500000000000002
 40
0.4999999999999994
 40
0.4999999999999994
 40
0.4999999999999994
 10
133.7127316844484
 20
-84.38912616170425
 30
0.0
 41
0.8874847220228581
 10
133.712731601353
 20
-84.3891264508812
 30
0.0
 41
0.7830613453646211
 10
139.8270291931591
 20
-84.3891265613031
 30
0.0
 41
1.0
 10
148.96878741457
 20
-84.38912672640004
 30
0.0
 41
0.707106781186548
 10
152.7457633703448
 20
-84.38912632680103
 30
0.0
 41
1.0
  0
LINE
  5
183
330
177
100
AcDbEntity
  8
0
  6
Continuous
 62
     0
370
     0
100
AcDbLine
 10
152.745763
 20
-84.389126
 30
0.0
 11
153.495279
 21
-84.389126
 31
0.0
  0
LINE
  5
184
330
177
100
AcDbEntity
  8
0
  6
Continuous
 62
     0
370
     0
100
AcDbLine
 10
134.704005
 20
-83.389164
 30
0.0
 11
151.829604
 21
-83.389164
 31
0.0
  0
LINE
  5
185
330
177
100
AcDbEntity
  8
0
  6
Continuous
 62
     0
370
     0
100
AcDbLine
 10
151.829604
 20
-83.389164
 30
0.0
 11
152.504005
 21
-83.389164
 31
0.0
  0
LINE
  5
186
330
177
100
AcDbEntity
  8
0
  6
Continuous
 62
     0
370
    30
100
AcDbLine
 10
143.604005
 20
-72.224422
 30
0.0
 11
133.604005
 21
-72.224421
 31
0.0
  0
LINE
  5
187
330
177
100
AcDbEntity
  8
0
  6
Continuous
 62
     0
370
    30
100
AcDbLine
 10
153.604005
 20
-72.224421
 30
0.0
 11
143.604005
 21
-72.224422
 31
0.0
  0
LINE
  5
188
330
177
100
AcDbEntity
  8
0
  6
Continuous
 62
     0
370
    30
100
AcDbLine
 10
143.604005
 20
-71.224422
 30
0.0
 11
132.604005
 21
-71.224421
 31
0.0
  0
SPLINE
  5
189
330
177
100
AcDbEntity
  8
0
  6
Continuous
 62
     0
370
    30
100
AcDbSpline
210
0.0
220
0.0
230
1.0
 70
     8
 71
     3
 72
    15
 73
    11
 74
     0
 42
0.000000001
 43
0.0
 40
49.40063872609853
 40
49.40063872609853
 40
49.40063872609853
 40
49.40063872609853
 40
51.4589986730193
 40
53.51735861994008
 40
55.57571856686084
 40
57.63407851378163
 40
59.69243846070242
 40
61.75079840762317
 40
63.80915835454392
 40
65.86751830146468
 40
65.86751830146468
 40
65.86751830146468
 40
65.86751830146468
 10
154.60400519116
 20
-71.22442129759406
 30
0.0
 10
154.604005221717
 20
-71.22442132906372
 30
0.0
 10
154.4621891250606
 20
-71.22442139200302
 30
0.0
 10
153.8321898832857
 20
-71.22442148278401
 30
0.0
 10
152.8091316345016
 20
-71.2244215664482
 30
0.0
 10
151.432309137636
 20
-71.22442163978053
 30
0.0
 10
149.7547105202267
 20
-71.2244216999627
 30
0.0
 10
147.840515307711
 20
-71.22442174468233
 30
0.0
 10
145.7643659319853
 20
-71.22442177222024
 30
0.0
 10
144.3227975535768
 20
-71.22442177841936
 30
0.0
 10
143.60400519116
 20
-71.22442177841936
 30
0.0
  0
LINE
  5
18A
330
177
100
AcDbEntity
  8
0
  6
Continuous
 62
     0
370
    30
100
AcDbLine
 10
213.103905
 20
-61.12442
 30
0.0
 11
143.604005
 21
-61.124423
 31
0.0
  0
LINE
  5
18B
330
177
100
AcDbEntity
  8
0
  6
Continuous
 62
     0
370
    30
100
AcDbLine
 10
143.604005
 20
-61.124423
 30
0.0
 11
74.104105
 21
-61.12442
 31
0.0
  0
LINE
  5
18C
330
177
100
AcDbEntity
  8
0
  6
Continuous
 62
     0
370
    30
100
AcDbLine
 10
213.603905
 20
-60.62442
 30
0.0
 11
143.604005
 21
-60.624423
 31
0.0
  0
LINE
  5
18D
330
177
100
AcDbEntity
  8
0
  6
Continuous
 62
     0
370
    30
100
AcDbLine
 10
143.604005
 20
-60.624423
 30
0.0
 11
73.604105
 21
-60.62442
 31
0.0
  0
LINE
  5
18E
330
177
100
AcDbEntity
  8
0
  6
Continuous
 62
     0
370
    30
100
AcDbLine
 10
213.603905
 20
-50.624431
 30
0.0
 11
143.604005
 21
-50.624431
 31
0.0
  0
LINE
  5
18F
330
177
100
AcDbEntity
  8
0
  6
Continuous
 62
     0
370
    30
100
AcDbLine
 10
143.604005
 20
-50.624431
 30
0.0
 11
73.604105
 21
-50.624431
 31
0.0
  0
LINE
  5
190
330
177
100
AcDbEntity
  8
0
  6
Continuous
 62
     0
370
    30
100
AcDbLine
 10
154.510908
 20
-71.317516
 30
0.0
 11
165.804005
 21
-71.317516
 31
0.0
  0
LINE
  5
191
330
177
100
AcDbEntity
  8
0
  6
Continuous
 62
     0
370
    30
100
AcDbLine
 10
121.404005
 20
-71.317516
 30
0.0
 11
132.697102
 21
-71.317516
 31
0.0
  0
SPLINE
  5
192
330
177
100
AcDbEntity
  8
0
  6
Continuous
 62
     0
370
     0
100
AcDbSpline
210
0.0
220
0.0
230
1.0
 70
     8
 71
     3
 72
    14
 73
    10
 74
     0
 42
0.000000001
 43
0.0
 40
0.0
 40
0.0
 40
0.0
 40
0.0
 40
4.985091455020036
 40
9.97014746998742
 40
14.95499429598457
 40
19.93965986576175
 40
24.92412306109085
 40
29.90843907769888
 40
34.89265281904024
 40
34.89265281904024
 40
34.89265281904024
 40
34.89265281904024
 10
165.5971167689643
 20
-101.5193279386619
 30
0.0
 10
165.6093185574723
 20
-101.2308832795884
 30
0.0
 10
165.2651773008054
 20
-100.6761966414776
 30
0.0
 10
163.6654920452171
 20
-99.86782307590988
 30
0.0
 10
161.0543920463048
 20
-99.14304324340173
 30
0.0
 10
157.5532734612559
 20
-98.53333576566729
 30
0.0
 10
153.3302560941474
 20
-98.07227327018973
 30
0.0
 10
148.6008987255746
 20
-97.78472138108395
 30
0.0
 10
145.2654250267385
 20
-97.71957990147348
 30
0.0
 10
143.6040204462914
 20
-97.71957990147348
 30
0.0
  0
SPLINE
  5
193
330
177
100
AcDbEntity
  8
0
  6
Continuous
 62
     0
370
     0
100
AcDbSpline
210
0.0
220
0.0
230
1.0
 70
     8
 71
     3
 72
    14
 73
    10
 74
     0
 42
0.000000001
 43
0.0
 40
0.0
 40
0.0
 40
0.0
 40
0.0
 40
4.984213741341136
 40
9.968529757949062
 40
14.9529929532775
 40
19.93765852305448
 40
24.92250534905095
 40
29.9075613640182
 40
34.89265281903796
 40
34.89265281903796
 40
34.89265281903796
 40
34.89265281903796
 10
143.6040204462913
 20
-97.71957990147348
 30
0.0
 10
141.9426158658442
 20
-97.71957990147348
 30
0.0
 10
138.6071421757801
 20
-97.78472138108668
 30
0.0
 10
133.8777848459234
 20
-98.07227327018086
 30
0.0
 10
129.6547675409101
 20
-98.53333576568548
 30
0.0
 10
126.153649037924
 20
-99.14304324341992
 30
0.0
 10
123.5425491367404
 20
-99.8678230759017
 30
0.0
 10
121.9428639894902
 20
-100.6761966414797
 30
0.0
 10
121.5987228087938
 20
-101.2308832795884
 30
0.0
 10
121.6109246350745
 20
-101.5193279386619
 30
0.0
  0
ARC
  5
194
330
177
100
AcDbEntity
  8
0
  6
Continuous
 62
     0
370
    30
100
AcDbCircle
 10
125.479595
 20
-73.320314
 30
0.0
 40
4.011836756605254
100
AcDbArc
 50
195.433067
 51
204.609517
  0
ARC
  5
195
330
177
100
AcDbEntity
  8
0
  6
Continuous
 62
     0
370
    30
100
AcDbCircle
 10
161.72834
 20
-73.32026
 30
0.0
 40
4.011954261573759
100
AcDbArc
 50
335.39047
 51
344.566586
  0
SPLINE
  5
196
330
177
100
AcDbEntity
  8
0
  6
Continuous
 62
     0
370
     0
100
AcDbSpline
210
0.0
220
0.0
230
1.0
 70
     8
 71
     3
 72
     8
 73
     4
 74
     0
 42
0.000000001
 43
0.0
 40
0.0
 40
0.0
 40
0.0
 40
0.0
 40
3.65322244306401
 40
3.65322244306401
 40
3.65322244306401
 40
3.65322244306401
 10
164.2874402652405
 20
-103.0285566079515
 30
0.0
 10
164.2759522267974
 20
-103.2456959265819
 30
0.0
 10
164.019399988301
 20
-103.4683293514843
 30
0.0
 10
163.8837864458967
 20
-103.6868721602093
 30
0.0
  0
LINE
  5
197
330
177
100
AcDbEntity
  8
0
  6
Continuous
 62
     0
370
     0
100
AcDbLine
 10
163.883786
 20
-103.686872
 30
0.0
 11
157.958138
 21
-113.355937
 31
0.0
  0
SPLINE
  5
198
330
177
100
AcDbEntity
  8
0
  6
Continuous
 62
     0
370
     0
100
AcDbSpline
210
0.0
220
0.0
230
1.0
 70
     8
 71
     3
 72
    14
 73
    10
 74
     0
 42
0.000000001
 43
0.0
 40
0.0
 40
0.0
 40
0.0
 40
0.0
 40
3.357648776850982
 40
6.714049718873458
 40
10.06778576981202
 40
13.41760088284158
 40
16.76445100048879
 40
20.11421126264104
 40
23.46800661547982
 40
23.46800661547982
 40
23.46800661547982
 40
23.46800661547982
 10
157.9581376939472
 20
-113.3559371767833
 30
0.0
 10
157.831413663674
 20
-113.5567712941131
 30
0.0
 10
157.4769097551626
 20
-113.9595725415913
 30
0.0
 10
156.5499605111943
 20
-114.546137157012
 30
0.0
 10
155.1010389851245
 20
-115.0992990099892
 30
0.0
 10
152.9911129683638
 20
-115.5799287545206
 30
0.0
 10
150.1917356742647
 20
-115.9307346718936
 30
0.0
 10
146.9647192541416
 20
-116.1182161119864
 30
0.0
 10
144.7219533043041
 20
-116.1518562657084
 30
0.0
 10
143.6040215200248
 20
-116.1518565069623
 30
0.0
  0
LINE
  5
199
330
177
100
AcDbEntity
  8
0
  6
Continuous
 62
     0
370
     0
100
AcDbLine
 10
143.604022
 20
-116.151857
 30
0.0
 11
143.60402
 21
-99.192665
 31
0.0
  0
SPLINE
  5
19A
330
177
100
AcDbEntity
  8
0
  6
Continuous
 62
     0
370
     0
100
AcDbSpline
210
0.0
220
0.0
230
1.0
 70
     8
 71
     3
 72
    14
 73
    10
 74
     0
 42
0.000000001
 43
0.0
 40
0.0
 40
0.0
 40
0.0
 40
0.0
 40
4.69023605813217
 40
9.37981662551812
 40
14.07059875637071
 40
18.76087985973197
 40
23.45161344181452
 40
28.14254872602786
 40
32.83347914028615
 40
32.83347914028615
 40
32.83347914028615
 40
32.83347914028615
 10
143.604020458466
 20
-99.19266484661966
 30
0.0
 10
145.1674324778432
 20
-99.19266419992232
 30
0.0
 10
148.3059848318622
 20
-99.25847339891675
 30
0.0
 10
152.7548972928574
 20
-99.54964268145113
 30
0.0
 10
156.7257882766492
 20
-100.0156351124776
 30
0.0
 10
160.0158797982725
 20
-100.6313433006051
 30
0.0
 10
162.469902438327
 20
-101.3647455682692
 30
0.0
 10
163.9709845587087
 20
-102.1741003870859
 30
0.0
 10
164.3021915128792
 20
-102.7497382633865
 30
0.0
 10
164.2874402652411
 20
-103.0285566079497
 30
0.0
  0
ARC
  5
19B
330
177
100
AcDbEntity
  8
0
  6
Continuous
 62
     0
370
     0
100
AcDbCircle
 10
157.761042
 20
-111.866212
 30
0.0
 40
1.502741555305273
100
AcDbArc
 50
277.536674
 51
327.716762
  0
LINE
  5
19C
330
177
100
AcDbEntity
  8
0
  6
Continuous
 62
     0
370
     0
100
AcDbLine
 10
143.60402
 20
-99.192665
 30
0.0
 11
143.60402
 21
-97.71958
 31
0.0
  0
SPLINE
  5
19D
330
177
100
AcDbEntity
  8
0
  6
Continuous
 62
     0
370
     0
100
AcDbSpline
210
0.0
220
0.0
230
1.0
 70
     8
 71
     3
 72
     8
 73
     4
 74
     0
 42
0.000000001
 43
0.0
 40
0.0
 40
0.0
 40
0.0
 40
0.0
 40
3.653222443064019
 40
3.653222443064019
 40
3.653222443064019
 40
3.653222443064019
 10
122.9206011324441
 20
-103.0285566079517
 30
0.0
 10
122.9320891986677
 20
-103.2456959266008
 30
0.0
 10
123.1886414642177
 20
-103.468329351469
 30
0.0
 10
123.3242550342084
 20
-103.6868721602091
 30
0.0
  0
LINE
  5
19E
330
177
100
AcDbEntity
  8
0
  6
Continuous
 62
     0
370
     0
100
AcDbLine
 10
123.324255
 20
-103.686872
 30
0.0
 11
129.249905
 21
-113.355937
 31
0.0
  0
SPLINE
  5
19F
330
177
100
AcDbEntity
  8
0
  6
Continuous
 62
     0
370
     0
100
AcDbSpline
210
0.0
220
0.0
230
1.0
 70
     8
 71
     3
 72
    14
 73
    10
 74
     0
 42
0.000000001
 43
0.0
 40
0.0
 40
0.0
 40
0.0
 40
0.0
 40
4.690236058045281
 40
9.379816625478343
 40
14.07059875641934
 40
18.76087985972481
 40
23.45161344182407
 40
28.14254872603607
 40
32.83347914028536
 40
32.83347914028536
 40
32.83347914028536
 40
32.83347914028536
 10
143.6040204586376
 20
-99.19266484661966
 30
0.0
 10
142.0406084392893
 20
-99.19266419992186
 30
0.0
 10
138.9020560935464
 20
-99.25847339892334
 30
0.0
 10
134.4531436689899
 20
-99.5496426814625
 30
0.0
 10
130.4822527435056
 20
-100.0156351124556
 30
0.0
 10
127.1921612991116
 20
-100.6313433006194
 30
0.0
 10
124.7381387507919
 20
-101.3647455682624
 30
0.0
 10
123.2370567322746
 20
-102.1741003870986
 30
0.0
 10
122.9058498491337
 20
-102.7497382633626
 30
0.0
 10
122.9206011324434
 20
-103.0285566079497
 30
0.0
  0
ARC
  5
1A0
330
177
100
AcDbEntity
  8
0
  6
Continuous
 62
     0
370
     0
100
AcDbCircle
 10
123.14654
 20
-101.509566
 30
0.0
 40
1.535646868688826
100
AcDbArc
 50
180.364207
 51
261.539699
  0
ARC
  5
1A1
330
177
100
AcDbEntity
  8
0
  6
Continuous
 62
     0
370
     0
100
AcDbCircle
 10
164.061501
 20
-101.509567
 30
0.0
 40
1.535646354679276
100
AcDbArc
 50
278.460284
 51
359.635809
  0
ARC
  5
1A2
330
177
100
AcDbEntity
  8
0
  6
Continuous
 62
     0
370
     0
100
AcDbCircle
 10
163.653467
 20
-102.158323
 30
0.0
 40
1.546005952719188
100
AcDbArc
 50
278.568873
 51
328.380396
  0
SPLINE
  5
1A3
330
177
100
AcDbEntity
  8
0
  6
Continuous
 62
     0
370
     0
100
AcDbSpline
210
0.0
220
0.0
230
1.0
 70
     8
 71
     3
 72
    14
 73
    10
 74
     0
 42
0.000000001
 43
0.0
 40
0.0
 40
0.0
 40
0.0
 40
0.0
 40
3.357659727039302
 40
6.714168333140132
 40
10.06786817318082
 40
13.41762334460882
 40
16.76451129115893
 40
20.11429153093614
 40
23.4681086927124
 40
23.4681086927124
 40
23.4681086927124
 40
23.4681086927124
 10
129.2498995710593
 20
-113.3559712991819
 30
0.0
 10
129.376755834525
 20
-113.5566885349344
 30
0.0
 10
129.7310461846764
 20
-113.9597636302587
 30
0.0
 10
130.658440012035
 20
-114.5462030164113
 30
0.0
 10
132.1068221121065
 20
-115.0990704598423
 30
0.0
 10
134.2170067508141
 20
-115.5801607893836
 30
0.0
 10
137.0162460470021
 20
-115.9310118639069
 30
0.0
 10
140.2432935435614
 20
-116.1185793916973
 30
0.0
 10
142.4860956021977
 20
-116.1520214605719
 30
0.0
 10
143.6040346439617
 20
-116.151856615352
 30
0.0
  0
ARC
  5
1A4
330
177
100
AcDbEntity
  8
0
  6
Continuous
 62
     0
370
     0
100
AcDbCircle
 10
123.554575
 20
-102.158323
 30
0.0
 40
1.546005946519967
100
AcDbArc
 50
211.61961
 51
261.431127
  0
SPLINE
  5
1A5
330
177
100
AcDbEntity
  8
0
  6
Continuous
 62
     0
370
    30
100
AcDbSpline
210
0.0
220
0.0
230
1.0
 70
     8
 71
     3
 72
    10
 73
     6
 74
     0
 42
0.000000001
 43
0.0
 40
41.23571800179418
 40
41.23571800179418
 40
41.23571800179418
 40
41.23571800179418
 40
45.86094439878418
 40
55.03829037776859
 40
64.2228085122743
 40
64.2228085122743
 40
64.2228085122743
 40
64.2228085122743
 10
152.5040051489339
 20
-81.17599099241866
 30
0.0
 10
153.9098281133234
 20
-80.94937710672043
 30
0.0
 10
157.8925241338281
 20
-80.11805041965702
 30
0.0
 10
162.9998945363546
 20
-78.0729335020344
 30
0.0
 10
164.9678068229212
 20
-76.02868899067494
 30
0.0
 10
165.3758754617166
 20
-74.99096586669657
 30
0.0
  0
SPLINE
  5
1A6
330
177
100
AcDbEntity
  8
0
  6
Continuous
 62
     0
370
    30
100
AcDbSpline
210
0.0
220
0.0
230
1.0
 70
     8
 71
     3
 72
    10
 73
     6
 74
     0
 42
0.000000001
 43
0.0
 40
0.0
 40
0.0
 40
0.0
 40
0.0
 40
9.184561233421551
 40
18.36188666089489
 40
22.98705913351068
 40
22.98705913351068
 40
22.98705913351068
 40
22.98705913351068
 10
121.8321655887229
 20
-74.99097077607144
 30
0.0
 10
122.2402352122022
 20
-76.02871072216317
 30
0.0
 10
124.2081611605413
 20
-78.07291031277555
 30
0.0
 10
129.3155253884746
 20
-80.11807004584031
 30
0.0
 10
133.2981992293792
 20
-80.9493858205395
 30
0.0
 10
134.7040051489339
 20
-81.17599474979158
 30
0.0
  0
ARC
  5
1A7
330
177
100
AcDbEntity
  8
0
  6
Continuous
 62
     0
370
     0
100
AcDbCircle
 10
129.446928
 20
-111.866393
 30
0.0
 40
1.502551955689647
100
AcDbArc
 50
212.278918
 51
262.465163
  0
LINE
  5
1A8
330
177
100
AcDbEntity
  8
0
  6
Continuous
 62
     0
370
    30
100
AcDbLine
 10
121.612417
 20
-74.387914
 30
0.0
 11
123.799713
 21
-74.387914
 31
0.0
  0
LINE
  5
1A9
330
177
100
AcDbEntity
  8
0
  6
Continuous
 62
     0
370
    30
100
AcDbLine
 10
163.408298
 20
-74.387914
 30
0.0
 11
165.595624
 21
-74.387914
 31
0.0
  0
LINE
  5
1AA
330
177
100
AcDbEntity
  8
0
  6
Continuous
 62
     0
370
     0
100
AcDbLine
 10
121.832166
 20
-74.990971
 30
0.0
 11
124.189768
 21
-74.990971
 31
0.0
  0
LINE
  5
1AB
330
177
100
AcDbEntity
  8
0
  6
Continuous
 62
     0
370
     0
100
AcDbLine
 10
163.018243
 20
-74.990966
 30
0.0
 11
165.375875
 21
-74.990966
 31
0.0
  0
ARC
  5
1AC
330
177
100
AcDbEntity
  8
0
  6
Continuous
 62
     0
370
    30
100
AcDbCircle
 10
159.908419
 20
-72.551859
 30
0.0
 40
3.952246244507124
100
AcDbArc
 50
321.892091
 51
332.318257
  0
ARC
  5
1AD
330
177
100
AcDbEntity
  8
0
  6
Continuous
 62
     0
370
    30
100
AcDbCircle
 10
127.310938
 20
-72.544534
 30
0.0
 40
3.965697761136307
100
AcDbArc
 50
207.699307
 51
218.09007
  0
SPLINE
  5
1AE
330
177
100
AcDbEntity
  8
0
  6
Continuous
 62
     0
370
    30
100
AcDbSpline
210
0.0
220
0.0
230
1.0
 70
     8
 71
     3
 72
    12
 73
     8
 74
     0
 42
0.000000001
 43
0.0
 40
35.90193166485655
 40
35.90193166485655
 40
35.90193166485655
 40
35.90193166485655
 40
40.08834334617885
 40
44.11292526726341
 40
47.76249640772237
 40
51.57965765250025
 40
53.3533705385451
 40
53.3533705385451
 40
53.3533705385451
 40
53.3533705385451
 10
152.5040051489339
 20
-79.51692345913709
 30
0.0
 10
153.7528826339041
 20
-79.30387118066888
 30
0.0
 10
156.0739913171921
 20
-78.79769405802274
 30
0.0
 10
158.9185860687518
 20
-77.84813403378803
 30
0.0
 10
161.1086233256667
 20
-76.7673818367598
 30
0.0
 10
162.367027956749
 20
-75.80108815319272
 30
0.0
 10
162.8808264222495
 20
-75.18758163637517
 30
0.0
 10
163.0182433268628
 20
-74.99096613251004
 30
0.0
  0
SPLINE
  5
1AF
330
177
100
AcDbEntity
  8
0
  6
Continuous
 62
     0
370
    30
100
AcDbSpline
210
0.0
220
0.0
230
1.0
 70
     8
 71
     3
 72
    12
 73
     8
 74
     0
 42
0.000000001
 43
0.0
 40
0.0
 40
0.0
 40
0.0
 40
0.0
 40
2.012608483142774
 40
6.222109837206265
 40
10.56319841488254
 40
14.08080201512252
 40
17.4513380963994
 40
17.4513380963994
 40
17.4513380963994
 40
17.4513380963994
 10
124.1897678349019
 20
-74.99097051026138
 30
0.0
 10
124.3456785591546
 20
-75.21404795085414
 30
0.0
 10
124.9295859912671
 20
-75.89589511783197
 30
0.0
 10
126.4395932537982
 20
-76.99106529434357
 30
0.0
 10
128.9036558729683
 20
-78.08891386406981
 30
0.0
 10
131.7302364731845
 20
-78.9357467521517
 30
0.0
 10
133.6985347362996
 20
-79.34549947662157
 30
0.0
 10
134.7040051489339
 20
-79.5169412890433
 30
0.0
  0
LINE
  5
1B0
330
177
100
AcDbEntity
  8
0
  6
Continuous
 62
     0
370
    30
100
AcDbLine
 10
165.804005
 20
-61.124419
 30
0.0
 11
165.804005
 21
-71.317516
 31
0.0
  0
LINE
  5
1B1
330
177
100
AcDbEntity
  8
0
  6
Continuous
 62
     0
370
    30
100
AcDbLine
 10
121.404005
 20
-61.124419
 30
0.0
 11
121.404005
 21
-71.317516
 31
0.0
  0
ARC
  5
1B2
330
177
100
AcDbEntity
  8
0
  6
Continuous
 62
     0
370
    30
100
AcDbCircle
 10
143.807081
 20
-69.931265
 30
0.0
 40
20.5
100
AcDbArc
 50
183.877412
 51
192.569625
  0
ARC
  5
1B3
330
177
100
AcDbEntity
  8
0
  6
Continuous
 62
     0
370
    30
100
AcDbCircle
 10
143.400929
 20
-69.931265
 30
0.0
 40
20.5
100
AcDbArc
 50
347.430342
 51
356.122588
  0
LINE
  5
1B4
330
177
100
AcDbEntity
  8
0
  6
Continuous
 62
     0
370
    30
100
AcDbLine
 10
121.610309
 20
-101.491259
 30
0.0
 11
121.612147
 21
-101.579971
 31
0.0
  0
LINE
  5
1B5
330
177
100
AcDbEntity
  8
0
  6
Continuous
 62
     0
370
    30
100
AcDbLine
 10
122.221694
 20
-102.941997
 30
0.0
 11
122.23742
 21
-102.965881
 31
0.0
  0
ARC
  5
1B6
330
177
100
AcDbEntity
  8
0
  6
Continuous
 62
     0
370
    30
100
AcDbCircle
 10
124.013
 20
-101.330687
 30
0.0
 40
2.413822976632548
100
AcDbArc
 50
185.944169
 51
222.643058
  0
LINE
  5
1B7
330
177
100
AcDbEntity
  8
0
  6
Continuous
 62
     0
370
    30
100
AcDbLine
 10
128.176555
 20
-112.668834
 30
0.0
 11
122.238069
 21
-102.968846
 31
0.0
  0
SPLINE
  5
1B8
330
177
100
AcDbEntity
  8
0
  6
Continuous
 62
     0
370
    30
100
AcDbSpline
210
0.0
220
0.0
230
1.0
 70
     8
 71
     3
 72
    16
 73
    12
 74
     0
 42
0.000000001
 43
0.0
 40
0.0
 40
0.0
 40
0.0
 40
0.0
 40
1.437735140057266
 40
2.081603729475412
 40
3.752507183663712
 40
5.566106915755674
 40
8.760167858693404
 40
13.71034710938178
 40
15.03146131245274
 40
17.7983940270966
 40
23.92746954935703
 40
23.92746954935703
 40
23.92746954935703
 40
23.92746954935703
 10
128.194906204768
 20
-112.6972637490351
 30
0.0
 10
128.251819188773
 20
-112.7834461697016
 30
0.0
 10
128.4301241326487
 20
-113.0358717682957
 30
0.0
 10
128.7353069627979
 20
-113.3671703327464
 30
0.0
 10
129.136131036937
 20
-113.7299323356797
 30
0.0
 10
129.8939894571175
 20
-114.2390600899425
 30
0.0
 10
131.2952984968744
 20
-114.8957994421926
 30
0.0
 10
133.213700836177
 20
-115.3961953980486
 30
0.0
 10
135.5639828081281
 20
-115.7578493424294
 30
0.0
 10
138.5608684521327
 20
-116.0703657846902
 30
0.0
 10
141.5741645152167
 20
-116.1526906839681
 30
0.0
 10
143.6040346442017
 20
-116.1523442726666
 30
0.0
  0
SPLINE
  5
1B9
330
177
100
AcDbEntity
  8
0
  6
Continuous
 62
     0
370
    30
100
AcDbSpline
210
0.0
220
0.0
230
1.0
 70
     8
 71
     3
 72
    17
 73
    13
 74
     0
 42
0.000000001
 43
0.0
 40
0.0
 40
0.0
 40
0.0
 40
0.0
 40
6.41580771444075
 40
9.240101162275147
 40
10.62490210011985
 40
15.9162584210377
 40
18.26109240643809
 40
20.33910198844903
 40
21.30765492875788
 40
23.02289684321241
 40
23.47783409924041
 40
23.92773675465178
 40
23.92773675465178
 40
23.92773675465178
 40
23.92773675465178
 10
143.6040083967392
 20
-116.1523442726666
 30
0.0
 10
145.7271545569434
 20
-116.1527066021645
 30
0.0
 10
148.8635284436287
 20
-116.0626860503191
 30
0.0
 10
151.9335011572725
 20
-115.721323503863
 30
0.0
 10
154.342128422295
 20
-115.3254786906655
 30
0.0
 10
156.0752643695817
 20
-114.8310578735343
 30
0.0
 10
157.4086877307608
 20
-114.1784079356826
 30
0.0
 10
158.0189494067899
 20
-113.7660536434855
 30
0.0
 10
158.4877388605169
 20
-113.3565730530854
 30
0.0
 10
158.7434521451903
 20
-113.0813035071869
 30
0.0
 10
158.9502917044156
 20
-112.7932776359476
 30
0.0
 10
158.9953009410047
 20
-112.7242718420262
 30
0.0
 10
159.0131365658918
 20
-112.6972636356379
 30
0.0
  0
LINE
  5
1BA
330
177
100
AcDbEntity
  8
0
  6
Continuous
 62
     0
370
    30
100
AcDbLine
 10
164.986347
 20
-102.941997
 30
0.0
 11
164.970622
 21
-102.965881
 31
0.0
  0
ARC
  5
1BB
330
177
100
AcDbEntity
  8
0
  6
Continuous
 62
     0
370
    30
100
AcDbCircle
 10
163.195042
 20
-101.330687
 30
0.0
 40
2.413822821664309
100
AcDbArc
 50
317.356946
 51
354.055838
  0
LINE
  5
1BC
330
177
100
AcDbEntity
  8
0
  6
Continuous
 62
     0
370
    30
100
AcDbLine
 10
165.595894
 20
-101.579971
 30
0.0
 11
165.597733
 21
-101.491277
 31
0.0
  0
LINE
  5
1BD
330
177
100
AcDbEntity
  8
0
  6
Continuous
 62
     0
370
    30
100
AcDbLine
 10
159.031487
 20
-112.668834
 30
0.0
 11
164.969973
 21
-102.968846
 31
0.0
  0
LINE
  5
1BE
330
177
100
AcDbEntity
  8
0
  6
Continuous
 62
     0
370
    30
100
AcDbLine
 10
165.597728
 20
-101.490531
 30
0.0
 11
165.597728
 21
-74.392612
 31
0.0
  0
LINE
  5
1BF
330
177
100
AcDbEntity
  8
0
  6
Continuous
 62
     0
370
    30
100
AcDbLine
 10
121.610313
 20
-101.490531
 30
0.0
 11
121.610313
 21
-74.392613
 31
0.0
  0
LINE
  5
1C0
330
177
100
AcDbEntity
  8
0
  6
Continuous
 62
     0
370
    30
100
AcDbLine
 10
132.604005
 20
-61.124421
 30
0.0
 11
132.604005
 21
-71.224421
 31
0.0
  0
LINE
  5
1C1
330
177
100
AcDbEntity
  8
0
  6
Continuous
 62
     0
370
    30
100
AcDbLine
 10
154.604005
 20
-61.124421
 30
0.0
 11
154.604005
 21
-71.224421
 31
0.0
  0
LINE
  5
1C2
330
177
100
AcDbEntity
  8
0
  6
Continuous
 62
     0
370
    30
100
AcDbLine
 10
73.604105
 20
-60.62442
 30
0.0
 11
73.604105
 21
-50.624431
 31
0.0
  0
LINE
  5
1C3
330
177
100
AcDbEntity
  8
0
  6
Continuous
 62
     0
370
    30
100
AcDbLine
 10
213.603905
 20
-60.62442
 30
0.0
 11
213.603905
 21
-50.624431
 31
0.0
  0
LINE
  5
1C4
330
177
100
AcDbEntity
  8
0
  6
Continuous
 62
     0
370
    30
100
AcDbLine
 10
74.104105
 20
-61.12442
 30
0.0
 11
73.604105
 21
-60.62442
 31
0.0
  0
LINE
  5
1C5
330
177
100
AcDbEntity
  8
0
  6
Continuous
 62
     0
370
    30
100
AcDbLine
 10
213.103905
 20
-61.12442
 30
0.0
 11
213.603905
 21
-60.62442
 31
0.0
  0
LINE
  5
1C6
330
177
100
AcDbEntity
  8
0
  6
Continuous
 62
     0
370
    30
100
AcDbLine
 10
133.604005
 20
-72.224421
 30
0.0
 11
132.604005
 21
-71.224421
 31
0.0
  0
LINE
  5
1C7
330
177
100
AcDbEntity
  8
0
  6
Continuous
 62
     0
370
    30
100
AcDbLine
 10
154.604005
 20
-71.224421
 30
0.0
 11
153.604005
 21
-72.224421
 31
0.0
  0
ARC
  5
1C8
330
177
100
AcDbEntity
  8
0
  6
Continuous
 62
     0
370
    30
100
AcDbCircle
 10
153.50403
 20
-83.38914
 30
0.0
 40
1.000024867766031
100
AcDbArc
 50
180.001412
 51
269.498588
  0
ARC
  5
1C9
330
177
100
AcDbEntity
  8
0
  6
Continuous
 62
     0
370
    30
100
AcDbCircle
 10
133.70398
 20
-83.38914
 30
0.0
 40
1.000024887463878
100
AcDbArc
 50
270.501411
 51
359.998586
  0
LINE
  5
1CA
330
177
100
AcDbEntity
  8
0
  6
Continuous
 62
     0
370
    30
100
AcDbLine
 10
134.704005
 20
-83.389164
 30
0.0
 11
134.704005
 21
-72.398366
 31
0.0
  0
LINE
  5
1CB
330
177
100
AcDbEntity
  8
0
  6
Continuous
 62
     0
370
    30
100
AcDbLine
 10
152.504005
 20
-83.389164
 30
0.0
 11
152.504005
 21
-72.398366
 31
0.0
  0
LINE
  5
1CC
330
177
100
AcDbEntity
  8
0
  6
Continuous
 62
     0
370
    30
100
AcDbLine
 10
154.256618
 20
-84.39577
 30
0.0
 11
153.495279
 21
-84.389126
 31
0.0
  0
LINE
  5
1CD
330
177
100
AcDbEntity
  8
0
  6
Continuous
 62
     0
370
    30
100
AcDbLine
 10
132.951397
 20
-84.39577
 30
0.0
 11
133.712732
 21
-84.389126
 31
0.0
  0
ARC
  5
1CE
330
177
100
AcDbEntity
  8
0
  6
Continuous
 62
     0
370
    30
100
AcDbCircle
 10
154.25399
 20
-84.695774
 30
0.0
 40
0.3000150512854556
100
AcDbArc
 50
0.002846
 51
89.484112
  0
ARC
  5
1CF
330
177
100
AcDbEntity
  8
0
  6
Continuous
 62
     0
370
    30
100
AcDbCircle
 10
132.95402
 20
-84.695774
 30
0.0
 40
0.3000150500848345
100
AcDbArc
 50
90.512017
 51
179.997153
  0
LINE
  5
1D0
330
177
100
AcDbEntity
  8
0
  6
Continuous
 62
     0
370
    30
100
AcDbLine
 10
132.654005
 20
-91.798366
 30
0.0
 11
132.654005
 21
-84.695759
 31
0.0
  0
LINE
  5
1D1
330
177
100
AcDbEntity
  8
0
  6
Continuous
 62
     0
370
    30
100
AcDbLine
 10
154.554005
 20
-91.798366
 30
0.0
 11
154.554005
 21
-84.695759
 31
0.0
  0
ARC
  5
1D2
330
177
100
AcDbEntity
  8
0
  6
Continuous
 62
     0
370
    30
100
AcDbCircle
 10
152.20375
 20
-72.398463
 30
0.0
 40
0.3002550755157662
100
AcDbArc
 50
0.018635
 51
35.4257
  0
ARC
  5
1D3
330
177
100
AcDbEntity
  8
0
  6
Continuous
 62
     0
370
    30
100
AcDbCircle
 10
135.004258
 20
-72.398463
 30
0.0
 40
0.3002529948408556
100
AcDbArc
 50
144.571502
 51
179.98149
  0
ARC
  5
1D4
330
177
100
AcDbEntity
  8
0
  6
Continuous
 62
     0
370
    30
100
AcDbCircle
 10
154.25399
 20
-91.79835
 30
0.0
 40
0.3000152328023814
100
AcDbArc
 50
270.006607
 51
359.997093
  0
ARC
  5
1D5
330
177
100
AcDbEntity
  8
0
  6
Continuous
 62
     0
370
    30
100
AcDbCircle
 10
132.95402
 20
-91.79835
 30
0.0
 40
0.3000152332803583
100
AcDbArc
 50
180.002907
 51
269.996322
  0
ENDBLK
  5
1D7
330
177
100
AcDbEntity
  8
0
100
AcDbBlockEnd
  0
BLOCK
  5
238
330
1D9
100
AcDbEntity
  8
0
100
AcDbBlockBegin
  2
e
 70
     0
 10
350.519836
 20
-191.085754
 30
0.0
  3
e
  1

  0
SPLINE
  5
1DA
330
1D9
100
AcDbEntity
  8
0
  6
Continuous
 62
     0
370
     0
100
AcDbSpline
210
0.0
220
0.0
230
1.0
 70
    12
 71
     2
 72
    10
 73
     7
 74
     0
 42
0.000000001
 43
0.0
 40
0.0
 40
0.0
 40
0.0
 40
0.333333333333333
 40
0.333333333333333
 40
0.666666666666667
 40
0.666666666666667
 40
1.0
 40
1.0
 40
1.0
 10
383.8194884436188
 20
-60.58593865002069
 30
0.0
 41
1.0
 10
382.0758350326185
 20
-54.69119308043673
 30
0.0
 41
0.866025403784439
 10
384.6531122099779
 20
-50.63199391593037
 30
0.0
 41
1.0
 10
387.2303893873373
 20
-46.57279475142403
 30
0.0
 41
0.866025403784439
 10
391.5513199756969
 20
-48.40834115650168
 30
0.0
 41
1.0
 10
395.8722505640566
 20
-50.24388756157936
 30
0.0
 41
0.866025403784439
 10
397.6159039750569
 20
-56.13863313116337
 30
0.0
 41
1.0
  0
SPLINE
  5
1DB
330
1D9
100
AcDbEntity
  8
0
  6
Continuous
 62
     0
370
     0
100
AcDbSpline
210
0.0
220
0.0
230
1.0
 70
    12
 71
     2
 72
     8
 73
     5
 74
     0
 42
0.000000001
 43
0.0
 40
0.0
 40
0.0
 40
0.0
 40
0.5
 40
0.5
 40
1.0
 40
1.0
 40
1.0
 10
397.6159039750569
 20
-56.13863313116337
 30
0.0
 41
1.0
 10
400.6360002737001
 20
-66.34863195537446
 30
0.0
 41
0.707106781186548
 10
393.7377925079811
 20
-68.57228471480312
 30
0.0
 41
1.0
 10
386.839584742262
 20
-70.79593747423178
 30
0.0
 41
0.707106781186548
 10
383.8194884436188
 20
-60.58593865002069
 30
0.0
 41
1.0
  0
SPLINE
  5
1DC
330
1D9
100
AcDbEntity
  8
0
  6
Continuous
 62
     0
370
     0
100
AcDbSpline
210
0.0
220
0.0
230
1.0
 70
     8
 71
     3
 72
    15
 73
    11
 74
     0
 42
0.000000001
 43
0.0
 40
17.31709139850421
 40
17.31709139850421
 40
17.31709139850421
 40
17.31709139850421
 40
19.10890838646072
 40
21.2321204294008
 40
23.35533247234088
 40
25.47854451528096
 40
27.60175655822103
 40
29.7249686011611
 40
31.84818064410118
 40
33.97139268704132
 40
33.97139268704132
 40
33.97139268704132
 40
33.97139268704132
 10
388.0434557387649
 20
-47.74160549075701
 30
0.0
 10
388.4402850016773
 20
-47.63318416456114
 30
0.0
 10
389.3362249837077
 20
-47.50197326425121
 30
0.0
 10
390.7742296896545
 20
-47.6627188112312
 30
0.0
 10
392.2971359142158
 20
-48.24123743926077
 30
0.0
 10
393.7674976330379
 20
-49.20647487750989
 30
0.0
 10
395.1288096676818
 20
-50.52133758519327
 30
0.0
 10
396.328757560671
 20
-52.13529612780587
 30
0.0
 10
397.3212279872607
 20
-53.98632698314682
 30
0.0
 10
397.8191299061415
 20
-55.33097304348513
 30
0.0
 10
398.0223610846568
 20
-56.01803394767427
 30
0.0
  0
SPLINE
  5
1DD
330
1D9
100
AcDbEntity
  8
0
  6
Continuous
 62
     0
370
     0
100
AcDbSpline
210
0.0
220
0.0
230
1.0
 70
     8
 71
     3
 72
    16
 73
    12
 74
     0
 42
0.000000001
 43
0.0
 40
33.97139268704134
 40
33.97139268704134
 40
33.97139268704134
 40
33.97139268704134
 40
36.09460472998136
 40
38.21781677292142
 40
40.34102881586151
 40
42.4642408588016
 40
44.58745290174168
 40
46.71066494468175
 40
48.83387698762182
 40
50.9570890305619
 40
51.28848505611248
 40
51.28848505611248
 40
51.28848505611248
 40
51.28848505611248
 10
398.0223610846568
 20
-56.0180339476743
 30
0.0
 10
398.225592263172
 20
-56.70509485186329
 30
0.0
 10
398.5406150583523
 20
-58.10869240828129
 30
0.0
 10
398.720671341536
 20
-60.22160678658054
 30
0.0
 10
398.6013302531876
 20
-62.26084109406841
 30
0.0
 10
398.1871780042497
 20
-64.14802869939749
 30
0.0
 10
397.4941302339715
 20
-65.81064604320972
 30
0.0
 10
396.5488203773268
 20
-67.18479966604414
 30
0.0
 10
395.3875761700787
 20
-68.2176816422211
 30
0.0
 10
394.4298784177383
 20
-68.68621067427341
 30
0.0
 10
393.8896122786006
 20
-68.84699185201836
 30
0.0
 10
393.8162188228461
 20
-68.86704434319446
 30
0.0
  0
SPLINE
  5
1DE
330
1D9
100
AcDbEntity
  8
0
  6
Continuous
 62
     0
370
     0
100
AcDbSpline
210
0.0
220
0.0
230
1.0
 70
     8
 71
     3
 72
    16
 73
    12
 74
     0
 42
0.000000001
 43
0.0
 40
13.50155795395693
 40
13.50155795395693
 40
13.50155795395693
 40
13.50155795395693
 40
13.77073414071106
 40
15.49207590829995
 40
17.21341767588882
 40
18.93475944347771
 40
20.65610121106659
 40
22.37744297865547
 40
24.09878474624435
 40
25.82012651383323
 40
27.5414682814222
 40
27.5414682814222
 40
27.5414682814222
 40
27.5414682814222
 10
406.993985658932
 20
-63.1414914401483
 30
0.0
 10
407.0537523053475
 20
-63.12516749656034
 30
0.0
 10
407.49298969125
 20
-62.99447240026121
 30
0.0
 10
408.2714983548055
 20
-62.61360702839553
 30
0.0
 10
409.2153406785049
 20
-61.77409565049825
 30
0.0
 10
409.983674717239
 20
-60.65720366481551
 30
0.0
 10
410.5469738181956
 20
-59.30585258171701
 30
0.0
 10
410.8835907145927
 20
-57.77197407144956
 30
0.0
 10
410.9805894074054
 20
-56.11451422335435
 30
0.0
 10
410.8342422913931
 20
-54.39716829030752
 30
0.0
 10
410.5781963665435
 20
-53.25634470563892
 30
0.0
 10
410.4130130342343
 20
-52.69791164196013
 30
0.0
  0
SPLINE
  5
1DF
330
1D9
100
AcDbEntity
  8
0
  6
Continuous
 62
     0
370
     0
100
AcDbSpline
210
0.0
220
0.0
230
1.0
 70
     8
 71
     3
 72
    15
 73
    11
 74
     0
 42
0.000000001
 43
0.0
 40
27.54146828142222
 40
27.54146828142222
 40
27.54146828142222
 40
27.54146828142222
 40
29.26281004901102
 40
30.9841518165999
 40
32.70549358418879
 40
34.42683535177766
 40
36.14817711936655
 40
37.86951888695543
 40
39.59086065454431
 40
41.04353226683117
 40
41.04353226683117
 40
41.04353226683117
 40
41.04353226683117
 10
410.4130130342343
 20
-52.6979116419601
 30
0.0
 10
410.247829701925
 20
-52.13947857828131
 30
0.0
 10
409.843142297538
 20
-51.0465699082348
 30
0.0
 10
409.0364768366568
 20
-49.54207907603976
 30
0.0
 10
408.0611767227203
 20
-48.23027715556015
 30
0.0
 10
406.9547221922791
 20
-47.16157595936085
 30
0.0
 10
405.7596336719581
 20
-46.37704507347797
 30
0.0
 10
404.5218377451455
 20
-45.90683358585576
 30
0.0
 10
403.3530484825701
 20
-45.776181948528
 30
0.0
 10
402.6248415108827
 20
-45.88282827053751
 30
0.0
 10
402.3023044414209
 20
-45.97095156404068
 30
0.0
  0
SPLINE
  5
1E0
330
1D9
100
AcDbEntity
  8
0
  6
Continuous
 62
     0
370
    30
100
AcDbSpline
210
0.0
220
0.0
230
1.0
 70
     8
 71
     3
 72
    11
 73
     7
 74
     0
 42
0.000000001
 43
0.0
 40
20.50372081831592
 40
20.50372081831592
 40
20.50372081831592
 40
20.50372081831592
 40
21.78558673258413
 40
23.7660881774068
 40
25.74659124287389
 40
27.72710275259178
 40
27.72710275259178
 40
27.72710275259178
 40
27.72710275259178
 10
406.8549901202717
 20
-47.07035517898687
 30
0.0
 10
407.1404451905107
 20
-47.28562171268426
 30
0.0
 10
407.848331278117
 20
-47.90006998947901
 30
0.0
 10
408.8788954614316
 20
-49.13506942128123
 30
0.0
 10
409.8404836354635
 20
-50.80377579490366
 30
0.0
 10
410.3127986958436
 20
-52.04301662722364
 30
0.0
 10
410.5000150162878
 20
-52.67591113083299
 30
0.0
  0
SPLINE
  5
1E1
330
1D9
100
AcDbEntity
  8
0
  6
Continuous
 62
     0
370
    30
100
AcDbSpline
210
0.0
220
0.0
230
1.0
 70
     8
 71
     3
 72
    11
 73
     7
 74
     0
 42
0.000000001
 43
0.0
 40
0.0
 40
0.0
 40
0.0
 40
0.0
 40
1.980513790506307
 40
3.961026682382897
 40
5.941535459699875
 40
7.765456672232646
 40
7.765456672232646
 40
7.765456672232646
 40
7.765456672232646
 10
410.5000150162878
 20
-52.67591113083299
 30
0.0
 10
410.6872433229727
 20
-53.30880422491441
 30
0.0
 10
410.9664308221467
 20
-54.61029803694015
 30
0.0
 10
411.073506724208
 20
-56.55451044611658
 30
0.0
 10
410.8703823507561
 20
-58.34915875570638
 30
0.0
 10
410.5488153135611
 20
-59.4097877014333
 30
0.0
 10
410.3548225250603
 20
-59.88004070374457
 30
0.0
  0
ELLIPSE
  5
1E2
330
1D9
100
AcDbEntity
  8
0
  6
Continuous
 62
     0
370
     0
100
AcDbEllipse
 10
395.95236
 20
-56.932076
 30
0.0
 11
2.885970512619899
 21
-10.56284403938107
 31
0.0
210
0.0
220
0.0
230
1.0
 40
0.680168
 41
-0.0000000068560038
 42
1.601500429299539
  0
ELLIPSE
  5
1E3
330
1D9
100
AcDbEntity
  8
0
  6
Continuous
 62
     0
370
     0
100
AcDbEllipse
 10
395.95236
 20
-56.932076
 30
0.0
 11
2.885970512619899
 21
-10.56284403938107
 31
0.0
210
0.0
220
0.0
230
1.0
 40
0.680168
 41
1.601500429299539
 42
3.141592646733788
  0
ARC
  5
1E4
330
1D9
100
AcDbEntity
  8
0
  6
Continuous
 62
     0
370
    30
100
AcDbCircle
 10
406.356857
 20
-58.342755
 30
0.0
 40
6.011995814552147
100
AcDbArc
 50
248.211822
 51
256.161722
  0
SPLINE
  5
1E5
330
1D9
100
AcDbEntity
  8
0
  6
Continuous
 62
     0
370
    30
100
AcDbSpline
210
0.0
220
0.0
230
1.0
 70
    12
 71
     2
 72
     6
 73
     3
 74
     0
 42
0.000000001
 43
0.0
 40
0.0
 40
0.0
 40
0.0
 40
0.2648339624080874
 40
0.2648339624080874
 40
0.2648339624080874
 10
404.6237373929611
 20
-44.86488470664472
 30
0.0
 41
1.0
 10
401.4899235585717
 20
-44.09752019817577
 30
0.0
 41
0.8448638565983486
 10
399.4339951258229
 20
-46.75461834032441
 30
0.0
 41
0.8540689914757716
  0
SPLINE
  5
1E6
330
1D9
100
AcDbEntity
  8
0
  6
Continuous
 62
     0
370
    30
100
AcDbSpline
210
0.0
220
0.0
230
1.0
 70
    12
 71
     2
 72
     8
 73
     5
 74
     0
 42
0.000000001
 43
0.0
 40
0.0
 40
0.0
 40
0.0
 40
0.5
 40
0.5
 40
1.0
 40
1.0
 40
1.0
 10
404.9188949520375
 20
-64.1802505723461
 30
0.0
 41
1.0
 10
411.9881108994368
 20
-65.91126131753094
 30
0.0
 41
0.7071067811865471
 10
411.8405321198986
 20
-56.25357838468025
 30
0.0
 41
1.0
 10
411.6929533403604
 20
-46.59589545182957
 30
0.0
 41
0.7071067811865471
 10
404.6237373929611
 20
-44.86488470664472
 30
0.0
 41
1.0
  0
SPLINE
  5
1E7
330
1D9
100
AcDbEntity
  8
0
  6
Continuous
 62
     0
370
    30
100
AcDbSpline
210
0.0
220
0.0
230
1.0
 70
     8
 71
     3
 72
     9
 73
     5
 74
     0
 42
0.000000001
 43
0.0
 40
30.13375506595425
 40
30.13375506595425
 40
30.13375506595425
 40
30.13375506595425
 40
30.87539920381159
 40
32.93375915073237
 40
32.93375915073237
 40
32.93375915073237
 40
32.93375915073237
 10
403.5826750372109
 20
-64.07353654875337
 30
0.0
 10
403.7605593996436
 20
-64.18297795438227
 30
0.0
 10
404.4381053861354
 20
-64.56551204441243
 30
0.0
 10
405.1318479783466
 20
-64.82819249650913
 30
0.0
 10
405.6407907683941
 20
-64.95281528987289
 30
0.0
  0
SPLINE
  5
1E8
330
1D9
100
AcDbEntity
  8
0
  6
Continuous
 62
     0
370
    30
100
AcDbSpline
210
0.0
220
0.0
230
1.0
 70
     8
 71
     3
 72
    13
 73
     9
 74
     0
 42
0.000000001
 43
0.0
 40
0.0
 40
0.0
 40
0.0
 40
0.0
 40
2.058359946920772
 40
4.116719893841545
 40
6.175079840762317
 40
8.233439787683086
 40
10.29179973460386
 40
10.37081625904478
 40
10.37081625904478
 40
10.37081625904478
 40
10.37081625904478
 10
405.3161174534101
 20
-43.70591283760135
 30
0.0
 10
404.8079876102835
 20
-43.58148910731128
 30
0.0
 10
403.7910047004028
 20
-43.4689137228961
 30
0.0
 10
402.3326273109235
 20
-43.7179624249018
 30
0.0
 10
400.9945395989037
 20
-44.3746537645406
 30
0.0
 10
399.8289276951976
 20
-45.41393858129013
 30
0.0
 10
399.1844253611029
 20
-46.3528806270762
 30
0.0
 10
398.9016743436911
 20
-46.88322078560054
 30
0.0
 10
398.8912838715535
 20
-46.90289739545773
 30
0.0
  0
SPLINE
  5
1E9
330
1D9
100
AcDbEntity
  8
0
  6
Continuous
 62
     0
370
    30
100
AcDbSpline
210
0.0
220
0.0
230
1.0
 70
     8
 71
     3
 72
    23
 73
    19
 74
     0
 42
0.000000001
 43
0.0
 40
32.93375915073237
 40
32.93375915073237
 40
32.93375915073237
 40
32.93375915073237
 40
34.99211909765314
 40
37.05047904457391
 40
39.10883899149468
 40
41.16719893841544
 40
43.22555888533623
 40
45.28391883225699
 40
47.34227877917777
 40
49.40063872609854
 40
51.4589986730193
 40
53.51735861994008
 40
55.57571856686084
 40
57.63407851378163
 40
59.69243846070242
 40
61.75079840762317
 40
63.80915835454392
 40
65.86751830146468
 40
65.86751830146468
 40
65.86751830146468
 40
65.86751830146468
 10
405.6407907683941
 20
-64.95281528987289
 30
0.0
 10
406.1497335584417
 20
-65.0774380832367
 30
0.0
 10
407.1655262314264
 20
-65.18972201908508
 30
0.0
 10
408.624382005412
 20
-64.94079045718752
 30
0.0
 10
409.9623415347506
 20
-64.28406772996627
 30
0.0
 10
411.1279877846756
 20
-63.24479132343856
 30
0.0
 10
412.0765256249623
 20
-61.86290004743125
 30
0.0
 10
412.7715032729137
 20
-60.1914992073755
 30
0.0
 10
413.1862131475725
 20
-58.29481980519441
 30
0.0
 10
413.3047181052469
 20
-56.24575014808752
 30
0.0
 10
413.1224643496884
 20
-54.12303490309824
 30
0.0
 10
412.6464547350281
 20
-52.00824856820645
 30
0.0
 10
411.8949859829359
 20
-49.98266216083456
 30
0.0
 10
410.8969219151009
 20
-48.12411423087471
 30
0.0
 10
409.6906724389021
 20
-46.50404116755664
 30
0.0
 10
408.3223882863716
 20
-45.18465133166865
 30
0.0
 10
406.8454160206383
 20
-44.21683525406485
 30
0.0
 10
405.8242472965367
 20
-43.83033656789135
 30
0.0
 10
405.3161174534101
 20
-43.70591283760135
 30
0.0
  0
SPLINE
  5
1EA
330
1D9
100
AcDbEntity
  8
0
  6
Continuous
 62
     0
370
    30
100
AcDbSpline
210
0.0
220
0.0
230
1.0
 70
    12
 71
     2
 72
     8
 73
     5
 74
     0
 42
0.000000001
 43
0.0
 40
0.0
 40
0.0
 40
0.0
 40
0.5
 40
0.5
 40
1.0
 40
1.0
 40
1.0
 10
414.1332297790377
 20
-151.3692580102982
 30
0.0
 41
1.0
 10
463.2642097158154
 20
-163.3997653289086
 30
0.0
 41
0.7071067811865471
 10
462.2385386781024
 20
-96.27896580315493
 30
0.0
 41
1.0
 10
461.2128676403894
 20
-29.15816627740128
 30
0.0
 41
0.7071067811865471
 10
412.0818877036118
 20
-17.1276589587909
 30
0.0
 41
1.0
  0
SPLINE
  5
1EB
330
1D9
100
AcDbEntity
  8
0
  6
Continuous
 62
     0
370
    30
100
AcDbSpline
210
0.0
220
0.0
230
1.0
 70
    12
 71
     2
 72
     6
 73
     3
 74
     0
 42
0.000000001
 43
0.0
 40
0.8677167055315479
 40
0.8677167055315479
 40
0.8677167055315479
 40
1.0
 40
1.0
 40
1.0
 10
394.9126540527275
 20
-141.3801147902482
 30
0.0
 41
0.8860228832200197
 10
404.1699062976423
 20
-148.9295786834284
 30
0.0
 41
0.9225102401757745
 10
414.1332297790377
 20
-151.3692580102982
 30
0.0
 41
1.0
  0
SPLINE
  5
1EC
330
1D9
100
AcDbEntity
  8
0
  6
Continuous
 62
     0
370
    30
100
AcDbSpline
210
0.0
220
0.0
230
1.0
 70
    12
 71
     2
 72
     8
 73
     5
 74
     0
 42
0.000000001
 43
0.0
 40
0.0
 40
0.0
 40
0.0
 40
0.5
 40
0.5
 40
0.6428733053257458
 40
0.6428733053257458
 40
0.6428733053257458
 10
412.0818877036118
 20
-17.1276589587909
 30
0.0
 41
1.0
 10
362.9509077668341
 20
-5.097151640180556
 30
0.0
 41
0.7071067811865471
 10
363.9765788045471
 20
-72.21795116593415
 30
0.0
 41
1.0
 10
364.2027479170666
 20
-87.01865344001465
 30
0.0
 41
0.9163067554412501
 10
368.9642815858981
 20
-101.5624516630753
 30
0.0
 41
0.8804436328166785
  0
SPLINE
  5
1ED
330
1D9
100
AcDbEntity
  8
0
  6
Continuous
 62
     0
370
    30
100
AcDbSpline
210
0.0
220
0.0
230
1.0
 70
    12
 71
     2
 72
     6
 73
     3
 74
     0
 42
0.000000001
 43
0.0
 40
0.879896848893581
 40
0.879896848893581
 40
0.879896848893581
 40
1.0
 40
1.0
 40
1.0
 10
407.4730706607817
 20
-77.3211302698178
 30
0.0
 41
0.8930897372083435
 10
410.1339790469063
 20
-76.59272032477311
 30
0.0
 41
0.929645202965605
 10
413.0013005399796
 20
-77.29482991533322
 30
0.0
 41
1.0
  0
SPLINE
  5
1EE
330
1D9
100
AcDbEntity
  8
0
  6
Continuous
 62
     0
370
    30
100
AcDbSpline
210
0.0
220
0.0
230
1.0
 70
    12
 71
     2
 72
     8
 73
     5
 74
     0
 42
0.000000001
 43
0.0
 40
0.0
 40
0.0
 40
0.0
 40
0.5
 40
0.5
 40
0.8800019335012078
 40
0.8800019335012078
 40
0.8800019335012078
 10
413.0013005399796
 20
-77.29482991533322
 30
0.0
 41
1.0
 10
428.694959943206
 20
-81.13767376964364
 30
0.0
 41
0.707106781186548
 10
429.0225848337808
 20
-102.5777298805723
 30
0.0
 41
1.0
 10
429.249066548797
 20
-117.398889132319
 30
0.0
 41
0.7774000210829918
 10
419.1799331196665
 20
-120.1499673714715
 30
0.0
 41
0.8931537317091485
  0
SPLINE
  5
1EF
330
1D9
100
AcDbEntity
  8
0
  6
Continuous
 62
     0
370
    30
100
AcDbSpline
210
0.0
220
0.0
230
1.0
 70
    12
 71
     2
 72
     6
 73
     3
 74
     0
 42
0.000000001
 43
0.0
 40
0.880001908135818
 40
0.880001908135818
 40
0.880001908135818
 40
1.0
 40
1.0
 40
1.0
 10
409.7213987549629
 20
-41.76693176475438
 30
0.0
 41
0.8931537162558707
 10
411.0388024966719
 20
-41.40699190746322
 30
0.0
 41
0.9297067452448549
 10
412.458210631279
 20
-41.75455672244269
 30
0.0
 41
1.0
  0
SPLINE
  5
1F0
330
1D9
100
AcDbEntity
  8
0
  6
Continuous
 62
     0
370
    30
100
AcDbSpline
210
0.0
220
0.0
230
1.0
 70
    12
 71
     2
 72
     8
 73
     5
 74
     0
 42
0.000000001
 43
0.0
 40
0.0
 40
0.0
 40
0.0
 40
0.5
 40
0.5
 40
0.8800019191322371
 40
0.8800019191322371
 40
0.8800019191322371
 10
412.458210631279
 20
-41.75455672244269
 30
0.0
 41
1.0
 10
420.2343481734182
 20
-43.65866854214605
 30
0.0
 41
0.707106781186548
 10
420.3966848309103
 20
-54.2821197682818
 30
0.0
 41
1.0
 10
420.5089054950544
 20
-61.62593705833901
 30
0.0
 41
0.77740002950014
 10
415.5196955712483
 20
-62.98908420107089
 30
0.0
 41
0.8931537229551847
  0
SPLINE
  5
1F1
330
1D9
100
AcDbEntity
  8
0
  6
Continuous
 62
     0
370
    30
100
AcDbSpline
210
0.0
220
0.0
230
1.0
 70
    12
 71
     2
 72
     8
 73
     5
 74
     0
 42
0.000000001
 43
0.0
 40
0.0
 40
0.0
 40
0.0
 40
0.25
 40
0.25
 40
0.5
 40
0.5
 40
0.5
 10
414.4941776872159
 20
-151.7555403690616
 30
0.0
 41
1.0
 10
463.9786184213635
 20
-163.8725982249312
 30
0.0
 41
0.707106781186548
 10
462.9455684446737
 20
-96.26891455253505
 30
0.0
 41
1.0
 10
461.9125184679837
 20
-28.66523088013886
 30
0.0
 41
0.707106781186548
 10
412.4280777338362
 20
-16.54817302426926
 30
0.0
 41
1.0
  0
SPLINE
  5
1F2
330
1D9
100
AcDbEntity
  8
0
  6
Continuous
 62
     0
370
    30
100
AcDbSpline
210
0.0
220
0.0
230
1.0
 70
    12
 71
     2
 72
     6
 73
     3
 74
     0
 42
0.000000001
 43
0.0
 40
0.9330229326021444
 40
0.9330229326021444
 40
0.9330229326021444
 40
1.0
 40
1.0
 40
1.0
 10
394.8902248242507
 20
-141.4936173336769
 30
0.0
 41
0.8851076975163636
 10
404.321632913046
 20
-149.2646298577706
 30
0.0
 41
0.9215314845726262
 10
414.4941776872159
 20
-151.7555403690616
 30
0.0
 41
1.0
  0
SPLINE
  5
1F3
330
1D9
100
AcDbEntity
  8
0
  6
Continuous
 62
     0
370
    30
100
AcDbSpline
210
0.0
220
0.0
230
1.0
 70
    12
 71
     2
 72
     6
 73
     3
 74
     0
 42
0.000000001
 43
0.0
 40
0.5
 40
0.5
 40
0.5
 40
0.7463184343829649
 40
0.7463184343829649
 40
0.7463184343829649
 10
412.4280777338362
 20
-16.54817302426926
 30
0.0
 41
1.0
 10
363.9679557687008
 20
-4.681936024467437
 30
0.0
 41
0.7114200036019335
 10
363.9659050861076
 20
-70.62358503524081
 30
0.0
 41
0.991500590459974
  0
ELLIPSE
  5
1F4
330
1D9
100
AcDbEntity
  8
0
  6
Continuous
 62
     0
370
    30
100
AcDbEllipse
 10
420.532499
 20
-82.219823
 30
0.0
 11
18.44910013218705
 21
-67.52493364400594
 31
0.0
210
0.0
220
0.0
230
1.0
 40
0.680168
 41
-0.0000000068560091
 42
2.780500352391457
  0
ELLIPSE
  5
1F5
330
1D9
100
AcDbEntity
  8
0
  6
Continuous
 62
     0
370
    30
100
AcDbEllipse
 10
420.532499
 20
-82.219823
 30
0.0
 11
18.44910013218705
 21
-67.52493364400594
 31
0.0
210
0.0
220
0.0
230
1.0
 40
0.680168
 41
2.780500352391457
 42
3.141592646733784
  0
ELLIPSE
  5
1F6
330
1D9
100
AcDbEntity
  8
0
  6
Continuous
 62
     0
370
    30
100
AcDbEllipse
 10
406.121
 20
-100.704229
 30
0.0
 11
-5.337068756214886
 21
19.53402664817049
 31
0.0
210
0.0
220
0.0
230
-1.0
 40
0.680168
 41
6.162635837271397
 42
8.937842750195117
  0
ELLIPSE
  5
1F7
330
1D9
100
AcDbEntity
  8
0
  6
Continuous
 62
     0
370
    30
100
AcDbEllipse
 10
406.121
 20
-100.704229
 30
0.0
 11
-5.851008710517061
 21
21.41508106614247
 31
0.0
210
0.0
220
0.0
230
-1.0
 40
0.680168
 41
0.3610835306156533
 42
3.278599980129679
  0
ELLIPSE
  5
1F8
330
1D9
100
AcDbEntity
  8
0
  6
Continuous
 62
     0
370
    30
100
AcDbEllipse
 10
406.121
 20
-100.704229
 30
0.0
 11
-5.851008710517061
 21
21.41508106614247
 31
0.0
210
0.0
220
0.0
230
-1.0
 40
0.680168
 41
6.006841222165446
 42
6.64426883779524
  0
SPLINE
  5
1F9
330
1D9
100
AcDbEntity
  8
0
  6
Continuous
 62
     0
370
     0
100
AcDbSpline
210
0.0
220
0.0
230
1.0
 70
     8
 71
     3
 72
    14
 73
    10
 74
     0
 42
0.000000001
 43
0.0
 40
0.0
 40
0.0
 40
0.0
 40
0.0
 40
4.985091455020036
 40
9.97014746998742
 40
14.95499429598457
 40
19.93965986576175
 40
24.92412306109085
 40
29.90843907769888
 40
34.89265281904024
 40
34.89265281904024
 40
34.89265281904024
 40
34.89265281904024
 10
400.3139785712135
 20
-110.5047330702958
 30
0.0
 10
400.5024243244169
 20
-108.8707088680643
 30
0.0
 10
400.6028113427996
 20
-105.5253658268966
 30
0.0
 10
399.9743252916065
 20
-100.5594666038474
 30
0.0
 10
398.5785173440415
 20
-95.87841784438126
 30
0.0
 10
396.4821813287358
 20
-91.72108164734772
 30
0.0
 10
393.7831747186773
 20
-88.30303708161267
 30
0.0
 10
390.6184752414644
 20
-85.80893202691311
 30
0.0
 10
388.3010127252935
 20
-84.85196998658606
 30
0.0
 10
387.1265299500586
 20
-84.56437908701909
 30
0.0
  0
ARC
  5
1FA
330
1D9
100
AcDbEntity
  8
0
  6
Continuous
 62
     0
370
     0
100
AcDbCircle
 10
384.441937
 20
-95.41141
 30
0.0
 40
11.17430633200117
100
AcDbArc
 50
76.098883
 51
105.365199
  0
ARC
  5
1FB
330
1D9
100
AcDbEntity
  8
0
  6
Continuous
 62
     0
370
    30
100
AcDbCircle
 10
410.725664
 20
-105.444206
 30
0.0
 40
8.775102367584163
100
AcDbArc
 50
0.301687
 51
21.884909
  0
LINE
  5
1FC
330
1D9
100
AcDbEntity
  8
0
  6
Continuous
 62
     0
370
     0
100
AcDbLine
 10
401.872672
 20
-113.44449
 30
0.0
 11
400.642444
 21
-113.754841
 31
0.0
  0
SPLINE
  5
1FD
330
1D9
100
AcDbEntity
  8
0
  6
Continuous
 62
     0
370
     0
100
AcDbSpline
210
0.0
220
0.0
230
1.0
 70
     8
 71
     3
 72
    11
 73
     7
 74
     0
 42
0.000000001
 43
0.0
 40
0.0
 40
0.0
 40
0.0
 40
0.0
 40
1.612020921592821
 40
3.224116834552438
 40
6.448183379388234
 40
8.928302366291248
 40
8.928302366291248
 40
8.928302366291248
 40
8.928302366291248
 10
400.6424442723802
 20
-113.7548409606558
 30
0.0
 10
400.5427761169831
 20
-114.2696290741555
 30
0.0
 10
400.2895201008908
 20
-115.2797812852565
 30
0.0
 10
399.8362830534197
 20
-117.3144147978969
 30
0.0
 10
399.2885618866362
 20
-119.6108130453296
 30
0.0
 10
398.8624648565304
 20
-121.4013186895178
 30
0.0
 10
398.677616931829
 20
-122.1799482008535
 30
0.0
  0
SPLINE
  5
1FE
330
1D9
100
AcDbEntity
  8
0
  6
Continuous
 62
     0
370
     0
100
AcDbSpline
210
0.0
220
0.0
230
1.0
 70
     8
 71
     3
 72
     8
 73
     4
 74
     0
 42
0.000000001
 43
0.0
 40
0.0
 40
0.0
 40
0.0
 40
0.0
 40
3.675194520389776
 40
3.675194520389776
 40
3.675194520389776
 40
3.675194520389776
 10
399.6117434323988
 20
-114.0317323423306
 30
0.0
 10
399.845677504025
 20
-112.8560329541098
 30
0.0
 10
400.1678532278016
 20
-111.7094435676052
 30
0.0
 10
400.3139479875719
 20
-110.5047252435442
 30
0.0
  0
ARC
  5
1FF
330
1D9
100
AcDbEntity
  8
0
  6
Continuous
 62
     0
370
     0
100
AcDbCircle
 10
395.273641
 20
-130.948013
 30
0.0
 40
4.464683838878369
100
AcDbArc
 50
271.042571
 51
280.687826
  0
LINE
  5
200
330
1D9
100
AcDbEntity
  8
0
  6
Continuous
 62
     0
370
     0
100
AcDbLine
 10
399.611749
 20
-114.031734
 30
0.0
 11
395.354877
 21
-135.411958
 31
0.0
  0
LINE
  5
201
330
1D9
100
AcDbEntity
  8
0
  6
Continuous
 62
     0
370
     0
100
AcDbLine
 10
395.354877
 20
-135.411958
 30
0.0
 11
389.339383
 21
-165.62833
 31
0.0
  0
SPLINE
  5
202
330
1D9
100
AcDbEntity
  8
0
  6
Continuous
 62
     0
370
     0
100
AcDbSpline
210
0.0
220
0.0
230
1.0
 70
     8
 71
     7
 72
    21
 73
    13
 74
     0
 42
0.000000001
 43
0.0
 40
0.0
 40
0.0
 40
0.0
 40
0.0
 40
0.0
 40
0.0
 40
0.0
 40
0.0
 40
0.4874999999999879
 40
0.4874999999999879
 40
0.4874999999999879
 40
0.4874999999999879
 40
0.4874999999999879
 40
0.6923821126654737
 40
0.6923821126654737
 40
0.6923821126654737
 40
0.6923821126654737
 40
0.6923821126654737
 40
0.6923821126654737
 40
0.6923821126654737
 40
0.6923821126654737
 10
389.3393834000067
 20
-165.6283300599253
 30
0.0
 10
389.4530452694185
 20
-165.6259161730615
 30
0.0
 10
389.5630646689754
 20
-165.6227110909237
 30
0.0
 10
389.6686436637804
 20
-165.6184951987367
 30
0.0
 10
389.7686447421291
 20
-165.6129409336897
 30
0.0
 10
389.8613939046127
 20
-165.605632546116
 30
0.0
 10
389.97899561747
 20
-165.591665120047
 30
0.0
 10
390.0641590016505
 20
-165.5698811137979
 30
0.0
 10
390.0860602816161
 20
-165.5626495090441
 30
0.0
 10
390.1041236170395
 20
-165.5545232424899
 30
0.0
 10
390.1176464373202
 20
-165.5453620703483
 30
0.0
 10
390.1258395730363
 20
-165.5350442693771
 30
0.0
 10
390.1281101613879
 20
-165.5235183440069
 30
0.0
  0
SPLINE
  5
203
330
1D9
100
AcDbEntity
  8
0
  6
Continuous
 62
     0
370
     0
100
AcDbSpline
210
0.0
220
0.0
230
1.0
 70
     8
 71
     3
 72
     8
 73
     4
 74
     0
 42
0.000000001
 43
0.0
 40
0.0
 40
0.0
 40
0.0
 40
0.0
 40
3.65322244306401
 40
3.65322244306401
 40
3.65322244306401
 40
3.65322244306401
 10
398.3168445268894
 20
-110.3037549475611
 30
0.0
 10
398.1728583430442
 20
-111.5008729984541
 30
0.0
 10
397.8515107373611
 20
-112.6412428266511
 30
0.0
 10
397.6186684947036
 20
-113.8095154552462
 30
0.0
  0
LINE
  5
204
330
1D9
100
AcDbEntity
  8
0
  6
Continuous
 62
     0
370
     0
100
AcDbLine
 10
397.618668
 20
-113.809515
 30
0.0
 11
387.365979
 21
-165.27982
 31
0.0
  0
SPLINE
  5
205
330
1D9
100
AcDbEntity
  8
0
  6
Continuous
 62
     0
370
     0
100
AcDbSpline
210
0.0
220
0.0
230
1.0
 70
     8
 71
     3
 72
    14
 73
    10
 74
     0
 42
0.000000001
 43
0.0
 40
0.0
 40
0.0
 40
0.0
 40
0.0
 40
3.357648776850982
 40
6.714049718873458
 40
10.06778576981202
 40
13.41760088284158
 40
16.76445100048879
 40
20.11421126264104
 40
23.46800661547982
 40
23.46800661547982
 40
23.46800661547982
 40
23.46800661547982
 10
387.3659792656754
 20
-165.2798203452229
 30
0.0
 10
387.1505190315013
 20
-166.3529787303004
 30
0.0
 10
386.6472102989891
 20
-168.4723031050496
 30
0.0
 10
385.6241184423308
 20
-171.4989815605966
 30
0.0
 10
384.2529001676106
 20
-174.2486737719605
 30
0.0
 10
382.4599843596543
 20
-176.4963037172574
 30
0.0
 10
380.2610277144012
 20
-177.9152426420486
 30
0.0
 10
377.8622393050057
 20
-178.3767324660066
 30
0.0
 10
376.2556431522272
 20
-178.1685403733544
 30
0.0
 10
375.4653528725764
 20
-177.9750259272341
 30
0.0
  0
SPLINE
  5
206
330
1D9
100
AcDbEntity
  8
0
  6
Continuous
 62
     0
370
     0
100
AcDbSpline
210
0.0
220
0.0
230
1.0
 70
     8
 71
     3
 72
    44
 73
    40
 74
     0
 42
0.000000001
 43
0.0
 40
0.0000895826433184
 40
0.0000895826433184
 40
0.0000895826433184
 40
0.0000895826433184
 40
1.455705552506579
 40
2.911589491455752
 40
5.824081540223627
 40
8.738562618644004
 40
11.65580985319745
 40
14.57578990662235
 40
16.03659608486232
 40
17.49778930288207
 40
20.42097080381651
 40
23.34485787363343
 40
29.19406413399674
 40
35.04490031177655
 40
40.89750583144499
 40
46.75217532138652
 40
52.60924050521431
 40
58.46889873474117
 40
61.39961580462718
 40
64.3307164339991
 40
67.26188709626257
 40
67.99463745970205
 40
68.72736871185101
 40
69.46006464945697
 40
70.192677557325
 40
70.92522637029062
 40
71.65766554636134
 40
72.38986921751011
 40
73.12154096573981
 40
73.85284092927583
 40
74.58380294677747
 40
76.04479523316759
 40
78.96357029080804
 40
81.87875183536413
 40
84.79115651375291
 40
87.70151606648814
 40
90.61036732559818
 40
92.064314958274
 40
93.51784755774796
 40
93.51784755774796
 40
93.51784755774796
 40
93.51784755774796
 10
375.4653528725764
 20
-177.9750259272341
 30
0.0
 10
375.4673850204925
 20
-177.5041297058263
 30
0.0
 10
375.4714499963814
 20
-176.5622504977558
 30
0.0
 10
375.4994732704378
 20
-174.6732015442509
 30
0.0
 10
375.5792530381725
 20
-172.301218552502
 30
0.0
 10
375.7536322945323
 20
-169.4395891257225
 30
0.0
 10
375.9920581004051
 20
-166.5667459373086
 30
0.0
 10
376.227071142082
 20
-164.1671894460237
 30
0.0
 10
376.4272943459564
 20
-162.2454115366729
 30
0.0
 10
376.6291413718437
 20
-160.3221552441772
 30
0.0
 10
376.8745888283001
 20
-157.916974623416
 30
0.0
 10
377.2663819227365
 20
-154.0674849107115
 30
0.0
 10
377.7463198999367
 20
-149.2555226413849
 30
0.0
 10
378.3217818625769
 20
-143.4819408561382
 30
0.0
 10
378.9037748772035
 20
-137.7075585787997
 30
0.0
 10
379.5017545385693
 20
-131.9310418964975
 30
0.0
 10
380.1251028763028
 20
-126.1511918215892
 30
0.0
 10
380.6728638615899
 20
-121.3318612976296
 30
0.0
 10
381.1329594723761
 20
-117.4749654712373
 30
0.0
 10
381.489822256283
 20
-114.5819313720331
 30
0.0
 10
381.7671140977104
 20
-112.4127428932429
 30
0.0
 10
381.9564126187809
 20
-110.9671420633346
 30
0.0
 10
382.0519226145765
 20
-110.2445249783692
 30
0.0
 10
382.1483163080651
 20
-109.5221047633227
 30
0.0
 10
382.2456279721346
 20
-108.799832400233
 30
0.0
 10
382.3438623937266
 20
-108.0778233318004
 30
0.0
 10
382.4430232008705
 20
-107.3560741743482
 30
0.0
 10
382.5431021912917
 20
-106.6347246406719
 30
0.0
 10
382.6441740148054
 20
-105.9133578391049
 30
0.0
 10
382.7461919621705
 20
-105.1924099349916
 30
0.0
 10
382.8835182194273
 20
-104.2317686736836
 30
0.0
 10
383.1271480652886
 20
-102.5523395404148
 30
0.0
 10
383.4874167150875
 20
-100.1559890472294
 30
0.0
 10
383.9316648903879
 20
-97.28462487441925
 30
0.0
 10
384.4129421489122
 20
-94.42011347538593
 30
0.0
 10
384.9357387566311
 20
-91.56340046186324
 30
0.0
 10
385.4057675797874
 20
-89.18951850866412
 30
0.0
 10
385.7986348889187
 20
-87.29435347420284
 30
0.0
 10
385.9999096205843
 20
-86.34803214125921
 30
0.0
 10
386.1005326959356
 20
-85.87493903287213
 30
0.0
  0
SPLINE
  5
207
330
1D9
100
AcDbEntity
  8
0
  6
Continuous
 62
     0
370
     0
100
AcDbSpline
210
0.0
220
0.0
230
1.0
 70
     8
 71
     3
 72
    14
 73
    10
 74
     0
 42
0.000000001
 43
0.0
 40
0.0
 40
0.0
 40
0.0
 40
0.0
 40
4.69023605813217
 40
9.37981662551812
 40
14.07059875637071
 40
18.76087985973197
 40
23.45161344181452
 40
28.14254872602786
 40
32.83347914028615
 40
32.83347914028615
 40
32.83347914028615
 40
32.83347914028615
 10
386.1005332607982
 20
-85.87493917119096
 30
0.0
 10
387.2057434393275
 20
-86.14556755948226
 30
0.0
 10
389.383200622067
 20
-87.04728907031722
 30
0.0
 10
392.3456356104406
 20
-89.3984009750721
 30
0.0
 10
394.8605631074126
 20
-92.61935424297172
 30
0.0
 10
396.8003323258026
 20
-96.53558221223471
 30
0.0
 10
398.075209249311
 20
-100.942928401212
 30
0.0
 10
398.6290869838559
 20
-105.6164586601058
 30
0.0
 10
398.5017303857627
 20
-108.7665921927742
 30
0.0
 10
398.3168445268911
 20
-110.3037549475507
 30
0.0
  0
ARC
  5
208
330
1D9
100
AcDbEntity
  8
0
  6
Continuous
 62
     0
370
     0
100
AcDbCircle
 10
389.464796
 20
-159.156677
 30
0.0
 40
6.472868035134248
100
AcDbArc
 50
251.079771
 51
268.889751
  0
SPLINE
  5
209
330
1D9
100
AcDbEntity
  8
0
  6
Continuous
 62
     0
370
     0
100
AcDbSpline
210
0.0
220
0.0
230
1.0
 70
     8
 71
     3
 72
    11
 73
     7
 74
     0
 42
0.000000001
 43
0.0
 40
0.000713662845324
 40
0.000713662845324
 40
0.000713662845324
 40
0.000713662845324
 40
0.5084500319120784
 40
1.016900063497111
 40
1.525350094755094
 40
2.033800125686031
 40
2.033800125686031
 40
2.033800125686031
 40
2.033800125686031
 10
386.1005332094218
 20
-85.87493916223568
 30
0.0
 10
386.1341920297157
 20
-85.71774073910939
 30
0.0
 10
386.2363566484213
 20
-85.40712196179604
 30
0.0
 10
386.477717793035
 20
-85.00630345634733
 30
0.0
 10
386.7840195212214
 20
-84.70734927210779
 30
0.0
 10
387.0126371596704
 20
-84.59549677023341
 30
0.0
 10
387.1265299500586
 20
-84.56437908701906
 30
0.0
  0
SPLINE
  5
20A
330
1D9
100
AcDbEntity
  8
0
  6
Continuous
 62
     0
370
     0
100
AcDbSpline
210
0.0
220
0.0
230
1.0
 70
     8
 71
     3
 72
    11
 73
     7
 74
     0
 42
0.000000001
 43
0.0
 40
0.0019290809839787
 40
0.0019290809839787
 40
0.0019290809839787
 40
0.0019290809839787
 40
0.5463209375278026
 40
1.092641876796971
 40
1.638962817807508
 40
2.185283760559417
 40
2.185283760559417
 40
2.185283760559417
 40
2.185283760559417
 10
375.4653435182901
 20
-177.9750236736037
 30
0.0
 10
375.4647765910344
 20
-178.1511171924902
 30
0.0
 10
375.5096300581533
 20
-178.4960710250789
 30
0.0
 10
375.7072328143029
 20
-178.9147216854076
 30
0.0
 10
376.0106065486677
 20
-179.1857463806304
 30
0.0
 10
376.2596815770085
 20
-179.2447044862166
 30
0.0
 10
376.3868077822311
 20
-179.2420046367029
 30
0.0
  0
SPLINE
  5
20B
330
1D9
100
AcDbEntity
  8
0
  6
Continuous
 62
     0
370
     0
100
AcDbSpline
210
0.0
220
0.0
230
1.0
 70
     8
 71
     3
 72
     8
 73
     4
 74
     0
 42
0.000000001
 43
0.0
 40
0.0
 40
0.0
 40
0.0
 40
0.0
 40
3.653222443064019
 40
3.653222443064019
 40
3.653222443064019
 40
3.653222443064019
 10
369.0737326448286
 20
-103.1431111053238
 30
0.0
 10
368.9459887655181
 20
-104.3442063443659
 30
0.0
 10
368.9873658140406
 20
-105.5733951078473
 30
0.0
 10
368.9462598741571
 20
-106.7886174380013
 30
0.0
  0
LINE
  5
20C
330
1D9
100
AcDbEntity
  8
0
  6
Continuous
 62
     0
370
     0
100
AcDbLine
 10
368.94626
 20
-106.788617
 30
0.0
 11
367.07151
 21
-160.310395
 31
0.0
  0
SPLINE
  5
20D
330
1D9
100
AcDbEntity
  8
0
  6
Continuous
 62
     0
370
     0
100
AcDbSpline
210
0.0
220
0.0
230
1.0
 70
     8
 71
     3
 72
    14
 73
    10
 74
     0
 42
0.000000001
 43
0.0
 40
0.0
 40
0.0
 40
0.0
 40
0.0
 40
4.690236058045281
 40
9.379816625478343
 40
14.07059875641934
 40
18.76087985972481
 40
23.45161344182407
 40
28.14254872603607
 40
32.83347914028536
 40
32.83347914028536
 40
32.83347914028536
 40
32.83347914028536
 10
386.1005332609195
 20
-85.87493917122063
 30
0.0
 10
384.9953240040546
 20
-85.60431099343052
 30
0.0
 10
382.7353603231535
 20
-85.41945900585262
 30
0.0
 10
379.4077307552283
 20
-86.23034796122246
 30
0.0
 10
376.3084411211936
 20
-88.07657033547923
 30
0.0
 10
373.5965369046625
 20
-90.85376163623968
 30
0.0
 10
371.4018106973999
 20
-94.41151998398243
 30
0.0
 10
369.8333937717009
 20
-98.5653724380283
 30
0.0
 10
369.2377625274964
 20
-101.6008414310614
 30
0.0
 10
369.0737326448295
 20
-103.143111105313
 30
0.0
  0
ARC
  5
20E
330
1D9
100
AcDbEntity
  8
0
  6
Continuous
 62
     0
370
     0
100
AcDbCircle
 10
369.097226
 20
-102.739211
 30
0.0
 40
0.4045806248778157
100
AcDbArc
 50
216.945192
 51
266.677425
  0
SPLINE
  5
20F
330
1D9
100
AcDbEntity
  8
0
  6
Continuous
 62
     0
370
     0
100
AcDbSpline
210
0.0
220
0.0
230
1.0
 70
     8
 71
     3
 72
    13
 73
     9
 74
     0
 42
0.000000001
 43
0.0
 40
5.572406388775753
 40
5.572406388775753
 40
5.572406388775753
 40
5.572406388775753
 40
8.607970033122818
 40
12.91498592349899
 40
17.22299639511789
 40
21.53124926575671
 40
25.83887154380673
 40
30.14462411466932
 40
30.14462411466932
 40
30.14462411466932
 40
30.14462411466932
 10
398.8031191758279
 20
-125.5036112612228
 30
0.0
 10
399.2534734015767
 20
-125.3804621390479
 30
0.0
 10
400.2175475682926
 20
-124.9530268498606
 30
0.0
 10
401.3010853626428
 20
-123.8160654911908
 30
0.0
 10
402.0037661262752
 20
-122.0142969617793
 30
0.0
 10
402.2863191594993
 20
-119.703745260179
 30
0.0
 10
402.2269123148286
 20
-116.891387379547
 30
0.0
 10
402.010070276664
 20
-114.6679405112791
 30
0.0
 10
401.8759692830184
 20
-113.4745204351825
 30
0.0
  0
LINE
  5
210
330
1D9
100
AcDbEntity
  8
0
  6
Continuous
 62
     0
370
     0
100
AcDbLine
 10
401.875969
 20
-113.47452
 30
0.0
 11
401.872493
 21
-113.444508
 31
0.0
  0
ARC
  5
211
330
1D9
100
AcDbEntity
  8
0
  6
Continuous
 62
     0
370
     0
100
AcDbCircle
 10
400.350891
 20
-100.115068
 30
0.0
 40
10.3897304056939
100
AcDbArc
 50
258.710199
 51
269.796441
  0
LINE
  5
212
330
1D9
100
AcDbEntity
  8
0
  6
Continuous
 62
     0
370
     0
100
AcDbLine
 10
401.872493
 20
-113.444508
 30
0.0
 11
401.823515
 21
-113.053506
 31
0.0
  0
ARC
  5
213
330
1D9
100
AcDbEntity
  8
0
  6
Continuous
 62
     0
370
     0
100
AcDbCircle
 10
377.876172
 20
-116.285606
 30
0.0
 40
24.16447119550542
100
AcDbArc
 50
7.686587
 51
14.202231
  0
LINE
  5
214
330
1D9
100
AcDbEntity
  8
0
  6
Continuous
 62
     0
370
     0
100
AcDbLine
 10
401.302076
 20
-110.35697
 30
0.0
 11
400.313979
 21
-110.504733
 31
0.0
  0
ARC
  5
215
330
1D9
100
AcDbEntity
  8
0
  6
Continuous
 62
     0
370
     0
100
AcDbCircle
 10
399.691404
 20
-104.2666
 30
0.0
 40
9.765458905815525
100
AcDbArc
 50
257.744946
 51
269.532643
  0
SPLINE
  5
216
330
1D9
100
AcDbEntity
  8
0
  6
Continuous
 62
     0
370
     0
100
AcDbSpline
210
0.0
220
0.0
230
1.0
 70
     8
 71
     3
 72
    14
 73
    10
 74
     0
 42
0.000000001
 43
0.0
 40
0.0
 40
0.0
 40
0.0
 40
0.0
 40
3.357659727039302
 40
6.714168333140132
 40
10.06786817318082
 40
13.41762334460882
 40
16.76451129115893
 40
20.11429153093614
 40
23.4681086927124
 40
23.4681086927124
 40
23.4681086927124
 40
23.4681086927124
 10
367.071481582128
 20
-160.3103949471939
 30
0.0
 10
367.0353655305364
 20
-161.4274352959663
 30
0.0
 10
367.0329256138021
 20
-163.6695381054461
 30
0.0
 10
367.3207960322616
 20
-167.0170868815094
 30
0.0
 10
367.9979571701826
 20
-170.2685577682184
 30
0.0
 10
369.1879988950312
 20
-173.2465124710634
 30
0.0
 10
370.946794853457
 20
-175.6346892578708
 30
0.0
 10
373.1104644804176
 20
-177.2135160079301
 30
0.0
 10
374.6749501934922
 20
-177.7815395947976
 30
0.0
 10
375.4653620734816
 20
-177.9750282171374
 30
0.0
  0
LINE
  5
217
330
1D9
100
AcDbEntity
  8
0
  6
Continuous
 62
     0
370
     0
100
AcDbLine
 10
400.642617
 20
-113.754912
 30
0.0
 11
399.611743
 21
-114.031732
 31
0.0
  0
ARC
  5
218
330
1D9
100
AcDbEntity
  8
0
  6
Continuous
 62
     0
370
     0
100
AcDbCircle
 10
368.968105
 20
-106.358903
 30
0.0
 40
0.4302788171886124
100
AcDbArc
 50
221.360276
 51
267.06787
  0
SPLINE
  5
219
330
1D9
100
AcDbEntity
  8
0
  6
Continuous
 62
     0
370
     0
100
AcDbSpline
210
0.0
220
0.0
230
1.0
 70
     8
 71
     7
 72
    36
 73
    28
 74
     0
 42
0.000000001
 43
0.0
 40
0.0
 40
0.0
 40
0.0
 40
0.0
 40
0.0
 40
0.0
 40
0.0
 40
0.0
 40
0.11
 40
0.11
 40
0.11
 40
0.11
 40
0.11
 40
0.55
 40
0.55
 40
0.55
 40
0.55
 40
0.55
 40
0.65
 40
0.65
 40
0.65
 40
0.65
 40
0.65
 40
0.77
 40
0.77
 40
0.77
 40
0.77
 40
0.77
 40
1.0
 40
1.0
 40
1.0
 40
1.0
 40
1.0
 40
1.0
 40
1.0
 40
1.0
 10
389.3393834000067
 20
-165.6283300599252
 30
0.0
 10
389.2622602553063
 20
-166.0114079442363
 30
0.0
 10
389.1817631548107
 20
-166.3930987155166
 30
0.0
 10
389.0977151871536
 20
-166.7732542590529
 30
0.0
 10
389.0100785280422
 20
-167.1517726800066
 30
0.0
 10
388.9186396434086
 20
-167.5284662880636
 30
0.0
 10
388.4418148328677
 20
-169.4019630848217
 30
0.0
 10
387.8630687340781
 20
-171.2206385950195
 30
0.0
 10
387.3246113451488
 20
-172.6277519793386
 30
0.0
 10
386.7004263759634
 20
-173.9669212115042
 30
0.0
 10
385.9739986647235
 20
-175.2131974042002
 30
0.0
 10
384.9481137666363
 20
-176.5599870188134
 30
0.0
 10
383.7800435913427
 20
-177.626649012567
 30
0.0
 10
383.5590209888558
 20
-177.814121035089
 30
0.0
 10
383.3334919348865
 20
-177.9910830528936
 30
0.0
 10
383.1037617643867
 20
-178.1573157739537
 30
0.0
 10
382.5897051698843
 20
-178.4986034383253
 30
0.0
 10
382.0582861990326
 20
-178.7855262851105
 30
0.0
 10
381.7638462967104
 20
-178.9256248033734
 30
0.0
 10
381.4654065277689
 20
-179.049031950434
 30
0.0
 10
381.163665531272
 20
-179.1560608679957
 30
0.0
 10
380.2756521369238
 20
-179.4207969925721
 30
0.0
 10
379.369430405103
 20
-179.5510265713952
 30
0.0
 10
378.7700149440172
 20
-179.5813384890503
 30
0.0
 10
378.1702572779425
 20
-179.5601863968656
 30
0.0
 10
377.5720940036387
 20
-179.4944565313843
 30
0.0
 10
376.9773287574715
 20
-179.3866031444854
 30
0.0
 10
376.3868077822311
 20
-179.2420046367029
 30
0.0
  0
SPLINE
  5
21A
330
1D9
100
AcDbEntity
  8
0
  6
Continuous
 62
     0
370
    30
100
AcDbSpline
210
0.0
220
0.0
230
1.0
 70
    12
 71
     2
 72
     6
 73
     3
 74
     0
 42
0.000000001
 43
0.0
 40
0.7524381832684824
 40
0.7524381832684824
 40
0.7524381832684824
 40
0.9400705799089631
 40
0.9400705799089631
 40
0.9400705799089631
 10
419.5006447239223
 20
-105.3980015028775
 30
0.0
 41
0.9943426987825532
 10
419.5752637782025
 20
-119.8349558975204
 30
0.0
 41
0.7788054619710452
 10
409.7400908237291
 20
-122.5152621225517
 30
0.0
 41
0.8932385975537498
  0
SPLINE
  5
21B
330
1D9
100
AcDbEntity
  8
0
  6
Continuous
 62
     0
370
    30
100
AcDbSpline
210
0.0
220
0.0
230
1.0
 70
     8
 71
     3
 72
    12
 73
     8
 74
     0
 42
0.000000001
 43
0.0
 40
24.21015641509616
 40
24.21015641509616
 40
24.21015641509616
 40
24.21015641509616
 40
27.52979576487101
 40
36.69302645961226
 40
45.86094439878418
 40
55.03829037776859
 40
64.2228085122743
 40
64.2228085122743
 40
64.2228085122743
 40
64.2228085122743
 10
393.2337204588779
 20
-81.42793809220913
 30
0.0
 10
393.8584097770343
 20
-81.25630215413074
 30
0.0
 10
396.3716135528788
 20
-80.88896031237103
 30
0.0
 10
401.6489323868285
 20
-82.1812017107226
 30
0.0
 10
408.7291115666675
 20
-87.09517179651539
 30
0.0
 10
414.8844136320034
 20
-94.17988211641489
 30
0.0
 10
417.8040201603337
 20
-99.54958568209858
 30
0.0
 10
418.8683838870248
 20
-102.1733446024218
 30
0.0
  0
ARC
  5
21C
330
1D9
100
AcDbEntity
  8
0
  6
Continuous
 62
     0
370
     0
100
AcDbCircle
 10
367.053881
 20
-159.575121
 30
0.0
 40
0.7354844680000818
100
AcDbArc
 50
246.787089
 51
271.371281
  0
LINE
  5
21D
330
1D9
100
AcDbEntity
  8
0
  6
Continuous
 62
     0
370
    30
100
AcDbLine
 10
419.179934
 20
-120.149967
 30
0.0
 11
411.972008
 21
-122.11931
 31
0.0
  0
LINE
  5
21E
330
1D9
100
AcDbEntity
  8
0
  6
Continuous
 62
     0
370
    30
100
AcDbLine
 10
407.477917
 20
-77.319805
 30
0.0
 11
400.269991
 21
-79.289148
 31
0.0
  0
SPLINE
  5
21F
330
1D9
100
AcDbEntity
  8
0
  6
Continuous
 62
     0
370
    30
100
AcDbSpline
210
0.0
220
0.0
230
1.0
 70
     8
 71
     3
 72
     8
 73
     4
 74
     0
 42
0.000000001
 43
0.0
 40
0.0
 40
0.0
 40
0.0
 40
0.0
 40
0.8196072466749755
 40
0.8196072466749755
 40
0.8196072466749755
 40
0.8196072466749755
 10
399.9589507766614
 20
-81.43715354962669
 30
0.0
 10
399.7035004237225
 20
-81.5330398141674
 30
0.0
 10
399.4498437745585
 20
-81.63413027421237
 30
0.0
 10
399.1982240524836
 20
-81.74031204172499
 30
0.0
  0
SPLINE
  5
220
330
1D9
100
AcDbEntity
  8
0
  6
Continuous
 62
     0
370
    30
100
AcDbSpline
210
0.0
220
0.0
230
1.0
 70
     8
 71
     3
 72
    11
 73
     7
 74
     0
 42
0.000000001
 43
0.0
 40
0.0
 40
0.0
 40
0.0
 40
0.0
 40
6.064588755697626
 40
13.09083333369187
 40
21.25366975613053
 40
26.74339208665419
 40
26.74339208665419
 40
26.74339208665419
 40
26.74339208665419
 10
381.4825353821463
 20
-84.63608095246465
 30
0.0
 10
379.986545795434
 20
-85.04481373565449
 30
0.0
 10
376.8538609981883
 20
-86.56420518723388
 30
0.0
 10
372.6448665518533
 20
-90.91932902662955
 30
0.0
 10
369.8656115661534
 20
-96.77068716569042
 30
0.0
 10
368.971874678344
 20
-101.1807675651068
 30
0.0
 10
368.773892159714
 20
-102.9823857773372
 30
0.0
  0
SPLINE
  5
221
330
1D9
100
AcDbEntity
  8
0
  6
Continuous
 62
     0
370
    30
100
AcDbSpline
210
0.0
220
0.0
230
1.0
 70
     8
 71
     3
 72
    11
 73
     7
 74
     0
 42
0.000000001
 43
0.0
 40
0.0
 40
0.0
 40
0.0
 40
0.0
 40
1.347105510964255
 40
2.021990354128051
 40
3.145765051825118
 40
3.670018163171175
 40
3.670018163171175
 40
3.670018163171175
 40
3.670018163171175
 10
368.6451511160075
 20
-106.6432277109841
 30
0.0
 10
368.6609270932433
 20
-106.1947215278147
 30
0.0
 10
368.6734543704289
 20
-105.5213488188493
 30
0.0
 10
368.6799660032846
 20
-104.4732620263945
 30
0.0
 10
368.6996023139322
 20
-103.7016376511207
 30
0.0
 10
368.755018895711
 20
-103.1539072542269
 30
0.0
 10
368.7738758224778
 20
-102.9824257055239
 30
0.0
  0
LINE
  5
222
330
1D9
100
AcDbEntity
  8
0
  6
Continuous
 62
     0
370
    30
100
AcDbLine
 10
366.763976
 20
-160.251065
 30
0.0
 11
368.645151
 21
-106.643228
 31
0.0
  0
SPLINE
  5
223
330
1D9
100
AcDbEntity
  8
0
  6
Continuous
 62
     0
370
    30
100
AcDbSpline
210
0.0
220
0.0
230
1.0
 70
     8
 71
     3
 72
    13
 73
     9
 74
     0
 42
0.000000001
 43
0.0
 40
0.0
 40
0.0
 40
0.0
 40
0.0
 40
8.621295404933559
 40
13.112219779506
 40
15.94288376330783
 40
18.52021427926705
 40
22.64568584826854
 40
25.02797841564032
 40
25.02797841564032
 40
25.02797841564032
 40
25.02797841564032
 10
366.7639901405356
 20
-160.2510661139792
 30
0.0
 10
366.6813906633467
 20
-163.1078465840193
 30
0.0
 10
366.8540896895957
 20
-167.5556330067431
 30
0.0
 10
368.3976172397118
 20
-172.5327030294165
 30
0.0
 10
369.9473934583377
 20
-175.1722360242535
 30
0.0
 10
371.8356654460217
 20
-177.2416800431325
 30
0.0
 10
373.9816655714183
 20
-178.5519549506841
 30
0.0
 10
375.5971185222521
 20
-179.0754874812637
 30
0.0
 10
376.1951161005315
 20
-179.2211563698807
 30
0.0
  0
ARC
  5
224
330
1D9
100
AcDbEntity
  8
0
  6
Continuous
 62
     0
370
    30
100
AcDbCircle
 10
378.741475
 20
-169.121629
 30
0.0
 40
10.41559704764237
100
AcDbArc
 50
255.839313
 51
270.789909
  0
SPLINE
  5
225
330
1D9
100
AcDbEntity
  8
0
  6
Continuous
 62
     0
370
    30
100
AcDbSpline
210
0.0
220
0.0
230
1.0
 70
     8
 71
     3
 72
    18
 73
    14
 74
     0
 42
0.000000001
 43
0.0
 40
0.0
 40
0.0
 40
0.0
 40
0.0
 40
1.815266685588253
 40
4.244338622403849
 40
6.328690677030835
 40
8.74761568289677
 40
10.11708297708322
 40
11.45154708970386
 40
13.92987511966792
 40
16.50664303425339
 40
18.37129357982658
 40
19.87267936471939
 40
21.72666529510009
 40
21.72666529510009
 40
21.72666529510009
 40
21.72666529510009
 10
378.8904188337514
 20
-179.5362591183515
 30
0.0
 10
379.437295070911
 20
-179.5246448973035
 30
0.0
 10
380.6827318649903
 20
-179.4026478478624
 30
0.0
 10
382.3848480066187
 20
-178.8767813705721
 30
0.0
 10
384.04444943354
 20
-177.9114919832572
 30
0.0
 10
385.276630423576
 20
-176.7948144103865
 30
0.0
 10
386.215561606548
 20
-175.6431472620896
 30
0.0
 10
387.0745403605956
 20
-174.3699814453808
 30
0.0
 10
387.9834082033047
 20
-172.6441828264583
 30
0.0
 10
388.7796539565564
 20
-170.6227186011399
 30
0.0
 10
389.3460037184384
 20
-168.8110032818266
 30
0.0
 10
389.7747503072558
 20
-167.182458701082
 30
0.0
 10
390.011331359788
 20
-166.1163102752845
 30
0.0
 10
390.1281108938102
 20
-165.5235185256353
 30
0.0
  0
SPLINE
  5
226
330
1D9
100
AcDbEntity
  8
0
  6
Continuous
 62
     0
370
    30
100
AcDbSpline
210
0.0
220
0.0
230
1.0
 70
     8
 71
     3
 72
    10
 73
     6
 74
     0
 42
0.000000001
 43
0.0
 40
0.0
 40
0.0
 40
0.0
 40
0.0
 40
9.384726200088306
 40
17.0838426271581
 40
31.46756613558255
 40
31.46756613558255
 40
31.46756613558255
 40
31.46756613558255
 10
390.1281101612992
 20
-165.5235183444582
 30
0.0
 10
390.7188686247968
 20
-162.5247206045755
 30
0.0
 10
391.8062009778257
 20
-157.0569187019625
 30
0.0
 10
393.8006491780144
 20
-146.9907339839183
 30
0.0
 10
395.2021078658286
 20
-139.9346239969346
 30
0.0
 10
396.1016532741602
 20
-135.335237110638
 30
0.0
  0
SPLINE
  5
227
330
1D9
100
AcDbEntity
  8
0
  6
Continuous
 62
     0
370
    30
100
AcDbSpline
210
0.0
220
0.0
230
1.0
 70
     8
 71
     3
 72
    19
 73
    15
 74
     0
 42
0.000000001
 43
0.0
 40
0.0
 40
0.0
 40
0.0
 40
0.0
 40
1.316665544052797
 40
2.602951438162789
 40
3.976391622322754
 40
6.720857243086493
 40
9.446489368851736
 40
10.80470920133273
 40
12.72294103525112
 40
13.39149788308249
 40
13.55374146350793
 40
13.65880120721507
 40
13.72745903771226
 40
13.80645605864103
 40
13.80645605864103
 40
13.80645605864103
 40
13.80645605864103
 10
396.1015275623211
 20
-135.3358108759409
 30
0.0
 10
396.2018301920507
 20
-134.9206778981784
 30
0.0
 10
396.3170039756965
 20
-134.0763074300056
 30
0.0
 10
396.5774939489668
 20
-132.8118547792347
 30
0.0
 10
396.8953248452484
 20
-131.0836999064084
 30
0.0
 10
397.321479853322
 20
-128.9030796695456
 30
0.0
 10
397.7488676069086
 20
-126.7274616377187
 30
0.0
 10
398.1302909836954
 20
-124.8130454258565
 30
0.0
 10
398.3849929671272
 20
-123.5519465338212
 30
0.0
 10
398.5712753764809
 20
-122.6635445485243
 30
0.0
 10
398.638267324569
 20
-122.356346044597
 30
0.0
 10
398.6618404177518
 20
-122.250416737648
 30
0.0
 10
398.6800927792714
 20
-122.1703252712795
 30
0.0
 10
398.6828195494771
 20
-122.158962811454
 30
0.0
 10
398.6810702773086
 20
-122.1663306308795
 30
0.0
  0
LINE
  5
228
330
1D9
100
AcDbEntity
  8
0
  6
Continuous
 62
     0
370
    30
100
AcDbLine
 10
397.94071
 20
-125.765168
 30
0.0
 11
398.803086
 21
-125.503488
 31
0.0
  0
LINE
  5
229
330
1D9
100
AcDbEntity
  8
0
  6
Continuous
 62
     0
370
    30
100
AcDbLine
 10
409.746454
 20
-122.513526
 30
0.0
 11
398.801958
 21
-125.503771
 31
0.0
  0
LINE
  5
22A
330
1D9
100
AcDbEntity
  8
0
  6
Continuous
 62
     0
370
    30
100
AcDbLine
 10
381.482539
 20
-84.636098
 30
0.0
 11
393.233085
 21
-81.425624
 31
0.0
  0
LINE
  5
22B
330
1D9
100
AcDbEntity
  8
0
  6
Continuous
 62
     0
370
    30
100
AcDbLine
 10
409.721399
 20
-41.766932
 30
0.0
 11
402.585766
 21
-43.716523
 31
0.0
  0
LINE
  5
22C
330
1D9
100
AcDbEntity
  8
0
  6
Continuous
 62
     0
370
    30
100
AcDbLine
 10
415.519696
 20
-62.989084
 30
0.0
 11
408.377603
 21
-64.94044
 31
0.0
  0
LINE
  5
22D
330
1D9
100
AcDbEntity
  8
0
  6
Continuous
 62
     0
370
    30
100
AcDbLine
 10
395.034417
 20
-16.620806
 30
0.0
 11
402.083399
 21
-14.694889
 31
0.0
  0
LINE
  5
22E
330
1D9
100
AcDbEntity
  8
0
  6
Continuous
 62
     0
370
    30
100
AcDbLine
 10
431.910228
 20
-151.67679
 30
0.0
 11
438.981599
 21
-149.744757
 31
0.0
  0
LINE
  5
22F
330
1D9
100
AcDbEntity
  8
0
  6
Continuous
 62
     0
370
    30
100
AcDbLine
 10
397.852948
 20
-47.18659
 30
0.0
 11
402.302639
 21
-45.97085
 31
0.0
  0
LINE
  5
230
330
1D9
100
AcDbEntity
  8
0
  6
Continuous
 62
     0
370
    30
100
AcDbLine
 10
402.544397
 20
-64.357214
 30
0.0
 11
406.993988
 21
-63.141501
 31
0.0
  0
SPLINE
  5
231
330
1D9
100
AcDbEntity
  8
0
  6
Continuous
 62
     0
370
    30
100
AcDbSpline
210
0.0
220
0.0
230
1.0
 70
     8
 71
     3
 72
    23
 73
    19
 74
     0
 42
0.000000001
 43
0.0
 40
0.1128918099269372
 40
0.1128918099269372
 40
0.1128918099269372
 40
0.1128918099269372
 40
1.057285055548291
 40
2.684296518535111
 40
4.768586949607562
 40
6.613811833605713
 40
8.334067008185544
 40
10.38651915823542
 40
12.6484837302141
 40
15.11831518267859
 40
17.99849654325609
 40
20.8774085993895
 40
23.34657474720408
 40
26.85120992334455
 40
28.79879847452339
 40
32.05987540086561
 40
33.3959472028102
 40
34.15610694130941
 40
34.15610694130941
 40
34.15610694130941
 40
34.15610694130941
 10
393.1424533251858
 20
-46.34908324636578
 30
0.0
 10
393.3561587158446
 20
-46.29415898248772
 30
0.0
 10
393.9483014427328
 20
-46.18125317368612
 30
0.0
 10
395.0564108341335
 20
-46.16100708124716
 30
0.0
 10
396.4013418545316
 20
-46.45286907548007
 30
0.0
 10
397.746278766433
 20
-47.07531304879947
 30
0.0
 10
399.0280288435287
 20
-47.96834088020461
 30
0.0
 10
400.3063444213975
 20
-49.21196028471877
 30
0.0
 10
401.5667155340553
 20
-50.92400845895548
 30
0.0
 10
402.702744999253
 20
-53.14642129823744
 30
0.0
 10
403.5244083405777
 20
-55.78639658184906
 30
0.0
 10
403.8518840489574
 20
-58.50069769611713
 30
0.0
 10
403.6881465678859
 20
-61.31045482971413
 30
0.0
 10
403.0314328916643
 20
-63.56076184447133
 30
0.0
 10
401.8465669513591
 20
-65.57960097512509
 30
0.0
 10
400.6577019266646
 20
-66.70276080681651
 30
0.0
 10
399.5258776701431
 20
-67.27365541183065
 30
0.0
 10
399.0611505407081
 20
-67.43184829794555
 30
0.0
 10
398.8903082116784
 20
-67.4804206775896
 30
0.0
  0
LINE
  5
232
330
1D9
100
AcDbEntity
  8
0
  6
Continuous
 62
     0
370
    30
100
AcDbLine
 10
388.043867
 20
-47.741481
 30
0.0
 11
393.06639
 21
-46.369232
 31
0.0
  0
LINE
  5
233
330
1D9
100
AcDbEntity
  8
0
  6
Continuous
 62
     0
370
    30
100
AcDbLine
 10
393.815808
 20
-68.867169
 30
0.0
 11
398.838331
 21
-67.49492
 31
0.0
  0
SPLINE
  5
234
330
1D9
100
AcDbEntity
  8
0
  6
Continuous
 62
     0
370
    30
100
AcDbSpline
210
0.0
220
0.0
230
1.0
 70
     8
 71
     3
 72
    11
 73
     7
 74
     0
 42
0.000000001
 43
0.0
 40
0.0
 40
0.0
 40
0.0
 40
0.0
 40
1.332386332854478
 40
2.817318124754915
 40
4.997257290104627
 40
6.408651544956581
 40
6.408651544956581
 40
6.408651544956581
 40
6.408651544956581
 10
406.9943218966439
 20
-63.14139958891585
 30
0.0
 10
407.29637156518
 20
-63.05887387516594
 30
0.0
 10
407.9174727364939
 20
-62.81322436136148
 30
0.0
 10
408.915594086231
 20
-62.12612180886785
 30
0.0
 10
409.7549992735784
 20
-61.12663604196891
 30
0.0
 10
410.2036415467583
 20
-60.24733689141831
 30
0.0
 10
410.3548244972887
 20
-59.88004151735629
 30
0.0
  0
SPLINE
  5
235
330
1D9
100
AcDbEntity
  8
0
  6
Continuous
 62
     0
370
    30
100
AcDbSpline
210
0.0
220
0.0
230
1.0
 70
     8
 71
     3
 72
    11
 73
     7
 74
     0
 42
0.000000001
 43
0.0
 40
0.0
 40
0.0
 40
0.0
 40
0.0
 40
1.332384430539765
 40
2.817333535743734
 40
4.9963908530228
 40
6.409773429478994
 40
6.409773429478994
 40
6.409773429478994
 40
6.409773429478994
 10
402.3023044414208
 20
-45.97095156404066
 30
0.0
 10
402.6043543469976
 20
-45.88842575525538
 30
0.0
 10
403.2639911761787
 20
-45.78390723080068
 30
0.0
 10
404.4726099436964
 20
-45.86788903105889
 30
0.0
 10
405.7039497814081
 20
-46.30150520284823
 30
0.0
 10
406.5376260864691
 20
-46.83057333060276
 30
0.0
 10
406.8550224852673
 20
-47.07031226146066
 30
0.0
  0
SPLINE
  5
236
330
1D9
100
AcDbEntity
  8
0
  6
Continuous
 62
     0
370
    30
100
AcDbSpline
210
0.0
220
0.0
230
1.0
 70
     8
 71
     3
 72
    17
 73
    13
 74
     0
 42
0.000000001
 43
0.0
 40
0.0
 40
0.0
 40
0.0
 40
0.0
 40
1.075726179875236
 40
2.564091933653807
 40
4.415656964423059
 40
6.268425897024414
 40
8.122807735702299
 40
10.18418112503755
 40
12.04178153974541
 40
15.22841921558197
 40
16.52548170355898
 40
17.44889570431073
 40
17.44889570431073
 40
17.44889570431073
 40
17.44889570431073
 10
383.7439531863927
 20
-60.6130733288428
 30
0.0
 10
383.6423066732818
 20
-60.26943833289008
 30
0.0
 10
383.4274425204406
 20
-59.44094625294514
 30
0.0
 10
383.1741864140074
 20
-57.99488815716234
 30
0.0
 10
383.0622802874746
 20
-56.29876819128987
 30
0.0
 10
383.1666277777236
 20
-54.54007073765814
 30
0.0
 10
383.5054254065147
 20
-52.82554610531307
 30
0.0
 10
384.0795138034302
 20
-51.27756963673536
 30
0.0
 10
385.0546738050361
 20
-49.64248972242612
 30
0.0
 10
386.2050220937064
 20
-48.55316594119216
 30
0.0
 10
387.3430261057727
 20
-47.96645617935036
 30
0.0
 10
387.8353765703836
 20
-47.79845667700783
 30
0.0
 10
388.0434557922628
 20
-47.74160547614036
 30
0.0
  0
SPLINE
  5
237
330
1D9
100
AcDbEntity
  8
0
  6
Continuous
 62
     0
370
    30
100
AcDbSpline
210
0.0
220
0.0
230
1.0
 70
     8
 71
     3
 72
    15
 73
    11
 74
     0
 42
0.000000001
 43
0.0
 40
0.0
 40
0.0
 40
0.0
 40
0.0
 40
1.250699881992791
 40
3.450721701841868
 40
5.995113155605867
 40
8.797880611862121
 40
11.26007126074072
 40
13.73090779903651
 40
15.66950410538291
 40
16.78355467307038
 40
16.78355467307038
 40
16.78355467307038
 40
16.78355467307038
 10
393.8162188453243
 20
-68.86704433705299
 30
0.0
 10
393.5344625449532
 20
-68.94402553078422
 30
0.0
 10
392.7380337526952
 20
-69.0915047167068
 30
0.0
 10
391.2974485849622
 20
-69.02843490337867
 30
0.0
 10
389.4743084499375
 20
-68.4062105025921
 30
0.0
 10
387.6795717871952
 20
-67.17401057555745
 30
0.0
 10
386.0948640000161
 20
-65.45872497261234
 30
0.0
 10
384.9148038039879
 20
-63.60053477052614
 30
0.0
 10
384.1718387625153
 20
-61.93383429543306
 30
0.0
 10
383.849218152002
 20
-60.96894117918157
 30
0.0
 10
383.7439531863928
 20
-60.61307332884317
 30
0.0
  0
ENDBLK
  5
239
330
1D9
100
AcDbEntity
  8
0
100
AcDbBlockEnd
  0
ENDSEC
  0
SECTION
  2
ENTITIES
  0
INSERT
  5
B8
330
1F
100
AcDbEntity
  8
0
  6
Continuous
 62
     7
370
     0
100
AcDbBlockReference
  2
a
 10
70.80201
 20
65.188744
 30
0.0
  0
INSERT
  5
117
330
1F
100
AcDbEntity
  8
0
  6
Continuous
 62
     7
370
     0
100
AcDbBlockReference
  2
b
 10
-36.487473
 20
-0.000015
 30
0.0
  0
INSERT
  5
176
330
1F
100
AcDbEntity
  8
0
  6
Continuous
 62
     7
370
     0
100
AcDbBlockReference
  2
c
 10
238.015884
 20
-0.000015
 30
0.0
  0
INSERT
  5
1D8
330
1F
100
AcDbEntity
  8
0
  6
Continuous
 62
     7
370
     0
100
AcDbBlockReference
  2
d
 10
0.000015
 20
-31.124374
 30
0.0
  0
INSERT
  5
23A
330
1F
100
AcDbEntity
  8
0
  6
Continuous
 62
     7
370
     0
100
AcDbBlockReference
  2
e
 10
350.519836
 20
-191.085754
 30
0.0
  0
ENDSEC
  0
SECTION
  2
OBJECTS
  0
DICTIONARY
  5
C
330
0
100
AcDbDictionary
281
     1
  3
ACAD_GROUP
350
D
  3
ACAD_LAYOUT
350
1A
  3
ACAD_MATERIAL
350
43
  3
ACAD_MLEADERSTYLE
350
6B
  3
ACAD_MLINESTYLE
350
17
  3
ACAD_PLOTSETTINGS
350
19
  3
ACAD_PLOTSTYLENAME
350
E
  3
ACAD_SCALELIST
350
47
  3
ACAD_TABLESTYLE
350
69
  3
ACAD_VISUALSTYLE
350
2A
  3
AcDbVariableDictionary
350
23B
  0
DICTIONARY
  5
246
330
8
100
AcDbDictionary
280
     1
281
     1
  3
ACAD_XREC_ROUNDTRIP
360
247
  0
DICTIONARY
  5
D
102
{ACAD_REACTORS
330
C
102
}
330
C
100
AcDbDictionary
281
     1
  0
DICTIONARY
  5
1A
102
{ACAD_REACTORS
330
C
102
}
330
C
100
AcDbDictionary
281
     1
  3
Layout1
350
1E
  3
Layout2
350
26
  3
Model
350
22
  0
DICTIONARY
  5
43
102
{ACAD_REACTORS
330
C
102
}
330
C
100
AcDbDictionary
281
     1
  3
ByBlock
350
45
  3
ByLayer
350
44
  3
Global
350
46
  0
DICTIONARY
  5
6B
102
{ACAD_REACTORS
330
C
102
}
330
C
100
AcDbDictionary
281
     1
  3
Standard
350
6C
  0
DICTIONARY
  5
17
102
{ACAD_REACTORS
330
C
102
}
330
C
100
AcDbDictionary
281
     1
  3
Standard
350
18
  0
DICTIONARY
  5
19
102
{ACAD_REACTORS
330
C
102
}
330
C
100
AcDbDictionary
281
     1
  0
ACDBDICTIONARYWDFLT
  5
E
102
{ACAD_REACTORS
330
C
102
}
330
C
100
AcDbDictionary
281
     1
  3
Normal
350
F
100
AcDbDictionaryWithDefault
340
F
  0
DICTIONARY
  5
47
102
{ACAD_REACTORS
330
C
102
}
330
C
100
AcDbDictionary
281
     1
  3
A0
350
48
  3
A1
350
49
  3
A2
350
4A
  3
A3
350
4B
  3
A4
350
4C
  3
A5
350
4D
  3
A6
350
4E
  3
A7
350
4F
  3
A8
350
50
  3
A9
350
51
  3
B0
350
52
  3
B1
350
53
  3
B2
350
54
  3
B3
350
55
  3
B4
350
56
  3
B5
350
57
  3
B6
350
58
  3
B7
350
59
  3
B8
350
5A
  3
B9
350
5B
  3
C0
350
5C
  3
C1
350
5D
  3
C2
350
5E
  3
C3
350
5F
  3
C4
350
60
  3
C5
350
61
  3
C6
350
62
  3
C7
350
63
  3
C8
350
64
  3
C9
350
65
  3
D0
350
66
  3
D1
350
67
  3
D2
350
68
  0
DICTIONARY
  5
69
102
{ACAD_REACTORS
330
C
102
}
330
C
100
AcDbDictionary
281
     1
  3
Standard
350
6A
  0
DICTIONARY
  5
2A
102
{ACAD_REACTORS
330
C
102
}
330
C
100
AcDbDictionary
281
     1
  3
2dWireframe
350
2F
  3
Basic
350
32
  3
Brighten
350
36
  3
ColorChange
350
3A
  3
Conceptual
350
34
  3
Dim
350
35
  3
EdgeColorOff
350
3D
  3
Facepattern
350
39
  3
Flat
350
2B
  3
FlatWithEdges
350
2C
  3
Gouraud
350
2D
  3
GouraudWithEdges
350
2E
  3
Hidden
350
31
  3
JitterOff
350
3B
  3
Linepattern
350
38
  3
OverhangOff
350
3C
  3
Realistic
350
33
  3
Shaded
350
42
  3
Shaded with edges
350
41
  3
Shades of Gray
350
3E
  3
Sketchy
350
3F
  3
Thicken
350
37
  3
Wireframe
350
30
  3
X-Ray
350
40
  0
DICTIONARY
  5
23B
102
{ACAD_REACTORS
330
C
102
}
330
C
100
AcDbDictionary
281
     1
  3
CANNOSCALE
350
248
  3
CENTEREXE
350
242
  3
CENTERLTYPEFILE
350
243
  3
CMLEADERSTYLE
350
23D
  3
CTABLESTYLE
350
23C
  3
DIMASSOC
350
244
  3
HIDETEXT
350
245
  3
MSLTSCALE
350
249
  3
PSOLHEIGHT
350
23F
  3
PSOLWIDTH
350
23E
  0
XRECORD
  5
247
102
{ACAD_REACTORS
330
246
102
}
330
246
100
AcDbXrecord
280
     1
102
VTR_0.000_0.000_1.000_1.000_VISUALSTYLE
340
2F
102
VTR_0.000_0.000_1.000_1.000_GRIDDISPLAY
 70
     3
102
VTR_0.000_0.000_1.000_1.000_GRIDMAJOR
 70
     5
102
VTR_0.000_0.000_1.000_1.000_DEFAULTLIGHTING
280
     1
102
VTR_0.000_0.000_1.000_1.000_DEFAULTLIGHTINGTYPE
 70
     1
102
VTR_0.000_0.000_1.000_1.000_BRIGHTNESS
141
0.0
102
VTR_0.000_0.000_1.000_1.000_CONTRAST
142
0.0
  0
LAYOUT
  5
1E
102
{ACAD_REACTORS
330
1A
102
}
330
1A
100
AcDbPlotSettings
  1

  2
none_device
  4

  6

 40
0.0
 41
0.0
 42
0.0
 43
0.0
 44
0.0
 45
0.0
 46
0.0
 47
0.0
 48
0.0
 49
0.0
140
0.0
141
0.0
142
1.0
143
1.0
 70
   688
 72
     1
 73
     0
 74
     5
  7

 75
    16
147
1.0
148
0.0
149
0.0
100
AcDbLayout
  1
Layout1
 70
     1
 71
     1
 10
0.0
 20
0.0
 11
420.0
 21
297.0
 12
0.0
 22
0.0
 32
0.0
 14
1.000000E+20
 24
1.000000E+20
 34
1.000000E+20
 15
-1.000000E+20
 25
-1.000000E+20
 35
-1.000000E+20
146
0.0
 13
0.0
 23
0.0
 33
0.0
 16
1.0
 26
0.0
 36
0.0
 17
0.0
 27
1.0
 37
0.0
 76
     0
330
1B
  0
LAYOUT
  5
26
102
{ACAD_REACTORS
330
1A
102
}
330
1A
100
AcDbPlotSettings
  1

  2
none_device
  4

  6

 40
0.0
 41
0.0
 42
0.0
 43
0.0
 44
0.0
 45
0.0
 46
0.0
 47
0.0
 48
0.0
 49
0.0
140
0.0
141
0.0
142
1.0
143
1.0
 70
   688
 72
     1
 73
     0
 74
     5
  7

 75
    16
147
1.0
148
0.0
149
0.0
100
AcDbLayout
  1
Layout2
 70
     1
 71
     2
 10
0.0
 20
0.0
 11
0.0
 21
0.0
 12
0.0
 22
0.0
 32
0.0
 14
0.0
 24
0.0
 34
0.0
 15
0.0
 25
0.0
 35
0.0
146
0.0
 13
0.0
 23
0.0
 33
0.0
 16
1.0
 26
0.0
 36
0.0
 17
0.0
 27
1.0
 37
0.0
 76
     0
330
23
  0
LAYOUT
  5
22
102
{ACAD_REACTORS
330
1A
102
}
330
1A
100
AcDbPlotSettings
  1

  2
none_device
  4
Letter_(8.50_x_11.00_Inches)
  6

 40
6.35
 41
6.35
 42
6.350005
 43
6.350005
 44
215.9
 45
279.4
 46
0.0
 47
0.0
 48
0.0
 49
0.0
140
0.0
141
0.0
142
1.0
143
1.0
 70
  1712
 72
     1
 73
     0
 74
     0
  7

 75
     0
147
1.0
148
0.0
149
0.0
100
AcDbLayout
  1
Model
 70
     1
 71
     0
 10
-121.514954
 20
-198.015747
 11
470.021118
 21
228.692642
 12
0.0
 22
0.0
 32
0.0
 14
-121.514954
 24
-198.015747
 34
0.0
 15
470.021118
 25
228.692642
 35
0.0
146
0.0
 13
0.0
 23
0.0
 33
0.0
 16
1.0
 26
0.0
 36
0.0
 17
0.0
 27
1.0
 37
0.0
 76
     0
330
1F
331
29
  0
MATERIAL
  5
45
102
{ACAD_REACTORS
330
43
102
}
102
{ACAD_XDICTIONARY
360
27C
102
}
330
43
100
AcDbMaterial
  1
ByBlock
  0
MATERIAL
  5
44
102
{ACAD_REACTORS
330
43
102
}
102
{ACAD_XDICTIONARY
360
27A
102
}
330
43
100
AcDbMaterial
  1
ByLayer
  0
MATERIAL
  5
46
102
{ACAD_REACTORS
330
43
102
}
102
{ACAD_XDICTIONARY
360
27E
102
}
330
43
100
AcDbMaterial
  1
Global
  0
MLEADERSTYLE
  5
6C
102
{ACAD_REACTORS
330
6B
102
}
102
{ACAD_XDICTIONARY
360
281
102
}
330
6B
100
AcDbMLeaderStyle
170
     2
171
     1
172
     0
 90
        2
 40
0.0
 41
0.0
173
     1
 91
-1056964608
340
14
 92
       -2
290
     1
 42
2.0
291
     1
 43
8.0
  3
Standard
341
0
 44
4.0
300

342
11
174
     1
178
     6
175
     1
176
     0
 93
-1056964608
 45
4.0
292
     0
297
     0
 46
4.0
343
0
 94
-1056964608
 47
1.0
 49
1.0
140
1.0
293
     1
141
0.0
294
     1
177
     0
142
1.0
295
     0
296
     0
143
3.75
1001
ACAD_MLEADERVER
1070
     2
  0
MLINESTYLE
  5
18
102
{ACAD_REACTORS
330
17
102
}
330
17
100
AcDbMlineStyle
  2
Standard
 70
     0
  3

 62
   256
 51
90.0
 52
90.0
 71
     2
 49
0.5
 62
   256
  6
BYLAYER
 49
-0.5
 62
   256
  6
BYLAYER
  0
ACDBPLACEHOLDER
  5
F
102
{ACAD_REACTORS
330
E
102
}
330
E
  0
SCALE
  5
48
102
{ACAD_REACTORS
330
47
102
}
330
47
100
AcDbScale
 70
     0
300
1:1
140
1.0
141
1.0
290
     1
  0
SCALE
  5
49
102
{ACAD_REACTORS
330
47
102
}
330
47
100
AcDbScale
 70
     0
300
1:2
140
1.0
141
2.0
290
     0
  0
SCALE
  5
4A
102
{ACAD_REACTORS
330
47
102
}
330
47
100
AcDbScale
 70
     0
300
1:4
140
1.0
141
4.0
290
     0
  0
SCALE
  5
4B
102
{ACAD_REACTORS
330
47
102
}
330
47
100
AcDbScale
 70
     0
300
1:5
140
1.0
141
5.0
290
     0
  0
SCALE
  5
4C
102
{ACAD_REACTORS
330
47
102
}
330
47
100
AcDbScale
 70
     0
300
1:8
140
1.0
141
8.0
290
     0
  0
SCALE
  5
4D
102
{ACAD_REACTORS
330
47
102
}
330
47
100
AcDbScale
 70
     0
300
1:10
140
1.0
141
10.0
290
     0
  0
SCALE
  5
4E
102
{ACAD_REACTORS
330
47
102
}
330
47
100
AcDbScale
 70
     0
300
1:16
140
1.0
141
16.0
290
     0
  0
SCALE
  5
4F
102
{ACAD_REACTORS
330
47
102
}
330
47
100
AcDbScale
 70
     0
300
1:20
140
1.0
141
20.0
290
     0
  0
SCALE
  5
50
102
{ACAD_REACTORS
330
47
102
}
330
47
100
AcDbScale
 70
     0
300
1:30
140
1.0
141
30.0
290
     0
  0
SCALE
  5
51
102
{ACAD_REACTORS
330
47
102
}
330
47
100
AcDbScale
 70
     0
300
1:40
140
1.0
141
40.0
290
     0
  0
SCALE
  5
52
102
{ACAD_REACTORS
330
47
102
}
330
47
100
AcDbScale
 70
     0
300
1:50
140
1.0
141
50.0
290
     0
  0
SCALE
  5
53
102
{ACAD_REACTORS
330
47
102
}
330
47
100
AcDbScale
 70
     0
300
1:100
140
1.0
141
100.0
290
     0
  0
SCALE
  5
54
102
{ACAD_REACTORS
330
47
102
}
330
47
100
AcDbScale
 70
     0
300
2:1
140
2.0
141
1.0
290
     0
  0
SCALE
  5
55
102
{ACAD_REACTORS
330
47
102
}
330
47
100
AcDbScale
 70
     0
300
4:1
140
4.0
141
1.0
290
     0
  0
SCALE
  5
56
102
{ACAD_REACTORS
330
47
102
}
330
47
100
AcDbScale
 70
     0
300
8:1
140
8.0
141
1.0
290
     0
  0
SCALE
  5
57
102
{ACAD_REACTORS
330
47
102
}
330
47
100
AcDbScale
 70
     0
300
10:1
140
10.0
141
1.0
290
     0
  0
SCALE
  5
58
102
{ACAD_REACTORS
330
47
102
}
330
47
100
AcDbScale
 70
     0
300
100:1
140
100.0
141
1.0
290
     0
  0
SCALE
  5
59
102
{ACAD_REACTORS
330
47
102
}
330
47
100
AcDbScale
 70
     0
300
1/128" = 1'-0"
140
0.007812
141
12.0
290
     0
  0
SCALE
  5
5A
102
{ACAD_REACTORS
330
47
102
}
330
47
100
AcDbScale
 70
     0
300
1/64" = 1'-0"
140
0.015625
141
12.0
290
     0
  0
SCALE
  5
5B
102
{ACAD_REACTORS
330
47
102
}
330
47
100
AcDbScale
 70
     0
300
1/32" = 1'-0"
140
0.03125
141
12.0
290
     0
  0
SCALE
  5
5C
102
{ACAD_REACTORS
330
47
102
}
330
47
100
AcDbScale
 70
     0
300
1/16" = 1'-0"
140
0.0625
141
12.0
290
     0
  0
SCALE
  5
5D
102
{ACAD_REACTORS
330
47
102
}
330
47
100
AcDbScale
 70
     0
300
3/32" = 1'-0"
140
0.09375
141
12.0
290
     0
  0
SCALE
  5
5E
102
{ACAD_REACTORS
330
47
102
}
330
47
100
AcDbScale
 70
     0
300
1/8" = 1'-0"
140
0.125
141
12.0
290
     0
  0
SCALE
  5
5F
102
{ACAD_REACTORS
330
47
102
}
330
47
100
AcDbScale
 70
     0
300
3/16" = 1'-0"
140
0.1875
141
12.0
290
     0
  0
SCALE
  5
60
102
{ACAD_REACTORS
330
47
102
}
330
47
100
AcDbScale
 70
     0
300
1/4" = 1'-0"
140
0.25
141
12.0
290
     0
  0
SCALE
  5
61
102
{ACAD_REACTORS
330
47
102
}
330
47
100
AcDbScale
 70
     0
300
3/8" = 1'-0"
140
0.375
141
12.0
290
     0
  0
SCALE
  5
62
102
{ACAD_REACTORS
330
47
102
}
330
47
100
AcDbScale
 70
     0
300
1/2" = 1'-0"
140
0.5
141
12.0
290
     0
  0
SCALE
  5
63
102
{ACAD_REACTORS
330
47
102
}
330
47
100
AcDbScale
 70
     0
300
3/4" = 1'-0"
140
0.75
141
12.0
290
     0
  0
SCALE
  5
64
102
{ACAD_REACTORS
330
47
102
}
330
47
100
AcDbScale
 70
     0
300
1" = 1'-0"
140
1.0
141
12.0
290
     0
  0
SCALE
  5
65
102
{ACAD_REACTORS
330
47
102
}
330
47
100
AcDbScale
 70
     0
300
1-1/2" = 1'-0"
140
1.5
141
12.0
290
     0
  0
SCALE
  5
66
102
{ACAD_REACTORS
330
47
102
}
330
47
100
AcDbScale
 70
     0
300
3" = 1'-0"
140
3.0
141
12.0
290
     0
  0
SCALE
  5
67
102
{ACAD_REACTORS
330
47
102
}
330
47
100
AcDbScale
 70
     0
300
6" = 1'-0"
140
6.0
141
12.0
290
     0
  0
SCALE
  5
68
102
{ACAD_REACTORS
330
47
102
}
330
47
100
AcDbScale
 70
     0
300
1'-0" = 1'-0"
140
12.0
141
12.0
290
     0
  0
TABLESTYLE
  5
6A
102
{ACAD_REACTORS
330
69
102
}
330
69
100
AcDbTableStyle
  3
Standard
 70
     0
 71
     0
 40
1.5
 41
1.5
280
     0
281
     0
  7
Standard
140
4.5
170
     2
 62
     0
 63
   257
283
     0
274
    -2
284
     1
 64
     0
275
    -2
285
     1
 65
     0
276
    -2
286
     1
 66
     0
277
    -2
287
     1
 67
     0
278
    -2
288
     1
 68
     0
279
    -2
289
     1
 69
     0
  7
Standard
140
6.0
170
     5
 62
     0
 63
   257
283
     0
274
    -2
284
     1
 64
     0
275
    -2
285
     1
 65
     0
276
    -2
286
     1
 66
     0
277
    -2
287
     1
 67
     0
278
    -2
288
     1
 68
     0
279
    -2
289
     1
 69
     0
  7
Standard
140
4.5
170
     5
 62
     0
 63
   257
283
     0
274
    -2
284
     1
 64
     0
275
    -2
285
     1
 65
     0
276
    -2
286
     1
 66
     0
277
    -2
287
     1
 67
     0
278
    -2
288
     1
 68
     0
279
    -2
289
     1
 69
     0
  0
VISUALSTYLE
  5
2F
102
{ACAD_REACTORS
330
2A
102
}
102
{ACAD_XDICTIONARY
360
252
102
}
330
2A
100
AcDbVisualStyle
  2
2dWireframe
 70
     4
 71
     0
 72
     2
 73
     0
 90
        0
 40
0.6
 41
30.0
 62
     5
 63
     7
 74
     1
 91
        4
 64
     7
 65
   257
 75
     1
175
     1
 42
1.0
 92
        0
 66
   257
 43
1.0
 76
     1
 77
     6
 78
     2
 67
     7
 79
     5
170
     0
171
     0
290
     0
174
     0
 93
        1
 44
0.0
173
     0
291
     0
 45
0.0
1001
ACAD
1000
AcDbSavedByObjectVersion
1070
     0
  0
VISUALSTYLE
  5
32
102
{ACAD_REACTORS
330
2A
102
}
102
{ACAD_XDICTIONARY
360
258
102
}
330
2A
100
AcDbVisualStyle
  2
Basic
 70
     7
 71
     1
 72
     0
 73
     1
 90
        0
 40
0.6
 41
30.0
 62
     5
 63
     7
 74
     0
 91
        4
 64
     7
 65
   257
 75
     1
175
     1
 42
1.0
 92
        8
 66
     7
 43
1.0
 76
     1
 77
     6
 78
     2
 67
     7
 79
     5
170
     0
171
     0
290
     0
174
     0
 93
        1
 44
0.0
173
     0
291
     1
 45
0.0
1001
ACAD
1000
AcDbSavedByObjectVersion
1070
     0
  0
VISUALSTYLE
  5
36
102
{ACAD_REACTORS
330
2A
102
}
102
{ACAD_XDICTIONARY
360
260
102
}
330
2A
100
AcDbVisualStyle
  2
Brighten
 70
    12
 71
     2
 72
     2
 73
     0
 90
        0
 40
0.6
 41
30.0
 62
     5
 63
     7
 74
     1
 91
        4
 64
     7
 65
   257
 75
     1
175
     1
 42
1.0
 92
        8
 66
     7
 43
1.0
 76
     1
 77
     6
 78
     2
 67
     7
 79
     5
170
     0
171
     0
290
     0
174
     0
 93
        1
 44
50.0
173
     0
291
     1
 45
0.0
1001
ACAD
1000
AcDbSavedByObjectVersion
1070
     0
  0
VISUALSTYLE
  5
3A
102
{ACAD_REACTORS
330
2A
102
}
102
{ACAD_XDICTIONARY
360
268
102
}
330
2A
100
AcDbVisualStyle
  2
ColorChange
 70
    16
 71
     2
 72
     2
 73
     3
 90
        0
 40
0.6
 41
30.0
 62
     5
 63
     8
 74
     1
 91
        4
 64
     7
 65
   257
 75
     1
175
     1
 42
1.0
 92
        8
 66
     8
 43
1.0
 76
     1
 77
     6
 78
     2
 67
     7
 79
     5
170
     0
171
     0
290
     0
174
     0
 93
        1
 44
0.0
173
     0
291
     1
 45
0.0
1001
ACAD
1000
AcDbSavedByObjectVersion
1070
     0
  0
VISUALSTYLE
  5
34
102
{ACAD_REACTORS
330
2A
102
}
102
{ACAD_XDICTIONARY
360
25C
102
}
330
2A
100
AcDbVisualStyle
  2
Conceptual
 70
     9
 71
     3
 72
     2
 73
     0
 90
        0
 40
0.6
 41
30.0
 62
     5
 63
     7
 74
     2
 91
        2
 64
     7
 65
   257
 75
     1
175
     1
 42
179.0
 92
        8
 66
     7
 43
1.0
 76
     1
 77
     6
 78
     2
 67
     7
 79
     3
170
     0
171
     0
290
     0
174
     0
 93
        1
 44
0.0
173
     0
291
     0
 45
0.0
1001
ACAD
1000
AcDbSavedByObjectVersion
1070
     0
  0
VISUALSTYLE
  5
35
102
{ACAD_REACTORS
330
2A
102
}
102
{ACAD_XDICTIONARY
360
25E
102
}
330
2A
100
AcDbVisualStyle
  2
Dim
 70
    11
 71
     2
 72
     2
 73
     0
 90
        0
 40
0.6
 41
30.0
 62
     5
 63
     7
 74
     1
 91
        4
 64
     7
 65
   257
 75
     1
175
     1
 42
1.0
 92
        8
 66
     7
 43
1.0
 76
     1
 77
     6
 78
     2
 67
     7
 79
     5
170
     0
171
     0
290
     0
174
     0
 93
        1
 44
-50.0
173
     0
291
     1
 45
0.0
1001
ACAD
1000
AcDbSavedByObjectVersion
1070
     0
  0
VISUALSTYLE
  5
3D
102
{ACAD_REACTORS
330
2A
102
}
102
{ACAD_XDICTIONARY
360
26E
102
}
330
2A
100
AcDbVisualStyle
  2
EdgeColorOff
 70
    22
 71
     2
 72
     2
 73
     0
 90
        0
 40
0.6
 41
30.0
 62
     5
 63
     7
 74
     1
 91
        4
 64
     7
 65
   257
 75
     1
175
     1
 42
1.0
 92
        8
 66
     7
 43
1.0
 76
     1
 77
     6
 78
     2
 67
     7
 79
     5
170
     0
171
     0
290
     0
174
     0
 93
        1
 44
0.0
173
     0
291
     1
 45
0.0
1001
ACAD
1000
AcDbSavedByObjectVersion
1070
     0
  0
VISUALSTYLE
  5
39
102
{ACAD_REACTORS
330
2A
102
}
102
{ACAD_XDICTIONARY
360
266
102
}
330
2A
100
AcDbVisualStyle
  2
Facepattern
 70
    15
 71
     2
 72
     2
 73
     0
 90
        0
 40
0.6
 41
30.0
 62
     5
 63
     7
 74
     1
 91
        4
 64
     7
 65
   257
 75
     1
175
     1
 42
1.0
 92
        8
 66
     7
 43
1.0
 76
     1
 77
     6
 78
     2
 67
     7
 79
     5
170
     0
171
     0
290
     0
174
     0
 93
        1
 44
0.0
173
     0
291
     1
 45
0.0
1001
ACAD
1000
AcDbSavedByObjectVersion
1070
     0
  0
VISUALSTYLE
  5
2B
102
{ACAD_REACTORS
330
2A
102
}
102
{ACAD_XDICTIONARY
360
24A
102
}
330
2A
100
AcDbVisualStyle
  2
Flat
 70
     0
 71
     2
 72
     1
 73
     1
 90
        2
 40
0.6
 41
30.0
 62
     5
 63
     7
 74
     0
 91
        0
 64
     7
 65
   257
 75
     1
175
     1
 42
1.0
 92
        8
 66
     7
 43
1.0
 76
     1
 77
     6
 78
     2
 67
     7
 79
     5
170
     0
171
     0
290
     0
174
     0
 93
       13
 44
0.0
173
     0
291
     1
 45
0.0
1001
ACAD
1000
AcDbSavedByObjectVersion
1070
     0
  0
VISUALSTYLE
  5
2C
102
{ACAD_REACTORS
330
2A
102
}
102
{ACAD_XDICTIONARY
360
24C
102
}
330
2A
100
AcDbVisualStyle
  2
FlatWithEdges
 70
     1
 71
     2
 72
     1
 73
     1
 90
        2
 40
0.6
 41
30.0
 62
     5
 63
     7
 74
     1
 91
        0
 64
     7
 65
   257
 75
     1
175
     1
 42
1.0
 92
        0
 66
   257
 43
1.0
 76
     1
 77
     6
 78
     2
 67
     7
 79
     5
170
     0
171
     0
290
     0
174
     0
 93
       13
 44
0.0
173
     0
291
     1
 45
0.0
1001
ACAD
1000
AcDbSavedByObjectVersion
1070
     0
  0
VISUALSTYLE
  5
2D
102
{ACAD_REACTORS
330
2A
102
}
102
{ACAD_XDICTIONARY
360
24E
102
}
330
2A
100
AcDbVisualStyle
  2
Gouraud
 70
     2
 71
     2
 72
     2
 73
     1
 90
        2
 40
0.6
 41
30.0
 62
     5
 63
     7
 74
     0
 91
        0
 64
     7
 65
   257
 75
     1
175
     1
 42
1.0
 92
        0
 66
     7
 43
1.0
 76
     1
 77
     6
 78
     2
 67
     7
 79
     5
170
     0
171
     0
290
     0
174
     0
 93
       13
 44
0.0
173
     0
291
     1
 45
0.0
1001
ACAD
1000
AcDbSavedByObjectVersion
1070
     0
  0
VISUALSTYLE
  5
2E
102
{ACAD_REACTORS
330
2A
102
}
102
{ACAD_XDICTIONARY
360
250
102
}
330
2A
100
AcDbVisualStyle
  2
GouraudWithEdges
 70
     3
 71
     2
 72
     2
 73
     1
 90
        2
 40
0.6
 41
30.0
 62
     5
 63
     7
 74
     1
 91
        0
 64
     7
 65
   257
 75
     1
175
     1
 42
1.0
 92
        0
 66
   257
 43
1.0
 76
     1
 77
     6
 78
     2
 67
     7
 79
     5
170
     0
171
     0
290
     0
174
     0
 93
       13
 44
0.0
173
     0
291
     1
 45
0.0
1001
ACAD
1000
AcDbSavedByObjectVersion
1070
     0
  0
VISUALSTYLE
  5
31
102
{ACAD_REACTORS
330
2A
102
}
102
{ACAD_XDICTIONARY
360
256
102
}
330
2A
100
AcDbVisualStyle
  2
Hidden
 70
     6
 71
     1
 72
     2
 73
     2
 90
        0
 40
0.6
 41
30.0
 62
     5
 63
     7
 74
     2
 91
        2
 64
     7
 65
   257
 75
     2
175
     1
 42
40.0
 92
        0
 66
   257
 43
1.0
 76
     1
 77
     6
 78
     2
 67
     7
 79
     3
170
     0
171
     0
290
     0
174
     0
 93
        1
 44
0.0
173
     0
291
     0
 45
0.0
1001
ACAD
1000
AcDbSavedByObjectVersion
1070
     0
  0
VISUALSTYLE
  5
3B
102
{ACAD_REACTORS
330
2A
102
}
102
{ACAD_XDICTIONARY
360
26A
102
}
330
2A
100
AcDbVisualStyle
  2
JitterOff
 70
    20
 71
     2
 72
     2
 73
     0
 90
        0
 40
0.6
 41
30.0
 62
     5
 63
     7
 74
     1
 91
        4
 64
     7
 65
   257
 75
     1
175
     1
 42
1.0
 92
       10
 66
     7
 43
1.0
 76
     1
 77
     6
 78
     2
 67
     7
 79
     5
170
     0
171
     0
290
     0
174
     0
 93
        1
 44
0.0
173
     0
291
     1
 45
0.0
1001
ACAD
1000
AcDbSavedByObjectVersion
1070
     0
  0
VISUALSTYLE
  5
38
102
{ACAD_REACTORS
330
2A
102
}
102
{ACAD_XDICTIONARY
360
264
102
}
330
2A
100
AcDbVisualStyle
  2
Linepattern
 70
    14
 71
     2
 72
     2
 73
     0
 90
        0
 40
0.6
 41
30.0
 62
     5
 63
     7
 74
     1
 91
        4
 64
     7
 65
   257
 75
     7
175
     7
 42
1.0
 92
        8
 66
     7
 43
1.0
 76
     1
 77
     6
 78
     2
 67
     7
 79
     5
170
     0
171
     0
290
     0
174
     0
 93
        1
 44
0.0
173
     0
291
     1
 45
0.0
1001
ACAD
1000
AcDbSavedByObjectVersion
1070
     0
  0
VISUALSTYLE
  5
3C
102
{ACAD_REACTORS
330
2A
102
}
102
{ACAD_XDICTIONARY
360
26C
102
}
330
2A
100
AcDbVisualStyle
  2
OverhangOff
 70
    21
 71
     2
 72
     2
 73
     0
 90
        0
 40
0.6
 41
30.0
 62
     5
 63
     7
 74
     1
 91
        4
 64
     7
 65
   257
 75
     1
175
     1
 42
1.0
 92
        9
 66
     7
 43
1.0
 76
     1
 77
     6
 78
     2
 67
     7
 79
     5
170
     0
171
     0
290
     0
174
     0
 93
        1
 44
0.0
173
     0
291
     1
 45
0.0
1001
ACAD
1000
AcDbSavedByObjectVersion
1070
     0
  0
VISUALSTYLE
  5
33
102
{ACAD_REACTORS
330
2A
102
}
102
{ACAD_XDICTIONARY
360
25A
102
}
330
2A
100
AcDbVisualStyle
  2
Realistic
 70
     8
 71
     2
 72
     3
 73
     0
 90
        2
 40
0.6
 41
30.0
 62
     5
 63
     7
 74
     0
 91
        0
 64
     7
 65
   257
 75
     1
175
     1
 42
1.0
 92
        8
 66
   257
 43
1.0
 76
     1
 77
     6
 78
     2
 67
     7
 79
     3
170
     0
171
     0
290
     0
174
     0
 93
       13
 44
0.0
173
     0
291
     0
 45
0.0
1001
ACAD
1000
AcDbSavedByObjectVersion
1070
     0
  0
VISUALSTYLE
  5
42
102
{ACAD_REACTORS
330
2A
102
}
102
{ACAD_XDICTIONARY
360
278
102
}
330
2A
100
AcDbVisualStyle
  2
Shaded
 70
    27
 71
     2
 72
     2
 73
     1
 90
        2
 40
0.6
 41
30.0
 62
     5
 63
     7
 74
     0
 91
        4
 64
     7
 65
   257
 75
     1
175
     1
 42
1.0
 92
        8
 66
   257
 43
1.0
 76
     1
 77
     6
 78
     2
 67
     8
 79
     3
170
     0
171
     0
290
     0
174
     0
 93
        5
 44
0.0
173
     0
291
     0
 45
0.0
1001
ACAD
1000
AcDbSavedByObjectVersion
1070
     0
  0
VISUALSTYLE
  5
41
102
{ACAD_REACTORS
330
2A
102
}
102
{ACAD_XDICTIONARY
360
276
102
}
330
2A
100
AcDbVisualStyle
  2
Shaded with edges
 70
    26
 71
     2
 72
     2
 73
     1
 90
        2
 40
0.6
 41
30.0
 62
     5
 63
     7
 74
     1
 91
       10
 64
     7
 65
   257
 75
     2
175
     1
 42
1.0
 92
        8
 66
   257
 43
1.0
 76
     1
 77
     6
 78
     2
 67
     7
 79
     3
170
     0
171
     0
290
     0
174
     0
 93
        5
 44
0.0
173
     0
291
     0
 45
0.0
1001
ACAD
1000
AcDbSavedByObjectVersion
1070
     0
  0
VISUALSTYLE
  5
3E
102
{ACAD_REACTORS
330
2A
102
}
102
{ACAD_XDICTIONARY
360
270
102
}
330
2A
100
AcDbVisualStyle
  2
Shades of Gray
 70
    23
 71
     2
 72
     2
 73
     3
 90
        0
 40
0.6
 41
30.0
 62
     5
 63
     7
 74
     2
 91
        2
 64
     7
 65
     7
 75
     1
175
     1
 42
40.0
 92
        8
 66
     7
 43
1.0
 76
     1
 77
     6
 78
     2
 67
     7
 79
     3
170
     0
171
     0
290
     0
174
     0
 93
        1
 44
0.0
173
     0
291
     0
 45
0.0
1001
ACAD
1000
AcDbSavedByObjectVersion
1070
     0
  0
VISUALSTYLE
  5
3F
102
{ACAD_REACTORS
330
2A
102
}
102
{ACAD_XDICTIONARY
360
272
102
}
330
2A
100
AcDbVisualStyle
  2
Sketchy
 70
    24
 71
     1
 72
     2
 73
     2
 90
        0
 40
0.6
 41
30.0
 62
     5
 63
     7
 74
     2
 91
        2
 64
     7
 65
     7
 75
     1
175
     1
 42
40.0
 92
       11
 66
     7
 43
1.0
 76
     1
 77
     6
 78
     2
 67
     7
 79
     6
170
     0
171
     0
290
     0
174
     0
 93
        1
 44
0.0
173
     0
291
     0
 45
0.0
1001
ACAD
1000
AcDbSavedByObjectVersion
1070
     0
  0
VISUALSTYLE
  5
37
102
{ACAD_REACTORS
330
2A
102
}
102
{ACAD_XDICTIONARY
360
262
102
}
330
2A
100
AcDbVisualStyle
  2
Thicken
 70
    13
 71
     2
 72
     2
 73
     0
 90
        0
 40
0.6
 41
30.0
 62
     5
 63
     7
 74
     1
 91
        4
 64
     7
 65
   257
 75
     1
175
     1
 42
1.0
 92
       12
 66
     7
 43
1.0
 76
     1
 77
     6
 78
     2
 67
     7
 79
     5
170
     0
171
     0
290
     0
174
     0
 93
        1
 44
0.0
173
     0
291
     1
 45
0.0
1001
ACAD
1000
AcDbSavedByObjectVersion
1070
     0
  0
VISUALSTYLE
  5
30
102
{ACAD_REACTORS
330
2A
102
}
102
{ACAD_XDICTIONARY
360
254
102
}
330
2A
100
AcDbVisualStyle
  2
Wireframe
 70
     5
 71
     0
 72
     2
 73
     0
 90
        0
 40
0.6
 41
30.0
 62
     5
 63
     7
 74
     1
 91
        4
 64
     7
 65
   257
 75
     1
175
     1
 42
1.0
 92
        0
 66
   257
 43
1.0
 76
     1
 77
     6
 78
     2
 67
     7
 79
     3
170
     0
171
     0
290
     0
174
     0
 93
        1
 44
0.0
173
     0
291
     0
 45
0.0
1001
ACAD
1000
AcDbSavedByObjectVersion
1070
     0
  0
VISUALSTYLE
  5
40
102
{ACAD_REACTORS
330
2A
102
}
102
{ACAD_XDICTIONARY
360
274
102
}
330
2A
100
AcDbVisualStyle
  2
X-Ray
 70
    25
 71
     2
 72
     2
 73
     1
 90
        1
 40
0.5
 41
30.0
 62
     5
 63
     7
 74
     1
 91
        0
 64
     7
 65
   257
 75
     1
175
     1
 42
1.0
 92
        8
 66
     7
 43
1.0
 76
     1
 77
     6
 78
     2
 67
     7
 79
     3
170
     0
171
     0
290
     0
174
     0
 93
       13
 44
0.0
173
     0
291
     0
 45
0.0
1001
ACAD
1000
AcDbSavedByObjectVersion
1070
     0
  0
DICTIONARYVAR
  5
248
102
{ACAD_REACTORS
330
23B
102
}
330
23B
100
DictionaryVariables
280
     0
  1
1:1
  0
DICTIONARYVAR
  5
242
102
{ACAD_REACTORS
330
23B
102
}
330
23B
100
DictionaryVariables
280
     0
  1
3.500000
  0
DICTIONARYVAR
  5
243
102
{ACAD_REACTORS
330
23B
102
}
330
23B
100
DictionaryVariables
280
     0
  1
acadiso.lin
  0
DICTIONARYVAR
  5
23D
102
{ACAD_REACTORS
330
23B
102
}
330
23B
100
DictionaryVariables
280
     0
  1
Standard
  0
DICTIONARYVAR
  5
23C
102
{ACAD_REACTORS
330
23B
102
}
330
23B
100
DictionaryVariables
280
     0
  1
Standard
  0
DICTIONARYVAR
  5
244
102
{ACAD_REACTORS
330
23B
102
}
330
23B
100
DictionaryVariables
280
     0
  1
2
  0
DICTIONARYVAR
  5
245
102
{ACAD_REACTORS
330
23B
102
}
330
23B
100
DictionaryVariables
280
     0
  1
1
  0
DICTIONARYVAR
  5
249
102
{ACAD_REACTORS
330
23B
102
}
330
23B
100
DictionaryVariables
280
     0
  1
1
  0
DICTIONARYVAR
  5
23F
102
{ACAD_REACTORS
330
23B
102
}
330
23B
100
DictionaryVariables
280
     0
  1
80.000000
  0
DICTIONARYVAR
  5
23E
102
{ACAD_REACTORS
330
23B
102
}
330
23B
100
DictionaryVariables
280
     0
  1
5.000000
  0
DICTIONARY
  5
27C
330
45
100
AcDbDictionary
280
     1
281
     1
  3
ACAD_XREC_ROUNDTRIP
360
27D
  0
DICTIONARY
  5
27A
330
44
100
AcDbDictionary
280
     1
281
     1
  3
ACAD_XREC_ROUNDTRIP
360
27B
  0
DICTIONARY
  5
27E
330
46
100
AcDbDictionary
280
     1
281
     1
  3
ACAD_XREC_ROUNDTRIP
360
27F
  0
DICTIONARY
  5
281
330
6C
100
AcDbDictionary
280
     1
281
     1
  3
ACAD_XREC_ROUNDTRIP
360
282
  0
DICTIONARY
  5
252
330
2F
100
AcDbDictionary
280
     1
281
     1
  3
ACAD_XREC_ROUNDTRIP
360
253
  0
DICTIONARY
  5
258
330
32
100
AcDbDictionary
280
     1
281
     1
  3
ACAD_XREC_ROUNDTRIP
360
259
  0
DICTIONARY
  5
260
330
36
100
AcDbDictionary
280
     1
281
     1
  3
ACAD_XREC_ROUNDTRIP
360
261
  0
DICTIONARY
  5
268
330
3A
100
AcDbDictionary
280
     1
281
     1
  3
ACAD_XREC_ROUNDTRIP
360
269
  0
DICTIONARY
  5
25C
330
34
100
AcDbDictionary
280
     1
281
     1
  3
ACAD_XREC_ROUNDTRIP
360
25D
  0
DICTIONARY
  5
25E
330
35
100
AcDbDictionary
280
     1
281
     1
  3
ACAD_XREC_ROUNDTRIP
360
25F
  0
DICTIONARY
  5
26E
330
3D
100
AcDbDictionary
280
     1
281
     1
  3
ACAD_XREC_ROUNDTRIP
360
26F
  0
DICTIONARY
  5
266
330
39
100
AcDbDictionary
280
     1
281
     1
  3
ACAD_XREC_ROUNDTRIP
360
267
  0
DICTIONARY
  5
24A
330
2B
100
AcDbDictionary
280
     1
281
     1
  3
ACAD_XREC_ROUNDTRIP
360
24B
  0
DICTIONARY
  5
24C
330
2C
100
AcDbDictionary
280
     1
281
     1
  3
ACAD_XREC_ROUNDTRIP
360
24D
  0
DICTIONARY
  5
24E
330
2D
100
AcDbDictionary
280
     1
281
     1
  3
ACAD_XREC_ROUNDTRIP
360
24F
  0
DICTIONARY
  5
250
330
2E
100
AcDbDictionary
280
     1
281
     1
  3
ACAD_XREC_ROUNDTRIP
360
251
  0
DICTIONARY
  5
256
330
31
100
AcDbDictionary
280
     1
281
     1
  3
ACAD_XREC_ROUNDTRIP
360
257
  0
DICTIONARY
  5
26A
330
3B
100
AcDbDictionary
280
     1
281
     1
  3
ACAD_XREC_ROUNDTRIP
360
26B
  0
DICTIONARY
  5
264
330
38
100
AcDbDictionary
280
     1
281
     1
  3
ACAD_XREC_ROUNDTRIP
360
265
  0
DICTIONARY
  5
26C
330
3C
100
AcDbDictionary
280
     1
281
     1
  3
ACAD_XREC_ROUNDTRIP
360
26D
  0
DICTIONARY
  5
25A
330
33
100
AcDbDictionary
280
     1
281
     1
  3
ACAD_XREC_ROUNDTRIP
360
25B
  0
DICTIONARY
  5
278
330
42
100
AcDbDictionary
280
     1
281
     1
  3
ACAD_XREC_ROUNDTRIP
360
279
  0
DICTIONARY
  5
276
330
41
100
AcDbDictionary
280
     1
281
     1
  3
ACAD_XREC_ROUNDTRIP
360
277
  0
DICTIONARY
  5
270
330
3E
100
AcDbDictionary
280
     1
281
     1
  3
ACAD_XREC_ROUNDTRIP
360
271
  0
DICTIONARY
  5
272
330
3F
100
AcDbDictionary
280
     1
281
     1
  3
ACAD_XREC_ROUNDTRIP
360
273
  0
DICTIONARY
  5
262
330
37
100
AcDbDictionary
280
     1
281
     1
  3
ACAD_XREC_ROUNDTRIP
360
263
  0
DICTIONARY
  5
254
330
30
100
AcDbDictionary
280
     1
281
     1
  3
ACAD_XREC_ROUNDTRIP
360
255
  0
DICTIONARY
  5
274
330
40
100
AcDbDictionary
280
     1
281
     1
  3
ACAD_XREC_ROUNDTRIP
360
275
  0
XRECORD
  5
27D
102
{ACAD_REACTORS
330
27C
102
}
330
27C
100
AcDbXrecord
280
     1
102
MATERIAL
148
0.0
149
0.0
149
0.0
 93
        0
 94
      127
282
     0
 72
     1
 77
     1
171
     1
175
     1
179
     1
273
     0
  0
XRECORD
  5
27B
102
{ACAD_REACTORS
330
27A
102
}
330
27A
100
AcDbXrecord
280
     1
102
MATERIAL
148
0.0
149
0.0
149
0.0
 93
        0
 94
      127
282
     0
 72
     1
 77
     1
171
     1
175
     1
179
     1
273
     0
  0
XRECORD
  5
27F
102
{ACAD_REACTORS
330
27E
102
}
330
27E
100
AcDbXrecord
280
     1
102
MATERIAL
148
0.0
149
0.0
149
0.0
 93
        0
 94
      127
282
     0
 72
     1
 77
     1
171
     1
175
     1
179
     1
273
     0
  0
XRECORD
  5
282
102
{ACAD_REACTORS
330
281
102
}
330
281
100
AcDbXrecord
280
     1
102
ACAD_ROUNDTRIP_2010_MLEADER_STYLE
  0
XRECORD
  5
253
102
{ACAD_REACTORS
330
252
102
}
330
252
100
AcDbXrecord
280
     1
102
RTVSPropertyOp0
 70
     1
102
RTVSPropertyOp1
 70
     1
102
RTVSPropertyOp2
 70
     1
102
RTVSPropertyOp3
 70
     1
102
RTVSPropertyOp4
 70
     1
102
RTVSPropertyOp5
 70
     1
102
RTVSPropertyOp6
 70
     1
102
RTVSPropertyOp7
 70
     1
102
RTVSPropertyOp8
 70
     1
102
RTVSPropertyOp9
 70
     1
102
RTVSPropertyOp10
 70
     1
102
RTVSPropertyOp11
 70
     1
102
RTVSPropertyOp12
 70
     1
102
RTVSPropertyOp13
 70
     1
102
RTVSPropertyOp14
 70
     1
102
RTVSPropertyOp15
 70
     1
102
RTVSPropertyOp16
 70
     1
102
RTVSPropertyOp17
 70
     1
102
RTVSPropertyOp18
 70
     1
102
RTVSPropertyOp19
 70
     1
102
RTVSPropertyOp20
 70
     1
102
RTVSPropertyOp21
 70
     1
102
RTVSPropertyOp22
 70
     1
102
RTVSPropertyOp23
 70
     1
102
RTVSPropertyOp24
 70
     1
102
RTVSPropertyOp25
 70
     1
102
RTVSPropertyOp26
 70
     1
102
RTVSPropertyOp27
 70
     1
102
RTVSPropertyOp28
 70
     1
102
RTVSPropertyOp29
 70
     1
102
RTVSPropertyOp30
 70
     1
102
RTVSPropertyOp31
 70
     1
102
RTVSPropertyOp32
 70
     1
102
RTVSPropertyOp33
 70
     1
102
RTVSPropertyOp34
 70
     1
102
RTVSPropertyOp35
 70
     1
102
RTVSPropertyOp36
 70
     1
102
RTVSPropertyOp37
 70
     1
102
RTVSPropertyOp38
 70
     1
102
RTVSPropertyOp39
 70
     1
102
RTVSPropertyOp40
 70
     1
102
RTVSPropertyOp41
 70
     1
102
RTVSPropertyOp42
 70
     1
102
RTVSPropertyOp43
 70
     1
102
RTVSPropertyOp44
 70
     1
102
RTVSPropertyOp45
 70
     1
102
RTVSPropertyOp46
 70
     1
102
RTVSPropertyOp47
 70
     1
102
RTVSPropertyOp48
 70
     1
102
RTVSPropertyOp49
 70
     1
102
RTVSPropertyOp50
 70
     1
102
RTVSPropertyOp51
 70
     0
102
RTVSPropertyOp52
 70
     0
102
RTVSPropertyOp53
 70
     1
102
RTVSPropertyOp54
 70
     1
102
RTVSPropertyOp55
 70
     1
102
RTVSPropertyOp56
 70
     1
102
RTVSPropertyOp57
 70
     1
102
RTVSPost2010Prop28
280
     1
102
RTVSPost2010PropOp28
 70
     1
102
RTVSPost2010Prop29
280
     1
102
RTVSPost2010PropOp29
 70
     1
102
RTVSPost2010Prop30
280
     0
102
RTVSPost2010PropOp30
 70
     1
102
RTVSPost2010Prop31
280
     0
102
RTVSPost2010PropOp31
 70
     1
102
RTVSPost2010Prop32
280
     0
102
RTVSPost2010PropOp32
 70
     1
102
RTVSPost2010Prop33
280
     0
102
RTVSPost2010PropOp33
 70
     1
102
RTVSPost2010Prop34
280
     0
102
RTVSPost2010PropOp34
 70
     1
102
RTVSPost2010Prop35
280
     0
102
RTVSPost2010PropOp35
 70
     1
102
RTVSPost2010Prop36
280
     0
102
RTVSPost2010PropOp36
 70
     1
102
RTVSPost2010Prop37
 90
       50
102
RTVSPost2010PropOp37
 70
     1
102
RTVSPost2010Prop38
140
0.0
102
RTVSPost2010PropOp38
 70
     1
102
RTVSPost2010Prop39
140
1.0
102
RTVSPost2010PropOp39
 70
     1
102
RTVSPost2010Prop40
 90
        0
102
RTVSPost2010PropOp40
 70
     1
102
RTVSPost2010Prop41ColorIndex
 90
       18
102
RTVSPost2010Prop41ColorRGB
 90
        0
102
RTVSPost2010PropOp41
 70
     1
102
RTVSPost2010Prop42
 90
       50
102
RTVSPost2010PropOp42
 70
     1
102
RTVSPost2010Prop43
 90
        3
102
RTVSPost2010PropOp43
 70
     1
102
RTVSPost2010Prop44ColorIndex
 90
        5
102
RTVSPost2010Prop44ColorRGB
 90
      255
102
RTVSPost2010PropOp44
 70
     1
102
RTVSPost2010Prop45
280
     0
102
RTVSPost2010PropOp45
 70
     1
102
RTVSPost2010Prop46
 90
       50
102
RTVSPost2010PropOp46
 70
     1
102
RTVSPost2010Prop47
 90
       50
102
RTVSPost2010PropOp47
 70
     1
102
RTVSPost2010Prop48
 90
       50
102
RTVSPost2010PropOp48
 70
     1
102
RTVSPost2010Prop49
280
     0
102
RTVSPost2010PropOp49
 70
     1
102
RTVSPost2010Prop50
 90
       50
102
RTVSPost2010PropOp50
 70
     1
102
RTVSPost2010Prop51ColorIndex
 90
      256
102
RTVSPost2010Prop51ColorRGB
 90
-16777216
102
RTVSPost2010PropOp51
 70
     0
102
RTVSPost2010Prop52
140
1.0
102
RTVSPost2010PropOp52
 70
     0
102
RTVSPost2010Prop53
 90
        2
102
RTVSPost2010PropOp53
 70
     1
102
RTVSPost2010Prop54
  1
strokes_ogs.tif
102
RTVSPost2010PropOp54
 70
     1
102
RTVSPost2010Prop55
280
     0
102
RTVSPost2010PropOp55
 70
     1
102
RTVSPost2010Prop56
140
1.0
102
RTVSPost2010PropOp56
 70
     1
102
RTVSPost2010Prop57
140
1.0
102
RTVSPost2010PropOp57
 70
     1
  0
XRECORD
  5
259
102
{ACAD_REACTORS
330
258
102
}
330
258
100
AcDbXrecord
280
     1
102
RTVSPropertyOp0
 70
     1
102
RTVSPropertyOp1
 70
     1
102
RTVSPropertyOp2
 70
     1
102
RTVSPropertyOp3
 70
     1
102
RTVSPropertyOp4
 70
     1
102
RTVSPropertyOp5
 70
     1
102
RTVSPropertyOp6
 70
     1
102
RTVSPropertyOp7
 70
     1
102
RTVSPropertyOp8
 70
     1
102
RTVSPropertyOp9
 70
     1
102
RTVSPropertyOp10
 70
     1
102
RTVSPropertyOp11
 70
     1
102
RTVSPropertyOp12
 70
     1
102
RTVSPropertyOp13
 70
     1
102
RTVSPropertyOp14
 70
     1
102
RTVSPropertyOp15
 70
     1
102
RTVSPropertyOp16
 70
     1
102
RTVSPropertyOp17
 70
     1
102
RTVSPropertyOp18
 70
     1
102
RTVSPropertyOp19
 70
     1
102
RTVSPropertyOp20
 70
     1
102
RTVSPropertyOp21
 70
     1
102
RTVSPropertyOp22
 70
     1
102
RTVSPropertyOp23
 70
     1
102
RTVSPropertyOp24
 70
     1
102
RTVSPropertyOp25
 70
     1
102
RTVSPropertyOp26
 70
     1
102
RTVSPropertyOp27
 70
     1
102
RTVSPropertyOp28
 70
     1
102
RTVSPropertyOp29
 70
     1
102
RTVSPropertyOp30
 70
     1
102
RTVSPropertyOp31
 70
     1
102
RTVSPropertyOp32
 70
     1
102
RTVSPropertyOp33
 70
     1
102
RTVSPropertyOp34
 70
     1
102
RTVSPropertyOp35
 70
     1
102
RTVSPropertyOp36
 70
     1
102
RTVSPropertyOp37
 70
     1
102
RTVSPropertyOp38
 70
     1
102
RTVSPropertyOp39
 70
     1
102
RTVSPropertyOp40
 70
     1
102
RTVSPropertyOp41
 70
     1
102
RTVSPropertyOp42
 70
     1
102
RTVSPropertyOp43
 70
     1
102
RTVSPropertyOp44
 70
     1
102
RTVSPropertyOp45
 70
     1
102
RTVSPropertyOp46
 70
     1
102
RTVSPropertyOp47
 70
     1
102
RTVSPropertyOp48
 70
     1
102
RTVSPropertyOp49
 70
     1
102
RTVSPropertyOp50
 70
     1
102
RTVSPropertyOp51
 70
     0
102
RTVSPropertyOp52
 70
     0
102
RTVSPropertyOp53
 70
     1
102
RTVSPropertyOp54
 70
     1
102
RTVSPropertyOp55
 70
     1
102
RTVSPropertyOp56
 70
     1
102
RTVSPropertyOp57
 70
     1
102
RTVSPost2010Prop28
280
     0
102
RTVSPost2010PropOp28
 70
     1
102
RTVSPost2010Prop29
280
     1
102
RTVSPost2010PropOp29
 70
     1
102
RTVSPost2010Prop30
280
     1
102
RTVSPost2010PropOp30
 70
     1
102
RTVSPost2010Prop31
280
     0
102
RTVSPost2010PropOp31
 70
     1
102
RTVSPost2010Prop32
280
     0
102
RTVSPost2010PropOp32
 70
     1
102
RTVSPost2010Prop33
280
     0
102
RTVSPost2010PropOp33
 70
     1
102
RTVSPost2010Prop34
280
     0
102
RTVSPost2010PropOp34
 70
     1
102
RTVSPost2010Prop35
280
     0
102
RTVSPost2010PropOp35
 70
     1
102
RTVSPost2010Prop36
280
     0
102
RTVSPost2010PropOp36
 70
     1
102
RTVSPost2010Prop37
 90
       50
102
RTVSPost2010PropOp37
 70
     1
102
RTVSPost2010Prop38
140
0.0
102
RTVSPost2010PropOp38
 70
     1
102
RTVSPost2010Prop39
140
1.0
102
RTVSPost2010PropOp39
 70
     1
102
RTVSPost2010Prop40
 90
        0
102
RTVSPost2010PropOp40
 70
     1
102
RTVSPost2010Prop41ColorIndex
 90
       18
102
RTVSPost2010Prop41ColorRGB
 90
        0
102
RTVSPost2010PropOp41
 70
     1
102
RTVSPost2010Prop42
 90
       50
102
RTVSPost2010PropOp42
 70
     1
102
RTVSPost2010Prop43
 90
        3
102
RTVSPost2010PropOp43
 70
     1
102
RTVSPost2010Prop44ColorIndex
 90
        5
102
RTVSPost2010Prop44ColorRGB
 90
      255
102
RTVSPost2010PropOp44
 70
     1
102
RTVSPost2010Prop45
280
     0
102
RTVSPost2010PropOp45
 70
     1
102
RTVSPost2010Prop46
 90
       50
102
RTVSPost2010PropOp46
 70
     1
102
RTVSPost2010Prop47
 90
       50
102
RTVSPost2010PropOp47
 70
     1
102
RTVSPost2010Prop48
 90
       50
102
RTVSPost2010PropOp48
 70
     1
102
RTVSPost2010Prop49
280
     0
102
RTVSPost2010PropOp49
 70
     1
102
RTVSPost2010Prop50
 90
       50
102
RTVSPost2010PropOp50
 70
     1
102
RTVSPost2010Prop51ColorIndex
 90
      256
102
RTVSPost2010Prop51ColorRGB
 90
-16777216
102
RTVSPost2010PropOp51
 70
     0
102
RTVSPost2010Prop52
140
1.0
102
RTVSPost2010PropOp52
 70
     0
102
RTVSPost2010Prop53
 90
        2
102
RTVSPost2010PropOp53
 70
     1
102
RTVSPost2010Prop54
  1
strokes_ogs.tif
102
RTVSPost2010PropOp54
 70
     1
102
RTVSPost2010Prop55
280
     0
102
RTVSPost2010PropOp55
 70
     1
102
RTVSPost2010Prop56
140
1.0
102
RTVSPost2010PropOp56
 70
     1
102
RTVSPost2010Prop57
140
1.0
102
RTVSPost2010PropOp57
 70
     1
  0
XRECORD
  5
261
102
{ACAD_REACTORS
330
260
102
}
330
260
100
AcDbXrecord
280
     1
102
RTVSPropertyOp0
 70
     1
102
RTVSPropertyOp1
 70
     1
102
RTVSPropertyOp2
 70
     1
102
RTVSPropertyOp3
 70
     1
102
RTVSPropertyOp4
 70
     1
102
RTVSPropertyOp5
 70
     1
102
RTVSPropertyOp6
 70
     1
102
RTVSPropertyOp7
 70
     1
102
RTVSPropertyOp8
 70
     1
102
RTVSPropertyOp9
 70
     1
102
RTVSPropertyOp10
 70
     1
102
RTVSPropertyOp11
 70
     1
102
RTVSPropertyOp12
 70
     1
102
RTVSPropertyOp13
 70
     1
102
RTVSPropertyOp14
 70
     1
102
RTVSPropertyOp15
 70
     1
102
RTVSPropertyOp16
 70
     1
102
RTVSPropertyOp17
 70
     1
102
RTVSPropertyOp18
 70
     1
102
RTVSPropertyOp19
 70
     1
102
RTVSPropertyOp20
 70
     1
102
RTVSPropertyOp21
 70
     1
102
RTVSPropertyOp22
 70
     1
102
RTVSPropertyOp23
 70
     1
102
RTVSPropertyOp24
 70
     1
102
RTVSPropertyOp25
 70
     1
102
RTVSPropertyOp26
 70
     1
102
RTVSPropertyOp27
 70
     1
102
RTVSPropertyOp28
 70
     1
102
RTVSPropertyOp29
 70
     1
102
RTVSPropertyOp30
 70
     1
102
RTVSPropertyOp31
 70
     1
102
RTVSPropertyOp32
 70
     1
102
RTVSPropertyOp33
 70
     1
102
RTVSPropertyOp34
 70
     1
102
RTVSPropertyOp35
 70
     1
102
RTVSPropertyOp36
 70
     1
102
RTVSPropertyOp37
 70
     1
102
RTVSPropertyOp38
 70
     1
102
RTVSPropertyOp39
 70
     1
102
RTVSPropertyOp40
 70
     1
102
RTVSPropertyOp41
 70
     1
102
RTVSPropertyOp42
 70
     1
102
RTVSPropertyOp43
 70
     1
102
RTVSPropertyOp44
 70
     1
102
RTVSPropertyOp45
 70
     1
102
RTVSPropertyOp46
 70
     1
102
RTVSPropertyOp47
 70
     1
102
RTVSPropertyOp48
 70
     1
102
RTVSPropertyOp49
 70
     1
102
RTVSPropertyOp50
 70
     1
102
RTVSPropertyOp51
 70
     0
102
RTVSPropertyOp52
 70
     0
102
RTVSPropertyOp53
 70
     1
102
RTVSPropertyOp54
 70
     1
102
RTVSPropertyOp55
 70
     1
102
RTVSPropertyOp56
 70
     1
102
RTVSPropertyOp57
 70
     1
102
RTVSPost2010Prop28
280
     0
102
RTVSPost2010PropOp28
 70
     1
102
RTVSPost2010Prop29
280
     1
102
RTVSPost2010PropOp29
 70
     1
102
RTVSPost2010Prop30
280
     1
102
RTVSPost2010PropOp30
 70
     1
102
RTVSPost2010Prop31
280
     0
102
RTVSPost2010PropOp31
 70
     1
102
RTVSPost2010Prop32
280
     0
102
RTVSPost2010PropOp32
 70
     1
102
RTVSPost2010Prop33
280
     0
102
RTVSPost2010PropOp33
 70
     1
102
RTVSPost2010Prop34
280
     0
102
RTVSPost2010PropOp34
 70
     1
102
RTVSPost2010Prop35
280
     0
102
RTVSPost2010PropOp35
 70
     1
102
RTVSPost2010Prop36
280
     0
102
RTVSPost2010PropOp36
 70
     1
102
RTVSPost2010Prop37
 90
       50
102
RTVSPost2010PropOp37
 70
     1
102
RTVSPost2010Prop38
140
0.0
102
RTVSPost2010PropOp38
 70
     1
102
RTVSPost2010Prop39
140
1.0
102
RTVSPost2010PropOp39
 70
     1
102
RTVSPost2010Prop40
 90
        0
102
RTVSPost2010PropOp40
 70
     1
102
RTVSPost2010Prop41ColorIndex
 90
       18
102
RTVSPost2010Prop41ColorRGB
 90
        0
102
RTVSPost2010PropOp41
 70
     1
102
RTVSPost2010Prop42
 90
       50
102
RTVSPost2010PropOp42
 70
     1
102
RTVSPost2010Prop43
 90
        3
102
RTVSPost2010PropOp43
 70
     1
102
RTVSPost2010Prop44ColorIndex
 90
        5
102
RTVSPost2010Prop44ColorRGB
 90
      255
102
RTVSPost2010PropOp44
 70
     1
102
RTVSPost2010Prop45
280
     0
102
RTVSPost2010PropOp45
 70
     1
102
RTVSPost2010Prop46
 90
       50
102
RTVSPost2010PropOp46
 70
     1
102
RTVSPost2010Prop47
 90
       50
102
RTVSPost2010PropOp47
 70
     1
102
RTVSPost2010Prop48
 90
       50
102
RTVSPost2010PropOp48
 70
     1
102
RTVSPost2010Prop49
280
     0
102
RTVSPost2010PropOp49
 70
     1
102
RTVSPost2010Prop50
 90
       50
102
RTVSPost2010PropOp50
 70
     1
102
RTVSPost2010Prop51ColorIndex
 90
      256
102
RTVSPost2010Prop51ColorRGB
 90
-16777216
102
RTVSPost2010PropOp51
 70
     0
102
RTVSPost2010Prop52
140
1.0
102
RTVSPost2010PropOp52
 70
     0
102
RTVSPost2010Prop53
 90
        2
102
RTVSPost2010PropOp53
 70
     1
102
RTVSPost2010Prop54
  1
strokes_ogs.tif
102
RTVSPost2010PropOp54
 70
     1
102
RTVSPost2010Prop55
280
     0
102
RTVSPost2010PropOp55
 70
     1
102
RTVSPost2010Prop56
140
1.0
102
RTVSPost2010PropOp56
 70
     1
102
RTVSPost2010Prop57
140
1.0
102
RTVSPost2010PropOp57
 70
     1
  0
XRECORD
  5
269
102
{ACAD_REACTORS
330
268
102
}
330
268
100
AcDbXrecord
280
     1
102
RTVSPropertyOp0
 70
     1
102
RTVSPropertyOp1
 70
     1
102
RTVSPropertyOp2
 70
     1
102
RTVSPropertyOp3
 70
     1
102
RTVSPropertyOp4
 70
     1
102
RTVSPropertyOp5
 70
     1
102
RTVSPropertyOp6
 70
     1
102
RTVSPropertyOp7
 70
     1
102
RTVSPropertyOp8
 70
     1
102
RTVSPropertyOp9
 70
     1
102
RTVSPropertyOp10
 70
     1
102
RTVSPropertyOp11
 70
     1
102
RTVSPropertyOp12
 70
     1
102
RTVSPropertyOp13
 70
     1
102
RTVSPropertyOp14
 70
     1
102
RTVSPropertyOp15
 70
     1
102
RTVSPropertyOp16
 70
     1
102
RTVSPropertyOp17
 70
     1
102
RTVSPropertyOp18
 70
     1
102
RTVSPropertyOp19
 70
     1
102
RTVSPropertyOp20
 70
     1
102
RTVSPropertyOp21
 70
     1
102
RTVSPropertyOp22
 70
     1
102
RTVSPropertyOp23
 70
     1
102
RTVSPropertyOp24
 70
     1
102
RTVSPropertyOp25
 70
     1
102
RTVSPropertyOp26
 70
     1
102
RTVSPropertyOp27
 70
     1
102
RTVSPropertyOp28
 70
     1
102
RTVSPropertyOp29
 70
     1
102
RTVSPropertyOp30
 70
     1
102
RTVSPropertyOp31
 70
     1
102
RTVSPropertyOp32
 70
     1
102
RTVSPropertyOp33
 70
     1
102
RTVSPropertyOp34
 70
     1
102
RTVSPropertyOp35
 70
     1
102
RTVSPropertyOp36
 70
     1
102
RTVSPropertyOp37
 70
     1
102
RTVSPropertyOp38
 70
     1
102
RTVSPropertyOp39
 70
     1
102
RTVSPropertyOp40
 70
     1
102
RTVSPropertyOp41
 70
     1
102
RTVSPropertyOp42
 70
     1
102
RTVSPropertyOp43
 70
     1
102
RTVSPropertyOp44
 70
     1
102
RTVSPropertyOp45
 70
     1
102
RTVSPropertyOp46
 70
     1
102
RTVSPropertyOp47
 70
     1
102
RTVSPropertyOp48
 70
     1
102
RTVSPropertyOp49
 70
     1
102
RTVSPropertyOp50
 70
     1
102
RTVSPropertyOp51
 70
     0
102
RTVSPropertyOp52
 70
     0
102
RTVSPropertyOp53
 70
     1
102
RTVSPropertyOp54
 70
     1
102
RTVSPropertyOp55
 70
     1
102
RTVSPropertyOp56
 70
     1
102
RTVSPropertyOp57
 70
     1
102
RTVSPost2010Prop28
280
     0
102
RTVSPost2010PropOp28
 70
     1
102
RTVSPost2010Prop29
280
     1
102
RTVSPost2010PropOp29
 70
     1
102
RTVSPost2010Prop30
280
     1
102
RTVSPost2010PropOp30
 70
     1
102
RTVSPost2010Prop31
280
     0
102
RTVSPost2010PropOp31
 70
     1
102
RTVSPost2010Prop32
280
     0
102
RTVSPost2010PropOp32
 70
     1
102
RTVSPost2010Prop33
280
     0
102
RTVSPost2010PropOp33
 70
     1
102
RTVSPost2010Prop34
280
     0
102
RTVSPost2010PropOp34
 70
     1
102
RTVSPost2010Prop35
280
     0
102
RTVSPost2010PropOp35
 70
     1
102
RTVSPost2010Prop36
280
     0
102
RTVSPost2010PropOp36
 70
     1
102
RTVSPost2010Prop37
 90
       50
102
RTVSPost2010PropOp37
 70
     1
102
RTVSPost2010Prop38
140
0.0
102
RTVSPost2010PropOp38
 70
     1
102
RTVSPost2010Prop39
140
1.0
102
RTVSPost2010PropOp39
 70
     1
102
RTVSPost2010Prop40
 90
        0
102
RTVSPost2010PropOp40
 70
     1
102
RTVSPost2010Prop41ColorIndex
 90
       18
102
RTVSPost2010Prop41ColorRGB
 90
        0
102
RTVSPost2010PropOp41
 70
     1
102
RTVSPost2010Prop42
 90
       50
102
RTVSPost2010PropOp42
 70
     1
102
RTVSPost2010Prop43
 90
        3
102
RTVSPost2010PropOp43
 70
     1
102
RTVSPost2010Prop44ColorIndex
 90
        5
102
RTVSPost2010Prop44ColorRGB
 90
      255
102
RTVSPost2010PropOp44
 70
     1
102
RTVSPost2010Prop45
280
     0
102
RTVSPost2010PropOp45
 70
     1
102
RTVSPost2010Prop46
 90
       50
102
RTVSPost2010PropOp46
 70
     1
102
RTVSPost2010Prop47
 90
       50
102
RTVSPost2010PropOp47
 70
     1
102
RTVSPost2010Prop48
 90
       50
102
RTVSPost2010PropOp48
 70
     1
102
RTVSPost2010Prop49
280
     0
102
RTVSPost2010PropOp49
 70
     1
102
RTVSPost2010Prop50
 90
       50
102
RTVSPost2010PropOp50
 70
     1
102
RTVSPost2010Prop51ColorIndex
 90
      256
102
RTVSPost2010Prop51ColorRGB
 90
-16777216
102
RTVSPost2010PropOp51
 70
     0
102
RTVSPost2010Prop52
140
1.0
102
RTVSPost2010PropOp52
 70
     0
102
RTVSPost2010Prop53
 90
        2
102
RTVSPost2010PropOp53
 70
     1
102
RTVSPost2010Prop54
  1
strokes_ogs.tif
102
RTVSPost2010PropOp54
 70
     1
102
RTVSPost2010Prop55
280
     0
102
RTVSPost2010PropOp55
 70
     1
102
RTVSPost2010Prop56
140
1.0
102
RTVSPost2010PropOp56
 70
     1
102
RTVSPost2010Prop57
140
1.0
102
RTVSPost2010PropOp57
 70
     1
  0
XRECORD
  5
25D
102
{ACAD_REACTORS
330
25C
102
}
330
25C
100
AcDbXrecord
280
     1
102
RTVSPropertyOp0
 70
     1
102
RTVSPropertyOp1
 70
     1
102
RTVSPropertyOp2
 70
     1
102
RTVSPropertyOp3
 70
     1
102
RTVSPropertyOp4
 70
     1
102
RTVSPropertyOp5
 70
     1
102
RTVSPropertyOp6
 70
     1
102
RTVSPropertyOp7
 70
     1
102
RTVSPropertyOp8
 70
     1
102
RTVSPropertyOp9
 70
     1
102
RTVSPropertyOp10
 70
     1
102
RTVSPropertyOp11
 70
     1
102
RTVSPropertyOp12
 70
     1
102
RTVSPropertyOp13
 70
     1
102
RTVSPropertyOp14
 70
     1
102
RTVSPropertyOp15
 70
     1
102
RTVSPropertyOp16
 70
     1
102
RTVSPropertyOp17
 70
     1
102
RTVSPropertyOp18
 70
     1
102
RTVSPropertyOp19
 70
     1
102
RTVSPropertyOp20
 70
     1
102
RTVSPropertyOp21
 70
     1
102
RTVSPropertyOp22
 70
     1
102
RTVSPropertyOp23
 70
     1
102
RTVSPropertyOp24
 70
     1
102
RTVSPropertyOp25
 70
     1
102
RTVSPropertyOp26
 70
     1
102
RTVSPropertyOp27
 70
     1
102
RTVSPropertyOp28
 70
     1
102
RTVSPropertyOp29
 70
     1
102
RTVSPropertyOp30
 70
     1
102
RTVSPropertyOp31
 70
     1
102
RTVSPropertyOp32
 70
     1
102
RTVSPropertyOp33
 70
     1
102
RTVSPropertyOp34
 70
     1
102
RTVSPropertyOp35
 70
     1
102
RTVSPropertyOp36
 70
     1
102
RTVSPropertyOp37
 70
     1
102
RTVSPropertyOp38
 70
     1
102
RTVSPropertyOp39
 70
     1
102
RTVSPropertyOp40
 70
     1
102
RTVSPropertyOp41
 70
     1
102
RTVSPropertyOp42
 70
     1
102
RTVSPropertyOp43
 70
     1
102
RTVSPropertyOp44
 70
     1
102
RTVSPropertyOp45
 70
     1
102
RTVSPropertyOp46
 70
     1
102
RTVSPropertyOp47
 70
     1
102
RTVSPropertyOp48
 70
     1
102
RTVSPropertyOp49
 70
     1
102
RTVSPropertyOp50
 70
     1
102
RTVSPropertyOp51
 70
     0
102
RTVSPropertyOp52
 70
     0
102
RTVSPropertyOp53
 70
     1
102
RTVSPropertyOp54
 70
     1
102
RTVSPropertyOp55
 70
     1
102
RTVSPropertyOp56
 70
     1
102
RTVSPropertyOp57
 70
     1
102
RTVSPost2010Prop28
280
     0
102
RTVSPost2010PropOp28
 70
     1
102
RTVSPost2010Prop29
280
     1
102
RTVSPost2010PropOp29
 70
     1
102
RTVSPost2010Prop30
280
     1
102
RTVSPost2010PropOp30
 70
     1
102
RTVSPost2010Prop31
280
     0
102
RTVSPost2010PropOp31
 70
     1
102
RTVSPost2010Prop32
280
     0
102
RTVSPost2010PropOp32
 70
     1
102
RTVSPost2010Prop33
280
     0
102
RTVSPost2010PropOp33
 70
     1
102
RTVSPost2010Prop34
280
     0
102
RTVSPost2010PropOp34
 70
     1
102
RTVSPost2010Prop35
280
     0
102
RTVSPost2010PropOp35
 70
     1
102
RTVSPost2010Prop36
280
     0
102
RTVSPost2010PropOp36
 70
     1
102
RTVSPost2010Prop37
 90
       50
102
RTVSPost2010PropOp37
 70
     1
102
RTVSPost2010Prop38
140
0.0
102
RTVSPost2010PropOp38
 70
     1
102
RTVSPost2010Prop39
140
1.0
102
RTVSPost2010PropOp39
 70
     1
102
RTVSPost2010Prop40
 90
        0
102
RTVSPost2010PropOp40
 70
     1
102
RTVSPost2010Prop41ColorIndex
 90
       18
102
RTVSPost2010Prop41ColorRGB
 90
        0
102
RTVSPost2010PropOp41
 70
     1
102
RTVSPost2010Prop42
 90
       50
102
RTVSPost2010PropOp42
 70
     1
102
RTVSPost2010Prop43
 90
        3
102
RTVSPost2010PropOp43
 70
     1
102
RTVSPost2010Prop44ColorIndex
 90
        5
102
RTVSPost2010Prop44ColorRGB
 90
      255
102
RTVSPost2010PropOp44
 70
     1
102
RTVSPost2010Prop45
280
     0
102
RTVSPost2010PropOp45
 70
     1
102
RTVSPost2010Prop46
 90
       50
102
RTVSPost2010PropOp46
 70
     1
102
RTVSPost2010Prop47
 90
       50
102
RTVSPost2010PropOp47
 70
     1
102
RTVSPost2010Prop48
 90
       50
102
RTVSPost2010PropOp48
 70
     1
102
RTVSPost2010Prop49
280
     0
102
RTVSPost2010PropOp49
 70
     1
102
RTVSPost2010Prop50
 90
       50
102
RTVSPost2010PropOp50
 70
     1
102
RTVSPost2010Prop51ColorIndex
 90
      256
102
RTVSPost2010Prop51ColorRGB
 90
-16777216
102
RTVSPost2010PropOp51
 70
     0
102
RTVSPost2010Prop52
140
1.0
102
RTVSPost2010PropOp52
 70
     0
102
RTVSPost2010Prop53
 90
        2
102
RTVSPost2010PropOp53
 70
     1
102
RTVSPost2010Prop54
  1
strokes_ogs.tif
102
RTVSPost2010PropOp54
 70
     1
102
RTVSPost2010Prop55
280
     0
102
RTVSPost2010PropOp55
 70
     1
102
RTVSPost2010Prop56
140
1.0
102
RTVSPost2010PropOp56
 70
     1
102
RTVSPost2010Prop57
140
1.0
102
RTVSPost2010PropOp57
 70
     1
  0
XRECORD
  5
25F
102
{ACAD_REACTORS
330
25E
102
}
330
25E
100
AcDbXrecord
280
     1
102
RTVSPropertyOp0
 70
     1
102
RTVSPropertyOp1
 70
     1
102
RTVSPropertyOp2
 70
     1
102
RTVSPropertyOp3
 70
     1
102
RTVSPropertyOp4
 70
     1
102
RTVSPropertyOp5
 70
     1
102
RTVSPropertyOp6
 70
     1
102
RTVSPropertyOp7
 70
     1
102
RTVSPropertyOp8
 70
     1
102
RTVSPropertyOp9
 70
     1
102
RTVSPropertyOp10
 70
     1
102
RTVSPropertyOp11
 70
     1
102
RTVSPropertyOp12
 70
     1
102
RTVSPropertyOp13
 70
     1
102
RTVSPropertyOp14
 70
     1
102
RTVSPropertyOp15
 70
     1
102
RTVSPropertyOp16
 70
     1
102
RTVSPropertyOp17
 70
     1
102
RTVSPropertyOp18
 70
     1
102
RTVSPropertyOp19
 70
     1
102
RTVSPropertyOp20
 70
     1
102
RTVSPropertyOp21
 70
     1
102
RTVSPropertyOp22
 70
     1
102
RTVSPropertyOp23
 70
     1
102
RTVSPropertyOp24
 70
     1
102
RTVSPropertyOp25
 70
     1
102
RTVSPropertyOp26
 70
     1
102
RTVSPropertyOp27
 70
     1
102
RTVSPropertyOp28
 70
     1
102
RTVSPropertyOp29
 70
     1
102
RTVSPropertyOp30
 70
     1
102
RTVSPropertyOp31
 70
     1
102
RTVSPropertyOp32
 70
     1
102
RTVSPropertyOp33
 70
     1
102
RTVSPropertyOp34
 70
     1
102
RTVSPropertyOp35
 70
     1
102
RTVSPropertyOp36
 70
     1
102
RTVSPropertyOp37
 70
     1
102
RTVSPropertyOp38
 70
     1
102
RTVSPropertyOp39
 70
     1
102
RTVSPropertyOp40
 70
     1
102
RTVSPropertyOp41
 70
     1
102
RTVSPropertyOp42
 70
     1
102
RTVSPropertyOp43
 70
     1
102
RTVSPropertyOp44
 70
     1
102
RTVSPropertyOp45
 70
     1
102
RTVSPropertyOp46
 70
     1
102
RTVSPropertyOp47
 70
     1
102
RTVSPropertyOp48
 70
     1
102
RTVSPropertyOp49
 70
     1
102
RTVSPropertyOp50
 70
     1
102
RTVSPropertyOp51
 70
     0
102
RTVSPropertyOp52
 70
     0
102
RTVSPropertyOp53
 70
     1
102
RTVSPropertyOp54
 70
     1
102
RTVSPropertyOp55
 70
     1
102
RTVSPropertyOp56
 70
     1
102
RTVSPropertyOp57
 70
     1
102
RTVSPost2010Prop28
280
     0
102
RTVSPost2010PropOp28
 70
     1
102
RTVSPost2010Prop29
280
     1
102
RTVSPost2010PropOp29
 70
     1
102
RTVSPost2010Prop30
280
     1
102
RTVSPost2010PropOp30
 70
     1
102
RTVSPost2010Prop31
280
     0
102
RTVSPost2010PropOp31
 70
     1
102
RTVSPost2010Prop32
280
     0
102
RTVSPost2010PropOp32
 70
     1
102
RTVSPost2010Prop33
280
     0
102
RTVSPost2010PropOp33
 70
     1
102
RTVSPost2010Prop34
280
     0
102
RTVSPost2010PropOp34
 70
     1
102
RTVSPost2010Prop35
280
     0
102
RTVSPost2010PropOp35
 70
     1
102
RTVSPost2010Prop36
280
     0
102
RTVSPost2010PropOp36
 70
     1
102
RTVSPost2010Prop37
 90
       50
102
RTVSPost2010PropOp37
 70
     1
102
RTVSPost2010Prop38
140
0.0
102
RTVSPost2010PropOp38
 70
     1
102
RTVSPost2010Prop39
140
1.0
102
RTVSPost2010PropOp39
 70
     1
102
RTVSPost2010Prop40
 90
        0
102
RTVSPost2010PropOp40
 70
     1
102
RTVSPost2010Prop41ColorIndex
 90
       18
102
RTVSPost2010Prop41ColorRGB
 90
        0
102
RTVSPost2010PropOp41
 70
     1
102
RTVSPost2010Prop42
 90
       50
102
RTVSPost2010PropOp42
 70
     1
102
RTVSPost2010Prop43
 90
        3
102
RTVSPost2010PropOp43
 70
     1
102
RTVSPost2010Prop44ColorIndex
 90
        5
102
RTVSPost2010Prop44ColorRGB
 90
      255
102
RTVSPost2010PropOp44
 70
     1
102
RTVSPost2010Prop45
280
     0
102
RTVSPost2010PropOp45
 70
     1
102
RTVSPost2010Prop46
 90
       50
102
RTVSPost2010PropOp46
 70
     1
102
RTVSPost2010Prop47
 90
       50
102
RTVSPost2010PropOp47
 70
     1
102
RTVSPost2010Prop48
 90
       50
102
RTVSPost2010PropOp48
 70
     1
102
RTVSPost2010Prop49
280
     0
102
RTVSPost2010PropOp49
 70
     1
102
RTVSPost2010Prop50
 90
       50
102
RTVSPost2010PropOp50
 70
     1
102
RTVSPost2010Prop51ColorIndex
 90
      256
102
RTVSPost2010Prop51ColorRGB
 90
-16777216
102
RTVSPost2010PropOp51
 70
     0
102
RTVSPost2010Prop52
140
1.0
102
RTVSPost2010PropOp52
 70
     0
102
RTVSPost2010Prop53
 90
        2
102
RTVSPost2010PropOp53
 70
     1
102
RTVSPost2010Prop54
  1
strokes_ogs.tif
102
RTVSPost2010PropOp54
 70
     1
102
RTVSPost2010Prop55
280
     0
102
RTVSPost2010PropOp55
 70
     1
102
RTVSPost2010Prop56
140
1.0
102
RTVSPost2010PropOp56
 70
     1
102
RTVSPost2010Prop57
140
1.0
102
RTVSPost2010PropOp57
 70
     1
  0
XRECORD
  5
26F
102
{ACAD_REACTORS
330
26E
102
}
330
26E
100
AcDbXrecord
280
     1
102
RTVSPropertyOp0
 70
     0
102
RTVSPropertyOp1
 70
     0
102
RTVSPropertyOp2
 70
     0
102
RTVSPropertyOp3
 70
     0
102
RTVSPropertyOp4
 70
     0
102
RTVSPropertyOp5
 70
     0
102
RTVSPropertyOp6
 70
     0
102
RTVSPropertyOp7
 70
     0
102
RTVSPropertyOp8
 70
     0
102
RTVSPropertyOp9
 70
     0
102
RTVSPropertyOp10
 70
     0
102
RTVSPropertyOp11
 70
     0
102
RTVSPropertyOp12
 70
     0
102
RTVSPropertyOp13
 70
     0
102
RTVSPropertyOp14
 70
     2
102
RTVSPropertyOp15
 70
     0
102
RTVSPropertyOp16
 70
     0
102
RTVSPropertyOp17
 70
     0
102
RTVSPropertyOp18
 70
     0
102
RTVSPropertyOp19
 70
     0
102
RTVSPropertyOp20
 70
     0
102
RTVSPropertyOp21
 70
     0
102
RTVSPropertyOp22
 70
     0
102
RTVSPropertyOp23
 70
     0
102
RTVSPropertyOp24
 70
     0
102
RTVSPropertyOp25
 70
     0
102
RTVSPropertyOp26
 70
     0
102
RTVSPropertyOp27
 70
     0
102
RTVSPropertyOp28
 70
     0
102
RTVSPropertyOp29
 70
     0
102
RTVSPropertyOp30
 70
     0
102
RTVSPropertyOp31
 70
     0
102
RTVSPropertyOp32
 70
     0
102
RTVSPropertyOp33
 70
     0
102
RTVSPropertyOp34
 70
     0
102
RTVSPropertyOp35
 70
     0
102
RTVSPropertyOp36
 70
     0
102
RTVSPropertyOp37
 70
     0
102
RTVSPropertyOp38
 70
     0
102
RTVSPropertyOp39
 70
     0
102
RTVSPropertyOp40
 70
     0
102
RTVSPropertyOp41
 70
     0
102
RTVSPropertyOp42
 70
     0
102
RTVSPropertyOp43
 70
     0
102
RTVSPropertyOp44
 70
     0
102
RTVSPropertyOp45
 70
     0
102
RTVSPropertyOp46
 70
     0
102
RTVSPropertyOp47
 70
     0
102
RTVSPropertyOp48
 70
     0
102
RTVSPropertyOp49
 70
     0
102
RTVSPropertyOp50
 70
     0
102
RTVSPropertyOp51
 70
     0
102
RTVSPropertyOp52
 70
     0
102
RTVSPropertyOp53
 70
     0
102
RTVSPropertyOp54
 70
     0
102
RTVSPropertyOp55
 70
     0
102
RTVSPropertyOp56
 70
     0
102
RTVSPropertyOp57
 70
     0
102
RTVSPost2010Prop28
280
     0
102
RTVSPost2010PropOp28
 70
     0
102
RTVSPost2010Prop29
280
     1
102
RTVSPost2010PropOp29
 70
     0
102
RTVSPost2010Prop30
280
     1
102
RTVSPost2010PropOp30
 70
     0
102
RTVSPost2010Prop31
280
     0
102
RTVSPost2010PropOp31
 70
     0
102
RTVSPost2010Prop32
280
     0
102
RTVSPost2010PropOp32
 70
     0
102
RTVSPost2010Prop33
280
     0
102
RTVSPost2010PropOp33
 70
     0
102
RTVSPost2010Prop34
280
     0
102
RTVSPost2010PropOp34
 70
     0
102
RTVSPost2010Prop35
280
     0
102
RTVSPost2010PropOp35
 70
     0
102
RTVSPost2010Prop36
280
     0
102
RTVSPost2010PropOp36
 70
     0
102
RTVSPost2010Prop37
 90
       50
102
RTVSPost2010PropOp37
 70
     0
102
RTVSPost2010Prop38
140
0.0
102
RTVSPost2010PropOp38
 70
     0
102
RTVSPost2010Prop39
140
1.0
102
RTVSPost2010PropOp39
 70
     0
102
RTVSPost2010Prop40
 90
        0
102
RTVSPost2010PropOp40
 70
     0
102
RTVSPost2010Prop41ColorIndex
 90
       18
102
RTVSPost2010Prop41ColorRGB
 90
        0
102
RTVSPost2010PropOp41
 70
     0
102
RTVSPost2010Prop42
 90
       50
102
RTVSPost2010PropOp42
 70
     0
102
RTVSPost2010Prop43
 90
        3
102
RTVSPost2010PropOp43
 70
     0
102
RTVSPost2010Prop44ColorIndex
 90
        5
102
RTVSPost2010Prop44ColorRGB
 90
      255
102
RTVSPost2010PropOp44
 70
     0
102
RTVSPost2010Prop45
280
     0
102
RTVSPost2010PropOp45
 70
     0
102
RTVSPost2010Prop46
 90
       50
102
RTVSPost2010PropOp46
 70
     0
102
RTVSPost2010Prop47
 90
       50
102
RTVSPost2010PropOp47
 70
     0
102
RTVSPost2010Prop48
 90
       50
102
RTVSPost2010PropOp48
 70
     0
102
RTVSPost2010Prop49
280
     0
102
RTVSPost2010PropOp49
 70
     0
102
RTVSPost2010Prop50
 90
       50
102
RTVSPost2010PropOp50
 70
     0
102
RTVSPost2010Prop51ColorIndex
 90
      256
102
RTVSPost2010Prop51ColorRGB
 90
-16777216
102
RTVSPost2010PropOp51
 70
     0
102
RTVSPost2010Prop52
140
1.0
102
RTVSPost2010PropOp52
 70
     0
102
RTVSPost2010Prop53
 90
        2
102
RTVSPost2010PropOp53
 70
     0
102
RTVSPost2010Prop54
  1
strokes_ogs.tif
102
RTVSPost2010PropOp54
 70
     0
102
RTVSPost2010Prop55
280
     0
102
RTVSPost2010PropOp55
 70
     0
102
RTVSPost2010Prop56
140
1.0
102
RTVSPost2010PropOp56
 70
     0
102
RTVSPost2010Prop57
140
1.0
102
RTVSPost2010PropOp57
 70
     0
  0
XRECORD
  5
267
102
{ACAD_REACTORS
330
266
102
}
330
266
100
AcDbXrecord
280
     1
102
RTVSPropertyOp0
 70
     1
102
RTVSPropertyOp1
 70
     1
102
RTVSPropertyOp2
 70
     1
102
RTVSPropertyOp3
 70
     1
102
RTVSPropertyOp4
 70
     1
102
RTVSPropertyOp5
 70
     1
102
RTVSPropertyOp6
 70
     1
102
RTVSPropertyOp7
 70
     1
102
RTVSPropertyOp8
 70
     1
102
RTVSPropertyOp9
 70
     1
102
RTVSPropertyOp10
 70
     1
102
RTVSPropertyOp11
 70
     1
102
RTVSPropertyOp12
 70
     1
102
RTVSPropertyOp13
 70
     1
102
RTVSPropertyOp14
 70
     1
102
RTVSPropertyOp15
 70
     1
102
RTVSPropertyOp16
 70
     1
102
RTVSPropertyOp17
 70
     1
102
RTVSPropertyOp18
 70
     1
102
RTVSPropertyOp19
 70
     1
102
RTVSPropertyOp20
 70
     1
102
RTVSPropertyOp21
 70
     1
102
RTVSPropertyOp22
 70
     1
102
RTVSPropertyOp23
 70
     1
102
RTVSPropertyOp24
 70
     1
102
RTVSPropertyOp25
 70
     1
102
RTVSPropertyOp26
 70
     1
102
RTVSPropertyOp27
 70
     1
102
RTVSPropertyOp28
 70
     1
102
RTVSPropertyOp29
 70
     1
102
RTVSPropertyOp30
 70
     1
102
RTVSPropertyOp31
 70
     1
102
RTVSPropertyOp32
 70
     1
102
RTVSPropertyOp33
 70
     1
102
RTVSPropertyOp34
 70
     1
102
RTVSPropertyOp35
 70
     1
102
RTVSPropertyOp36
 70
     1
102
RTVSPropertyOp37
 70
     1
102
RTVSPropertyOp38
 70
     1
102
RTVSPropertyOp39
 70
     1
102
RTVSPropertyOp40
 70
     1
102
RTVSPropertyOp41
 70
     1
102
RTVSPropertyOp42
 70
     1
102
RTVSPropertyOp43
 70
     1
102
RTVSPropertyOp44
 70
     1
102
RTVSPropertyOp45
 70
     1
102
RTVSPropertyOp46
 70
     1
102
RTVSPropertyOp47
 70
     1
102
RTVSPropertyOp48
 70
     1
102
RTVSPropertyOp49
 70
     1
102
RTVSPropertyOp50
 70
     1
102
RTVSPropertyOp51
 70
     0
102
RTVSPropertyOp52
 70
     0
102
RTVSPropertyOp53
 70
     1
102
RTVSPropertyOp54
 70
     1
102
RTVSPropertyOp55
 70
     1
102
RTVSPropertyOp56
 70
     1
102
RTVSPropertyOp57
 70
     1
102
RTVSPost2010Prop28
280
     0
102
RTVSPost2010PropOp28
 70
     1
102
RTVSPost2010Prop29
280
     1
102
RTVSPost2010PropOp29
 70
     1
102
RTVSPost2010Prop30
280
     1
102
RTVSPost2010PropOp30
 70
     1
102
RTVSPost2010Prop31
280
     0
102
RTVSPost2010PropOp31
 70
     1
102
RTVSPost2010Prop32
280
     0
102
RTVSPost2010PropOp32
 70
     1
102
RTVSPost2010Prop33
280
     0
102
RTVSPost2010PropOp33
 70
     1
102
RTVSPost2010Prop34
280
     0
102
RTVSPost2010PropOp34
 70
     1
102
RTVSPost2010Prop35
280
     0
102
RTVSPost2010PropOp35
 70
     1
102
RTVSPost2010Prop36
280
     0
102
RTVSPost2010PropOp36
 70
     1
102
RTVSPost2010Prop37
 90
       50
102
RTVSPost2010PropOp37
 70
     1
102
RTVSPost2010Prop38
140
0.0
102
RTVSPost2010PropOp38
 70
     1
102
RTVSPost2010Prop39
140
1.0
102
RTVSPost2010PropOp39
 70
     1
102
RTVSPost2010Prop40
 90
        0
102
RTVSPost2010PropOp40
 70
     1
102
RTVSPost2010Prop41ColorIndex
 90
       18
102
RTVSPost2010Prop41ColorRGB
 90
        0
102
RTVSPost2010PropOp41
 70
     1
102
RTVSPost2010Prop42
 90
       50
102
RTVSPost2010PropOp42
 70
     1
102
RTVSPost2010Prop43
 90
        3
102
RTVSPost2010PropOp43
 70
     1
102
RTVSPost2010Prop44ColorIndex
 90
        5
102
RTVSPost2010Prop44ColorRGB
 90
      255
102
RTVSPost2010PropOp44
 70
     1
102
RTVSPost2010Prop45
280
     0
102
RTVSPost2010PropOp45
 70
     1
102
RTVSPost2010Prop46
 90
       50
102
RTVSPost2010PropOp46
 70
     1
102
RTVSPost2010Prop47
 90
       50
102
RTVSPost2010PropOp47
 70
     1
102
RTVSPost2010Prop48
 90
       50
102
RTVSPost2010PropOp48
 70
     1
102
RTVSPost2010Prop49
280
     0
102
RTVSPost2010PropOp49
 70
     1
102
RTVSPost2010Prop50
 90
       50
102
RTVSPost2010PropOp50
 70
     1
102
RTVSPost2010Prop51ColorIndex
 90
      256
102
RTVSPost2010Prop51ColorRGB
 90
-16777216
102
RTVSPost2010PropOp51
 70
     0
102
RTVSPost2010Prop52
140
1.0
102
RTVSPost2010PropOp52
 70
     0
102
RTVSPost2010Prop53
 90
        2
102
RTVSPost2010PropOp53
 70
     1
102
RTVSPost2010Prop54
  1
strokes_ogs.tif
102
RTVSPost2010PropOp54
 70
     1
102
RTVSPost2010Prop55
280
     0
102
RTVSPost2010PropOp55
 70
     1
102
RTVSPost2010Prop56
140
1.0
102
RTVSPost2010PropOp56
 70
     1
102
RTVSPost2010Prop57
140
1.0
102
RTVSPost2010PropOp57
 70
     1
  0
XRECORD
  5
24B
102
{ACAD_REACTORS
330
24A
102
}
330
24A
100
AcDbXrecord
280
     1
102
RTVSPropertyOp0
 70
     1
102
RTVSPropertyOp1
 70
     1
102
RTVSPropertyOp2
 70
     1
102
RTVSPropertyOp3
 70
     1
102
RTVSPropertyOp4
 70
     1
102
RTVSPropertyOp5
 70
     1
102
RTVSPropertyOp6
 70
     1
102
RTVSPropertyOp7
 70
     1
102
RTVSPropertyOp8
 70
     1
102
RTVSPropertyOp9
 70
     1
102
RTVSPropertyOp10
 70
     1
102
RTVSPropertyOp11
 70
     1
102
RTVSPropertyOp12
 70
     1
102
RTVSPropertyOp13
 70
     1
102
RTVSPropertyOp14
 70
     1
102
RTVSPropertyOp15
 70
     1
102
RTVSPropertyOp16
 70
     1
102
RTVSPropertyOp17
 70
     1
102
RTVSPropertyOp18
 70
     1
102
RTVSPropertyOp19
 70
     1
102
RTVSPropertyOp20
 70
     1
102
RTVSPropertyOp21
 70
     1
102
RTVSPropertyOp22
 70
     1
102
RTVSPropertyOp23
 70
     1
102
RTVSPropertyOp24
 70
     1
102
RTVSPropertyOp25
 70
     1
102
RTVSPropertyOp26
 70
     1
102
RTVSPropertyOp27
 70
     1
102
RTVSPropertyOp28
 70
     1
102
RTVSPropertyOp29
 70
     1
102
RTVSPropertyOp30
 70
     1
102
RTVSPropertyOp31
 70
     1
102
RTVSPropertyOp32
 70
     1
102
RTVSPropertyOp33
 70
     1
102
RTVSPropertyOp34
 70
     1
102
RTVSPropertyOp35
 70
     1
102
RTVSPropertyOp36
 70
     1
102
RTVSPropertyOp37
 70
     1
102
RTVSPropertyOp38
 70
     1
102
RTVSPropertyOp39
 70
     1
102
RTVSPropertyOp40
 70
     1
102
RTVSPropertyOp41
 70
     1
102
RTVSPropertyOp42
 70
     1
102
RTVSPropertyOp43
 70
     1
102
RTVSPropertyOp44
 70
     1
102
RTVSPropertyOp45
 70
     1
102
RTVSPropertyOp46
 70
     1
102
RTVSPropertyOp47
 70
     1
102
RTVSPropertyOp48
 70
     1
102
RTVSPropertyOp49
 70
     1
102
RTVSPropertyOp50
 70
     1
102
RTVSPropertyOp51
 70
     0
102
RTVSPropertyOp52
 70
     0
102
RTVSPropertyOp53
 70
     1
102
RTVSPropertyOp54
 70
     1
102
RTVSPropertyOp55
 70
     1
102
RTVSPropertyOp56
 70
     1
102
RTVSPropertyOp57
 70
     1
102
RTVSPost2010Prop28
280
     0
102
RTVSPost2010PropOp28
 70
     1
102
RTVSPost2010Prop29
280
     1
102
RTVSPost2010PropOp29
 70
     1
102
RTVSPost2010Prop30
280
     1
102
RTVSPost2010PropOp30
 70
     1
102
RTVSPost2010Prop31
280
     0
102
RTVSPost2010PropOp31
 70
     1
102
RTVSPost2010Prop32
280
     0
102
RTVSPost2010PropOp32
 70
     1
102
RTVSPost2010Prop33
280
     0
102
RTVSPost2010PropOp33
 70
     1
102
RTVSPost2010Prop34
280
     0
102
RTVSPost2010PropOp34
 70
     1
102
RTVSPost2010Prop35
280
     0
102
RTVSPost2010PropOp35
 70
     1
102
RTVSPost2010Prop36
280
     0
102
RTVSPost2010PropOp36
 70
     1
102
RTVSPost2010Prop37
 90
       50
102
RTVSPost2010PropOp37
 70
     1
102
RTVSPost2010Prop38
140
0.0
102
RTVSPost2010PropOp38
 70
     1
102
RTVSPost2010Prop39
140
1.0
102
RTVSPost2010PropOp39
 70
     1
102
RTVSPost2010Prop40
 90
        0
102
RTVSPost2010PropOp40
 70
     1
102
RTVSPost2010Prop41ColorIndex
 90
       18
102
RTVSPost2010Prop41ColorRGB
 90
        0
102
RTVSPost2010PropOp41
 70
     1
102
RTVSPost2010Prop42
 90
       50
102
RTVSPost2010PropOp42
 70
     1
102
RTVSPost2010Prop43
 90
        3
102
RTVSPost2010PropOp43
 70
     1
102
RTVSPost2010Prop44ColorIndex
 90
        5
102
RTVSPost2010Prop44ColorRGB
 90
      255
102
RTVSPost2010PropOp44
 70
     1
102
RTVSPost2010Prop45
280
     0
102
RTVSPost2010PropOp45
 70
     1
102
RTVSPost2010Prop46
 90
       50
102
RTVSPost2010PropOp46
 70
     1
102
RTVSPost2010Prop47
 90
       50
102
RTVSPost2010PropOp47
 70
     1
102
RTVSPost2010Prop48
 90
       50
102
RTVSPost2010PropOp48
 70
     1
102
RTVSPost2010Prop49
280
     0
102
RTVSPost2010PropOp49
 70
     1
102
RTVSPost2010Prop50
 90
       50
102
RTVSPost2010PropOp50
 70
     1
102
RTVSPost2010Prop51ColorIndex
 90
      256
102
RTVSPost2010Prop51ColorRGB
 90
-16777216
102
RTVSPost2010PropOp51
 70
     0
102
RTVSPost2010Prop52
140
1.0
102
RTVSPost2010PropOp52
 70
     0
102
RTVSPost2010Prop53
 90
        2
102
RTVSPost2010PropOp53
 70
     1
102
RTVSPost2010Prop54
  1
strokes_ogs.tif
102
RTVSPost2010PropOp54
 70
     1
102
RTVSPost2010Prop55
280
     0
102
RTVSPost2010PropOp55
 70
     1
102
RTVSPost2010Prop56
140
1.0
102
RTVSPost2010PropOp56
 70
     1
102
RTVSPost2010Prop57
140
1.0
102
RTVSPost2010PropOp57
 70
     1
  0
XRECORD
  5
24D
102
{ACAD_REACTORS
330
24C
102
}
330
24C
100
AcDbXrecord
280
     1
102
RTVSPropertyOp0
 70
     1
102
RTVSPropertyOp1
 70
     1
102
RTVSPropertyOp2
 70
     1
102
RTVSPropertyOp3
 70
     1
102
RTVSPropertyOp4
 70
     1
102
RTVSPropertyOp5
 70
     1
102
RTVSPropertyOp6
 70
     1
102
RTVSPropertyOp7
 70
     1
102
RTVSPropertyOp8
 70
     1
102
RTVSPropertyOp9
 70
     1
102
RTVSPropertyOp10
 70
     1
102
RTVSPropertyOp11
 70
     1
102
RTVSPropertyOp12
 70
     1
102
RTVSPropertyOp13
 70
     1
102
RTVSPropertyOp14
 70
     1
102
RTVSPropertyOp15
 70
     1
102
RTVSPropertyOp16
 70
     1
102
RTVSPropertyOp17
 70
     1
102
RTVSPropertyOp18
 70
     1
102
RTVSPropertyOp19
 70
     1
102
RTVSPropertyOp20
 70
     1
102
RTVSPropertyOp21
 70
     1
102
RTVSPropertyOp22
 70
     1
102
RTVSPropertyOp23
 70
     1
102
RTVSPropertyOp24
 70
     1
102
RTVSPropertyOp25
 70
     1
102
RTVSPropertyOp26
 70
     1
102
RTVSPropertyOp27
 70
     1
102
RTVSPropertyOp28
 70
     1
102
RTVSPropertyOp29
 70
     1
102
RTVSPropertyOp30
 70
     1
102
RTVSPropertyOp31
 70
     1
102
RTVSPropertyOp32
 70
     1
102
RTVSPropertyOp33
 70
     1
102
RTVSPropertyOp34
 70
     1
102
RTVSPropertyOp35
 70
     1
102
RTVSPropertyOp36
 70
     1
102
RTVSPropertyOp37
 70
     1
102
RTVSPropertyOp38
 70
     1
102
RTVSPropertyOp39
 70
     1
102
RTVSPropertyOp40
 70
     1
102
RTVSPropertyOp41
 70
     1
102
RTVSPropertyOp42
 70
     1
102
RTVSPropertyOp43
 70
     1
102
RTVSPropertyOp44
 70
     1
102
RTVSPropertyOp45
 70
     1
102
RTVSPropertyOp46
 70
     1
102
RTVSPropertyOp47
 70
     1
102
RTVSPropertyOp48
 70
     1
102
RTVSPropertyOp49
 70
     1
102
RTVSPropertyOp50
 70
     1
102
RTVSPropertyOp51
 70
     0
102
RTVSPropertyOp52
 70
     0
102
RTVSPropertyOp53
 70
     1
102
RTVSPropertyOp54
 70
     1
102
RTVSPropertyOp55
 70
     1
102
RTVSPropertyOp56
 70
     1
102
RTVSPropertyOp57
 70
     1
102
RTVSPost2010Prop28
280
     0
102
RTVSPost2010PropOp28
 70
     1
102
RTVSPost2010Prop29
280
     1
102
RTVSPost2010PropOp29
 70
     1
102
RTVSPost2010Prop30
280
     1
102
RTVSPost2010PropOp30
 70
     1
102
RTVSPost2010Prop31
280
     0
102
RTVSPost2010PropOp31
 70
     1
102
RTVSPost2010Prop32
280
     0
102
RTVSPost2010PropOp32
 70
     1
102
RTVSPost2010Prop33
280
     0
102
RTVSPost2010PropOp33
 70
     1
102
RTVSPost2010Prop34
280
     0
102
RTVSPost2010PropOp34
 70
     1
102
RTVSPost2010Prop35
280
     0
102
RTVSPost2010PropOp35
 70
     1
102
RTVSPost2010Prop36
280
     0
102
RTVSPost2010PropOp36
 70
     1
102
RTVSPost2010Prop37
 90
       50
102
RTVSPost2010PropOp37
 70
     1
102
RTVSPost2010Prop38
140
0.0
102
RTVSPost2010PropOp38
 70
     1
102
RTVSPost2010Prop39
140
1.0
102
RTVSPost2010PropOp39
 70
     1
102
RTVSPost2010Prop40
 90
        0
102
RTVSPost2010PropOp40
 70
     1
102
RTVSPost2010Prop41ColorIndex
 90
       18
102
RTVSPost2010Prop41ColorRGB
 90
        0
102
RTVSPost2010PropOp41
 70
     1
102
RTVSPost2010Prop42
 90
       50
102
RTVSPost2010PropOp42
 70
     1
102
RTVSPost2010Prop43
 90
        3
102
RTVSPost2010PropOp43
 70
     1
102
RTVSPost2010Prop44ColorIndex
 90
        5
102
RTVSPost2010Prop44ColorRGB
 90
      255
102
RTVSPost2010PropOp44
 70
     1
102
RTVSPost2010Prop45
280
     0
102
RTVSPost2010PropOp45
 70
     1
102
RTVSPost2010Prop46
 90
       50
102
RTVSPost2010PropOp46
 70
     1
102
RTVSPost2010Prop47
 90
       50
102
RTVSPost2010PropOp47
 70
     1
102
RTVSPost2010Prop48
 90
       50
102
RTVSPost2010PropOp48
 70
     1
102
RTVSPost2010Prop49
280
     0
102
RTVSPost2010PropOp49
 70
     1
102
RTVSPost2010Prop50
 90
       50
102
RTVSPost2010PropOp50
 70
     1
102
RTVSPost2010Prop51ColorIndex
 90
      256
102
RTVSPost2010Prop51ColorRGB
 90
-16777216
102
RTVSPost2010PropOp51
 70
     0
102
RTVSPost2010Prop52
140
1.0
102
RTVSPost2010PropOp52
 70
     0
102
RTVSPost2010Prop53
 90
        2
102
RTVSPost2010PropOp53
 70
     1
102
RTVSPost2010Prop54
  1
strokes_ogs.tif
102
RTVSPost2010PropOp54
 70
     1
102
RTVSPost2010Prop55
280
     0
102
RTVSPost2010PropOp55
 70
     1
102
RTVSPost2010Prop56
140
1.0
102
RTVSPost2010PropOp56
 70
     1
102
RTVSPost2010Prop57
140
1.0
102
RTVSPost2010PropOp57
 70
     1
  0
XRECORD
  5
24F
102
{ACAD_REACTORS
330
24E
102
}
330
24E
100
AcDbXrecord
280
     1
102
RTVSPropertyOp0
 70
     1
102
RTVSPropertyOp1
 70
     1
102
RTVSPropertyOp2
 70
     1
102
RTVSPropertyOp3
 70
     1
102
RTVSPropertyOp4
 70
     1
102
RTVSPropertyOp5
 70
     1
102
RTVSPropertyOp6
 70
     1
102
RTVSPropertyOp7
 70
     1
102
RTVSPropertyOp8
 70
     1
102
RTVSPropertyOp9
 70
     1
102
RTVSPropertyOp10
 70
     1
102
RTVSPropertyOp11
 70
     1
102
RTVSPropertyOp12
 70
     1
102
RTVSPropertyOp13
 70
     1
102
RTVSPropertyOp14
 70
     1
102
RTVSPropertyOp15
 70
     1
102
RTVSPropertyOp16
 70
     1
102
RTVSPropertyOp17
 70
     1
102
RTVSPropertyOp18
 70
     1
102
RTVSPropertyOp19
 70
     1
102
RTVSPropertyOp20
 70
     1
102
RTVSPropertyOp21
 70
     1
102
RTVSPropertyOp22
 70
     1
102
RTVSPropertyOp23
 70
     1
102
RTVSPropertyOp24
 70
     1
102
RTVSPropertyOp25
 70
     1
102
RTVSPropertyOp26
 70
     1
102
RTVSPropertyOp27
 70
     1
102
RTVSPropertyOp28
 70
     1
102
RTVSPropertyOp29
 70
     1
102
RTVSPropertyOp30
 70
     1
102
RTVSPropertyOp31
 70
     1
102
RTVSPropertyOp32
 70
     1
102
RTVSPropertyOp33
 70
     1
102
RTVSPropertyOp34
 70
     1
102
RTVSPropertyOp35
 70
     1
102
RTVSPropertyOp36
 70
     1
102
RTVSPropertyOp37
 70
     1
102
RTVSPropertyOp38
 70
     1
102
RTVSPropertyOp39
 70
     1
102
RTVSPropertyOp40
 70
     1
102
RTVSPropertyOp41
 70
     1
102
RTVSPropertyOp42
 70
     1
102
RTVSPropertyOp43
 70
     1
102
RTVSPropertyOp44
 70
     1
102
RTVSPropertyOp45
 70
     1
102
RTVSPropertyOp46
 70
     1
102
RTVSPropertyOp47
 70
     1
102
RTVSPropertyOp48
 70
     1
102
RTVSPropertyOp49
 70
     1
102
RTVSPropertyOp50
 70
     1
102
RTVSPropertyOp51
 70
     0
102
RTVSPropertyOp52
 70
     0
102
RTVSPropertyOp53
 70
     1
102
RTVSPropertyOp54
 70
     1
102
RTVSPropertyOp55
 70
     1
102
RTVSPropertyOp56
 70
     1
102
RTVSPropertyOp57
 70
     1
102
RTVSPost2010Prop28
280
     0
102
RTVSPost2010PropOp28
 70
     1
102
RTVSPost2010Prop29
280
     1
102
RTVSPost2010PropOp29
 70
     1
102
RTVSPost2010Prop30
280
     1
102
RTVSPost2010PropOp30
 70
     1
102
RTVSPost2010Prop31
280
     0
102
RTVSPost2010PropOp31
 70
     1
102
RTVSPost2010Prop32
280
     0
102
RTVSPost2010PropOp32
 70
     1
102
RTVSPost2010Prop33
280
     0
102
RTVSPost2010PropOp33
 70
     1
102
RTVSPost2010Prop34
280
     0
102
RTVSPost2010PropOp34
 70
     1
102
RTVSPost2010Prop35
280
     0
102
RTVSPost2010PropOp35
 70
     1
102
RTVSPost2010Prop36
280
     0
102
RTVSPost2010PropOp36
 70
     1
102
RTVSPost2010Prop37
 90
       50
102
RTVSPost2010PropOp37
 70
     1
102
RTVSPost2010Prop38
140
0.0
102
RTVSPost2010PropOp38
 70
     1
102
RTVSPost2010Prop39
140
1.0
102
RTVSPost2010PropOp39
 70
     1
102
RTVSPost2010Prop40
 90
        0
102
RTVSPost2010PropOp40
 70
     1
102
RTVSPost2010Prop41ColorIndex
 90
       18
102
RTVSPost2010Prop41ColorRGB
 90
        0
102
RTVSPost2010PropOp41
 70
     1
102
RTVSPost2010Prop42
 90
       50
102
RTVSPost2010PropOp42
 70
     1
102
RTVSPost2010Prop43
 90
        3
102
RTVSPost2010PropOp43
 70
     1
102
RTVSPost2010Prop44ColorIndex
 90
        5
102
RTVSPost2010Prop44ColorRGB
 90
      255
102
RTVSPost2010PropOp44
 70
     1
102
RTVSPost2010Prop45
280
     0
102
RTVSPost2010PropOp45
 70
     1
102
RTVSPost2010Prop46
 90
       50
102
RTVSPost2010PropOp46
 70
     1
102
RTVSPost2010Prop47
 90
       50
102
RTVSPost2010PropOp47
 70
     1
102
RTVSPost2010Prop48
 90
       50
102
RTVSPost2010PropOp48
 70
     1
102
RTVSPost2010Prop49
280
     0
102
RTVSPost2010PropOp49
 70
     1
102
RTVSPost2010Prop50
 90
       50
102
RTVSPost2010PropOp50
 70
     1
102
RTVSPost2010Prop51ColorIndex
 90
      256
102
RTVSPost2010Prop51ColorRGB
 90
-16777216
102
RTVSPost2010PropOp51
 70
     0
102
RTVSPost2010Prop52
140
1.0
102
RTVSPost2010PropOp52
 70
     0
102
RTVSPost2010Prop53
 90
        2
102
RTVSPost2010PropOp53
 70
     1
102
RTVSPost2010Prop54
  1
strokes_ogs.tif
102
RTVSPost2010PropOp54
 70
     1
102
RTVSPost2010Prop55
280
     0
102
RTVSPost2010PropOp55
 70
     1
102
RTVSPost2010Prop56
140
1.0
102
RTVSPost2010PropOp56
 70
     1
102
RTVSPost2010Prop57
140
1.0
102
RTVSPost2010PropOp57
 70
     1
  0
XRECORD
  5
251
102
{ACAD_REACTORS
330
250
102
}
330
250
100
AcDbXrecord
280
     1
102
RTVSPropertyOp0
 70
     1
102
RTVSPropertyOp1
 70
     1
102
RTVSPropertyOp2
 70
     1
102
RTVSPropertyOp3
 70
     1
102
RTVSPropertyOp4
 70
     1
102
RTVSPropertyOp5
 70
     1
102
RTVSPropertyOp6
 70
     1
102
RTVSPropertyOp7
 70
     1
102
RTVSPropertyOp8
 70
     1
102
RTVSPropertyOp9
 70
     1
102
RTVSPropertyOp10
 70
     1
102
RTVSPropertyOp11
 70
     1
102
RTVSPropertyOp12
 70
     1
102
RTVSPropertyOp13
 70
     1
102
RTVSPropertyOp14
 70
     1
102
RTVSPropertyOp15
 70
     1
102
RTVSPropertyOp16
 70
     1
102
RTVSPropertyOp17
 70
     1
102
RTVSPropertyOp18
 70
     1
102
RTVSPropertyOp19
 70
     1
102
RTVSPropertyOp20
 70
     1
102
RTVSPropertyOp21
 70
     1
102
RTVSPropertyOp22
 70
     1
102
RTVSPropertyOp23
 70
     1
102
RTVSPropertyOp24
 70
     1
102
RTVSPropertyOp25
 70
     1
102
RTVSPropertyOp26
 70
     1
102
RTVSPropertyOp27
 70
     1
102
RTVSPropertyOp28
 70
     1
102
RTVSPropertyOp29
 70
     1
102
RTVSPropertyOp30
 70
     1
102
RTVSPropertyOp31
 70
     1
102
RTVSPropertyOp32
 70
     1
102
RTVSPropertyOp33
 70
     1
102
RTVSPropertyOp34
 70
     1
102
RTVSPropertyOp35
 70
     1
102
RTVSPropertyOp36
 70
     1
102
RTVSPropertyOp37
 70
     1
102
RTVSPropertyOp38
 70
     1
102
RTVSPropertyOp39
 70
     1
102
RTVSPropertyOp40
 70
     1
102
RTVSPropertyOp41
 70
     1
102
RTVSPropertyOp42
 70
     1
102
RTVSPropertyOp43
 70
     1
102
RTVSPropertyOp44
 70
     1
102
RTVSPropertyOp45
 70
     1
102
RTVSPropertyOp46
 70
     1
102
RTVSPropertyOp47
 70
     1
102
RTVSPropertyOp48
 70
     1
102
RTVSPropertyOp49
 70
     1
102
RTVSPropertyOp50
 70
     1
102
RTVSPropertyOp51
 70
     0
102
RTVSPropertyOp52
 70
     0
102
RTVSPropertyOp53
 70
     1
102
RTVSPropertyOp54
 70
     1
102
RTVSPropertyOp55
 70
     1
102
RTVSPropertyOp56
 70
     1
102
RTVSPropertyOp57
 70
     1
102
RTVSPost2010Prop28
280
     0
102
RTVSPost2010PropOp28
 70
     1
102
RTVSPost2010Prop29
280
     1
102
RTVSPost2010PropOp29
 70
     1
102
RTVSPost2010Prop30
280
     1
102
RTVSPost2010PropOp30
 70
     1
102
RTVSPost2010Prop31
280
     0
102
RTVSPost2010PropOp31
 70
     1
102
RTVSPost2010Prop32
280
     0
102
RTVSPost2010PropOp32
 70
     1
102
RTVSPost2010Prop33
280
     0
102
RTVSPost2010PropOp33
 70
     1
102
RTVSPost2010Prop34
280
     0
102
RTVSPost2010PropOp34
 70
     1
102
RTVSPost2010Prop35
280
     0
102
RTVSPost2010PropOp35
 70
     1
102
RTVSPost2010Prop36
280
     0
102
RTVSPost2010PropOp36
 70
     1
102
RTVSPost2010Prop37
 90
       50
102
RTVSPost2010PropOp37
 70
     1
102
RTVSPost2010Prop38
140
0.0
102
RTVSPost2010PropOp38
 70
     1
102
RTVSPost2010Prop39
140
1.0
102
RTVSPost2010PropOp39
 70
     1
102
RTVSPost2010Prop40
 90
        0
102
RTVSPost2010PropOp40
 70
     1
102
RTVSPost2010Prop41ColorIndex
 90
       18
102
RTVSPost2010Prop41ColorRGB
 90
        0
102
RTVSPost2010PropOp41
 70
     1
102
RTVSPost2010Prop42
 90
       50
102
RTVSPost2010PropOp42
 70
     1
102
RTVSPost2010Prop43
 90
        3
102
RTVSPost2010PropOp43
 70
     1
102
RTVSPost2010Prop44ColorIndex
 90
        5
102
RTVSPost2010Prop44ColorRGB
 90
      255
102
RTVSPost2010PropOp44
 70
     1
102
RTVSPost2010Prop45
280
     0
102
RTVSPost2010PropOp45
 70
     1
102
RTVSPost2010Prop46
 90
       50
102
RTVSPost2010PropOp46
 70
     1
102
RTVSPost2010Prop47
 90
       50
102
RTVSPost2010PropOp47
 70
     1
102
RTVSPost2010Prop48
 90
       50
102
RTVSPost2010PropOp48
 70
     1
102
RTVSPost2010Prop49
280
     0
102
RTVSPost2010PropOp49
 70
     1
102
RTVSPost2010Prop50
 90
       50
102
RTVSPost2010PropOp50
 70
     1
102
RTVSPost2010Prop51ColorIndex
 90
      256
102
RTVSPost2010Prop51ColorRGB
 90
-16777216
102
RTVSPost2010PropOp51
 70
     0
102
RTVSPost2010Prop52
140
1.0
102
RTVSPost2010PropOp52
 70
     0
102
RTVSPost2010Prop53
 90
        2
102
RTVSPost2010PropOp53
 70
     1
102
RTVSPost2010Prop54
  1
strokes_ogs.tif
102
RTVSPost2010PropOp54
 70
     1
102
RTVSPost2010Prop55
280
     0
102
RTVSPost2010PropOp55
 70
     1
102
RTVSPost2010Prop56
140
1.0
102
RTVSPost2010PropOp56
 70
     1
102
RTVSPost2010Prop57
140
1.0
102
RTVSPost2010PropOp57
 70
     1
  0
XRECORD
  5
257
102
{ACAD_REACTORS
330
256
102
}
330
256
100
AcDbXrecord
280
     1
102
RTVSPropertyOp0
 70
     1
102
RTVSPropertyOp1
 70
     1
102
RTVSPropertyOp2
 70
     1
102
RTVSPropertyOp3
 70
     1
102
RTVSPropertyOp4
 70
     1
102
RTVSPropertyOp5
 70
     1
102
RTVSPropertyOp6
 70
     1
102
RTVSPropertyOp7
 70
     1
102
RTVSPropertyOp8
 70
     1
102
RTVSPropertyOp9
 70
     1
102
RTVSPropertyOp10
 70
     1
102
RTVSPropertyOp11
 70
     1
102
RTVSPropertyOp12
 70
     1
102
RTVSPropertyOp13
 70
     1
102
RTVSPropertyOp14
 70
     1
102
RTVSPropertyOp15
 70
     1
102
RTVSPropertyOp16
 70
     1
102
RTVSPropertyOp17
 70
     1
102
RTVSPropertyOp18
 70
     1
102
RTVSPropertyOp19
 70
     1
102
RTVSPropertyOp20
 70
     1
102
RTVSPropertyOp21
 70
     1
102
RTVSPropertyOp22
 70
     1
102
RTVSPropertyOp23
 70
     1
102
RTVSPropertyOp24
 70
     1
102
RTVSPropertyOp25
 70
     1
102
RTVSPropertyOp26
 70
     1
102
RTVSPropertyOp27
 70
     1
102
RTVSPropertyOp28
 70
     1
102
RTVSPropertyOp29
 70
     1
102
RTVSPropertyOp30
 70
     1
102
RTVSPropertyOp31
 70
     1
102
RTVSPropertyOp32
 70
     1
102
RTVSPropertyOp33
 70
     1
102
RTVSPropertyOp34
 70
     1
102
RTVSPropertyOp35
 70
     1
102
RTVSPropertyOp36
 70
     1
102
RTVSPropertyOp37
 70
     1
102
RTVSPropertyOp38
 70
     1
102
RTVSPropertyOp39
 70
     1
102
RTVSPropertyOp40
 70
     1
102
RTVSPropertyOp41
 70
     1
102
RTVSPropertyOp42
 70
     1
102
RTVSPropertyOp43
 70
     1
102
RTVSPropertyOp44
 70
     1
102
RTVSPropertyOp45
 70
     1
102
RTVSPropertyOp46
 70
     1
102
RTVSPropertyOp47
 70
     1
102
RTVSPropertyOp48
 70
     1
102
RTVSPropertyOp49
 70
     1
102
RTVSPropertyOp50
 70
     1
102
RTVSPropertyOp51
 70
     0
102
RTVSPropertyOp52
 70
     0
102
RTVSPropertyOp53
 70
     1
102
RTVSPropertyOp54
 70
     1
102
RTVSPropertyOp55
 70
     1
102
RTVSPropertyOp56
 70
     1
102
RTVSPropertyOp57
 70
     1
102
RTVSPost2010Prop28
280
     0
102
RTVSPost2010PropOp28
 70
     1
102
RTVSPost2010Prop29
280
     1
102
RTVSPost2010PropOp29
 70
     1
102
RTVSPost2010Prop30
280
     1
102
RTVSPost2010PropOp30
 70
     1
102
RTVSPost2010Prop31
280
     0
102
RTVSPost2010PropOp31
 70
     1
102
RTVSPost2010Prop32
280
     0
102
RTVSPost2010PropOp32
 70
     1
102
RTVSPost2010Prop33
280
     0
102
RTVSPost2010PropOp33
 70
     1
102
RTVSPost2010Prop34
280
     0
102
RTVSPost2010PropOp34
 70
     1
102
RTVSPost2010Prop35
280
     0
102
RTVSPost2010PropOp35
 70
     1
102
RTVSPost2010Prop36
280
     0
102
RTVSPost2010PropOp36
 70
     1
102
RTVSPost2010Prop37
 90
       50
102
RTVSPost2010PropOp37
 70
     1
102
RTVSPost2010Prop38
140
0.0
102
RTVSPost2010PropOp38
 70
     1
102
RTVSPost2010Prop39
140
1.0
102
RTVSPost2010PropOp39
 70
     1
102
RTVSPost2010Prop40
 90
        0
102
RTVSPost2010PropOp40
 70
     1
102
RTVSPost2010Prop41ColorIndex
 90
       18
102
RTVSPost2010Prop41ColorRGB
 90
        0
102
RTVSPost2010PropOp41
 70
     1
102
RTVSPost2010Prop42
 90
       50
102
RTVSPost2010PropOp42
 70
     1
102
RTVSPost2010Prop43
 90
        3
102
RTVSPost2010PropOp43
 70
     1
102
RTVSPost2010Prop44ColorIndex
 90
        5
102
RTVSPost2010Prop44ColorRGB
 90
      255
102
RTVSPost2010PropOp44
 70
     1
102
RTVSPost2010Prop45
280
     0
102
RTVSPost2010PropOp45
 70
     1
102
RTVSPost2010Prop46
 90
       50
102
RTVSPost2010PropOp46
 70
     1
102
RTVSPost2010Prop47
 90
       50
102
RTVSPost2010PropOp47
 70
     1
102
RTVSPost2010Prop48
 90
       50
102
RTVSPost2010PropOp48
 70
     1
102
RTVSPost2010Prop49
280
     0
102
RTVSPost2010PropOp49
 70
     1
102
RTVSPost2010Prop50
 90
       50
102
RTVSPost2010PropOp50
 70
     1
102
RTVSPost2010Prop51ColorIndex
 90
      256
102
RTVSPost2010Prop51ColorRGB
 90
-16777216
102
RTVSPost2010PropOp51
 70
     0
102
RTVSPost2010Prop52
140
1.0
102
RTVSPost2010PropOp52
 70
     0
102
RTVSPost2010Prop53
 90
        2
102
RTVSPost2010PropOp53
 70
     1
102
RTVSPost2010Prop54
  1
strokes_ogs.tif
102
RTVSPost2010PropOp54
 70
     1
102
RTVSPost2010Prop55
280
     0
102
RTVSPost2010PropOp55
 70
     1
102
RTVSPost2010Prop56
140
1.0
102
RTVSPost2010PropOp56
 70
     1
102
RTVSPost2010Prop57
140
1.0
102
RTVSPost2010PropOp57
 70
     1
  0
XRECORD
  5
26B
102
{ACAD_REACTORS
330
26A
102
}
330
26A
100
AcDbXrecord
280
     1
102
RTVSPropertyOp0
 70
     0
102
RTVSPropertyOp1
 70
     0
102
RTVSPropertyOp2
 70
     0
102
RTVSPropertyOp3
 70
     0
102
RTVSPropertyOp4
 70
     0
102
RTVSPropertyOp5
 70
     0
102
RTVSPropertyOp6
 70
     0
102
RTVSPropertyOp7
 70
     0
102
RTVSPropertyOp8
 70
     0
102
RTVSPropertyOp9
 70
     0
102
RTVSPropertyOp10
 70
     0
102
RTVSPropertyOp11
 70
     0
102
RTVSPropertyOp12
 70
     0
102
RTVSPropertyOp13
 70
     0
102
RTVSPropertyOp14
 70
     2
102
RTVSPropertyOp15
 70
     0
102
RTVSPropertyOp16
 70
     0
102
RTVSPropertyOp17
 70
     0
102
RTVSPropertyOp18
 70
     0
102
RTVSPropertyOp19
 70
     0
102
RTVSPropertyOp20
 70
     0
102
RTVSPropertyOp21
 70
     0
102
RTVSPropertyOp22
 70
     0
102
RTVSPropertyOp23
 70
     0
102
RTVSPropertyOp24
 70
     0
102
RTVSPropertyOp25
 70
     0
102
RTVSPropertyOp26
 70
     0
102
RTVSPropertyOp27
 70
     0
102
RTVSPropertyOp28
 70
     0
102
RTVSPropertyOp29
 70
     0
102
RTVSPropertyOp30
 70
     0
102
RTVSPropertyOp31
 70
     0
102
RTVSPropertyOp32
 70
     0
102
RTVSPropertyOp33
 70
     0
102
RTVSPropertyOp34
 70
     0
102
RTVSPropertyOp35
 70
     0
102
RTVSPropertyOp36
 70
     0
102
RTVSPropertyOp37
 70
     0
102
RTVSPropertyOp38
 70
     0
102
RTVSPropertyOp39
 70
     0
102
RTVSPropertyOp40
 70
     0
102
RTVSPropertyOp41
 70
     0
102
RTVSPropertyOp42
 70
     0
102
RTVSPropertyOp43
 70
     0
102
RTVSPropertyOp44
 70
     0
102
RTVSPropertyOp45
 70
     0
102
RTVSPropertyOp46
 70
     0
102
RTVSPropertyOp47
 70
     0
102
RTVSPropertyOp48
 70
     0
102
RTVSPropertyOp49
 70
     0
102
RTVSPropertyOp50
 70
     0
102
RTVSPropertyOp51
 70
     0
102
RTVSPropertyOp52
 70
     0
102
RTVSPropertyOp53
 70
     0
102
RTVSPropertyOp54
 70
     0
102
RTVSPropertyOp55
 70
     0
102
RTVSPropertyOp56
 70
     0
102
RTVSPropertyOp57
 70
     0
102
RTVSPost2010Prop28
280
     0
102
RTVSPost2010PropOp28
 70
     0
102
RTVSPost2010Prop29
280
     1
102
RTVSPost2010PropOp29
 70
     0
102
RTVSPost2010Prop30
280
     1
102
RTVSPost2010PropOp30
 70
     0
102
RTVSPost2010Prop31
280
     0
102
RTVSPost2010PropOp31
 70
     0
102
RTVSPost2010Prop32
280
     0
102
RTVSPost2010PropOp32
 70
     0
102
RTVSPost2010Prop33
280
     0
102
RTVSPost2010PropOp33
 70
     0
102
RTVSPost2010Prop34
280
     0
102
RTVSPost2010PropOp34
 70
     0
102
RTVSPost2010Prop35
280
     0
102
RTVSPost2010PropOp35
 70
     0
102
RTVSPost2010Prop36
280
     0
102
RTVSPost2010PropOp36
 70
     0
102
RTVSPost2010Prop37
 90
       50
102
RTVSPost2010PropOp37
 70
     0
102
RTVSPost2010Prop38
140
0.0
102
RTVSPost2010PropOp38
 70
     0
102
RTVSPost2010Prop39
140
1.0
102
RTVSPost2010PropOp39
 70
     0
102
RTVSPost2010Prop40
 90
        0
102
RTVSPost2010PropOp40
 70
     0
102
RTVSPost2010Prop41ColorIndex
 90
       18
102
RTVSPost2010Prop41ColorRGB
 90
        0
102
RTVSPost2010PropOp41
 70
     0
102
RTVSPost2010Prop42
 90
       50
102
RTVSPost2010PropOp42
 70
     0
102
RTVSPost2010Prop43
 90
        3
102
RTVSPost2010PropOp43
 70
     0
102
RTVSPost2010Prop44ColorIndex
 90
        5
102
RTVSPost2010Prop44ColorRGB
 90
      255
102
RTVSPost2010PropOp44
 70
     0
102
RTVSPost2010Prop45
280
     0
102
RTVSPost2010PropOp45
 70
     0
102
RTVSPost2010Prop46
 90
       50
102
RTVSPost2010PropOp46
 70
     0
102
RTVSPost2010Prop47
 90
       50
102
RTVSPost2010PropOp47
 70
     0
102
RTVSPost2010Prop48
 90
       50
102
RTVSPost2010PropOp48
 70
     0
102
RTVSPost2010Prop49
280
     0
102
RTVSPost2010PropOp49
 70
     0
102
RTVSPost2010Prop50
 90
       50
102
RTVSPost2010PropOp50
 70
     0
102
RTVSPost2010Prop51ColorIndex
 90
      256
102
RTVSPost2010Prop51ColorRGB
 90
-16777216
102
RTVSPost2010PropOp51
 70
     0
102
RTVSPost2010Prop52
140
1.0
102
RTVSPost2010PropOp52
 70
     0
102
RTVSPost2010Prop53
 90
        2
102
RTVSPost2010PropOp53
 70
     0
102
RTVSPost2010Prop54
  1
strokes_ogs.tif
102
RTVSPost2010PropOp54
 70
     0
102
RTVSPost2010Prop55
280
     0
102
RTVSPost2010PropOp55
 70
     0
102
RTVSPost2010Prop56
140
1.0
102
RTVSPost2010PropOp56
 70
     0
102
RTVSPost2010Prop57
140
1.0
102
RTVSPost2010PropOp57
 70
     0
  0
XRECORD
  5
265
102
{ACAD_REACTORS
330
264
102
}
330
264
100
AcDbXrecord
280
     1
102
RTVSPropertyOp0
 70
     1
102
RTVSPropertyOp1
 70
     1
102
RTVSPropertyOp2
 70
     1
102
RTVSPropertyOp3
 70
     1
102
RTVSPropertyOp4
 70
     1
102
RTVSPropertyOp5
 70
     1
102
RTVSPropertyOp6
 70
     1
102
RTVSPropertyOp7
 70
     1
102
RTVSPropertyOp8
 70
     1
102
RTVSPropertyOp9
 70
     1
102
RTVSPropertyOp10
 70
     1
102
RTVSPropertyOp11
 70
     1
102
RTVSPropertyOp12
 70
     1
102
RTVSPropertyOp13
 70
     1
102
RTVSPropertyOp14
 70
     1
102
RTVSPropertyOp15
 70
     1
102
RTVSPropertyOp16
 70
     1
102
RTVSPropertyOp17
 70
     1
102
RTVSPropertyOp18
 70
     1
102
RTVSPropertyOp19
 70
     1
102
RTVSPropertyOp20
 70
     1
102
RTVSPropertyOp21
 70
     1
102
RTVSPropertyOp22
 70
     1
102
RTVSPropertyOp23
 70
     1
102
RTVSPropertyOp24
 70
     1
102
RTVSPropertyOp25
 70
     1
102
RTVSPropertyOp26
 70
     1
102
RTVSPropertyOp27
 70
     1
102
RTVSPropertyOp28
 70
     1
102
RTVSPropertyOp29
 70
     1
102
RTVSPropertyOp30
 70
     1
102
RTVSPropertyOp31
 70
     1
102
RTVSPropertyOp32
 70
     1
102
RTVSPropertyOp33
 70
     1
102
RTVSPropertyOp34
 70
     1
102
RTVSPropertyOp35
 70
     1
102
RTVSPropertyOp36
 70
     1
102
RTVSPropertyOp37
 70
     1
102
RTVSPropertyOp38
 70
     1
102
RTVSPropertyOp39
 70
     1
102
RTVSPropertyOp40
 70
     1
102
RTVSPropertyOp41
 70
     1
102
RTVSPropertyOp42
 70
     1
102
RTVSPropertyOp43
 70
     1
102
RTVSPropertyOp44
 70
     1
102
RTVSPropertyOp45
 70
     1
102
RTVSPropertyOp46
 70
     1
102
RTVSPropertyOp47
 70
     1
102
RTVSPropertyOp48
 70
     1
102
RTVSPropertyOp49
 70
     1
102
RTVSPropertyOp50
 70
     1
102
RTVSPropertyOp51
 70
     0
102
RTVSPropertyOp52
 70
     0
102
RTVSPropertyOp53
 70
     1
102
RTVSPropertyOp54
 70
     1
102
RTVSPropertyOp55
 70
     1
102
RTVSPropertyOp56
 70
     1
102
RTVSPropertyOp57
 70
     1
102
RTVSPost2010Prop28
280
     0
102
RTVSPost2010PropOp28
 70
     1
102
RTVSPost2010Prop29
280
     1
102
RTVSPost2010PropOp29
 70
     1
102
RTVSPost2010Prop30
280
     1
102
RTVSPost2010PropOp30
 70
     1
102
RTVSPost2010Prop31
280
     0
102
RTVSPost2010PropOp31
 70
     1
102
RTVSPost2010Prop32
280
     0
102
RTVSPost2010PropOp32
 70
     1
102
RTVSPost2010Prop33
280
     0
102
RTVSPost2010PropOp33
 70
     1
102
RTVSPost2010Prop34
280
     0
102
RTVSPost2010PropOp34
 70
     1
102
RTVSPost2010Prop35
280
     0
102
RTVSPost2010PropOp35
 70
     1
102
RTVSPost2010Prop36
280
     0
102
RTVSPost2010PropOp36
 70
     1
102
RTVSPost2010Prop37
 90
       50
102
RTVSPost2010PropOp37
 70
     1
102
RTVSPost2010Prop38
140
0.0
102
RTVSPost2010PropOp38
 70
     1
102
RTVSPost2010Prop39
140
1.0
102
RTVSPost2010PropOp39
 70
     1
102
RTVSPost2010Prop40
 90
        0
102
RTVSPost2010PropOp40
 70
     1
102
RTVSPost2010Prop41ColorIndex
 90
       18
102
RTVSPost2010Prop41ColorRGB
 90
        0
102
RTVSPost2010PropOp41
 70
     1
102
RTVSPost2010Prop42
 90
       50
102
RTVSPost2010PropOp42
 70
     1
102
RTVSPost2010Prop43
 90
        3
102
RTVSPost2010PropOp43
 70
     1
102
RTVSPost2010Prop44ColorIndex
 90
        5
102
RTVSPost2010Prop44ColorRGB
 90
      255
102
RTVSPost2010PropOp44
 70
     1
102
RTVSPost2010Prop45
280
     0
102
RTVSPost2010PropOp45
 70
     1
102
RTVSPost2010Prop46
 90
       50
102
RTVSPost2010PropOp46
 70
     1
102
RTVSPost2010Prop47
 90
       50
102
RTVSPost2010PropOp47
 70
     1
102
RTVSPost2010Prop48
 90
       50
102
RTVSPost2010PropOp48
 70
     1
102
RTVSPost2010Prop49
280
     0
102
RTVSPost2010PropOp49
 70
     1
102
RTVSPost2010Prop50
 90
       50
102
RTVSPost2010PropOp50
 70
     1
102
RTVSPost2010Prop51ColorIndex
 90
      256
102
RTVSPost2010Prop51ColorRGB
 90
-16777216
102
RTVSPost2010PropOp51
 70
     0
102
RTVSPost2010Prop52
140
1.0
102
RTVSPost2010PropOp52
 70
     0
102
RTVSPost2010Prop53
 90
        2
102
RTVSPost2010PropOp53
 70
     1
102
RTVSPost2010Prop54
  1
strokes_ogs.tif
102
RTVSPost2010PropOp54
 70
     1
102
RTVSPost2010Prop55
280
     0
102
RTVSPost2010PropOp55
 70
     1
102
RTVSPost2010Prop56
140
1.0
102
RTVSPost2010PropOp56
 70
     1
102
RTVSPost2010Prop57
140
1.0
102
RTVSPost2010PropOp57
 70
     1
  0
XRECORD
  5
26D
102
{ACAD_REACTORS
330
26C
102
}
330
26C
100
AcDbXrecord
280
     1
102
RTVSPropertyOp0
 70
     0
102
RTVSPropertyOp1
 70
     0
102
RTVSPropertyOp2
 70
     0
102
RTVSPropertyOp3
 70
     0
102
RTVSPropertyOp4
 70
     0
102
RTVSPropertyOp5
 70
     0
102
RTVSPropertyOp6
 70
     0
102
RTVSPropertyOp7
 70
     0
102
RTVSPropertyOp8
 70
     0
102
RTVSPropertyOp9
 70
     0
102
RTVSPropertyOp10
 70
     0
102
RTVSPropertyOp11
 70
     0
102
RTVSPropertyOp12
 70
     0
102
RTVSPropertyOp13
 70
     0
102
RTVSPropertyOp14
 70
     2
102
RTVSPropertyOp15
 70
     0
102
RTVSPropertyOp16
 70
     0
102
RTVSPropertyOp17
 70
     0
102
RTVSPropertyOp18
 70
     0
102
RTVSPropertyOp19
 70
     0
102
RTVSPropertyOp20
 70
     0
102
RTVSPropertyOp21
 70
     0
102
RTVSPropertyOp22
 70
     0
102
RTVSPropertyOp23
 70
     0
102
RTVSPropertyOp24
 70
     0
102
RTVSPropertyOp25
 70
     0
102
RTVSPropertyOp26
 70
     0
102
RTVSPropertyOp27
 70
     0
102
RTVSPropertyOp28
 70
     0
102
RTVSPropertyOp29
 70
     0
102
RTVSPropertyOp30
 70
     0
102
RTVSPropertyOp31
 70
     0
102
RTVSPropertyOp32
 70
     0
102
RTVSPropertyOp33
 70
     0
102
RTVSPropertyOp34
 70
     0
102
RTVSPropertyOp35
 70
     0
102
RTVSPropertyOp36
 70
     0
102
RTVSPropertyOp37
 70
     0
102
RTVSPropertyOp38
 70
     0
102
RTVSPropertyOp39
 70
     0
102
RTVSPropertyOp40
 70
     0
102
RTVSPropertyOp41
 70
     0
102
RTVSPropertyOp42
 70
     0
102
RTVSPropertyOp43
 70
     0
102
RTVSPropertyOp44
 70
     0
102
RTVSPropertyOp45
 70
     0
102
RTVSPropertyOp46
 70
     0
102
RTVSPropertyOp47
 70
     0
102
RTVSPropertyOp48
 70
     0
102
RTVSPropertyOp49
 70
     0
102
RTVSPropertyOp50
 70
     0
102
RTVSPropertyOp51
 70
     0
102
RTVSPropertyOp52
 70
     0
102
RTVSPropertyOp53
 70
     0
102
RTVSPropertyOp54
 70
     0
102
RTVSPropertyOp55
 70
     0
102
RTVSPropertyOp56
 70
     0
102
RTVSPropertyOp57
 70
     0
102
RTVSPost2010Prop28
280
     0
102
RTVSPost2010PropOp28
 70
     0
102
RTVSPost2010Prop29
280
     1
102
RTVSPost2010PropOp29
 70
     0
102
RTVSPost2010Prop30
280
     1
102
RTVSPost2010PropOp30
 70
     0
102
RTVSPost2010Prop31
280
     0
102
RTVSPost2010PropOp31
 70
     0
102
RTVSPost2010Prop32
280
     0
102
RTVSPost2010PropOp32
 70
     0
102
RTVSPost2010Prop33
280
     0
102
RTVSPost2010PropOp33
 70
     0
102
RTVSPost2010Prop34
280
     0
102
RTVSPost2010PropOp34
 70
     0
102
RTVSPost2010Prop35
280
     0
102
RTVSPost2010PropOp35
 70
     0
102
RTVSPost2010Prop36
280
     0
102
RTVSPost2010PropOp36
 70
     0
102
RTVSPost2010Prop37
 90
       50
102
RTVSPost2010PropOp37
 70
     0
102
RTVSPost2010Prop38
140
0.0
102
RTVSPost2010PropOp38
 70
     0
102
RTVSPost2010Prop39
140
1.0
102
RTVSPost2010PropOp39
 70
     0
102
RTVSPost2010Prop40
 90
        0
102
RTVSPost2010PropOp40
 70
     0
102
RTVSPost2010Prop41ColorIndex
 90
       18
102
RTVSPost2010Prop41ColorRGB
 90
        0
102
RTVSPost2010PropOp41
 70
     0
102
RTVSPost2010Prop42
 90
       50
102
RTVSPost2010PropOp42
 70
     0
102
RTVSPost2010Prop43
 90
        3
102
RTVSPost2010PropOp43
 70
     0
102
RTVSPost2010Prop44ColorIndex
 90
        5
102
RTVSPost2010Prop44ColorRGB
 90
      255
102
RTVSPost2010PropOp44
 70
     0
102
RTVSPost2010Prop45
280
     0
102
RTVSPost2010PropOp45
 70
     0
102
RTVSPost2010Prop46
 90
       50
102
RTVSPost2010PropOp46
 70
     0
102
RTVSPost2010Prop47
 90
       50
102
RTVSPost2010PropOp47
 70
     0
102
RTVSPost2010Prop48
 90
       50
102
RTVSPost2010PropOp48
 70
     0
102
RTVSPost2010Prop49
280
     0
102
RTVSPost2010PropOp49
 70
     0
102
RTVSPost2010Prop50
 90
       50
102
RTVSPost2010PropOp50
 70
     0
102
RTVSPost2010Prop51ColorIndex
 90
      256
102
RTVSPost2010Prop51ColorRGB
 90
-16777216
102
RTVSPost2010PropOp51
 70
     0
102
RTVSPost2010Prop52
140
1.0
102
RTVSPost2010PropOp52
 70
     0
102
RTVSPost2010Prop53
 90
        2
102
RTVSPost2010PropOp53
 70
     0
102
RTVSPost2010Prop54
  1
strokes_ogs.tif
102
RTVSPost2010PropOp54
 70
     0
102
RTVSPost2010Prop55
280
     0
102
RTVSPost2010PropOp55
 70
     0
102
RTVSPost2010Prop56
140
1.0
102
RTVSPost2010PropOp56
 70
     0
102
RTVSPost2010Prop57
140
1.0
102
RTVSPost2010PropOp57
 70
     0
  0
XRECORD
  5
25B
102
{ACAD_REACTORS
330
25A
102
}
330
25A
100
AcDbXrecord
280
     1
102
RTVSPropertyOp0
 70
     1
102
RTVSPropertyOp1
 70
     1
102
RTVSPropertyOp2
 70
     1
102
RTVSPropertyOp3
 70
     1
102
RTVSPropertyOp4
 70
     1
102
RTVSPropertyOp5
 70
     1
102
RTVSPropertyOp6
 70
     1
102
RTVSPropertyOp7
 70
     1
102
RTVSPropertyOp8
 70
     1
102
RTVSPropertyOp9
 70
     1
102
RTVSPropertyOp10
 70
     1
102
RTVSPropertyOp11
 70
     1
102
RTVSPropertyOp12
 70
     1
102
RTVSPropertyOp13
 70
     1
102
RTVSPropertyOp14
 70
     1
102
RTVSPropertyOp15
 70
     1
102
RTVSPropertyOp16
 70
     1
102
RTVSPropertyOp17
 70
     1
102
RTVSPropertyOp18
 70
     1
102
RTVSPropertyOp19
 70
     1
102
RTVSPropertyOp20
 70
     1
102
RTVSPropertyOp21
 70
     1
102
RTVSPropertyOp22
 70
     1
102
RTVSPropertyOp23
 70
     1
102
RTVSPropertyOp24
 70
     1
102
RTVSPropertyOp25
 70
     1
102
RTVSPropertyOp26
 70
     1
102
RTVSPropertyOp27
 70
     1
102
RTVSPropertyOp28
 70
     1
102
RTVSPropertyOp29
 70
     1
102
RTVSPropertyOp30
 70
     1
102
RTVSPropertyOp31
 70
     1
102
RTVSPropertyOp32
 70
     1
102
RTVSPropertyOp33
 70
     1
102
RTVSPropertyOp34
 70
     1
102
RTVSPropertyOp35
 70
     1
102
RTVSPropertyOp36
 70
     1
102
RTVSPropertyOp37
 70
     1
102
RTVSPropertyOp38
 70
     1
102
RTVSPropertyOp39
 70
     1
102
RTVSPropertyOp40
 70
     1
102
RTVSPropertyOp41
 70
     1
102
RTVSPropertyOp42
 70
     1
102
RTVSPropertyOp43
 70
     1
102
RTVSPropertyOp44
 70
     1
102
RTVSPropertyOp45
 70
     1
102
RTVSPropertyOp46
 70
     1
102
RTVSPropertyOp47
 70
     1
102
RTVSPropertyOp48
 70
     1
102
RTVSPropertyOp49
 70
     1
102
RTVSPropertyOp50
 70
     1
102
RTVSPropertyOp51
 70
     0
102
RTVSPropertyOp52
 70
     0
102
RTVSPropertyOp53
 70
     1
102
RTVSPropertyOp54
 70
     1
102
RTVSPropertyOp55
 70
     1
102
RTVSPropertyOp56
 70
     1
102
RTVSPropertyOp57
 70
     1
102
RTVSPost2010Prop28
280
     0
102
RTVSPost2010PropOp28
 70
     1
102
RTVSPost2010Prop29
280
     1
102
RTVSPost2010PropOp29
 70
     1
102
RTVSPost2010Prop30
280
     1
102
RTVSPost2010PropOp30
 70
     1
102
RTVSPost2010Prop31
280
     0
102
RTVSPost2010PropOp31
 70
     1
102
RTVSPost2010Prop32
280
     0
102
RTVSPost2010PropOp32
 70
     1
102
RTVSPost2010Prop33
280
     0
102
RTVSPost2010PropOp33
 70
     1
102
RTVSPost2010Prop34
280
     0
102
RTVSPost2010PropOp34
 70
     1
102
RTVSPost2010Prop35
280
     0
102
RTVSPost2010PropOp35
 70
     1
102
RTVSPost2010Prop36
280
     0
102
RTVSPost2010PropOp36
 70
     1
102
RTVSPost2010Prop37
 90
       50
102
RTVSPost2010PropOp37
 70
     1
102
RTVSPost2010Prop38
140
0.0
102
RTVSPost2010PropOp38
 70
     1
102
RTVSPost2010Prop39
140
1.0
102
RTVSPost2010PropOp39
 70
     1
102
RTVSPost2010Prop40
 90
        0
102
RTVSPost2010PropOp40
 70
     1
102
RTVSPost2010Prop41ColorIndex
 90
       18
102
RTVSPost2010Prop41ColorRGB
 90
        0
102
RTVSPost2010PropOp41
 70
     1
102
RTVSPost2010Prop42
 90
       50
102
RTVSPost2010PropOp42
 70
     1
102
RTVSPost2010Prop43
 90
        3
102
RTVSPost2010PropOp43
 70
     1
102
RTVSPost2010Prop44ColorIndex
 90
        5
102
RTVSPost2010Prop44ColorRGB
 90
      255
102
RTVSPost2010PropOp44
 70
     1
102
RTVSPost2010Prop45
280
     0
102
RTVSPost2010PropOp45
 70
     1
102
RTVSPost2010Prop46
 90
       50
102
RTVSPost2010PropOp46
 70
     1
102
RTVSPost2010Prop47
 90
       50
102
RTVSPost2010PropOp47
 70
     1
102
RTVSPost2010Prop48
 90
       50
102
RTVSPost2010PropOp48
 70
     1
102
RTVSPost2010Prop49
280
     0
102
RTVSPost2010PropOp49
 70
     1
102
RTVSPost2010Prop50
 90
       50
102
RTVSPost2010PropOp50
 70
     1
102
RTVSPost2010Prop51ColorIndex
 90
      256
102
RTVSPost2010Prop51ColorRGB
 90
-16777216
102
RTVSPost2010PropOp51
 70
     0
102
RTVSPost2010Prop52
140
1.0
102
RTVSPost2010PropOp52
 70
     0
102
RTVSPost2010Prop53
 90
        2
102
RTVSPost2010PropOp53
 70
     1
102
RTVSPost2010Prop54
  1
strokes_ogs.tif
102
RTVSPost2010PropOp54
 70
     1
102
RTVSPost2010Prop55
280
     0
102
RTVSPost2010PropOp55
 70
     1
102
RTVSPost2010Prop56
140
1.0
102
RTVSPost2010PropOp56
 70
     1
102
RTVSPost2010Prop57
140
1.0
102
RTVSPost2010PropOp57
 70
     1
  0
XRECORD
  5
279
102
{ACAD_REACTORS
330
278
102
}
330
278
100
AcDbXrecord
280
     1
102
RTVSPropertyOp0
 70
     1
102
RTVSPropertyOp1
 70
     1
102
RTVSPropertyOp2
 70
     1
102
RTVSPropertyOp3
 70
     1
102
RTVSPropertyOp4
 70
     1
102
RTVSPropertyOp5
 70
     1
102
RTVSPropertyOp6
 70
     1
102
RTVSPropertyOp7
 70
     1
102
RTVSPropertyOp8
 70
     1
102
RTVSPropertyOp9
 70
     1
102
RTVSPropertyOp10
 70
     1
102
RTVSPropertyOp11
 70
     1
102
RTVSPropertyOp12
 70
     1
102
RTVSPropertyOp13
 70
     1
102
RTVSPropertyOp14
 70
     1
102
RTVSPropertyOp15
 70
     1
102
RTVSPropertyOp16
 70
     1
102
RTVSPropertyOp17
 70
     1
102
RTVSPropertyOp18
 70
     1
102
RTVSPropertyOp19
 70
     1
102
RTVSPropertyOp20
 70
     1
102
RTVSPropertyOp21
 70
     1
102
RTVSPropertyOp22
 70
     1
102
RTVSPropertyOp23
 70
     1
102
RTVSPropertyOp24
 70
     1
102
RTVSPropertyOp25
 70
     1
102
RTVSPropertyOp26
 70
     1
102
RTVSPropertyOp27
 70
     1
102
RTVSPropertyOp28
 70
     1
102
RTVSPropertyOp29
 70
     1
102
RTVSPropertyOp30
 70
     1
102
RTVSPropertyOp31
 70
     1
102
RTVSPropertyOp32
 70
     1
102
RTVSPropertyOp33
 70
     1
102
RTVSPropertyOp34
 70
     1
102
RTVSPropertyOp35
 70
     1
102
RTVSPropertyOp36
 70
     1
102
RTVSPropertyOp37
 70
     1
102
RTVSPropertyOp38
 70
     1
102
RTVSPropertyOp39
 70
     1
102
RTVSPropertyOp40
 70
     1
102
RTVSPropertyOp41
 70
     1
102
RTVSPropertyOp42
 70
     1
102
RTVSPropertyOp43
 70
     1
102
RTVSPropertyOp44
 70
     1
102
RTVSPropertyOp45
 70
     1
102
RTVSPropertyOp46
 70
     1
102
RTVSPropertyOp47
 70
     1
102
RTVSPropertyOp48
 70
     1
102
RTVSPropertyOp49
 70
     1
102
RTVSPropertyOp50
 70
     1
102
RTVSPropertyOp51
 70
     0
102
RTVSPropertyOp52
 70
     0
102
RTVSPropertyOp53
 70
     1
102
RTVSPropertyOp54
 70
     1
102
RTVSPropertyOp55
 70
     1
102
RTVSPropertyOp56
 70
     1
102
RTVSPropertyOp57
 70
     1
102
RTVSPost2010Prop28
280
     0
102
RTVSPost2010PropOp28
 70
     1
102
RTVSPost2010Prop29
280
     1
102
RTVSPost2010PropOp29
 70
     1
102
RTVSPost2010Prop30
280
     1
102
RTVSPost2010PropOp30
 70
     1
102
RTVSPost2010Prop31
280
     0
102
RTVSPost2010PropOp31
 70
     1
102
RTVSPost2010Prop32
280
     0
102
RTVSPost2010PropOp32
 70
     1
102
RTVSPost2010Prop33
280
     0
102
RTVSPost2010PropOp33
 70
     1
102
RTVSPost2010Prop34
280
     0
102
RTVSPost2010PropOp34
 70
     1
102
RTVSPost2010Prop35
280
     0
102
RTVSPost2010PropOp35
 70
     1
102
RTVSPost2010Prop36
280
     0
102
RTVSPost2010PropOp36
 70
     1
102
RTVSPost2010Prop37
 90
       50
102
RTVSPost2010PropOp37
 70
     1
102
RTVSPost2010Prop38
140
0.0
102
RTVSPost2010PropOp38
 70
     1
102
RTVSPost2010Prop39
140
1.0
102
RTVSPost2010PropOp39
 70
     1
102
RTVSPost2010Prop40
 90
        0
102
RTVSPost2010PropOp40
 70
     1
102
RTVSPost2010Prop41ColorIndex
 90
       18
102
RTVSPost2010Prop41ColorRGB
 90
        0
102
RTVSPost2010PropOp41
 70
     1
102
RTVSPost2010Prop42
 90
       50
102
RTVSPost2010PropOp42
 70
     1
102
RTVSPost2010Prop43
 90
        3
102
RTVSPost2010PropOp43
 70
     1
102
RTVSPost2010Prop44ColorIndex
 90
        5
102
RTVSPost2010Prop44ColorRGB
 90
      255
102
RTVSPost2010PropOp44
 70
     1
102
RTVSPost2010Prop45
280
     0
102
RTVSPost2010PropOp45
 70
     1
102
RTVSPost2010Prop46
 90
       50
102
RTVSPost2010PropOp46
 70
     1
102
RTVSPost2010Prop47
 90
       50
102
RTVSPost2010PropOp47
 70
     1
102
RTVSPost2010Prop48
 90
       50
102
RTVSPost2010PropOp48
 70
     1
102
RTVSPost2010Prop49
280
     0
102
RTVSPost2010PropOp49
 70
     1
102
RTVSPost2010Prop50
 90
       50
102
RTVSPost2010PropOp50
 70
     1
102
RTVSPost2010Prop51ColorIndex
 90
      256
102
RTVSPost2010Prop51ColorRGB
 90
-16777216
102
RTVSPost2010PropOp51
 70
     0
102
RTVSPost2010Prop52
140
1.0
102
RTVSPost2010PropOp52
 70
     0
102
RTVSPost2010Prop53
 90
        2
102
RTVSPost2010PropOp53
 70
     1
102
RTVSPost2010Prop54
  1
strokes_ogs.tif
102
RTVSPost2010PropOp54
 70
     1
102
RTVSPost2010Prop55
280
     0
102
RTVSPost2010PropOp55
 70
     1
102
RTVSPost2010Prop56
140
1.0
102
RTVSPost2010PropOp56
 70
     1
102
RTVSPost2010Prop57
140
1.0
102
RTVSPost2010PropOp57
 70
     1
  0
XRECORD
  5
277
102
{ACAD_REACTORS
330
276
102
}
330
276
100
AcDbXrecord
280
     1
102
RTVSPropertyOp0
 70
     1
102
RTVSPropertyOp1
 70
     1
102
RTVSPropertyOp2
 70
     1
102
RTVSPropertyOp3
 70
     1
102
RTVSPropertyOp4
 70
     1
102
RTVSPropertyOp5
 70
     1
102
RTVSPropertyOp6
 70
     1
102
RTVSPropertyOp7
 70
     1
102
RTVSPropertyOp8
 70
     1
102
RTVSPropertyOp9
 70
     1
102
RTVSPropertyOp10
 70
     1
102
RTVSPropertyOp11
 70
     1
102
RTVSPropertyOp12
 70
     1
102
RTVSPropertyOp13
 70
     1
102
RTVSPropertyOp14
 70
     1
102
RTVSPropertyOp15
 70
     1
102
RTVSPropertyOp16
 70
     1
102
RTVSPropertyOp17
 70
     1
102
RTVSPropertyOp18
 70
     1
102
RTVSPropertyOp19
 70
     1
102
RTVSPropertyOp20
 70
     1
102
RTVSPropertyOp21
 70
     1
102
RTVSPropertyOp22
 70
     1
102
RTVSPropertyOp23
 70
     1
102
RTVSPropertyOp24
 70
     1
102
RTVSPropertyOp25
 70
     1
102
RTVSPropertyOp26
 70
     1
102
RTVSPropertyOp27
 70
     1
102
RTVSPropertyOp28
 70
     1
102
RTVSPropertyOp29
 70
     1
102
RTVSPropertyOp30
 70
     1
102
RTVSPropertyOp31
 70
     1
102
RTVSPropertyOp32
 70
     1
102
RTVSPropertyOp33
 70
     1
102
RTVSPropertyOp34
 70
     1
102
RTVSPropertyOp35
 70
     1
102
RTVSPropertyOp36
 70
     1
102
RTVSPropertyOp37
 70
     1
102
RTVSPropertyOp38
 70
     1
102
RTVSPropertyOp39
 70
     1
102
RTVSPropertyOp40
 70
     1
102
RTVSPropertyOp41
 70
     1
102
RTVSPropertyOp42
 70
     1
102
RTVSPropertyOp43
 70
     1
102
RTVSPropertyOp44
 70
     1
102
RTVSPropertyOp45
 70
     1
102
RTVSPropertyOp46
 70
     1
102
RTVSPropertyOp47
 70
     1
102
RTVSPropertyOp48
 70
     1
102
RTVSPropertyOp49
 70
     1
102
RTVSPropertyOp50
 70
     1
102
RTVSPropertyOp51
 70
     0
102
RTVSPropertyOp52
 70
     0
102
RTVSPropertyOp53
 70
     1
102
RTVSPropertyOp54
 70
     1
102
RTVSPropertyOp55
 70
     1
102
RTVSPropertyOp56
 70
     1
102
RTVSPropertyOp57
 70
     1
102
RTVSPost2010Prop28
280
     0
102
RTVSPost2010PropOp28
 70
     1
102
RTVSPost2010Prop29
280
     1
102
RTVSPost2010PropOp29
 70
     1
102
RTVSPost2010Prop30
280
     1
102
RTVSPost2010PropOp30
 70
     1
102
RTVSPost2010Prop31
280
     0
102
RTVSPost2010PropOp31
 70
     1
102
RTVSPost2010Prop32
280
     0
102
RTVSPost2010PropOp32
 70
     1
102
RTVSPost2010Prop33
280
     0
102
RTVSPost2010PropOp33
 70
     1
102
RTVSPost2010Prop34
280
     0
102
RTVSPost2010PropOp34
 70
     1
102
RTVSPost2010Prop35
280
     0
102
RTVSPost2010PropOp35
 70
     1
102
RTVSPost2010Prop36
280
     0
102
RTVSPost2010PropOp36
 70
     1
102
RTVSPost2010Prop37
 90
       50
102
RTVSPost2010PropOp37
 70
     1
102
RTVSPost2010Prop38
140
0.0
102
RTVSPost2010PropOp38
 70
     1
102
RTVSPost2010Prop39
140
1.0
102
RTVSPost2010PropOp39
 70
     1
102
RTVSPost2010Prop40
 90
        0
102
RTVSPost2010PropOp40
 70
     1
102
RTVSPost2010Prop41ColorIndex
 90
       18
102
RTVSPost2010Prop41ColorRGB
 90
        0
102
RTVSPost2010PropOp41
 70
     1
102
RTVSPost2010Prop42
 90
       50
102
RTVSPost2010PropOp42
 70
     1
102
RTVSPost2010Prop43
 90
        3
102
RTVSPost2010PropOp43
 70
     1
102
RTVSPost2010Prop44ColorIndex
 90
        5
102
RTVSPost2010Prop44ColorRGB
 90
      255
102
RTVSPost2010PropOp44
 70
     1
102
RTVSPost2010Prop45
280
     0
102
RTVSPost2010PropOp45
 70
     1
102
RTVSPost2010Prop46
 90
       50
102
RTVSPost2010PropOp46
 70
     1
102
RTVSPost2010Prop47
 90
       50
102
RTVSPost2010PropOp47
 70
     1
102
RTVSPost2010Prop48
 90
       50
102
RTVSPost2010PropOp48
 70
     1
102
RTVSPost2010Prop49
280
     0
102
RTVSPost2010PropOp49
 70
     1
102
RTVSPost2010Prop50
 90
       50
102
RTVSPost2010PropOp50
 70
     1
102
RTVSPost2010Prop51ColorIndex
 90
      256
102
RTVSPost2010Prop51ColorRGB
 90
-16777216
102
RTVSPost2010PropOp51
 70
     0
102
RTVSPost2010Prop52
140
1.0
102
RTVSPost2010PropOp52
 70
     0
102
RTVSPost2010Prop53
 90
        2
102
RTVSPost2010PropOp53
 70
     1
102
RTVSPost2010Prop54
  1
strokes_ogs.tif
102
RTVSPost2010PropOp54
 70
     1
102
RTVSPost2010Prop55
280
     0
102
RTVSPost2010PropOp55
 70
     1
102
RTVSPost2010Prop56
140
1.0
102
RTVSPost2010PropOp56
 70
     1
102
RTVSPost2010Prop57
140
1.0
102
RTVSPost2010PropOp57
 70
     1
  0
XRECORD
  5
271
102
{ACAD_REACTORS
330
270
102
}
330
270
100
AcDbXrecord
280
     1
102
RTVSPropertyOp0
 70
     1
102
RTVSPropertyOp1
 70
     1
102
RTVSPropertyOp2
 70
     1
102
RTVSPropertyOp3
 70
     1
102
RTVSPropertyOp4
 70
     1
102
RTVSPropertyOp5
 70
     1
102
RTVSPropertyOp6
 70
     1
102
RTVSPropertyOp7
 70
     1
102
RTVSPropertyOp8
 70
     1
102
RTVSPropertyOp9
 70
     1
102
RTVSPropertyOp10
 70
     1
102
RTVSPropertyOp11
 70
     1
102
RTVSPropertyOp12
 70
     1
102
RTVSPropertyOp13
 70
     1
102
RTVSPropertyOp14
 70
     1
102
RTVSPropertyOp15
 70
     1
102
RTVSPropertyOp16
 70
     1
102
RTVSPropertyOp17
 70
     1
102
RTVSPropertyOp18
 70
     1
102
RTVSPropertyOp19
 70
     1
102
RTVSPropertyOp20
 70
     1
102
RTVSPropertyOp21
 70
     1
102
RTVSPropertyOp22
 70
     1
102
RTVSPropertyOp23
 70
     1
102
RTVSPropertyOp24
 70
     1
102
RTVSPropertyOp25
 70
     1
102
RTVSPropertyOp26
 70
     1
102
RTVSPropertyOp27
 70
     1
102
RTVSPropertyOp28
 70
     1
102
RTVSPropertyOp29
 70
     1
102
RTVSPropertyOp30
 70
     1
102
RTVSPropertyOp31
 70
     1
102
RTVSPropertyOp32
 70
     1
102
RTVSPropertyOp33
 70
     1
102
RTVSPropertyOp34
 70
     1
102
RTVSPropertyOp35
 70
     1
102
RTVSPropertyOp36
 70
     1
102
RTVSPropertyOp37
 70
     1
102
RTVSPropertyOp38
 70
     1
102
RTVSPropertyOp39
 70
     1
102
RTVSPropertyOp40
 70
     1
102
RTVSPropertyOp41
 70
     1
102
RTVSPropertyOp42
 70
     1
102
RTVSPropertyOp43
 70
     1
102
RTVSPropertyOp44
 70
     1
102
RTVSPropertyOp45
 70
     1
102
RTVSPropertyOp46
 70
     1
102
RTVSPropertyOp47
 70
     1
102
RTVSPropertyOp48
 70
     1
102
RTVSPropertyOp49
 70
     1
102
RTVSPropertyOp50
 70
     1
102
RTVSPropertyOp51
 70
     0
102
RTVSPropertyOp52
 70
     0
102
RTVSPropertyOp53
 70
     1
102
RTVSPropertyOp54
 70
     1
102
RTVSPropertyOp55
 70
     1
102
RTVSPropertyOp56
 70
     1
102
RTVSPropertyOp57
 70
     1
102
RTVSPost2010Prop28
280
     0
102
RTVSPost2010PropOp28
 70
     1
102
RTVSPost2010Prop29
280
     1
102
RTVSPost2010PropOp29
 70
     1
102
RTVSPost2010Prop30
280
     1
102
RTVSPost2010PropOp30
 70
     1
102
RTVSPost2010Prop31
280
     0
102
RTVSPost2010PropOp31
 70
     1
102
RTVSPost2010Prop32
280
     0
102
RTVSPost2010PropOp32
 70
     1
102
RTVSPost2010Prop33
280
     0
102
RTVSPost2010PropOp33
 70
     1
102
RTVSPost2010Prop34
280
     0
102
RTVSPost2010PropOp34
 70
     1
102
RTVSPost2010Prop35
280
     0
102
RTVSPost2010PropOp35
 70
     1
102
RTVSPost2010Prop36
280
     0
102
RTVSPost2010PropOp36
 70
     1
102
RTVSPost2010Prop37
 90
       50
102
RTVSPost2010PropOp37
 70
     1
102
RTVSPost2010Prop38
140
0.0
102
RTVSPost2010PropOp38
 70
     1
102
RTVSPost2010Prop39
140
1.0
102
RTVSPost2010PropOp39
 70
     1
102
RTVSPost2010Prop40
 90
        0
102
RTVSPost2010PropOp40
 70
     1
102
RTVSPost2010Prop41ColorIndex
 90
       18
102
RTVSPost2010Prop41ColorRGB
 90
        0
102
RTVSPost2010PropOp41
 70
     1
102
RTVSPost2010Prop42
 90
       50
102
RTVSPost2010PropOp42
 70
     1
102
RTVSPost2010Prop43
 90
        3
102
RTVSPost2010PropOp43
 70
     1
102
RTVSPost2010Prop44ColorIndex
 90
        5
102
RTVSPost2010Prop44ColorRGB
 90
      255
102
RTVSPost2010PropOp44
 70
     1
102
RTVSPost2010Prop45
280
     0
102
RTVSPost2010PropOp45
 70
     1
102
RTVSPost2010Prop46
 90
       50
102
RTVSPost2010PropOp46
 70
     1
102
RTVSPost2010Prop47
 90
       50
102
RTVSPost2010PropOp47
 70
     1
102
RTVSPost2010Prop48
 90
       50
102
RTVSPost2010PropOp48
 70
     1
102
RTVSPost2010Prop49
280
     0
102
RTVSPost2010PropOp49
 70
     1
102
RTVSPost2010Prop50
 90
       50
102
RTVSPost2010PropOp50
 70
     1
102
RTVSPost2010Prop51ColorIndex
 90
      256
102
RTVSPost2010Prop51ColorRGB
 90
-16777216
102
RTVSPost2010PropOp51
 70
     0
102
RTVSPost2010Prop52
140
1.0
102
RTVSPost2010PropOp52
 70
     0
102
RTVSPost2010Prop53
 90
        2
102
RTVSPost2010PropOp53
 70
     1
102
RTVSPost2010Prop54
  1
strokes_ogs.tif
102
RTVSPost2010PropOp54
 70
     1
102
RTVSPost2010Prop55
280
     0
102
RTVSPost2010PropOp55
 70
     1
102
RTVSPost2010Prop56
140
1.0
102
RTVSPost2010PropOp56
 70
     1
102
RTVSPost2010Prop57
140
1.0
102
RTVSPost2010PropOp57
 70
     1
  0
XRECORD
  5
273
102
{ACAD_REACTORS
330
272
102
}
330
272
100
AcDbXrecord
280
     1
102
RTVSPropertyOp0
 70
     1
102
RTVSPropertyOp1
 70
     1
102
RTVSPropertyOp2
 70
     1
102
RTVSPropertyOp3
 70
     1
102
RTVSPropertyOp4
 70
     1
102
RTVSPropertyOp5
 70
     1
102
RTVSPropertyOp6
 70
     1
102
RTVSPropertyOp7
 70
     1
102
RTVSPropertyOp8
 70
     1
102
RTVSPropertyOp9
 70
     1
102
RTVSPropertyOp10
 70
     1
102
RTVSPropertyOp11
 70
     1
102
RTVSPropertyOp12
 70
     1
102
RTVSPropertyOp13
 70
     1
102
RTVSPropertyOp14
 70
     1
102
RTVSPropertyOp15
 70
     1
102
RTVSPropertyOp16
 70
     1
102
RTVSPropertyOp17
 70
     1
102
RTVSPropertyOp18
 70
     1
102
RTVSPropertyOp19
 70
     1
102
RTVSPropertyOp20
 70
     1
102
RTVSPropertyOp21
 70
     1
102
RTVSPropertyOp22
 70
     1
102
RTVSPropertyOp23
 70
     1
102
RTVSPropertyOp24
 70
     1
102
RTVSPropertyOp25
 70
     1
102
RTVSPropertyOp26
 70
     1
102
RTVSPropertyOp27
 70
     1
102
RTVSPropertyOp28
 70
     1
102
RTVSPropertyOp29
 70
     1
102
RTVSPropertyOp30
 70
     1
102
RTVSPropertyOp31
 70
     1
102
RTVSPropertyOp32
 70
     1
102
RTVSPropertyOp33
 70
     1
102
RTVSPropertyOp34
 70
     1
102
RTVSPropertyOp35
 70
     1
102
RTVSPropertyOp36
 70
     1
102
RTVSPropertyOp37
 70
     1
102
RTVSPropertyOp38
 70
     1
102
RTVSPropertyOp39
 70
     1
102
RTVSPropertyOp40
 70
     1
102
RTVSPropertyOp41
 70
     1
102
RTVSPropertyOp42
 70
     1
102
RTVSPropertyOp43
 70
     1
102
RTVSPropertyOp44
 70
     1
102
RTVSPropertyOp45
 70
     1
102
RTVSPropertyOp46
 70
     1
102
RTVSPropertyOp47
 70
     1
102
RTVSPropertyOp48
 70
     1
102
RTVSPropertyOp49
 70
     1
102
RTVSPropertyOp50
 70
     1
102
RTVSPropertyOp51
 70
     0
102
RTVSPropertyOp52
 70
     0
102
RTVSPropertyOp53
 70
     1
102
RTVSPropertyOp54
 70
     1
102
RTVSPropertyOp55
 70
     1
102
RTVSPropertyOp56
 70
     1
102
RTVSPropertyOp57
 70
     1
102
RTVSPost2010Prop28
280
     0
102
RTVSPost2010PropOp28
 70
     1
102
RTVSPost2010Prop29
280
     1
102
RTVSPost2010PropOp29
 70
     1
102
RTVSPost2010Prop30
280
     1
102
RTVSPost2010PropOp30
 70
     1
102
RTVSPost2010Prop31
280
     0
102
RTVSPost2010PropOp31
 70
     1
102
RTVSPost2010Prop32
280
     0
102
RTVSPost2010PropOp32
 70
     1
102
RTVSPost2010Prop33
280
     0
102
RTVSPost2010PropOp33
 70
     1
102
RTVSPost2010Prop34
280
     0
102
RTVSPost2010PropOp34
 70
     1
102
RTVSPost2010Prop35
280
     0
102
RTVSPost2010PropOp35
 70
     1
102
RTVSPost2010Prop36
280
     0
102
RTVSPost2010PropOp36
 70
     1
102
RTVSPost2010Prop37
 90
       50
102
RTVSPost2010PropOp37
 70
     1
102
RTVSPost2010Prop38
140
0.0
102
RTVSPost2010PropOp38
 70
     1
102
RTVSPost2010Prop39
140
1.0
102
RTVSPost2010PropOp39
 70
     1
102
RTVSPost2010Prop40
 90
        0
102
RTVSPost2010PropOp40
 70
     1
102
RTVSPost2010Prop41ColorIndex
 90
       18
102
RTVSPost2010Prop41ColorRGB
 90
        0
102
RTVSPost2010PropOp41
 70
     1
102
RTVSPost2010Prop42
 90
       50
102
RTVSPost2010PropOp42
 70
     1
102
RTVSPost2010Prop43
 90
        3
102
RTVSPost2010PropOp43
 70
     1
102
RTVSPost2010Prop44ColorIndex
 90
        5
102
RTVSPost2010Prop44ColorRGB
 90
      255
102
RTVSPost2010PropOp44
 70
     1
102
RTVSPost2010Prop45
280
     0
102
RTVSPost2010PropOp45
 70
     1
102
RTVSPost2010Prop46
 90
       50
102
RTVSPost2010PropOp46
 70
     1
102
RTVSPost2010Prop47
 90
       50
102
RTVSPost2010PropOp47
 70
     1
102
RTVSPost2010Prop48
 90
       50
102
RTVSPost2010PropOp48
 70
     1
102
RTVSPost2010Prop49
280
     0
102
RTVSPost2010PropOp49
 70
     1
102
RTVSPost2010Prop50
 90
       50
102
RTVSPost2010PropOp50
 70
     1
102
RTVSPost2010Prop51ColorIndex
 90
      256
102
RTVSPost2010Prop51ColorRGB
 90
-16777216
102
RTVSPost2010PropOp51
 70
     0
102
RTVSPost2010Prop52
140
1.0
102
RTVSPost2010PropOp52
 70
     0
102
RTVSPost2010Prop53
 90
        2
102
RTVSPost2010PropOp53
 70
     1
102
RTVSPost2010Prop54
  1
strokes_ogs.tif
102
RTVSPost2010PropOp54
 70
     1
102
RTVSPost2010Prop55
280
     0
102
RTVSPost2010PropOp55
 70
     1
102
RTVSPost2010Prop56
140
1.0
102
RTVSPost2010PropOp56
 70
     1
102
RTVSPost2010Prop57
140
1.0
102
RTVSPost2010PropOp57
 70
     1
  0
XRECORD
  5
263
102
{ACAD_REACTORS
330
262
102
}
330
262
100
AcDbXrecord
280
     1
102
RTVSPropertyOp0
 70
     1
102
RTVSPropertyOp1
 70
     1
102
RTVSPropertyOp2
 70
     1
102
RTVSPropertyOp3
 70
     1
102
RTVSPropertyOp4
 70
     1
102
RTVSPropertyOp5
 70
     1
102
RTVSPropertyOp6
 70
     1
102
RTVSPropertyOp7
 70
     1
102
RTVSPropertyOp8
 70
     1
102
RTVSPropertyOp9
 70
     1
102
RTVSPropertyOp10
 70
     1
102
RTVSPropertyOp11
 70
     1
102
RTVSPropertyOp12
 70
     1
102
RTVSPropertyOp13
 70
     1
102
RTVSPropertyOp14
 70
     1
102
RTVSPropertyOp15
 70
     1
102
RTVSPropertyOp16
 70
     1
102
RTVSPropertyOp17
 70
     1
102
RTVSPropertyOp18
 70
     1
102
RTVSPropertyOp19
 70
     1
102
RTVSPropertyOp20
 70
     1
102
RTVSPropertyOp21
 70
     1
102
RTVSPropertyOp22
 70
     1
102
RTVSPropertyOp23
 70
     1
102
RTVSPropertyOp24
 70
     1
102
RTVSPropertyOp25
 70
     1
102
RTVSPropertyOp26
 70
     1
102
RTVSPropertyOp27
 70
     1
102
RTVSPropertyOp28
 70
     1
102
RTVSPropertyOp29
 70
     1
102
RTVSPropertyOp30
 70
     1
102
RTVSPropertyOp31
 70
     1
102
RTVSPropertyOp32
 70
     1
102
RTVSPropertyOp33
 70
     1
102
RTVSPropertyOp34
 70
     1
102
RTVSPropertyOp35
 70
     1
102
RTVSPropertyOp36
 70
     1
102
RTVSPropertyOp37
 70
     1
102
RTVSPropertyOp38
 70
     1
102
RTVSPropertyOp39
 70
     1
102
RTVSPropertyOp40
 70
     1
102
RTVSPropertyOp41
 70
     1
102
RTVSPropertyOp42
 70
     1
102
RTVSPropertyOp43
 70
     1
102
RTVSPropertyOp44
 70
     1
102
RTVSPropertyOp45
 70
     1
102
RTVSPropertyOp46
 70
     1
102
RTVSPropertyOp47
 70
     1
102
RTVSPropertyOp48
 70
     1
102
RTVSPropertyOp49
 70
     1
102
RTVSPropertyOp50
 70
     1
102
RTVSPropertyOp51
 70
     0
102
RTVSPropertyOp52
 70
     0
102
RTVSPropertyOp53
 70
     1
102
RTVSPropertyOp54
 70
     1
102
RTVSPropertyOp55
 70
     1
102
RTVSPropertyOp56
 70
     1
102
RTVSPropertyOp57
 70
     1
102
RTVSPost2010Prop28
280
     0
102
RTVSPost2010PropOp28
 70
     1
102
RTVSPost2010Prop29
280
     1
102
RTVSPost2010PropOp29
 70
     1
102
RTVSPost2010Prop30
280
     1
102
RTVSPost2010PropOp30
 70
     1
102
RTVSPost2010Prop31
280
     0
102
RTVSPost2010PropOp31
 70
     1
102
RTVSPost2010Prop32
280
     0
102
RTVSPost2010PropOp32
 70
     1
102
RTVSPost2010Prop33
280
     0
102
RTVSPost2010PropOp33
 70
     1
102
RTVSPost2010Prop34
280
     0
102
RTVSPost2010PropOp34
 70
     1
102
RTVSPost2010Prop35
280
     0
102
RTVSPost2010PropOp35
 70
     1
102
RTVSPost2010Prop36
280
     0
102
RTVSPost2010PropOp36
 70
     1
102
RTVSPost2010Prop37
 90
       50
102
RTVSPost2010PropOp37
 70
     1
102
RTVSPost2010Prop38
140
0.0
102
RTVSPost2010PropOp38
 70
     1
102
RTVSPost2010Prop39
140
1.0
102
RTVSPost2010PropOp39
 70
     1
102
RTVSPost2010Prop40
 90
        0
102
RTVSPost2010PropOp40
 70
     1
102
RTVSPost2010Prop41ColorIndex
 90
       18
102
RTVSPost2010Prop41ColorRGB
 90
        0
102
RTVSPost2010PropOp41
 70
     1
102
RTVSPost2010Prop42
 90
       50
102
RTVSPost2010PropOp42
 70
     1
102
RTVSPost2010Prop43
 90
        3
102
RTVSPost2010PropOp43
 70
     1
102
RTVSPost2010Prop44ColorIndex
 90
        5
102
RTVSPost2010Prop44ColorRGB
 90
      255
102
RTVSPost2010PropOp44
 70
     1
102
RTVSPost2010Prop45
280
     0
102
RTVSPost2010PropOp45
 70
     1
102
RTVSPost2010Prop46
 90
       50
102
RTVSPost2010PropOp46
 70
     1
102
RTVSPost2010Prop47
 90
       50
102
RTVSPost2010PropOp47
 70
     1
102
RTVSPost2010Prop48
 90
       50
102
RTVSPost2010PropOp48
 70
     1
102
RTVSPost2010Prop49
280
     0
102
RTVSPost2010PropOp49
 70
     1
102
RTVSPost2010Prop50
 90
       50
102
RTVSPost2010PropOp50
 70
     1
102
RTVSPost2010Prop51ColorIndex
 90
      256
102
RTVSPost2010Prop51ColorRGB
 90
-16777216
102
RTVSPost2010PropOp51
 70
     0
102
RTVSPost2010Prop52
140
1.0
102
RTVSPost2010PropOp52
 70
     0
102
RTVSPost2010Prop53
 90
        2
102
RTVSPost2010PropOp53
 70
     1
102
RTVSPost2010Prop54
  1
strokes_ogs.tif
102
RTVSPost2010PropOp54
 70
     1
102
RTVSPost2010Prop55
280
     0
102
RTVSPost2010PropOp55
 70
     1
102
RTVSPost2010Prop56
140
1.0
102
RTVSPost2010PropOp56
 70
     1
102
RTVSPost2010Prop57
140
1.0
102
RTVSPost2010PropOp57
 70
     1
  0
XRECORD
  5
255
102
{ACAD_REACTORS
330
254
102
}
330
254
100
AcDbXrecord
280
     1
102
RTVSPropertyOp0
 70
     1
102
RTVSPropertyOp1
 70
     1
102
RTVSPropertyOp2
 70
     1
102
RTVSPropertyOp3
 70
     1
102
RTVSPropertyOp4
 70
     1
102
RTVSPropertyOp5
 70
     1
102
RTVSPropertyOp6
 70
     1
102
RTVSPropertyOp7
 70
     1
102
RTVSPropertyOp8
 70
     1
102
RTVSPropertyOp9
 70
     1
102
RTVSPropertyOp10
 70
     1
102
RTVSPropertyOp11
 70
     1
102
RTVSPropertyOp12
 70
     1
102
RTVSPropertyOp13
 70
     1
102
RTVSPropertyOp14
 70
     1
102
RTVSPropertyOp15
 70
     1
102
RTVSPropertyOp16
 70
     1
102
RTVSPropertyOp17
 70
     1
102
RTVSPropertyOp18
 70
     1
102
RTVSPropertyOp19
 70
     1
102
RTVSPropertyOp20
 70
     1
102
RTVSPropertyOp21
 70
     1
102
RTVSPropertyOp22
 70
     1
102
RTVSPropertyOp23
 70
     1
102
RTVSPropertyOp24
 70
     1
102
RTVSPropertyOp25
 70
     1
102
RTVSPropertyOp26
 70
     1
102
RTVSPropertyOp27
 70
     1
102
RTVSPropertyOp28
 70
     1
102
RTVSPropertyOp29
 70
     1
102
RTVSPropertyOp30
 70
     1
102
RTVSPropertyOp31
 70
     1
102
RTVSPropertyOp32
 70
     1
102
RTVSPropertyOp33
 70
     1
102
RTVSPropertyOp34
 70
     1
102
RTVSPropertyOp35
 70
     1
102
RTVSPropertyOp36
 70
     1
102
RTVSPropertyOp37
 70
     1
102
RTVSPropertyOp38
 70
     1
102
RTVSPropertyOp39
 70
     1
102
RTVSPropertyOp40
 70
     1
102
RTVSPropertyOp41
 70
     1
102
RTVSPropertyOp42
 70
     1
102
RTVSPropertyOp43
 70
     1
102
RTVSPropertyOp44
 70
     1
102
RTVSPropertyOp45
 70
     1
102
RTVSPropertyOp46
 70
     1
102
RTVSPropertyOp47
 70
     1
102
RTVSPropertyOp48
 70
     1
102
RTVSPropertyOp49
 70
     1
102
RTVSPropertyOp50
 70
     1
102
RTVSPropertyOp51
 70
     0
102
RTVSPropertyOp52
 70
     0
102
RTVSPropertyOp53
 70
     1
102
RTVSPropertyOp54
 70
     1
102
RTVSPropertyOp55
 70
     1
102
RTVSPropertyOp56
 70
     1
102
RTVSPropertyOp57
 70
     1
102
RTVSPost2010Prop28
280
     0
102
RTVSPost2010PropOp28
 70
     1
102
RTVSPost2010Prop29
280
     1
102
RTVSPost2010PropOp29
 70
     1
102
RTVSPost2010Prop30
280
     1
102
RTVSPost2010PropOp30
 70
     1
102
RTVSPost2010Prop31
280
     0
102
RTVSPost2010PropOp31
 70
     1
102
RTVSPost2010Prop32
280
     0
102
RTVSPost2010PropOp32
 70
     1
102
RTVSPost2010Prop33
280
     0
102
RTVSPost2010PropOp33
 70
     1
102
RTVSPost2010Prop34
280
     0
102
RTVSPost2010PropOp34
 70
     1
102
RTVSPost2010Prop35
280
     0
102
RTVSPost2010PropOp35
 70
     1
102
RTVSPost2010Prop36
280
     0
102
RTVSPost2010PropOp36
 70
     1
102
RTVSPost2010Prop37
 90
       50
102
RTVSPost2010PropOp37
 70
     1
102
RTVSPost2010Prop38
140
0.0
102
RTVSPost2010PropOp38
 70
     1
102
RTVSPost2010Prop39
140
1.0
102
RTVSPost2010PropOp39
 70
     1
102
RTVSPost2010Prop40
 90
        0
102
RTVSPost2010PropOp40
 70
     1
102
RTVSPost2010Prop41ColorIndex
 90
       18
102
RTVSPost2010Prop41ColorRGB
 90
        0
102
RTVSPost2010PropOp41
 70
     1
102
RTVSPost2010Prop42
 90
       50
102
RTVSPost2010PropOp42
 70
     1
102
RTVSPost2010Prop43
 90
        3
102
RTVSPost2010PropOp43
 70
     1
102
RTVSPost2010Prop44ColorIndex
 90
        5
102
RTVSPost2010Prop44ColorRGB
 90
      255
102
RTVSPost2010PropOp44
 70
     1
102
RTVSPost2010Prop45
280
     0
102
RTVSPost2010PropOp45
 70
     1
102
RTVSPost2010Prop46
 90
       50
102
RTVSPost2010PropOp46
 70
     1
102
RTVSPost2010Prop47
 90
       50
102
RTVSPost2010PropOp47
 70
     1
102
RTVSPost2010Prop48
 90
       50
102
RTVSPost2010PropOp48
 70
     1
102
RTVSPost2010Prop49
280
     0
102
RTVSPost2010PropOp49
 70
     1
102
RTVSPost2010Prop50
 90
       50
102
RTVSPost2010PropOp50
 70
     1
102
RTVSPost2010Prop51ColorIndex
 90
      256
102
RTVSPost2010Prop51ColorRGB
 90
-16777216
102
RTVSPost2010PropOp51
 70
     0
102
RTVSPost2010Prop52
140
1.0
102
RTVSPost2010PropOp52
 70
     0
102
RTVSPost2010Prop53
 90
        2
102
RTVSPost2010PropOp53
 70
     1
102
RTVSPost2010Prop54
  1
strokes_ogs.tif
102
RTVSPost2010PropOp54
 70
     1
102
RTVSPost2010Prop55
280
     0
102
RTVSPost2010PropOp55
 70
     1
102
RTVSPost2010Prop56
140
1.0
102
RTVSPost2010PropOp56
 70
     1
102
RTVSPost2010Prop57
140
1.0
102
RTVSPost2010PropOp57
 70
     1
  0
XRECORD
  5
275
102
{ACAD_REACTORS
330
274
102
}
330
274
100
AcDbXrecord
280
     1
102
RTVSPropertyOp0
 70
     1
102
RTVSPropertyOp1
 70
     1
102
RTVSPropertyOp2
 70
     1
102
RTVSPropertyOp3
 70
     1
102
RTVSPropertyOp4
 70
     1
102
RTVSPropertyOp5
 70
     1
102
RTVSPropertyOp6
 70
     1
102
RTVSPropertyOp7
 70
     1
102
RTVSPropertyOp8
 70
     1
102
RTVSPropertyOp9
 70
     1
102
RTVSPropertyOp10
 70
     1
102
RTVSPropertyOp11
 70
     1
102
RTVSPropertyOp12
 70
     1
102
RTVSPropertyOp13
 70
     1
102
RTVSPropertyOp14
 70
     1
102
RTVSPropertyOp15
 70
     1
102
RTVSPropertyOp16
 70
     1
102
RTVSPropertyOp17
 70
     1
102
RTVSPropertyOp18
 70
     1
102
RTVSPropertyOp19
 70
     1
102
RTVSPropertyOp20
 70
     1
102
RTVSPropertyOp21
 70
     1
102
RTVSPropertyOp22
 70
     1
102
RTVSPropertyOp23
 70
     1
102
RTVSPropertyOp24
 70
     1
102
RTVSPropertyOp25
 70
     1
102
RTVSPropertyOp26
 70
     1
102
RTVSPropertyOp27
 70
     1
102
RTVSPropertyOp28
 70
     1
102
RTVSPropertyOp29
 70
     1
102
RTVSPropertyOp30
 70
     1
102
RTVSPropertyOp31
 70
     1
102
RTVSPropertyOp32
 70
     1
102
RTVSPropertyOp33
 70
     1
102
RTVSPropertyOp34
 70
     1
102
RTVSPropertyOp35
 70
     1
102
RTVSPropertyOp36
 70
     1
102
RTVSPropertyOp37
 70
     1
102
RTVSPropertyOp38
 70
     1
102
RTVSPropertyOp39
 70
     1
102
RTVSPropertyOp40
 70
     1
102
RTVSPropertyOp41
 70
     1
102
RTVSPropertyOp42
 70
     1
102
RTVSPropertyOp43
 70
     1
102
RTVSPropertyOp44
 70
     1
102
RTVSPropertyOp45
 70
     1
102
RTVSPropertyOp46
 70
     1
102
RTVSPropertyOp47
 70
     1
102
RTVSPropertyOp48
 70
     1
102
RTVSPropertyOp49
 70
     1
102
RTVSPropertyOp50
 70
     1
102
RTVSPropertyOp51
 70
     0
102
RTVSPropertyOp52
 70
     0
102
RTVSPropertyOp53
 70
     1
102
RTVSPropertyOp54
 70
     1
102
RTVSPropertyOp55
 70
     1
102
RTVSPropertyOp56
 70
     1
102
RTVSPropertyOp57
 70
     1
102
RTVSPost2010Prop28
280
     0
102
RTVSPost2010PropOp28
 70
     1
102
RTVSPost2010Prop29
280
     1
102
RTVSPost2010PropOp29
 70
     1
102
RTVSPost2010Prop30
280
     1
102
RTVSPost2010PropOp30
 70
     1
102
RTVSPost2010Prop31
280
     0
102
RTVSPost2010PropOp31
 70
     1
102
RTVSPost2010Prop32
280
     0
102
RTVSPost2010PropOp32
 70
     1
102
RTVSPost2010Prop33
280
     0
102
RTVSPost2010PropOp33
 70
     1
102
RTVSPost2010Prop34
280
     0
102
RTVSPost2010PropOp34
 70
     1
102
RTVSPost2010Prop35
280
     0
102
RTVSPost2010PropOp35
 70
     1
102
RTVSPost2010Prop36
280
     0
102
RTVSPost2010PropOp36
 70
     1
102
RTVSPost2010Prop37
 90
       50
102
RTVSPost2010PropOp37
 70
     1
102
RTVSPost2010Prop38
140
0.0
102
RTVSPost2010PropOp38
 70
     1
102
RTVSPost2010Prop39
140
1.0
102
RTVSPost2010PropOp39
 70
     1
102
RTVSPost2010Prop40
 90
        0
102
RTVSPost2010PropOp40
 70
     1
102
RTVSPost2010Prop41ColorIndex
 90
       18
102
RTVSPost2010Prop41ColorRGB
 90
        0
102
RTVSPost2010PropOp41
 70
     1
102
RTVSPost2010Prop42
 90
       50
102
RTVSPost2010PropOp42
 70
     1
102
RTVSPost2010Prop43
 90
        3
102
RTVSPost2010PropOp43
 70
     1
102
RTVSPost2010Prop44ColorIndex
 90
        5
102
RTVSPost2010Prop44ColorRGB
 90
      255
102
RTVSPost2010PropOp44
 70
     1
102
RTVSPost2010Prop45
280
     0
102
RTVSPost2010PropOp45
 70
     1
102
RTVSPost2010Prop46
 90
       50
102
RTVSPost2010PropOp46
 70
     1
102
RTVSPost2010Prop47
 90
       50
102
RTVSPost2010PropOp47
 70
     1
102
RTVSPost2010Prop48
 90
       50
102
RTVSPost2010PropOp48
 70
     1
102
RTVSPost2010Prop49
280
     0
102
RTVSPost2010PropOp49
 70
     1
102
RTVSPost2010Prop50
 90
       50
102
RTVSPost2010PropOp50
 70
     1
102
RTVSPost2010Prop51ColorIndex
 90
      256
102
RTVSPost2010Prop51ColorRGB
 90
-16777216
102
RTVSPost2010PropOp51
 70
     0
102
RTVSPost2010Prop52
140
1.0
102
RTVSPost2010PropOp52
 70
     0
102
RTVSPost2010Prop53
 90
        2
102
RTVSPost2010PropOp53
 70
     1
102
RTVSPost2010Prop54
  1
strokes_ogs.tif
102
RTVSPost2010PropOp54
 70
     1
102
RTVSPost2010Prop55
280
     0
102
RTVSPost2010PropOp55
 70
     1
102
RTVSPost2010Prop56
140
1.0
102
RTVSPost2010PropOp56
 70
     1
102
RTVSPost2010Prop57
140
1.0
102
RTVSPost2010PropOp57
 70
     1
  0
ENDSEC
  0
EOF
