  0
SECTION
  2
HEADER
  9
$ACADVER
  1
AC1015
  9
$ACADMAINTVER
 70
     6
  9
$DWGCODEPAGE
  3
ANSI_1252
  9
$INSBASE
 10
0.0
 20
0.0
 30
0.0
  9
$EXTMIN
 10
-68.504013
 20
-111.775398
 30
0.0
  9
$EXTMAX
 10
377.685486
 20
199.43689
 30
0.0
  9
$LIMMIN
 10
-68.504013
 20
-111.775398
  9
$LIMMAX
 10
377.685486
 20
199.43689
  9
$ORTHOMODE
 70
     0
  9
$REGENMODE
 70
     1
  9
$FILLMODE
 70
     1
  9
$QTEXTMODE
 70
     0
  9
$MIRRTEXT
 70
     1
  9
$LTSCALE
 40
1.0
  9
$ATTMODE
 70
     1
  9
$TEXTSIZE
 40
2.5
  9
$TRACEWID
 40
1.0
  9
$TEXTSTYLE
  7
Standard
  9
$CLAYER
  8
0
  9
$CELTYPE
  6
ByLayer
  9
$CECOLOR
 62
   256
  9
$CELTSCALE
 40
1.0
  9
$DISPSILH
 70
     0
  9
$DIMSCALE
 40
1.0
  9
$DIMASZ
 40
2.5
  9
$DIMEXO
 40
0.625
  9
$DIMDLI
 40
3.75
  9
$DIMRND
 40
0.0
  9
$DIMDLE
 40
0.0
  9
$DIMEXE
 40
1.25
  9
$DIMTP
 40
0.0
  9
$DIMTM
 40
0.0
  9
$DIMTXT
 40
2.5
  9
$DIMCEN
 40
2.5
  9
$DIMTSZ
 40
0.0
  9
$DIMTOL
 70
     0
  9
$DIMLIM
 70
     0
  9
$DIMTIH
 70
     0
  9
$DIMTOH
 70
     0
  9
$DIMSE1
 70
     0
  9
$DIMSE2
 70
     0
  9
$DIMTAD
 70
     1
  9
$DIMZIN
 70
     8
  9
$DIMBLK
  1

  9
$DIMASO
 70
     1
  9
$DIMSHO
 70
     1
  9
$DIMPOST
  1

  9
$DIMAPOST
  1

  9
$DIMALT
 70
     0
  9
$DIMALTD
 70
     3
  9
$DIMALTF
 40
0.03937
  9
$DIMLFAC
 40
1.0
  9
$DIMTOFL
 70
     1
  9
$DIMTVP
 40
0.0
  9
$DIMTIX
 70
     0
  9
$DIMSOXD
 70
     0
  9
$DIMSAH
 70
     0
  9
$DIMBLK1
  1

  9
$DIMBLK2
  1

  9
$DIMSTYLE
  2
ISO-25
  9
$DIMCLRD
 70
     0
  9
$DIMCLRE
 70
     0
  9
$DIMCLRT
 70
     0
  9
$DIMTFAC
 40
1.0
  9
$DIMGAP
 40
0.625
  9
$DIMJUST
 70
     0
  9
$DIMSD1
 70
     0
  9
$DIMSD2
 70
     0
  9
$DIMTOLJ
 70
     0
  9
$DIMTZIN
 70
     8
  9
$DIMALTZ
 70
     0
  9
$DIMALTTZ
 70
     0
  9
$DIMUPT
 70
     0
  9
$DIMDEC
 70
     2
  9
$DIMTDEC
 70
     2
  9
$DIMALTU
 70
     2
  9
$DIMALTTD
 70
     3
  9
$DIMTXSTY
  7
Standard
  9
$DIMAUNIT
 70
     0
  9
$DIMADEC
 70
     0
  9
$DIMALTRND
 40
0.0
  9
$DIMAZIN
 70
     0
  9
$DIMDSEP
 70
    44
  9
$DIMATFIT
 70
     3
  9
$DIMFRAC
 70
     0
  9
$DIMLDRBLK
  1

  9
$DIMLUNIT
 70
     2
  9
$DIMLWD
 70
    -2
  9
$DIMLWE
 70
    -2
  9
$DIMTMOVE
 70
     0
  9
$LUNITS
 70
     2
  9
$LUPREC
 70
     4
  9
$SKETCHINC
 40
1.0
  9
$FILLETRAD
 40
10.0
  9
$AUNITS
 70
     0
  9
$AUPREC
 70
     0
  9
$MENU
  1
.
  9
$ELEVATION
 40
0.0
  9
$PELEVATION
 40
0.0
  9
$THICKNESS
 40
0.0
  9
$LIMCHECK
 70
     0
  9
$CHAMFERA
 40
0.0
  9
$CHAMFERB
 40
0.0
  9
$CHAMFERC
 40
0.0
  9
$CHAMFERD
 40
0.0
  9
$SKPOLY
 70
     0
  9
$TDCREATE
 40
2459549.384875266
  9
$TDUCREATE
 40
2459549.343208599
  9
$TDUPDATE
 40
2459549.384875729
  9
$TDUUPDATE
 40
2459549.343209063
  9
$TDINDWG
 40
0.0000000116
  9
$TDUSRTIMER
 40
0.0000000116
  9
$USRTIMER
 70
     1
  9
$ANGBASE
 50
0.0
  9
$ANGDIR
 70
     0
  9
$PDMODE
 70
     0
  9
$PDSIZE
 40
0.0
  9
$PLINEWID
 40
0.0
  9
$SPLFRAME
 70
     0
  9
$SPLINETYPE
 70
     6
  9
$SPLINESEGS
 70
     8
  9
$HANDSEED
  5
20B
  9
$SURFTAB1
 70
     6
  9
$SURFTAB2
 70
     6
  9
$SURFTYPE
 70
     6
  9
$SURFU
 70
     6
  9
$SURFV
 70
     6
  9
$UCSBASE
  2

  9
$UCSNAME
  2

  9
$UCSORG
 10
0.0
 20
0.0
 30
0.0
  9
$UCSXDIR
 10
1.0
 20
0.0
 30
0.0
  9
$UCSYDIR
 10
0.0
 20
1.0
 30
0.0
  9
$UCSORTHOREF
  2

  9
$UCSORTHOVIEW
 70
     0
  9
$UCSORGTOP
 10
0.0
 20
0.0
 30
0.0
  9
$UCSORGBOTTOM
 10
0.0
 20
0.0
 30
0.0
  9
$UCSORGLEFT
 10
0.0
 20
0.0
 30
0.0
  9
$UCSORGRIGHT
 10
0.0
 20
0.0
 30
0.0
  9
$UCSORGFRONT
 10
0.0
 20
0.0
 30
0.0
  9
$UCSORGBACK
 10
0.0
 20
0.0
 30
0.0
  9
$PUCSBASE
  2

  9
$PUCSNAME
  2

  9
$PUCSORG
 10
0.0
 20
0.0
 30
0.0
  9
$PUCSXDIR
 10
1.0
 20
0.0
 30
0.0
  9
$PUCSYDIR
 10
0.0
 20
1.0
 30
0.0
  9
$PUCSORTHOREF
  2

  9
$PUCSORTHOVIEW
 70
     0
  9
$PUCSORGTOP
 10
0.0
 20
0.0
 30
0.0
  9
$PUCSORGBOTTOM
 10
0.0
 20
0.0
 30
0.0
  9
$PUCSORGLEFT
 10
0.0
 20
0.0
 30
0.0
  9
$PUCSORGRIGHT
 10
0.0
 20
0.0
 30
0.0
  9
$PUCSORGFRONT
 10
0.0
 20
0.0
 30
0.0
  9
$PUCSORGBACK
 10
0.0
 20
0.0
 30
0.0
  9
$USERI1
 70
     0
  9
$USERI2
 70
     0
  9
$USERI3
 70
     0
  9
$USERI4
 70
     0
  9
$USERI5
 70
     0
  9
$USERR1
 40
0.0
  9
$USERR2
 40
0.0
  9
$USERR3
 40
0.0
  9
$USERR4
 40
0.0
  9
$USERR5
 40
0.0
  9
$WORLDVIEW
 70
     1
  9
$SHADEDGE
 70
     3
  9
$SHADEDIF
 70
    70
  9
$TILEMODE
 70
     1
  9
$MAXACTVP
 70
    64
  9
$PINSBASE
 10
0.0
 20
0.0
 30
0.0
  9
$PLIMCHECK
 70
     0
  9
$PEXTMIN
 10
1.000000E+20
 20
1.000000E+20
 30
1.000000E+20
  9
$PEXTMAX
 10
-1.000000E+20
 20
-1.000000E+20
 30
-1.000000E+20
  9
$PLIMMIN
 10
0.0
 20
0.0
  9
$PLIMMAX
 10
420.0
 20
297.0
  9
$UNITMODE
 70
     0
  9
$VISRETAIN
 70
     1
  9
$PLINEGEN
 70
     0
  9
$PSLTSCALE
 70
     1
  9
$TREEDEPTH
 70
  3020
  9
$CMLSTYLE
  2
Standard
  9
$CMLJUST
 70
     0
  9
$CMLSCALE
 40
20.0
  9
$PROXYGRAPHICS
 70
     1
  9
$MEASUREMENT
 70
     1
  9
$CELWEIGHT
370
    -1
  9
$ENDCAPS
280
     0
  9
$JOINSTYLE
280
     0
  9
$LWDISPLAY
290
     0
  9
$INSUNITS
 70
     4
  9
$HYPERLINKBASE
  1

  9
$STYLESHEET
  1

  9
$XEDIT
290
     1
  9
$CEPSNTYPE
380
     0
  9
$PSTYLEMODE
290
     1
  9
$FINGERPRINTGUID
  2
{024dc02c-70ba-422d-8325-6fec4f469641}
  9
$VERSIONGUID
  2
{FAEB1C32-E019-11D5-929B-00C0DF256EC4}
  9
$EXTNAMES
290
     1
  9
$PSVPSCALE
 40
0.0
  9
$OLESTARTUP
290
     0
  0
ENDSEC
  0
SECTION
  2
CLASSES
  0
CLASS
  1
ACDBDICTIONARYWDFLT
  2
AcDbDictionaryWithDefault
  3
ObjectDBX Classes
 90
        0
280
     0
281
     0
  0
CLASS
  1
VISUALSTYLE
  2
AcDbVisualStyle
  3
ObjectDBX Classes
 90
     4095
280
     0
281
     0
  0
CLASS
  1
MATERIAL
  2
AcDbMaterial
  3
ObjectDBX Classes
 90
     1153
280
     0
281
     0
  0
CLASS
  1
SCALE
  2
AcDbScale
  3
ObjectDBX Classes
 90
     1153
280
     0
281
     0
  0
CLASS
  1
TABLESTYLE
  2
AcDbTableStyle
  3
ObjectDBX Classes
 90
     4095
280
     0
281
     0
  0
CLASS
  1
MLEADERSTYLE
  2
AcDbMLeaderStyle
  3
ACDB_MLEADERSTYLE_CLASS
 90
     4095
280
     0
281
     0
  0
CLASS
  1
SUN
  2
AcDbSun
  3
SCENEOE
 90
     1153
280
     0
281
     0
  0
CLASS
  1
DICTIONARYVAR
  2
AcDbDictionaryVar
  3
ObjectDBX Classes
 90
        0
280
     0
281
     0
  0
CLASS
  1
ACDBPLACEHOLDER
  2
AcDbPlaceHolder
  3
ObjectDBX Classes
 90
        0
280
     0
281
     0
  0
CLASS
  1
LAYOUT
  2
AcDbLayout
  3
ObjectDBX Classes
 90
        0
280
     0
281
     0
  0
ENDSEC
  0
SECTION
  2
TABLES
  0
TABLE
  2
VPORT
  5
8
102
{ACAD_XDICTIONARY
360
1CE
102
}
330
0
100
AcDbSymbolTable
 70
     1
  0
VPORT
  5
29
330
8
100
AcDbSymbolTableRecord
100
AcDbViewportTableRecord
  2
*Active
 70
     0
 10
0.0
 20
0.0
 11
1.0
 21
1.0
 12
344.186916
 22
148.5
 13
0.0
 23
0.0
 14
10.0
 24
10.0
 15
10.0
 25
10.0
 16
0.0
 26
0.0
 36
1.0
 17
0.0
 27
0.0
 37
0.0
 40
297.0
 41
1.972973
 42
50.0
 43
0.0
 44
0.0
 50
0.0
 51
0.0
 71
     0
 72
   100
 73
     1
 74
     3
 75
     0
 76
     0
 77
     0
 78
     0
281
     0
 65
     1
110
0.0
120
0.0
130
0.0
111
1.0
121
0.0
131
0.0
112
0.0
122
1.0
132
0.0
 79
     0
146
0.0
  0
ENDTAB
  0
TABLE
  2
LTYPE
  5
5
330
0
100
AcDbSymbolTable
 70
     1
  0
LTYPE
  5
14
330
5
100
AcDbSymbolTableRecord
100
AcDbLinetypeTableRecord
  2
ByBlock
 70
     0
  3

 72
    65
 73
     0
 40
0.0
  0
LTYPE
  5
15
330
5
100
AcDbSymbolTableRecord
100
AcDbLinetypeTableRecord
  2
ByLayer
 70
     0
  3

 72
    65
 73
     0
 40
0.0
  0
LTYPE
  5
16
330
5
100
AcDbSymbolTableRecord
100
AcDbLinetypeTableRecord
  2
Continuous
 70
     0
  3
Solid line
 72
    65
 73
     0
 40
0.0
  0
ENDTAB
  0
TABLE
  2
LAYER
  5
2
330
0
100
AcDbSymbolTable
 70
     1
  0
LAYER
  5
10
330
2
100
AcDbSymbolTableRecord
100
AcDbLayerTableRecord
  2
0
 70
     0
 62
   106
  6
Continuous
370
     0
390
F
  0
ENDTAB
  0
TABLE
  2
STYLE
  5
3
330
0
100
AcDbSymbolTable
 70
     4
  0
STYLE
  5
11
330
3
100
AcDbSymbolTableRecord
100
AcDbTextStyleTableRecord
  2
Standard
 70
     0
 40
0.0
 41
1.0
 50
0.0
 71
     0
 42
2.5
  3
txt
  4

  0
STYLE
  5
6E
330
3
100
AcDbSymbolTableRecord
100
AcDbTextStyleTableRecord
  2
Default
 70
     0
 40
0.0
 41
1.0
 50
0.0
 71
     0
 42
2.5
  3

  4

1001
ACAD
1000
txt
1071
        0
  0
STYLE
  5
6F
330
3
100
AcDbSymbolTableRecord
100
AcDbTextStyleTableRecord
  2
ISO
 70
     0
 40
0.0
 41
1.0
 50
0.0
 71
     0
 42
2.5
  3

  4

1001
ACAD
1000
txt
1071
        0
  0
STYLE
  5
70
330
3
100
AcDbSymbolTableRecord
100
AcDbTextStyleTableRecord
  2
zucchetti
 70
     0
 40
0.0
 41
1.0
 50
0.0
 71
     0
 42
2.5
  3

  4

1001
ACAD
1000
Arial
1071
        0
  0
ENDTAB
  0
TABLE
  2
VIEW
  5
6
330
0
100
AcDbSymbolTable
 70
     0
  0
ENDTAB
  0
TABLE
  2
UCS
  5
7
330
0
100
AcDbSymbolTable
 70
     0
  0
ENDTAB
  0
TABLE
  2
APPID
  5
9
330
0
100
AcDbSymbolTable
 70
     2
  0
APPID
  5
12
330
9
100
AcDbSymbolTableRecord
100
AcDbRegAppTableRecord
  2
ACAD
 70
     0
  0
APPID
  5
208
330
9
100
AcDbSymbolTableRecord
100
AcDbRegAppTableRecord
  2
ACAD_MLEADERVER
 70
     0
  0
ENDTAB
  0
TABLE
  2
DIMSTYLE
  5
A
330
0
100
AcDbSymbolTable
 70
     4
100
AcDbDimStyleTable
  0
DIMSTYLE
105
27
330
A
100
AcDbSymbolTableRecord
100
AcDbDimStyleTableRecord
  2
ISO-25
 70
     0
 41
2.5
 42
0.625
 43
3.75
 44
1.25
 73
     0
 74
     0
 77
     1
 78
     8
140
2.5
141
2.5
143
0.03937
147
0.625
171
     3
172
     1
178
     0
271
     2
272
     2
274
     3
278
    44
283
     0
284
     8
340
11
  0
DIMSTYLE
105
71
330
A
100
AcDbSymbolTableRecord
100
AcDbDimStyleTableRecord
  2
Default
 70
     0
  3
<>
 41
4.375
 42
1.05
 44
2.1
 73
     0
 74
     0
 77
     1
 78
     8
140
3.5
146
0.4
147
1.75
172
     1
271
     2
178
     3
271
     2
272
     3
284
     8
340
6E
341
72
342
72
  0
DIMSTYLE
105
79
330
A
100
AcDbSymbolTableRecord
100
AcDbDimStyleTableRecord
  2
ISO
 70
     0
  3
<>
 41
4.375
 42
1.05
 44
2.1
 73
     0
 74
     0
 77
     1
 78
     8
140
3.5
146
0.4
147
1.75
172
     1
271
     2
178
     3
271
     2
272
     3
284
     8
340
6F
341
72
342
72
  0
DIMSTYLE
105
7A
330
A
100
AcDbSymbolTableRecord
100
AcDbDimStyleTableRecord
  2
zucchetti
 70
     0
  3
<>
 41
3.0
 42
0.9
 44
1.8
 73
     0
 74
     0
 77
     1
 78
     8
140
3.0
146
0.6
147
1.5
172
     1
176
     3
177
     3
271
     2
178
     3
271
     2
272
     2
284
     8
340
70
  0
ENDTAB
  0
TABLE
  2
BLOCK_RECORD
  5
1
330
0
100
AcDbSymbolTable
 70
     7
  0
BLOCK_RECORD
  5
1F
330
1
100
AcDbSymbolTableRecord
100
AcDbBlockTableRecord
  2
*Model_Space
340
22
  0
BLOCK_RECORD
  5
1B
330
1
100
AcDbSymbolTableRecord
100
AcDbBlockTableRecord
  2
*Paper_Space
340
1E
  0
BLOCK_RECORD
  5
23
330
1
100
AcDbSymbolTableRecord
100
AcDbBlockTableRecord
  2
*Paper_Space0
340
26
  0
BLOCK_RECORD
  5
72
330
1
100
AcDbSymbolTableRecord
100
AcDbBlockTableRecord
  2
_Closed
340
0
  0
BLOCK_RECORD
  5
7B
330
1
100
AcDbSymbolTableRecord
100
AcDbBlockTableRecord
  2
a
340
0
102
{BLKREFS
331
B2
102
}
  0
BLOCK_RECORD
  5
B3
330
1
100
AcDbSymbolTableRecord
100
AcDbBlockTableRecord
  2
b
340
0
102
{BLKREFS
331
F7
102
}
  0
BLOCK_RECORD
  5
F8
330
1
100
AcDbSymbolTableRecord
100
AcDbBlockTableRecord
  2
c
340
0
102
{BLKREFS
331
13B
102
}
  0
BLOCK_RECORD
  5
13C
330
1
100
AcDbSymbolTableRecord
100
AcDbBlockTableRecord
  2
d
340
0
102
{BLKREFS
331
17B
102
}
  0
BLOCK_RECORD
  5
17C
330
1
100
AcDbSymbolTableRecord
100
AcDbBlockTableRecord
  2
e
340
0
102
{BLKREFS
331
1C2
102
}
  0
ENDTAB
  0
ENDSEC
  0
SECTION
  2
BLOCKS
  0
BLOCK
  5
20
330
1F
100
AcDbEntity
  8
0
100
AcDbBlockBegin
  2
*Model_Space
 70
     0
 10
0.0
 20
0.0
 30
0.0
  3
*Model_Space
  1

  0
ENDBLK
  5
21
330
1F
100
AcDbEntity
  8
0
100
AcDbBlockEnd
  0
BLOCK
  5
1C
330
1B
100
AcDbEntity
 67
     1
  8
0
100
AcDbBlockBegin
  2
*Paper_Space
 70
     0
 10
0.0
 20
0.0
 30
0.0
  3
*Paper_Space
  1

  0
ENDBLK
  5
1D
330
1B
100
AcDbEntity
 67
     1
  8
0
100
AcDbBlockEnd
  0
BLOCK
  5
24
330
23
100
AcDbEntity
  8
0
100
AcDbBlockBegin
  2
*Paper_Space0
 70
     0
 10
0.0
 20
0.0
 30
0.0
  3
*Paper_Space0
  1

  0
ENDBLK
  5
25
330
23
100
AcDbEntity
  8
0
100
AcDbBlockEnd
  0
BLOCK
  5
73
330
72
100
AcDbEntity
  8
0
100
AcDbBlockBegin
  2
_Closed
 70
     0
 10
0.0
 20
0.0
 30
0.0
  3
_Closed
  1

  0
LINE
  5
75
330
72
100
AcDbEntity
  8
0
  6
ByBlock
 62
     0
370
    -2
100
AcDbLine
 10
-1.0
 20
0.166667
 30
0.0
 11
0.0
 21
0.0
 31
0.0
  0
LINE
  5
76
330
72
100
AcDbEntity
  8
0
  6
ByBlock
 62
     0
370
    -2
100
AcDbLine
 10
0.0
 20
0.0
 30
0.0
 11
-1.0
 21
-0.166667
 31
0.0
  0
LINE
  5
77
330
72
100
AcDbEntity
  8
0
  6
ByBlock
 62
     0
370
    -2
100
AcDbLine
 10
-1.0
 20
0.166667
 30
0.0
 11
-1.0
 21
-0.166667
 31
0.0
  0
LINE
  5
78
330
72
100
AcDbEntity
  8
0
  6
ByBlock
 62
     0
370
    -2
100
AcDbLine
 10
0.0
 20
0.0
 30
0.0
 11
-1.0
 21
0.0
 31
0.0
  0
ENDBLK
  5
74
330
72
100
AcDbEntity
  8
0
100
AcDbBlockEnd
  0
BLOCK
  5
B0
330
7B
100
AcDbEntity
  8
0
100
AcDbBlockBegin
  2
a
 70
     0
 10
115.969902
 20
84.382767
 30
0.0
  3
a
  1

  0
ARC
  5
7C
330
7B
100
AcDbEntity
  8
0
  6
Continuous
 62
     0
370
    30
100
AcDbCircle
 10
154.972807
 20
161.936654
 30
0.0
 40
21.99393697203809
100
AcDbArc
 50
359.573392
 51
89.999398
  0
ARC
  5
7D
330
7B
100
AcDbEntity
  8
0
  6
Continuous
 62
     0
370
    30
100
AcDbCircle
 10
154.973269
 20
161.936654
 30
0.0
 40
21.99393697203799
100
AcDbArc
 50
90.000603
 51
180.426609
  0
LINE
  5
7E
330
7B
100
AcDbEntity
  8
0
  6
Continuous
 62
     0
370
     0
100
AcDbLine
 10
176.643748
 20
158.180719
 30
0.0
 11
176.573556
 21
158.180784
 31
0.0
  0
LINE
  5
7F
330
7B
100
AcDbEntity
  8
0
  6
Continuous
 62
     0
370
     0
100
AcDbLine
 10
176.573556
 20
158.180784
 30
0.0
 11
176.549659
 21
157.989457
 31
0.0
  0
SPLINE
  5
80
330
7B
100
AcDbEntity
  8
0
  6
Continuous
 62
     0
370
     0
100
AcDbSpline
210
0.0
220
0.0
230
1.0
 70
     8
 71
     3
 72
     8
 73
     4
 74
     0
 42
0.000000001
 43
0.0
 40
0.0
 40
0.0
 40
0.0
 40
0.0
 40
3.675194520389784
 40
3.675194520389784
 40
3.675194520389784
 40
3.675194520389784
 10
176.5605643760512
 20
158.1807404735021
 30
0.0
 10
176.6956280869456
 20
159.3781524215863
 30
0.0
 10
176.9564055273647
 20
160.5681636596945
 30
0.0
 10
176.9660907661975
 20
161.7728956760399
 30
0.0
  0
LINE
  5
81
330
7B
100
AcDbEntity
  8
0
  6
Continuous
 62
     0
370
     0
100
AcDbLine
 10
133.302328
 20
158.180719
 30
0.0
 11
133.37252
 21
158.180784
 31
0.0
  0
LINE
  5
82
330
7B
100
AcDbEntity
  8
0
  6
Continuous
 62
     0
370
     0
100
AcDbLine
 10
133.37252
 20
158.180784
 30
0.0
 11
133.396417
 21
157.989456
 31
0.0
  0
LINE
  5
83
330
7B
100
AcDbEntity
  8
0
  6
Continuous
 62
     0
370
     0
100
AcDbLine
 10
176.560572
 20
158.18074
 30
0.0
 11
174.102045
 21
136.405549
 31
0.0
  0
LINE
  5
84
330
7B
100
AcDbEntity
  8
0
  6
Continuous
 62
     0
370
     0
100
AcDbLine
 10
174.102045
 20
136.405549
 30
0.0
 11
170.628373
 21
105.631133
 31
0.0
  0
LINE
  5
85
330
7B
100
AcDbEntity
  8
0
  6
Continuous
 62
     0
370
     0
100
AcDbLine
 10
154.973026
 20
89.330372
 30
0.0
 11
154.973031
 21
89.255742
 31
0.0
  0
SPLINE
  5
86
330
7B
100
AcDbEntity
  8
0
  6
Continuous
 62
     0
370
     0
100
AcDbSpline
210
0.0
220
0.0
230
1.0
 70
     8
 71
     3
 72
     8
 73
     4
 74
     0
 42
0.000000001
 43
0.0
 40
0.0
 40
0.0
 40
0.0
 40
0.0
 40
3.653222443064012
 40
3.653222443064012
 40
3.653222443064012
 40
3.653222443064012
 10
175.656457535018
 20
162.0481788414912
 30
0.0
 10
175.6449694965749
 20
160.8500088996725
 30
0.0
 10
175.3884172580785
 20
159.6677732428065
 30
0.0
 10
175.2528037156742
 20
158.4775040816184
 30
0.0
  0
LINE
  5
87
330
7B
100
AcDbEntity
  8
0
  6
Continuous
 62
     0
370
     0
100
AcDbLine
 10
175.252804
 20
158.477504
 30
0.0
 11
169.327155
 21
106.055051
 31
0.0
  0
SPLINE
  5
88
330
7B
100
AcDbEntity
  8
0
  6
Continuous
 62
     0
370
     0
100
AcDbSpline
210
0.0
220
0.0
230
1.0
 70
     8
 71
     3
 72
    14
 73
    10
 74
     0
 42
0.000000001
 43
0.0
 40
0.0
 40
0.0
 40
0.0
 40
0.0
 40
3.357648776850947
 40
6.714049718873456
 40
10.06778576981203
 40
13.41760088284157
 40
16.76445100048878
 40
20.11421126264102
 40
23.46800661547981
 40
23.46800661547981
 40
23.46800661547981
 40
23.46800661547981
 10
169.3271549637247
 20
106.0550513773704
 30
0.0
 10
169.2004309334515
 20
104.9613184609035
 30
0.0
 10
168.8459270249402
 20
102.7839155195009
 30
0.0
 10
167.9189777809718
 20
99.60115628099368
 30
0.0
 10
166.4700562549021
 20
96.604962233967
 30
0.0
 10
164.3601302381413
 20
93.99563967059592
 30
0.0
 10
161.5607529440422
 20
92.0948347037525
 30
0.0
 10
158.3337365239191
 20
91.07609372064799
 30
0.0
 10
156.0909705740816
 20
90.89640910596442
 30
0.0
 10
154.9730387898023
 20
90.8964083807743
 30
0.0
  0
LINE
  5
89
330
7B
100
AcDbEntity
  8
0
  6
Continuous
 62
     0
370
     0
100
AcDbLine
 10
154.973039
 20
90.896408
 30
0.0
 11
154.973037
 21
182.868272
 31
0.0
  0
ARC
  5
8A
330
7B
100
AcDbEntity
  8
0
  6
Continuous
 62
     0
370
     0
100
AcDbCircle
 10
154.973627
 20
162.184988
 30
0.0
 40
20.68328310527699
100
AcDbArc
 50
359.621014
 51
90.001632
  0
SPLINE
  5
8B
330
7B
100
AcDbEntity
  8
0
  6
Continuous
 62
     0
370
     0
100
AcDbSpline
210
0.0
220
0.0
230
1.0
 70
     8
 71
     7
 72
    16
 73
     8
 74
     0
 42
0.000000001
 43
0.0
 40
0.0
 40
0.0
 40
0.0
 40
0.0
 40
0.0
 40
0.0
 40
0.0
 40
0.0
 40
1.0
 40
1.0
 40
1.0
 40
1.0
 40
1.0
 40
1.0
 40
1.0
 40
1.0
 10
169.3271603926725
 20
106.0550570182729
 30
0.0
 10
169.6348491449761
 20
106.0116851237193
 30
0.0
 10
169.9310552808948
 20
105.9563650819283
 30
0.0
 10
170.1952837874122
 20
105.891986468142
 30
0.0
 10
170.4081668851379
 20
105.8226312746693
 30
0.0
 10
170.5549671441657
 20
105.7531008094269
 30
0.0
 10
170.6283701478279
 20
105.6880058738957
 30
0.0
 10
170.6283725325011
 20
105.6311350598321
 30
0.0
  0
LINE
  5
8C
330
7B
100
AcDbEntity
  8
0
  6
Continuous
 62
     0
370
     0
100
AcDbLine
 10
154.973038
 20
182.868272
 30
0.0
 11
154.973038
 21
183.930591
 31
0.0
  0
LINE
  5
8D
330
7B
100
AcDbEntity
  8
0
  6
Continuous
 62
     0
370
     0
100
AcDbLine
 10
154.973026
 20
90.896408
 30
0.0
 11
154.973026
 21
89.330372
 31
0.0
  0
SPLINE
  5
8E
330
7B
100
AcDbEntity
  8
0
  6
Continuous
 62
     0
370
     0
100
AcDbSpline
210
0.0
220
0.0
230
1.0
 70
     8
 71
     3
 72
    21
 73
    17
 74
     0
 42
0.000000001
 43
0.0
 40
0.0
 40
0.0
 40
0.0
 40
0.0
 40
0.7625472699044984
 40
1.527870988522846
 40
3.068173238571163
 40
6.184644795374176
 40
7.762267914638144
 40
9.344689078241554
 40
10.92485328317408
 40
12.49648425405301
 40
15.59751546688465
 40
18.64952673578841
 40
21.66346482859164
 40
23.1602384496008
 40
23.90640253390963
 40
24.65139873213821
 40
24.65139873213821
 40
24.65139873213821
 40
24.65139873213821
 10
154.9730519247376
 20
89.3303721886748
 30
0.0
 10
154.7124407606653
 20
89.33014446915521
 30
0.0
 10
154.1905195636036
 20
89.33970636276311
 30
0.0
 10
153.1414904635954
 20
89.39823350951838
 30
0.0
 10
151.2917955734454
 20
89.6160286156245
 30
0.0
 10
149.1927883656553
 20
90.17584493731641
 30
0.0
 10
147.2243069654974
 20
91.1067263137058
 30
0.0
 10
145.8400980889414
 20
91.9949915142075
 30
0.0
 10
144.5890411468689
 20
93.05209143363729
 30
0.0
 10
143.1321211644155
 20
94.63604891459836
 30
0.0
 10
141.6998042092651
 20
96.86704058432895
 30
0.0
 10
140.5165119434243
 20
99.73281350135292
 30
0.0
 10
139.8690573547874
 20
102.1851009267183
 30
0.0
 10
139.5541834240436
 20
103.909366775424
 30
0.0
 10
139.4076015172802
 20
104.8930637426096
 30
0.0
 10
139.3476546601374
 20
105.385238152672
 30
0.0
 10
139.3177047069431
 20
105.6311326206618
 30
0.0
  0
SPLINE
  5
8F
330
7B
100
AcDbEntity
  8
0
  6
Continuous
 62
     0
370
     0
100
AcDbSpline
210
0.0
220
0.0
230
1.0
 70
     8
 71
     3
 72
     8
 73
     4
 74
     0
 42
0.000000001
 43
0.0
 40
0.0
 40
0.0
 40
0.0
 40
0.0
 40
3.653222443064017
 40
3.653222443064017
 40
3.653222443064017
 40
3.653222443064017
 10
134.2896184022216
 20
162.048178364065
 30
0.0
 10
134.3011064684452
 20
160.8500084225161
 30
0.0
 10
134.5576587339953
 20
159.6677727715519
 30
0.0
 10
134.6932723039859
 20
158.4775036135096
 30
0.0
  0
LINE
  5
90
330
7B
100
AcDbEntity
  8
0
  6
Continuous
 62
     0
370
     0
100
AcDbLine
 10
134.693272
 20
158.477504
 30
0.0
 11
140.618922
 21
106.055051
 31
0.0
  0
ARC
  5
91
330
7B
100
AcDbEntity
  8
0
  6
Continuous
 62
     0
370
     0
100
AcDbCircle
 10
154.972449
 20
162.184988
 30
0.0
 40
20.68328310523923
100
AcDbArc
 50
89.998369
 51
180.378987
  0
SPLINE
  5
92
330
7B
100
AcDbEntity
  8
0
  6
Continuous
 62
     0
370
     0
100
AcDbSpline
210
0.0
220
0.0
230
1.0
 70
     8
 71
     3
 72
     8
 73
     4
 74
     0
 42
0.000000001
 43
0.0
 40
0.0
 40
0.0
 40
0.0
 40
0.0
 40
3.67519452038978
 40
3.67519452038978
 40
3.67519452038978
 40
3.67519452038978
 10
133.3855116504589
 20
158.1807399752068
 30
0.0
 10
133.2504479119251
 20
159.3781519201733
 30
0.0
 10
132.9896704440374
 20
160.5681631522621
 30
0.0
 10
132.9799851773964
 20
161.772895168384
 30
0.0
  0
SPLINE
  5
93
330
7B
100
AcDbEntity
  8
0
  6
Continuous
 62
     0
370
     0
100
AcDbSpline
210
0.0
220
0.0
230
1.0
 70
     8
 71
     7
 72
    16
 73
     8
 74
     0
 42
0.000000001
 43
0.0
 40
0.0
 40
0.0
 40
0.0
 40
0.0
 40
0.0
 40
0.0
 40
0.0
 40
0.0
 40
1.0
 40
1.0
 40
1.0
 40
1.0
 40
1.0
 40
1.0
 40
1.0
 40
1.0
 10
134.2896270697481
 20
162.0481686427977
 30
0.0
 10
133.9798500471906
 20
162.0399719297959
 30
0.0
 10
133.681638835844
 20
162.0185067993814
 30
0.0
 10
133.4156374385807
 20
161.9843200861959
 30
0.0
 10
133.2013539318667
 20
161.9392812930008
 30
0.0
 10
133.0536301096613
 20
161.8865099155474
 30
0.0
 10
132.9798275634893
 20
161.8297840038815
 30
0.0
 10
132.9799419048521
 20
161.7728948235617
 30
0.0
  0
LINE
  5
94
330
7B
100
AcDbEntity
  8
0
  6
Continuous
 62
     0
370
    30
100
AcDbLine
 10
176.637672
 20
158.14653
 30
0.0
 11
176.643624
 21
158.180704
 31
0.0
  0
SPLINE
  5
95
330
7B
100
AcDbEntity
  8
0
  6
Continuous
 62
     0
370
     0
100
AcDbSpline
210
0.0
220
0.0
230
1.0
 70
     8
 71
     3
 72
    11
 73
     7
 74
     0
 42
0.000000001
 43
0.0
 40
0.0
 40
0.0
 40
0.0
 40
0.0
 40
0.5084500309309365
 40
1.01690006218892
 40
1.525350093773952
 40
2.033085648011041
 40
2.033085648011041
 40
2.033085648011041
 40
2.033085648011041
 10
176.9661340387418
 20
161.7728953312186
 30
0.0
 10
176.9662004132962
 20
161.8059195777966
 30
0.0
 10
176.9009675799345
 20
161.8724109184066
 30
0.0
 10
176.6188359142877
 20
161.9589493827591
 30
0.0
 10
176.1884144240529
 20
162.0221146223101
 30
0.0
 10
175.8360263533048
 20
162.0434171580718
 30
0.0
 10
175.6564488668837
 20
162.0481691195259
 30
0.0
  0
LINE
  5
96
330
7B
100
AcDbEntity
  8
0
  6
Continuous
 62
     0
370
     0
100
AcDbLine
 10
139.317705
 20
105.631135
 30
0.0
 11
135.844031
 21
136.405548
 31
0.0
  0
LINE
  5
97
330
7B
100
AcDbEntity
  8
0
  6
Continuous
 62
     0
370
    30
100
AcDbLine
 10
176.643624
 20
158.180704
 30
0.0
 11
176.715958
 21
158.624997
 31
0.0
  0
ARC
  5
98
330
7B
100
AcDbEntity
  8
0
  6
Continuous
 62
     0
370
    30
100
AcDbCircle
 10
154.944708
 20
161.939217
 30
0.0
 40
22.02206617278906
100
AcDbArc
 50
351.344361
 51
359.238121
  0
LINE
  5
99
330
7B
100
AcDbEntity
  8
0
  6
Continuous
 62
     0
370
    30
100
AcDbLine
 10
133.302452
 20
158.180704
 30
0.0
 11
133.308404
 21
158.14653
 31
0.0
  0
SPLINE
  5
9A
330
7B
100
AcDbEntity
  8
0
  6
Continuous
 62
     0
370
     0
100
AcDbSpline
210
0.0
220
0.0
230
1.0
 70
     8
 71
     7
 72
    16
 73
     8
 74
     0
 42
0.000000001
 43
0.0
 40
0.0
 40
0.0
 40
0.0
 40
0.0
 40
0.0
 40
0.0
 40
0.0
 40
0.0
 40
1.0
 40
1.0
 40
1.0
 40
1.0
 40
1.0
 40
1.0
 40
1.0
 40
1.0
 10
176.5605716726919
 20
158.1807396764154
 30
0.0
 10
176.5607995464771
 20
158.2388258997779
 30
0.0
 10
176.4874150129943
 20
158.2972862473786
 30
0.0
 10
176.3399205858022
 20
158.3524743319555
 30
0.0
 10
176.125901181043
 20
158.400567474747
 30
0.0
 10
175.8602069035205
 20
158.4384906299178
 30
0.0
 10
175.5623049282161
 20
158.4643371292371
 30
0.0
 10
175.2528360478575
 20
158.4775370894372
 30
0.0
  0
SPLINE
  5
9B
330
7B
100
AcDbEntity
  8
0
  6
Continuous
 62
     0
370
     0
100
AcDbSpline
210
0.0
220
0.0
230
1.0
 70
     8
 71
     3
 72
    14
 73
    10
 74
     0
 42
0.000000001
 43
0.0
 40
0.0
 40
0.0
 40
0.0
 40
0.0
 40
3.357659727039332
 40
6.71416833314014
 40
10.06786817318082
 40
13.41762334460882
 40
16.76451129115895
 40
20.11429153093615
 40
23.46810869271241
 40
23.46810869271241
 40
23.46810869271241
 40
23.46810869271241
 10
140.6189168408368
 20
106.0550566829845
 30
0.0
 10
140.7457731043025
 20
104.9613139046173
 30
0.0
 10
141.1000634544539
 20
102.7838773334504
 30
0.0
 10
142.0274572818125
 20
99.60121569901
 30
0.0
 10
143.475839381884
 20
96.60470150746193
 30
0.0
 10
145.5860240205916
 20
93.99565842952298
 30
0.0
 10
148.3852633167797
 20
92.0947472364788
 30
0.0
 10
151.6123108133389
 20
91.07588728626664
 30
0.0
 10
153.8551128719752
 20
90.896412547877
 30
0.0
 10
154.9730519137393
 20
90.89640838367919
 30
0.0
  0
LINE
  5
9C
330
7B
100
AcDbEntity
  8
0
  6
Continuous
 62
     0
370
     0
100
AcDbLine
 10
135.844031
 20
136.405548
 30
0.0
 11
133.385504
 21
158.180739
 31
0.0
  0
SPLINE
  5
9D
330
7B
100
AcDbEntity
  8
0
  6
Continuous
 62
     0
370
     0
100
AcDbSpline
210
0.0
220
0.0
230
1.0
 70
     8
 71
     7
 72
    16
 73
     8
 74
     0
 42
0.000000001
 43
0.0
 40
0.0
 40
0.0
 40
0.0
 40
0.0
 40
0.0
 40
0.0
 40
0.0
 40
0.0
 40
1.0
 40
1.0
 40
1.0
 40
1.0
 40
1.0
 40
1.0
 40
1.0
 40
1.0
 10
133.3855043538181
 20
158.1807391781199
 30
0.0
 10
133.3852764786922
 20
158.2388254014772
 30
0.0
 10
133.4586610108256
 20
158.2972857507718
 30
0.0
 10
133.6061554367437
 20
158.3524738387532
 30
0.0
 10
133.8201748403928
 20
158.4005669864848
 30
0.0
 10
134.08586911704
 20
158.4384901477885
 30
0.0
 10
134.3837710917477
 20
158.4643366539842
 30
0.0
 10
134.6932399718017
 20
158.4775366213276
 30
0.0
  0
SPLINE
  5
9E
330
7B
100
AcDbEntity
  8
0
  6
Continuous
 62
     0
370
     0
100
AcDbSpline
210
0.0
220
0.0
230
1.0
 70
     8
 71
     7
 72
    36
 73
    28
 74
     0
 42
0.000000001
 43
0.0
 40
0.0
 40
0.0
 40
0.0
 40
0.0
 40
0.0
 40
0.0
 40
0.0
 40
0.0
 40
0.11
 40
0.11
 40
0.11
 40
0.11
 40
0.11
 40
0.55
 40
0.55
 40
0.55
 40
0.55
 40
0.55
 40
0.65
 40
0.65
 40
0.65
 40
0.65
 40
0.65
 40
0.77
 40
0.77
 40
0.77
 40
0.77
 40
0.77
 40
1.0
 40
1.0
 40
1.0
 40
1.0
 40
1.0
 40
1.0
 40
1.0
 40
1.0
 10
170.6283725325463
 20
105.6311329820269
 30
0.0
 10
170.58314658969
 20
105.2407741420693
 30
0.0
 10
170.5330587693621
 20
104.8509600545816
 30
0.0
 10
170.4778421637817
 20
104.4617924894606
 30
0.0
 10
170.4174285480759
 20
104.0733614055258
 30
0.0
 10
170.3514943450196
 20
103.6857982970263
 30
0.0
 10
169.9932338772403
 20
101.7529980960751
 30
0.0
 10
169.4860518019385
 20
99.84919999853173
 30
0.0
 10
168.968897348542
 20
98.35466357133213
 30
0.0
 10
168.3230133674073
 20
96.905724099798
 30
0.0
 10
167.5217160196391
 20
95.52268298516253
 30
0.0
 10
166.3244342448802
 20
93.97081998565477
 30
0.0
 10
164.8870398699588
 20
92.65718660084696
 30
0.0
 10
164.6127735450729
 20
92.42256796903047
 30
0.0
 10
164.330637783441
 20
92.19708431681538
 30
0.0
 10
164.0410177816874
 20
91.9810212135119
 30
0.0
 10
163.388072899494
 20
91.52734462728013
 30
0.0
 10
162.7026045437545
 20
91.12233472706419
 30
0.0
 10
162.3198122818764
 20
90.91626358807686
 30
0.0
 10
161.9288652705934
 20
90.72545081570995
 30
0.0
 10
161.5307743681709
 20
90.54975844251335
 30
0.0
 10
160.3512224520773
 20
90.08149761225522
 30
0.0
 10
159.1252489059847
 20
89.73953049410188
 30
0.0
 10
158.3054644022884
 20
89.56755428919386
 30
0.0
 10
157.4770315891432
 20
89.44547505344157
 30
0.0
 10
156.6437088065708
 20
89.36706585985917
 30
0.0
 10
155.8083672491055
 20
89.33037220575154
 30
0.0
 10
154.973025691015
 20
89.33037218867452
 30
0.0
  0
LINE
  5
9F
330
7B
100
AcDbEntity
  8
0
  6
Continuous
 62
     0
370
    30
100
AcDbLine
 10
176.643624
 20
158.180704
 30
0.0
 11
176.637672
 21
158.14653
 31
0.0
  0
ARC
  5
A0
330
7B
100
AcDbEntity
  8
0
  6
Continuous
 62
     0
370
    30
100
AcDbCircle
 10
155.001368
 20
161.939217
 30
0.0
 40
22.02206617277657
100
AcDbArc
 50
180.76188
 51
188.655641
  0
LINE
  5
A1
330
7B
100
AcDbEntity
  8
0
  6
Continuous
 62
     0
370
    30
100
AcDbLine
 10
133.230118
 20
158.624996
 30
0.0
 11
133.302452
 21
158.180704
 31
0.0
  0
LINE
  5
A2
330
7B
100
AcDbEntity
  8
0
  6
Continuous
 62
     0
370
    30
100
AcDbLine
 10
133.308404
 20
158.14653
 30
0.0
 11
133.302452
 21
158.180704
 31
0.0
  0
SPLINE
  5
A3
330
7B
100
AcDbEntity
  8
0
  6
Continuous
 62
     0
370
     0
100
AcDbSpline
210
0.0
220
0.0
230
1.0
 70
     8
 71
     3
 72
    11
 73
     7
 74
     0
 42
0.000000001
 43
0.0
 40
0.0
 40
0.0
 40
0.0
 40
0.0
 40
0.5463209427519092
 40
1.092641883762446
 40
1.638962823031614
 40
2.183354679579053
 40
2.183354679579053
 40
2.183354679579053
 40
2.183354679579053
 10
139.3177047069431
 20
105.6311326206618
 30
0.0
 10
139.3177047561547
 20
105.6641635968581
 30
0.0
 10
139.3826848485026
 20
105.7380939718002
 30
0.0
 10
139.6633145058105
 20
105.856710097919
 30
0.0
 10
140.0909804823994
 20
105.9686925458541
 30
0.0
 10
140.4408287737054
 20
106.0299524910342
 30
0.0
 10
140.6189168408351
 20
106.0550566829843
 30
0.0
  0
ARC
  5
A4
330
7B
100
AcDbEntity
  8
0
  6
Continuous
 62
     0
370
    30
100
AcDbCircle
 10
154.973022
 20
161.936884
 30
0.0
 40
22.20000000000012
100
AcDbArc
 50
343.707054
 51
90.0
  0
ARC
  5
A5
330
7B
100
AcDbEntity
  8
0
  6
Continuous
 62
     0
370
    30
100
AcDbCircle
 10
154.973022
 20
161.936884
 30
0.0
 40
22.20000000000012
100
AcDbArc
 50
90.0
 51
196.293412
  0
ARC
  5
A6
330
7B
100
AcDbEntity
  8
0
  6
Continuous
 62
     0
370
    30
100
AcDbCircle
 10
154.973022
 20
161.936884
 30
0.0
 40
37.49999999999999
100
AcDbArc
 50
299.239647
 51
90.0
  0
ARC
  5
A7
330
7B
100
AcDbEntity
  8
0
  6
Continuous
 62
     0
370
    30
100
AcDbCircle
 10
154.973022
 20
161.936884
 30
0.0
 40
37.49999999999999
100
AcDbArc
 50
90.0
 51
240.760413
  0
ARC
  5
A8
330
7B
100
AcDbEntity
  8
0
  6
Continuous
 62
     0
370
     0
100
AcDbCircle
 10
154.973022
 20
161.936884
 30
0.0
 40
36.99999999999999
100
AcDbArc
 50
299.797557
 51
90.0
  0
ARC
  5
A9
330
7B
100
AcDbEntity
  8
0
  6
Continuous
 62
     0
370
     0
100
AcDbCircle
 10
154.973022
 20
161.936884
 30
0.0
 40
36.99999999999999
100
AcDbArc
 50
90.0
 51
240.202504
  0
LINE
  5
AA
330
7B
100
AcDbEntity
  8
0
  6
Continuous
 62
     0
370
    30
100
AcDbLine
 10
176.449109
 20
157.193517
 30
0.0
 11
176.637672
 21
158.14653
 31
0.0
  0
LINE
  5
AB
330
7B
100
AcDbEntity
  8
0
  6
Continuous
 62
     0
370
    30
100
AcDbLine
 10
133.308404
 20
158.14653
 30
0.0
 11
133.496967
 21
157.193516
 31
0.0
  0
LINE
  5
AC
330
7B
100
AcDbEntity
  8
0
  6
Continuous
 62
     0
370
    30
100
AcDbLine
 10
133.015123
 20
160.682781
 30
0.0
 11
133.021603
 21
160.574031
 31
0.0
  0
SPLINE
  5
AD
330
7B
100
AcDbEntity
  8
0
  6
Continuous
 62
     0
370
    30
100
AcDbSpline
210
0.0
220
0.0
230
1.0
 70
     8
 71
     3
 72
    18
 73
    14
 74
     0
 42
0.000000001
 43
0.0
 40
0.0
 40
0.0
 40
0.0
 40
0.0
 40
1.162516451680089
 40
4.263898427094476
 40
6.974646689818826
 40
8.517623687281933
 40
9.66944280078036
 40
11.19114742024714
 40
12.70630068905571
 40
14.57642348053153
 40
17.18732556177508
 40
20.9269874530471
 40
24.57417818738385
 40
24.57417818738385
 40
24.57417818738385
 40
24.57417818738385
 10
154.9730467908857
 20
89.2557420410654
 30
0.0
 10
154.5855874236762
 20
89.25581223204799
 30
0.0
 10
153.1642842503759
 20
89.29359554852567
 30
0.0
 10
150.851285195196
 20
89.60511793755163
 30
0.0
 10
148.517621414976
 20
90.38532614364885
 30
0.0
 10
146.9240678463671
 20
91.22578834548455
 30
0.0
 10
145.7597360276055
 20
92.00782984723969
 30
0.0
 10
144.6921808426957
 20
92.90212708540228
 30
0.0
 10
143.5737521309949
 20
94.08771856636753
 30
0.0
 10
142.3942478675881
 20
95.69080666868427
 30
0.0
 10
141.1077233783214
 20
98.09505151469303
 30
0.0
 10
140.0427128320017
 20
101.2309600066884
 30
0.0
 10
139.5840767091594
 20
103.627529349123
 30
0.0
 10
139.4194423392192
 20
104.8176353386842
 30
0.0
  0
SPLINE
  5
AE
330
7B
100
AcDbEntity
  8
0
  6
Continuous
 62
     0
370
    30
100
AcDbSpline
210
0.0
220
0.0
230
1.0
 70
     8
 71
     3
 72
    18
 73
    14
 74
     0
 42
0.000000001
 43
0.0
 40
0.0
 40
0.0
 40
0.0
 40
0.0
 40
1.162516451680092
 40
4.263898427094497
 40
6.974646689818819
 40
8.517623687281906
 40
9.669442800780347
 40
11.19114742024718
 40
12.70630068905576
 40
14.57642348053161
 40
17.18732556177515
 40
20.92698745304719
 40
25.38195510286182
 40
25.38195510286182
 40
25.38195510286182
 40
25.38195510286182
 10
154.9730308265895
 20
89.2557420410652
 30
0.0
 10
155.3604901937974
 20
89.25581224099135
 30
0.0
 10
156.7817933662256
 20
89.29359559027642
 30
0.0
 10
159.0947924142148
 20
89.60511803269216
 30
0.0
 10
161.4284561764255
 20
90.38532629265644
 30
0.0
 10
163.0220097256345
 20
91.22578853127533
 30
0.0
 10
164.1863415263445
 20
92.00783005990625
 30
0.0
 10
165.2538966906117
 20
92.90212732271081
 30
0.0
 10
166.372325374946
 20
94.08771882949227
 30
0.0
 10
167.5518296013495
 20
95.69080695903497
 30
0.0
 10
168.83835403512
 20
98.09505183474005
 30
0.0
 10
169.9894129170037
 20
101.4843286908125
 30
0.0
 10
170.4583820961728
 20
104.1526272371451
 30
0.0
 10
170.6271256309769
 20
105.6092540905336
 30
0.0
  0
LINE
  5
AF
330
7B
100
AcDbEntity
  8
0
  6
Continuous
 62
     0
370
    30
100
AcDbLine
 10
176.930953
 20
160.682781
 30
0.0
 11
176.924473
 21
160.574032
 31
0.0
  0
ENDBLK
  5
B1
330
7B
100
AcDbEntity
  8
0
100
AcDbBlockEnd
  0
BLOCK
  5
F5
330
B3
100
AcDbEntity
  8
0
100
AcDbBlockBegin
  2
b
 70
     0
 10
10.913475
 20
0.0
 30
0.0
  3
b
  1

  0
LINE
  5
B4
330
B3
100
AcDbEntity
  8
0
  6
Continuous
 62
     0
370
     0
100
AcDbLine
 10
-53.871479
 20
161.772895
 30
0.0
 11
-50.071729
 21
183.930591
 31
0.0
  0
ARC
  5
B5
330
B3
100
AcDbEntity
  8
0
  6
Continuous
 62
     0
370
    30
100
AcDbCircle
 10
-36.84046
 20
161.61505
 30
0.0
 40
10.10040946334656
100
AcDbArc
 50
0.100021
 51
19.899209
  0
LINE
  5
B6
330
B3
100
AcDbEntity
  8
0
  6
Continuous
 62
     0
370
     0
100
AcDbLine
 10
-51.419932
 20
158.180719
 30
0.0
 11
-53.089488
 21
158.180784
 31
0.0
  0
SPLINE
  5
B7
330
B3
100
AcDbEntity
  8
0
  6
Continuous
 62
     0
370
     0
100
AcDbSpline
210
0.0
220
0.0
230
1.0
 70
     8
 71
     3
 72
    18
 73
    14
 74
     0
 42
0.000000001
 43
0.0
 40
0.0
 40
0.0
 40
0.0
 40
0.0
 40
1.612020921592821
 40
3.22411683455244
 40
6.448183379388241
 40
9.672482443629374
 40
12.89652384406625
 40
16.12063455891719
 40
17.73307287272357
 40
19.34484000979756
 40
20.95705083966382
 40
21.76300101780322
 40
22.56861979264835
 40
22.56861979264835
 40
22.56861979264835
 40
22.56861979264835
 10
-53.08948815566532
 20
158.1807842460799
 30
0.0
 10
-53.17954174968145
 20
157.6546716642082
 30
0.0
 10
-53.37085498238389
 20
156.6131790101211
 30
0.0
 10
-53.72870574266722
 20
154.5194255503564
 30
0.0
 10
-54.18521662700277
 20
151.9101860265858
 30
0.0
 10
-54.73220946551737
 20
148.7790868382756
 30
0.0
 10
-55.27727589842675
 20
145.6466807162207
 30
0.0
 10
-55.73728499134586
 20
143.0345133177823
 30
0.0
 10
-56.104259315636
 20
140.9404485515635
 30
0.0
 10
-56.38347529398561
 20
139.3685176510231
 30
0.0
 10
-56.61551287171483
 20
138.0558680015145
 30
0.0
 10
-56.80198403123813
 20
137.0085489203922
 30
0.0
 10
-56.8983285581437
 20
136.4782126452467
 30
0.0
 10
-56.94342525580964
 20
136.2188148672587
 30
0.0
  0
SPLINE
  5
B8
330
B3
100
AcDbEntity
  8
0
  6
Continuous
 62
     0
370
     0
100
AcDbSpline
210
0.0
220
0.0
230
1.0
 70
     8
 71
     3
 72
    17
 73
    13
 74
     0
 42
0.000000001
 43
0.0
 40
0.0
 40
0.0
 40
0.0
 40
0.0
 40
0.7968760256570265
 40
1.594375716149754
 40
3.189591663228648
 40
4.784596642401466
 40
6.379767638693479
 40
9.568585047499516
 40
12.75731078586575
 40
15.94516772308052
 40
19.13264561178923
 40
22.31836371266834
 40
22.31836371266834
 40
22.31836371266834
 40
22.31836371266834
 10
-56.94342522277748
 20
136.2188149806975
 30
0.0
 10
-56.98212132024219
 20
135.9825308447529
 30
0.0
 10
-57.04671705100463
 20
135.5635748743199
 30
0.0
 10
-57.18531685177595
 20
134.6862871496177
 30
0.0
 10
-57.34128031013893
 20
133.6516892857209
 30
0.0
 10
-57.51876377790154
 20
132.4552266856675
 30
0.0
 10
-57.73475177625073
 20
130.9491882105925
 30
0.0
 10
-57.9732218170418
 20
129.2255819574171
 30
0.0
 10
-58.20841381043533
 20
127.4542005646437
 30
0.0
 10
-58.39117724583639
 20
126.0350087303067
 30
0.0
 10
-58.5138533684792
 20
125.0586305592385
 30
0.0
 10
-58.55671535860984
 20
124.7606842283888
 30
0.0
 10
-58.56326706396203
 20
124.7267817814325
 30
0.0
  0
LINE
  5
B9
330
B3
100
AcDbEntity
  8
0
  6
Continuous
 62
     0
370
     0
100
AcDbLine
 10
-54.534068
 20
158.18074
 30
0.0
 11
-53.871479
 21
161.772896
 31
0.0
  0
SPLINE
  5
BA
330
B3
100
AcDbEntity
  8
0
  6
Continuous
 62
     0
370
     0
100
AcDbSpline
210
0.0
220
0.0
230
1.0
 70
     8
 71
     7
 72
    31
 73
    23
 74
     0
 42
0.000000001
 43
0.0
 40
-0.0000000000000264
 40
-0.0000000000000264
 40
-0.0000000000000264
 40
-0.0000000000000264
 40
-0.0000000000000264
 40
-0.0000000000000264
 40
-0.0000000000000264
 40
-0.0000000000000264
 40
0.3899999999999839
 40
0.3899999999999839
 40
0.3899999999999839
 40
0.3899999999999839
 40
0.3899999999999839
 40
0.6436379999999904
 40
0.6436379999999904
 40
0.6436379999999904
 40
0.6436379999999904
 40
0.6436379999999904
 40
0.7742999999999939
 40
0.7742999999999939
 40
0.7742999999999939
 40
0.7742999999999939
 40
0.7742999999999939
 40
1.0
 40
1.0
 40
1.0
 40
1.0
 40
1.0
 40
1.0
 40
1.0
 40
1.0
 10
-58.55059892030658
 20
136.4055489376499
 30
0.0
 10
-58.43047363007713
 20
136.3833944489803
 30
0.0
 10
-58.31013923713795
 20
136.3623870023729
 30
0.0
 10
-58.19121557028211
 20
136.3417766777126
 30
0.0
 10
-58.07061753385983
 20
136.3203997763196
 30
0.0
 10
-57.95303602158788
 20
136.2987878762889
 30
0.0
 10
-57.76051684970207
 20
136.2616705878981
 30
0.0
 10
-57.56968452974093
 20
136.2221639548158
 30
0.0
 10
-57.49443636364754
 20
136.2061127016949
 30
0.0
 10
-57.42057778182357
 20
136.1903052205291
 30
0.0
 10
-57.34721916631929
 20
136.1741549019614
 30
0.0
 10
-57.23767735553088
 20
136.1508864464815
 30
0.0
 10
-57.14160250145869
 20
136.1353412720137
 30
0.0
 10
-57.11116823150837
 20
136.1313072314971
 30
0.0
 10
-57.08350410243224
 20
136.1287823599313
 30
0.0
 10
-57.06020984317911
 20
136.1284612679808
 30
0.0
 10
-57.00694482225526
 20
136.1323376295817
 30
0.0
 10
-56.97821893843047
 20
136.1473539799065
 30
0.0
 10
-56.96727220342223
 20
136.1599021887053
 30
0.0
 10
-56.95882449758528
 20
136.1735526975155
 30
0.0
 10
-56.95304574056399
 20
136.1883355938854
 30
0.0
 10
-56.94817278133974
 20
136.2035641586111
 30
0.0
 10
-56.94324200576079
 20
136.2187821810845
 30
0.0
  0
LINE
  5
BB
330
B3
100
AcDbEntity
  8
0
  6
Continuous
 62
     0
370
     0
100
AcDbLine
 10
-54.534068
 20
158.18074
 30
0.0
 11
-58.550599
 21
136.405549
 31
0.0
  0
LINE
  5
BC
330
B3
100
AcDbEntity
  8
0
  6
Continuous
 62
     0
370
     0
100
AcDbLine
 10
-58.550599
 20
136.405549
 30
0.0
 11
-64.227065
 21
105.631133
 31
0.0
  0
SPLINE
  5
BD
330
B3
100
AcDbEntity
  8
0
  6
Continuous
 62
     0
370
     0
100
AcDbSpline
210
0.0
220
0.0
230
1.0
 70
     8
 71
     7
 72
    26
 73
    18
 74
     0
 42
0.000000001
 43
0.0
 40
0.0
 40
0.0
 40
0.0
 40
0.0
 40
0.0
 40
0.0
 40
0.0
 40
0.0
 40
0.4874999999999879
 40
0.4874999999999879
 40
0.4874999999999879
 40
0.4874999999999879
 40
0.4874999999999879
 40
0.7499999999999812
 40
0.7499999999999812
 40
0.7499999999999812
 40
0.7499999999999812
 40
0.7499999999999812
 40
0.9999999999999749
 40
0.9999999999999749
 40
0.9999999999999749
 40
0.9999999999999749
 40
0.9999999999999749
 40
0.9999999999999749
 40
0.9999999999999749
 40
0.9999999999999749
 10
-64.22706524224827
 20
105.6311329820269
 30
0.0
 10
-64.06694655286083
 20
105.6016004234086
 30
0.0
 10
-63.90684590291676
 20
105.571970050116
 30
0.0
 10
-63.74695731880547
 20
105.5423409218006
 30
0.0
 10
-63.58751495123261
 20
105.5128531487641
 30
0.0
 10
-63.42926676752177
 20
105.483797606986
 30
0.0
 10
-63.18872816096018
 20
105.4403530621743
 30
0.0
 10
-62.96223089248178
 20
105.4021007849687
 30
0.0
 10
-62.88530972563558
 20
105.3895647941385
 30
0.0
 10
-62.81166201749784
 20
105.37817487952
 30
0.0
 10
-62.74260801426408
 20
105.3683535487246
 30
0.0
 10
-62.62114522802676
 20
105.3534294992566
 30
0.0
 10
-62.53164115056438
 20
105.3481653718585
 30
0.0
 10
-62.49691360308998
 20
105.3482053648718
 30
0.0
 10
-62.47205401907468
 20
105.3510003857097
 30
0.0
 10
-62.45603761415373
 20
105.3561807976246
 30
0.0
 10
-62.44774246159818
 20
105.3634205557037
 30
0.0
 10
-62.44607982050047
 20
105.372414735328
 30
0.0
  0
LINE
  5
BE
330
B3
100
AcDbEntity
  8
0
  6
Continuous
 62
     0
370
     0
100
AcDbLine
 10
-62.44608
 20
105.372415
 30
0.0
 11
-56.943242
 21
136.218782
 31
0.0
  0
SPLINE
  5
BF
330
B3
100
AcDbEntity
  8
0
  6
Continuous
 62
     0
370
    30
100
AcDbSpline
210
0.0
220
0.0
230
1.0
 70
     8
 71
     3
 72
     8
 73
     4
 74
     0
 42
0.000000001
 43
0.0
 40
0.0
 40
0.0
 40
0.0
 40
0.0
 40
0.7943518780145338
 40
0.7943518780145338
 40
0.7943518780145338
 40
0.7943518780145338
 10
-67.23360314854676
 20
89.33037218867452
 30
0.0
 10
-66.32057993848123
 20
89.1619726903026
 30
0.0
 10
-65.72153286863448
 20
89.27779045044845
 30
0.0
 10
-65.43290794098543
 20
89.68567008142759
 30
0.0
  0
LINE
  5
C0
330
B3
100
AcDbEntity
  8
0
  6
Continuous
 62
     0
370
     0
100
AcDbLine
 10
-55.380708
 20
162.048179
 30
0.0
 11
-56.039023
 21
158.477504
 31
0.0
  0
LINE
  5
C1
330
B3
100
AcDbEntity
  8
0
  6
Continuous
 62
     0
370
     0
100
AcDbLine
 10
-56.039023
 20
158.477504
 30
0.0
 11
-65.708091
 21
106.055051
 31
0.0
  0
LINE
  5
C2
330
B3
100
AcDbEntity
  8
0
  6
Continuous
 62
     0
370
     0
100
AcDbLine
 10
-65.708091
 20
106.055051
 30
0.0
 11
-68.50401
 21
90.896408
 31
0.0
  0
SPLINE
  5
C3
330
B3
100
AcDbEntity
  8
0
  6
Continuous
 62
     0
370
    30
100
AcDbSpline
210
0.0
220
0.0
230
1.0
 70
     8
 71
     3
 72
    44
 73
    40
 74
     0
 42
0.000000001
 43
0.0
 40
0.0000895826433184
 40
0.0000895826433184
 40
0.0000895826433184
 40
0.0000895826433184
 40
1.455705552506579
 40
2.911589491455752
 40
5.824081540223627
 40
8.738562618644004
 40
11.65580985319745
 40
14.57578990662235
 40
16.03659608486232
 40
17.49778930288207
 40
20.42097080381651
 40
23.34485787363343
 40
29.19406413399674
 40
35.04490031177655
 40
40.89750583144499
 40
46.75217532138652
 40
52.60924050521431
 40
58.46889873474117
 40
61.39961580462718
 40
64.3307164339991
 40
67.26188709626257
 40
67.99463745970205
 40
68.72736871185101
 40
69.46006464945697
 40
70.192677557325
 40
70.92522637029062
 40
71.65766554636134
 40
72.38986921751011
 40
73.12154096573981
 40
73.85284092927583
 40
74.58380294677747
 40
76.04479523316759
 40
78.96357029080804
 40
81.87875183536413
 40
84.79115651375291
 40
87.70151606648814
 40
90.61036732559818
 40
92.064314958274
 40
93.51784755774796
 40
93.51784755774796
 40
93.51784755774796
 40
93.51784755774796
 10
-68.50400988206957
 20
90.8964083807743
 30
0.0
 10
-68.49101448365809
 20
91.38139578994118
 30
0.0
 10
-68.46502086196142
 20
92.35145988380773
 30
0.0
 10
-68.38490455897659
 20
94.29143886522257
 30
0.0
 10
-68.22150839808523
 20
96.71480922495446
 30
0.0
 10
-67.91435336038717
 20
99.61642235223661
 30
0.0
 10
-67.51676206916932
 20
102.5115547890894
 30
0.0
 10
-67.13416193281591
 20
104.9196238706085
 30
0.0
 10
-66.8108368907433
 20
106.8448375433331
 30
0.0
 10
-66.48519331643865
 20
108.7711181859801
 30
0.0
 10
-66.08777799162544
 20
111.1820470010746
 30
0.0
 10
-65.45318691372654
 20
115.0410310801531
 30
0.0
 10
-64.67375179383703
 20
119.8676263235816
 30
0.0
 10
-63.73909895968382
 20
125.6588741390529
 30
0.0
 10
-62.79523133683279
 20
131.4491073739731
 30
0.0
 10
-61.82880402944193
 20
137.2370375268088
 30
0.0
 10
-60.82657861726966
 20
143.0212576839941
 30
0.0
 10
-59.95147073352109
 20
147.8363426750317
 30
0.0
 10
-59.2205310377858
 20
151.6837205400864
 30
0.0
 10
-58.65571351728181
 20
154.5663056143297
 30
0.0
 10
-58.21853066988911
 20
156.7249218885593
 30
0.0
 10
-57.9208378479475
 20
158.1622081447068
 30
0.0
 10
-57.77078324069316
 20
158.8804197443127
 30
0.0
 10
-57.61948838999251
 20
159.598179384292
 30
0.0
 10
-57.46690397405132
 20
160.3155279528892
 30
0.0
 10
-57.31302573510766
 20
161.0323450636241
 30
0.0
 10
-57.15784849155125
 20
161.7486331836006
 30
0.0
 10
-57.00138680088867
 20
162.46425056013
 30
0.0
 10
-56.84352656428428
 20
163.1796060359231
 30
0.0
 10
-56.68434294739131
 20
163.8942630227806
 30
0.0
 10
-56.47027749764561
 20
164.8461301073239
 30
0.0
 10
-56.09103959317804
 20
166.5092195116812
 30
0.0
 10
-55.53211457614248
 20
168.8786948772567
 30
0.0
 10
-54.84470176632681
 20
171.7143166742032
 30
0.0
 10
-54.10528933537262
 20
174.5324401734905
 30
0.0
 10
-53.307574248847
 20
177.3308253370372
 30
0.0
 10
-52.59456088194884
 20
179.6462101790037
 30
0.0
 10
-52.00051368830191
 20
181.4897093271337
 30
0.0
 10
-51.69669964463355
 20
182.408794567388
 30
0.0
 10
-51.54481420150819
 20
182.8682715516869
 30
0.0
  0
LINE
  5
C4
330
B3
100
AcDbEntity
  8
0
  6
Continuous
 62
     0
370
     0
100
AcDbLine
 10
-51.544814
 20
182.868272
 30
0.0
 11
-55.380708
 21
162.048179
 31
0.0
  0
SPLINE
  5
C5
330
B3
100
AcDbEntity
  8
0
  6
Continuous
 62
     0
370
     0
100
AcDbSpline
210
0.0
220
0.0
230
1.0
 70
     8
 71
     7
 72
    16
 73
     8
 74
     0
 42
0.000000001
 43
0.0
 40
0.0
 40
0.0
 40
0.0
 40
0.0
 40
0.0
 40
0.0
 40
0.0
 40
0.0
 40
1.0
 40
1.0
 40
1.0
 40
1.0
 40
1.0
 40
1.0
 40
1.0
 40
1.0
 10
-65.70812466297457
 20
106.0550570182729
 30
0.0
 10
-65.66624753079145
 20
106.0116851237193
 30
0.0
 10
-65.55237747497313
 20
105.9563650819283
 30
0.0
 10
-65.36930712450135
 20
105.891986468142
 30
0.0
 10
-65.12700219239491
 20
105.8226312746693
 30
0.0
 10
-64.84223691761918
 20
105.7531008094269
 30
0.0
 10
-64.53541543696156
 20
105.6880058738957
 30
0.0
 10
-64.22707650760003
 20
105.6311350598321
 30
0.0
  0
ARC
  5
C6
330
B3
100
AcDbEntity
  8
0
  6
Continuous
 62
     0
370
    30
100
AcDbCircle
 10
-50.071729
 20
182.378091
 30
0.0
 40
1.552499994788345
100
AcDbArc
 50
90.0
 51
161.594746
  0
SPLINE
  5
C7
330
B3
100
AcDbEntity
  8
0
  6
Continuous
 62
     0
370
    30
100
AcDbSpline
210
0.0
220
0.0
230
1.0
 70
     8
 71
     3
 72
     8
 73
     4
 74
     0
 42
0.000000001
 43
0.0
 40
0.245207070245781
 40
0.245207070245781
 40
0.245207070245781
 40
0.245207070245781
 40
34.96414840839086
 40
34.96414840839086
 40
34.96414840839086
 40
34.96414840839086
 10
-58.61053077289977
 20
124.4861718801997
 30
0.0
 10
-60.81598953009891
 20
113.1251960212002
 30
0.0
 10
-62.63282456823117
 20
101.6826847914378
 30
0.0
 10
-65.19452427045975
 20
90.39703770393923
 30
0.0
  0
LINE
  5
C8
330
B3
100
AcDbEntity
  8
0
  6
Continuous
 62
     0
370
     0
100
AcDbLine
 10
-51.409909
 20
158.14653
 30
0.0
 11
-51.42006
 21
158.180704
 31
0.0
  0
LINE
  5
C9
330
B3
100
AcDbEntity
  8
0
  6
Continuous
 62
     0
370
     0
100
AcDbLine
 10
-53.871479
 20
161.772895
 30
0.0
 11
-55.380654
 21
162.048169
 31
0.0
  0
LINE
  5
CA
330
B3
100
AcDbEntity
  8
0
  6
Continuous
 62
     0
370
     0
100
AcDbLine
 10
-51.42006
 20
158.180704
 30
0.0
 11
-51.552363
 21
158.624997
 31
0.0
  0
LINE
  5
CB
330
B3
100
AcDbEntity
  8
0
  6
Continuous
 62
     0
370
     0
100
AcDbLine
 10
-51.552363
 20
158.624997
 30
0.0
 11
-52.475494
 21
161.646392
 31
0.0
  0
LINE
  5
CC
330
B3
100
AcDbEntity
  8
0
  6
Continuous
 62
     0
370
     0
100
AcDbLine
 10
-52.475494
 20
161.646392
 30
0.0
 11
-53.871479
 21
161.772895
 31
0.0
  0
LINE
  5
CD
330
B3
100
AcDbEntity
  8
0
  6
Continuous
 62
     0
370
     0
100
AcDbLine
 10
-54.534068
 20
158.18074
 30
0.0
 11
-56.039223
 21
158.477537
 31
0.0
  0
LINE
  5
CE
330
B3
100
AcDbEntity
  8
0
  6
Continuous
 62
     0
370
     0
100
AcDbLine
 10
-53.089492
 20
158.180756
 30
0.0
 11
-54.534068
 21
158.18074
 31
0.0
  0
LINE
  5
CF
330
B3
100
AcDbEntity
  8
0
  6
Continuous
 62
     0
370
     0
100
AcDbLine
 10
-64.227065
 20
105.631133
 30
0.0
 11
-67.233603
 21
89.330372
 31
0.0
  0
LINE
  5
D0
330
B3
100
AcDbEntity
  8
0
  6
Continuous
 62
     0
370
    30
100
AcDbLine
 10
-26.740065
 20
161.632683
 30
0.0
 11
-26.740064
 21
139.943176
 31
0.0
  0
SPLINE
  5
D1
330
B3
100
AcDbEntity
  8
0
  6
Continuous
 62
     0
370
    30
100
AcDbSpline
210
0.0
220
0.0
230
1.0
 70
     8
 71
     3
 72
    11
 73
     7
 74
     0
 42
0.000000001
 43
0.0
 40
32.11140425613715
 40
32.11140425613715
 40
32.11140425613715
 40
32.11140425613715
 40
36.69302645961226
 40
45.86094439878418
 40
55.03829037776859
 40
64.2228085122743
 40
64.2228085122743
 40
64.2228085122743
 40
64.2228085122743
 10
-34.21286055124867
 20
183.9272850524598
 30
0.0
 10
-34.21286097198973
 20
183.9272850377327
 30
0.0
 10
-34.03838769573295
 20
183.4479251291092
 30
0.0
 10
-32.87435493694534
 20
180.2498481002159
 30
0.0
 10
-30.42508411335371
 20
173.5203731999053
 30
0.0
 10
-28.38083993350938
 20
167.9041077106341
 30
0.0
 10
-27.34311695199881
 20
165.0528921408781
 30
0.0
  0
LINE
  5
D2
330
B3
100
AcDbEntity
  8
0
  6
Continuous
 62
     0
370
    30
100
AcDbLine
 10
-65.271098
 20
90.061316
 30
0.0
 11
-62.44608
 21
105.372415
 31
0.0
  0
LINE
  5
D3
330
B3
100
AcDbEntity
  8
0
  6
Continuous
 62
     0
370
    30
100
AcDbLine
 10
-38.397344
 20
139.867705
 30
0.0
 11
-43.025518
 21
139.746512
 31
0.0
  0
ARC
  5
D4
330
B3
100
AcDbEntity
  8
0
  6
Continuous
 62
     0
370
    30
100
AcDbCircle
 10
-23.169666
 20
183.636884
 30
0.0
 40
0.5000003180787508
100
AcDbArc
 50
90.000036
 51
179.999964
  0
LINE
  5
D5
330
B3
100
AcDbEntity
  8
0
  6
Continuous
 62
     0
370
    30
100
AcDbLine
 10
-23.169667
 20
184.136884
 30
0.0
 11
-13.476569
 21
184.136884
 31
0.0
  0
LINE
  5
D6
330
B3
100
AcDbEntity
  8
0
  6
Continuous
 62
     0
370
    30
100
AcDbLine
 10
-23.669667
 20
140.236884
 30
0.0
 11
-23.669667
 21
183.636884
 31
0.0
  0
LINE
  5
D7
330
B3
100
AcDbEntity
  8
0
  6
Continuous
 62
     0
370
     0
100
AcDbLine
 10
-23.169667
 20
139.736884
 30
0.0
 11
-23.169667
 21
184.136884
 31
0.0
  0
LINE
  5
D8
330
B3
100
AcDbEntity
  8
0
  6
Continuous
 62
     0
370
    30
100
AcDbLine
 10
-8.476569
 20
124.436884
 30
0.0
 11
-8.476569
 21
199.436884
 31
0.0
  0
LINE
  5
D9
330
B3
100
AcDbEntity
  8
0
  6
Continuous
 62
     0
370
     0
100
AcDbLine
 10
-12.976569
 20
124.436884
 30
0.0
 11
-12.976569
 21
199.436884
 31
0.0
  0
LINE
  5
DA
330
B3
100
AcDbEntity
  8
0
  6
Continuous
 62
     0
370
    30
100
AcDbLine
 10
-13.476569
 20
124.936884
 30
0.0
 11
-13.476569
 21
198.936884
 31
0.0
  0
LINE
  5
DB
330
B3
100
AcDbEntity
  8
0
  6
Continuous
 62
     0
370
    30
100
AcDbLine
 10
-12.976569
 20
199.436884
 30
0.0
 11
-8.476569
 21
199.436884
 31
0.0
  0
ARC
  5
DC
330
B3
100
AcDbEntity
  8
0
  6
Continuous
 62
     0
370
    30
100
AcDbCircle
 10
-12.976569
 20
198.936884
 30
0.0
 40
0.5
100
AcDbArc
 50
90.0
 51
180.0
  0
ARC
  5
DD
330
B3
100
AcDbEntity
  8
0
  6
Continuous
 62
     0
370
    30
100
AcDbCircle
 10
-43.032062
 20
139.996426
 30
0.0
 40
0.25
100
AcDbArc
 50
209.199295
 51
271.5
  0
SPLINE
  5
DE
330
B3
100
AcDbEntity
  8
0
  6
Continuous
 62
     0
370
    30
100
AcDbSpline
210
0.0
220
0.0
230
1.0
 70
     8
 71
     3
 72
    13
 73
     9
 74
     0
 42
0.000000001
 43
0.0
 40
4.164086222548694
 40
4.164086222548694
 40
4.164086222548694
 40
4.164086222548694
 40
6.674057870358387
 40
10.00932784122545
 40
13.34163193214553
 40
16.67312261119343
 40
20.00574950619026
 40
23.34072104471974
 40
23.34072104471974
 40
23.34072104471974
 40
23.34072104471974
 10
-57.40788843324206
 20
128.7259486933754
 30
0.0
 10
-57.11205834132119
 20
129.5092939822249
 30
0.0
 10
-56.33773293635883
 20
131.3002737620845
 30
0.0
 10
-54.77259599869558
 20
133.9458791407607
 30
0.0
 10
-52.52290251384011
 20
136.4435243207536
 30
0.0
 10
-49.73104393059293
 20
138.3269064908926
 30
0.0
 10
-46.57170240109144
 20
139.4761830467234
 30
0.0
 10
-44.35913435050065
 20
139.7953734601322
 30
0.0
 10
-43.25029425042612
 20
139.8744640226511
 30
0.0
  0
LINE
  5
DF
330
B3
100
AcDbEntity
  8
0
  6
Continuous
 62
     0
370
    30
100
AcDbLine
 10
-58.563267
 20
124.726782
 30
0.0
 11
-58.560749
 21
124.739644
 31
0.0
  0
ARC
  5
E0
330
B3
100
AcDbEntity
  8
0
  6
Continuous
 62
     0
370
    30
100
AcDbCircle
 10
-38.403888
 20
140.117619
 30
0.0
 40
0.25
100
AcDbArc
 50
271.5
 51
315.751549
  0
LINE
  5
E1
330
B3
100
AcDbEntity
  8
0
  6
Continuous
 62
     0
370
    30
100
AcDbLine
 10
-26.740064
 20
139.943176
 30
0.0
 11
-38.224808
 21
139.943176
 31
0.0
  0
LINE
  5
E2
330
B3
100
AcDbEntity
  8
0
  6
Continuous
 62
     0
370
     0
100
AcDbLine
 10
-40.057586
 20
140.081614
 30
0.0
 11
-42.553452
 21
139.988674
 31
0.0
  0
SPLINE
  5
E3
330
B3
100
AcDbEntity
  8
0
  6
Continuous
 62
     0
370
     0
100
AcDbSpline
210
0.0
220
0.0
230
1.0
 70
     8
 71
     3
 72
    14
 73
    10
 74
     0
 42
0.000000001
 43
0.0
 40
0.0
 40
0.0
 40
0.0
 40
0.0
 40
4.295567539457418
 40
8.593629593575182
 40
12.89344624894395
 40
17.19424577388073
 40
21.49528228660444
 40
25.79568956828146
 40
30.09423660445392
 40
30.09423660445392
 40
30.09423660445392
 40
30.09423660445392
 10
-41.18960250839973
 20
140.0865987612804
 30
0.0
 10
-41.32499240083166
 20
140.2491214566328
 30
0.0
 10
-41.82534664049172
 20
140.85208866549
 30
0.0
 10
-43.08826197329176
 20
142.4789398563671
 30
0.0
 10
-44.69100389759683
 20
144.7061527248373
 30
0.0
 10
-46.47632789350223
 20
147.4364557432938
 30
0.0
 10
-48.30766754237857
 20
150.604748224547
 30
0.0
 10
-50.03837465177708
 20
154.1678807886612
 30
0.0
 10
-51.01174627032947
 20
156.7907074167483
 30
0.0
 10
-51.40990865325284
 20
158.1465300012568
 30
0.0
  0
ARC
  5
E4
330
B3
100
AcDbEntity
  8
0
  6
Continuous
 62
     0
370
    30
100
AcDbCircle
 10
-40.538416
 20
121.514578
 30
0.0
 40
18.57326091879065
100
AcDbArc
 50
82.84427
 51
88.516544
  0
LINE
  5
E5
330
B3
100
AcDbEntity
  8
0
  6
Continuous
 62
     0
370
    30
100
AcDbLine
 10
-42.553452
 20
139.988674
 30
0.0
 11
-43.250294
 21
139.874464
 31
0.0
  0
LINE
  5
E6
330
B3
100
AcDbEntity
  8
0
  6
Continuous
 62
     0
370
    30
100
AcDbLine
 10
-40.057586
 20
140.081614
 30
0.0
 11
-41.189603
 21
140.086599
 31
0.0
  0
ARC
  5
E7
330
B3
100
AcDbEntity
  8
0
  6
Continuous
 62
     0
370
    30
100
AcDbCircle
 10
-40.959956
 20
127.346336
 30
0.0
 40
12.74236799062075
100
AcDbArc
 50
91.035745
 51
97.18393
  0
ARC
  5
E8
330
B3
100
AcDbEntity
  8
0
  6
Continuous
 62
     0
370
    30
100
AcDbCircle
 10
-12.976569
 20
124.936884
 30
0.0
 40
0.5
100
AcDbArc
 50
180.0
 51
270.0
  0
LINE
  5
E9
330
B3
100
AcDbEntity
  8
0
  6
Continuous
 62
     0
370
    30
100
AcDbLine
 10
-12.976569
 20
124.436884
 30
0.0
 11
-8.476569
 21
124.436884
 31
0.0
  0
LINE
  5
EA
330
B3
100
AcDbEntity
  8
0
  6
Continuous
 62
     0
370
    30
100
AcDbLine
 10
-23.169667
 20
139.736884
 30
0.0
 11
-13.476569
 21
139.736884
 31
0.0
  0
ARC
  5
EB
330
B3
100
AcDbEntity
  8
0
  6
Continuous
 62
     0
370
    30
100
AcDbCircle
 10
-23.169666
 20
140.236884
 30
0.0
 40
0.5000003176034773
100
AcDbArc
 50
180.000036
 51
269.999964
  0
ARC
  5
EC
330
B3
100
AcDbEntity
  8
0
  6
Continuous
 62
     0
370
    30
100
AcDbCircle
 10
-22.283416
 20
162.13996
 30
0.0
 40
20.5
100
AcDbArc
 50
257.443778
 51
266.122588
  0
ARC
  5
ED
330
B3
100
AcDbEntity
  8
0
  6
Continuous
 62
     0
370
    30
100
AcDbCircle
 10
-22.283416
 20
161.733808
 30
0.0
 40
20.5
100
AcDbArc
 50
93.877412
 51
120.169063
  0
SPLINE
  5
EE
330
B3
100
AcDbEntity
  8
0
  6
Continuous
 62
     0
370
    30
100
AcDbSpline
210
0.0
220
0.0
230
1.0
 70
     8
 71
     3
 72
    17
 73
    13
 74
     0
 42
0.000000001
 43
0.0
 40
0.0
 40
0.0
 40
0.0
 40
0.0
 40
0.849390631244566
 40
2.136263559685128
 40
3.408306623017507
 40
5.821826118292288
 40
9.09479511902217
 40
12.5376003293579
 40
16.15842022959189
 40
17.07862749349759
 40
18.14730264408019
 40
19.21394562115669
 40
19.21394562115669
 40
19.21394562115669
 40
19.21394562115669
 10
-57.40750244896572
 20
128.7258171433232
 30
0.0
 10
-57.30972521813692
 20
128.9843898337665
 30
0.0
 10
-57.04639375246848
 20
129.6494925542042
 30
0.0
 10
-56.58576000119433
 20
130.6852242127822
 30
0.0
 10
-55.83062841272795
 20
132.1622361357371
 30
0.0
 10
-54.5959749980907
 20
134.1307159854125
 30
0.0
 10
-52.55654171882225
 20
136.4143534928139
 30
0.0
 10
-49.68368983508503
 20
138.3698955465632
 30
0.0
 10
-47.15433189359828
 20
139.2568586754151
 30
0.0
 10
-45.32200341587964
 20
139.6353140870762
 30
0.0
 10
-44.3134520006281
 20
139.7731279123226
 30
0.0
 10
-43.60579196594244
 20
139.8689414426912
 30
0.0
 10
-43.25028782836375
 20
139.8744637394108
 30
0.0
  0
LINE
  5
EF
330
B3
100
AcDbEntity
  8
0
  6
Continuous
 62
     0
370
    30
100
AcDbLine
 10
-50.071729
 20
183.930591
 30
0.0
 11
-34.214062
 21
183.930591
 31
0.0
  0
LINE
  5
F0
330
B3
100
AcDbEntity
  8
0
  6
Continuous
 62
     0
370
    30
100
AcDbLine
 10
-58.56101
 20
124.739696
 30
0.0
 11
-58.610064
 21
124.486081
 31
0.0
  0
LINE
  5
F1
330
B3
100
AcDbEntity
  8
0
  6
Continuous
 62
     0
370
    30
100
AcDbLine
 10
-65.194458
 20
90.397023
 30
0.0
 11
-64.969899
 21
91.392821
 31
0.0
  0
LINE
  5
F2
330
B3
100
AcDbEntity
  8
0
  6
Continuous
 62
     0
370
    30
100
AcDbLine
 10
-65.194426
 20
90.397161
 30
0.0
 11
-64.969905
 21
91.392793
 31
0.0
  0
ARC
  5
F3
330
B3
100
AcDbEntity
  8
0
  6
Continuous
 62
     0
370
    30
100
AcDbCircle
 10
-66.952814
 20
90.856459
 30
0.0
 40
1.551711482796916
100
AcDbArc
 50
178.524457
 51
259.574591
  0
ARC
  5
F4
330
B3
100
AcDbEntity
  8
0
  6
Continuous
 62
     0
370
    30
100
AcDbCircle
 10
-66.310586
 20
90.286518
 30
0.0
 40
1.063643123960355
100
AcDbArc
 50
325.604895
 51
347.823197
  0
ENDBLK
  5
F6
330
B3
100
AcDbEntity
  8
0
100
AcDbBlockEnd
  0
BLOCK
  5
139
330
F8
100
AcDbEntity
  8
0
100
AcDbBlockBegin
  2
c
 70
     0
 10
235.821579
 20
0.0
 30
0.0
  3
c
  1

  0
LINE
  5
F9
330
F8
100
AcDbEntity
  8
0
  6
Continuous
 62
     0
370
     0
100
AcDbLine
 10
359.253201
 20
183.930591
 30
0.0
 11
363.052951
 21
161.772895
 31
0.0
  0
ARC
  5
FA
330
F8
100
AcDbEntity
  8
0
  6
Continuous
 62
     0
370
    30
100
AcDbCircle
 10
346.021928
 20
161.615035
 30
0.0
 40
10.10040632632657
100
AcDbArc
 50
160.100705
 51
179.899894
  0
LINE
  5
FB
330
F8
100
AcDbEntity
  8
0
  6
Continuous
 62
     0
370
     0
100
AcDbLine
 10
360.601404
 20
158.180719
 30
0.0
 11
362.27096
 21
158.180784
 31
0.0
  0
SPLINE
  5
FC
330
F8
100
AcDbEntity
  8
0
  6
Continuous
 62
     0
370
     0
100
AcDbSpline
210
0.0
220
0.0
230
1.0
 70
     8
 71
     3
 72
    18
 73
    14
 74
     0
 42
0.000000001
 43
0.0
 40
0.0
 40
0.0
 40
0.0
 40
0.0
 40
1.612020921592823
 40
3.22411683455244
 40
6.448183379388239
 40
9.672482443629374
 40
12.89652384406624
 40
16.12063455891719
 40
17.73307287272356
 40
19.34484000979757
 40
20.95705083966382
 40
21.76300101780322
 40
22.56861979264836
 40
22.56861979264836
 40
22.56861979264836
 40
22.56861979264836
 10
362.2709597965434
 20
158.1807837474847
 30
0.0
 10
362.3610133905595
 20
157.6546711670416
 30
0.0
 10
362.5523266232622
 20
156.6131785173084
 30
0.0
 10
362.9101773835453
 20
154.5194250650891
 30
0.0
 10
363.3666882678806
 20
151.9101855517387
 30
0.0
 10
363.9136811063954
 20
148.7790863758925
 30
0.0
 10
364.4587475393048
 20
145.6466802661861
 30
0.0
 10
364.9187566322239
 20
143.0345128776633
 30
0.0
 10
365.285730956514
 20
140.9404481187623
 30
0.0
 10
365.5649469348637
 20
139.3685172233829
 30
0.0
 10
365.7969845125926
 20
138.05586757775
 30
0.0
 10
365.9834556721162
 20
137.0085485000756
 30
0.0
 10
366.0798001990217
 20
136.4782122255515
 30
0.0
 10
366.1248968966875
 20
136.2188144487833
 30
0.0
  0
SPLINE
  5
FD
330
F8
100
AcDbEntity
  8
0
  6
Continuous
 62
     0
370
     0
100
AcDbSpline
210
0.0
220
0.0
230
1.0
 70
     8
 71
     3
 72
    17
 73
    13
 74
     0
 42
0.000000001
 43
0.0
 40
0.0
 40
0.0
 40
0.0
 40
0.0
 40
0.7968760256570182
 40
1.594375716149749
 40
3.189591663228649
 40
4.784596642401475
 40
6.379767638693492
 40
9.568585047499523
 40
12.75731078586576
 40
15.94516772308054
 40
19.13264561178923
 40
22.31836371266835
 40
22.31836371266835
 40
22.31836371266835
 40
22.31836371266835
 10
366.1248968636555
 20
136.2188145622221
 30
0.0
 10
366.1635929611202
 20
135.9825304289324
 30
0.0
 10
366.2281886918827
 20
135.5635744660911
 30
0.0
 10
366.3667884926538
 20
134.6862867548093
 30
0.0
 10
366.522751951017
 20
133.65168890994
 30
0.0
 10
366.7002354187796
 20
132.4552263338933
 30
0.0
 10
366.9162234171288
 20
130.949187893152
 30
0.0
 10
367.1546934579198
 20
129.225581686532
 30
0.0
 10
367.3898854513131
 20
127.4542003549282
 30
0.0
 10
367.5726488867142
 20
126.0350085866287
 30
0.0
 10
367.6953250093572
 20
125.0586304858262
 30
0.0
 10
367.7381869994877
 20
124.7606842038903
 30
0.0
 10
367.7447387048401
 20
124.7267817814325
 30
0.0
  0
SPLINE
  5
FE
330
F8
100
AcDbEntity
  8
0
  6
Continuous
 62
     0
370
    30
100
AcDbSpline
210
0.0
220
0.0
230
1.0
 70
     8
 71
     3
 72
     8
 73
     4
 74
     0
 42
0.000000001
 43
0.0
 40
0.0
 40
0.0
 40
0.0
 40
0.0
 40
1.0
 40
1.0
 40
1.0
 40
1.0
 10
376.4150747894259
 20
89.33037218867452
 30
0.0
 10
375.2656808805859
 20
89.11837609093402
 30
0.0
 10
374.6138759969162
 20
89.35680717694382
 30
0.0
 10
374.4525696132821
 20
90.0613161084587
 30
0.0
  0
SPLINE
  5
FF
330
F8
100
AcDbEntity
  8
0
  6
Continuous
 62
     0
370
    30
100
AcDbSpline
210
0.0
220
0.0
230
1.0
 70
     8
 71
     3
 72
    44
 73
    40
 74
     0
 42
0.000000001
 43
0.0
 40
0.0000895826433184
 40
0.0000895826433184
 40
0.0000895826433184
 40
0.0000895826433184
 40
1.455705552506579
 40
2.911589491455752
 40
5.824081540223627
 40
8.738562618644004
 40
11.65580985319745
 40
14.57578990662235
 40
16.03659608486232
 40
17.49778930288207
 40
20.42097080381651
 40
23.34485787363343
 40
29.19406413399674
 40
35.04490031177655
 40
40.89750583144499
 40
46.75217532138652
 40
52.60924050521431
 40
58.46889873474117
 40
61.39961580462718
 40
64.3307164339991
 40
67.26188709626257
 40
67.99463745970205
 40
68.72736871185101
 40
69.46006464945697
 40
70.192677557325
 40
70.92522637029062
 40
71.65766554636134
 40
72.38986921751011
 40
73.12154096573981
 40
73.85284092927583
 40
74.58380294677747
 40
76.04479523316759
 40
78.96357029080804
 40
81.87875183536413
 40
84.79115651375291
 40
87.70151606648814
 40
90.61036732559818
 40
92.064314958274
 40
93.51784755774796
 40
93.51784755774796
 40
93.51784755774796
 40
93.51784755774796
 10
377.6854815229476
 20
90.8964083807743
 30
0.0
 10
377.6724861245361
 20
91.38139578994118
 30
0.0
 10
377.6464925028395
 20
92.35145988380773
 30
0.0
 10
377.5663761998546
 20
94.29143886522257
 30
0.0
 10
377.4029800389633
 20
96.71480922495446
 30
0.0
 10
377.0958250012652
 20
99.61642235223661
 30
0.0
 10
376.6982337100474
 20
102.5115547890894
 30
0.0
 10
376.315633573694
 20
104.9196238706085
 30
0.0
 10
375.9923085316213
 20
106.8448375433331
 30
0.0
 10
375.6666649573167
 20
108.7711181859801
 30
0.0
 10
375.2692496325035
 20
111.1820470010746
 30
0.0
 10
374.6346585546046
 20
115.0410310801531
 30
0.0
 10
373.8552234347151
 20
119.8676263235816
 30
0.0
 10
372.9205706005619
 20
125.6588741390529
 30
0.0
 10
371.9767029777108
 20
131.4491073739731
 30
0.0
 10
371.01027567032
 20
137.2370375268088
 30
0.0
 10
370.0080502581477
 20
143.0212576839941
 30
0.0
 10
369.1329423743991
 20
147.8363426750317
 30
0.0
 10
368.4020026786638
 20
151.6837205400864
 30
0.0
 10
367.8371851581601
 20
154.5663056143297
 30
0.0
 10
367.4000023107674
 20
156.7249218885593
 30
0.0
 10
367.1023094888258
 20
158.1622081447068
 30
0.0
 10
366.9522548815714
 20
158.8804197443127
 30
0.0
 10
366.8009600308708
 20
159.598179384292
 30
0.0
 10
366.6483756149296
 20
160.3155279528892
 30
0.0
 10
366.4944973759859
 20
161.0323450636241
 30
0.0
 10
366.3393201324295
 20
161.7486331836006
 30
0.0
 10
366.1828584417669
 20
162.46425056013
 30
0.0
 10
366.0249982051625
 20
163.1796060359231
 30
0.0
 10
365.8658145882696
 20
163.8942630227806
 30
0.0
 10
365.6517491385239
 20
164.8461301073239
 30
0.0
 10
365.2725112340563
 20
166.5092195116812
 30
0.0
 10
364.7135862170207
 20
168.8786948772567
 30
0.0
 10
364.0261734072051
 20
171.7143166742032
 30
0.0
 10
363.2867609762509
 20
174.5324401734905
 30
0.0
 10
362.489045889725
 20
177.3308253370372
 30
0.0
 10
361.7760325228269
 20
179.6462101790037
 30
0.0
 10
361.18198532918
 20
181.4897093271337
 30
0.0
 10
360.8781712855116
 20
182.408794567388
 30
0.0
 10
360.7262858423862
 20
182.8682715516869
 30
0.0
  0
ARC
  5
100
330
F8
100
AcDbEntity
  8
0
  6
Continuous
 62
     0
370
    30
100
AcDbCircle
 10
359.253201
 20
182.378091
 30
0.0
 40
1.552499994466232
100
AcDbArc
 50
18.405254
 51
90.0
  0
SPLINE
  5
101
330
F8
100
AcDbEntity
  8
0
  6
Continuous
 62
     0
370
     0
100
AcDbSpline
210
0.0
220
0.0
230
1.0
 70
     8
 71
     3
 72
    21
 73
    17
 74
     0
 42
0.000000001
 43
0.0
 40
0.0
 40
0.0
 40
0.0
 40
0.0
 40
0.7625472699044984
 40
1.527870988522846
 40
3.068173238571163
 40
6.184644795374176
 40
7.762267914638144
 40
9.344689078241554
 40
10.92485328317408
 40
12.49648425405301
 40
15.59751546688465
 40
18.64952673578841
 40
21.66346482859164
 40
23.1602384496008
 40
23.90640253390963
 40
24.65139873213821
 40
24.65139873213821
 40
24.65139873213821
 40
24.65139873213821
 10
376.4150747894248
 20
89.3303721886748
 30
0.0
 10
376.4151168064557
 20
89.33014446915521
 30
0.0
 10
376.413353227683
 20
89.33970636276311
 30
0.0
 10
376.4025584517344
 20
89.39823350951838
 30
0.0
 10
376.362388087565
 20
89.6160286156245
 30
0.0
 10
376.2591347970304
 20
90.17584493731641
 30
0.0
 10
376.0874416574486
 20
91.1067263137058
 30
0.0
 10
375.9236086727312
 20
91.9949915142075
 30
0.0
 10
375.7286355246415
 20
93.05209143363729
 30
0.0
 10
375.43648791635
 20
94.63604891459836
 30
0.0
 10
375.0250002520604
 20
96.86704058432895
 30
0.0
 10
374.4964324684859
 20
99.73281350135292
 30
0.0
 10
374.0441285907568
 20
102.1851009267183
 30
0.0
 10
373.7261021868901
 20
103.909366775424
 30
0.0
 10
373.5446675127621
 20
104.8930637426096
 30
0.0
 10
373.4538900605151
 20
105.385238152672
 30
0.0
 10
373.4085368831263
 20
105.6311326206618
 30
0.0
  0
LINE
  5
102
330
F8
100
AcDbEntity
  8
0
  6
Continuous
 62
     0
370
     0
100
AcDbLine
 10
364.562179
 20
162.048178
 30
0.0
 11
365.220495
 21
158.477504
 31
0.0
  0
LINE
  5
103
330
F8
100
AcDbEntity
  8
0
  6
Continuous
 62
     0
370
     0
100
AcDbLine
 10
365.220495
 20
158.477504
 30
0.0
 11
374.889562
 21
106.055051
 31
0.0
  0
LINE
  5
104
330
F8
100
AcDbEntity
  8
0
  6
Continuous
 62
     0
370
     0
100
AcDbLine
 10
360.726286
 20
182.868272
 30
0.0
 11
364.562179
 21
162.048178
 31
0.0
  0
LINE
  5
105
330
F8
100
AcDbEntity
  8
0
  6
Continuous
 62
     0
370
     0
100
AcDbLine
 10
371.627551
 20
105.372414
 30
0.0
 11
366.124714
 21
136.218782
 31
0.0
  0
LINE
  5
106
330
F8
100
AcDbEntity
  8
0
  6
Continuous
 62
     0
370
     0
100
AcDbLine
 10
362.270966
 20
158.180739
 30
0.0
 11
363.71554
 21
158.180739
 31
0.0
  0
LINE
  5
107
330
F8
100
AcDbEntity
  8
0
  6
Continuous
 62
     0
370
     0
100
AcDbLine
 10
363.71554
 20
158.18074
 30
0.0
 11
363.052951
 21
161.772895
 31
0.0
  0
LINE
  5
108
330
F8
100
AcDbEntity
  8
0
  6
Continuous
 62
     0
370
     0
100
AcDbLine
 10
364.562125
 20
162.048169
 30
0.0
 11
363.052951
 21
161.772895
 31
0.0
  0
SPLINE
  5
109
330
F8
100
AcDbEntity
  8
0
  6
Continuous
 62
     0
370
    30
100
AcDbSpline
210
0.0
220
0.0
230
1.0
 70
     8
 71
     3
 72
     8
 73
     4
 74
     0
 42
0.000000001
 43
0.0
 40
0.2452083755485541
 40
0.2452083755485541
 40
0.2452083755485541
 40
0.2452083755485541
 40
34.9641484083908
 40
34.9641484083908
 40
34.9641484083908
 40
34.9641484083908
 10
367.7920026625292
 20
124.4861705988087
 30
0.0
 10
369.9974613076024
 20
113.1251951608087
 30
0.0
 10
371.8142963053689
 20
101.6826843671395
 30
0.0
 10
374.3759959113363
 20
90.39703770393929
 30
0.0
  0
LINE
  5
10A
330
F8
100
AcDbEntity
  8
0
  6
Continuous
 62
     0
370
     0
100
AcDbLine
 10
373.408548
 20
105.631135
 30
0.0
 11
367.732071
 21
136.405548
 31
0.0
  0
LINE
  5
10B
330
F8
100
AcDbEntity
  8
0
  6
Continuous
 62
     0
370
     0
100
AcDbLine
 10
360.601532
 20
158.180704
 30
0.0
 11
360.59138
 21
158.14653
 31
0.0
  0
LINE
  5
10C
330
F8
100
AcDbEntity
  8
0
  6
Continuous
 62
     0
370
     0
100
AcDbLine
 10
374.889596
 20
106.055057
 30
0.0
 11
377.685482
 21
90.896408
 31
0.0
  0
LINE
  5
10D
330
F8
100
AcDbEntity
  8
0
  6
Continuous
 62
     0
370
     0
100
AcDbLine
 10
367.732071
 20
136.405548
 30
0.0
 11
363.71554
 21
158.180739
 31
0.0
  0
SPLINE
  5
10E
330
F8
100
AcDbEntity
  8
0
  6
Continuous
 62
     0
370
     0
100
AcDbSpline
210
0.0
220
0.0
230
1.0
 70
     8
 71
     7
 72
    26
 73
    18
 74
     0
 42
0.000000001
 43
0.0
 40
0.0
 40
0.0
 40
0.0
 40
0.0
 40
0.0
 40
0.0
 40
0.0
 40
0.0
 40
0.2499999999999937
 40
0.2499999999999937
 40
0.2499999999999937
 40
0.2499999999999937
 40
0.2499999999999937
 40
0.512499999999987
 40
0.512499999999987
 40
0.512499999999987
 40
0.512499999999987
 40
0.512499999999987
 40
0.9999999999999749
 40
0.9999999999999749
 40
0.9999999999999749
 40
0.9999999999999749
 40
0.9999999999999749
 40
0.9999999999999749
 40
0.9999999999999749
 40
0.9999999999999749
 10
366.1247136466388
 20
136.2187817626088
 30
0.0
 10
366.1301753291179
 20
136.201925182126
 30
0.0
 10
366.135566074546
 20
136.1850556669589
 30
0.0
 10
366.1422014743239
 20
136.1687610409706
 30
0.0
 10
366.1525857360725
 20
136.1541684726569
 30
0.0
 10
366.1658090217481
 20
136.1406945980099
 30
0.0
 10
366.2176133679779
 20
136.1233823266944
 30
0.0
 10
366.3256807698588
 20
136.1326829272462
 30
0.0
 10
366.3984668624698
 20
136.1465504278977
 30
0.0
 10
366.4708583597217
 20
136.1620395721455
 30
0.0
 10
366.5462010356773
 20
136.1781676720045
 30
0.0
 10
366.7644309053107
 20
136.2252349350933
 30
0.0
 10
366.9889608788083
 20
136.2715938927896
 30
0.0
 10
367.1352276295627
 20
136.2994502145105
 30
0.0
 10
367.2830939320927
 20
136.3262583523445
 30
0.0
 10
367.431428698271
 20
136.3519541985376
 30
0.0
 10
367.5819129932979
 20
136.37785520912
 30
0.0
 10
367.7320705611844
 20
136.4055484961035
 30
0.0
  0
LINE
  5
10F
330
F8
100
AcDbEntity
  8
0
  6
Continuous
 62
     0
370
     0
100
AcDbLine
 10
363.71554
 20
158.180739
 30
0.0
 11
365.220695
 21
158.477537
 31
0.0
  0
LINE
  5
110
330
F8
100
AcDbEntity
  8
0
  6
Continuous
 62
     0
370
     0
100
AcDbLine
 10
363.052951
 20
161.772895
 30
0.0
 11
361.656965
 21
161.646392
 31
0.0
  0
LINE
  5
111
330
F8
100
AcDbEntity
  8
0
  6
Continuous
 62
     0
370
     0
100
AcDbLine
 10
361.656965
 20
161.646392
 30
0.0
 11
360.733835
 21
158.624996
 31
0.0
  0
LINE
  5
112
330
F8
100
AcDbEntity
  8
0
  6
Continuous
 62
     0
370
     0
100
AcDbLine
 10
360.733835
 20
158.624996
 30
0.0
 11
360.601532
 21
158.180704
 31
0.0
  0
SPLINE
  5
113
330
F8
100
AcDbEntity
  8
0
  6
Continuous
 62
     0
370
    30
100
AcDbSpline
210
0.0
220
0.0
230
1.0
 70
    12
 71
     2
 72
     6
 73
     3
 74
     0
 42
0.000000001
 43
0.0
 40
0.0
 40
0.0
 40
0.0
 40
0.2475618167315173
 40
0.2475618167315173
 40
0.2475618167315173
 10
335.9215361201204
 20
139.9431764864855
 30
0.0
 41
1.0
 10
335.9215370682896
 20
139.9431762361369
 30
0.0
 41
0.7099632905687996
 10
335.921537081404
 20
161.6326821741513
 30
0.0
 41
0.9943426987825525
  0
LINE
  5
114
330
F8
100
AcDbEntity
  8
0
  6
Continuous
 62
     0
370
    30
100
AcDbLine
 10
336.524594
 20
165.05289
 30
0.0
 11
343.394332
 21
183.927285
 31
0.0
  0
SPLINE
  5
115
330
F8
100
AcDbEntity
  8
0
  6
Continuous
 62
     0
370
     0
100
AcDbSpline
210
0.0
220
0.0
230
1.0
 70
     8
 71
     3
 72
    11
 73
     7
 74
     0
 42
0.000000001
 43
0.0
 40
0.0
 40
0.0
 40
0.0
 40
0.0
 40
0.5463209427519092
 40
1.092641883762446
 40
1.638962823031614
 40
2.183354679579053
 40
2.183354679579053
 40
2.183354679579053
 40
2.183354679579053
 10
373.4085368831263
 20
105.6311326206618
 30
0.0
 10
373.5876231806744
 20
105.6641635968581
 30
0.0
 10
373.9476392328811
 20
105.7380939718002
 30
0.0
 10
374.4144704058667
 20
105.856710097919
 30
0.0
 10
374.7529741476912
 20
105.9686925458541
 30
0.0
 10
374.8653535230667
 20
106.0299524910342
 30
0.0
 10
374.8895962799998
 20
106.0550566829843
 30
0.0
  0
LINE
  5
116
330
F8
100
AcDbEntity
  8
0
  6
Continuous
 62
     0
370
    30
100
AcDbLine
 10
374.45257
 20
90.061316
 30
0.0
 11
371.627551
 21
105.372414
 31
0.0
  0
SPLINE
  5
117
330
F8
100
AcDbEntity
  8
0
  6
Continuous
 62
     0
370
     0
100
AcDbSpline
210
0.0
220
0.0
230
1.0
 70
     8
 71
     3
 72
     8
 73
     4
 74
     0
 42
0.000000001
 43
0.0
 40
0.0
 40
0.0
 40
0.0
 40
0.0
 40
1.0
 40
1.0
 40
1.0
 40
1.0
 10
371.6275514613756
 20
105.3724143980593
 30
0.0
 10
371.6412830238828
 20
105.2981324817818
 30
0.0
 10
372.2300047697786
 20
105.4137621884271
 30
0.0
 10
373.4085368831263
 20
105.6311326206618
 30
0.0
  0
SPLINE
  5
118
330
F8
100
AcDbEntity
  8
0
  6
Continuous
 62
     0
370
    30
100
AcDbSpline
210
0.0
220
0.0
230
1.0
 70
     8
 71
     3
 72
    63
 73
    59
 74
     0
 42
0.000000001
 43
0.0
 40
-14.49621089134451
 40
-14.49621089134451
 40
-14.49621089134451
 40
-14.49621089134451
 40
-14.3667804369575
 40
-14.2373499825705
 40
-14.10791952818349
 40
-13.97848907379649
 40
-13.84905861940948
 40
-13.71962816502248
 40
-13.59019771063547
 40
-13.46076725624847
 40
-13.33133680186147
 40
-13.20190634747446
 40
-13.07247589308746
 40
-12.94304543870045
 40
-12.81361498431345
 40
-12.68418452992644
 40
-12.55475407553944
 40
-12.42532362115243
 40
-12.29589316676543
 40
-12.16646271237842
 40
-12.03703225799142
 40
-11.90760180360441
 40
-11.77817134921741
 40
-11.64874089483041
 40
-11.5193104404434
 40
-11.3898799860564
 40
-11.26044953166939
 40
-11.13101907728239
 40
-11.00158862289538
 40
-10.87215816850838
 40
-10.74272771412138
 40
-10.61329725973437
 40
-10.48386680534736
 40
-10.35443635096036
 40
-10.22500589657336
 40
-10.09557544218635
 40
-9.966144987799346
 40
-9.836714533412344
 40
-9.707284079025339
 40
-9.577853624638333
 40
-9.448423170251328
 40
-9.318992715864326
 40
-9.18956226147732
 40
-9.060131807090317
 40
-8.930701352703313
 40
-8.801270898316307
 40
-8.671840443929302
 40
-8.542409989542298
 40
-8.412979535155294
 40
-8.283549080768289
 40
-8.154118626381283
 40
-8.024688171994281
 40
-7.895257717607276
 40
-7.765827263220271
 40
-7.636396808833267
 40
-7.506966354446262
 40
-7.377535900059257
 40
-7.248105445672253
 40
-7.248105445672253
 40
-7.248105445672253
 40
-7.248105445672253
 10
352.2069896335991
 20
139.7465119199399
 30
0.0
 10
352.206989635479
 20
139.7465119194435
 30
0.0
 10
352.2045613744519
 20
139.746575504802
 30
0.0
 10
352.1936456488611
 20
139.7468613417989
 30
0.0
 10
352.1754909341312
 20
139.7473367384061
 30
0.0
 10
352.1501543517113
 20
139.74800019885
 30
0.0
 10
352.1177156198635
 20
139.7488496356385
 30
0.0
 10
352.0782768028396
 20
139.7498823761292
 30
0.0
 10
352.0319619897482
 20
139.7510951709386
 30
0.0
 10
351.9789169041267
 20
139.7524842041653
 30
0.0
 10
351.9193084454391
 20
139.7540451053971
 30
0.0
 10
351.8533241639493
 20
139.7557729634611
 30
0.0
 10
351.781171670619
 20
139.7576623418767
 30
0.0
 10
351.7030779838858
 20
139.7597072959602
 30
0.0
 10
351.6192888153801
 20
139.7619013915297
 30
0.0
 10
351.5300677968248
 20
139.7642377251487
 30
0.0
 10
351.4356956505535
 20
139.7667089458473
 30
0.0
 10
351.3364693062522
 20
139.769307278251
 30
0.0
 10
351.2327009667106
 20
139.7720245470446
 30
0.0
 10
351.124717125515
 20
139.7748522026953
 30
0.0
 10
351.0128575397805
 20
139.7777813483523
 30
0.0
 10
350.8974741611476
 20
139.7808027678396
 30
0.0
 10
350.7789300284132
 20
139.7839069546538
 30
0.0
 10
350.6575981252763
 20
139.7870841418745
 30
0.0
 10
350.5338602067923
 20
139.7903243328956
 30
0.0
 10
350.4081055982313
 20
139.7936173328771
 30
0.0
 10
350.2807299701169
 20
139.7969527808229
 30
0.0
 10
350.1521340932993
 20
139.8003201821798
 30
0.0
 10
350.0227225779831
 20
139.8037089418572
 30
0.0
 10
349.8929026006731
 20
139.8071083975635
 30
0.0
 10
349.7630826230466
 20
139.8105078533534
 30
0.0
 10
349.6336711067818
 20
139.8138966132813
 30
0.0
 10
349.5050752283869
 20
139.8172640150546
 30
0.0
 10
349.3776995980709
 20
139.8205994635817
 30
0.0
 10
349.2519449866913
 20
139.8238924643075
 30
0.0
 10
349.1282070647806
 20
139.8271326562333
 30
0.0
 10
349.0068751576189
 20
139.8303098445167
 30
0.0
 10
348.8883310202757
 20
139.8334140325478
 30
0.0
 10
348.7729476364632
 20
139.8364354534026
 30
0.0
 10
348.6610880449953
 20
139.8393646005734
 30
0.0
 10
348.5531041975305
 20
139.8421922578794
 30
0.0
 10
348.4493358512032
 20
139.8449095284647
 30
0.0
 10
348.3501094996213
 20
139.8475078627906
 30
0.0
 10
348.2557373455975
 20
139.8499790855362
 30
0.0
 10
348.1665163188425
 20
139.8523154213203
 30
0.0
 10
348.0827271417149
 20
139.8545095191662
 30
0.0
 10
348.0046334459653
 20
139.8565544756304
 30
0.0
 10
347.9324809432519
 20
139.8584438565234
 30
0.0
 10
347.8664966520428
 20
139.8601717171537
 30
0.0
 10
347.8068881833294
 20
139.8617326210326
 30
0.0
 10
347.7538430874074
 20
139.8631216569789
 30
0.0
 10
347.7075282637736
 20
139.8643344545719
 30
0.0
 10
347.6680894359979
 20
139.8653671979014
 30
0.0
 10
347.6356506932232
 20
139.866216637575
 30
0.0
 10
347.6103140997357
 20
139.8668801009411
 30
0.0
 10
347.5921593738319
 20
139.8673555004985
 30
0.0
 10
347.5812436369963
 20
139.8676413404644
 30
0.0
 10
347.5788153684491
 20
139.8677049278085
 30
0.0
 10
347.5788153665692
 20
139.8677049283049
 30
0.0
  0
ARC
  5
119
330
F8
100
AcDbEntity
  8
0
  6
Continuous
 62
     0
370
    30
100
AcDbCircle
 10
332.351138
 20
183.636884
 30
0.0
 40
0.5000003182724769
100
AcDbArc
 50
0.000036
 51
89.999964
  0
LINE
  5
11A
330
F8
100
AcDbEntity
  8
0
  6
Continuous
 62
     0
370
    30
100
AcDbLine
 10
332.351138
 20
184.136884
 30
0.0
 11
322.658041
 21
184.136884
 31
0.0
  0
LINE
  5
11B
330
F8
100
AcDbEntity
  8
0
  6
Continuous
 62
     0
370
    30
100
AcDbLine
 10
332.851138
 20
183.636884
 30
0.0
 11
332.851138
 21
140.236884
 31
0.0
  0
LINE
  5
11C
330
F8
100
AcDbEntity
  8
0
  6
Continuous
 62
     0
370
     0
100
AcDbLine
 10
332.351138
 20
184.136884
 30
0.0
 11
332.351138
 21
139.736884
 31
0.0
  0
LINE
  5
11D
330
F8
100
AcDbEntity
  8
0
  6
Continuous
 62
     0
370
    30
100
AcDbLine
 10
317.658041
 20
199.436884
 30
0.0
 11
317.658041
 21
124.436884
 31
0.0
  0
LINE
  5
11E
330
F8
100
AcDbEntity
  8
0
  6
Continuous
 62
     0
370
     0
100
AcDbLine
 10
322.158041
 20
199.436884
 30
0.0
 11
322.158041
 21
124.436884
 31
0.0
  0
LINE
  5
11F
330
F8
100
AcDbEntity
  8
0
  6
Continuous
 62
     0
370
    30
100
AcDbLine
 10
322.658041
 20
198.936884
 30
0.0
 11
322.658041
 21
124.936884
 31
0.0
  0
LINE
  5
120
330
F8
100
AcDbEntity
  8
0
  6
Continuous
 62
     0
370
    30
100
AcDbLine
 10
322.158041
 20
199.436884
 30
0.0
 11
317.658041
 21
199.436884
 31
0.0
  0
ARC
  5
121
330
F8
100
AcDbEntity
  8
0
  6
Continuous
 62
     0
370
    30
100
AcDbCircle
 10
322.158041
 20
198.936884
 30
0.0
 40
0.5
100
AcDbArc
 50
0.0
 51
90.0
  0
ARC
  5
122
330
F8
100
AcDbEntity
  8
0
  6
Continuous
 62
     0
370
    30
100
AcDbCircle
 10
352.213534
 20
139.996426
 30
0.0
 40
0.25
100
AcDbArc
 50
268.5
 51
330.800705
  0
SPLINE
  5
123
330
F8
100
AcDbEntity
  8
0
  6
Continuous
 62
     0
370
    30
100
AcDbSpline
210
0.0
220
0.0
230
1.0
 70
     8
 71
     3
 72
    14
 73
    10
 74
     0
 42
0.000000001
 43
0.0
 40
0.0
 40
0.0
 40
0.0
 40
0.0
 40
3.336726220881981
 40
6.674057870358387
 40
10.00932784122545
 40
13.34163193214553
 40
16.67312261119343
 40
20.00574950619026
 40
23.34072104471974
 40
23.34072104471974
 40
23.34072104471974
 40
23.34072104471974
 10
367.7447386732676
 20
124.726781943353
 30
0.0
 10
367.5313765318012
 20
125.8183674997505
 30
0.0
 10
366.9323143958557
 20
127.9692307795741
 30
0.0
 10
365.6603023979671
 20
131.0617712103378
 30
0.0
 10
363.9540676395766
 20
133.9458791407607
 30
0.0
 10
361.7043741547104
 20
136.4435243207536
 30
0.0
 10
358.9125155714717
 20
138.3269064908926
 30
0.0
 10
355.7531740419749
 20
139.4761830467234
 30
0.0
 10
353.5406059913778
 20
139.7953734601322
 30
0.0
 10
352.4317658913044
 20
139.8744640226511
 30
0.0
  0
ARC
  5
124
330
F8
100
AcDbEntity
  8
0
  6
Continuous
 62
     0
370
    30
100
AcDbCircle
 10
347.58536
 20
140.117619
 30
0.0
 40
0.25
100
AcDbArc
 50
224.248451
 51
268.5
  0
LINE
  5
125
330
F8
100
AcDbEntity
  8
0
  6
Continuous
 62
     0
370
    30
100
AcDbLine
 10
335.921536
 20
139.943176
 30
0.0
 11
347.406279
 21
139.943176
 31
0.0
  0
LINE
  5
126
330
F8
100
AcDbEntity
  8
0
  6
Continuous
 62
     0
370
     0
100
AcDbLine
 10
351.734924
 20
139.988674
 30
0.0
 11
349.239058
 21
140.081614
 31
0.0
  0
SPLINE
  5
127
330
F8
100
AcDbEntity
  8
0
  6
Continuous
 62
     0
370
     0
100
AcDbSpline
210
0.0
220
0.0
230
1.0
 70
     8
 71
     3
 72
    14
 73
    10
 74
     0
 42
0.000000001
 43
0.0
 40
0.0
 40
0.0
 40
0.0
 40
0.0
 40
4.298547036173895
 40
8.598954317849099
 40
12.89999083057148
 40
17.20079035550693
 40
21.50060701087415
 40
25.79866906499149
 40
30.09423660445132
 40
30.09423660445132
 40
30.09423660445132
 40
30.09423660445132
 10
360.5913802941309
 20
158.146529501179
 30
0.0
 10
360.1932179112073
 20
156.7907069221453
 30
0.0
 10
359.2198462926531
 20
154.1678803107262
 30
0.0
 10
357.4891391832568
 20
150.60474778633
 30
0.0
 10
355.6577995343721
 20
147.4364553580523
 30
0.0
 10
353.8724755384781
 20
144.7061524049502
 30
0.0
 10
352.2697336141691
 20
142.4789396135996
 30
0.0
 10
351.0068182813704
 20
140.8520885105451
 30
0.0
 10
350.5064640417097
 20
140.2491213660622
 30
0.0
 10
350.3710741492778
 20
140.0865987033979
 30
0.0
  0
ARC
  5
128
330
F8
100
AcDbEntity
  8
0
  6
Continuous
 62
     0
370
    30
100
AcDbCircle
 10
349.719889
 20
121.514553
 30
0.0
 40
18.57328602025846
100
AcDbArc
 50
91.483458
 51
97.155724
  0
LINE
  5
129
330
F8
100
AcDbEntity
  8
0
  6
Continuous
 62
     0
370
    30
100
AcDbLine
 10
351.734924
 20
139.988674
 30
0.0
 11
352.431766
 21
139.874464
 31
0.0
  0
LINE
  5
12A
330
F8
100
AcDbEntity
  8
0
  6
Continuous
 62
     0
370
    30
100
AcDbLine
 10
350.371074
 20
140.086599
 30
0.0
 11
349.239058
 21
140.081614
 31
0.0
  0
ARC
  5
12B
330
F8
100
AcDbEntity
  8
0
  6
Continuous
 62
     0
370
    30
100
AcDbCircle
 10
350.141428
 20
127.346335
 30
0.0
 40
12.74236921550844
100
AcDbArc
 50
82.816071
 51
88.964255
  0
ARC
  5
12C
330
F8
100
AcDbEntity
  8
0
  6
Continuous
 62
     0
370
    30
100
AcDbCircle
 10
322.158041
 20
124.936884
 30
0.0
 40
0.5
100
AcDbArc
 50
270.0
 51
360.0
  0
LINE
  5
12D
330
F8
100
AcDbEntity
  8
0
  6
Continuous
 62
     0
370
    30
100
AcDbLine
 10
322.158041
 20
124.436884
 30
0.0
 11
317.658041
 21
124.436884
 31
0.0
  0
LINE
  5
12E
330
F8
100
AcDbEntity
  8
0
  6
Continuous
 62
     0
370
    30
100
AcDbLine
 10
332.351138
 20
139.736884
 30
0.0
 11
322.658041
 21
139.736884
 31
0.0
  0
ARC
  5
12F
330
F8
100
AcDbEntity
  8
0
  6
Continuous
 62
     0
370
    30
100
AcDbCircle
 10
332.351138
 20
140.236884
 30
0.0
 40
0.5000003177972034
100
AcDbArc
 50
270.000036
 51
359.999964
  0
ARC
  5
130
330
F8
100
AcDbEntity
  8
0
  6
Continuous
 62
     0
370
    30
100
AcDbCircle
 10
331.464887
 20
162.13996
 30
0.0
 40
20.5
100
AcDbArc
 50
273.877412
 51
282.556222
  0
ARC
  5
131
330
F8
100
AcDbEntity
  8
0
  6
Continuous
 62
     0
370
    30
100
AcDbCircle
 10
331.464887
 20
161.733808
 30
0.0
 40
20.5
100
AcDbArc
 50
59.830937
 51
86.122588
  0
SPLINE
  5
132
330
F8
100
AcDbEntity
  8
0
  6
Continuous
 62
     0
370
    30
100
AcDbSpline
210
0.0
220
0.0
230
1.0
 70
     8
 71
     3
 72
    17
 73
    13
 74
     0
 42
0.000000001
 43
0.0
 40
0.0
 40
0.0
 40
0.0
 40
0.0
 40
0.8483282170823453
 40
2.133526408890853
 40
3.403926791946122
 40
5.817310399534957
 40
9.089958910553046
 40
12.53239070086057
 40
16.15294797518244
 40
17.07312078819188
 40
18.14455584352251
 40
19.21395933696144
 40
19.21395933696144
 40
19.21395933696144
 40
19.21395933696144
 10
366.5889787940248
 20
128.7258047030723
 30
0.0
 10
366.4913240761348
 20
128.9840537923396
 30
0.0
 10
366.2283461757554
 20
129.6483021786281
 30
0.0
 10
365.7683824571454
 20
130.6827377292057
 30
0.0
 10
365.0140109635893
 20
132.1588383682895
 30
0.0
 10
363.7801978435889
 20
134.1270123682382
 30
0.0
 10
361.7416796691007
 20
136.4110750716488
 30
0.0
 10
358.8698456867019
 20
138.367525398752
 30
0.0
 10
356.341019279881
 20
139.2553575442901
 30
0.0
 10
354.50800489381
 20
139.6345449898087
 30
0.0
 10
353.4976712544242
 20
139.7728484268605
 30
0.0
 10
352.7881827524861
 20
139.8688706071404
 30
0.0
 10
352.4317594682227
 20
139.8744637393554
 30
0.0
  0
LINE
  5
133
330
F8
100
AcDbEntity
  8
0
  6
Continuous
 62
     0
370
    30
100
AcDbLine
 10
359.253201
 20
183.930591
 30
0.0
 11
343.395534
 21
183.930591
 31
0.0
  0
LINE
  5
134
330
F8
100
AcDbEntity
  8
0
  6
Continuous
 62
     0
370
    30
100
AcDbLine
 10
374.375929
 20
90.397023
 30
0.0
 11
374.15137
 21
91.392821
 31
0.0
  0
LINE
  5
135
330
F8
100
AcDbEntity
  8
0
  6
Continuous
 62
     0
370
    30
100
AcDbLine
 10
367.742482
 20
124.739696
 30
0.0
 11
367.791536
 21
124.48608
 31
0.0
  0
LINE
  5
136
330
F8
100
AcDbEntity
  8
0
  6
Continuous
 62
     0
370
    30
100
AcDbLine
 10
374.375898
 20
90.397161
 30
0.0
 11
374.151377
 21
91.392793
 31
0.0
  0
ARC
  5
137
330
F8
100
AcDbEntity
  8
0
  6
Continuous
 62
     0
370
    30
100
AcDbCircle
 10
375.492052
 20
90.286517
 30
0.0
 40
1.063637551509479
100
AcDbArc
 50
192.176768
 51
214.39578
  0
ARC
  5
138
330
F8
100
AcDbEntity
  8
0
  6
Continuous
 62
     0
370
    30
100
AcDbCircle
 10
376.134286
 20
90.856459
 30
0.0
 40
1.551711482807026
100
AcDbArc
 50
280.425409
 51
1.475543
  0
ENDBLK
  5
13A
330
F8
100
AcDbEntity
  8
0
100
AcDbBlockEnd
  0
BLOCK
  5
179
330
13C
100
AcDbEntity
  8
0
100
AcDbBlockBegin
  2
d
 70
     0
 10
0.0
 20
3.259308
 30
0.0
  3
d
  1

  0
SPLINE
  5
13D
330
13C
100
AcDbEntity
  8
0
  6
Continuous
 62
     0
370
     0
100
AcDbSpline
210
0.0
220
0.0
230
1.0
 70
     8
 71
     3
 72
    14
 73
    10
 74
     0
 42
0.000000001
 43
0.0
 40
0.0
 40
0.0
 40
0.0
 40
0.0
 40
4.985091455020036
 40
9.970147469987415
 40
14.95499429598457
 40
19.93965986576175
 40
24.92412306109085
 40
29.90843907769888
 40
34.89265281904023
 40
34.89265281904023
 40
34.89265281904023
 40
34.89265281904023
 10
176.9661340387419
 20
-61.52564816322251
 30
0.0
 10
176.9783358272498
 20
-61.23720350414897
 30
0.0
 10
176.6341945705829
 20
-60.68251686603821
 30
0.0
 10
175.0345093149946
 20
-59.87414330047068
 30
0.0
 10
172.4234093160823
 20
-59.14936346796253
 30
0.0
 10
168.9222907310334
 20
-58.53965599022786
 30
0.0
 10
164.6992733639249
 20
-58.07859349475007
 30
0.0
 10
159.9699159953521
 20
-57.79104160564452
 30
0.0
 10
156.634442296516
 20
-57.72590012603428
 30
0.0
 10
154.9730377160689
 20
-57.72590012603428
 30
0.0
  0
SPLINE
  5
13E
330
13C
100
AcDbEntity
  8
0
  6
Continuous
 62
     0
370
     0
100
AcDbSpline
210
0.0
220
0.0
230
1.0
 70
     8
 71
     3
 72
    14
 73
    10
 74
     0
 42
0.000000001
 43
0.0
 40
0.0
 40
0.0
 40
0.0
 40
0.0
 40
4.984213741341139
 40
9.968529757949065
 40
14.95299295327749
 40
19.93765852305448
 40
24.92250534905095
 40
29.90756136401821
 40
34.89265281903797
 40
34.89265281903797
 40
34.89265281903797
 40
34.89265281903797
 10
154.9730377160688
 20
-57.72590012603428
 30
0.0
 10
153.3116331356218
 20
-57.72590012603428
 30
0.0
 10
149.9761594455576
 20
-57.79104160564748
 30
0.0
 10
145.2468021157009
 20
-58.07859349474165
 30
0.0
 10
141.0237848106876
 20
-58.53965599024605
 30
0.0
 10
137.5226663077015
 20
-59.14936346798072
 30
0.0
 10
134.9115664065179
 20
-59.87414330046226
 30
0.0
 10
133.3118812592677
 20
-60.68251686604003
 30
0.0
 10
132.9677400785713
 20
-61.23720350414897
 30
0.0
 10
132.979941904852
 20
-61.52564816322251
 30
0.0
  0
ARC
  5
13F
330
13C
100
AcDbEntity
  8
0
  6
Continuous
 62
     0
370
    30
100
AcDbCircle
 10
136.848612
 20
-33.326635
 30
0.0
 40
4.011836756447547
100
AcDbArc
 50
195.433067
 51
204.609517
  0
ARC
  5
140
330
13C
100
AcDbEntity
  8
0
  6
Continuous
 62
     0
370
    30
100
AcDbCircle
 10
173.097357
 20
-33.32658
 30
0.0
 40
4.011954277306022
100
AcDbArc
 50
335.39047
 51
344.566586
  0
SPLINE
  5
141
330
13C
100
AcDbEntity
  8
0
  6
Continuous
 62
     0
370
     0
100
AcDbSpline
210
0.0
220
0.0
230
1.0
 70
     8
 71
     3
 72
     8
 73
     4
 74
     0
 42
0.000000001
 43
0.0
 40
0.0
 40
0.0
 40
0.0
 40
0.0
 40
3.653222443064012
 40
3.653222443064012
 40
3.653222443064012
 40
3.653222443064012
 10
175.656457535018
 20
-63.03487683251228
 30
0.0
 10
175.6449694965749
 20
-63.25201615114247
 30
0.0
 10
175.3884172580785
 20
-63.47464957604461
 30
0.0
 10
175.2528037156742
 20
-63.69319238476965
 30
0.0
  0
LINE
  5
142
330
13C
100
AcDbEntity
  8
0
  6
Continuous
 62
     0
370
     0
100
AcDbLine
 10
175.252804
 20
-63.693192
 30
0.0
 11
169.327155
 21
-73.362257
 31
0.0
  0
SPLINE
  5
143
330
13C
100
AcDbEntity
  8
0
  6
Continuous
 62
     0
370
     0
100
AcDbSpline
210
0.0
220
0.0
230
1.0
 70
     8
 71
     3
 72
    14
 73
    10
 74
     0
 42
0.000000001
 43
0.0
 40
0.0
 40
0.0
 40
0.0
 40
0.0
 40
3.357648776850947
 40
6.714049718873456
 40
10.06778576981203
 40
13.41760088284157
 40
16.76445100048878
 40
20.11421126264102
 40
23.46800661547981
 40
23.46800661547981
 40
23.46800661547981
 40
23.46800661547981
 10
169.3271549637247
 20
-73.3622574013441
 30
0.0
 10
169.2004309334515
 20
-73.56309151867367
 30
0.0
 10
168.8459270249402
 20
-73.96589276615191
 30
0.0
 10
167.9189777809718
 20
-74.55245738157237
 30
0.0
 10
166.4700562549021
 20
-75.10561923454975
 30
0.0
 10
164.3601302381413
 20
-75.58624897908089
 30
0.0
 10
161.5607529440422
 20
-75.93705489645413
 30
0.0
 10
158.3337365239191
 20
-76.12453633654673
 30
0.0
 10
156.0909705740816
 20
-76.15817649026917
 30
0.0
 10
154.9730387898023
 20
-76.1581767315231
 30
0.0
  0
LINE
  5
144
330
13C
100
AcDbEntity
  8
0
  6
Continuous
 62
     0
370
     0
100
AcDbLine
 10
154.973039
 20
-76.158177
 30
0.0
 11
154.973037
 21
-59.198985
 31
0.0
  0
SPLINE
  5
145
330
13C
100
AcDbEntity
  8
0
  6
Continuous
 62
     0
370
     0
100
AcDbSpline
210
0.0
220
0.0
230
1.0
 70
     8
 71
     3
 72
    14
 73
    10
 74
     0
 42
0.000000001
 43
0.0
 40
0.0
 40
0.0
 40
0.0
 40
0.0
 40
4.690236058132168
 40
9.37981662551812
 40
14.07059875637071
 40
18.76087985973197
 40
23.45161344181452
 40
28.14254872602786
 40
32.83347914028615
 40
32.83347914028615
 40
32.83347914028615
 40
32.83347914028615
 10
154.9730377282435
 20
-59.19898507118023
 30
0.0
 10
156.5364497476207
 20
-59.19898442448289
 30
0.0
 10
159.6750021016397
 20
-59.26479362347732
 30
0.0
 10
164.1239145626349
 20
-59.5559629060117
 30
0.0
 10
168.0948055464267
 20
-60.02195533703821
 30
0.0
 10
171.38489706805
 20
-60.63766352516564
 30
0.0
 10
173.8389197081046
 20
-61.37106579282954
 30
0.0
 10
175.3400018284862
 20
-62.18042061164647
 30
0.0
 10
175.6712087826567
 20
-62.75605848794703
 30
0.0
 10
175.6564575350187
 20
-63.03487683251024
 30
0.0
  0
ARC
  5
146
330
13C
100
AcDbEntity
  8
0
  6
Continuous
 62
     0
370
     0
100
AcDbCircle
 10
169.13006
 20
-71.872532
 30
0.0
 40
1.502741555420254
100
AcDbArc
 50
277.536674
 51
327.716762
  0
LINE
  5
147
330
13C
100
AcDbEntity
  8
0
  6
Continuous
 62
     0
370
     0
100
AcDbLine
 10
154.973038
 20
-59.198985
 30
0.0
 11
154.973038
 21
-57.7259
 31
0.0
  0
SPLINE
  5
148
330
13C
100
AcDbEntity
  8
0
  6
Continuous
 62
     0
370
     0
100
AcDbSpline
210
0.0
220
0.0
230
1.0
 70
     8
 71
     3
 72
     8
 73
     4
 74
     0
 42
0.000000001
 43
0.0
 40
0.0
 40
0.0
 40
0.0
 40
0.0
 40
3.653222443064017
 40
3.653222443064017
 40
3.653222443064017
 40
3.653222443064017
 10
134.2896184022216
 20
-63.03487683251228
 30
0.0
 10
134.3011064684452
 20
-63.25201615116157
 30
0.0
 10
134.5576587339953
 20
-63.47464957602961
 30
0.0
 10
134.6932723039859
 20
-63.69319238476942
 30
0.0
  0
LINE
  5
149
330
13C
100
AcDbEntity
  8
0
  6
Continuous
 62
     0
370
     0
100
AcDbLine
 10
134.693272
 20
-63.693192
 30
0.0
 11
140.618922
 21
-73.362257
 31
0.0
  0
SPLINE
  5
14A
330
13C
100
AcDbEntity
  8
0
  6
Continuous
 62
     0
370
     0
100
AcDbSpline
210
0.0
220
0.0
230
1.0
 70
     8
 71
     3
 72
    14
 73
    10
 74
     0
 42
0.000000001
 43
0.0
 40
0.0
 40
0.0
 40
0.0
 40
0.0
 40
4.690236058045281
 40
9.379816625478345
 40
14.07059875641934
 40
18.76087985972482
 40
23.45161344182408
 40
28.14254872603607
 40
32.83347914028536
 40
32.83347914028536
 40
32.83347914028536
 40
32.83347914028536
 10
154.9730377284151
 20
-59.19898507118023
 30
0.0
 10
153.4096257090668
 20
-59.19898442448266
 30
0.0
 10
150.2710733633239
 20
-59.26479362348391
 30
0.0
 10
145.8221609387674
 20
-59.5559629060233
 30
0.0
 10
141.8512700132831
 20
-60.02195533701592
 30
0.0
 10
138.5611785688891
 20
-60.63766352517996
 30
0.0
 10
136.1071560205694
 20
-61.37106579282295
 30
0.0
 10
134.6060740020521
 20
-62.1804206116592
 30
0.0
 10
134.2748671189112
 20
-62.75605848792338
 30
0.0
 10
134.289618402221
 20
-63.03487683251024
 30
0.0
  0
ARC
  5
14B
330
13C
100
AcDbEntity
  8
0
  6
Continuous
 62
     0
370
     0
100
AcDbCircle
 10
134.515558
 20
-61.515887
 30
0.0
 40
1.53564686860298
100
AcDbArc
 50
180.364207
 51
261.539699
  0
ARC
  5
14C
330
13C
100
AcDbEntity
  8
0
  6
Continuous
 62
     0
370
     0
100
AcDbCircle
 10
175.430519
 20
-61.515887
 30
0.0
 40
1.53564635467237
100
AcDbArc
 50
278.460284
 51
359.635809
  0
ARC
  5
14D
330
13C
100
AcDbEntity
  8
0
  6
Continuous
 62
     0
370
     0
100
AcDbCircle
 10
175.022484
 20
-62.164644
 30
0.0
 40
1.546005952892452
100
AcDbArc
 50
278.568873
 51
328.380396
  0
SPLINE
  5
14E
330
13C
100
AcDbEntity
  8
0
  6
Continuous
 62
     0
370
     0
100
AcDbSpline
210
0.0
220
0.0
230
1.0
 70
     8
 71
     3
 72
    14
 73
    10
 74
     0
 42
0.000000001
 43
0.0
 40
0.0
 40
0.0
 40
0.0
 40
0.0
 40
3.357659727039332
 40
6.71416833314014
 40
10.06786817318082
 40
13.41762334460882
 40
16.76451129115895
 40
20.11429153093615
 40
23.46810869271241
 40
23.46810869271241
 40
23.46810869271241
 40
23.46810869271241
 10
140.6189168408368
 20
-73.36229152374244
 30
0.0
 10
140.7457731043025
 20
-73.56300875949478
 30
0.0
 10
141.1000634544539
 20
-73.96608385481932
 30
0.0
 10
142.0274572818125
 20
-74.55252324097182
 30
0.0
 10
143.475839381884
 20
-75.10539068440289
 30
0.0
 10
145.5860240205916
 20
-75.58648101394397
 30
0.0
 10
148.3852633167797
 20
-75.93733208846766
 30
0.0
 10
151.6123108133389
 20
-76.12489961625761
 30
0.0
 10
153.8551128719752
 20
-76.1583416851322
 30
0.0
 10
154.9730519137393
 20
-76.15817683991258
 30
0.0
  0
ARC
  5
14F
330
13C
100
AcDbEntity
  8
0
  6
Continuous
 62
     0
370
     0
100
AcDbCircle
 10
134.923592
 20
-62.164644
 30
0.0
 40
1.546005946863291
100
AcDbArc
 50
211.61961
 51
261.431127
  0
SPLINE
  5
150
330
13C
100
AcDbEntity
  8
0
  6
Continuous
 62
     0
370
    30
100
AcDbSpline
210
0.0
220
0.0
230
1.0
 70
     8
 71
     3
 72
    14
 73
    10
 74
     0
 42
0.000000001
 43
0.0
 40
0.0
 40
0.0
 40
0.0
 40
0.0
 40
9.18456123342155
 40
18.36188666089488
 40
27.52979576487101
 40
36.69302645961226
 40
45.86094439878418
 40
55.03829037776859
 40
64.2228085122743
 40
64.2228085122743
 40
64.2228085122743
 40
64.2228085122743
 10
133.2011828585004
 20
-34.997291000632
 30
0.0
 10
133.6092524819797
 20
-36.03503094672374
 30
0.0
 10
135.5771784303188
 20
-38.07923053733589
 30
0.0
 10
141.6938675324422
 20
-40.52855776231058
 30
0.0
 10
150.2321924399611
 20
-41.92516580428241
 30
0.0
 10
159.7138997406508
 20
-41.92517361891532
 30
0.0
 10
168.2522267050026
 20
-40.52852511171
 30
0.0
 10
174.3689118061321
 20
-38.07925372659497
 30
0.0
 10
176.3368240926987
 20
-36.0350092152355
 30
0.0
 10
176.7448927314941
 20
-34.99728609125714
 30
0.0
  0
ARC
  5
151
330
13C
100
AcDbEntity
  8
0
  6
Continuous
 62
     0
370
     0
100
AcDbCircle
 10
140.815945
 20
-71.872714
 30
0.0
 40
1.502551956500126
100
AcDbArc
 50
212.278918
 51
262.465163
  0
LINE
  5
152
330
13C
100
AcDbEntity
  8
0
  6
Continuous
 62
     0
370
    30
100
AcDbLine
 10
176.673022
 20
-31.323837
 30
0.0
 11
154.973022
 21
-31.323837
 31
0.0
  0
LINE
  5
153
330
13C
100
AcDbEntity
  8
0
  6
Continuous
 62
     0
370
    30
100
AcDbLine
 10
154.973022
 20
-31.323837
 30
0.0
 11
133.273022
 21
-31.323837
 31
0.0
  0
LINE
  5
154
330
13C
100
AcDbEntity
  8
0
  6
Continuous
 62
     0
370
     0
100
AcDbLine
 10
177.173022
 20
-30.823837
 30
0.0
 11
154.973022
 21
-30.823837
 31
0.0
  0
LINE
  5
155
330
13C
100
AcDbEntity
  8
0
  6
Continuous
 62
     0
370
     0
100
AcDbLine
 10
154.973022
 20
-30.823837
 30
0.0
 11
132.773022
 21
-30.823837
 31
0.0
  0
LINE
  5
156
330
13C
100
AcDbEntity
  8
0
  6
Continuous
 62
     0
370
    30
100
AcDbLine
 10
192.473022
 20
-16.130739
 30
0.0
 11
154.973022
 21
-16.130739
 31
0.0
  0
LINE
  5
157
330
13C
100
AcDbEntity
  8
0
  6
Continuous
 62
     0
370
    30
100
AcDbLine
 10
154.973022
 20
-16.130739
 30
0.0
 11
117.473022
 21
-16.130739
 31
0.0
  0
LINE
  5
158
330
13C
100
AcDbEntity
  8
0
  6
Continuous
 62
     0
370
     0
100
AcDbLine
 10
192.473022
 20
-20.630739
 30
0.0
 11
154.973022
 21
-20.630739
 31
0.0
  0
LINE
  5
159
330
13C
100
AcDbEntity
  8
0
  6
Continuous
 62
     0
370
     0
100
AcDbLine
 10
154.973022
 20
-20.630739
 30
0.0
 11
117.473022
 21
-20.630739
 31
0.0
  0
LINE
  5
15A
330
13C
100
AcDbEntity
  8
0
  6
Continuous
 62
     0
370
    30
100
AcDbLine
 10
191.973022
 20
-21.130739
 30
0.0
 11
154.973022
 21
-21.130739
 31
0.0
  0
LINE
  5
15B
330
13C
100
AcDbEntity
  8
0
  6
Continuous
 62
     0
370
    30
100
AcDbLine
 10
154.973022
 20
-21.130739
 30
0.0
 11
117.973022
 21
-21.130739
 31
0.0
  0
LINE
  5
15C
330
13C
100
AcDbEntity
  8
0
  6
Continuous
 62
     0
370
    30
100
AcDbLine
 10
132.981434
 20
-34.394234
 30
0.0
 11
135.16873
 21
-34.394234
 31
0.0
  0
LINE
  5
15D
330
13C
100
AcDbEntity
  8
0
  6
Continuous
 62
     0
370
    30
100
AcDbLine
 10
174.777315
 20
-34.394234
 30
0.0
 11
176.964642
 21
-34.394234
 31
0.0
  0
LINE
  5
15E
330
13C
100
AcDbEntity
  8
0
  6
Continuous
 62
     0
370
     0
100
AcDbLine
 10
133.201183
 20
-34.997291
 30
0.0
 11
135.558785
 21
-34.997291
 31
0.0
  0
LINE
  5
15F
330
13C
100
AcDbEntity
  8
0
  6
Continuous
 62
     0
370
     0
100
AcDbLine
 10
174.387261
 20
-34.997286
 30
0.0
 11
176.744893
 21
-34.997286
 31
0.0
  0
ARC
  5
160
330
13C
100
AcDbEntity
  8
0
  6
Continuous
 62
     0
370
    30
100
AcDbCircle
 10
171.277436
 20
-32.558179
 30
0.0
 40
3.952246240211293
100
AcDbArc
 50
321.892091
 51
332.318257
  0
ARC
  5
161
330
13C
100
AcDbEntity
  8
0
  6
Continuous
 62
     0
370
    30
100
AcDbCircle
 10
138.679956
 20
-32.550854
 30
0.0
 40
3.965697764337975
100
AcDbArc
 50
207.699307
 51
218.09007
  0
SPLINE
  5
162
330
13C
100
AcDbEntity
  8
0
  6
Continuous
 62
     0
370
    30
100
AcDbSpline
210
0.0
220
0.0
230
1.0
 70
     8
 71
     3
 72
    21
 73
    17
 74
     0
 42
0.000000001
 43
0.0
 40
0.0
 40
0.0
 40
0.0
 40
0.0
 40
2.012608483142828
 40
6.22210983720635
 40
10.56319841488259
 40
14.08080201512257
 40
18.18589984760027
 40
22.29574939358293
 40
26.40868810334134
 40
30.5303988310214
 40
35.5081086784214
 40
40.08834334617888
 40
44.11292526726347
 40
47.76249640772244
 40
51.57965765250032
 40
53.35337053854517
 40
53.35337053854517
 40
53.35337053854517
 40
53.35337053854517
 10
135.5587851046794
 20
-34.99729073482217
 30
0.0
 10
135.7146958289322
 20
-35.22036817541448
 30
0.0
 10
136.2986032610446
 20
-35.90221534239254
 30
0.0
 10
137.8086105235758
 20
-36.99738551890437
 30
0.0
 10
140.2726731427459
 20
-38.09523408863038
 30
0.0
 10
143.2841549621447
 20
-38.99746268467061
 30
0.0
 10
146.6793367801448
 20
-39.67546650511508
 30
0.0
 10
150.5973684432901
 20
-40.12339107216872
 30
0.0
 10
154.7060655203587
 20
-40.2879068510108
 30
0.0
 10
159.1159487690865
 20
-40.15216837324942
 30
0.0
 10
163.4810927865842
 20
-39.660860005323
 30
0.0
 10
167.3485555128922
 20
-38.83554385749403
 30
0.0
 10
170.2876033385294
 20
-37.85445425834837
 30
0.0
 10
172.4776405954441
 20
-36.77370206132014
 30
0.0
 10
173.7360452265265
 20
-35.80740837775306
 30
0.0
 10
174.249843692027
 20
-35.19390186093551
 30
0.0
 10
174.3872605966403
 20
-34.99728635707038
 30
0.0
  0
ARC
  5
163
330
13C
100
AcDbEntity
  8
0
  6
Continuous
 62
     0
370
    30
100
AcDbCircle
 10
117.973022
 20
-20.630739
 30
0.0
 40
0.5
100
AcDbArc
 50
180.0
 51
270.0
  0
ARC
  5
164
330
13C
100
AcDbEntity
  8
0
  6
Continuous
 62
     0
370
    30
100
AcDbCircle
 10
191.973022
 20
-20.630739
 30
0.0
 40
0.5
100
AcDbArc
 50
270.0
 51
0.0
  0
LINE
  5
165
330
13C
100
AcDbEntity
  8
0
  6
Continuous
 62
     0
370
    30
100
AcDbLine
 10
117.473022
 20
-20.630739
 30
0.0
 11
117.473022
 21
-16.130739
 31
0.0
  0
LINE
  5
166
330
13C
100
AcDbEntity
  8
0
  6
Continuous
 62
     0
370
    30
100
AcDbLine
 10
192.473022
 20
-20.630739
 30
0.0
 11
192.473022
 21
-16.130739
 31
0.0
  0
LINE
  5
167
330
13C
100
AcDbEntity
  8
0
  6
Continuous
 62
     0
370
    30
100
AcDbLine
 10
132.773022
 20
-30.823837
 30
0.0
 11
132.773022
 21
-21.130739
 31
0.0
  0
LINE
  5
168
330
13C
100
AcDbEntity
  8
0
  6
Continuous
 62
     0
370
    30
100
AcDbLine
 10
177.173022
 20
-30.823837
 30
0.0
 11
177.173022
 21
-21.130739
 31
0.0
  0
ARC
  5
169
330
13C
100
AcDbEntity
  8
0
  6
Continuous
 62
     0
370
    30
100
AcDbCircle
 10
133.273023
 20
-30.823836
 30
0.0
 40
0.5000003174756542
100
AcDbArc
 50
180.000036
 51
269.999964
  0
ARC
  5
16A
330
13C
100
AcDbEntity
  8
0
  6
Continuous
 62
     0
370
    30
100
AcDbCircle
 10
176.673022
 20
-30.823836
 30
0.0
 40
0.5000003178296468
100
AcDbArc
 50
270.000036
 51
359.999964
  0
ARC
  5
16B
330
13C
100
AcDbEntity
  8
0
  6
Continuous
 62
     0
370
    30
100
AcDbCircle
 10
155.176098
 20
-29.937586
 30
0.0
 40
20.5
100
AcDbArc
 50
183.877412
 51
192.569625
  0
ARC
  5
16C
330
13C
100
AcDbEntity
  8
0
  6
Continuous
 62
     0
370
    30
100
AcDbCircle
 10
154.769947
 20
-29.937586
 30
0.0
 40
20.5
100
AcDbArc
 50
347.430342
 51
356.122588
  0
LINE
  5
16D
330
13C
100
AcDbEntity
  8
0
  6
Continuous
 62
     0
370
    30
100
AcDbLine
 10
176.966745
 20
-61.496851
 30
0.0
 11
176.966745
 21
-34.398933
 31
0.0
  0
LINE
  5
16E
330
13C
100
AcDbEntity
  8
0
  6
Continuous
 62
     0
370
    30
100
AcDbLine
 10
132.979331
 20
-61.496851
 30
0.0
 11
132.979331
 21
-34.398933
 31
0.0
  0
LINE
  5
16F
330
13C
100
AcDbEntity
  8
0
  6
Continuous
 62
     0
370
    30
100
AcDbLine
 10
132.979326
 20
-61.49758
 30
0.0
 11
132.981165
 21
-61.586292
 31
0.0
  0
LINE
  5
170
330
13C
100
AcDbEntity
  8
0
  6
Continuous
 62
     0
370
    30
100
AcDbLine
 10
133.590712
 20
-62.948317
 30
0.0
 11
133.606437
 21
-62.972201
 31
0.0
  0
ARC
  5
171
330
13C
100
AcDbEntity
  8
0
  6
Continuous
 62
     0
370
    30
100
AcDbCircle
 10
135.382017
 20
-61.337008
 30
0.0
 40
2.413822976141483
100
AcDbArc
 50
185.944169
 51
222.643058
  0
LINE
  5
172
330
13C
100
AcDbEntity
  8
0
  6
Continuous
 62
     0
370
    30
100
AcDbLine
 10
139.545573
 20
-72.675154
 30
0.0
 11
133.607086
 21
-62.975166
 31
0.0
  0
SPLINE
  5
173
330
13C
100
AcDbEntity
  8
0
  6
Continuous
 62
     0
370
    30
100
AcDbSpline
210
0.0
220
0.0
230
1.0
 70
     8
 71
     3
 72
    16
 73
    12
 74
     0
 42
0.000000001
 43
0.0
 40
0.0
 40
0.0
 40
0.0
 40
0.0
 40
1.437735140054208
 40
2.081603729469229
 40
3.752507183650986
 40
5.566106915740272
 40
8.760167858678976
 40
13.71034710936531
 40
15.03146131243575
 40
17.79839402707841
 40
23.92746954935702
 40
23.92746954935702
 40
23.92746954935702
 40
23.92746954935702
 10
139.5639234745454
 20
-72.70358397359541
 30
0.0
 10
139.6208364585501
 20
-72.7897663942615
 30
0.0
 10
139.799141402426
 20
-73.04219199285626
 30
0.0
 10
140.1043242325728
 20
-73.3734905573042
 30
0.0
 10
140.5051483067116
 20
-73.73625256023797
 30
0.0
 10
141.2630067268895
 20
-74.24538031450038
 30
0.0
 10
142.6643157666439
 20
-74.9021196667502
 30
0.0
 10
144.5827181059439
 20
-75.40251562260642
 30
0.0
 10
146.9330000778905
 20
-75.76416956698858
 30
0.0
 10
149.9298857218993
 20
-76.07668600924922
 30
0.0
 10
152.9431817849883
 20
-76.15901090853072
 30
0.0
 10
154.9730519139793
 20
-76.15866449722739
 30
0.0
  0
SPLINE
  5
174
330
13C
100
AcDbEntity
  8
0
  6
Continuous
 62
     0
370
    30
100
AcDbSpline
210
0.0
220
0.0
230
1.0
 70
     8
 71
     3
 72
    17
 73
    13
 74
     0
 42
0.000000001
 43
0.0
 40
0.0
 40
0.0
 40
0.0
 40
0.0
 40
6.415807714441053
 40
9.240101162276606
 40
10.62490210012235
 40
15.91625842104205
 40
18.26109240644197
 40
20.33910198845346
 40
21.30765492876279
 40
23.022896843218
 40
23.47783409924325
 40
23.92773675465181
 40
23.92773675465181
 40
23.92773675465181
 40
23.92773675465181
 10
154.9730256665167
 20
-76.15866449722716
 30
0.0
 10
157.096171826721
 20
-76.1590268267289
 30
0.0
 10
160.2325457134057
 20
-76.0690062748788
 30
0.0
 10
163.3025184270519
 20
-75.72764372842335
 30
0.0
 10
165.7111456920742
 20
-75.33179891522559
 30
0.0
 10
167.4442816393609
 20
-74.83737809809372
 30
0.0
 10
168.7777050005403
 20
-74.184728160242
 30
0.0
 10
169.3879666765689
 20
-73.7723738680445
 30
0.0
 10
169.8567561302955
 20
-73.36289327764598
 30
0.0
 10
170.1124694149688
 20
-73.08762373174545
 30
0.0
 10
170.3193089741939
 20
-72.79959786050745
 30
0.0
 10
170.3643182107825
 20
-72.73059206658604
 30
0.0
 10
170.3821538356694
 20
-72.70358386019825
 30
0.0
  0
LINE
  5
175
330
13C
100
AcDbEntity
  8
0
  6
Continuous
 62
     0
370
    30
100
AcDbLine
 10
176.355364
 20
-62.948317
 30
0.0
 11
176.339639
 21
-62.972201
 31
0.0
  0
ARC
  5
176
330
13C
100
AcDbEntity
  8
0
  6
Continuous
 62
     0
370
    30
100
AcDbCircle
 10
174.564059
 20
-61.337008
 30
0.0
 40
2.413822819105244
100
AcDbArc
 50
317.356946
 51
354.055838
  0
LINE
  5
177
330
13C
100
AcDbEntity
  8
0
  6
Continuous
 62
     0
370
    30
100
AcDbLine
 10
176.964911
 20
-61.586292
 30
0.0
 11
176.96675
 21
-61.497597
 31
0.0
  0
LINE
  5
178
330
13C
100
AcDbEntity
  8
0
  6
Continuous
 62
     0
370
    30
100
AcDbLine
 10
170.400505
 20
-72.675154
 30
0.0
 11
176.33899
 21
-62.975166
 31
0.0
  0
ENDBLK
  5
17A
330
13C
100
AcDbEntity
  8
0
100
AcDbBlockEnd
  0
BLOCK
  5
1C0
330
17C
100
AcDbEntity
  8
0
100
AcDbBlockBegin
  2
e
 70
     0
 10
268.304016
 20
-104.845398
 30
0.0
  3
e
  1

  0
ELLIPSE
  5
17D
330
17C
100
AcDbEntity
  8
0
  6
Continuous
 62
     0
370
    30
100
AcDbEllipse
 10
322.003286
 20
-12.114368
 30
0.0
 11
-10.61361624007371
 21
17.24568497649321
 31
0.0
210
0.0
220
0.0
230
-1.0
 40
0.801831
 41
0.0497238973167951
 42
2.31493518064069
  0
SPLINE
  5
17E
330
17C
100
AcDbEntity
  8
0
  6
Continuous
 62
     0
370
     0
100
AcDbSpline
210
0.0
220
0.0
230
1.0
 70
     8
 71
     3
 72
    14
 73
    10
 74
     0
 42
0.000000001
 43
0.0
 40
0.0
 40
0.0
 40
0.0
 40
0.0
 40
4.985091455020036
 40
9.970147469987415
 40
14.95499429598457
 40
19.93965986576175
 40
24.92412306109085
 40
29.90843907769888
 40
34.89265281904023
 40
34.89265281904023
 40
34.89265281904023
 40
34.89265281904023
 10
325.5568352840808
 20
-26.29559954167746
 30
0.0
 10
325.7484634334828
 20
-24.69136070408751
 30
0.0
 10
325.8036483466956
 20
-21.39618335063977
 30
0.0
 10
324.9368731739045
 20
-16.46125627150539
 30
0.0
 10
323.1475208435724
 20
-11.768148636071
 30
0.0
 10
320.5194407468621
 20
-7.555140365744364
 30
0.0
 10
317.1763160654753
 20
-4.040387240234764
 30
0.0
 10
313.2878995025835
 20
-1.413231669959544
 30
0.0
 10
310.4586120884014
 20
-0.347561593950644
 30
0.0
 10
309.0288554922361
 20
-0.0023167414570366
 30
0.0
  0
ARC
  5
17F
330
17C
100
AcDbEntity
  8
0
  6
Continuous
 62
     0
370
     0
100
AcDbCircle
 10
305.091906
 20
-15.697892
 30
0.0
 40
16.18180016899278
100
AcDbArc
 50
75.918911
 51
122.633047
  0
ARC
  5
180
330
17C
100
AcDbEntity
  8
0
  6
Continuous
 62
     0
370
    30
100
AcDbCircle
 10
330.838029
 20
-17.579595
 30
0.0
 40
8.528815681818244
100
AcDbArc
 50
357.660012
 51
18.300058
  0
LINE
  5
181
330
17C
100
AcDbEntity
  8
0
  6
Continuous
 62
     0
370
     0
100
AcDbLine
 10
326.451609
 20
-28.789577
 30
0.0
 11
325.541571
 21
-29.297827
 31
0.0
  0
SPLINE
  5
182
330
17C
100
AcDbEntity
  8
0
  6
Continuous
 62
     0
370
     0
100
AcDbSpline
210
0.0
220
0.0
230
1.0
 70
     8
 71
     3
 72
    10
 73
     6
 74
     0
 42
0.000000001
 43
0.0
 40
0.0
 40
0.0
 40
0.0
 40
0.0
 40
1.612020921592821
 40
3.22411683455244
 40
5.816457017068502
 40
5.816457017068502
 40
5.816457017068502
 40
5.816457017068502
 10
325.5415711918922
 20
-29.29782660846934
 30
0.0
 10
325.4314414931384
 20
-29.80070530653191
 30
0.0
 10
325.1499047832959
 20
-30.78655278430418
 30
0.0
 10
324.6922524744271
 20
-32.57652158656948
 30
0.0
 10
324.3426914245843
 20
-33.864301324638
 30
0.0
 10
324.1259297826261
 20
-34.65787033564545
 30
0.0
  0
SPLINE
  5
183
330
17C
100
AcDbEntity
  8
0
  6
Continuous
 62
     0
370
     0
100
AcDbSpline
210
0.0
220
0.0
230
1.0
 70
     8
 71
     3
 72
     8
 73
     4
 74
     0
 42
0.000000001
 43
0.0
 40
0.0
 40
0.0
 40
0.0
 40
0.0
 40
3.675194520389784
 40
3.675194520389784
 40
3.675194520389784
 40
3.675194520389784
 10
324.7952459529221
 20
-29.74760150007177
 30
0.0
 10
325.0489616714153
 20
-28.59690717705334
 30
0.0
 10
325.4101770667195
 20
-27.47952116166223
 30
0.0
 10
325.5567980606711
 20
-26.29559022477233
 30
0.0
  0
ARC
  5
184
330
17C
100
AcDbEntity
  8
0
  6
Continuous
 62
     0
370
     0
100
AcDbCircle
 10
319.911524
 20
-49.719956
 30
0.0
 40
0.9899484331922095
100
AcDbArc
 50
285.650495
 51
313.182977
  0
LINE
  5
185
330
17C
100
AcDbEntity
  8
0
  6
Continuous
 62
     0
370
     0
100
AcDbLine
 10
324.795252
 20
-29.747604
 30
0.0
 11
320.178581
 21
-50.673202
 31
0.0
  0
LINE
  5
186
330
17C
100
AcDbEntity
  8
0
  6
Continuous
 62
     0
370
     0
100
AcDbLine
 10
320.178581
 20
-50.673202
 30
0.0
 11
313.654727
 21
-80.247093
 31
0.0
  0
SPLINE
  5
187
330
17C
100
AcDbEntity
  8
0
  6
Continuous
 62
     0
370
     0
100
AcDbSpline
210
0.0
220
0.0
230
1.0
 70
     8
 71
     7
 72
    21
 73
    13
 74
     0
 42
0.000000001
 43
0.0
 40
0.0
 40
0.0
 40
0.0
 40
0.0
 40
0.0
 40
0.0
 40
0.0
 40
0.0
 40
0.4874999999999879
 40
0.4874999999999879
 40
0.4874999999999879
 40
0.4874999999999879
 40
0.4874999999999879
 40
0.563863942381685
 40
0.563863942381685
 40
0.563863942381685
 40
0.563863942381685
 40
0.563863942381685
 40
0.563863942381685
 40
0.563863942381685
 40
0.563863942381685
 10
313.6547274393895
 20
-80.24709337896928
 30
0.0
 10
313.7355918579497
 20
-80.22431223731684
 30
0.0
 10
313.8120246548518
 20
-80.20055999198365
 30
0.0
 10
313.8831266073211
 20
-80.1756118193259
 30
0.0
 10
313.9476008288703
 20
-80.14912612013555
 30
0.0
 10
314.0036840426782
 20
-80.12073226496994
 30
0.0
 10
314.0553562100648
 20
-80.0847815368254
 30
0.0
 10
314.0837461440144
 20
-80.0439352965528
 30
0.0
 10
314.0871407212198
 20
-80.03830993314028
 30
0.0
 10
314.0900606707072
 20
-80.032587333251
 30
0.0
 10
314.0924798523569
 20
-80.02676378324041
 30
0.0
 10
314.0943703141497
 20
-80.0208356242638
 30
0.0
 10
314.0957027631982
 20
-80.01479946538184
 30
0.0
  0
SPLINE
  5
188
330
17C
100
AcDbEntity
  8
0
  6
Continuous
 62
     0
370
     0
100
AcDbSpline
210
0.0
220
0.0
230
1.0
 70
     8
 71
     3
 72
     8
 73
     4
 74
     0
 42
0.000000001
 43
0.0
 40
0.0
 40
0.0
 40
0.0
 40
0.0
 40
3.653222443064012
 40
3.653222443064012
 40
3.653222443064012
 40
3.653222443064012
 10
323.6674986749379
 20
-26.24102804476684
 30
0.0
 10
323.5219682514391
 20
-27.41696219926564
 30
0.0
 10
323.1630811097338
 20
-28.52892608788383
 30
0.0
 10
322.9101834340061
 20
-29.67218469503587
 30
0.0
  0
LINE
  5
189
330
17C
100
AcDbEntity
  8
0
  6
Continuous
 62
     0
370
     0
100
AcDbLine
 10
322.910183
 20
-29.672185
 30
0.0
 11
311.790142
 21
-80.04771
 31
0.0
  0
SPLINE
  5
18A
330
17C
100
AcDbEntity
  8
0
  6
Continuous
 62
     0
370
     0
100
AcDbSpline
210
0.0
220
0.0
230
1.0
 70
     8
 71
     3
 72
    14
 73
    10
 74
     0
 42
0.000000001
 43
0.0
 40
0.0
 40
0.0
 40
0.0
 40
0.0
 40
3.357648776850947
 40
6.714049718873456
 40
10.06778576981203
 40
13.41760088284157
 40
16.76445100048878
 40
20.11421126264102
 40
23.46800661547981
 40
23.46800661547981
 40
23.46800661547981
 40
23.46800661547981
 10
311.7901419101106
 20
-80.04771026428048
 30
0.0
 10
311.5559319239182
 20
-81.09781211470653
 30
0.0
 10
311.0001807912101
 20
-83.16804592520518
 30
0.0
 10
309.8371866088065
 20
-86.10851645778425
 30
0.0
 10
308.2459117003834
 20
-88.7571726520286
 30
0.0
 10
306.1308250508941
 20
-90.88724919599855
 30
0.0
 10
303.503351240562
 20
-92.1768297826674
 30
0.0
 10
300.6094883229811
 20
-92.50900638500352
 30
0.0
 10
298.658539086971
 20
-92.21999808907105
 30
0.0
 10
297.6964792791094
 20
-91.9876892485014
 30
0.0
  0
SPLINE
  5
18B
330
17C
100
AcDbEntity
  8
0
  6
Continuous
 62
     0
370
     0
100
AcDbSpline
210
0.0
220
0.0
230
1.0
 70
     8
 71
     3
 72
    44
 73
    40
 74
     0
 42
0.000000001
 43
0.0
 40
0.0000895826433184
 40
0.0000895826433184
 40
0.0000895826433184
 40
0.0000895826433184
 40
1.455705552506579
 40
2.911589491455752
 40
5.824081540223627
 40
8.738562618644004
 40
11.65580985319745
 40
14.57578990662235
 40
16.03659608486232
 40
17.49778930288207
 40
20.42097080381651
 40
23.34485787363343
 40
29.19406413399674
 40
35.04490031177655
 40
40.89750583144499
 40
46.75217532138652
 40
52.60924050521431
 40
58.46889873474117
 40
61.39961580462718
 40
64.3307164339991
 40
67.26188709626257
 40
67.99463745970205
 40
68.72736871185101
 40
69.46006464945697
 40
70.192677557325
 40
70.92522637029062
 40
71.65766554636134
 40
72.38986921751011
 40
73.12154096573981
 40
73.85284092927583
 40
74.58380294677747
 40
76.04479523316759
 40
78.96357029080804
 40
81.87875183536413
 40
84.79115651375291
 40
87.70151606648814
 40
90.61036732559818
 40
92.064314958274
 40
93.51784755774796
 40
93.51784755774796
 40
93.51784755774796
 40
93.51784755774796
 10
297.6964792791093
 20
-91.98768924850137
 30
0.0
 10
297.7132695593971
 20
-91.5341932619175
 30
0.0
 10
297.7468534308978
 20
-90.62711767457526
 30
0.0
 10
297.828332860788
 20
-88.80429490566601
 30
0.0
 10
297.9623366853019
 20
-86.50744246218062
 30
0.0
 10
298.1795345258884
 20
-83.7223897575546
 30
0.0
 10
298.4426192126336
 20
-80.91501843901139
 30
0.0
 10
298.6878544480458
 20
-78.56369190120685
 30
0.0
 10
298.8927923751166
 20
-76.67838018187788
 30
0.0
 10
299.0989326441348
 20
-74.79135359045566
 30
0.0
 10
299.3517675966746
 20
-72.43273704618136
 30
0.0
 10
299.7556866221879
 20
-68.65796120583255
 30
0.0
 10
300.2536208750051
 20
-63.941159603336
 30
0.0
 10
300.8507871982392
 20
-58.28182486724594
 30
0.0
 10
301.4526215614977
 20
-52.62054428548586
 30
0.0
 10
302.0658879931931
 20
-46.95433230635584
 30
0.0
 10
302.6972938277789
 20
-41.28034644942434
 30
0.0
 10
303.2436733817436
 20
-36.54424675321107
 30
0.0
 10
303.6963798425785
 20
-32.75005012087425
 30
0.0
 10
304.0443020891984
 20
-29.90193178735493
 30
0.0
 10
304.3120797313915
 20
-27.76467201090975
 30
0.0
 10
304.4937348955547
 20
-26.33953850565752
 30
0.0
 10
304.5851682777611
 20
-25.62699324134914
 30
0.0
 10
304.6772233390668
 20
-24.91447836117433
 30
0.0
 10
304.7699260360165
 20
-24.20194052740817
 30
0.0
 10
304.8632760085441
 20
-23.4894899655776
 30
0.0
 10
304.9572759457269
 20
-22.77712276672335
 30
0.0
 10
305.0519154646504
 20
-22.06497484887859
 30
0.0
 10
305.1472612089465
 20
-21.35263161242244
 30
0.0
 10
305.2432657657687
 20
-20.64052117438399
 30
0.0
 10
305.372177188978
 20
-19.6914053024002
 30
0.0
 10
305.6000688264497
 20
-18.03148614990812
 30
0.0
 10
305.9342256438687
 20
-15.66069953750036
 30
0.0
 10
306.3435515684781
 20
-12.8177049395544
 30
0.0
 10
306.77897274344
 20
-9.974639585834638
 30
0.0
 10
307.2436498790702
 20
-7.131605217966808
 30
0.0
 10
307.6550871613372
 20
-4.762683441078366
 30
0.0
 10
307.9960806978539
 20
-2.868306029785089
 30
0.0
 10
308.1699771721404
 20
-1.921459560633622
 30
0.0
 10
308.2569130506171
 20
-1.448103907491003
 30
0.0
  0
SPLINE
  5
18C
330
17C
100
AcDbEntity
  8
0
  6
Continuous
 62
     0
370
     0
100
AcDbSpline
210
0.0
220
0.0
230
1.0
 70
     8
 71
     3
 72
    14
 73
    10
 74
     0
 42
0.000000001
 43
0.0
 40
0.0
 40
0.0
 40
0.0
 40
0.0
 40
4.690236058132168
 40
9.37981662551812
 40
14.07059875637071
 40
18.76087985973197
 40
23.45161344181452
 40
28.14254872602786
 40
32.83347914028615
 40
32.83347914028615
 40
32.83347914028615
 40
32.83347914028615
 10
308.2569137382527
 20
-1.448104073538218
 30
0.0
 10
309.602341102544
 20
-1.77298579640501
 30
0.0
 10
312.2622863329648
 20
-2.77752338537988
 30
0.0
 10
315.9095865827561
 20
-5.256239278777315
 30
0.0
 10
319.0365845516315
 20
-8.571993283071407
 30
0.0
 10
321.4844773660103
 20
-12.54561830407434
 30
0.0
 10
323.1396578921954
 20
-16.97065298277317
 30
0.0
 10
323.9270644937998
 20
-21.62105856136617
 30
0.0
 10
323.8543674190231
 20
-24.73106653092196
 30
0.0
 10
323.6674986749397
 20
-26.24102804475655
 30
0.0
  0
SPLINE
  5
18D
330
17C
100
AcDbEntity
  8
0
  6
Continuous
 62
     0
370
     0
100
AcDbSpline
210
0.0
220
0.0
230
1.0
 70
     8
 71
     7
 72
    16
 73
     8
 74
     0
 42
0.000000001
 43
0.0
 40
0.0
 40
0.0
 40
0.0
 40
0.0
 40
0.0
 40
0.0
 40
0.0
 40
0.0
 40
1.0
 40
1.0
 40
1.0
 40
1.0
 40
1.0
 40
1.0
 40
1.0
 40
1.0
 10
311.7901293235133
 20
-80.04771685955467
 30
0.0
 10
312.0753184238654
 20
-80.13873149613892
 30
0.0
 10
312.3870122569322
 20
-80.21588429788912
 30
0.0
 10
312.7062128797363
 20
-80.27311327665745
 30
0.0
 10
313.0112670669854
 20
-80.30573227164905
 30
0.0
 10
313.2810565864182
 20
-80.31148314138886
 30
0.0
 10
313.4989999903102
 20
-80.29096366939407
 30
0.0
 10
313.6547217500356
 20
-80.24709498175193
 30
0.0
  0
SPLINE
  5
18E
330
17C
100
AcDbEntity
  8
0
  6
Continuous
 62
     0
370
     0
100
AcDbSpline
210
0.0
220
0.0
230
1.0
 70
     8
 71
     3
 72
    11
 73
     7
 74
     0
 42
0.000000001
 43
0.0
 40
0.000713662845324
 40
0.000713662845324
 40
0.000713662845324
 40
0.000713662845324
 40
0.5084500319120784
 40
1.016900063497111
 40
1.525350094755094
 40
2.033800125686031
 40
2.033800125686031
 40
2.033800125686031
 40
2.033800125686031
 10
308.2569137020597
 20
-1.448104074182709
 30
0.0
 10
308.2859597764928
 20
-1.290778094973177
 30
0.0
 10
308.3686964651453
 20
-0.9734894563319472
 30
0.0
 10
308.5533072712507
 20
-0.5443497602523166
 30
0.0
 10
308.7807552873323
 20
-0.2015423944052088
 30
0.0
 10
308.9468915405549
 20
-0.0527603121153959
 30
0.0
 10
309.028855492236
 20
-0.0023167414570651
 30
0.0
  0
SPLINE
  5
18F
330
17C
100
AcDbEntity
  8
0
  6
Continuous
 62
     0
370
     0
100
AcDbSpline
210
0.0
220
0.0
230
1.0
 70
     8
 71
     3
 72
    11
 73
     7
 74
     0
 42
0.000000001
 43
0.0
 40
0.0019290809839787
 40
0.0019290809839787
 40
0.0019290809839787
 40
0.0019290809839787
 40
0.5463209375278026
 40
1.092641876796971
 40
1.638962817807508
 40
2.185283760559417
 40
2.185283760559417
 40
2.185283760559417
 40
2.185283760559417
 10
297.6964679299283
 20
-91.98768655256407
 30
0.0
 10
297.6903263151115
 20
-92.15723844513937
 30
0.0
 10
297.7109645233328
 20
-92.48110452697219
 30
0.0
 10
297.8377683577457
 20
-92.84839320424226
 30
0.0
 10
298.0445603853373
 20
-93.05458753076823
 30
0.0
 10
298.2196703246163
 20
-93.06648951503209
 30
0.0
 10
298.3101138895958
 20
-93.04100970674443
 30
0.0
  0
SPLINE
  5
190
330
17C
100
AcDbEntity
  8
0
  6
Continuous
 62
     0
370
     0
100
AcDbSpline
210
0.0
220
0.0
230
1.0
 70
     8
 71
     3
 72
     8
 73
     4
 74
     0
 42
0.000000001
 43
0.0
 40
0.0
 40
0.0
 40
0.0
 40
0.0
 40
3.653222443064017
 40
3.653222443064017
 40
3.653222443064017
 40
3.653222443064017
 10
288.0683966809445
 20
-17.6448748605228
 30
0.0
 10
287.9426388267357
 20
-18.82558351845242
 30
0.0
 10
288.0253145396441
 20
-20.04417206124054
 30
0.0
 10
288.005827050428
 20
-21.24379247544249
 30
0.0
  0
LINE
  5
191
330
17C
100
AcDbEntity
  8
0
  6
Continuous
 62
     0
370
     0
100
AcDbLine
 10
288.005827
 20
-21.243792
 30
0.0
 11
287.084669
 21
-74.082053
 31
0.0
  0
SPLINE
  5
192
330
17C
100
AcDbEntity
  8
0
  6
Continuous
 62
     0
370
     0
100
AcDbSpline
210
0.0
220
0.0
230
1.0
 70
     8
 71
     3
 72
    14
 73
    10
 74
     0
 42
0.000000001
 43
0.0
 40
0.0
 40
0.0
 40
0.0
 40
0.0
 40
4.690236058045281
 40
9.379816625478345
 40
14.07059875641934
 40
18.76087985972482
 40
23.45161344182408
 40
28.14254872603607
 40
32.83347914028536
 40
32.83347914028536
 40
32.83347914028536
 40
32.83347914028536
 10
308.2569137384004
 20
-1.44810407357383
 30
0.0
 10
306.9114870223372
 20
-1.123222387378235
 30
0.0
 10
304.1695380031974
 20
-0.8233588018075295
 30
0.0
 10
300.1596282203656
 20
-1.453080009460649
 30
0.0
 10
296.4521590138783
 20
-3.118507924491581
 30
0.0
 10
293.2373372129284
 20
-5.724751198716064
 30
0.0
 10
290.6687963981938
 20
-9.129879373535744
 30
0.0
 10
288.8726276137094
 20
-13.15642624398018
 30
0.0
 10
288.2298764025696
 20
-16.12878263230266
 30
0.0
 10
288.0683966809452
 20
-17.64487486051223
 30
0.0
  0
SPLINE
  5
193
330
17C
100
AcDbEntity
  8
0
  6
Continuous
 62
     0
370
     0
100
AcDbSpline
210
0.0
220
0.0
230
1.0
 70
     8
 71
     7
 72
    16
 73
     8
 74
     0
 42
0.000000001
 43
0.0
 40
0.0
 40
0.0
 40
0.0
 40
0.0
 40
0.0
 40
0.0
 40
0.0
 40
0.0
 40
0.6470836243970153
 40
0.6470836243970153
 40
0.6470836243970153
 40
0.6470836243970153
 40
0.6470836243970153
 40
0.6470836243970153
 40
0.6470836243970153
 40
0.6470836243970153
 10
288.0684314673146
 20
-17.64486872634177
 30
0.0
 10
287.911752610006
 20
-17.59832215844195
 30
0.0
 10
287.7744222443057
 20
-17.54851565383134
 30
0.0
 10
287.6608118873564
 20
-17.49674816918064
 30
0.0
 10
287.5744879981007
 20
-17.44445536284359
 30
0.0
 10
287.5178924796348
 20
-17.3931184063856
 30
0.0
 10
287.4921723783839
 20
-17.34415455853464
 30
0.0
 10
287.4971880474054
 20
-17.29882878790342
 30
0.0
  0
LINE
  5
194
330
17C
100
AcDbEntity
  8
0
  6
Continuous
 62
     0
370
     0
100
AcDbLine
 10
326.450764
 20
-28.816858
 30
0.0
 11
326.451436
 21
-28.789606
 31
0.0
  0
ARC
  5
195
330
17C
100
AcDbEntity
  8
0
  6
Continuous
 62
     0
370
     0
100
AcDbCircle
 10
324.754198
 20
-21.352265
 30
0.0
 40
5.008071542047242
100
AcDbArc
 50
257.46795
 51
279.222489
  0
LINE
  5
196
330
17C
100
AcDbEntity
  8
0
  6
Continuous
 62
     0
370
     0
100
AcDbLine
 10
326.451436
 20
-28.789606
 30
0.0
 11
326.455679
 21
-28.434359
 31
0.0
  0
ARC
  5
197
330
17C
100
AcDbEntity
  8
0
  6
Continuous
 62
     0
370
     0
100
AcDbCircle
 10
310.360337
 20
-28.455429
 30
0.0
 40
16.09535637188487
100
AcDbArc
 50
0.075004
 51
8.863859
  0
LINE
  5
198
330
17C
100
AcDbEntity
  8
0
  6
Continuous
 62
     0
370
     0
100
AcDbLine
 10
326.26347
 20
-25.975341
 30
0.0
 11
325.556835
 21
-26.2956
 31
0.0
  0
ARC
  5
199
330
17C
100
AcDbEntity
  8
0
  6
Continuous
 62
     0
370
     0
100
AcDbCircle
 10
324.044103
 20
-24.922758
 30
0.0
 40
4.882966257675911
100
AcDbArc
 50
256.571342
 51
278.848973
  0
SPLINE
  5
19A
330
17C
100
AcDbEntity
  8
0
  6
Continuous
 62
     0
370
     0
100
AcDbSpline
210
0.0
220
0.0
230
1.0
 70
     8
 71
     3
 72
    14
 73
    10
 74
     0
 42
0.000000001
 43
0.0
 40
0.0
 40
0.0
 40
0.0
 40
0.0
 40
3.357659727039332
 40
6.71416833314014
 40
10.06786817318082
 40
13.41762334460882
 40
16.76451129115895
 40
20.11429153093615
 40
23.46810869271241
 40
23.46810869271241
 40
23.46810869271241
 40
23.46810869271241
 10
287.0846475609183
 20
-74.08205778206906
 30
0.0
 10
287.068720694725
 20
-75.18482691259445
 30
0.0
 10
287.1227972773456
 20
-77.40246723393318
 30
0.0
 10
287.5556627371615
 20
-80.72814616727698
 30
0.0
 10
288.4578664046492
 20
-83.97907523445406
 30
0.0
 10
289.9742560621361
 20
-86.9859887293922
 30
0.0
 10
292.1647641017676
 20
-89.4390912674971
 30
0.0
 10
294.8250350956434
 20
-91.11257897525962
 30
0.0
 10
296.7343408006084
 20
-91.75542868038681
 30
0.0
 10
297.6964905180906
 20
-91.98769200695008
 30
0.0
  0
LINE
  5
19B
330
17C
100
AcDbEntity
  8
0
  6
Continuous
 62
     0
370
     0
100
AcDbLine
 10
325.541782
 20
-29.297906
 30
0.0
 11
324.795246
 21
-29.747602
 31
0.0
  0
SPLINE
  5
19C
330
17C
100
AcDbEntity
  8
0
  6
Continuous
 62
     0
370
     0
100
AcDbSpline
210
0.0
220
0.0
230
1.0
 70
     8
 71
     7
 72
    16
 73
     8
 74
     0
 42
0.000000001
 43
0.0
 40
0.3676990364608658
 40
0.3676990364608658
 40
0.3676990364608658
 40
0.3676990364608658
 40
0.3676990364608658
 40
0.3676990364608658
 40
0.3676990364608658
 40
0.3676990364608658
 40
1.0
 40
1.0
 40
1.0
 40
1.0
 40
1.0
 40
1.0
 40
1.0
 40
1.0
 10
287.433160761731
 20
-20.92184754992075
 30
0.0
 10
287.4324007673962
 20
-20.96499648497599
 30
0.0
 10
287.4610298837712
 20
-21.0112241073835
 30
0.0
 10
287.5190730700018
 20
-21.05933076596848
 30
0.0
 10
287.6053666548931
 20
-21.10798823909868
 30
0.0
 10
287.7175815175304
 20
-21.15582200843514
 30
0.0
 10
287.8523857508876
 20
-21.20150002608559
 30
0.0
 10
288.00569822216
 20
-21.24381775703822
 30
0.0
  0
SPLINE
  5
19D
330
17C
100
AcDbEntity
  8
0
  6
Continuous
 62
     0
370
     0
100
AcDbSpline
210
0.0
220
0.0
230
1.0
 70
     8
 71
     7
 72
    36
 73
    28
 74
     0
 42
0.000000001
 43
0.0
 40
0.0
 40
0.0
 40
0.0
 40
0.0
 40
0.0
 40
0.0
 40
0.0
 40
0.0
 40
0.11
 40
0.11
 40
0.11
 40
0.11
 40
0.11
 40
0.55
 40
0.55
 40
0.55
 40
0.55
 40
0.55
 40
0.65
 40
0.65
 40
0.65
 40
0.65
 40
0.65
 40
0.77
 40
0.77
 40
0.77
 40
0.77
 40
0.77
 40
1.0
 40
1.0
 40
1.0
 40
1.0
 40
1.0
 40
1.0
 40
1.0
 40
1.0
 10
313.6547274393895
 20
-80.24709337896925
 30
0.0
 10
313.5709761733474
 20
-80.6219807155558
 30
0.0
 10
313.4831034792209
 20
-80.995321462437
 30
0.0
 10
313.3908913517804
 20
-81.36695996886473
 30
0.0
 10
313.2942914100883
 20
-81.73679349831232
 30
0.0
 10
313.1930402945576
 20
-82.10462536206501
 30
0.0
 10
312.662757455252
 20
-83.93290639626977
 30
0.0
 10
312.0076477755882
 20
-85.70169019847759
 30
0.0
 10
311.3909582023771
 20
-87.06550755651236
 30
0.0
 10
310.6687243590628
 20
-88.35768699671684
 30
0.0
 10
309.82031444271
 20
-89.55269799541463
 30
0.0
 10
308.6117433125386
 20
-90.83161749509188
 30
0.0
 10
307.2238979553742
 20
-91.82611776200659
 30
0.0
 10
306.9609273163036
 20
-92.0000926983453
 30
0.0
 10
306.6922335838086
 20
-92.16343948933746
 30
0.0
 10
306.4181810433854
 20
-92.31595705374923
 30
0.0
 10
305.8041727092158
 20
-92.62689117321281
 30
0.0
 10
305.1677647893231
 20
-92.8831573135661
 30
0.0
 10
304.8146784424422
 20
-93.00647689710388
 30
0.0
 10
304.4563267164033
 20
-93.11308093052986
 30
0.0
 10
304.09356368145
 20
-93.20331529414591
 30
0.0
 10
303.0246976743921
 20
-93.41917621678078
 30
0.0
 10
301.9303868795007
 20
-93.50106181997938
 30
0.0
 10
301.2051533540536
 20
-93.50000863112788
 30
0.0
 10
300.4782078083402
 20
-93.44803765319946
 30
0.0
 10
299.752069423439
 20
-93.35205992560876
 30
0.0
 10
299.0289845993597
 20
-93.21459618470104
 30
0.0
 10
298.3101138895958
 20
-93.04100970674443
 30
0.0
  0
SPLINE
  5
19E
330
17C
100
AcDbEntity
  8
0
  6
Continuous
 62
     0
370
    30
100
AcDbSpline
210
0.0
220
0.0
230
1.0
 70
    12
 71
     2
 72
     6
 73
     3
 74
     0
 42
0.000000001
 43
0.0
 40
0.7524381832684824
 40
0.7524381832684824
 40
0.7524381832684824
 40
0.8911194871630984
 40
0.8911194871630984
 40
0.8911194871630984
 10
339.35973243899
 20
-17.92781931003975
 30
0.0
 41
0.9943426987825532
 10
339.0199895112636
 20
-27.47099012995284
 30
0.0
 41
0.8350366004005335
 10
331.9631914144787
 20
-31.80985307303605
 30
0.0
 41
0.8559887425631902
  0
SPLINE
  5
19F
330
17C
100
AcDbEntity
  8
0
  6
Continuous
 62
     0
370
    30
100
AcDbSpline
210
0.0
220
0.0
230
1.0
 70
     8
 71
     3
 72
    13
 73
     9
 74
     0
 42
0.000000001
 43
0.0
 40
17.01267970003156
 40
17.01267970003156
 40
17.01267970003156
 40
17.01267970003156
 40
18.36188666089488
 40
27.52979576487101
 40
36.69302645961226
 40
45.86094439878418
 40
55.03829037776859
 40
64.2228085122743
 40
64.2228085122743
 40
64.2228085122743
 40
64.2228085122743
 10
305.9326222883741
 20
3.820314993752609
 30
0.0
 10
306.1805826296079
 20
3.976235758980273
 30
0.0
 10
308.1872867349455
 20
5.114890427111459
 30
0.0
 10
312.9932670271491
 20
6.076501261310625
 30
0.0
 10
321.1529452666838
 20
4.106167710488506
 30
0.0
 10
329.1310144979482
 20
-0.7865081625554069
 30
0.0
 10
335.5000745805073
 20
-7.526515045685244
 30
0.0
 10
338.1160632807498
 20
-12.49966273700323
 30
0.0
 10
338.9355007495946
 20
-14.90160311977795
 30
0.0
  0
SPLINE
  5
1A0
330
17C
100
AcDbEntity
  8
0
  6
Continuous
 62
     0
370
     0
100
AcDbSpline
210
0.0
220
0.0
230
1.0
 70
     8
 71
     3
 72
    10
 73
     6
 74
     0
 42
0.000000001
 43
0.0
 40
0.7987875754074253
 40
0.7987875754074253
 40
0.7987875754074253
 40
0.7987875754074253
 40
1.092641883762446
 40
1.638962823031614
 40
2.183354679579053
 40
2.183354679579053
 40
2.183354679579053
 40
2.183354679579053
 10
286.5046738845605
 20
-73.86774190938337
 30
0.0
 10
286.5044413693109
 20
-73.88443226626626
 30
0.0
 10
286.5304673728159
 20
-73.9325290979269
 30
0.0
 10
286.6980353308963
 20
-74.0095932716532
 30
0.0
 10
286.9432004460731
 20
-74.06072128948135
 30
0.0
 10
287.0846475609169
 20
-74.08205778206889
 30
0.0
  0
ELLIPSE
  5
1A1
330
17C
100
AcDbEntity
  8
0
  6
Continuous
 62
     0
370
     0
100
AcDbEllipse
 10
322.003286
 20
-12.114368
 30
0.0
 11
11.37360357578276
 21
-18.48056118468666
 31
0.0
210
0.0
220
0.0
230
1.0
 40
0.801831
 41
0.0765853446944469
 42
2.462581928930894
  0
ELLIPSE
  5
1A2
330
17C
100
AcDbEntity
  8
0
  6
Continuous
 62
     0
370
     0
100
AcDbEllipse
 10
322.003286
 20
-12.114368
 30
0.0
 11
11.37360357578276
 21
-18.48056118468666
 31
0.0
210
0.0
220
0.0
230
1.0
 40
0.801831
 41
2.462581928930894
 42
3.267176189675369
  0
ELLIPSE
  5
1A3
330
17C
100
AcDbEntity
  8
0
  6
Continuous
 62
     0
370
     0
100
AcDbEllipse
 10
322.257735
 20
-11.957771
 30
0.0
 11
11.6356681743031
 21
-18.90638056682229
 31
0.0
210
0.0
220
0.0
230
1.0
 40
0.801831
 41
6.146756229124919
 42
8.745767236110483
  0
ELLIPSE
  5
1A4
330
17C
100
AcDbEntity
  8
0
  6
Continuous
 62
     0
370
     0
100
AcDbEllipse
 10
322.257735
 20
-11.957771
 30
0.0
 11
11.6356681743031
 21
-18.90638056682229
 31
0.0
210
0.0
220
0.0
230
1.0
 40
0.801831
 41
2.462581928930896
 42
3.33721242659671
  0
ELLIPSE
  5
1A5
330
17C
100
AcDbEntity
  8
0
  6
Continuous
 62
     0
370
    30
100
AcDbEllipse
 10
327.190533
 20
-8.921949
 30
0.0
 11
11.63566817430309
 21
-18.90638056682229
 31
0.0
210
0.0
220
0.0
230
1.0
 40
0.801831
 41
-0.0000000125541399
 42
2.462581928930895
  0
ELLIPSE
  5
1A6
330
17C
100
AcDbEntity
  8
0
  6
Continuous
 62
     0
370
    30
100
AcDbEllipse
 10
327.190533
 20
-8.921949
 30
0.0
 11
11.63566817430309
 21
-18.90638056682229
 31
0.0
210
0.0
220
0.0
230
1.0
 40
0.801831
 41
2.462581928930895
 42
3.141592641035654
  0
ELLIPSE
  5
1A7
330
17C
100
AcDbEntity
  8
0
  6
Continuous
 62
     0
370
    30
100
AcDbEllipse
 10
329.735023
 20
-7.355978
 30
0.0
 11
19.65484488902538
 21
-31.9364536601726
 31
0.0
210
0.0
220
0.0
230
1.0
 40
0.801831
 41
-0.0000000125541399
 42
2.462581928930894
  0
ELLIPSE
  5
1A8
330
17C
100
AcDbEntity
  8
0
  6
Continuous
 62
     0
370
    30
100
AcDbEllipse
 10
329.735023
 20
-7.355978
 30
0.0
 11
19.65484488902538
 21
-31.9364536601726
 31
0.0
210
0.0
220
0.0
230
1.0
 40
0.801831
 41
2.462581928930894
 42
3.141592641035653
  0
ELLIPSE
  5
1A9
330
17C
100
AcDbEntity
  8
0
  6
Continuous
 62
     0
370
     0
100
AcDbEllipse
 10
327.444982
 20
-8.765352
 30
0.0
 11
19.65484488902539
 21
-31.9364536601726
 31
0.0
210
0.0
220
0.0
230
1.0
 40
0.801831
 41
-0.0000000125542394
 42
2.462581928930896
  0
ELLIPSE
  5
1AA
330
17C
100
AcDbEntity
  8
0
  6
Continuous
 62
     0
370
     0
100
AcDbEllipse
 10
327.444982
 20
-8.765352
 30
0.0
 11
19.65484488902539
 21
-31.9364536601726
 31
0.0
210
0.0
220
0.0
230
1.0
 40
0.801831
 41
2.462581928930896
 42
3.141592850946988
  0
ELLIPSE
  5
1AB
330
17C
100
AcDbEntity
  8
0
  6
Continuous
 62
     0
370
     0
100
AcDbEllipse
 10
327.190533
 20
-8.921949
 30
0.0
 11
19.39278029050505
 21
-31.51063427803697
 31
0.0
210
0.0
220
0.0
230
1.0
 40
0.801831
 41
5.478728472479856
 42
8.745767236110481
  0
ELLIPSE
  5
1AC
330
17C
100
AcDbEntity
  8
0
  6
Continuous
 62
     0
370
     0
100
AcDbEllipse
 10
327.190533
 20
-8.921949
 30
0.0
 11
19.39278029050505
 21
-31.51063427803697
 31
0.0
210
0.0
220
0.0
230
1.0
 40
0.801831
 41
2.462581928930895
 42
4.078141294934159
  0
SPLINE
  5
1AD
330
17C
100
AcDbEntity
  8
0
  6
Continuous
 62
     0
370
     0
100
AcDbSpline
210
0.0
220
0.0
230
1.0
 70
     8
 71
     3
 72
    11
 73
     7
 74
     0
 42
0.000000001
 43
0.0
 40
14.91425004863756
 40
14.91425004863756
 40
14.91425004863756
 40
14.91425004863756
 40
17.19424577388073
 40
21.49528228660444
 40
25.79568956828146
 40
30.09423660445392
 40
30.09423660445392
 40
30.09423660445392
 40
30.09423660445392
 10
323.5937967233097
 20
-36.87420457552294
 30
0.0
 10
323.8776326762969
 20
-36.63284852326642
 30
0.0
 10
324.6292888906715
 20
-35.86734885534534
 30
0.0
 10
325.5649321505321
 20
-34.27713321896724
 30
0.0
 10
326.2397215281422
 20
-31.87487749694569
 30
0.0
 10
326.4208019649287
 20
-29.89927065961425
 30
0.0
 10
326.450763662715
 20
-28.81685812955283
 30
0.0
  0
SPLINE
  5
1AE
330
17C
100
AcDbEntity
  8
0
  6
Continuous
 62
     0
370
    30
100
AcDbSpline
210
0.0
220
0.0
230
1.0
 70
     8
 71
     3
 72
    14
 73
    10
 74
     0
 42
0.000000001
 43
0.0
 40
82.19921383720347
 40
82.19921383720347
 40
82.19921383720347
 40
82.19921383720347
 40
88.95301742910569
 40
94.15360772814032
 40
98.41333912555764
 40
103.9030969512969
 40
107.4631191714917
 40
113.9407472085831
 40
117.6428424833742
 40
117.6428424833742
 40
117.6428424833742
 40
117.6428424833742
 10
295.1087182654617
 20
-2.955694533288163
 30
0.0
 10
295.0512118719595
 20
-0.8439667118710605
 30
0.0
 10
295.2594394342104
 20
2.838978436047811
 30
0.0
 10
296.2811032317751
 20
7.55957775502219
 30
0.0
 10
297.7458461361649
 20
11.63600283791243
 30
0.0
 10
299.5113281553262
 20
14.95757680392396
 30
0.0
 10
302.0350350274438
 20
18.43051265464416
 30
0.0
 10
304.6951907174052
 20
21.06821657954913
 30
0.0
 10
306.941601479619
 20
22.6488822687858
 30
0.0
 10
307.7901375254964
 20
23.17110192289732
 30
0.0
  0
SPLINE
  5
1AF
330
17C
100
AcDbEntity
  8
0
  6
Continuous
 62
     0
370
    30
100
AcDbSpline
210
0.0
220
0.0
230
1.0
 70
     8
 71
     3
 72
    13
 73
     9
 74
     0
 42
0.000000001
 43
0.0
 40
0.0
 40
0.0
 40
0.0
 40
0.0
 40
4.031770060693493
 40
11.22617516426154
 40
14.10881871873014
 40
18.59890961032196
 40
27.07124201163729
 40
30.30850804344989
 40
30.30850804344989
 40
30.30850804344989
 40
30.30850804344989
 10
347.0998266606859
 20
-40.70180579308789
 30
0.0
 10
346.1757941192956
 20
-41.27048871055671
 30
0.0
 10
343.4945368536095
 20
-42.68264952490144
 30
0.0
 10
339.8095113482956
 20
-43.82172098106246
 30
0.0
 10
335.8106647356341
 20
-44.37999330016549
 30
0.0
 10
331.3407586708852
 20
-44.4925376186902
 30
0.0
 10
326.6495387111875
 20
-43.71414582252591
 30
0.0
 10
323.2981328747218
 20
-42.58936179077368
 30
0.0
 10
322.3780207534124
 20
-42.23681753027842
 30
0.0
  0
LINE
  5
1B0
330
17C
100
AcDbEntity
  8
0
  6
Continuous
 62
     0
370
    30
100
AcDbLine
 10
307.790138
 20
23.171102
 30
0.0
 11
310.080179
 21
24.580476
 31
0.0
  0
LINE
  5
1B1
330
17C
100
AcDbEntity
  8
0
  6
Continuous
 62
     0
370
    30
100
AcDbLine
 10
347.099827
 20
-40.701806
 30
0.0
 11
349.389868
 21
-39.292432
 31
0.0
  0
LINE
  5
1B2
330
17C
100
AcDbEntity
  8
0
  6
Continuous
 62
     0
370
    30
100
AcDbLine
 10
310.622067
 20
6.94861
 30
0.0
 11
315.554865
 21
9.984432
 31
0.0
  0
LINE
  5
1B3
330
17C
100
AcDbEntity
  8
0
  6
Continuous
 62
     0
370
    30
100
AcDbLine
 10
333.893403
 20
-30.864152
 30
0.0
 11
338.826201
 21
-27.82833
 31
0.0
  0
SPLINE
  5
1B4
330
17C
100
AcDbEntity
  8
0
  6
Continuous
 62
     0
370
    30
100
AcDbSpline
210
0.0
220
0.0
230
1.0
 70
     8
 71
     3
 72
    10
 73
     6
 74
     0
 42
0.000000001
 43
0.0
 40
65.27315996065029
 40
65.27315996065029
 40
65.27315996065029
 40
65.27315996065029
 40
66.07643812542445
 40
68.30448024032322
 40
69.57773572905188
 40
69.57773572905188
 40
69.57773572905188
 40
69.57773572905188
 10
307.8864423790397
 20
4.770571637931539
 30
0.0
 10
308.0405593440498
 20
4.926755942625915
 30
0.0
 10
308.6341763881692
 20
5.502262723947661
 30
0.0
 10
309.5397205149863
 20
6.242696858684184
 30
0.0
 10
310.3287579631918
 20
6.768096872123607
 30
0.0
 10
310.6220649614779
 20
6.94860862349546
 30
0.0
  0
SPLINE
  5
1B5
330
17C
100
AcDbEntity
  8
0
  6
Continuous
 62
     0
370
    30
100
AcDbSpline
210
0.0
220
0.0
230
1.0
 70
     8
 71
     3
 72
     9
 73
     5
 74
     0
 42
0.000000001
 43
0.0
 40
0.0
 40
0.0
 40
0.0
 40
0.0
 40
1.373698910625508
 40
3.010780027326037
 40
3.010780027326037
 40
3.010780027326037
 40
3.010780027326037
 10
333.8934026695456
 20
-30.86415167348738
 30
0.0
 10
333.5769643397688
 20
-31.0588992224601
 30
0.0
 10
332.8666903739182
 20
-31.45910039208993
 30
0.0
 10
332.123416504255
 20
-31.79892737483997
 30
0.0
 10
331.7106374917943
 20
-31.96528532488206
 30
0.0
  0
LINE
  5
1B6
330
17C
100
AcDbEntity
  8
0
  6
Continuous
 62
     0
370
    30
100
AcDbLine
 10
296.614224
 20
-1.914563
 30
0.0
 11
306.013315
 21
3.869976
 31
0.0
  0
LINE
  5
1B7
330
17C
100
AcDbEntity
  8
0
  6
Continuous
 62
     0
370
    30
100
AcDbLine
 10
331.968324
 20
-31.806696
 30
0.0
 11
323.570562
 21
-36.974981
 31
0.0
  0
SPLINE
  5
1B8
330
17C
100
AcDbEntity
  8
0
  6
Continuous
 62
     0
370
    30
100
AcDbSpline
210
0.0
220
0.0
230
1.0
 70
     8
 71
     3
 72
    11
 73
     7
 74
     0
 42
0.000000001
 43
0.0
 40
0.0
 40
0.0
 40
0.0
 40
0.0
 40
4.030453696688164
 40
9.149023865279142
 40
15.50432314161863
 40
19.92478375994855
 40
19.92478375994855
 40
19.92478375994855
 40
19.92478375994855
 10
296.6146625634412
 20
-1.914362992986469
 30
0.0
 10
295.6041648008389
 20
-2.536259819463424
 30
0.0
 10
293.4383413663064
 20
-4.201109782038174
 30
0.0
 10
290.4257678782719
 20
-7.856403525802733
 30
0.0
 10
288.3445970279129
 20
-12.43702905920699
 30
0.0
 10
287.6543468754683
 20
-15.8679750742526
 30
0.0
 10
287.4972101294699
 20
-17.29882730467838
 30
0.0
  0
SPLINE
  5
1B9
330
17C
100
AcDbEntity
  8
0
  6
Continuous
 62
     0
370
    30
100
AcDbSpline
210
0.0
220
0.0
230
1.0
 70
     8
 71
     3
 72
    11
 73
     7
 74
     0
 42
0.000000001
 43
0.0
 40
0.0
 40
0.0
 40
0.0
 40
0.0
 40
2.024059768080902
 40
2.924440655162005
 40
3.374286818815309
 40
3.674373387533169
 40
3.674373387533169
 40
3.674373387533169
 40
3.674373387533169
 10
287.433160724709
 20
-20.9218475469882
 30
0.0
 10
287.4448883585477
 20
-20.25604127883031
 30
0.0
 10
287.4164062053723
 20
-19.29421913104153
 30
0.0
 10
287.4286920801806
 20
-18.18362994177795
 30
0.0
 10
287.4611537259636
 20
-17.64286383537888
 30
0.0
 10
287.4865348303676
 20
-17.3957918550465
 30
0.0
 10
287.4971813443085
 20
-17.2988895795975
 30
0.0
  0
LINE
  5
1BA
330
17C
100
AcDbEntity
  8
0
  6
Continuous
 62
     0
370
    30
100
AcDbLine
 10
286.504647
 20
-73.867732
 30
0.0
 11
287.433161
 21
-20.921846
 31
0.0
  0
SPLINE
  5
1BB
330
17C
100
AcDbEntity
  8
0
  6
Continuous
 62
     0
370
    30
100
AcDbSpline
210
0.0
220
0.0
230
1.0
 70
     8
 71
     3
 72
    14
 73
    10
 74
     0
 42
0.000000001
 43
0.0
 40
0.0
 40
0.0
 40
0.0
 40
0.0
 40
2.850761820572659
 40
8.690716090357116
 40
13.30708818413903
 40
15.6085912547385
 40
18.5736599351575
 40
23.51715988536974
 40
25.17945227989332
 40
25.17945227989332
 40
25.17945227989332
 40
25.17945227989332
 10
286.5046717483572
 20
-73.86792095905646
 30
0.0
 10
286.4953703371259
 20
-74.80456090274754
 30
0.0
 10
286.5387383384955
 20
-77.67238619459675
 30
0.0
 10
287.1646135214296
 20
-82.08520673776422
 30
0.0
 10
288.7624081865991
 20
-86.06981779265607
 30
0.0
 10
290.633931797339
 20
-88.7370250490491
 30
0.0
 10
293.0257114709501
 20
-91.0281097844099
 30
0.0
 10
295.7151344836417
 20
-92.38061869820083
 30
0.0
 10
297.6346242553951
 20
-92.93007973513744
 30
0.0
 10
298.1209706612066
 20
-93.04701855184695
 30
0.0
  0
SPLINE
  5
1BC
330
17C
100
AcDbEntity
  8
0
  6
Continuous
 62
     0
370
    30
100
AcDbSpline
210
0.0
220
0.0
230
1.0
 70
     8
 71
     3
 72
     9
 73
     5
 74
     0
 42
0.000000001
 43
0.0
 40
0.0
 40
0.0
 40
0.0
 40
0.0
 40
3.457185639450026
 40
7.204279743315142
 40
7.204279743315142
 40
7.204279743315142
 40
7.204279743315142
 10
298.120310409177
 20
-93.04685912017544
 30
0.0
 10
299.1303522196128
 20
-93.29179316614264
 30
0.0
 10
301.2696768821974
 20
-93.61459868547192
 30
0.0
 10
303.4231295281476
 20
-93.38914514143173
 30
0.0
 10
304.4908627915566
 20
-93.08834156994948
 30
0.0
  0
SPLINE
  5
1BD
330
17C
100
AcDbEntity
  8
0
  6
Continuous
 62
     0
370
    30
100
AcDbSpline
210
0.0
220
0.0
230
1.0
 70
     8
 71
     3
 72
    17
 73
    13
 74
     0
 42
0.000000001
 43
0.0
 40
0.0
 40
0.0
 40
0.0
 40
0.0
 40
1.623121627720939
 40
3.770073888025865
 40
4.589207327640866
 40
6.206534013782635
 40
7.711356822957149
 40
10.35910836859667
 40
12.13692630763863
 40
15.46306501387454
 40
16.58784918831691
 40
18.17673060315409
 40
18.17673060315409
 40
18.17673060315409
 40
18.17673060315409
 10
304.4912625735487
 20
-93.08819133750004
 30
0.0
 10
304.9910426314113
 20
-92.94739294091056
 30
0.0
 10
306.1175215380422
 20
-92.54124374367069
 30
0.0
 10
307.3609851701411
 20
-91.83280278034542
 30
0.0
 10
308.4887318301884
 20
-90.98057611674761
 30
0.0
 10
309.3754213160212
 20
-90.15481849949717
 30
0.0
 10
310.5240495689829
 20
-88.80077549586952
 30
0.0
 10
311.5134885904012
 20
-87.24826742895337
 30
0.0
 10
312.5788564050783
 20
-85.06842867345864
 30
0.0
 10
313.2503653512657
 20
-83.21139887633726
 30
0.0
 10
313.7794263684657
 20
-81.35795646441753
 30
0.0
 10
313.985839767943
 20
-80.51236577918633
 30
0.0
 10
314.0957018697235
 20
-80.01480609918508
 30
0.0
  0
LINE
  5
1BE
330
17C
100
AcDbEntity
  8
0
  6
Continuous
 62
     0
370
    30
100
AcDbLine
 10
314.095702
 20
-80.014804
 30
0.0
 11
320.589116
 21
-50.441159
 31
0.0
  0
SPLINE
  5
1BF
330
17C
100
AcDbEntity
  8
0
  6
Continuous
 62
     0
370
    30
100
AcDbSpline
210
0.0
220
0.0
230
1.0
 70
     8
 71
     3
 72
    20
 73
    16
 74
     0
 42
0.000000001
 43
0.0
 40
0.0
 40
0.0
 40
0.0
 40
0.0
 40
1.054751960938892
 40
2.068942854992768
 40
3.441323983335248
 40
4.810771852291702
 40
7.552418767817618
 40
10.27948274203252
 40
11.62670507476681
 40
12.97504621227272
 40
14.26608601445755
 40
15.56343760327802
 40
16.50753899131893
 40
16.7669132599585
 40
17.00172603003453
 40
17.00172603003453
 40
17.00172603003453
 40
17.00172603003453
 10
320.5886632425454
 20
-50.44302886571426
 30
0.0
 10
320.6784350901947
 20
-50.1134398959231
 30
0.0
 10
320.7805807566568
 20
-49.46298845539378
 30
0.0
 10
321.0286548373376
 20
-48.39234181358764
 30
0.0
 10
321.2718908802531
 20
-47.21977318293815
 30
0.0
 10
321.6480672534403
 20
-45.51191537122602
 30
0.0
 10
322.1193197417589
 20
-43.38346689342278
 30
0.0
 10
322.5972018702094
 20
-41.26279566744839
 30
0.0
 10
322.9788249806475
 20
-39.57374355690578
 30
0.0
 10
323.2608259535511
 20
-38.3303550883787
 30
0.0
 10
323.5412425778793
 20
-37.09843799649406
 30
0.0
 10
323.7981007320051
 20
-35.99186830710934
 30
0.0
 10
323.9894975718006
 20
-35.19101776602082
 30
0.0
 10
324.107440694459
 20
-34.7271199132235
 30
0.0
 10
324.1497806541582
 20
-34.56718463579026
 30
0.0
 10
324.1681064204848
 20
-34.49976557336004
 30
0.0
  0
ENDBLK
  5
1C1
330
17C
100
AcDbEntity
  8
0
100
AcDbBlockEnd
  0
ENDSEC
  0
SECTION
  2
ENTITIES
  0
INSERT
  5
B2
330
1F
100
AcDbEntity
  8
0
  6
Continuous
 62
     7
370
     0
100
AcDbBlockReference
  2
a
 10
115.969902
 20
84.382767
 30
0.0
  0
INSERT
  5
F7
330
1F
100
AcDbEntity
  8
0
  6
Continuous
 62
     7
370
     0
100
AcDbBlockReference
  2
b
 10
10.913475
 20
0.0
 30
0.0
  0
INSERT
  5
13B
330
1F
100
AcDbEntity
  8
0
  6
Continuous
 62
     7
370
     0
100
AcDbBlockReference
  2
c
 10
235.821579
 20
0.0
 30
0.0
  0
INSERT
  5
17B
330
1F
100
AcDbEntity
  8
0
  6
Continuous
 62
     7
370
     0
100
AcDbBlockReference
  2
d
 10
0.0
 20
3.259308
 30
0.0
  0
INSERT
  5
1C2
330
1F
100
AcDbEntity
  8
0
  6
Continuous
 62
     7
370
     0
100
AcDbBlockReference
  2
e
 10
268.304016
 20
-104.845398
 30
0.0
  0
ENDSEC
  0
SECTION
  2
OBJECTS
  0
DICTIONARY
  5
C
330
0
100
AcDbDictionary
281
     1
  3
ACAD_GROUP
350
D
  3
ACAD_LAYOUT
350
1A
  3
ACAD_MATERIAL
350
43
  3
ACAD_MLEADERSTYLE
350
6B
  3
ACAD_MLINESTYLE
350
17
  3
ACAD_PLOTSETTINGS
350
19
  3
ACAD_PLOTSTYLENAME
350
E
  3
ACAD_SCALELIST
350
47
  3
ACAD_TABLESTYLE
350
69
  3
ACAD_VISUALSTYLE
350
2A
  3
AcDbVariableDictionary
350
1C3
  0
DICTIONARY
  5
1CE
330
8
100
AcDbDictionary
280
     1
281
     1
  3
ACAD_XREC_ROUNDTRIP
360
1CF
  0
DICTIONARY
  5
D
102
{ACAD_REACTORS
330
C
102
}
330
C
100
AcDbDictionary
281
     1
  0
DICTIONARY
  5
1A
102
{ACAD_REACTORS
330
C
102
}
330
C
100
AcDbDictionary
281
     1
  3
Layout1
350
1E
  3
Layout2
350
26
  3
Model
350
22
  0
DICTIONARY
  5
43
102
{ACAD_REACTORS
330
C
102
}
330
C
100
AcDbDictionary
281
     1
  3
ByBlock
350
45
  3
ByLayer
350
44
  3
Global
350
46
  0
DICTIONARY
  5
6B
102
{ACAD_REACTORS
330
C
102
}
330
C
100
AcDbDictionary
281
     1
  3
Standard
350
6C
  0
DICTIONARY
  5
17
102
{ACAD_REACTORS
330
C
102
}
330
C
100
AcDbDictionary
281
     1
  3
Standard
350
18
  0
DICTIONARY
  5
19
102
{ACAD_REACTORS
330
C
102
}
330
C
100
AcDbDictionary
281
     1
  0
ACDBDICTIONARYWDFLT
  5
E
102
{ACAD_REACTORS
330
C
102
}
330
C
100
AcDbDictionary
281
     1
  3
Normal
350
F
100
AcDbDictionaryWithDefault
340
F
  0
DICTIONARY
  5
47
102
{ACAD_REACTORS
330
C
102
}
330
C
100
AcDbDictionary
281
     1
  3
A0
350
48
  3
A1
350
49
  3
A2
350
4A
  3
A3
350
4B
  3
A4
350
4C
  3
A5
350
4D
  3
A6
350
4E
  3
A7
350
4F
  3
A8
350
50
  3
A9
350
51
  3
B0
350
52
  3
B1
350
53
  3
B2
350
54
  3
B3
350
55
  3
B4
350
56
  3
B5
350
57
  3
B6
350
58
  3
B7
350
59
  3
B8
350
5A
  3
B9
350
5B
  3
C0
350
5C
  3
C1
350
5D
  3
C2
350
5E
  3
C3
350
5F
  3
C4
350
60
  3
C5
350
61
  3
C6
350
62
  3
C7
350
63
  3
C8
350
64
  3
C9
350
65
  3
D0
350
66
  3
D1
350
67
  3
D2
350
68
  0
DICTIONARY
  5
69
102
{ACAD_REACTORS
330
C
102
}
330
C
100
AcDbDictionary
281
     1
  3
Standard
350
6A
  0
DICTIONARY
  5
2A
102
{ACAD_REACTORS
330
C
102
}
330
C
100
AcDbDictionary
281
     1
  3
2dWireframe
350
2F
  3
Basic
350
32
  3
Brighten
350
36
  3
ColorChange
350
3A
  3
Conceptual
350
34
  3
Dim
350
35
  3
EdgeColorOff
350
3D
  3
Facepattern
350
39
  3
Flat
350
2B
  3
FlatWithEdges
350
2C
  3
Gouraud
350
2D
  3
GouraudWithEdges
350
2E
  3
Hidden
350
31
  3
JitterOff
350
3B
  3
Linepattern
350
38
  3
OverhangOff
350
3C
  3
Realistic
350
33
  3
Shaded
350
42
  3
Shaded with edges
350
41
  3
Shades of Gray
350
3E
  3
Sketchy
350
3F
  3
Thicken
350
37
  3
Wireframe
350
30
  3
X-Ray
350
40
  0
DICTIONARY
  5
1C3
102
{ACAD_REACTORS
330
C
102
}
330
C
100
AcDbDictionary
281
     1
  3
CANNOSCALE
350
1D0
  3
CENTEREXE
350
1CA
  3
CENTERLTYPEFILE
350
1CB
  3
CMLEADERSTYLE
350
1C5
  3
CTABLESTYLE
350
1C4
  3
DIMASSOC
350
1CC
  3
HIDETEXT
350
1CD
  3
MSLTSCALE
350
1D1
  3
PSOLHEIGHT
350
1C7
  3
PSOLWIDTH
350
1C6
  0
XRECORD
  5
1CF
102
{ACAD_REACTORS
330
1CE
102
}
330
1CE
100
AcDbXrecord
280
     1
102
VTR_0.000_0.000_1.000_1.000_VISUALSTYLE
340
2F
102
VTR_0.000_0.000_1.000_1.000_GRIDDISPLAY
 70
     3
102
VTR_0.000_0.000_1.000_1.000_GRIDMAJOR
 70
     5
102
VTR_0.000_0.000_1.000_1.000_DEFAULTLIGHTING
280
     1
102
VTR_0.000_0.000_1.000_1.000_DEFAULTLIGHTINGTYPE
 70
     1
102
VTR_0.000_0.000_1.000_1.000_BRIGHTNESS
141
0.0
102
VTR_0.000_0.000_1.000_1.000_CONTRAST
142
0.0
  0
LAYOUT
  5
1E
102
{ACAD_REACTORS
330
1A
102
}
330
1A
100
AcDbPlotSettings
  1

  2
none_device
  4

  6

 40
0.0
 41
0.0
 42
0.0
 43
0.0
 44
0.0
 45
0.0
 46
0.0
 47
0.0
 48
0.0
 49
0.0
140
0.0
141
0.0
142
1.0
143
1.0
 70
   688
 72
     1
 73
     0
 74
     5
  7

 75
    16
147
1.0
148
0.0
149
0.0
100
AcDbLayout
  1
Layout1
 70
     1
 71
     1
 10
0.0
 20
0.0
 11
420.0
 21
297.0
 12
0.0
 22
0.0
 32
0.0
 14
1.000000E+20
 24
1.000000E+20
 34
1.000000E+20
 15
-1.000000E+20
 25
-1.000000E+20
 35
-1.000000E+20
146
0.0
 13
0.0
 23
0.0
 33
0.0
 16
1.0
 26
0.0
 36
0.0
 17
0.0
 27
1.0
 37
0.0
 76
     0
330
1B
  0
LAYOUT
  5
26
102
{ACAD_REACTORS
330
1A
102
}
330
1A
100
AcDbPlotSettings
  1

  2
none_device
  4

  6

 40
0.0
 41
0.0
 42
0.0
 43
0.0
 44
0.0
 45
0.0
 46
0.0
 47
0.0
 48
0.0
 49
0.0
140
0.0
141
0.0
142
1.0
143
1.0
 70
   688
 72
     1
 73
     0
 74
     5
  7

 75
    16
147
1.0
148
0.0
149
0.0
100
AcDbLayout
  1
Layout2
 70
     1
 71
     2
 10
0.0
 20
0.0
 11
0.0
 21
0.0
 12
0.0
 22
0.0
 32
0.0
 14
0.0
 24
0.0
 34
0.0
 15
0.0
 25
0.0
 35
0.0
146
0.0
 13
0.0
 23
0.0
 33
0.0
 16
1.0
 26
0.0
 36
0.0
 17
0.0
 27
1.0
 37
0.0
 76
     0
330
23
  0
LAYOUT
  5
22
102
{ACAD_REACTORS
330
1A
102
}
330
1A
100
AcDbPlotSettings
  1

  2
none_device
  4
Letter_(8.50_x_11.00_Inches)
  6

 40
6.35
 41
6.35
 42
6.350005
 43
6.350005
 44
215.9
 45
279.4
 46
0.0
 47
0.0
 48
0.0
 49
0.0
140
0.0
141
0.0
142
1.0
143
1.0
 70
  1712
 72
     1
 73
     0
 74
     0
  7

 75
     0
147
1.0
148
0.0
149
0.0
100
AcDbLayout
  1
Model
 70
     1
 71
     0
 10
-68.504013
 20
-111.775398
 11
377.685486
 21
199.43689
 12
0.0
 22
0.0
 32
0.0
 14
-68.504013
 24
-111.775398
 34
0.0
 15
377.685486
 25
199.43689
 35
0.0
146
0.0
 13
0.0
 23
0.0
 33
0.0
 16
1.0
 26
0.0
 36
0.0
 17
0.0
 27
1.0
 37
0.0
 76
     0
330
1F
331
29
  0
MATERIAL
  5
45
102
{ACAD_REACTORS
330
43
102
}
102
{ACAD_XDICTIONARY
360
204
102
}
330
43
100
AcDbMaterial
  1
ByBlock
  0
MATERIAL
  5
44
102
{ACAD_REACTORS
330
43
102
}
102
{ACAD_XDICTIONARY
360
202
102
}
330
43
100
AcDbMaterial
  1
ByLayer
  0
MATERIAL
  5
46
102
{ACAD_REACTORS
330
43
102
}
102
{ACAD_XDICTIONARY
360
206
102
}
330
43
100
AcDbMaterial
  1
Global
  0
MLEADERSTYLE
  5
6C
102
{ACAD_REACTORS
330
6B
102
}
102
{ACAD_XDICTIONARY
360
209
102
}
330
6B
100
AcDbMLeaderStyle
170
     2
171
     1
172
     0
 90
        2
 40
0.0
 41
0.0
173
     1
 91
-1056964608
340
14
 92
       -2
290
     1
 42
2.0
291
     1
 43
8.0
  3
Standard
341
0
 44
4.0
300

342
11
174
     1
178
     6
175
     1
176
     0
 93
-1056964608
 45
4.0
292
     0
297
     0
 46
4.0
343
0
 94
-1056964608
 47
1.0
 49
1.0
140
1.0
293
     1
141
0.0
294
     1
177
     0
142
1.0
295
     0
296
     0
143
3.75
1001
ACAD_MLEADERVER
1070
     2
  0
MLINESTYLE
  5
18
102
{ACAD_REACTORS
330
17
102
}
330
17
100
AcDbMlineStyle
  2
Standard
 70
     0
  3

 62
   256
 51
90.0
 52
90.0
 71
     2
 49
0.5
 62
   256
  6
BYLAYER
 49
-0.5
 62
   256
  6
BYLAYER
  0
ACDBPLACEHOLDER
  5
F
102
{ACAD_REACTORS
330
E
102
}
330
E
  0
SCALE
  5
48
102
{ACAD_REACTORS
330
47
102
}
330
47
100
AcDbScale
 70
     0
300
1:1
140
1.0
141
1.0
290
     1
  0
SCALE
  5
49
102
{ACAD_REACTORS
330
47
102
}
330
47
100
AcDbScale
 70
     0
300
1:2
140
1.0
141
2.0
290
     0
  0
SCALE
  5
4A
102
{ACAD_REACTORS
330
47
102
}
330
47
100
AcDbScale
 70
     0
300
1:4
140
1.0
141
4.0
290
     0
  0
SCALE
  5
4B
102
{ACAD_REACTORS
330
47
102
}
330
47
100
AcDbScale
 70
     0
300
1:5
140
1.0
141
5.0
290
     0
  0
SCALE
  5
4C
102
{ACAD_REACTORS
330
47
102
}
330
47
100
AcDbScale
 70
     0
300
1:8
140
1.0
141
8.0
290
     0
  0
SCALE
  5
4D
102
{ACAD_REACTORS
330
47
102
}
330
47
100
AcDbScale
 70
     0
300
1:10
140
1.0
141
10.0
290
     0
  0
SCALE
  5
4E
102
{ACAD_REACTORS
330
47
102
}
330
47
100
AcDbScale
 70
     0
300
1:16
140
1.0
141
16.0
290
     0
  0
SCALE
  5
4F
102
{ACAD_REACTORS
330
47
102
}
330
47
100
AcDbScale
 70
     0
300
1:20
140
1.0
141
20.0
290
     0
  0
SCALE
  5
50
102
{ACAD_REACTORS
330
47
102
}
330
47
100
AcDbScale
 70
     0
300
1:30
140
1.0
141
30.0
290
     0
  0
SCALE
  5
51
102
{ACAD_REACTORS
330
47
102
}
330
47
100
AcDbScale
 70
     0
300
1:40
140
1.0
141
40.0
290
     0
  0
SCALE
  5
52
102
{ACAD_REACTORS
330
47
102
}
330
47
100
AcDbScale
 70
     0
300
1:50
140
1.0
141
50.0
290
     0
  0
SCALE
  5
53
102
{ACAD_REACTORS
330
47
102
}
330
47
100
AcDbScale
 70
     0
300
1:100
140
1.0
141
100.0
290
     0
  0
SCALE
  5
54
102
{ACAD_REACTORS
330
47
102
}
330
47
100
AcDbScale
 70
     0
300
2:1
140
2.0
141
1.0
290
     0
  0
SCALE
  5
55
102
{ACAD_REACTORS
330
47
102
}
330
47
100
AcDbScale
 70
     0
300
4:1
140
4.0
141
1.0
290
     0
  0
SCALE
  5
56
102
{ACAD_REACTORS
330
47
102
}
330
47
100
AcDbScale
 70
     0
300
8:1
140
8.0
141
1.0
290
     0
  0
SCALE
  5
57
102
{ACAD_REACTORS
330
47
102
}
330
47
100
AcDbScale
 70
     0
300
10:1
140
10.0
141
1.0
290
     0
  0
SCALE
  5
58
102
{ACAD_REACTORS
330
47
102
}
330
47
100
AcDbScale
 70
     0
300
100:1
140
100.0
141
1.0
290
     0
  0
SCALE
  5
59
102
{ACAD_REACTORS
330
47
102
}
330
47
100
AcDbScale
 70
     0
300
1/128" = 1'-0"
140
0.007812
141
12.0
290
     0
  0
SCALE
  5
5A
102
{ACAD_REACTORS
330
47
102
}
330
47
100
AcDbScale
 70
     0
300
1/64" = 1'-0"
140
0.015625
141
12.0
290
     0
  0
SCALE
  5
5B
102
{ACAD_REACTORS
330
47
102
}
330
47
100
AcDbScale
 70
     0
300
1/32" = 1'-0"
140
0.03125
141
12.0
290
     0
  0
SCALE
  5
5C
102
{ACAD_REACTORS
330
47
102
}
330
47
100
AcDbScale
 70
     0
300
1/16" = 1'-0"
140
0.0625
141
12.0
290
     0
  0
SCALE
  5
5D
102
{ACAD_REACTORS
330
47
102
}
330
47
100
AcDbScale
 70
     0
300
3/32" = 1'-0"
140
0.09375
141
12.0
290
     0
  0
SCALE
  5
5E
102
{ACAD_REACTORS
330
47
102
}
330
47
100
AcDbScale
 70
     0
300
1/8" = 1'-0"
140
0.125
141
12.0
290
     0
  0
SCALE
  5
5F
102
{ACAD_REACTORS
330
47
102
}
330
47
100
AcDbScale
 70
     0
300
3/16" = 1'-0"
140
0.1875
141
12.0
290
     0
  0
SCALE
  5
60
102
{ACAD_REACTORS
330
47
102
}
330
47
100
AcDbScale
 70
     0
300
1/4" = 1'-0"
140
0.25
141
12.0
290
     0
  0
SCALE
  5
61
102
{ACAD_REACTORS
330
47
102
}
330
47
100
AcDbScale
 70
     0
300
3/8" = 1'-0"
140
0.375
141
12.0
290
     0
  0
SCALE
  5
62
102
{ACAD_REACTORS
330
47
102
}
330
47
100
AcDbScale
 70
     0
300
1/2" = 1'-0"
140
0.5
141
12.0
290
     0
  0
SCALE
  5
63
102
{ACAD_REACTORS
330
47
102
}
330
47
100
AcDbScale
 70
     0
300
3/4" = 1'-0"
140
0.75
141
12.0
290
     0
  0
SCALE
  5
64
102
{ACAD_REACTORS
330
47
102
}
330
47
100
AcDbScale
 70
     0
300
1" = 1'-0"
140
1.0
141
12.0
290
     0
  0
SCALE
  5
65
102
{ACAD_REACTORS
330
47
102
}
330
47
100
AcDbScale
 70
     0
300
1-1/2" = 1'-0"
140
1.5
141
12.0
290
     0
  0
SCALE
  5
66
102
{ACAD_REACTORS
330
47
102
}
330
47
100
AcDbScale
 70
     0
300
3" = 1'-0"
140
3.0
141
12.0
290
     0
  0
SCALE
  5
67
102
{ACAD_REACTORS
330
47
102
}
330
47
100
AcDbScale
 70
     0
300
6" = 1'-0"
140
6.0
141
12.0
290
     0
  0
SCALE
  5
68
102
{ACAD_REACTORS
330
47
102
}
330
47
100
AcDbScale
 70
     0
300
1'-0" = 1'-0"
140
12.0
141
12.0
290
     0
  0
TABLESTYLE
  5
6A
102
{ACAD_REACTORS
330
69
102
}
330
69
100
AcDbTableStyle
  3
Standard
 70
     0
 71
     0
 40
1.5
 41
1.5
280
     0
281
     0
  7
Standard
140
4.5
170
     2
 62
     0
 63
   257
283
     0
274
    -2
284
     1
 64
     0
275
    -2
285
     1
 65
     0
276
    -2
286
     1
 66
     0
277
    -2
287
     1
 67
     0
278
    -2
288
     1
 68
     0
279
    -2
289
     1
 69
     0
  7
Standard
140
6.0
170
     5
 62
     0
 63
   257
283
     0
274
    -2
284
     1
 64
     0
275
    -2
285
     1
 65
     0
276
    -2
286
     1
 66
     0
277
    -2
287
     1
 67
     0
278
    -2
288
     1
 68
     0
279
    -2
289
     1
 69
     0
  7
Standard
140
4.5
170
     5
 62
     0
 63
   257
283
     0
274
    -2
284
     1
 64
     0
275
    -2
285
     1
 65
     0
276
    -2
286
     1
 66
     0
277
    -2
287
     1
 67
     0
278
    -2
288
     1
 68
     0
279
    -2
289
     1
 69
     0
  0
VISUALSTYLE
  5
2F
102
{ACAD_REACTORS
330
2A
102
}
102
{ACAD_XDICTIONARY
360
1DA
102
}
330
2A
100
AcDbVisualStyle
  2
2dWireframe
 70
     4
 71
     0
 72
     2
 73
     0
 90
        0
 40
0.6
 41
30.0
 62
     5
 63
     7
 74
     1
 91
        4
 64
     7
 65
   257
 75
     1
175
     1
 42
1.0
 92
        0
 66
   257
 43
1.0
 76
     1
 77
     6
 78
     2
 67
     7
 79
     5
170
     0
171
     0
290
     0
174
     0
 93
        1
 44
0.0
173
     0
291
     0
 45
0.0
1001
ACAD
1000
AcDbSavedByObjectVersion
1070
     0
  0
VISUALSTYLE
  5
32
102
{ACAD_REACTORS
330
2A
102
}
102
{ACAD_XDICTIONARY
360
1E0
102
}
330
2A
100
AcDbVisualStyle
  2
Basic
 70
     7
 71
     1
 72
     0
 73
     1
 90
        0
 40
0.6
 41
30.0
 62
     5
 63
     7
 74
     0
 91
        4
 64
     7
 65
   257
 75
     1
175
     1
 42
1.0
 92
        8
 66
     7
 43
1.0
 76
     1
 77
     6
 78
     2
 67
     7
 79
     5
170
     0
171
     0
290
     0
174
     0
 93
        1
 44
0.0
173
     0
291
     1
 45
0.0
1001
ACAD
1000
AcDbSavedByObjectVersion
1070
     0
  0
VISUALSTYLE
  5
36
102
{ACAD_REACTORS
330
2A
102
}
102
{ACAD_XDICTIONARY
360
1E8
102
}
330
2A
100
AcDbVisualStyle
  2
Brighten
 70
    12
 71
     2
 72
     2
 73
     0
 90
        0
 40
0.6
 41
30.0
 62
     5
 63
     7
 74
     1
 91
        4
 64
     7
 65
   257
 75
     1
175
     1
 42
1.0
 92
        8
 66
     7
 43
1.0
 76
     1
 77
     6
 78
     2
 67
     7
 79
     5
170
     0
171
     0
290
     0
174
     0
 93
        1
 44
50.0
173
     0
291
     1
 45
0.0
1001
ACAD
1000
AcDbSavedByObjectVersion
1070
     0
  0
VISUALSTYLE
  5
3A
102
{ACAD_REACTORS
330
2A
102
}
102
{ACAD_XDICTIONARY
360
1F0
102
}
330
2A
100
AcDbVisualStyle
  2
ColorChange
 70
    16
 71
     2
 72
     2
 73
     3
 90
        0
 40
0.6
 41
30.0
 62
     5
 63
     8
 74
     1
 91
        4
 64
     7
 65
   257
 75
     1
175
     1
 42
1.0
 92
        8
 66
     8
 43
1.0
 76
     1
 77
     6
 78
     2
 67
     7
 79
     5
170
     0
171
     0
290
     0
174
     0
 93
        1
 44
0.0
173
     0
291
     1
 45
0.0
1001
ACAD
1000
AcDbSavedByObjectVersion
1070
     0
  0
VISUALSTYLE
  5
34
102
{ACAD_REACTORS
330
2A
102
}
102
{ACAD_XDICTIONARY
360
1E4
102
}
330
2A
100
AcDbVisualStyle
  2
Conceptual
 70
     9
 71
     3
 72
     2
 73
     0
 90
        0
 40
0.6
 41
30.0
 62
     5
 63
     7
 74
     2
 91
        2
 64
     7
 65
   257
 75
     1
175
     1
 42
179.0
 92
        8
 66
     7
 43
1.0
 76
     1
 77
     6
 78
     2
 67
     7
 79
     3
170
     0
171
     0
290
     0
174
     0
 93
        1
 44
0.0
173
     0
291
     0
 45
0.0
1001
ACAD
1000
AcDbSavedByObjectVersion
1070
     0
  0
VISUALSTYLE
  5
35
102
{ACAD_REACTORS
330
2A
102
}
102
{ACAD_XDICTIONARY
360
1E6
102
}
330
2A
100
AcDbVisualStyle
  2
Dim
 70
    11
 71
     2
 72
     2
 73
     0
 90
        0
 40
0.6
 41
30.0
 62
     5
 63
     7
 74
     1
 91
        4
 64
     7
 65
   257
 75
     1
175
     1
 42
1.0
 92
        8
 66
     7
 43
1.0
 76
     1
 77
     6
 78
     2
 67
     7
 79
     5
170
     0
171
     0
290
     0
174
     0
 93
        1
 44
-50.0
173
     0
291
     1
 45
0.0
1001
ACAD
1000
AcDbSavedByObjectVersion
1070
     0
  0
VISUALSTYLE
  5
3D
102
{ACAD_REACTORS
330
2A
102
}
102
{ACAD_XDICTIONARY
360
1F6
102
}
330
2A
100
AcDbVisualStyle
  2
EdgeColorOff
 70
    22
 71
     2
 72
     2
 73
     0
 90
        0
 40
0.6
 41
30.0
 62
     5
 63
     7
 74
     1
 91
        4
 64
     7
 65
   257
 75
     1
175
     1
 42
1.0
 92
        8
 66
     7
 43
1.0
 76
     1
 77
     6
 78
     2
 67
     7
 79
     5
170
     0
171
     0
290
     0
174
     0
 93
        1
 44
0.0
173
     0
291
     1
 45
0.0
1001
ACAD
1000
AcDbSavedByObjectVersion
1070
     0
  0
VISUALSTYLE
  5
39
102
{ACAD_REACTORS
330
2A
102
}
102
{ACAD_XDICTIONARY
360
1EE
102
}
330
2A
100
AcDbVisualStyle
  2
Facepattern
 70
    15
 71
     2
 72
     2
 73
     0
 90
        0
 40
0.6
 41
30.0
 62
     5
 63
     7
 74
     1
 91
        4
 64
     7
 65
   257
 75
     1
175
     1
 42
1.0
 92
        8
 66
     7
 43
1.0
 76
     1
 77
     6
 78
     2
 67
     7
 79
     5
170
     0
171
     0
290
     0
174
     0
 93
        1
 44
0.0
173
     0
291
     1
 45
0.0
1001
ACAD
1000
AcDbSavedByObjectVersion
1070
     0
  0
VISUALSTYLE
  5
2B
102
{ACAD_REACTORS
330
2A
102
}
102
{ACAD_XDICTIONARY
360
1D2
102
}
330
2A
100
AcDbVisualStyle
  2
Flat
 70
     0
 71
     2
 72
     1
 73
     1
 90
        2
 40
0.6
 41
30.0
 62
     5
 63
     7
 74
     0
 91
        0
 64
     7
 65
   257
 75
     1
175
     1
 42
1.0
 92
        8
 66
     7
 43
1.0
 76
     1
 77
     6
 78
     2
 67
     7
 79
     5
170
     0
171
     0
290
     0
174
     0
 93
       13
 44
0.0
173
     0
291
     1
 45
0.0
1001
ACAD
1000
AcDbSavedByObjectVersion
1070
     0
  0
VISUALSTYLE
  5
2C
102
{ACAD_REACTORS
330
2A
102
}
102
{ACAD_XDICTIONARY
360
1D4
102
}
330
2A
100
AcDbVisualStyle
  2
FlatWithEdges
 70
     1
 71
     2
 72
     1
 73
     1
 90
        2
 40
0.6
 41
30.0
 62
     5
 63
     7
 74
     1
 91
        0
 64
     7
 65
   257
 75
     1
175
     1
 42
1.0
 92
        0
 66
   257
 43
1.0
 76
     1
 77
     6
 78
     2
 67
     7
 79
     5
170
     0
171
     0
290
     0
174
     0
 93
       13
 44
0.0
173
     0
291
     1
 45
0.0
1001
ACAD
1000
AcDbSavedByObjectVersion
1070
     0
  0
VISUALSTYLE
  5
2D
102
{ACAD_REACTORS
330
2A
102
}
102
{ACAD_XDICTIONARY
360
1D6
102
}
330
2A
100
AcDbVisualStyle
  2
Gouraud
 70
     2
 71
     2
 72
     2
 73
     1
 90
        2
 40
0.6
 41
30.0
 62
     5
 63
     7
 74
     0
 91
        0
 64
     7
 65
   257
 75
     1
175
     1
 42
1.0
 92
        0
 66
     7
 43
1.0
 76
     1
 77
     6
 78
     2
 67
     7
 79
     5
170
     0
171
     0
290
     0
174
     0
 93
       13
 44
0.0
173
     0
291
     1
 45
0.0
1001
ACAD
1000
AcDbSavedByObjectVersion
1070
     0
  0
VISUALSTYLE
  5
2E
102
{ACAD_REACTORS
330
2A
102
}
102
{ACAD_XDICTIONARY
360
1D8
102
}
330
2A
100
AcDbVisualStyle
  2
GouraudWithEdges
 70
     3
 71
     2
 72
     2
 73
     1
 90
        2
 40
0.6
 41
30.0
 62
     5
 63
     7
 74
     1
 91
        0
 64
     7
 65
   257
 75
     1
175
     1
 42
1.0
 92
        0
 66
   257
 43
1.0
 76
     1
 77
     6
 78
     2
 67
     7
 79
     5
170
     0
171
     0
290
     0
174
     0
 93
       13
 44
0.0
173
     0
291
     1
 45
0.0
1001
ACAD
1000
AcDbSavedByObjectVersion
1070
     0
  0
VISUALSTYLE
  5
31
102
{ACAD_REACTORS
330
2A
102
}
102
{ACAD_XDICTIONARY
360
1DE
102
}
330
2A
100
AcDbVisualStyle
  2
Hidden
 70
     6
 71
     1
 72
     2
 73
     2
 90
        0
 40
0.6
 41
30.0
 62
     5
 63
     7
 74
     2
 91
        2
 64
     7
 65
   257
 75
     2
175
     1
 42
40.0
 92
        0
 66
   257
 43
1.0
 76
     1
 77
     6
 78
     2
 67
     7
 79
     3
170
     0
171
     0
290
     0
174
     0
 93
        1
 44
0.0
173
     0
291
     0
 45
0.0
1001
ACAD
1000
AcDbSavedByObjectVersion
1070
     0
  0
VISUALSTYLE
  5
3B
102
{ACAD_REACTORS
330
2A
102
}
102
{ACAD_XDICTIONARY
360
1F2
102
}
330
2A
100
AcDbVisualStyle
  2
JitterOff
 70
    20
 71
     2
 72
     2
 73
     0
 90
        0
 40
0.6
 41
30.0
 62
     5
 63
     7
 74
     1
 91
        4
 64
     7
 65
   257
 75
     1
175
     1
 42
1.0
 92
       10
 66
     7
 43
1.0
 76
     1
 77
     6
 78
     2
 67
     7
 79
     5
170
     0
171
     0
290
     0
174
     0
 93
        1
 44
0.0
173
     0
291
     1
 45
0.0
1001
ACAD
1000
AcDbSavedByObjectVersion
1070
     0
  0
VISUALSTYLE
  5
38
102
{ACAD_REACTORS
330
2A
102
}
102
{ACAD_XDICTIONARY
360
1EC
102
}
330
2A
100
AcDbVisualStyle
  2
Linepattern
 70
    14
 71
     2
 72
     2
 73
     0
 90
        0
 40
0.6
 41
30.0
 62
     5
 63
     7
 74
     1
 91
        4
 64
     7
 65
   257
 75
     7
175
     7
 42
1.0
 92
        8
 66
     7
 43
1.0
 76
     1
 77
     6
 78
     2
 67
     7
 79
     5
170
     0
171
     0
290
     0
174
     0
 93
        1
 44
0.0
173
     0
291
     1
 45
0.0
1001
ACAD
1000
AcDbSavedByObjectVersion
1070
     0
  0
VISUALSTYLE
  5
3C
102
{ACAD_REACTORS
330
2A
102
}
102
{ACAD_XDICTIONARY
360
1F4
102
}
330
2A
100
AcDbVisualStyle
  2
OverhangOff
 70
    21
 71
     2
 72
     2
 73
     0
 90
        0
 40
0.6
 41
30.0
 62
     5
 63
     7
 74
     1
 91
        4
 64
     7
 65
   257
 75
     1
175
     1
 42
1.0
 92
        9
 66
     7
 43
1.0
 76
     1
 77
     6
 78
     2
 67
     7
 79
     5
170
     0
171
     0
290
     0
174
     0
 93
        1
 44
0.0
173
     0
291
     1
 45
0.0
1001
ACAD
1000
AcDbSavedByObjectVersion
1070
     0
  0
VISUALSTYLE
  5
33
102
{ACAD_REACTORS
330
2A
102
}
102
{ACAD_XDICTIONARY
360
1E2
102
}
330
2A
100
AcDbVisualStyle
  2
Realistic
 70
     8
 71
     2
 72
     3
 73
     0
 90
        2
 40
0.6
 41
30.0
 62
     5
 63
     7
 74
     0
 91
        0
 64
     7
 65
   257
 75
     1
175
     1
 42
1.0
 92
        8
 66
   257
 43
1.0
 76
     1
 77
     6
 78
     2
 67
     7
 79
     3
170
     0
171
     0
290
     0
174
     0
 93
       13
 44
0.0
173
     0
291
     0
 45
0.0
1001
ACAD
1000
AcDbSavedByObjectVersion
1070
     0
  0
VISUALSTYLE
  5
42
102
{ACAD_REACTORS
330
2A
102
}
102
{ACAD_XDICTIONARY
360
200
102
}
330
2A
100
AcDbVisualStyle
  2
Shaded
 70
    27
 71
     2
 72
     2
 73
     1
 90
        2
 40
0.6
 41
30.0
 62
     5
 63
     7
 74
     0
 91
        4
 64
     7
 65
   257
 75
     1
175
     1
 42
1.0
 92
        8
 66
   257
 43
1.0
 76
     1
 77
     6
 78
     2
 67
     8
 79
     3
170
     0
171
     0
290
     0
174
     0
 93
        5
 44
0.0
173
     0
291
     0
 45
0.0
1001
ACAD
1000
AcDbSavedByObjectVersion
1070
     0
  0
VISUALSTYLE
  5
41
102
{ACAD_REACTORS
330
2A
102
}
102
{ACAD_XDICTIONARY
360
1FE
102
}
330
2A
100
AcDbVisualStyle
  2
Shaded with edges
 70
    26
 71
     2
 72
     2
 73
     1
 90
        2
 40
0.6
 41
30.0
 62
     5
 63
     7
 74
     1
 91
       10
 64
     7
 65
   257
 75
     2
175
     1
 42
1.0
 92
        8
 66
   257
 43
1.0
 76
     1
 77
     6
 78
     2
 67
     7
 79
     3
170
     0
171
     0
290
     0
174
     0
 93
        5
 44
0.0
173
     0
291
     0
 45
0.0
1001
ACAD
1000
AcDbSavedByObjectVersion
1070
     0
  0
VISUALSTYLE
  5
3E
102
{ACAD_REACTORS
330
2A
102
}
102
{ACAD_XDICTIONARY
360
1F8
102
}
330
2A
100
AcDbVisualStyle
  2
Shades of Gray
 70
    23
 71
     2
 72
     2
 73
     3
 90
        0
 40
0.6
 41
30.0
 62
     5
 63
     7
 74
     2
 91
        2
 64
     7
 65
     7
 75
     1
175
     1
 42
40.0
 92
        8
 66
     7
 43
1.0
 76
     1
 77
     6
 78
     2
 67
     7
 79
     3
170
     0
171
     0
290
     0
174
     0
 93
        1
 44
0.0
173
     0
291
     0
 45
0.0
1001
ACAD
1000
AcDbSavedByObjectVersion
1070
     0
  0
VISUALSTYLE
  5
3F
102
{ACAD_REACTORS
330
2A
102
}
102
{ACAD_XDICTIONARY
360
1FA
102
}
330
2A
100
AcDbVisualStyle
  2
Sketchy
 70
    24
 71
     1
 72
     2
 73
     2
 90
        0
 40
0.6
 41
30.0
 62
     5
 63
     7
 74
     2
 91
        2
 64
     7
 65
     7
 75
     1
175
     1
 42
40.0
 92
       11
 66
     7
 43
1.0
 76
     1
 77
     6
 78
     2
 67
     7
 79
     6
170
     0
171
     0
290
     0
174
     0
 93
        1
 44
0.0
173
     0
291
     0
 45
0.0
1001
ACAD
1000
AcDbSavedByObjectVersion
1070
     0
  0
VISUALSTYLE
  5
37
102
{ACAD_REACTORS
330
2A
102
}
102
{ACAD_XDICTIONARY
360
1EA
102
}
330
2A
100
AcDbVisualStyle
  2
Thicken
 70
    13
 71
     2
 72
     2
 73
     0
 90
        0
 40
0.6
 41
30.0
 62
     5
 63
     7
 74
     1
 91
        4
 64
     7
 65
   257
 75
     1
175
     1
 42
1.0
 92
       12
 66
     7
 43
1.0
 76
     1
 77
     6
 78
     2
 67
     7
 79
     5
170
     0
171
     0
290
     0
174
     0
 93
        1
 44
0.0
173
     0
291
     1
 45
0.0
1001
ACAD
1000
AcDbSavedByObjectVersion
1070
     0
  0
VISUALSTYLE
  5
30
102
{ACAD_REACTORS
330
2A
102
}
102
{ACAD_XDICTIONARY
360
1DC
102
}
330
2A
100
AcDbVisualStyle
  2
Wireframe
 70
     5
 71
     0
 72
     2
 73
     0
 90
        0
 40
0.6
 41
30.0
 62
     5
 63
     7
 74
     1
 91
        4
 64
     7
 65
   257
 75
     1
175
     1
 42
1.0
 92
        0
 66
   257
 43
1.0
 76
     1
 77
     6
 78
     2
 67
     7
 79
     3
170
     0
171
     0
290
     0
174
     0
 93
        1
 44
0.0
173
     0
291
     0
 45
0.0
1001
ACAD
1000
AcDbSavedByObjectVersion
1070
     0
  0
VISUALSTYLE
  5
40
102
{ACAD_REACTORS
330
2A
102
}
102
{ACAD_XDICTIONARY
360
1FC
102
}
330
2A
100
AcDbVisualStyle
  2
X-Ray
 70
    25
 71
     2
 72
     2
 73
     1
 90
        1
 40
0.5
 41
30.0
 62
     5
 63
     7
 74
     1
 91
        0
 64
     7
 65
   257
 75
     1
175
     1
 42
1.0
 92
        8
 66
     7
 43
1.0
 76
     1
 77
     6
 78
     2
 67
     7
 79
     3
170
     0
171
     0
290
     0
174
     0
 93
       13
 44
0.0
173
     0
291
     0
 45
0.0
1001
ACAD
1000
AcDbSavedByObjectVersion
1070
     0
  0
DICTIONARYVAR
  5
1D0
102
{ACAD_REACTORS
330
1C3
102
}
330
1C3
100
DictionaryVariables
280
     0
  1
1:1
  0
DICTIONARYVAR
  5
1CA
102
{ACAD_REACTORS
330
1C3
102
}
330
1C3
100
DictionaryVariables
280
     0
  1
3.500000
  0
DICTIONARYVAR
  5
1CB
102
{ACAD_REACTORS
330
1C3
102
}
330
1C3
100
DictionaryVariables
280
     0
  1
acadiso.lin
  0
DICTIONARYVAR
  5
1C5
102
{ACAD_REACTORS
330
1C3
102
}
330
1C3
100
DictionaryVariables
280
     0
  1
Standard
  0
DICTIONARYVAR
  5
1C4
102
{ACAD_REACTORS
330
1C3
102
}
330
1C3
100
DictionaryVariables
280
     0
  1
Standard
  0
DICTIONARYVAR
  5
1CC
102
{ACAD_REACTORS
330
1C3
102
}
330
1C3
100
DictionaryVariables
280
     0
  1
2
  0
DICTIONARYVAR
  5
1CD
102
{ACAD_REACTORS
330
1C3
102
}
330
1C3
100
DictionaryVariables
280
     0
  1
1
  0
DICTIONARYVAR
  5
1D1
102
{ACAD_REACTORS
330
1C3
102
}
330
1C3
100
DictionaryVariables
280
     0
  1
1
  0
DICTIONARYVAR
  5
1C7
102
{ACAD_REACTORS
330
1C3
102
}
330
1C3
100
DictionaryVariables
280
     0
  1
80.000000
  0
DICTIONARYVAR
  5
1C6
102
{ACAD_REACTORS
330
1C3
102
}
330
1C3
100
DictionaryVariables
280
     0
  1
5.000000
  0
DICTIONARY
  5
204
330
45
100
AcDbDictionary
280
     1
281
     1
  3
ACAD_XREC_ROUNDTRIP
360
205
  0
DICTIONARY
  5
202
330
44
100
AcDbDictionary
280
     1
281
     1
  3
ACAD_XREC_ROUNDTRIP
360
203
  0
DICTIONARY
  5
206
330
46
100
AcDbDictionary
280
     1
281
     1
  3
ACAD_XREC_ROUNDTRIP
360
207
  0
DICTIONARY
  5
209
330
6C
100
AcDbDictionary
280
     1
281
     1
  3
ACAD_XREC_ROUNDTRIP
360
20A
  0
DICTIONARY
  5
1DA
330
2F
100
AcDbDictionary
280
     1
281
     1
  3
ACAD_XREC_ROUNDTRIP
360
1DB
  0
DICTIONARY
  5
1E0
330
32
100
AcDbDictionary
280
     1
281
     1
  3
ACAD_XREC_ROUNDTRIP
360
1E1
  0
DICTIONARY
  5
1E8
330
36
100
AcDbDictionary
280
     1
281
     1
  3
ACAD_XREC_ROUNDTRIP
360
1E9
  0
DICTIONARY
  5
1F0
330
3A
100
AcDbDictionary
280
     1
281
     1
  3
ACAD_XREC_ROUNDTRIP
360
1F1
  0
DICTIONARY
  5
1E4
330
34
100
AcDbDictionary
280
     1
281
     1
  3
ACAD_XREC_ROUNDTRIP
360
1E5
  0
DICTIONARY
  5
1E6
330
35
100
AcDbDictionary
280
     1
281
     1
  3
ACAD_XREC_ROUNDTRIP
360
1E7
  0
DICTIONARY
  5
1F6
330
3D
100
AcDbDictionary
280
     1
281
     1
  3
ACAD_XREC_ROUNDTRIP
360
1F7
  0
DICTIONARY
  5
1EE
330
39
100
AcDbDictionary
280
     1
281
     1
  3
ACAD_XREC_ROUNDTRIP
360
1EF
  0
DICTIONARY
  5
1D2
330
2B
100
AcDbDictionary
280
     1
281
     1
  3
ACAD_XREC_ROUNDTRIP
360
1D3
  0
DICTIONARY
  5
1D4
330
2C
100
AcDbDictionary
280
     1
281
     1
  3
ACAD_XREC_ROUNDTRIP
360
1D5
  0
DICTIONARY
  5
1D6
330
2D
100
AcDbDictionary
280
     1
281
     1
  3
ACAD_XREC_ROUNDTRIP
360
1D7
  0
DICTIONARY
  5
1D8
330
2E
100
AcDbDictionary
280
     1
281
     1
  3
ACAD_XREC_ROUNDTRIP
360
1D9
  0
DICTIONARY
  5
1DE
330
31
100
AcDbDictionary
280
     1
281
     1
  3
ACAD_XREC_ROUNDTRIP
360
1DF
  0
DICTIONARY
  5
1F2
330
3B
100
AcDbDictionary
280
     1
281
     1
  3
ACAD_XREC_ROUNDTRIP
360
1F3
  0
DICTIONARY
  5
1EC
330
38
100
AcDbDictionary
280
     1
281
     1
  3
ACAD_XREC_ROUNDTRIP
360
1ED
  0
DICTIONARY
  5
1F4
330
3C
100
AcDbDictionary
280
     1
281
     1
  3
ACAD_XREC_ROUNDTRIP
360
1F5
  0
DICTIONARY
  5
1E2
330
33
100
AcDbDictionary
280
     1
281
     1
  3
ACAD_XREC_ROUNDTRIP
360
1E3
  0
DICTIONARY
  5
200
330
42
100
AcDbDictionary
280
     1
281
     1
  3
ACAD_XREC_ROUNDTRIP
360
201
  0
DICTIONARY
  5
1FE
330
41
100
AcDbDictionary
280
     1
281
     1
  3
ACAD_XREC_ROUNDTRIP
360
1FF
  0
DICTIONARY
  5
1F8
330
3E
100
AcDbDictionary
280
     1
281
     1
  3
ACAD_XREC_ROUNDTRIP
360
1F9
  0
DICTIONARY
  5
1FA
330
3F
100
AcDbDictionary
280
     1
281
     1
  3
ACAD_XREC_ROUNDTRIP
360
1FB
  0
DICTIONARY
  5
1EA
330
37
100
AcDbDictionary
280
     1
281
     1
  3
ACAD_XREC_ROUNDTRIP
360
1EB
  0
DICTIONARY
  5
1DC
330
30
100
AcDbDictionary
280
     1
281
     1
  3
ACAD_XREC_ROUNDTRIP
360
1DD
  0
DICTIONARY
  5
1FC
330
40
100
AcDbDictionary
280
     1
281
     1
  3
ACAD_XREC_ROUNDTRIP
360
1FD
  0
XRECORD
  5
205
102
{ACAD_REACTORS
330
204
102
}
330
204
100
AcDbXrecord
280
     1
102
MATERIAL
148
0.0
149
0.0
149
0.0
 93
        0
 94
      127
282
     0
 72
     1
 77
     1
171
     1
175
     1
179
     1
273
     0
  0
XRECORD
  5
203
102
{ACAD_REACTORS
330
202
102
}
330
202
100
AcDbXrecord
280
     1
102
MATERIAL
148
0.0
149
0.0
149
0.0
 93
        0
 94
      127
282
     0
 72
     1
 77
     1
171
     1
175
     1
179
     1
273
     0
  0
XRECORD
  5
207
102
{ACAD_REACTORS
330
206
102
}
330
206
100
AcDbXrecord
280
     1
102
MATERIAL
148
0.0
149
0.0
149
0.0
 93
        0
 94
      127
282
     0
 72
     1
 77
     1
171
     1
175
     1
179
     1
273
     0
  0
XRECORD
  5
20A
102
{ACAD_REACTORS
330
209
102
}
330
209
100
AcDbXrecord
280
     1
102
ACAD_ROUNDTRIP_2010_MLEADER_STYLE
  0
XRECORD
  5
1DB
102
{ACAD_REACTORS
330
1DA
102
}
330
1DA
100
AcDbXrecord
280
     1
102
RTVSPropertyOp0
 70
     1
102
RTVSPropertyOp1
 70
     1
102
RTVSPropertyOp2
 70
     1
102
RTVSPropertyOp3
 70
     1
102
RTVSPropertyOp4
 70
     1
102
RTVSPropertyOp5
 70
     1
102
RTVSPropertyOp6
 70
     1
102
RTVSPropertyOp7
 70
     1
102
RTVSPropertyOp8
 70
     1
102
RTVSPropertyOp9
 70
     1
102
RTVSPropertyOp10
 70
     1
102
RTVSPropertyOp11
 70
     1
102
RTVSPropertyOp12
 70
     1
102
RTVSPropertyOp13
 70
     1
102
RTVSPropertyOp14
 70
     1
102
RTVSPropertyOp15
 70
     1
102
RTVSPropertyOp16
 70
     1
102
RTVSPropertyOp17
 70
     1
102
RTVSPropertyOp18
 70
     1
102
RTVSPropertyOp19
 70
     1
102
RTVSPropertyOp20
 70
     1
102
RTVSPropertyOp21
 70
     1
102
RTVSPropertyOp22
 70
     1
102
RTVSPropertyOp23
 70
     1
102
RTVSPropertyOp24
 70
     1
102
RTVSPropertyOp25
 70
     1
102
RTVSPropertyOp26
 70
     1
102
RTVSPropertyOp27
 70
     1
102
RTVSPropertyOp28
 70
     1
102
RTVSPropertyOp29
 70
     1
102
RTVSPropertyOp30
 70
     1
102
RTVSPropertyOp31
 70
     1
102
RTVSPropertyOp32
 70
     1
102
RTVSPropertyOp33
 70
     1
102
RTVSPropertyOp34
 70
     1
102
RTVSPropertyOp35
 70
     1
102
RTVSPropertyOp36
 70
     1
102
RTVSPropertyOp37
 70
     1
102
RTVSPropertyOp38
 70
     1
102
RTVSPropertyOp39
 70
     1
102
RTVSPropertyOp40
 70
     1
102
RTVSPropertyOp41
 70
     1
102
RTVSPropertyOp42
 70
     1
102
RTVSPropertyOp43
 70
     1
102
RTVSPropertyOp44
 70
     1
102
RTVSPropertyOp45
 70
     1
102
RTVSPropertyOp46
 70
     1
102
RTVSPropertyOp47
 70
     1
102
RTVSPropertyOp48
 70
     1
102
RTVSPropertyOp49
 70
     1
102
RTVSPropertyOp50
 70
     1
102
RTVSPropertyOp51
 70
     0
102
RTVSPropertyOp52
 70
     0
102
RTVSPropertyOp53
 70
     1
102
RTVSPropertyOp54
 70
     1
102
RTVSPropertyOp55
 70
     1
102
RTVSPropertyOp56
 70
     1
102
RTVSPropertyOp57
 70
     1
102
RTVSPost2010Prop28
280
     1
102
RTVSPost2010PropOp28
 70
     1
102
RTVSPost2010Prop29
280
     1
102
RTVSPost2010PropOp29
 70
     1
102
RTVSPost2010Prop30
280
     0
102
RTVSPost2010PropOp30
 70
     1
102
RTVSPost2010Prop31
280
     0
102
RTVSPost2010PropOp31
 70
     1
102
RTVSPost2010Prop32
280
     0
102
RTVSPost2010PropOp32
 70
     1
102
RTVSPost2010Prop33
280
     0
102
RTVSPost2010PropOp33
 70
     1
102
RTVSPost2010Prop34
280
     0
102
RTVSPost2010PropOp34
 70
     1
102
RTVSPost2010Prop35
280
     0
102
RTVSPost2010PropOp35
 70
     1
102
RTVSPost2010Prop36
280
     0
102
RTVSPost2010PropOp36
 70
     1
102
RTVSPost2010Prop37
 90
       50
102
RTVSPost2010PropOp37
 70
     1
102
RTVSPost2010Prop38
140
0.0
102
RTVSPost2010PropOp38
 70
     1
102
RTVSPost2010Prop39
140
1.0
102
RTVSPost2010PropOp39
 70
     1
102
RTVSPost2010Prop40
 90
        0
102
RTVSPost2010PropOp40
 70
     1
102
RTVSPost2010Prop41ColorIndex
 90
       18
102
RTVSPost2010Prop41ColorRGB
 90
        0
102
RTVSPost2010PropOp41
 70
     1
102
RTVSPost2010Prop42
 90
       50
102
RTVSPost2010PropOp42
 70
     1
102
RTVSPost2010Prop43
 90
        3
102
RTVSPost2010PropOp43
 70
     1
102
RTVSPost2010Prop44ColorIndex
 90
        5
102
RTVSPost2010Prop44ColorRGB
 90
      255
102
RTVSPost2010PropOp44
 70
     1
102
RTVSPost2010Prop45
280
     0
102
RTVSPost2010PropOp45
 70
     1
102
RTVSPost2010Prop46
 90
       50
102
RTVSPost2010PropOp46
 70
     1
102
RTVSPost2010Prop47
 90
       50
102
RTVSPost2010PropOp47
 70
     1
102
RTVSPost2010Prop48
 90
       50
102
RTVSPost2010PropOp48
 70
     1
102
RTVSPost2010Prop49
280
     0
102
RTVSPost2010PropOp49
 70
     1
102
RTVSPost2010Prop50
 90
       50
102
RTVSPost2010PropOp50
 70
     1
102
RTVSPost2010Prop51ColorIndex
 90
      256
102
RTVSPost2010Prop51ColorRGB
 90
-16777216
102
RTVSPost2010PropOp51
 70
     0
102
RTVSPost2010Prop52
140
1.0
102
RTVSPost2010PropOp52
 70
     0
102
RTVSPost2010Prop53
 90
        2
102
RTVSPost2010PropOp53
 70
     1
102
RTVSPost2010Prop54
  1
strokes_ogs.tif
102
RTVSPost2010PropOp54
 70
     1
102
RTVSPost2010Prop55
280
     0
102
RTVSPost2010PropOp55
 70
     1
102
RTVSPost2010Prop56
140
1.0
102
RTVSPost2010PropOp56
 70
     1
102
RTVSPost2010Prop57
140
1.0
102
RTVSPost2010PropOp57
 70
     1
  0
XRECORD
  5
1E1
102
{ACAD_REACTORS
330
1E0
102
}
330
1E0
100
AcDbXrecord
280
     1
102
RTVSPropertyOp0
 70
     1
102
RTVSPropertyOp1
 70
     1
102
RTVSPropertyOp2
 70
     1
102
RTVSPropertyOp3
 70
     1
102
RTVSPropertyOp4
 70
     1
102
RTVSPropertyOp5
 70
     1
102
RTVSPropertyOp6
 70
     1
102
RTVSPropertyOp7
 70
     1
102
RTVSPropertyOp8
 70
     1
102
RTVSPropertyOp9
 70
     1
102
RTVSPropertyOp10
 70
     1
102
RTVSPropertyOp11
 70
     1
102
RTVSPropertyOp12
 70
     1
102
RTVSPropertyOp13
 70
     1
102
RTVSPropertyOp14
 70
     1
102
RTVSPropertyOp15
 70
     1
102
RTVSPropertyOp16
 70
     1
102
RTVSPropertyOp17
 70
     1
102
RTVSPropertyOp18
 70
     1
102
RTVSPropertyOp19
 70
     1
102
RTVSPropertyOp20
 70
     1
102
RTVSPropertyOp21
 70
     1
102
RTVSPropertyOp22
 70
     1
102
RTVSPropertyOp23
 70
     1
102
RTVSPropertyOp24
 70
     1
102
RTVSPropertyOp25
 70
     1
102
RTVSPropertyOp26
 70
     1
102
RTVSPropertyOp27
 70
     1
102
RTVSPropertyOp28
 70
     1
102
RTVSPropertyOp29
 70
     1
102
RTVSPropertyOp30
 70
     1
102
RTVSPropertyOp31
 70
     1
102
RTVSPropertyOp32
 70
     1
102
RTVSPropertyOp33
 70
     1
102
RTVSPropertyOp34
 70
     1
102
RTVSPropertyOp35
 70
     1
102
RTVSPropertyOp36
 70
     1
102
RTVSPropertyOp37
 70
     1
102
RTVSPropertyOp38
 70
     1
102
RTVSPropertyOp39
 70
     1
102
RTVSPropertyOp40
 70
     1
102
RTVSPropertyOp41
 70
     1
102
RTVSPropertyOp42
 70
     1
102
RTVSPropertyOp43
 70
     1
102
RTVSPropertyOp44
 70
     1
102
RTVSPropertyOp45
 70
     1
102
RTVSPropertyOp46
 70
     1
102
RTVSPropertyOp47
 70
     1
102
RTVSPropertyOp48
 70
     1
102
RTVSPropertyOp49
 70
     1
102
RTVSPropertyOp50
 70
     1
102
RTVSPropertyOp51
 70
     0
102
RTVSPropertyOp52
 70
     0
102
RTVSPropertyOp53
 70
     1
102
RTVSPropertyOp54
 70
     1
102
RTVSPropertyOp55
 70
     1
102
RTVSPropertyOp56
 70
     1
102
RTVSPropertyOp57
 70
     1
102
RTVSPost2010Prop28
280
     0
102
RTVSPost2010PropOp28
 70
     1
102
RTVSPost2010Prop29
280
     1
102
RTVSPost2010PropOp29
 70
     1
102
RTVSPost2010Prop30
280
     1
102
RTVSPost2010PropOp30
 70
     1
102
RTVSPost2010Prop31
280
     0
102
RTVSPost2010PropOp31
 70
     1
102
RTVSPost2010Prop32
280
     0
102
RTVSPost2010PropOp32
 70
     1
102
RTVSPost2010Prop33
280
     0
102
RTVSPost2010PropOp33
 70
     1
102
RTVSPost2010Prop34
280
     0
102
RTVSPost2010PropOp34
 70
     1
102
RTVSPost2010Prop35
280
     0
102
RTVSPost2010PropOp35
 70
     1
102
RTVSPost2010Prop36
280
     0
102
RTVSPost2010PropOp36
 70
     1
102
RTVSPost2010Prop37
 90
       50
102
RTVSPost2010PropOp37
 70
     1
102
RTVSPost2010Prop38
140
0.0
102
RTVSPost2010PropOp38
 70
     1
102
RTVSPost2010Prop39
140
1.0
102
RTVSPost2010PropOp39
 70
     1
102
RTVSPost2010Prop40
 90
        0
102
RTVSPost2010PropOp40
 70
     1
102
RTVSPost2010Prop41ColorIndex
 90
       18
102
RTVSPost2010Prop41ColorRGB
 90
        0
102
RTVSPost2010PropOp41
 70
     1
102
RTVSPost2010Prop42
 90
       50
102
RTVSPost2010PropOp42
 70
     1
102
RTVSPost2010Prop43
 90
        3
102
RTVSPost2010PropOp43
 70
     1
102
RTVSPost2010Prop44ColorIndex
 90
        5
102
RTVSPost2010Prop44ColorRGB
 90
      255
102
RTVSPost2010PropOp44
 70
     1
102
RTVSPost2010Prop45
280
     0
102
RTVSPost2010PropOp45
 70
     1
102
RTVSPost2010Prop46
 90
       50
102
RTVSPost2010PropOp46
 70
     1
102
RTVSPost2010Prop47
 90
       50
102
RTVSPost2010PropOp47
 70
     1
102
RTVSPost2010Prop48
 90
       50
102
RTVSPost2010PropOp48
 70
     1
102
RTVSPost2010Prop49
280
     0
102
RTVSPost2010PropOp49
 70
     1
102
RTVSPost2010Prop50
 90
       50
102
RTVSPost2010PropOp50
 70
     1
102
RTVSPost2010Prop51ColorIndex
 90
      256
102
RTVSPost2010Prop51ColorRGB
 90
-16777216
102
RTVSPost2010PropOp51
 70
     0
102
RTVSPost2010Prop52
140
1.0
102
RTVSPost2010PropOp52
 70
     0
102
RTVSPost2010Prop53
 90
        2
102
RTVSPost2010PropOp53
 70
     1
102
RTVSPost2010Prop54
  1
strokes_ogs.tif
102
RTVSPost2010PropOp54
 70
     1
102
RTVSPost2010Prop55
280
     0
102
RTVSPost2010PropOp55
 70
     1
102
RTVSPost2010Prop56
140
1.0
102
RTVSPost2010PropOp56
 70
     1
102
RTVSPost2010Prop57
140
1.0
102
RTVSPost2010PropOp57
 70
     1
  0
XRECORD
  5
1E9
102
{ACAD_REACTORS
330
1E8
102
}
330
1E8
100
AcDbXrecord
280
     1
102
RTVSPropertyOp0
 70
     1
102
RTVSPropertyOp1
 70
     1
102
RTVSPropertyOp2
 70
     1
102
RTVSPropertyOp3
 70
     1
102
RTVSPropertyOp4
 70
     1
102
RTVSPropertyOp5
 70
     1
102
RTVSPropertyOp6
 70
     1
102
RTVSPropertyOp7
 70
     1
102
RTVSPropertyOp8
 70
     1
102
RTVSPropertyOp9
 70
     1
102
RTVSPropertyOp10
 70
     1
102
RTVSPropertyOp11
 70
     1
102
RTVSPropertyOp12
 70
     1
102
RTVSPropertyOp13
 70
     1
102
RTVSPropertyOp14
 70
     1
102
RTVSPropertyOp15
 70
     1
102
RTVSPropertyOp16
 70
     1
102
RTVSPropertyOp17
 70
     1
102
RTVSPropertyOp18
 70
     1
102
RTVSPropertyOp19
 70
     1
102
RTVSPropertyOp20
 70
     1
102
RTVSPropertyOp21
 70
     1
102
RTVSPropertyOp22
 70
     1
102
RTVSPropertyOp23
 70
     1
102
RTVSPropertyOp24
 70
     1
102
RTVSPropertyOp25
 70
     1
102
RTVSPropertyOp26
 70
     1
102
RTVSPropertyOp27
 70
     1
102
RTVSPropertyOp28
 70
     1
102
RTVSPropertyOp29
 70
     1
102
RTVSPropertyOp30
 70
     1
102
RTVSPropertyOp31
 70
     1
102
RTVSPropertyOp32
 70
     1
102
RTVSPropertyOp33
 70
     1
102
RTVSPropertyOp34
 70
     1
102
RTVSPropertyOp35
 70
     1
102
RTVSPropertyOp36
 70
     1
102
RTVSPropertyOp37
 70
     1
102
RTVSPropertyOp38
 70
     1
102
RTVSPropertyOp39
 70
     1
102
RTVSPropertyOp40
 70
     1
102
RTVSPropertyOp41
 70
     1
102
RTVSPropertyOp42
 70
     1
102
RTVSPropertyOp43
 70
     1
102
RTVSPropertyOp44
 70
     1
102
RTVSPropertyOp45
 70
     1
102
RTVSPropertyOp46
 70
     1
102
RTVSPropertyOp47
 70
     1
102
RTVSPropertyOp48
 70
     1
102
RTVSPropertyOp49
 70
     1
102
RTVSPropertyOp50
 70
     1
102
RTVSPropertyOp51
 70
     0
102
RTVSPropertyOp52
 70
     0
102
RTVSPropertyOp53
 70
     1
102
RTVSPropertyOp54
 70
     1
102
RTVSPropertyOp55
 70
     1
102
RTVSPropertyOp56
 70
     1
102
RTVSPropertyOp57
 70
     1
102
RTVSPost2010Prop28
280
     0
102
RTVSPost2010PropOp28
 70
     1
102
RTVSPost2010Prop29
280
     1
102
RTVSPost2010PropOp29
 70
     1
102
RTVSPost2010Prop30
280
     1
102
RTVSPost2010PropOp30
 70
     1
102
RTVSPost2010Prop31
280
     0
102
RTVSPost2010PropOp31
 70
     1
102
RTVSPost2010Prop32
280
     0
102
RTVSPost2010PropOp32
 70
     1
102
RTVSPost2010Prop33
280
     0
102
RTVSPost2010PropOp33
 70
     1
102
RTVSPost2010Prop34
280
     0
102
RTVSPost2010PropOp34
 70
     1
102
RTVSPost2010Prop35
280
     0
102
RTVSPost2010PropOp35
 70
     1
102
RTVSPost2010Prop36
280
     0
102
RTVSPost2010PropOp36
 70
     1
102
RTVSPost2010Prop37
 90
       50
102
RTVSPost2010PropOp37
 70
     1
102
RTVSPost2010Prop38
140
0.0
102
RTVSPost2010PropOp38
 70
     1
102
RTVSPost2010Prop39
140
1.0
102
RTVSPost2010PropOp39
 70
     1
102
RTVSPost2010Prop40
 90
        0
102
RTVSPost2010PropOp40
 70
     1
102
RTVSPost2010Prop41ColorIndex
 90
       18
102
RTVSPost2010Prop41ColorRGB
 90
        0
102
RTVSPost2010PropOp41
 70
     1
102
RTVSPost2010Prop42
 90
       50
102
RTVSPost2010PropOp42
 70
     1
102
RTVSPost2010Prop43
 90
        3
102
RTVSPost2010PropOp43
 70
     1
102
RTVSPost2010Prop44ColorIndex
 90
        5
102
RTVSPost2010Prop44ColorRGB
 90
      255
102
RTVSPost2010PropOp44
 70
     1
102
RTVSPost2010Prop45
280
     0
102
RTVSPost2010PropOp45
 70
     1
102
RTVSPost2010Prop46
 90
       50
102
RTVSPost2010PropOp46
 70
     1
102
RTVSPost2010Prop47
 90
       50
102
RTVSPost2010PropOp47
 70
     1
102
RTVSPost2010Prop48
 90
       50
102
RTVSPost2010PropOp48
 70
     1
102
RTVSPost2010Prop49
280
     0
102
RTVSPost2010PropOp49
 70
     1
102
RTVSPost2010Prop50
 90
       50
102
RTVSPost2010PropOp50
 70
     1
102
RTVSPost2010Prop51ColorIndex
 90
      256
102
RTVSPost2010Prop51ColorRGB
 90
-16777216
102
RTVSPost2010PropOp51
 70
     0
102
RTVSPost2010Prop52
140
1.0
102
RTVSPost2010PropOp52
 70
     0
102
RTVSPost2010Prop53
 90
        2
102
RTVSPost2010PropOp53
 70
     1
102
RTVSPost2010Prop54
  1
strokes_ogs.tif
102
RTVSPost2010PropOp54
 70
     1
102
RTVSPost2010Prop55
280
     0
102
RTVSPost2010PropOp55
 70
     1
102
RTVSPost2010Prop56
140
1.0
102
RTVSPost2010PropOp56
 70
     1
102
RTVSPost2010Prop57
140
1.0
102
RTVSPost2010PropOp57
 70
     1
  0
XRECORD
  5
1F1
102
{ACAD_REACTORS
330
1F0
102
}
330
1F0
100
AcDbXrecord
280
     1
102
RTVSPropertyOp0
 70
     1
102
RTVSPropertyOp1
 70
     1
102
RTVSPropertyOp2
 70
     1
102
RTVSPropertyOp3
 70
     1
102
RTVSPropertyOp4
 70
     1
102
RTVSPropertyOp5
 70
     1
102
RTVSPropertyOp6
 70
     1
102
RTVSPropertyOp7
 70
     1
102
RTVSPropertyOp8
 70
     1
102
RTVSPropertyOp9
 70
     1
102
RTVSPropertyOp10
 70
     1
102
RTVSPropertyOp11
 70
     1
102
RTVSPropertyOp12
 70
     1
102
RTVSPropertyOp13
 70
     1
102
RTVSPropertyOp14
 70
     1
102
RTVSPropertyOp15
 70
     1
102
RTVSPropertyOp16
 70
     1
102
RTVSPropertyOp17
 70
     1
102
RTVSPropertyOp18
 70
     1
102
RTVSPropertyOp19
 70
     1
102
RTVSPropertyOp20
 70
     1
102
RTVSPropertyOp21
 70
     1
102
RTVSPropertyOp22
 70
     1
102
RTVSPropertyOp23
 70
     1
102
RTVSPropertyOp24
 70
     1
102
RTVSPropertyOp25
 70
     1
102
RTVSPropertyOp26
 70
     1
102
RTVSPropertyOp27
 70
     1
102
RTVSPropertyOp28
 70
     1
102
RTVSPropertyOp29
 70
     1
102
RTVSPropertyOp30
 70
     1
102
RTVSPropertyOp31
 70
     1
102
RTVSPropertyOp32
 70
     1
102
RTVSPropertyOp33
 70
     1
102
RTVSPropertyOp34
 70
     1
102
RTVSPropertyOp35
 70
     1
102
RTVSPropertyOp36
 70
     1
102
RTVSPropertyOp37
 70
     1
102
RTVSPropertyOp38
 70
     1
102
RTVSPropertyOp39
 70
     1
102
RTVSPropertyOp40
 70
     1
102
RTVSPropertyOp41
 70
     1
102
RTVSPropertyOp42
 70
     1
102
RTVSPropertyOp43
 70
     1
102
RTVSPropertyOp44
 70
     1
102
RTVSPropertyOp45
 70
     1
102
RTVSPropertyOp46
 70
     1
102
RTVSPropertyOp47
 70
     1
102
RTVSPropertyOp48
 70
     1
102
RTVSPropertyOp49
 70
     1
102
RTVSPropertyOp50
 70
     1
102
RTVSPropertyOp51
 70
     0
102
RTVSPropertyOp52
 70
     0
102
RTVSPropertyOp53
 70
     1
102
RTVSPropertyOp54
 70
     1
102
RTVSPropertyOp55
 70
     1
102
RTVSPropertyOp56
 70
     1
102
RTVSPropertyOp57
 70
     1
102
RTVSPost2010Prop28
280
     0
102
RTVSPost2010PropOp28
 70
     1
102
RTVSPost2010Prop29
280
     1
102
RTVSPost2010PropOp29
 70
     1
102
RTVSPost2010Prop30
280
     1
102
RTVSPost2010PropOp30
 70
     1
102
RTVSPost2010Prop31
280
     0
102
RTVSPost2010PropOp31
 70
     1
102
RTVSPost2010Prop32
280
     0
102
RTVSPost2010PropOp32
 70
     1
102
RTVSPost2010Prop33
280
     0
102
RTVSPost2010PropOp33
 70
     1
102
RTVSPost2010Prop34
280
     0
102
RTVSPost2010PropOp34
 70
     1
102
RTVSPost2010Prop35
280
     0
102
RTVSPost2010PropOp35
 70
     1
102
RTVSPost2010Prop36
280
     0
102
RTVSPost2010PropOp36
 70
     1
102
RTVSPost2010Prop37
 90
       50
102
RTVSPost2010PropOp37
 70
     1
102
RTVSPost2010Prop38
140
0.0
102
RTVSPost2010PropOp38
 70
     1
102
RTVSPost2010Prop39
140
1.0
102
RTVSPost2010PropOp39
 70
     1
102
RTVSPost2010Prop40
 90
        0
102
RTVSPost2010PropOp40
 70
     1
102
RTVSPost2010Prop41ColorIndex
 90
       18
102
RTVSPost2010Prop41ColorRGB
 90
        0
102
RTVSPost2010PropOp41
 70
     1
102
RTVSPost2010Prop42
 90
       50
102
RTVSPost2010PropOp42
 70
     1
102
RTVSPost2010Prop43
 90
        3
102
RTVSPost2010PropOp43
 70
     1
102
RTVSPost2010Prop44ColorIndex
 90
        5
102
RTVSPost2010Prop44ColorRGB
 90
      255
102
RTVSPost2010PropOp44
 70
     1
102
RTVSPost2010Prop45
280
     0
102
RTVSPost2010PropOp45
 70
     1
102
RTVSPost2010Prop46
 90
       50
102
RTVSPost2010PropOp46
 70
     1
102
RTVSPost2010Prop47
 90
       50
102
RTVSPost2010PropOp47
 70
     1
102
RTVSPost2010Prop48
 90
       50
102
RTVSPost2010PropOp48
 70
     1
102
RTVSPost2010Prop49
280
     0
102
RTVSPost2010PropOp49
 70
     1
102
RTVSPost2010Prop50
 90
       50
102
RTVSPost2010PropOp50
 70
     1
102
RTVSPost2010Prop51ColorIndex
 90
      256
102
RTVSPost2010Prop51ColorRGB
 90
-16777216
102
RTVSPost2010PropOp51
 70
     0
102
RTVSPost2010Prop52
140
1.0
102
RTVSPost2010PropOp52
 70
     0
102
RTVSPost2010Prop53
 90
        2
102
RTVSPost2010PropOp53
 70
     1
102
RTVSPost2010Prop54
  1
strokes_ogs.tif
102
RTVSPost2010PropOp54
 70
     1
102
RTVSPost2010Prop55
280
     0
102
RTVSPost2010PropOp55
 70
     1
102
RTVSPost2010Prop56
140
1.0
102
RTVSPost2010PropOp56
 70
     1
102
RTVSPost2010Prop57
140
1.0
102
RTVSPost2010PropOp57
 70
     1
  0
XRECORD
  5
1E5
102
{ACAD_REACTORS
330
1E4
102
}
330
1E4
100
AcDbXrecord
280
     1
102
RTVSPropertyOp0
 70
     1
102
RTVSPropertyOp1
 70
     1
102
RTVSPropertyOp2
 70
     1
102
RTVSPropertyOp3
 70
     1
102
RTVSPropertyOp4
 70
     1
102
RTVSPropertyOp5
 70
     1
102
RTVSPropertyOp6
 70
     1
102
RTVSPropertyOp7
 70
     1
102
RTVSPropertyOp8
 70
     1
102
RTVSPropertyOp9
 70
     1
102
RTVSPropertyOp10
 70
     1
102
RTVSPropertyOp11
 70
     1
102
RTVSPropertyOp12
 70
     1
102
RTVSPropertyOp13
 70
     1
102
RTVSPropertyOp14
 70
     1
102
RTVSPropertyOp15
 70
     1
102
RTVSPropertyOp16
 70
     1
102
RTVSPropertyOp17
 70
     1
102
RTVSPropertyOp18
 70
     1
102
RTVSPropertyOp19
 70
     1
102
RTVSPropertyOp20
 70
     1
102
RTVSPropertyOp21
 70
     1
102
RTVSPropertyOp22
 70
     1
102
RTVSPropertyOp23
 70
     1
102
RTVSPropertyOp24
 70
     1
102
RTVSPropertyOp25
 70
     1
102
RTVSPropertyOp26
 70
     1
102
RTVSPropertyOp27
 70
     1
102
RTVSPropertyOp28
 70
     1
102
RTVSPropertyOp29
 70
     1
102
RTVSPropertyOp30
 70
     1
102
RTVSPropertyOp31
 70
     1
102
RTVSPropertyOp32
 70
     1
102
RTVSPropertyOp33
 70
     1
102
RTVSPropertyOp34
 70
     1
102
RTVSPropertyOp35
 70
     1
102
RTVSPropertyOp36
 70
     1
102
RTVSPropertyOp37
 70
     1
102
RTVSPropertyOp38
 70
     1
102
RTVSPropertyOp39
 70
     1
102
RTVSPropertyOp40
 70
     1
102
RTVSPropertyOp41
 70
     1
102
RTVSPropertyOp42
 70
     1
102
RTVSPropertyOp43
 70
     1
102
RTVSPropertyOp44
 70
     1
102
RTVSPropertyOp45
 70
     1
102
RTVSPropertyOp46
 70
     1
102
RTVSPropertyOp47
 70
     1
102
RTVSPropertyOp48
 70
     1
102
RTVSPropertyOp49
 70
     1
102
RTVSPropertyOp50
 70
     1
102
RTVSPropertyOp51
 70
     0
102
RTVSPropertyOp52
 70
     0
102
RTVSPropertyOp53
 70
     1
102
RTVSPropertyOp54
 70
     1
102
RTVSPropertyOp55
 70
     1
102
RTVSPropertyOp56
 70
     1
102
RTVSPropertyOp57
 70
     1
102
RTVSPost2010Prop28
280
     0
102
RTVSPost2010PropOp28
 70
     1
102
RTVSPost2010Prop29
280
     1
102
RTVSPost2010PropOp29
 70
     1
102
RTVSPost2010Prop30
280
     1
102
RTVSPost2010PropOp30
 70
     1
102
RTVSPost2010Prop31
280
     0
102
RTVSPost2010PropOp31
 70
     1
102
RTVSPost2010Prop32
280
     0
102
RTVSPost2010PropOp32
 70
     1
102
RTVSPost2010Prop33
280
     0
102
RTVSPost2010PropOp33
 70
     1
102
RTVSPost2010Prop34
280
     0
102
RTVSPost2010PropOp34
 70
     1
102
RTVSPost2010Prop35
280
     0
102
RTVSPost2010PropOp35
 70
     1
102
RTVSPost2010Prop36
280
     0
102
RTVSPost2010PropOp36
 70
     1
102
RTVSPost2010Prop37
 90
       50
102
RTVSPost2010PropOp37
 70
     1
102
RTVSPost2010Prop38
140
0.0
102
RTVSPost2010PropOp38
 70
     1
102
RTVSPost2010Prop39
140
1.0
102
RTVSPost2010PropOp39
 70
     1
102
RTVSPost2010Prop40
 90
        0
102
RTVSPost2010PropOp40
 70
     1
102
RTVSPost2010Prop41ColorIndex
 90
       18
102
RTVSPost2010Prop41ColorRGB
 90
        0
102
RTVSPost2010PropOp41
 70
     1
102
RTVSPost2010Prop42
 90
       50
102
RTVSPost2010PropOp42
 70
     1
102
RTVSPost2010Prop43
 90
        3
102
RTVSPost2010PropOp43
 70
     1
102
RTVSPost2010Prop44ColorIndex
 90
        5
102
RTVSPost2010Prop44ColorRGB
 90
      255
102
RTVSPost2010PropOp44
 70
     1
102
RTVSPost2010Prop45
280
     0
102
RTVSPost2010PropOp45
 70
     1
102
RTVSPost2010Prop46
 90
       50
102
RTVSPost2010PropOp46
 70
     1
102
RTVSPost2010Prop47
 90
       50
102
RTVSPost2010PropOp47
 70
     1
102
RTVSPost2010Prop48
 90
       50
102
RTVSPost2010PropOp48
 70
     1
102
RTVSPost2010Prop49
280
     0
102
RTVSPost2010PropOp49
 70
     1
102
RTVSPost2010Prop50
 90
       50
102
RTVSPost2010PropOp50
 70
     1
102
RTVSPost2010Prop51ColorIndex
 90
      256
102
RTVSPost2010Prop51ColorRGB
 90
-16777216
102
RTVSPost2010PropOp51
 70
     0
102
RTVSPost2010Prop52
140
1.0
102
RTVSPost2010PropOp52
 70
     0
102
RTVSPost2010Prop53
 90
        2
102
RTVSPost2010PropOp53
 70
     1
102
RTVSPost2010Prop54
  1
strokes_ogs.tif
102
RTVSPost2010PropOp54
 70
     1
102
RTVSPost2010Prop55
280
     0
102
RTVSPost2010PropOp55
 70
     1
102
RTVSPost2010Prop56
140
1.0
102
RTVSPost2010PropOp56
 70
     1
102
RTVSPost2010Prop57
140
1.0
102
RTVSPost2010PropOp57
 70
     1
  0
XRECORD
  5
1E7
102
{ACAD_REACTORS
330
1E6
102
}
330
1E6
100
AcDbXrecord
280
     1
102
RTVSPropertyOp0
 70
     1
102
RTVSPropertyOp1
 70
     1
102
RTVSPropertyOp2
 70
     1
102
RTVSPropertyOp3
 70
     1
102
RTVSPropertyOp4
 70
     1
102
RTVSPropertyOp5
 70
     1
102
RTVSPropertyOp6
 70
     1
102
RTVSPropertyOp7
 70
     1
102
RTVSPropertyOp8
 70
     1
102
RTVSPropertyOp9
 70
     1
102
RTVSPropertyOp10
 70
     1
102
RTVSPropertyOp11
 70
     1
102
RTVSPropertyOp12
 70
     1
102
RTVSPropertyOp13
 70
     1
102
RTVSPropertyOp14
 70
     1
102
RTVSPropertyOp15
 70
     1
102
RTVSPropertyOp16
 70
     1
102
RTVSPropertyOp17
 70
     1
102
RTVSPropertyOp18
 70
     1
102
RTVSPropertyOp19
 70
     1
102
RTVSPropertyOp20
 70
     1
102
RTVSPropertyOp21
 70
     1
102
RTVSPropertyOp22
 70
     1
102
RTVSPropertyOp23
 70
     1
102
RTVSPropertyOp24
 70
     1
102
RTVSPropertyOp25
 70
     1
102
RTVSPropertyOp26
 70
     1
102
RTVSPropertyOp27
 70
     1
102
RTVSPropertyOp28
 70
     1
102
RTVSPropertyOp29
 70
     1
102
RTVSPropertyOp30
 70
     1
102
RTVSPropertyOp31
 70
     1
102
RTVSPropertyOp32
 70
     1
102
RTVSPropertyOp33
 70
     1
102
RTVSPropertyOp34
 70
     1
102
RTVSPropertyOp35
 70
     1
102
RTVSPropertyOp36
 70
     1
102
RTVSPropertyOp37
 70
     1
102
RTVSPropertyOp38
 70
     1
102
RTVSPropertyOp39
 70
     1
102
RTVSPropertyOp40
 70
     1
102
RTVSPropertyOp41
 70
     1
102
RTVSPropertyOp42
 70
     1
102
RTVSPropertyOp43
 70
     1
102
RTVSPropertyOp44
 70
     1
102
RTVSPropertyOp45
 70
     1
102
RTVSPropertyOp46
 70
     1
102
RTVSPropertyOp47
 70
     1
102
RTVSPropertyOp48
 70
     1
102
RTVSPropertyOp49
 70
     1
102
RTVSPropertyOp50
 70
     1
102
RTVSPropertyOp51
 70
     0
102
RTVSPropertyOp52
 70
     0
102
RTVSPropertyOp53
 70
     1
102
RTVSPropertyOp54
 70
     1
102
RTVSPropertyOp55
 70
     1
102
RTVSPropertyOp56
 70
     1
102
RTVSPropertyOp57
 70
     1
102
RTVSPost2010Prop28
280
     0
102
RTVSPost2010PropOp28
 70
     1
102
RTVSPost2010Prop29
280
     1
102
RTVSPost2010PropOp29
 70
     1
102
RTVSPost2010Prop30
280
     1
102
RTVSPost2010PropOp30
 70
     1
102
RTVSPost2010Prop31
280
     0
102
RTVSPost2010PropOp31
 70
     1
102
RTVSPost2010Prop32
280
     0
102
RTVSPost2010PropOp32
 70
     1
102
RTVSPost2010Prop33
280
     0
102
RTVSPost2010PropOp33
 70
     1
102
RTVSPost2010Prop34
280
     0
102
RTVSPost2010PropOp34
 70
     1
102
RTVSPost2010Prop35
280
     0
102
RTVSPost2010PropOp35
 70
     1
102
RTVSPost2010Prop36
280
     0
102
RTVSPost2010PropOp36
 70
     1
102
RTVSPost2010Prop37
 90
       50
102
RTVSPost2010PropOp37
 70
     1
102
RTVSPost2010Prop38
140
0.0
102
RTVSPost2010PropOp38
 70
     1
102
RTVSPost2010Prop39
140
1.0
102
RTVSPost2010PropOp39
 70
     1
102
RTVSPost2010Prop40
 90
        0
102
RTVSPost2010PropOp40
 70
     1
102
RTVSPost2010Prop41ColorIndex
 90
       18
102
RTVSPost2010Prop41ColorRGB
 90
        0
102
RTVSPost2010PropOp41
 70
     1
102
RTVSPost2010Prop42
 90
       50
102
RTVSPost2010PropOp42
 70
     1
102
RTVSPost2010Prop43
 90
        3
102
RTVSPost2010PropOp43
 70
     1
102
RTVSPost2010Prop44ColorIndex
 90
        5
102
RTVSPost2010Prop44ColorRGB
 90
      255
102
RTVSPost2010PropOp44
 70
     1
102
RTVSPost2010Prop45
280
     0
102
RTVSPost2010PropOp45
 70
     1
102
RTVSPost2010Prop46
 90
       50
102
RTVSPost2010PropOp46
 70
     1
102
RTVSPost2010Prop47
 90
       50
102
RTVSPost2010PropOp47
 70
     1
102
RTVSPost2010Prop48
 90
       50
102
RTVSPost2010PropOp48
 70
     1
102
RTVSPost2010Prop49
280
     0
102
RTVSPost2010PropOp49
 70
     1
102
RTVSPost2010Prop50
 90
       50
102
RTVSPost2010PropOp50
 70
     1
102
RTVSPost2010Prop51ColorIndex
 90
      256
102
RTVSPost2010Prop51ColorRGB
 90
-16777216
102
RTVSPost2010PropOp51
 70
     0
102
RTVSPost2010Prop52
140
1.0
102
RTVSPost2010PropOp52
 70
     0
102
RTVSPost2010Prop53
 90
        2
102
RTVSPost2010PropOp53
 70
     1
102
RTVSPost2010Prop54
  1
strokes_ogs.tif
102
RTVSPost2010PropOp54
 70
     1
102
RTVSPost2010Prop55
280
     0
102
RTVSPost2010PropOp55
 70
     1
102
RTVSPost2010Prop56
140
1.0
102
RTVSPost2010PropOp56
 70
     1
102
RTVSPost2010Prop57
140
1.0
102
RTVSPost2010PropOp57
 70
     1
  0
XRECORD
  5
1F7
102
{ACAD_REACTORS
330
1F6
102
}
330
1F6
100
AcDbXrecord
280
     1
102
RTVSPropertyOp0
 70
     0
102
RTVSPropertyOp1
 70
     0
102
RTVSPropertyOp2
 70
     0
102
RTVSPropertyOp3
 70
     0
102
RTVSPropertyOp4
 70
     0
102
RTVSPropertyOp5
 70
     0
102
RTVSPropertyOp6
 70
     0
102
RTVSPropertyOp7
 70
     0
102
RTVSPropertyOp8
 70
     0
102
RTVSPropertyOp9
 70
     0
102
RTVSPropertyOp10
 70
     0
102
RTVSPropertyOp11
 70
     0
102
RTVSPropertyOp12
 70
     0
102
RTVSPropertyOp13
 70
     0
102
RTVSPropertyOp14
 70
     2
102
RTVSPropertyOp15
 70
     0
102
RTVSPropertyOp16
 70
     0
102
RTVSPropertyOp17
 70
     0
102
RTVSPropertyOp18
 70
     0
102
RTVSPropertyOp19
 70
     0
102
RTVSPropertyOp20
 70
     0
102
RTVSPropertyOp21
 70
     0
102
RTVSPropertyOp22
 70
     0
102
RTVSPropertyOp23
 70
     0
102
RTVSPropertyOp24
 70
     0
102
RTVSPropertyOp25
 70
     0
102
RTVSPropertyOp26
 70
     0
102
RTVSPropertyOp27
 70
     0
102
RTVSPropertyOp28
 70
     0
102
RTVSPropertyOp29
 70
     0
102
RTVSPropertyOp30
 70
     0
102
RTVSPropertyOp31
 70
     0
102
RTVSPropertyOp32
 70
     0
102
RTVSPropertyOp33
 70
     0
102
RTVSPropertyOp34
 70
     0
102
RTVSPropertyOp35
 70
     0
102
RTVSPropertyOp36
 70
     0
102
RTVSPropertyOp37
 70
     0
102
RTVSPropertyOp38
 70
     0
102
RTVSPropertyOp39
 70
     0
102
RTVSPropertyOp40
 70
     0
102
RTVSPropertyOp41
 70
     0
102
RTVSPropertyOp42
 70
     0
102
RTVSPropertyOp43
 70
     0
102
RTVSPropertyOp44
 70
     0
102
RTVSPropertyOp45
 70
     0
102
RTVSPropertyOp46
 70
     0
102
RTVSPropertyOp47
 70
     0
102
RTVSPropertyOp48
 70
     0
102
RTVSPropertyOp49
 70
     0
102
RTVSPropertyOp50
 70
     0
102
RTVSPropertyOp51
 70
     0
102
RTVSPropertyOp52
 70
     0
102
RTVSPropertyOp53
 70
     0
102
RTVSPropertyOp54
 70
     0
102
RTVSPropertyOp55
 70
     0
102
RTVSPropertyOp56
 70
     0
102
RTVSPropertyOp57
 70
     0
102
RTVSPost2010Prop28
280
     0
102
RTVSPost2010PropOp28
 70
     0
102
RTVSPost2010Prop29
280
     1
102
RTVSPost2010PropOp29
 70
     0
102
RTVSPost2010Prop30
280
     1
102
RTVSPost2010PropOp30
 70
     0
102
RTVSPost2010Prop31
280
     0
102
RTVSPost2010PropOp31
 70
     0
102
RTVSPost2010Prop32
280
     0
102
RTVSPost2010PropOp32
 70
     0
102
RTVSPost2010Prop33
280
     0
102
RTVSPost2010PropOp33
 70
     0
102
RTVSPost2010Prop34
280
     0
102
RTVSPost2010PropOp34
 70
     0
102
RTVSPost2010Prop35
280
     0
102
RTVSPost2010PropOp35
 70
     0
102
RTVSPost2010Prop36
280
     0
102
RTVSPost2010PropOp36
 70
     0
102
RTVSPost2010Prop37
 90
       50
102
RTVSPost2010PropOp37
 70
     0
102
RTVSPost2010Prop38
140
0.0
102
RTVSPost2010PropOp38
 70
     0
102
RTVSPost2010Prop39
140
1.0
102
RTVSPost2010PropOp39
 70
     0
102
RTVSPost2010Prop40
 90
        0
102
RTVSPost2010PropOp40
 70
     0
102
RTVSPost2010Prop41ColorIndex
 90
       18
102
RTVSPost2010Prop41ColorRGB
 90
        0
102
RTVSPost2010PropOp41
 70
     0
102
RTVSPost2010Prop42
 90
       50
102
RTVSPost2010PropOp42
 70
     0
102
RTVSPost2010Prop43
 90
        3
102
RTVSPost2010PropOp43
 70
     0
102
RTVSPost2010Prop44ColorIndex
 90
        5
102
RTVSPost2010Prop44ColorRGB
 90
      255
102
RTVSPost2010PropOp44
 70
     0
102
RTVSPost2010Prop45
280
     0
102
RTVSPost2010PropOp45
 70
     0
102
RTVSPost2010Prop46
 90
       50
102
RTVSPost2010PropOp46
 70
     0
102
RTVSPost2010Prop47
 90
       50
102
RTVSPost2010PropOp47
 70
     0
102
RTVSPost2010Prop48
 90
       50
102
RTVSPost2010PropOp48
 70
     0
102
RTVSPost2010Prop49
280
     0
102
RTVSPost2010PropOp49
 70
     0
102
RTVSPost2010Prop50
 90
       50
102
RTVSPost2010PropOp50
 70
     0
102
RTVSPost2010Prop51ColorIndex
 90
      256
102
RTVSPost2010Prop51ColorRGB
 90
-16777216
102
RTVSPost2010PropOp51
 70
     0
102
RTVSPost2010Prop52
140
1.0
102
RTVSPost2010PropOp52
 70
     0
102
RTVSPost2010Prop53
 90
        2
102
RTVSPost2010PropOp53
 70
     0
102
RTVSPost2010Prop54
  1
strokes_ogs.tif
102
RTVSPost2010PropOp54
 70
     0
102
RTVSPost2010Prop55
280
     0
102
RTVSPost2010PropOp55
 70
     0
102
RTVSPost2010Prop56
140
1.0
102
RTVSPost2010PropOp56
 70
     0
102
RTVSPost2010Prop57
140
1.0
102
RTVSPost2010PropOp57
 70
     0
  0
XRECORD
  5
1EF
102
{ACAD_REACTORS
330
1EE
102
}
330
1EE
100
AcDbXrecord
280
     1
102
RTVSPropertyOp0
 70
     1
102
RTVSPropertyOp1
 70
     1
102
RTVSPropertyOp2
 70
     1
102
RTVSPropertyOp3
 70
     1
102
RTVSPropertyOp4
 70
     1
102
RTVSPropertyOp5
 70
     1
102
RTVSPropertyOp6
 70
     1
102
RTVSPropertyOp7
 70
     1
102
RTVSPropertyOp8
 70
     1
102
RTVSPropertyOp9
 70
     1
102
RTVSPropertyOp10
 70
     1
102
RTVSPropertyOp11
 70
     1
102
RTVSPropertyOp12
 70
     1
102
RTVSPropertyOp13
 70
     1
102
RTVSPropertyOp14
 70
     1
102
RTVSPropertyOp15
 70
     1
102
RTVSPropertyOp16
 70
     1
102
RTVSPropertyOp17
 70
     1
102
RTVSPropertyOp18
 70
     1
102
RTVSPropertyOp19
 70
     1
102
RTVSPropertyOp20
 70
     1
102
RTVSPropertyOp21
 70
     1
102
RTVSPropertyOp22
 70
     1
102
RTVSPropertyOp23
 70
     1
102
RTVSPropertyOp24
 70
     1
102
RTVSPropertyOp25
 70
     1
102
RTVSPropertyOp26
 70
     1
102
RTVSPropertyOp27
 70
     1
102
RTVSPropertyOp28
 70
     1
102
RTVSPropertyOp29
 70
     1
102
RTVSPropertyOp30
 70
     1
102
RTVSPropertyOp31
 70
     1
102
RTVSPropertyOp32
 70
     1
102
RTVSPropertyOp33
 70
     1
102
RTVSPropertyOp34
 70
     1
102
RTVSPropertyOp35
 70
     1
102
RTVSPropertyOp36
 70
     1
102
RTVSPropertyOp37
 70
     1
102
RTVSPropertyOp38
 70
     1
102
RTVSPropertyOp39
 70
     1
102
RTVSPropertyOp40
 70
     1
102
RTVSPropertyOp41
 70
     1
102
RTVSPropertyOp42
 70
     1
102
RTVSPropertyOp43
 70
     1
102
RTVSPropertyOp44
 70
     1
102
RTVSPropertyOp45
 70
     1
102
RTVSPropertyOp46
 70
     1
102
RTVSPropertyOp47
 70
     1
102
RTVSPropertyOp48
 70
     1
102
RTVSPropertyOp49
 70
     1
102
RTVSPropertyOp50
 70
     1
102
RTVSPropertyOp51
 70
     0
102
RTVSPropertyOp52
 70
     0
102
RTVSPropertyOp53
 70
     1
102
RTVSPropertyOp54
 70
     1
102
RTVSPropertyOp55
 70
     1
102
RTVSPropertyOp56
 70
     1
102
RTVSPropertyOp57
 70
     1
102
RTVSPost2010Prop28
280
     0
102
RTVSPost2010PropOp28
 70
     1
102
RTVSPost2010Prop29
280
     1
102
RTVSPost2010PropOp29
 70
     1
102
RTVSPost2010Prop30
280
     1
102
RTVSPost2010PropOp30
 70
     1
102
RTVSPost2010Prop31
280
     0
102
RTVSPost2010PropOp31
 70
     1
102
RTVSPost2010Prop32
280
     0
102
RTVSPost2010PropOp32
 70
     1
102
RTVSPost2010Prop33
280
     0
102
RTVSPost2010PropOp33
 70
     1
102
RTVSPost2010Prop34
280
     0
102
RTVSPost2010PropOp34
 70
     1
102
RTVSPost2010Prop35
280
     0
102
RTVSPost2010PropOp35
 70
     1
102
RTVSPost2010Prop36
280
     0
102
RTVSPost2010PropOp36
 70
     1
102
RTVSPost2010Prop37
 90
       50
102
RTVSPost2010PropOp37
 70
     1
102
RTVSPost2010Prop38
140
0.0
102
RTVSPost2010PropOp38
 70
     1
102
RTVSPost2010Prop39
140
1.0
102
RTVSPost2010PropOp39
 70
     1
102
RTVSPost2010Prop40
 90
        0
102
RTVSPost2010PropOp40
 70
     1
102
RTVSPost2010Prop41ColorIndex
 90
       18
102
RTVSPost2010Prop41ColorRGB
 90
        0
102
RTVSPost2010PropOp41
 70
     1
102
RTVSPost2010Prop42
 90
       50
102
RTVSPost2010PropOp42
 70
     1
102
RTVSPost2010Prop43
 90
        3
102
RTVSPost2010PropOp43
 70
     1
102
RTVSPost2010Prop44ColorIndex
 90
        5
102
RTVSPost2010Prop44ColorRGB
 90
      255
102
RTVSPost2010PropOp44
 70
     1
102
RTVSPost2010Prop45
280
     0
102
RTVSPost2010PropOp45
 70
     1
102
RTVSPost2010Prop46
 90
       50
102
RTVSPost2010PropOp46
 70
     1
102
RTVSPost2010Prop47
 90
       50
102
RTVSPost2010PropOp47
 70
     1
102
RTVSPost2010Prop48
 90
       50
102
RTVSPost2010PropOp48
 70
     1
102
RTVSPost2010Prop49
280
     0
102
RTVSPost2010PropOp49
 70
     1
102
RTVSPost2010Prop50
 90
       50
102
RTVSPost2010PropOp50
 70
     1
102
RTVSPost2010Prop51ColorIndex
 90
      256
102
RTVSPost2010Prop51ColorRGB
 90
-16777216
102
RTVSPost2010PropOp51
 70
     0
102
RTVSPost2010Prop52
140
1.0
102
RTVSPost2010PropOp52
 70
     0
102
RTVSPost2010Prop53
 90
        2
102
RTVSPost2010PropOp53
 70
     1
102
RTVSPost2010Prop54
  1
strokes_ogs.tif
102
RTVSPost2010PropOp54
 70
     1
102
RTVSPost2010Prop55
280
     0
102
RTVSPost2010PropOp55
 70
     1
102
RTVSPost2010Prop56
140
1.0
102
RTVSPost2010PropOp56
 70
     1
102
RTVSPost2010Prop57
140
1.0
102
RTVSPost2010PropOp57
 70
     1
  0
XRECORD
  5
1D3
102
{ACAD_REACTORS
330
1D2
102
}
330
1D2
100
AcDbXrecord
280
     1
102
RTVSPropertyOp0
 70
     1
102
RTVSPropertyOp1
 70
     1
102
RTVSPropertyOp2
 70
     1
102
RTVSPropertyOp3
 70
     1
102
RTVSPropertyOp4
 70
     1
102
RTVSPropertyOp5
 70
     1
102
RTVSPropertyOp6
 70
     1
102
RTVSPropertyOp7
 70
     1
102
RTVSPropertyOp8
 70
     1
102
RTVSPropertyOp9
 70
     1
102
RTVSPropertyOp10
 70
     1
102
RTVSPropertyOp11
 70
     1
102
RTVSPropertyOp12
 70
     1
102
RTVSPropertyOp13
 70
     1
102
RTVSPropertyOp14
 70
     1
102
RTVSPropertyOp15
 70
     1
102
RTVSPropertyOp16
 70
     1
102
RTVSPropertyOp17
 70
     1
102
RTVSPropertyOp18
 70
     1
102
RTVSPropertyOp19
 70
     1
102
RTVSPropertyOp20
 70
     1
102
RTVSPropertyOp21
 70
     1
102
RTVSPropertyOp22
 70
     1
102
RTVSPropertyOp23
 70
     1
102
RTVSPropertyOp24
 70
     1
102
RTVSPropertyOp25
 70
     1
102
RTVSPropertyOp26
 70
     1
102
RTVSPropertyOp27
 70
     1
102
RTVSPropertyOp28
 70
     1
102
RTVSPropertyOp29
 70
     1
102
RTVSPropertyOp30
 70
     1
102
RTVSPropertyOp31
 70
     1
102
RTVSPropertyOp32
 70
     1
102
RTVSPropertyOp33
 70
     1
102
RTVSPropertyOp34
 70
     1
102
RTVSPropertyOp35
 70
     1
102
RTVSPropertyOp36
 70
     1
102
RTVSPropertyOp37
 70
     1
102
RTVSPropertyOp38
 70
     1
102
RTVSPropertyOp39
 70
     1
102
RTVSPropertyOp40
 70
     1
102
RTVSPropertyOp41
 70
     1
102
RTVSPropertyOp42
 70
     1
102
RTVSPropertyOp43
 70
     1
102
RTVSPropertyOp44
 70
     1
102
RTVSPropertyOp45
 70
     1
102
RTVSPropertyOp46
 70
     1
102
RTVSPropertyOp47
 70
     1
102
RTVSPropertyOp48
 70
     1
102
RTVSPropertyOp49
 70
     1
102
RTVSPropertyOp50
 70
     1
102
RTVSPropertyOp51
 70
     0
102
RTVSPropertyOp52
 70
     0
102
RTVSPropertyOp53
 70
     1
102
RTVSPropertyOp54
 70
     1
102
RTVSPropertyOp55
 70
     1
102
RTVSPropertyOp56
 70
     1
102
RTVSPropertyOp57
 70
     1
102
RTVSPost2010Prop28
280
     0
102
RTVSPost2010PropOp28
 70
     1
102
RTVSPost2010Prop29
280
     1
102
RTVSPost2010PropOp29
 70
     1
102
RTVSPost2010Prop30
280
     1
102
RTVSPost2010PropOp30
 70
     1
102
RTVSPost2010Prop31
280
     0
102
RTVSPost2010PropOp31
 70
     1
102
RTVSPost2010Prop32
280
     0
102
RTVSPost2010PropOp32
 70
     1
102
RTVSPost2010Prop33
280
     0
102
RTVSPost2010PropOp33
 70
     1
102
RTVSPost2010Prop34
280
     0
102
RTVSPost2010PropOp34
 70
     1
102
RTVSPost2010Prop35
280
     0
102
RTVSPost2010PropOp35
 70
     1
102
RTVSPost2010Prop36
280
     0
102
RTVSPost2010PropOp36
 70
     1
102
RTVSPost2010Prop37
 90
       50
102
RTVSPost2010PropOp37
 70
     1
102
RTVSPost2010Prop38
140
0.0
102
RTVSPost2010PropOp38
 70
     1
102
RTVSPost2010Prop39
140
1.0
102
RTVSPost2010PropOp39
 70
     1
102
RTVSPost2010Prop40
 90
        0
102
RTVSPost2010PropOp40
 70
     1
102
RTVSPost2010Prop41ColorIndex
 90
       18
102
RTVSPost2010Prop41ColorRGB
 90
        0
102
RTVSPost2010PropOp41
 70
     1
102
RTVSPost2010Prop42
 90
       50
102
RTVSPost2010PropOp42
 70
     1
102
RTVSPost2010Prop43
 90
        3
102
RTVSPost2010PropOp43
 70
     1
102
RTVSPost2010Prop44ColorIndex
 90
        5
102
RTVSPost2010Prop44ColorRGB
 90
      255
102
RTVSPost2010PropOp44
 70
     1
102
RTVSPost2010Prop45
280
     0
102
RTVSPost2010PropOp45
 70
     1
102
RTVSPost2010Prop46
 90
       50
102
RTVSPost2010PropOp46
 70
     1
102
RTVSPost2010Prop47
 90
       50
102
RTVSPost2010PropOp47
 70
     1
102
RTVSPost2010Prop48
 90
       50
102
RTVSPost2010PropOp48
 70
     1
102
RTVSPost2010Prop49
280
     0
102
RTVSPost2010PropOp49
 70
     1
102
RTVSPost2010Prop50
 90
       50
102
RTVSPost2010PropOp50
 70
     1
102
RTVSPost2010Prop51ColorIndex
 90
      256
102
RTVSPost2010Prop51ColorRGB
 90
-16777216
102
RTVSPost2010PropOp51
 70
     0
102
RTVSPost2010Prop52
140
1.0
102
RTVSPost2010PropOp52
 70
     0
102
RTVSPost2010Prop53
 90
        2
102
RTVSPost2010PropOp53
 70
     1
102
RTVSPost2010Prop54
  1
strokes_ogs.tif
102
RTVSPost2010PropOp54
 70
     1
102
RTVSPost2010Prop55
280
     0
102
RTVSPost2010PropOp55
 70
     1
102
RTVSPost2010Prop56
140
1.0
102
RTVSPost2010PropOp56
 70
     1
102
RTVSPost2010Prop57
140
1.0
102
RTVSPost2010PropOp57
 70
     1
  0
XRECORD
  5
1D5
102
{ACAD_REACTORS
330
1D4
102
}
330
1D4
100
AcDbXrecord
280
     1
102
RTVSPropertyOp0
 70
     1
102
RTVSPropertyOp1
 70
     1
102
RTVSPropertyOp2
 70
     1
102
RTVSPropertyOp3
 70
     1
102
RTVSPropertyOp4
 70
     1
102
RTVSPropertyOp5
 70
     1
102
RTVSPropertyOp6
 70
     1
102
RTVSPropertyOp7
 70
     1
102
RTVSPropertyOp8
 70
     1
102
RTVSPropertyOp9
 70
     1
102
RTVSPropertyOp10
 70
     1
102
RTVSPropertyOp11
 70
     1
102
RTVSPropertyOp12
 70
     1
102
RTVSPropertyOp13
 70
     1
102
RTVSPropertyOp14
 70
     1
102
RTVSPropertyOp15
 70
     1
102
RTVSPropertyOp16
 70
     1
102
RTVSPropertyOp17
 70
     1
102
RTVSPropertyOp18
 70
     1
102
RTVSPropertyOp19
 70
     1
102
RTVSPropertyOp20
 70
     1
102
RTVSPropertyOp21
 70
     1
102
RTVSPropertyOp22
 70
     1
102
RTVSPropertyOp23
 70
     1
102
RTVSPropertyOp24
 70
     1
102
RTVSPropertyOp25
 70
     1
102
RTVSPropertyOp26
 70
     1
102
RTVSPropertyOp27
 70
     1
102
RTVSPropertyOp28
 70
     1
102
RTVSPropertyOp29
 70
     1
102
RTVSPropertyOp30
 70
     1
102
RTVSPropertyOp31
 70
     1
102
RTVSPropertyOp32
 70
     1
102
RTVSPropertyOp33
 70
     1
102
RTVSPropertyOp34
 70
     1
102
RTVSPropertyOp35
 70
     1
102
RTVSPropertyOp36
 70
     1
102
RTVSPropertyOp37
 70
     1
102
RTVSPropertyOp38
 70
     1
102
RTVSPropertyOp39
 70
     1
102
RTVSPropertyOp40
 70
     1
102
RTVSPropertyOp41
 70
     1
102
RTVSPropertyOp42
 70
     1
102
RTVSPropertyOp43
 70
     1
102
RTVSPropertyOp44
 70
     1
102
RTVSPropertyOp45
 70
     1
102
RTVSPropertyOp46
 70
     1
102
RTVSPropertyOp47
 70
     1
102
RTVSPropertyOp48
 70
     1
102
RTVSPropertyOp49
 70
     1
102
RTVSPropertyOp50
 70
     1
102
RTVSPropertyOp51
 70
     0
102
RTVSPropertyOp52
 70
     0
102
RTVSPropertyOp53
 70
     1
102
RTVSPropertyOp54
 70
     1
102
RTVSPropertyOp55
 70
     1
102
RTVSPropertyOp56
 70
     1
102
RTVSPropertyOp57
 70
     1
102
RTVSPost2010Prop28
280
     0
102
RTVSPost2010PropOp28
 70
     1
102
RTVSPost2010Prop29
280
     1
102
RTVSPost2010PropOp29
 70
     1
102
RTVSPost2010Prop30
280
     1
102
RTVSPost2010PropOp30
 70
     1
102
RTVSPost2010Prop31
280
     0
102
RTVSPost2010PropOp31
 70
     1
102
RTVSPost2010Prop32
280
     0
102
RTVSPost2010PropOp32
 70
     1
102
RTVSPost2010Prop33
280
     0
102
RTVSPost2010PropOp33
 70
     1
102
RTVSPost2010Prop34
280
     0
102
RTVSPost2010PropOp34
 70
     1
102
RTVSPost2010Prop35
280
     0
102
RTVSPost2010PropOp35
 70
     1
102
RTVSPost2010Prop36
280
     0
102
RTVSPost2010PropOp36
 70
     1
102
RTVSPost2010Prop37
 90
       50
102
RTVSPost2010PropOp37
 70
     1
102
RTVSPost2010Prop38
140
0.0
102
RTVSPost2010PropOp38
 70
     1
102
RTVSPost2010Prop39
140
1.0
102
RTVSPost2010PropOp39
 70
     1
102
RTVSPost2010Prop40
 90
        0
102
RTVSPost2010PropOp40
 70
     1
102
RTVSPost2010Prop41ColorIndex
 90
       18
102
RTVSPost2010Prop41ColorRGB
 90
        0
102
RTVSPost2010PropOp41
 70
     1
102
RTVSPost2010Prop42
 90
       50
102
RTVSPost2010PropOp42
 70
     1
102
RTVSPost2010Prop43
 90
        3
102
RTVSPost2010PropOp43
 70
     1
102
RTVSPost2010Prop44ColorIndex
 90
        5
102
RTVSPost2010Prop44ColorRGB
 90
      255
102
RTVSPost2010PropOp44
 70
     1
102
RTVSPost2010Prop45
280
     0
102
RTVSPost2010PropOp45
 70
     1
102
RTVSPost2010Prop46
 90
       50
102
RTVSPost2010PropOp46
 70
     1
102
RTVSPost2010Prop47
 90
       50
102
RTVSPost2010PropOp47
 70
     1
102
RTVSPost2010Prop48
 90
       50
102
RTVSPost2010PropOp48
 70
     1
102
RTVSPost2010Prop49
280
     0
102
RTVSPost2010PropOp49
 70
     1
102
RTVSPost2010Prop50
 90
       50
102
RTVSPost2010PropOp50
 70
     1
102
RTVSPost2010Prop51ColorIndex
 90
      256
102
RTVSPost2010Prop51ColorRGB
 90
-16777216
102
RTVSPost2010PropOp51
 70
     0
102
RTVSPost2010Prop52
140
1.0
102
RTVSPost2010PropOp52
 70
     0
102
RTVSPost2010Prop53
 90
        2
102
RTVSPost2010PropOp53
 70
     1
102
RTVSPost2010Prop54
  1
strokes_ogs.tif
102
RTVSPost2010PropOp54
 70
     1
102
RTVSPost2010Prop55
280
     0
102
RTVSPost2010PropOp55
 70
     1
102
RTVSPost2010Prop56
140
1.0
102
RTVSPost2010PropOp56
 70
     1
102
RTVSPost2010Prop57
140
1.0
102
RTVSPost2010PropOp57
 70
     1
  0
XRECORD
  5
1D7
102
{ACAD_REACTORS
330
1D6
102
}
330
1D6
100
AcDbXrecord
280
     1
102
RTVSPropertyOp0
 70
     1
102
RTVSPropertyOp1
 70
     1
102
RTVSPropertyOp2
 70
     1
102
RTVSPropertyOp3
 70
     1
102
RTVSPropertyOp4
 70
     1
102
RTVSPropertyOp5
 70
     1
102
RTVSPropertyOp6
 70
     1
102
RTVSPropertyOp7
 70
     1
102
RTVSPropertyOp8
 70
     1
102
RTVSPropertyOp9
 70
     1
102
RTVSPropertyOp10
 70
     1
102
RTVSPropertyOp11
 70
     1
102
RTVSPropertyOp12
 70
     1
102
RTVSPropertyOp13
 70
     1
102
RTVSPropertyOp14
 70
     1
102
RTVSPropertyOp15
 70
     1
102
RTVSPropertyOp16
 70
     1
102
RTVSPropertyOp17
 70
     1
102
RTVSPropertyOp18
 70
     1
102
RTVSPropertyOp19
 70
     1
102
RTVSPropertyOp20
 70
     1
102
RTVSPropertyOp21
 70
     1
102
RTVSPropertyOp22
 70
     1
102
RTVSPropertyOp23
 70
     1
102
RTVSPropertyOp24
 70
     1
102
RTVSPropertyOp25
 70
     1
102
RTVSPropertyOp26
 70
     1
102
RTVSPropertyOp27
 70
     1
102
RTVSPropertyOp28
 70
     1
102
RTVSPropertyOp29
 70
     1
102
RTVSPropertyOp30
 70
     1
102
RTVSPropertyOp31
 70
     1
102
RTVSPropertyOp32
 70
     1
102
RTVSPropertyOp33
 70
     1
102
RTVSPropertyOp34
 70
     1
102
RTVSPropertyOp35
 70
     1
102
RTVSPropertyOp36
 70
     1
102
RTVSPropertyOp37
 70
     1
102
RTVSPropertyOp38
 70
     1
102
RTVSPropertyOp39
 70
     1
102
RTVSPropertyOp40
 70
     1
102
RTVSPropertyOp41
 70
     1
102
RTVSPropertyOp42
 70
     1
102
RTVSPropertyOp43
 70
     1
102
RTVSPropertyOp44
 70
     1
102
RTVSPropertyOp45
 70
     1
102
RTVSPropertyOp46
 70
     1
102
RTVSPropertyOp47
 70
     1
102
RTVSPropertyOp48
 70
     1
102
RTVSPropertyOp49
 70
     1
102
RTVSPropertyOp50
 70
     1
102
RTVSPropertyOp51
 70
     0
102
RTVSPropertyOp52
 70
     0
102
RTVSPropertyOp53
 70
     1
102
RTVSPropertyOp54
 70
     1
102
RTVSPropertyOp55
 70
     1
102
RTVSPropertyOp56
 70
     1
102
RTVSPropertyOp57
 70
     1
102
RTVSPost2010Prop28
280
     0
102
RTVSPost2010PropOp28
 70
     1
102
RTVSPost2010Prop29
280
     1
102
RTVSPost2010PropOp29
 70
     1
102
RTVSPost2010Prop30
280
     1
102
RTVSPost2010PropOp30
 70
     1
102
RTVSPost2010Prop31
280
     0
102
RTVSPost2010PropOp31
 70
     1
102
RTVSPost2010Prop32
280
     0
102
RTVSPost2010PropOp32
 70
     1
102
RTVSPost2010Prop33
280
     0
102
RTVSPost2010PropOp33
 70
     1
102
RTVSPost2010Prop34
280
     0
102
RTVSPost2010PropOp34
 70
     1
102
RTVSPost2010Prop35
280
     0
102
RTVSPost2010PropOp35
 70
     1
102
RTVSPost2010Prop36
280
     0
102
RTVSPost2010PropOp36
 70
     1
102
RTVSPost2010Prop37
 90
       50
102
RTVSPost2010PropOp37
 70
     1
102
RTVSPost2010Prop38
140
0.0
102
RTVSPost2010PropOp38
 70
     1
102
RTVSPost2010Prop39
140
1.0
102
RTVSPost2010PropOp39
 70
     1
102
RTVSPost2010Prop40
 90
        0
102
RTVSPost2010PropOp40
 70
     1
102
RTVSPost2010Prop41ColorIndex
 90
       18
102
RTVSPost2010Prop41ColorRGB
 90
        0
102
RTVSPost2010PropOp41
 70
     1
102
RTVSPost2010Prop42
 90
       50
102
RTVSPost2010PropOp42
 70
     1
102
RTVSPost2010Prop43
 90
        3
102
RTVSPost2010PropOp43
 70
     1
102
RTVSPost2010Prop44ColorIndex
 90
        5
102
RTVSPost2010Prop44ColorRGB
 90
      255
102
RTVSPost2010PropOp44
 70
     1
102
RTVSPost2010Prop45
280
     0
102
RTVSPost2010PropOp45
 70
     1
102
RTVSPost2010Prop46
 90
       50
102
RTVSPost2010PropOp46
 70
     1
102
RTVSPost2010Prop47
 90
       50
102
RTVSPost2010PropOp47
 70
     1
102
RTVSPost2010Prop48
 90
       50
102
RTVSPost2010PropOp48
 70
     1
102
RTVSPost2010Prop49
280
     0
102
RTVSPost2010PropOp49
 70
     1
102
RTVSPost2010Prop50
 90
       50
102
RTVSPost2010PropOp50
 70
     1
102
RTVSPost2010Prop51ColorIndex
 90
      256
102
RTVSPost2010Prop51ColorRGB
 90
-16777216
102
RTVSPost2010PropOp51
 70
     0
102
RTVSPost2010Prop52
140
1.0
102
RTVSPost2010PropOp52
 70
     0
102
RTVSPost2010Prop53
 90
        2
102
RTVSPost2010PropOp53
 70
     1
102
RTVSPost2010Prop54
  1
strokes_ogs.tif
102
RTVSPost2010PropOp54
 70
     1
102
RTVSPost2010Prop55
280
     0
102
RTVSPost2010PropOp55
 70
     1
102
RTVSPost2010Prop56
140
1.0
102
RTVSPost2010PropOp56
 70
     1
102
RTVSPost2010Prop57
140
1.0
102
RTVSPost2010PropOp57
 70
     1
  0
XRECORD
  5
1D9
102
{ACAD_REACTORS
330
1D8
102
}
330
1D8
100
AcDbXrecord
280
     1
102
RTVSPropertyOp0
 70
     1
102
RTVSPropertyOp1
 70
     1
102
RTVSPropertyOp2
 70
     1
102
RTVSPropertyOp3
 70
     1
102
RTVSPropertyOp4
 70
     1
102
RTVSPropertyOp5
 70
     1
102
RTVSPropertyOp6
 70
     1
102
RTVSPropertyOp7
 70
     1
102
RTVSPropertyOp8
 70
     1
102
RTVSPropertyOp9
 70
     1
102
RTVSPropertyOp10
 70
     1
102
RTVSPropertyOp11
 70
     1
102
RTVSPropertyOp12
 70
     1
102
RTVSPropertyOp13
 70
     1
102
RTVSPropertyOp14
 70
     1
102
RTVSPropertyOp15
 70
     1
102
RTVSPropertyOp16
 70
     1
102
RTVSPropertyOp17
 70
     1
102
RTVSPropertyOp18
 70
     1
102
RTVSPropertyOp19
 70
     1
102
RTVSPropertyOp20
 70
     1
102
RTVSPropertyOp21
 70
     1
102
RTVSPropertyOp22
 70
     1
102
RTVSPropertyOp23
 70
     1
102
RTVSPropertyOp24
 70
     1
102
RTVSPropertyOp25
 70
     1
102
RTVSPropertyOp26
 70
     1
102
RTVSPropertyOp27
 70
     1
102
RTVSPropertyOp28
 70
     1
102
RTVSPropertyOp29
 70
     1
102
RTVSPropertyOp30
 70
     1
102
RTVSPropertyOp31
 70
     1
102
RTVSPropertyOp32
 70
     1
102
RTVSPropertyOp33
 70
     1
102
RTVSPropertyOp34
 70
     1
102
RTVSPropertyOp35
 70
     1
102
RTVSPropertyOp36
 70
     1
102
RTVSPropertyOp37
 70
     1
102
RTVSPropertyOp38
 70
     1
102
RTVSPropertyOp39
 70
     1
102
RTVSPropertyOp40
 70
     1
102
RTVSPropertyOp41
 70
     1
102
RTVSPropertyOp42
 70
     1
102
RTVSPropertyOp43
 70
     1
102
RTVSPropertyOp44
 70
     1
102
RTVSPropertyOp45
 70
     1
102
RTVSPropertyOp46
 70
     1
102
RTVSPropertyOp47
 70
     1
102
RTVSPropertyOp48
 70
     1
102
RTVSPropertyOp49
 70
     1
102
RTVSPropertyOp50
 70
     1
102
RTVSPropertyOp51
 70
     0
102
RTVSPropertyOp52
 70
     0
102
RTVSPropertyOp53
 70
     1
102
RTVSPropertyOp54
 70
     1
102
RTVSPropertyOp55
 70
     1
102
RTVSPropertyOp56
 70
     1
102
RTVSPropertyOp57
 70
     1
102
RTVSPost2010Prop28
280
     0
102
RTVSPost2010PropOp28
 70
     1
102
RTVSPost2010Prop29
280
     1
102
RTVSPost2010PropOp29
 70
     1
102
RTVSPost2010Prop30
280
     1
102
RTVSPost2010PropOp30
 70
     1
102
RTVSPost2010Prop31
280
     0
102
RTVSPost2010PropOp31
 70
     1
102
RTVSPost2010Prop32
280
     0
102
RTVSPost2010PropOp32
 70
     1
102
RTVSPost2010Prop33
280
     0
102
RTVSPost2010PropOp33
 70
     1
102
RTVSPost2010Prop34
280
     0
102
RTVSPost2010PropOp34
 70
     1
102
RTVSPost2010Prop35
280
     0
102
RTVSPost2010PropOp35
 70
     1
102
RTVSPost2010Prop36
280
     0
102
RTVSPost2010PropOp36
 70
     1
102
RTVSPost2010Prop37
 90
       50
102
RTVSPost2010PropOp37
 70
     1
102
RTVSPost2010Prop38
140
0.0
102
RTVSPost2010PropOp38
 70
     1
102
RTVSPost2010Prop39
140
1.0
102
RTVSPost2010PropOp39
 70
     1
102
RTVSPost2010Prop40
 90
        0
102
RTVSPost2010PropOp40
 70
     1
102
RTVSPost2010Prop41ColorIndex
 90
       18
102
RTVSPost2010Prop41ColorRGB
 90
        0
102
RTVSPost2010PropOp41
 70
     1
102
RTVSPost2010Prop42
 90
       50
102
RTVSPost2010PropOp42
 70
     1
102
RTVSPost2010Prop43
 90
        3
102
RTVSPost2010PropOp43
 70
     1
102
RTVSPost2010Prop44ColorIndex
 90
        5
102
RTVSPost2010Prop44ColorRGB
 90
      255
102
RTVSPost2010PropOp44
 70
     1
102
RTVSPost2010Prop45
280
     0
102
RTVSPost2010PropOp45
 70
     1
102
RTVSPost2010Prop46
 90
       50
102
RTVSPost2010PropOp46
 70
     1
102
RTVSPost2010Prop47
 90
       50
102
RTVSPost2010PropOp47
 70
     1
102
RTVSPost2010Prop48
 90
       50
102
RTVSPost2010PropOp48
 70
     1
102
RTVSPost2010Prop49
280
     0
102
RTVSPost2010PropOp49
 70
     1
102
RTVSPost2010Prop50
 90
       50
102
RTVSPost2010PropOp50
 70
     1
102
RTVSPost2010Prop51ColorIndex
 90
      256
102
RTVSPost2010Prop51ColorRGB
 90
-16777216
102
RTVSPost2010PropOp51
 70
     0
102
RTVSPost2010Prop52
140
1.0
102
RTVSPost2010PropOp52
 70
     0
102
RTVSPost2010Prop53
 90
        2
102
RTVSPost2010PropOp53
 70
     1
102
RTVSPost2010Prop54
  1
strokes_ogs.tif
102
RTVSPost2010PropOp54
 70
     1
102
RTVSPost2010Prop55
280
     0
102
RTVSPost2010PropOp55
 70
     1
102
RTVSPost2010Prop56
140
1.0
102
RTVSPost2010PropOp56
 70
     1
102
RTVSPost2010Prop57
140
1.0
102
RTVSPost2010PropOp57
 70
     1
  0
XRECORD
  5
1DF
102
{ACAD_REACTORS
330
1DE
102
}
330
1DE
100
AcDbXrecord
280
     1
102
RTVSPropertyOp0
 70
     1
102
RTVSPropertyOp1
 70
     1
102
RTVSPropertyOp2
 70
     1
102
RTVSPropertyOp3
 70
     1
102
RTVSPropertyOp4
 70
     1
102
RTVSPropertyOp5
 70
     1
102
RTVSPropertyOp6
 70
     1
102
RTVSPropertyOp7
 70
     1
102
RTVSPropertyOp8
 70
     1
102
RTVSPropertyOp9
 70
     1
102
RTVSPropertyOp10
 70
     1
102
RTVSPropertyOp11
 70
     1
102
RTVSPropertyOp12
 70
     1
102
RTVSPropertyOp13
 70
     1
102
RTVSPropertyOp14
 70
     1
102
RTVSPropertyOp15
 70
     1
102
RTVSPropertyOp16
 70
     1
102
RTVSPropertyOp17
 70
     1
102
RTVSPropertyOp18
 70
     1
102
RTVSPropertyOp19
 70
     1
102
RTVSPropertyOp20
 70
     1
102
RTVSPropertyOp21
 70
     1
102
RTVSPropertyOp22
 70
     1
102
RTVSPropertyOp23
 70
     1
102
RTVSPropertyOp24
 70
     1
102
RTVSPropertyOp25
 70
     1
102
RTVSPropertyOp26
 70
     1
102
RTVSPropertyOp27
 70
     1
102
RTVSPropertyOp28
 70
     1
102
RTVSPropertyOp29
 70
     1
102
RTVSPropertyOp30
 70
     1
102
RTVSPropertyOp31
 70
     1
102
RTVSPropertyOp32
 70
     1
102
RTVSPropertyOp33
 70
     1
102
RTVSPropertyOp34
 70
     1
102
RTVSPropertyOp35
 70
     1
102
RTVSPropertyOp36
 70
     1
102
RTVSPropertyOp37
 70
     1
102
RTVSPropertyOp38
 70
     1
102
RTVSPropertyOp39
 70
     1
102
RTVSPropertyOp40
 70
     1
102
RTVSPropertyOp41
 70
     1
102
RTVSPropertyOp42
 70
     1
102
RTVSPropertyOp43
 70
     1
102
RTVSPropertyOp44
 70
     1
102
RTVSPropertyOp45
 70
     1
102
RTVSPropertyOp46
 70
     1
102
RTVSPropertyOp47
 70
     1
102
RTVSPropertyOp48
 70
     1
102
RTVSPropertyOp49
 70
     1
102
RTVSPropertyOp50
 70
     1
102
RTVSPropertyOp51
 70
     0
102
RTVSPropertyOp52
 70
     0
102
RTVSPropertyOp53
 70
     1
102
RTVSPropertyOp54
 70
     1
102
RTVSPropertyOp55
 70
     1
102
RTVSPropertyOp56
 70
     1
102
RTVSPropertyOp57
 70
     1
102
RTVSPost2010Prop28
280
     0
102
RTVSPost2010PropOp28
 70
     1
102
RTVSPost2010Prop29
280
     1
102
RTVSPost2010PropOp29
 70
     1
102
RTVSPost2010Prop30
280
     1
102
RTVSPost2010PropOp30
 70
     1
102
RTVSPost2010Prop31
280
     0
102
RTVSPost2010PropOp31
 70
     1
102
RTVSPost2010Prop32
280
     0
102
RTVSPost2010PropOp32
 70
     1
102
RTVSPost2010Prop33
280
     0
102
RTVSPost2010PropOp33
 70
     1
102
RTVSPost2010Prop34
280
     0
102
RTVSPost2010PropOp34
 70
     1
102
RTVSPost2010Prop35
280
     0
102
RTVSPost2010PropOp35
 70
     1
102
RTVSPost2010Prop36
280
     0
102
RTVSPost2010PropOp36
 70
     1
102
RTVSPost2010Prop37
 90
       50
102
RTVSPost2010PropOp37
 70
     1
102
RTVSPost2010Prop38
140
0.0
102
RTVSPost2010PropOp38
 70
     1
102
RTVSPost2010Prop39
140
1.0
102
RTVSPost2010PropOp39
 70
     1
102
RTVSPost2010Prop40
 90
        0
102
RTVSPost2010PropOp40
 70
     1
102
RTVSPost2010Prop41ColorIndex
 90
       18
102
RTVSPost2010Prop41ColorRGB
 90
        0
102
RTVSPost2010PropOp41
 70
     1
102
RTVSPost2010Prop42
 90
       50
102
RTVSPost2010PropOp42
 70
     1
102
RTVSPost2010Prop43
 90
        3
102
RTVSPost2010PropOp43
 70
     1
102
RTVSPost2010Prop44ColorIndex
 90
        5
102
RTVSPost2010Prop44ColorRGB
 90
      255
102
RTVSPost2010PropOp44
 70
     1
102
RTVSPost2010Prop45
280
     0
102
RTVSPost2010PropOp45
 70
     1
102
RTVSPost2010Prop46
 90
       50
102
RTVSPost2010PropOp46
 70
     1
102
RTVSPost2010Prop47
 90
       50
102
RTVSPost2010PropOp47
 70
     1
102
RTVSPost2010Prop48
 90
       50
102
RTVSPost2010PropOp48
 70
     1
102
RTVSPost2010Prop49
280
     0
102
RTVSPost2010PropOp49
 70
     1
102
RTVSPost2010Prop50
 90
       50
102
RTVSPost2010PropOp50
 70
     1
102
RTVSPost2010Prop51ColorIndex
 90
      256
102
RTVSPost2010Prop51ColorRGB
 90
-16777216
102
RTVSPost2010PropOp51
 70
     0
102
RTVSPost2010Prop52
140
1.0
102
RTVSPost2010PropOp52
 70
     0
102
RTVSPost2010Prop53
 90
        2
102
RTVSPost2010PropOp53
 70
     1
102
RTVSPost2010Prop54
  1
strokes_ogs.tif
102
RTVSPost2010PropOp54
 70
     1
102
RTVSPost2010Prop55
280
     0
102
RTVSPost2010PropOp55
 70
     1
102
RTVSPost2010Prop56
140
1.0
102
RTVSPost2010PropOp56
 70
     1
102
RTVSPost2010Prop57
140
1.0
102
RTVSPost2010PropOp57
 70
     1
  0
XRECORD
  5
1F3
102
{ACAD_REACTORS
330
1F2
102
}
330
1F2
100
AcDbXrecord
280
     1
102
RTVSPropertyOp0
 70
     0
102
RTVSPropertyOp1
 70
     0
102
RTVSPropertyOp2
 70
     0
102
RTVSPropertyOp3
 70
     0
102
RTVSPropertyOp4
 70
     0
102
RTVSPropertyOp5
 70
     0
102
RTVSPropertyOp6
 70
     0
102
RTVSPropertyOp7
 70
     0
102
RTVSPropertyOp8
 70
     0
102
RTVSPropertyOp9
 70
     0
102
RTVSPropertyOp10
 70
     0
102
RTVSPropertyOp11
 70
     0
102
RTVSPropertyOp12
 70
     0
102
RTVSPropertyOp13
 70
     0
102
RTVSPropertyOp14
 70
     2
102
RTVSPropertyOp15
 70
     0
102
RTVSPropertyOp16
 70
     0
102
RTVSPropertyOp17
 70
     0
102
RTVSPropertyOp18
 70
     0
102
RTVSPropertyOp19
 70
     0
102
RTVSPropertyOp20
 70
     0
102
RTVSPropertyOp21
 70
     0
102
RTVSPropertyOp22
 70
     0
102
RTVSPropertyOp23
 70
     0
102
RTVSPropertyOp24
 70
     0
102
RTVSPropertyOp25
 70
     0
102
RTVSPropertyOp26
 70
     0
102
RTVSPropertyOp27
 70
     0
102
RTVSPropertyOp28
 70
     0
102
RTVSPropertyOp29
 70
     0
102
RTVSPropertyOp30
 70
     0
102
RTVSPropertyOp31
 70
     0
102
RTVSPropertyOp32
 70
     0
102
RTVSPropertyOp33
 70
     0
102
RTVSPropertyOp34
 70
     0
102
RTVSPropertyOp35
 70
     0
102
RTVSPropertyOp36
 70
     0
102
RTVSPropertyOp37
 70
     0
102
RTVSPropertyOp38
 70
     0
102
RTVSPropertyOp39
 70
     0
102
RTVSPropertyOp40
 70
     0
102
RTVSPropertyOp41
 70
     0
102
RTVSPropertyOp42
 70
     0
102
RTVSPropertyOp43
 70
     0
102
RTVSPropertyOp44
 70
     0
102
RTVSPropertyOp45
 70
     0
102
RTVSPropertyOp46
 70
     0
102
RTVSPropertyOp47
 70
     0
102
RTVSPropertyOp48
 70
     0
102
RTVSPropertyOp49
 70
     0
102
RTVSPropertyOp50
 70
     0
102
RTVSPropertyOp51
 70
     0
102
RTVSPropertyOp52
 70
     0
102
RTVSPropertyOp53
 70
     0
102
RTVSPropertyOp54
 70
     0
102
RTVSPropertyOp55
 70
     0
102
RTVSPropertyOp56
 70
     0
102
RTVSPropertyOp57
 70
     0
102
RTVSPost2010Prop28
280
     0
102
RTVSPost2010PropOp28
 70
     0
102
RTVSPost2010Prop29
280
     1
102
RTVSPost2010PropOp29
 70
     0
102
RTVSPost2010Prop30
280
     1
102
RTVSPost2010PropOp30
 70
     0
102
RTVSPost2010Prop31
280
     0
102
RTVSPost2010PropOp31
 70
     0
102
RTVSPost2010Prop32
280
     0
102
RTVSPost2010PropOp32
 70
     0
102
RTVSPost2010Prop33
280
     0
102
RTVSPost2010PropOp33
 70
     0
102
RTVSPost2010Prop34
280
     0
102
RTVSPost2010PropOp34
 70
     0
102
RTVSPost2010Prop35
280
     0
102
RTVSPost2010PropOp35
 70
     0
102
RTVSPost2010Prop36
280
     0
102
RTVSPost2010PropOp36
 70
     0
102
RTVSPost2010Prop37
 90
       50
102
RTVSPost2010PropOp37
 70
     0
102
RTVSPost2010Prop38
140
0.0
102
RTVSPost2010PropOp38
 70
     0
102
RTVSPost2010Prop39
140
1.0
102
RTVSPost2010PropOp39
 70
     0
102
RTVSPost2010Prop40
 90
        0
102
RTVSPost2010PropOp40
 70
     0
102
RTVSPost2010Prop41ColorIndex
 90
       18
102
RTVSPost2010Prop41ColorRGB
 90
        0
102
RTVSPost2010PropOp41
 70
     0
102
RTVSPost2010Prop42
 90
       50
102
RTVSPost2010PropOp42
 70
     0
102
RTVSPost2010Prop43
 90
        3
102
RTVSPost2010PropOp43
 70
     0
102
RTVSPost2010Prop44ColorIndex
 90
        5
102
RTVSPost2010Prop44ColorRGB
 90
      255
102
RTVSPost2010PropOp44
 70
     0
102
RTVSPost2010Prop45
280
     0
102
RTVSPost2010PropOp45
 70
     0
102
RTVSPost2010Prop46
 90
       50
102
RTVSPost2010PropOp46
 70
     0
102
RTVSPost2010Prop47
 90
       50
102
RTVSPost2010PropOp47
 70
     0
102
RTVSPost2010Prop48
 90
       50
102
RTVSPost2010PropOp48
 70
     0
102
RTVSPost2010Prop49
280
     0
102
RTVSPost2010PropOp49
 70
     0
102
RTVSPost2010Prop50
 90
       50
102
RTVSPost2010PropOp50
 70
     0
102
RTVSPost2010Prop51ColorIndex
 90
      256
102
RTVSPost2010Prop51ColorRGB
 90
-16777216
102
RTVSPost2010PropOp51
 70
     0
102
RTVSPost2010Prop52
140
1.0
102
RTVSPost2010PropOp52
 70
     0
102
RTVSPost2010Prop53
 90
        2
102
RTVSPost2010PropOp53
 70
     0
102
RTVSPost2010Prop54
  1
strokes_ogs.tif
102
RTVSPost2010PropOp54
 70
     0
102
RTVSPost2010Prop55
280
     0
102
RTVSPost2010PropOp55
 70
     0
102
RTVSPost2010Prop56
140
1.0
102
RTVSPost2010PropOp56
 70
     0
102
RTVSPost2010Prop57
140
1.0
102
RTVSPost2010PropOp57
 70
     0
  0
XRECORD
  5
1ED
102
{ACAD_REACTORS
330
1EC
102
}
330
1EC
100
AcDbXrecord
280
     1
102
RTVSPropertyOp0
 70
     1
102
RTVSPropertyOp1
 70
     1
102
RTVSPropertyOp2
 70
     1
102
RTVSPropertyOp3
 70
     1
102
RTVSPropertyOp4
 70
     1
102
RTVSPropertyOp5
 70
     1
102
RTVSPropertyOp6
 70
     1
102
RTVSPropertyOp7
 70
     1
102
RTVSPropertyOp8
 70
     1
102
RTVSPropertyOp9
 70
     1
102
RTVSPropertyOp10
 70
     1
102
RTVSPropertyOp11
 70
     1
102
RTVSPropertyOp12
 70
     1
102
RTVSPropertyOp13
 70
     1
102
RTVSPropertyOp14
 70
     1
102
RTVSPropertyOp15
 70
     1
102
RTVSPropertyOp16
 70
     1
102
RTVSPropertyOp17
 70
     1
102
RTVSPropertyOp18
 70
     1
102
RTVSPropertyOp19
 70
     1
102
RTVSPropertyOp20
 70
     1
102
RTVSPropertyOp21
 70
     1
102
RTVSPropertyOp22
 70
     1
102
RTVSPropertyOp23
 70
     1
102
RTVSPropertyOp24
 70
     1
102
RTVSPropertyOp25
 70
     1
102
RTVSPropertyOp26
 70
     1
102
RTVSPropertyOp27
 70
     1
102
RTVSPropertyOp28
 70
     1
102
RTVSPropertyOp29
 70
     1
102
RTVSPropertyOp30
 70
     1
102
RTVSPropertyOp31
 70
     1
102
RTVSPropertyOp32
 70
     1
102
RTVSPropertyOp33
 70
     1
102
RTVSPropertyOp34
 70
     1
102
RTVSPropertyOp35
 70
     1
102
RTVSPropertyOp36
 70
     1
102
RTVSPropertyOp37
 70
     1
102
RTVSPropertyOp38
 70
     1
102
RTVSPropertyOp39
 70
     1
102
RTVSPropertyOp40
 70
     1
102
RTVSPropertyOp41
 70
     1
102
RTVSPropertyOp42
 70
     1
102
RTVSPropertyOp43
 70
     1
102
RTVSPropertyOp44
 70
     1
102
RTVSPropertyOp45
 70
     1
102
RTVSPropertyOp46
 70
     1
102
RTVSPropertyOp47
 70
     1
102
RTVSPropertyOp48
 70
     1
102
RTVSPropertyOp49
 70
     1
102
RTVSPropertyOp50
 70
     1
102
RTVSPropertyOp51
 70
     0
102
RTVSPropertyOp52
 70
     0
102
RTVSPropertyOp53
 70
     1
102
RTVSPropertyOp54
 70
     1
102
RTVSPropertyOp55
 70
     1
102
RTVSPropertyOp56
 70
     1
102
RTVSPropertyOp57
 70
     1
102
RTVSPost2010Prop28
280
     0
102
RTVSPost2010PropOp28
 70
     1
102
RTVSPost2010Prop29
280
     1
102
RTVSPost2010PropOp29
 70
     1
102
RTVSPost2010Prop30
280
     1
102
RTVSPost2010PropOp30
 70
     1
102
RTVSPost2010Prop31
280
     0
102
RTVSPost2010PropOp31
 70
     1
102
RTVSPost2010Prop32
280
     0
102
RTVSPost2010PropOp32
 70
     1
102
RTVSPost2010Prop33
280
     0
102
RTVSPost2010PropOp33
 70
     1
102
RTVSPost2010Prop34
280
     0
102
RTVSPost2010PropOp34
 70
     1
102
RTVSPost2010Prop35
280
     0
102
RTVSPost2010PropOp35
 70
     1
102
RTVSPost2010Prop36
280
     0
102
RTVSPost2010PropOp36
 70
     1
102
RTVSPost2010Prop37
 90
       50
102
RTVSPost2010PropOp37
 70
     1
102
RTVSPost2010Prop38
140
0.0
102
RTVSPost2010PropOp38
 70
     1
102
RTVSPost2010Prop39
140
1.0
102
RTVSPost2010PropOp39
 70
     1
102
RTVSPost2010Prop40
 90
        0
102
RTVSPost2010PropOp40
 70
     1
102
RTVSPost2010Prop41ColorIndex
 90
       18
102
RTVSPost2010Prop41ColorRGB
 90
        0
102
RTVSPost2010PropOp41
 70
     1
102
RTVSPost2010Prop42
 90
       50
102
RTVSPost2010PropOp42
 70
     1
102
RTVSPost2010Prop43
 90
        3
102
RTVSPost2010PropOp43
 70
     1
102
RTVSPost2010Prop44ColorIndex
 90
        5
102
RTVSPost2010Prop44ColorRGB
 90
      255
102
RTVSPost2010PropOp44
 70
     1
102
RTVSPost2010Prop45
280
     0
102
RTVSPost2010PropOp45
 70
     1
102
RTVSPost2010Prop46
 90
       50
102
RTVSPost2010PropOp46
 70
     1
102
RTVSPost2010Prop47
 90
       50
102
RTVSPost2010PropOp47
 70
     1
102
RTVSPost2010Prop48
 90
       50
102
RTVSPost2010PropOp48
 70
     1
102
RTVSPost2010Prop49
280
     0
102
RTVSPost2010PropOp49
 70
     1
102
RTVSPost2010Prop50
 90
       50
102
RTVSPost2010PropOp50
 70
     1
102
RTVSPost2010Prop51ColorIndex
 90
      256
102
RTVSPost2010Prop51ColorRGB
 90
-16777216
102
RTVSPost2010PropOp51
 70
     0
102
RTVSPost2010Prop52
140
1.0
102
RTVSPost2010PropOp52
 70
     0
102
RTVSPost2010Prop53
 90
        2
102
RTVSPost2010PropOp53
 70
     1
102
RTVSPost2010Prop54
  1
strokes_ogs.tif
102
RTVSPost2010PropOp54
 70
     1
102
RTVSPost2010Prop55
280
     0
102
RTVSPost2010PropOp55
 70
     1
102
RTVSPost2010Prop56
140
1.0
102
RTVSPost2010PropOp56
 70
     1
102
RTVSPost2010Prop57
140
1.0
102
RTVSPost2010PropOp57
 70
     1
  0
XRECORD
  5
1F5
102
{ACAD_REACTORS
330
1F4
102
}
330
1F4
100
AcDbXrecord
280
     1
102
RTVSPropertyOp0
 70
     0
102
RTVSPropertyOp1
 70
     0
102
RTVSPropertyOp2
 70
     0
102
RTVSPropertyOp3
 70
     0
102
RTVSPropertyOp4
 70
     0
102
RTVSPropertyOp5
 70
     0
102
RTVSPropertyOp6
 70
     0
102
RTVSPropertyOp7
 70
     0
102
RTVSPropertyOp8
 70
     0
102
RTVSPropertyOp9
 70
     0
102
RTVSPropertyOp10
 70
     0
102
RTVSPropertyOp11
 70
     0
102
RTVSPropertyOp12
 70
     0
102
RTVSPropertyOp13
 70
     0
102
RTVSPropertyOp14
 70
     2
102
RTVSPropertyOp15
 70
     0
102
RTVSPropertyOp16
 70
     0
102
RTVSPropertyOp17
 70
     0
102
RTVSPropertyOp18
 70
     0
102
RTVSPropertyOp19
 70
     0
102
RTVSPropertyOp20
 70
     0
102
RTVSPropertyOp21
 70
     0
102
RTVSPropertyOp22
 70
     0
102
RTVSPropertyOp23
 70
     0
102
RTVSPropertyOp24
 70
     0
102
RTVSPropertyOp25
 70
     0
102
RTVSPropertyOp26
 70
     0
102
RTVSPropertyOp27
 70
     0
102
RTVSPropertyOp28
 70
     0
102
RTVSPropertyOp29
 70
     0
102
RTVSPropertyOp30
 70
     0
102
RTVSPropertyOp31
 70
     0
102
RTVSPropertyOp32
 70
     0
102
RTVSPropertyOp33
 70
     0
102
RTVSPropertyOp34
 70
     0
102
RTVSPropertyOp35
 70
     0
102
RTVSPropertyOp36
 70
     0
102
RTVSPropertyOp37
 70
     0
102
RTVSPropertyOp38
 70
     0
102
RTVSPropertyOp39
 70
     0
102
RTVSPropertyOp40
 70
     0
102
RTVSPropertyOp41
 70
     0
102
RTVSPropertyOp42
 70
     0
102
RTVSPropertyOp43
 70
     0
102
RTVSPropertyOp44
 70
     0
102
RTVSPropertyOp45
 70
     0
102
RTVSPropertyOp46
 70
     0
102
RTVSPropertyOp47
 70
     0
102
RTVSPropertyOp48
 70
     0
102
RTVSPropertyOp49
 70
     0
102
RTVSPropertyOp50
 70
     0
102
RTVSPropertyOp51
 70
     0
102
RTVSPropertyOp52
 70
     0
102
RTVSPropertyOp53
 70
     0
102
RTVSPropertyOp54
 70
     0
102
RTVSPropertyOp55
 70
     0
102
RTVSPropertyOp56
 70
     0
102
RTVSPropertyOp57
 70
     0
102
RTVSPost2010Prop28
280
     0
102
RTVSPost2010PropOp28
 70
     0
102
RTVSPost2010Prop29
280
     1
102
RTVSPost2010PropOp29
 70
     0
102
RTVSPost2010Prop30
280
     1
102
RTVSPost2010PropOp30
 70
     0
102
RTVSPost2010Prop31
280
     0
102
RTVSPost2010PropOp31
 70
     0
102
RTVSPost2010Prop32
280
     0
102
RTVSPost2010PropOp32
 70
     0
102
RTVSPost2010Prop33
280
     0
102
RTVSPost2010PropOp33
 70
     0
102
RTVSPost2010Prop34
280
     0
102
RTVSPost2010PropOp34
 70
     0
102
RTVSPost2010Prop35
280
     0
102
RTVSPost2010PropOp35
 70
     0
102
RTVSPost2010Prop36
280
     0
102
RTVSPost2010PropOp36
 70
     0
102
RTVSPost2010Prop37
 90
       50
102
RTVSPost2010PropOp37
 70
     0
102
RTVSPost2010Prop38
140
0.0
102
RTVSPost2010PropOp38
 70
     0
102
RTVSPost2010Prop39
140
1.0
102
RTVSPost2010PropOp39
 70
     0
102
RTVSPost2010Prop40
 90
        0
102
RTVSPost2010PropOp40
 70
     0
102
RTVSPost2010Prop41ColorIndex
 90
       18
102
RTVSPost2010Prop41ColorRGB
 90
        0
102
RTVSPost2010PropOp41
 70
     0
102
RTVSPost2010Prop42
 90
       50
102
RTVSPost2010PropOp42
 70
     0
102
RTVSPost2010Prop43
 90
        3
102
RTVSPost2010PropOp43
 70
     0
102
RTVSPost2010Prop44ColorIndex
 90
        5
102
RTVSPost2010Prop44ColorRGB
 90
      255
102
RTVSPost2010PropOp44
 70
     0
102
RTVSPost2010Prop45
280
     0
102
RTVSPost2010PropOp45
 70
     0
102
RTVSPost2010Prop46
 90
       50
102
RTVSPost2010PropOp46
 70
     0
102
RTVSPost2010Prop47
 90
       50
102
RTVSPost2010PropOp47
 70
     0
102
RTVSPost2010Prop48
 90
       50
102
RTVSPost2010PropOp48
 70
     0
102
RTVSPost2010Prop49
280
     0
102
RTVSPost2010PropOp49
 70
     0
102
RTVSPost2010Prop50
 90
       50
102
RTVSPost2010PropOp50
 70
     0
102
RTVSPost2010Prop51ColorIndex
 90
      256
102
RTVSPost2010Prop51ColorRGB
 90
-16777216
102
RTVSPost2010PropOp51
 70
     0
102
RTVSPost2010Prop52
140
1.0
102
RTVSPost2010PropOp52
 70
     0
102
RTVSPost2010Prop53
 90
        2
102
RTVSPost2010PropOp53
 70
     0
102
RTVSPost2010Prop54
  1
strokes_ogs.tif
102
RTVSPost2010PropOp54
 70
     0
102
RTVSPost2010Prop55
280
     0
102
RTVSPost2010PropOp55
 70
     0
102
RTVSPost2010Prop56
140
1.0
102
RTVSPost2010PropOp56
 70
     0
102
RTVSPost2010Prop57
140
1.0
102
RTVSPost2010PropOp57
 70
     0
  0
XRECORD
  5
1E3
102
{ACAD_REACTORS
330
1E2
102
}
330
1E2
100
AcDbXrecord
280
     1
102
RTVSPropertyOp0
 70
     1
102
RTVSPropertyOp1
 70
     1
102
RTVSPropertyOp2
 70
     1
102
RTVSPropertyOp3
 70
     1
102
RTVSPropertyOp4
 70
     1
102
RTVSPropertyOp5
 70
     1
102
RTVSPropertyOp6
 70
     1
102
RTVSPropertyOp7
 70
     1
102
RTVSPropertyOp8
 70
     1
102
RTVSPropertyOp9
 70
     1
102
RTVSPropertyOp10
 70
     1
102
RTVSPropertyOp11
 70
     1
102
RTVSPropertyOp12
 70
     1
102
RTVSPropertyOp13
 70
     1
102
RTVSPropertyOp14
 70
     1
102
RTVSPropertyOp15
 70
     1
102
RTVSPropertyOp16
 70
     1
102
RTVSPropertyOp17
 70
     1
102
RTVSPropertyOp18
 70
     1
102
RTVSPropertyOp19
 70
     1
102
RTVSPropertyOp20
 70
     1
102
RTVSPropertyOp21
 70
     1
102
RTVSPropertyOp22
 70
     1
102
RTVSPropertyOp23
 70
     1
102
RTVSPropertyOp24
 70
     1
102
RTVSPropertyOp25
 70
     1
102
RTVSPropertyOp26
 70
     1
102
RTVSPropertyOp27
 70
     1
102
RTVSPropertyOp28
 70
     1
102
RTVSPropertyOp29
 70
     1
102
RTVSPropertyOp30
 70
     1
102
RTVSPropertyOp31
 70
     1
102
RTVSPropertyOp32
 70
     1
102
RTVSPropertyOp33
 70
     1
102
RTVSPropertyOp34
 70
     1
102
RTVSPropertyOp35
 70
     1
102
RTVSPropertyOp36
 70
     1
102
RTVSPropertyOp37
 70
     1
102
RTVSPropertyOp38
 70
     1
102
RTVSPropertyOp39
 70
     1
102
RTVSPropertyOp40
 70
     1
102
RTVSPropertyOp41
 70
     1
102
RTVSPropertyOp42
 70
     1
102
RTVSPropertyOp43
 70
     1
102
RTVSPropertyOp44
 70
     1
102
RTVSPropertyOp45
 70
     1
102
RTVSPropertyOp46
 70
     1
102
RTVSPropertyOp47
 70
     1
102
RTVSPropertyOp48
 70
     1
102
RTVSPropertyOp49
 70
     1
102
RTVSPropertyOp50
 70
     1
102
RTVSPropertyOp51
 70
     0
102
RTVSPropertyOp52
 70
     0
102
RTVSPropertyOp53
 70
     1
102
RTVSPropertyOp54
 70
     1
102
RTVSPropertyOp55
 70
     1
102
RTVSPropertyOp56
 70
     1
102
RTVSPropertyOp57
 70
     1
102
RTVSPost2010Prop28
280
     0
102
RTVSPost2010PropOp28
 70
     1
102
RTVSPost2010Prop29
280
     1
102
RTVSPost2010PropOp29
 70
     1
102
RTVSPost2010Prop30
280
     1
102
RTVSPost2010PropOp30
 70
     1
102
RTVSPost2010Prop31
280
     0
102
RTVSPost2010PropOp31
 70
     1
102
RTVSPost2010Prop32
280
     0
102
RTVSPost2010PropOp32
 70
     1
102
RTVSPost2010Prop33
280
     0
102
RTVSPost2010PropOp33
 70
     1
102
RTVSPost2010Prop34
280
     0
102
RTVSPost2010PropOp34
 70
     1
102
RTVSPost2010Prop35
280
     0
102
RTVSPost2010PropOp35
 70
     1
102
RTVSPost2010Prop36
280
     0
102
RTVSPost2010PropOp36
 70
     1
102
RTVSPost2010Prop37
 90
       50
102
RTVSPost2010PropOp37
 70
     1
102
RTVSPost2010Prop38
140
0.0
102
RTVSPost2010PropOp38
 70
     1
102
RTVSPost2010Prop39
140
1.0
102
RTVSPost2010PropOp39
 70
     1
102
RTVSPost2010Prop40
 90
        0
102
RTVSPost2010PropOp40
 70
     1
102
RTVSPost2010Prop41ColorIndex
 90
       18
102
RTVSPost2010Prop41ColorRGB
 90
        0
102
RTVSPost2010PropOp41
 70
     1
102
RTVSPost2010Prop42
 90
       50
102
RTVSPost2010PropOp42
 70
     1
102
RTVSPost2010Prop43
 90
        3
102
RTVSPost2010PropOp43
 70
     1
102
RTVSPost2010Prop44ColorIndex
 90
        5
102
RTVSPost2010Prop44ColorRGB
 90
      255
102
RTVSPost2010PropOp44
 70
     1
102
RTVSPost2010Prop45
280
     0
102
RTVSPost2010PropOp45
 70
     1
102
RTVSPost2010Prop46
 90
       50
102
RTVSPost2010PropOp46
 70
     1
102
RTVSPost2010Prop47
 90
       50
102
RTVSPost2010PropOp47
 70
     1
102
RTVSPost2010Prop48
 90
       50
102
RTVSPost2010PropOp48
 70
     1
102
RTVSPost2010Prop49
280
     0
102
RTVSPost2010PropOp49
 70
     1
102
RTVSPost2010Prop50
 90
       50
102
RTVSPost2010PropOp50
 70
     1
102
RTVSPost2010Prop51ColorIndex
 90
      256
102
RTVSPost2010Prop51ColorRGB
 90
-16777216
102
RTVSPost2010PropOp51
 70
     0
102
RTVSPost2010Prop52
140
1.0
102
RTVSPost2010PropOp52
 70
     0
102
RTVSPost2010Prop53
 90
        2
102
RTVSPost2010PropOp53
 70
     1
102
RTVSPost2010Prop54
  1
strokes_ogs.tif
102
RTVSPost2010PropOp54
 70
     1
102
RTVSPost2010Prop55
280
     0
102
RTVSPost2010PropOp55
 70
     1
102
RTVSPost2010Prop56
140
1.0
102
RTVSPost2010PropOp56
 70
     1
102
RTVSPost2010Prop57
140
1.0
102
RTVSPost2010PropOp57
 70
     1
  0
XRECORD
  5
201
102
{ACAD_REACTORS
330
200
102
}
330
200
100
AcDbXrecord
280
     1
102
RTVSPropertyOp0
 70
     1
102
RTVSPropertyOp1
 70
     1
102
RTVSPropertyOp2
 70
     1
102
RTVSPropertyOp3
 70
     1
102
RTVSPropertyOp4
 70
     1
102
RTVSPropertyOp5
 70
     1
102
RTVSPropertyOp6
 70
     1
102
RTVSPropertyOp7
 70
     1
102
RTVSPropertyOp8
 70
     1
102
RTVSPropertyOp9
 70
     1
102
RTVSPropertyOp10
 70
     1
102
RTVSPropertyOp11
 70
     1
102
RTVSPropertyOp12
 70
     1
102
RTVSPropertyOp13
 70
     1
102
RTVSPropertyOp14
 70
     1
102
RTVSPropertyOp15
 70
     1
102
RTVSPropertyOp16
 70
     1
102
RTVSPropertyOp17
 70
     1
102
RTVSPropertyOp18
 70
     1
102
RTVSPropertyOp19
 70
     1
102
RTVSPropertyOp20
 70
     1
102
RTVSPropertyOp21
 70
     1
102
RTVSPropertyOp22
 70
     1
102
RTVSPropertyOp23
 70
     1
102
RTVSPropertyOp24
 70
     1
102
RTVSPropertyOp25
 70
     1
102
RTVSPropertyOp26
 70
     1
102
RTVSPropertyOp27
 70
     1
102
RTVSPropertyOp28
 70
     1
102
RTVSPropertyOp29
 70
     1
102
RTVSPropertyOp30
 70
     1
102
RTVSPropertyOp31
 70
     1
102
RTVSPropertyOp32
 70
     1
102
RTVSPropertyOp33
 70
     1
102
RTVSPropertyOp34
 70
     1
102
RTVSPropertyOp35
 70
     1
102
RTVSPropertyOp36
 70
     1
102
RTVSPropertyOp37
 70
     1
102
RTVSPropertyOp38
 70
     1
102
RTVSPropertyOp39
 70
     1
102
RTVSPropertyOp40
 70
     1
102
RTVSPropertyOp41
 70
     1
102
RTVSPropertyOp42
 70
     1
102
RTVSPropertyOp43
 70
     1
102
RTVSPropertyOp44
 70
     1
102
RTVSPropertyOp45
 70
     1
102
RTVSPropertyOp46
 70
     1
102
RTVSPropertyOp47
 70
     1
102
RTVSPropertyOp48
 70
     1
102
RTVSPropertyOp49
 70
     1
102
RTVSPropertyOp50
 70
     1
102
RTVSPropertyOp51
 70
     0
102
RTVSPropertyOp52
 70
     0
102
RTVSPropertyOp53
 70
     1
102
RTVSPropertyOp54
 70
     1
102
RTVSPropertyOp55
 70
     1
102
RTVSPropertyOp56
 70
     1
102
RTVSPropertyOp57
 70
     1
102
RTVSPost2010Prop28
280
     0
102
RTVSPost2010PropOp28
 70
     1
102
RTVSPost2010Prop29
280
     1
102
RTVSPost2010PropOp29
 70
     1
102
RTVSPost2010Prop30
280
     1
102
RTVSPost2010PropOp30
 70
     1
102
RTVSPost2010Prop31
280
     0
102
RTVSPost2010PropOp31
 70
     1
102
RTVSPost2010Prop32
280
     0
102
RTVSPost2010PropOp32
 70
     1
102
RTVSPost2010Prop33
280
     0
102
RTVSPost2010PropOp33
 70
     1
102
RTVSPost2010Prop34
280
     0
102
RTVSPost2010PropOp34
 70
     1
102
RTVSPost2010Prop35
280
     0
102
RTVSPost2010PropOp35
 70
     1
102
RTVSPost2010Prop36
280
     0
102
RTVSPost2010PropOp36
 70
     1
102
RTVSPost2010Prop37
 90
       50
102
RTVSPost2010PropOp37
 70
     1
102
RTVSPost2010Prop38
140
0.0
102
RTVSPost2010PropOp38
 70
     1
102
RTVSPost2010Prop39
140
1.0
102
RTVSPost2010PropOp39
 70
     1
102
RTVSPost2010Prop40
 90
        0
102
RTVSPost2010PropOp40
 70
     1
102
RTVSPost2010Prop41ColorIndex
 90
       18
102
RTVSPost2010Prop41ColorRGB
 90
        0
102
RTVSPost2010PropOp41
 70
     1
102
RTVSPost2010Prop42
 90
       50
102
RTVSPost2010PropOp42
 70
     1
102
RTVSPost2010Prop43
 90
        3
102
RTVSPost2010PropOp43
 70
     1
102
RTVSPost2010Prop44ColorIndex
 90
        5
102
RTVSPost2010Prop44ColorRGB
 90
      255
102
RTVSPost2010PropOp44
 70
     1
102
RTVSPost2010Prop45
280
     0
102
RTVSPost2010PropOp45
 70
     1
102
RTVSPost2010Prop46
 90
       50
102
RTVSPost2010PropOp46
 70
     1
102
RTVSPost2010Prop47
 90
       50
102
RTVSPost2010PropOp47
 70
     1
102
RTVSPost2010Prop48
 90
       50
102
RTVSPost2010PropOp48
 70
     1
102
RTVSPost2010Prop49
280
     0
102
RTVSPost2010PropOp49
 70
     1
102
RTVSPost2010Prop50
 90
       50
102
RTVSPost2010PropOp50
 70
     1
102
RTVSPost2010Prop51ColorIndex
 90
      256
102
RTVSPost2010Prop51ColorRGB
 90
-16777216
102
RTVSPost2010PropOp51
 70
     0
102
RTVSPost2010Prop52
140
1.0
102
RTVSPost2010PropOp52
 70
     0
102
RTVSPost2010Prop53
 90
        2
102
RTVSPost2010PropOp53
 70
     1
102
RTVSPost2010Prop54
  1
strokes_ogs.tif
102
RTVSPost2010PropOp54
 70
     1
102
RTVSPost2010Prop55
280
     0
102
RTVSPost2010PropOp55
 70
     1
102
RTVSPost2010Prop56
140
1.0
102
RTVSPost2010PropOp56
 70
     1
102
RTVSPost2010Prop57
140
1.0
102
RTVSPost2010PropOp57
 70
     1
  0
XRECORD
  5
1FF
102
{ACAD_REACTORS
330
1FE
102
}
330
1FE
100
AcDbXrecord
280
     1
102
RTVSPropertyOp0
 70
     1
102
RTVSPropertyOp1
 70
     1
102
RTVSPropertyOp2
 70
     1
102
RTVSPropertyOp3
 70
     1
102
RTVSPropertyOp4
 70
     1
102
RTVSPropertyOp5
 70
     1
102
RTVSPropertyOp6
 70
     1
102
RTVSPropertyOp7
 70
     1
102
RTVSPropertyOp8
 70
     1
102
RTVSPropertyOp9
 70
     1
102
RTVSPropertyOp10
 70
     1
102
RTVSPropertyOp11
 70
     1
102
RTVSPropertyOp12
 70
     1
102
RTVSPropertyOp13
 70
     1
102
RTVSPropertyOp14
 70
     1
102
RTVSPropertyOp15
 70
     1
102
RTVSPropertyOp16
 70
     1
102
RTVSPropertyOp17
 70
     1
102
RTVSPropertyOp18
 70
     1
102
RTVSPropertyOp19
 70
     1
102
RTVSPropertyOp20
 70
     1
102
RTVSPropertyOp21
 70
     1
102
RTVSPropertyOp22
 70
     1
102
RTVSPropertyOp23
 70
     1
102
RTVSPropertyOp24
 70
     1
102
RTVSPropertyOp25
 70
     1
102
RTVSPropertyOp26
 70
     1
102
RTVSPropertyOp27
 70
     1
102
RTVSPropertyOp28
 70
     1
102
RTVSPropertyOp29
 70
     1
102
RTVSPropertyOp30
 70
     1
102
RTVSPropertyOp31
 70
     1
102
RTVSPropertyOp32
 70
     1
102
RTVSPropertyOp33
 70
     1
102
RTVSPropertyOp34
 70
     1
102
RTVSPropertyOp35
 70
     1
102
RTVSPropertyOp36
 70
     1
102
RTVSPropertyOp37
 70
     1
102
RTVSPropertyOp38
 70
     1
102
RTVSPropertyOp39
 70
     1
102
RTVSPropertyOp40
 70
     1
102
RTVSPropertyOp41
 70
     1
102
RTVSPropertyOp42
 70
     1
102
RTVSPropertyOp43
 70
     1
102
RTVSPropertyOp44
 70
     1
102
RTVSPropertyOp45
 70
     1
102
RTVSPropertyOp46
 70
     1
102
RTVSPropertyOp47
 70
     1
102
RTVSPropertyOp48
 70
     1
102
RTVSPropertyOp49
 70
     1
102
RTVSPropertyOp50
 70
     1
102
RTVSPropertyOp51
 70
     0
102
RTVSPropertyOp52
 70
     0
102
RTVSPropertyOp53
 70
     1
102
RTVSPropertyOp54
 70
     1
102
RTVSPropertyOp55
 70
     1
102
RTVSPropertyOp56
 70
     1
102
RTVSPropertyOp57
 70
     1
102
RTVSPost2010Prop28
280
     0
102
RTVSPost2010PropOp28
 70
     1
102
RTVSPost2010Prop29
280
     1
102
RTVSPost2010PropOp29
 70
     1
102
RTVSPost2010Prop30
280
     1
102
RTVSPost2010PropOp30
 70
     1
102
RTVSPost2010Prop31
280
     0
102
RTVSPost2010PropOp31
 70
     1
102
RTVSPost2010Prop32
280
     0
102
RTVSPost2010PropOp32
 70
     1
102
RTVSPost2010Prop33
280
     0
102
RTVSPost2010PropOp33
 70
     1
102
RTVSPost2010Prop34
280
     0
102
RTVSPost2010PropOp34
 70
     1
102
RTVSPost2010Prop35
280
     0
102
RTVSPost2010PropOp35
 70
     1
102
RTVSPost2010Prop36
280
     0
102
RTVSPost2010PropOp36
 70
     1
102
RTVSPost2010Prop37
 90
       50
102
RTVSPost2010PropOp37
 70
     1
102
RTVSPost2010Prop38
140
0.0
102
RTVSPost2010PropOp38
 70
     1
102
RTVSPost2010Prop39
140
1.0
102
RTVSPost2010PropOp39
 70
     1
102
RTVSPost2010Prop40
 90
        0
102
RTVSPost2010PropOp40
 70
     1
102
RTVSPost2010Prop41ColorIndex
 90
       18
102
RTVSPost2010Prop41ColorRGB
 90
        0
102
RTVSPost2010PropOp41
 70
     1
102
RTVSPost2010Prop42
 90
       50
102
RTVSPost2010PropOp42
 70
     1
102
RTVSPost2010Prop43
 90
        3
102
RTVSPost2010PropOp43
 70
     1
102
RTVSPost2010Prop44ColorIndex
 90
        5
102
RTVSPost2010Prop44ColorRGB
 90
      255
102
RTVSPost2010PropOp44
 70
     1
102
RTVSPost2010Prop45
280
     0
102
RTVSPost2010PropOp45
 70
     1
102
RTVSPost2010Prop46
 90
       50
102
RTVSPost2010PropOp46
 70
     1
102
RTVSPost2010Prop47
 90
       50
102
RTVSPost2010PropOp47
 70
     1
102
RTVSPost2010Prop48
 90
       50
102
RTVSPost2010PropOp48
 70
     1
102
RTVSPost2010Prop49
280
     0
102
RTVSPost2010PropOp49
 70
     1
102
RTVSPost2010Prop50
 90
       50
102
RTVSPost2010PropOp50
 70
     1
102
RTVSPost2010Prop51ColorIndex
 90
      256
102
RTVSPost2010Prop51ColorRGB
 90
-16777216
102
RTVSPost2010PropOp51
 70
     0
102
RTVSPost2010Prop52
140
1.0
102
RTVSPost2010PropOp52
 70
     0
102
RTVSPost2010Prop53
 90
        2
102
RTVSPost2010PropOp53
 70
     1
102
RTVSPost2010Prop54
  1
strokes_ogs.tif
102
RTVSPost2010PropOp54
 70
     1
102
RTVSPost2010Prop55
280
     0
102
RTVSPost2010PropOp55
 70
     1
102
RTVSPost2010Prop56
140
1.0
102
RTVSPost2010PropOp56
 70
     1
102
RTVSPost2010Prop57
140
1.0
102
RTVSPost2010PropOp57
 70
     1
  0
XRECORD
  5
1F9
102
{ACAD_REACTORS
330
1F8
102
}
330
1F8
100
AcDbXrecord
280
     1
102
RTVSPropertyOp0
 70
     1
102
RTVSPropertyOp1
 70
     1
102
RTVSPropertyOp2
 70
     1
102
RTVSPropertyOp3
 70
     1
102
RTVSPropertyOp4
 70
     1
102
RTVSPropertyOp5
 70
     1
102
RTVSPropertyOp6
 70
     1
102
RTVSPropertyOp7
 70
     1
102
RTVSPropertyOp8
 70
     1
102
RTVSPropertyOp9
 70
     1
102
RTVSPropertyOp10
 70
     1
102
RTVSPropertyOp11
 70
     1
102
RTVSPropertyOp12
 70
     1
102
RTVSPropertyOp13
 70
     1
102
RTVSPropertyOp14
 70
     1
102
RTVSPropertyOp15
 70
     1
102
RTVSPropertyOp16
 70
     1
102
RTVSPropertyOp17
 70
     1
102
RTVSPropertyOp18
 70
     1
102
RTVSPropertyOp19
 70
     1
102
RTVSPropertyOp20
 70
     1
102
RTVSPropertyOp21
 70
     1
102
RTVSPropertyOp22
 70
     1
102
RTVSPropertyOp23
 70
     1
102
RTVSPropertyOp24
 70
     1
102
RTVSPropertyOp25
 70
     1
102
RTVSPropertyOp26
 70
     1
102
RTVSPropertyOp27
 70
     1
102
RTVSPropertyOp28
 70
     1
102
RTVSPropertyOp29
 70
     1
102
RTVSPropertyOp30
 70
     1
102
RTVSPropertyOp31
 70
     1
102
RTVSPropertyOp32
 70
     1
102
RTVSPropertyOp33
 70
     1
102
RTVSPropertyOp34
 70
     1
102
RTVSPropertyOp35
 70
     1
102
RTVSPropertyOp36
 70
     1
102
RTVSPropertyOp37
 70
     1
102
RTVSPropertyOp38
 70
     1
102
RTVSPropertyOp39
 70
     1
102
RTVSPropertyOp40
 70
     1
102
RTVSPropertyOp41
 70
     1
102
RTVSPropertyOp42
 70
     1
102
RTVSPropertyOp43
 70
     1
102
RTVSPropertyOp44
 70
     1
102
RTVSPropertyOp45
 70
     1
102
RTVSPropertyOp46
 70
     1
102
RTVSPropertyOp47
 70
     1
102
RTVSPropertyOp48
 70
     1
102
RTVSPropertyOp49
 70
     1
102
RTVSPropertyOp50
 70
     1
102
RTVSPropertyOp51
 70
     0
102
RTVSPropertyOp52
 70
     0
102
RTVSPropertyOp53
 70
     1
102
RTVSPropertyOp54
 70
     1
102
RTVSPropertyOp55
 70
     1
102
RTVSPropertyOp56
 70
     1
102
RTVSPropertyOp57
 70
     1
102
RTVSPost2010Prop28
280
     0
102
RTVSPost2010PropOp28
 70
     1
102
RTVSPost2010Prop29
280
     1
102
RTVSPost2010PropOp29
 70
     1
102
RTVSPost2010Prop30
280
     1
102
RTVSPost2010PropOp30
 70
     1
102
RTVSPost2010Prop31
280
     0
102
RTVSPost2010PropOp31
 70
     1
102
RTVSPost2010Prop32
280
     0
102
RTVSPost2010PropOp32
 70
     1
102
RTVSPost2010Prop33
280
     0
102
RTVSPost2010PropOp33
 70
     1
102
RTVSPost2010Prop34
280
     0
102
RTVSPost2010PropOp34
 70
     1
102
RTVSPost2010Prop35
280
     0
102
RTVSPost2010PropOp35
 70
     1
102
RTVSPost2010Prop36
280
     0
102
RTVSPost2010PropOp36
 70
     1
102
RTVSPost2010Prop37
 90
       50
102
RTVSPost2010PropOp37
 70
     1
102
RTVSPost2010Prop38
140
0.0
102
RTVSPost2010PropOp38
 70
     1
102
RTVSPost2010Prop39
140
1.0
102
RTVSPost2010PropOp39
 70
     1
102
RTVSPost2010Prop40
 90
        0
102
RTVSPost2010PropOp40
 70
     1
102
RTVSPost2010Prop41ColorIndex
 90
       18
102
RTVSPost2010Prop41ColorRGB
 90
        0
102
RTVSPost2010PropOp41
 70
     1
102
RTVSPost2010Prop42
 90
       50
102
RTVSPost2010PropOp42
 70
     1
102
RTVSPost2010Prop43
 90
        3
102
RTVSPost2010PropOp43
 70
     1
102
RTVSPost2010Prop44ColorIndex
 90
        5
102
RTVSPost2010Prop44ColorRGB
 90
      255
102
RTVSPost2010PropOp44
 70
     1
102
RTVSPost2010Prop45
280
     0
102
RTVSPost2010PropOp45
 70
     1
102
RTVSPost2010Prop46
 90
       50
102
RTVSPost2010PropOp46
 70
     1
102
RTVSPost2010Prop47
 90
       50
102
RTVSPost2010PropOp47
 70
     1
102
RTVSPost2010Prop48
 90
       50
102
RTVSPost2010PropOp48
 70
     1
102
RTVSPost2010Prop49
280
     0
102
RTVSPost2010PropOp49
 70
     1
102
RTVSPost2010Prop50
 90
       50
102
RTVSPost2010PropOp50
 70
     1
102
RTVSPost2010Prop51ColorIndex
 90
      256
102
RTVSPost2010Prop51ColorRGB
 90
-16777216
102
RTVSPost2010PropOp51
 70
     0
102
RTVSPost2010Prop52
140
1.0
102
RTVSPost2010PropOp52
 70
     0
102
RTVSPost2010Prop53
 90
        2
102
RTVSPost2010PropOp53
 70
     1
102
RTVSPost2010Prop54
  1
strokes_ogs.tif
102
RTVSPost2010PropOp54
 70
     1
102
RTVSPost2010Prop55
280
     0
102
RTVSPost2010PropOp55
 70
     1
102
RTVSPost2010Prop56
140
1.0
102
RTVSPost2010PropOp56
 70
     1
102
RTVSPost2010Prop57
140
1.0
102
RTVSPost2010PropOp57
 70
     1
  0
XRECORD
  5
1FB
102
{ACAD_REACTORS
330
1FA
102
}
330
1FA
100
AcDbXrecord
280
     1
102
RTVSPropertyOp0
 70
     1
102
RTVSPropertyOp1
 70
     1
102
RTVSPropertyOp2
 70
     1
102
RTVSPropertyOp3
 70
     1
102
RTVSPropertyOp4
 70
     1
102
RTVSPropertyOp5
 70
     1
102
RTVSPropertyOp6
 70
     1
102
RTVSPropertyOp7
 70
     1
102
RTVSPropertyOp8
 70
     1
102
RTVSPropertyOp9
 70
     1
102
RTVSPropertyOp10
 70
     1
102
RTVSPropertyOp11
 70
     1
102
RTVSPropertyOp12
 70
     1
102
RTVSPropertyOp13
 70
     1
102
RTVSPropertyOp14
 70
     1
102
RTVSPropertyOp15
 70
     1
102
RTVSPropertyOp16
 70
     1
102
RTVSPropertyOp17
 70
     1
102
RTVSPropertyOp18
 70
     1
102
RTVSPropertyOp19
 70
     1
102
RTVSPropertyOp20
 70
     1
102
RTVSPropertyOp21
 70
     1
102
RTVSPropertyOp22
 70
     1
102
RTVSPropertyOp23
 70
     1
102
RTVSPropertyOp24
 70
     1
102
RTVSPropertyOp25
 70
     1
102
RTVSPropertyOp26
 70
     1
102
RTVSPropertyOp27
 70
     1
102
RTVSPropertyOp28
 70
     1
102
RTVSPropertyOp29
 70
     1
102
RTVSPropertyOp30
 70
     1
102
RTVSPropertyOp31
 70
     1
102
RTVSPropertyOp32
 70
     1
102
RTVSPropertyOp33
 70
     1
102
RTVSPropertyOp34
 70
     1
102
RTVSPropertyOp35
 70
     1
102
RTVSPropertyOp36
 70
     1
102
RTVSPropertyOp37
 70
     1
102
RTVSPropertyOp38
 70
     1
102
RTVSPropertyOp39
 70
     1
102
RTVSPropertyOp40
 70
     1
102
RTVSPropertyOp41
 70
     1
102
RTVSPropertyOp42
 70
     1
102
RTVSPropertyOp43
 70
     1
102
RTVSPropertyOp44
 70
     1
102
RTVSPropertyOp45
 70
     1
102
RTVSPropertyOp46
 70
     1
102
RTVSPropertyOp47
 70
     1
102
RTVSPropertyOp48
 70
     1
102
RTVSPropertyOp49
 70
     1
102
RTVSPropertyOp50
 70
     1
102
RTVSPropertyOp51
 70
     0
102
RTVSPropertyOp52
 70
     0
102
RTVSPropertyOp53
 70
     1
102
RTVSPropertyOp54
 70
     1
102
RTVSPropertyOp55
 70
     1
102
RTVSPropertyOp56
 70
     1
102
RTVSPropertyOp57
 70
     1
102
RTVSPost2010Prop28
280
     0
102
RTVSPost2010PropOp28
 70
     1
102
RTVSPost2010Prop29
280
     1
102
RTVSPost2010PropOp29
 70
     1
102
RTVSPost2010Prop30
280
     1
102
RTVSPost2010PropOp30
 70
     1
102
RTVSPost2010Prop31
280
     0
102
RTVSPost2010PropOp31
 70
     1
102
RTVSPost2010Prop32
280
     0
102
RTVSPost2010PropOp32
 70
     1
102
RTVSPost2010Prop33
280
     0
102
RTVSPost2010PropOp33
 70
     1
102
RTVSPost2010Prop34
280
     0
102
RTVSPost2010PropOp34
 70
     1
102
RTVSPost2010Prop35
280
     0
102
RTVSPost2010PropOp35
 70
     1
102
RTVSPost2010Prop36
280
     0
102
RTVSPost2010PropOp36
 70
     1
102
RTVSPost2010Prop37
 90
       50
102
RTVSPost2010PropOp37
 70
     1
102
RTVSPost2010Prop38
140
0.0
102
RTVSPost2010PropOp38
 70
     1
102
RTVSPost2010Prop39
140
1.0
102
RTVSPost2010PropOp39
 70
     1
102
RTVSPost2010Prop40
 90
        0
102
RTVSPost2010PropOp40
 70
     1
102
RTVSPost2010Prop41ColorIndex
 90
       18
102
RTVSPost2010Prop41ColorRGB
 90
        0
102
RTVSPost2010PropOp41
 70
     1
102
RTVSPost2010Prop42
 90
       50
102
RTVSPost2010PropOp42
 70
     1
102
RTVSPost2010Prop43
 90
        3
102
RTVSPost2010PropOp43
 70
     1
102
RTVSPost2010Prop44ColorIndex
 90
        5
102
RTVSPost2010Prop44ColorRGB
 90
      255
102
RTVSPost2010PropOp44
 70
     1
102
RTVSPost2010Prop45
280
     0
102
RTVSPost2010PropOp45
 70
     1
102
RTVSPost2010Prop46
 90
       50
102
RTVSPost2010PropOp46
 70
     1
102
RTVSPost2010Prop47
 90
       50
102
RTVSPost2010PropOp47
 70
     1
102
RTVSPost2010Prop48
 90
       50
102
RTVSPost2010PropOp48
 70
     1
102
RTVSPost2010Prop49
280
     0
102
RTVSPost2010PropOp49
 70
     1
102
RTVSPost2010Prop50
 90
       50
102
RTVSPost2010PropOp50
 70
     1
102
RTVSPost2010Prop51ColorIndex
 90
      256
102
RTVSPost2010Prop51ColorRGB
 90
-16777216
102
RTVSPost2010PropOp51
 70
     0
102
RTVSPost2010Prop52
140
1.0
102
RTVSPost2010PropOp52
 70
     0
102
RTVSPost2010Prop53
 90
        2
102
RTVSPost2010PropOp53
 70
     1
102
RTVSPost2010Prop54
  1
strokes_ogs.tif
102
RTVSPost2010PropOp54
 70
     1
102
RTVSPost2010Prop55
280
     0
102
RTVSPost2010PropOp55
 70
     1
102
RTVSPost2010Prop56
140
1.0
102
RTVSPost2010PropOp56
 70
     1
102
RTVSPost2010Prop57
140
1.0
102
RTVSPost2010PropOp57
 70
     1
  0
XRECORD
  5
1EB
102
{ACAD_REACTORS
330
1EA
102
}
330
1EA
100
AcDbXrecord
280
     1
102
RTVSPropertyOp0
 70
     1
102
RTVSPropertyOp1
 70
     1
102
RTVSPropertyOp2
 70
     1
102
RTVSPropertyOp3
 70
     1
102
RTVSPropertyOp4
 70
     1
102
RTVSPropertyOp5
 70
     1
102
RTVSPropertyOp6
 70
     1
102
RTVSPropertyOp7
 70
     1
102
RTVSPropertyOp8
 70
     1
102
RTVSPropertyOp9
 70
     1
102
RTVSPropertyOp10
 70
     1
102
RTVSPropertyOp11
 70
     1
102
RTVSPropertyOp12
 70
     1
102
RTVSPropertyOp13
 70
     1
102
RTVSPropertyOp14
 70
     1
102
RTVSPropertyOp15
 70
     1
102
RTVSPropertyOp16
 70
     1
102
RTVSPropertyOp17
 70
     1
102
RTVSPropertyOp18
 70
     1
102
RTVSPropertyOp19
 70
     1
102
RTVSPropertyOp20
 70
     1
102
RTVSPropertyOp21
 70
     1
102
RTVSPropertyOp22
 70
     1
102
RTVSPropertyOp23
 70
     1
102
RTVSPropertyOp24
 70
     1
102
RTVSPropertyOp25
 70
     1
102
RTVSPropertyOp26
 70
     1
102
RTVSPropertyOp27
 70
     1
102
RTVSPropertyOp28
 70
     1
102
RTVSPropertyOp29
 70
     1
102
RTVSPropertyOp30
 70
     1
102
RTVSPropertyOp31
 70
     1
102
RTVSPropertyOp32
 70
     1
102
RTVSPropertyOp33
 70
     1
102
RTVSPropertyOp34
 70
     1
102
RTVSPropertyOp35
 70
     1
102
RTVSPropertyOp36
 70
     1
102
RTVSPropertyOp37
 70
     1
102
RTVSPropertyOp38
 70
     1
102
RTVSPropertyOp39
 70
     1
102
RTVSPropertyOp40
 70
     1
102
RTVSPropertyOp41
 70
     1
102
RTVSPropertyOp42
 70
     1
102
RTVSPropertyOp43
 70
     1
102
RTVSPropertyOp44
 70
     1
102
RTVSPropertyOp45
 70
     1
102
RTVSPropertyOp46
 70
     1
102
RTVSPropertyOp47
 70
     1
102
RTVSPropertyOp48
 70
     1
102
RTVSPropertyOp49
 70
     1
102
RTVSPropertyOp50
 70
     1
102
RTVSPropertyOp51
 70
     0
102
RTVSPropertyOp52
 70
     0
102
RTVSPropertyOp53
 70
     1
102
RTVSPropertyOp54
 70
     1
102
RTVSPropertyOp55
 70
     1
102
RTVSPropertyOp56
 70
     1
102
RTVSPropertyOp57
 70
     1
102
RTVSPost2010Prop28
280
     0
102
RTVSPost2010PropOp28
 70
     1
102
RTVSPost2010Prop29
280
     1
102
RTVSPost2010PropOp29
 70
     1
102
RTVSPost2010Prop30
280
     1
102
RTVSPost2010PropOp30
 70
     1
102
RTVSPost2010Prop31
280
     0
102
RTVSPost2010PropOp31
 70
     1
102
RTVSPost2010Prop32
280
     0
102
RTVSPost2010PropOp32
 70
     1
102
RTVSPost2010Prop33
280
     0
102
RTVSPost2010PropOp33
 70
     1
102
RTVSPost2010Prop34
280
     0
102
RTVSPost2010PropOp34
 70
     1
102
RTVSPost2010Prop35
280
     0
102
RTVSPost2010PropOp35
 70
     1
102
RTVSPost2010Prop36
280
     0
102
RTVSPost2010PropOp36
 70
     1
102
RTVSPost2010Prop37
 90
       50
102
RTVSPost2010PropOp37
 70
     1
102
RTVSPost2010Prop38
140
0.0
102
RTVSPost2010PropOp38
 70
     1
102
RTVSPost2010Prop39
140
1.0
102
RTVSPost2010PropOp39
 70
     1
102
RTVSPost2010Prop40
 90
        0
102
RTVSPost2010PropOp40
 70
     1
102
RTVSPost2010Prop41ColorIndex
 90
       18
102
RTVSPost2010Prop41ColorRGB
 90
        0
102
RTVSPost2010PropOp41
 70
     1
102
RTVSPost2010Prop42
 90
       50
102
RTVSPost2010PropOp42
 70
     1
102
RTVSPost2010Prop43
 90
        3
102
RTVSPost2010PropOp43
 70
     1
102
RTVSPost2010Prop44ColorIndex
 90
        5
102
RTVSPost2010Prop44ColorRGB
 90
      255
102
RTVSPost2010PropOp44
 70
     1
102
RTVSPost2010Prop45
280
     0
102
RTVSPost2010PropOp45
 70
     1
102
RTVSPost2010Prop46
 90
       50
102
RTVSPost2010PropOp46
 70
     1
102
RTVSPost2010Prop47
 90
       50
102
RTVSPost2010PropOp47
 70
     1
102
RTVSPost2010Prop48
 90
       50
102
RTVSPost2010PropOp48
 70
     1
102
RTVSPost2010Prop49
280
     0
102
RTVSPost2010PropOp49
 70
     1
102
RTVSPost2010Prop50
 90
       50
102
RTVSPost2010PropOp50
 70
     1
102
RTVSPost2010Prop51ColorIndex
 90
      256
102
RTVSPost2010Prop51ColorRGB
 90
-16777216
102
RTVSPost2010PropOp51
 70
     0
102
RTVSPost2010Prop52
140
1.0
102
RTVSPost2010PropOp52
 70
     0
102
RTVSPost2010Prop53
 90
        2
102
RTVSPost2010PropOp53
 70
     1
102
RTVSPost2010Prop54
  1
strokes_ogs.tif
102
RTVSPost2010PropOp54
 70
     1
102
RTVSPost2010Prop55
280
     0
102
RTVSPost2010PropOp55
 70
     1
102
RTVSPost2010Prop56
140
1.0
102
RTVSPost2010PropOp56
 70
     1
102
RTVSPost2010Prop57
140
1.0
102
RTVSPost2010PropOp57
 70
     1
  0
XRECORD
  5
1DD
102
{ACAD_REACTORS
330
1DC
102
}
330
1DC
100
AcDbXrecord
280
     1
102
RTVSPropertyOp0
 70
     1
102
RTVSPropertyOp1
 70
     1
102
RTVSPropertyOp2
 70
     1
102
RTVSPropertyOp3
 70
     1
102
RTVSPropertyOp4
 70
     1
102
RTVSPropertyOp5
 70
     1
102
RTVSPropertyOp6
 70
     1
102
RTVSPropertyOp7
 70
     1
102
RTVSPropertyOp8
 70
     1
102
RTVSPropertyOp9
 70
     1
102
RTVSPropertyOp10
 70
     1
102
RTVSPropertyOp11
 70
     1
102
RTVSPropertyOp12
 70
     1
102
RTVSPropertyOp13
 70
     1
102
RTVSPropertyOp14
 70
     1
102
RTVSPropertyOp15
 70
     1
102
RTVSPropertyOp16
 70
     1
102
RTVSPropertyOp17
 70
     1
102
RTVSPropertyOp18
 70
     1
102
RTVSPropertyOp19
 70
     1
102
RTVSPropertyOp20
 70
     1
102
RTVSPropertyOp21
 70
     1
102
RTVSPropertyOp22
 70
     1
102
RTVSPropertyOp23
 70
     1
102
RTVSPropertyOp24
 70
     1
102
RTVSPropertyOp25
 70
     1
102
RTVSPropertyOp26
 70
     1
102
RTVSPropertyOp27
 70
     1
102
RTVSPropertyOp28
 70
     1
102
RTVSPropertyOp29
 70
     1
102
RTVSPropertyOp30
 70
     1
102
RTVSPropertyOp31
 70
     1
102
RTVSPropertyOp32
 70
     1
102
RTVSPropertyOp33
 70
     1
102
RTVSPropertyOp34
 70
     1
102
RTVSPropertyOp35
 70
     1
102
RTVSPropertyOp36
 70
     1
102
RTVSPropertyOp37
 70
     1
102
RTVSPropertyOp38
 70
     1
102
RTVSPropertyOp39
 70
     1
102
RTVSPropertyOp40
 70
     1
102
RTVSPropertyOp41
 70
     1
102
RTVSPropertyOp42
 70
     1
102
RTVSPropertyOp43
 70
     1
102
RTVSPropertyOp44
 70
     1
102
RTVSPropertyOp45
 70
     1
102
RTVSPropertyOp46
 70
     1
102
RTVSPropertyOp47
 70
     1
102
RTVSPropertyOp48
 70
     1
102
RTVSPropertyOp49
 70
     1
102
RTVSPropertyOp50
 70
     1
102
RTVSPropertyOp51
 70
     0
102
RTVSPropertyOp52
 70
     0
102
RTVSPropertyOp53
 70
     1
102
RTVSPropertyOp54
 70
     1
102
RTVSPropertyOp55
 70
     1
102
RTVSPropertyOp56
 70
     1
102
RTVSPropertyOp57
 70
     1
102
RTVSPost2010Prop28
280
     0
102
RTVSPost2010PropOp28
 70
     1
102
RTVSPost2010Prop29
280
     1
102
RTVSPost2010PropOp29
 70
     1
102
RTVSPost2010Prop30
280
     1
102
RTVSPost2010PropOp30
 70
     1
102
RTVSPost2010Prop31
280
     0
102
RTVSPost2010PropOp31
 70
     1
102
RTVSPost2010Prop32
280
     0
102
RTVSPost2010PropOp32
 70
     1
102
RTVSPost2010Prop33
280
     0
102
RTVSPost2010PropOp33
 70
     1
102
RTVSPost2010Prop34
280
     0
102
RTVSPost2010PropOp34
 70
     1
102
RTVSPost2010Prop35
280
     0
102
RTVSPost2010PropOp35
 70
     1
102
RTVSPost2010Prop36
280
     0
102
RTVSPost2010PropOp36
 70
     1
102
RTVSPost2010Prop37
 90
       50
102
RTVSPost2010PropOp37
 70
     1
102
RTVSPost2010Prop38
140
0.0
102
RTVSPost2010PropOp38
 70
     1
102
RTVSPost2010Prop39
140
1.0
102
RTVSPost2010PropOp39
 70
     1
102
RTVSPost2010Prop40
 90
        0
102
RTVSPost2010PropOp40
 70
     1
102
RTVSPost2010Prop41ColorIndex
 90
       18
102
RTVSPost2010Prop41ColorRGB
 90
        0
102
RTVSPost2010PropOp41
 70
     1
102
RTVSPost2010Prop42
 90
       50
102
RTVSPost2010PropOp42
 70
     1
102
RTVSPost2010Prop43
 90
        3
102
RTVSPost2010PropOp43
 70
     1
102
RTVSPost2010Prop44ColorIndex
 90
        5
102
RTVSPost2010Prop44ColorRGB
 90
      255
102
RTVSPost2010PropOp44
 70
     1
102
RTVSPost2010Prop45
280
     0
102
RTVSPost2010PropOp45
 70
     1
102
RTVSPost2010Prop46
 90
       50
102
RTVSPost2010PropOp46
 70
     1
102
RTVSPost2010Prop47
 90
       50
102
RTVSPost2010PropOp47
 70
     1
102
RTVSPost2010Prop48
 90
       50
102
RTVSPost2010PropOp48
 70
     1
102
RTVSPost2010Prop49
280
     0
102
RTVSPost2010PropOp49
 70
     1
102
RTVSPost2010Prop50
 90
       50
102
RTVSPost2010PropOp50
 70
     1
102
RTVSPost2010Prop51ColorIndex
 90
      256
102
RTVSPost2010Prop51ColorRGB
 90
-16777216
102
RTVSPost2010PropOp51
 70
     0
102
RTVSPost2010Prop52
140
1.0
102
RTVSPost2010PropOp52
 70
     0
102
RTVSPost2010Prop53
 90
        2
102
RTVSPost2010PropOp53
 70
     1
102
RTVSPost2010Prop54
  1
strokes_ogs.tif
102
RTVSPost2010PropOp54
 70
     1
102
RTVSPost2010Prop55
280
     0
102
RTVSPost2010PropOp55
 70
     1
102
RTVSPost2010Prop56
140
1.0
102
RTVSPost2010PropOp56
 70
     1
102
RTVSPost2010Prop57
140
1.0
102
RTVSPost2010PropOp57
 70
     1
  0
XRECORD
  5
1FD
102
{ACAD_REACTORS
330
1FC
102
}
330
1FC
100
AcDbXrecord
280
     1
102
RTVSPropertyOp0
 70
     1
102
RTVSPropertyOp1
 70
     1
102
RTVSPropertyOp2
 70
     1
102
RTVSPropertyOp3
 70
     1
102
RTVSPropertyOp4
 70
     1
102
RTVSPropertyOp5
 70
     1
102
RTVSPropertyOp6
 70
     1
102
RTVSPropertyOp7
 70
     1
102
RTVSPropertyOp8
 70
     1
102
RTVSPropertyOp9
 70
     1
102
RTVSPropertyOp10
 70
     1
102
RTVSPropertyOp11
 70
     1
102
RTVSPropertyOp12
 70
     1
102
RTVSPropertyOp13
 70
     1
102
RTVSPropertyOp14
 70
     1
102
RTVSPropertyOp15
 70
     1
102
RTVSPropertyOp16
 70
     1
102
RTVSPropertyOp17
 70
     1
102
RTVSPropertyOp18
 70
     1
102
RTVSPropertyOp19
 70
     1
102
RTVSPropertyOp20
 70
     1
102
RTVSPropertyOp21
 70
     1
102
RTVSPropertyOp22
 70
     1
102
RTVSPropertyOp23
 70
     1
102
RTVSPropertyOp24
 70
     1
102
RTVSPropertyOp25
 70
     1
102
RTVSPropertyOp26
 70
     1
102
RTVSPropertyOp27
 70
     1
102
RTVSPropertyOp28
 70
     1
102
RTVSPropertyOp29
 70
     1
102
RTVSPropertyOp30
 70
     1
102
RTVSPropertyOp31
 70
     1
102
RTVSPropertyOp32
 70
     1
102
RTVSPropertyOp33
 70
     1
102
RTVSPropertyOp34
 70
     1
102
RTVSPropertyOp35
 70
     1
102
RTVSPropertyOp36
 70
     1
102
RTVSPropertyOp37
 70
     1
102
RTVSPropertyOp38
 70
     1
102
RTVSPropertyOp39
 70
     1
102
RTVSPropertyOp40
 70
     1
102
RTVSPropertyOp41
 70
     1
102
RTVSPropertyOp42
 70
     1
102
RTVSPropertyOp43
 70
     1
102
RTVSPropertyOp44
 70
     1
102
RTVSPropertyOp45
 70
     1
102
RTVSPropertyOp46
 70
     1
102
RTVSPropertyOp47
 70
     1
102
RTVSPropertyOp48
 70
     1
102
RTVSPropertyOp49
 70
     1
102
RTVSPropertyOp50
 70
     1
102
RTVSPropertyOp51
 70
     0
102
RTVSPropertyOp52
 70
     0
102
RTVSPropertyOp53
 70
     1
102
RTVSPropertyOp54
 70
     1
102
RTVSPropertyOp55
 70
     1
102
RTVSPropertyOp56
 70
     1
102
RTVSPropertyOp57
 70
     1
102
RTVSPost2010Prop28
280
     0
102
RTVSPost2010PropOp28
 70
     1
102
RTVSPost2010Prop29
280
     1
102
RTVSPost2010PropOp29
 70
     1
102
RTVSPost2010Prop30
280
     1
102
RTVSPost2010PropOp30
 70
     1
102
RTVSPost2010Prop31
280
     0
102
RTVSPost2010PropOp31
 70
     1
102
RTVSPost2010Prop32
280
     0
102
RTVSPost2010PropOp32
 70
     1
102
RTVSPost2010Prop33
280
     0
102
RTVSPost2010PropOp33
 70
     1
102
RTVSPost2010Prop34
280
     0
102
RTVSPost2010PropOp34
 70
     1
102
RTVSPost2010Prop35
280
     0
102
RTVSPost2010PropOp35
 70
     1
102
RTVSPost2010Prop36
280
     0
102
RTVSPost2010PropOp36
 70
     1
102
RTVSPost2010Prop37
 90
       50
102
RTVSPost2010PropOp37
 70
     1
102
RTVSPost2010Prop38
140
0.0
102
RTVSPost2010PropOp38
 70
     1
102
RTVSPost2010Prop39
140
1.0
102
RTVSPost2010PropOp39
 70
     1
102
RTVSPost2010Prop40
 90
        0
102
RTVSPost2010PropOp40
 70
     1
102
RTVSPost2010Prop41ColorIndex
 90
       18
102
RTVSPost2010Prop41ColorRGB
 90
        0
102
RTVSPost2010PropOp41
 70
     1
102
RTVSPost2010Prop42
 90
       50
102
RTVSPost2010PropOp42
 70
     1
102
RTVSPost2010Prop43
 90
        3
102
RTVSPost2010PropOp43
 70
     1
102
RTVSPost2010Prop44ColorIndex
 90
        5
102
RTVSPost2010Prop44ColorRGB
 90
      255
102
RTVSPost2010PropOp44
 70
     1
102
RTVSPost2010Prop45
280
     0
102
RTVSPost2010PropOp45
 70
     1
102
RTVSPost2010Prop46
 90
       50
102
RTVSPost2010PropOp46
 70
     1
102
RTVSPost2010Prop47
 90
       50
102
RTVSPost2010PropOp47
 70
     1
102
RTVSPost2010Prop48
 90
       50
102
RTVSPost2010PropOp48
 70
     1
102
RTVSPost2010Prop49
280
     0
102
RTVSPost2010PropOp49
 70
     1
102
RTVSPost2010Prop50
 90
       50
102
RTVSPost2010PropOp50
 70
     1
102
RTVSPost2010Prop51ColorIndex
 90
      256
102
RTVSPost2010Prop51ColorRGB
 90
-16777216
102
RTVSPost2010PropOp51
 70
     0
102
RTVSPost2010Prop52
140
1.0
102
RTVSPost2010PropOp52
 70
     0
102
RTVSPost2010Prop53
 90
        2
102
RTVSPost2010PropOp53
 70
     1
102
RTVSPost2010Prop54
  1
strokes_ogs.tif
102
RTVSPost2010PropOp54
 70
     1
102
RTVSPost2010Prop55
280
     0
102
RTVSPost2010PropOp55
 70
     1
102
RTVSPost2010Prop56
140
1.0
102
RTVSPost2010PropOp56
 70
     1
102
RTVSPost2010Prop57
140
1.0
102
RTVSPost2010PropOp57
 70
     1
  0
ENDSEC
  0
EOF
