  0
SECTION
  2
HEADER
  9
$ACADVER
  1
AC1015
  9
$ACADMAINTVER
 70
     6
  9
$DWGCODEPAGE
  3
ANSI_1252
  9
$INSBASE
 10
0.0
 20
0.0
 30
0.0
  9
$EXTMIN
 10
-106.623177
 20
-231.145386
 30
0.0
  9
$EXTMAX
 10
479.446777
 20
228.006287
 30
0.0
  9
$LIMMIN
 10
-106.623177
 20
-231.145386
  9
$LIMMAX
 10
479.446777
 20
228.006287
  9
$ORTHOMODE
 70
     0
  9
$REGENMODE
 70
     1
  9
$FILLMODE
 70
     1
  9
$QTEXTMODE
 70
     0
  9
$MIRRTEXT
 70
     1
  9
$LTSCALE
 40
1.0
  9
$ATTMODE
 70
     1
  9
$TEXTSIZE
 40
2.5
  9
$TRACEWID
 40
1.0
  9
$TEXTSTYLE
  7
Standard
  9
$CLAYER
  8
0
  9
$CELTYPE
  6
ByLayer
  9
$CECOLOR
 62
   256
  9
$CELTSCALE
 40
1.0
  9
$DISPSILH
 70
     0
  9
$DIMSCALE
 40
1.0
  9
$DIMASZ
 40
2.5
  9
$DIMEXO
 40
0.625
  9
$DIMDLI
 40
3.75
  9
$DIMRND
 40
0.0
  9
$DIMDLE
 40
0.0
  9
$DIMEXE
 40
1.25
  9
$DIMTP
 40
0.0
  9
$DIMTM
 40
0.0
  9
$DIMTXT
 40
2.5
  9
$DIMCEN
 40
2.5
  9
$DIMTSZ
 40
0.0
  9
$DIMTOL
 70
     0
  9
$DIMLIM
 70
     0
  9
$DIMTIH
 70
     0
  9
$DIMTOH
 70
     0
  9
$DIMSE1
 70
     0
  9
$DIMSE2
 70
     0
  9
$DIMTAD
 70
     1
  9
$DIMZIN
 70
     8
  9
$DIMBLK
  1

  9
$DIMASO
 70
     1
  9
$DIMSHO
 70
     1
  9
$DIMPOST
  1

  9
$DIMAPOST
  1

  9
$DIMALT
 70
     0
  9
$DIMALTD
 70
     3
  9
$DIMALTF
 40
0.03937
  9
$DIMLFAC
 40
1.0
  9
$DIMTOFL
 70
     1
  9
$DIMTVP
 40
0.0
  9
$DIMTIX
 70
     0
  9
$DIMSOXD
 70
     0
  9
$DIMSAH
 70
     0
  9
$DIMBLK1
  1

  9
$DIMBLK2
  1

  9
$DIMSTYLE
  2
ISO-25
  9
$DIMCLRD
 70
     0
  9
$DIMCLRE
 70
     0
  9
$DIMCLRT
 70
     0
  9
$DIMTFAC
 40
1.0
  9
$DIMGAP
 40
0.625
  9
$DIMJUST
 70
     0
  9
$DIMSD1
 70
     0
  9
$DIMSD2
 70
     0
  9
$DIMTOLJ
 70
     0
  9
$DIMTZIN
 70
     8
  9
$DIMALTZ
 70
     0
  9
$DIMALTTZ
 70
     0
  9
$DIMUPT
 70
     0
  9
$DIMDEC
 70
     2
  9
$DIMTDEC
 70
     2
  9
$DIMALTU
 70
     2
  9
$DIMALTTD
 70
     3
  9
$DIMTXSTY
  7
Standard
  9
$DIMAUNIT
 70
     0
  9
$DIMADEC
 70
     0
  9
$DIMALTRND
 40
0.0
  9
$DIMAZIN
 70
     0
  9
$DIMDSEP
 70
    44
  9
$DIMATFIT
 70
     3
  9
$DIMFRAC
 70
     0
  9
$DIMLDRBLK
  1

  9
$DIMLUNIT
 70
     2
  9
$DIMLWD
 70
    -2
  9
$DIMLWE
 70
    -2
  9
$DIMTMOVE
 70
     0
  9
$LUNITS
 70
     2
  9
$LUPREC
 70
     4
  9
$SKETCHINC
 40
1.0
  9
$FILLETRAD
 40
10.0
  9
$AUNITS
 70
     0
  9
$AUPREC
 70
     0
  9
$MENU
  1
.
  9
$ELEVATION
 40
0.0
  9
$PELEVATION
 40
0.0
  9
$THICKNESS
 40
0.0
  9
$LIMCHECK
 70
     0
  9
$CHAMFERA
 40
0.0
  9
$CHAMFERB
 40
0.0
  9
$CHAMFERC
 40
0.0
  9
$CHAMFERD
 40
0.0
  9
$SKPOLY
 70
     0
  9
$TDCREATE
 40
2459549.3956889
  9
$TDUCREATE
 40
2459549.354022234
  9
$TDUPDATE
 40
2459549.395689803
  9
$TDUUPDATE
 40
2459549.354023137
  9
$TDINDWG
 40
0.0000000116
  9
$TDUSRTIMER
 40
0.0000000116
  9
$USRTIMER
 70
     1
  9
$ANGBASE
 50
0.0
  9
$ANGDIR
 70
     0
  9
$PDMODE
 70
     0
  9
$PDSIZE
 40
0.0
  9
$PLINEWID
 40
0.0
  9
$SPLFRAME
 70
     0
  9
$SPLINETYPE
 70
     6
  9
$SPLINESEGS
 70
     8
  9
$HANDSEED
  5
258
  9
$SURFTAB1
 70
     6
  9
$SURFTAB2
 70
     6
  9
$SURFTYPE
 70
     6
  9
$SURFU
 70
     6
  9
$SURFV
 70
     6
  9
$UCSBASE
  2

  9
$UCSNAME
  2

  9
$UCSORG
 10
0.0
 20
0.0
 30
0.0
  9
$UCSXDIR
 10
1.0
 20
0.0
 30
0.0
  9
$UCSYDIR
 10
0.0
 20
1.0
 30
0.0
  9
$UCSORTHOREF
  2

  9
$UCSORTHOVIEW
 70
     0
  9
$UCSORGTOP
 10
0.0
 20
0.0
 30
0.0
  9
$UCSORGBOTTOM
 10
0.0
 20
0.0
 30
0.0
  9
$UCSORGLEFT
 10
0.0
 20
0.0
 30
0.0
  9
$UCSORGRIGHT
 10
0.0
 20
0.0
 30
0.0
  9
$UCSORGFRONT
 10
0.0
 20
0.0
 30
0.0
  9
$UCSORGBACK
 10
0.0
 20
0.0
 30
0.0
  9
$PUCSBASE
  2

  9
$PUCSNAME
  2

  9
$PUCSORG
 10
0.0
 20
0.0
 30
0.0
  9
$PUCSXDIR
 10
1.0
 20
0.0
 30
0.0
  9
$PUCSYDIR
 10
0.0
 20
1.0
 30
0.0
  9
$PUCSORTHOREF
  2

  9
$PUCSORTHOVIEW
 70
     0
  9
$PUCSORGTOP
 10
0.0
 20
0.0
 30
0.0
  9
$PUCSORGBOTTOM
 10
0.0
 20
0.0
 30
0.0
  9
$PUCSORGLEFT
 10
0.0
 20
0.0
 30
0.0
  9
$PUCSORGRIGHT
 10
0.0
 20
0.0
 30
0.0
  9
$PUCSORGFRONT
 10
0.0
 20
0.0
 30
0.0
  9
$PUCSORGBACK
 10
0.0
 20
0.0
 30
0.0
  9
$USERI1
 70
     0
  9
$USERI2
 70
     0
  9
$USERI3
 70
     0
  9
$USERI4
 70
     0
  9
$USERI5
 70
     0
  9
$USERR1
 40
0.0
  9
$USERR2
 40
0.0
  9
$USERR3
 40
0.0
  9
$USERR4
 40
0.0
  9
$USERR5
 40
0.0
  9
$WORLDVIEW
 70
     1
  9
$SHADEDGE
 70
     3
  9
$SHADEDIF
 70
    70
  9
$TILEMODE
 70
     1
  9
$MAXACTVP
 70
    64
  9
$PINSBASE
 10
0.0
 20
0.0
 30
0.0
  9
$PLIMCHECK
 70
     0
  9
$PEXTMIN
 10
1.000000E+20
 20
1.000000E+20
 30
1.000000E+20
  9
$PEXTMAX
 10
-1.000000E+20
 20
-1.000000E+20
 30
-1.000000E+20
  9
$PLIMMIN
 10
0.0
 20
0.0
  9
$PLIMMAX
 10
420.0
 20
297.0
  9
$UNITMODE
 70
     0
  9
$VISRETAIN
 70
     1
  9
$PLINEGEN
 70
     0
  9
$PSLTSCALE
 70
     1
  9
$TREEDEPTH
 70
  3020
  9
$CMLSTYLE
  2
Standard
  9
$CMLJUST
 70
     0
  9
$CMLSCALE
 40
20.0
  9
$PROXYGRAPHICS
 70
     1
  9
$MEASUREMENT
 70
     1
  9
$CELWEIGHT
370
    -1
  9
$ENDCAPS
280
     0
  9
$JOINSTYLE
280
     0
  9
$LWDISPLAY
290
     0
  9
$INSUNITS
 70
     4
  9
$HYPERLINKBASE
  1

  9
$STYLESHEET
  1

  9
$XEDIT
290
     1
  9
$CEPSNTYPE
380
     0
  9
$PSTYLEMODE
290
     1
  9
$FINGERPRINTGUID
  2
{9f19785a-7bbb-4772-9203-5ea501f37d95}
  9
$VERSIONGUID
  2
{FAEB1C32-E019-11D5-929B-00C0DF256EC4}
  9
$EXTNAMES
290
     1
  9
$PSVPSCALE
 40
0.0
  9
$OLESTARTUP
290
     0
  0
ENDSEC
  0
SECTION
  2
CLASSES
  0
CLASS
  1
ACDBDICTIONARYWDFLT
  2
AcDbDictionaryWithDefault
  3
ObjectDBX Classes
 90
        0
280
     0
281
     0
  0
CLASS
  1
VISUALSTYLE
  2
AcDbVisualStyle
  3
ObjectDBX Classes
 90
     4095
280
     0
281
     0
  0
CLASS
  1
MATERIAL
  2
AcDbMaterial
  3
ObjectDBX Classes
 90
     1153
280
     0
281
     0
  0
CLASS
  1
SCALE
  2
AcDbScale
  3
ObjectDBX Classes
 90
     1153
280
     0
281
     0
  0
CLASS
  1
TABLESTYLE
  2
AcDbTableStyle
  3
ObjectDBX Classes
 90
     4095
280
     0
281
     0
  0
CLASS
  1
MLEADERSTYLE
  2
AcDbMLeaderStyle
  3
ACDB_MLEADERSTYLE_CLASS
 90
     4095
280
     0
281
     0
  0
CLASS
  1
SUN
  2
AcDbSun
  3
SCENEOE
 90
     1153
280
     0
281
     0
  0
CLASS
  1
DICTIONARYVAR
  2
AcDbDictionaryVar
  3
ObjectDBX Classes
 90
        0
280
     0
281
     0
  0
CLASS
  1
ACDBPLACEHOLDER
  2
AcDbPlaceHolder
  3
ObjectDBX Classes
 90
        0
280
     0
281
     0
  0
CLASS
  1
LAYOUT
  2
AcDbLayout
  3
ObjectDBX Classes
 90
        0
280
     0
281
     0
  0
ENDSEC
  0
SECTION
  2
TABLES
  0
TABLE
  2
VPORT
  5
8
102
{ACAD_XDICTIONARY
360
21B
102
}
330
0
100
AcDbSymbolTable
 70
     1
  0
VPORT
  5
29
330
8
100
AcDbSymbolTableRecord
100
AcDbViewportTableRecord
  2
*Active
 70
     0
 10
0.0
 20
0.0
 11
1.0
 21
1.0
 12
344.186916
 22
148.5
 13
0.0
 23
0.0
 14
10.0
 24
10.0
 15
10.0
 25
10.0
 16
0.0
 26
0.0
 36
1.0
 17
0.0
 27
0.0
 37
0.0
 40
297.0
 41
1.972973
 42
50.0
 43
0.0
 44
0.0
 50
0.0
 51
0.0
 71
     0
 72
   100
 73
     1
 74
     3
 75
     0
 76
     0
 77
     0
 78
     0
281
     0
 65
     1
110
0.0
120
0.0
130
0.0
111
1.0
121
0.0
131
0.0
112
0.0
122
1.0
132
0.0
 79
     0
146
0.0
  0
ENDTAB
  0
TABLE
  2
LTYPE
  5
5
330
0
100
AcDbSymbolTable
 70
     1
  0
LTYPE
  5
14
330
5
100
AcDbSymbolTableRecord
100
AcDbLinetypeTableRecord
  2
ByBlock
 70
     0
  3

 72
    65
 73
     0
 40
0.0
  0
LTYPE
  5
15
330
5
100
AcDbSymbolTableRecord
100
AcDbLinetypeTableRecord
  2
ByLayer
 70
     0
  3

 72
    65
 73
     0
 40
0.0
  0
LTYPE
  5
16
330
5
100
AcDbSymbolTableRecord
100
AcDbLinetypeTableRecord
  2
Continuous
 70
     0
  3
Solid line
 72
    65
 73
     0
 40
0.0
  0
ENDTAB
  0
TABLE
  2
LAYER
  5
2
330
0
100
AcDbSymbolTable
 70
     1
  0
LAYER
  5
10
330
2
100
AcDbSymbolTableRecord
100
AcDbLayerTableRecord
  2
0
 70
     0
 62
   106
  6
Continuous
370
     0
390
F
  0
ENDTAB
  0
TABLE
  2
STYLE
  5
3
330
0
100
AcDbSymbolTable
 70
     4
  0
STYLE
  5
11
330
3
100
AcDbSymbolTableRecord
100
AcDbTextStyleTableRecord
  2
Standard
 70
     0
 40
0.0
 41
1.0
 50
0.0
 71
     0
 42
2.5
  3
txt
  4

  0
STYLE
  5
6E
330
3
100
AcDbSymbolTableRecord
100
AcDbTextStyleTableRecord
  2
Default
 70
     0
 40
0.0
 41
1.0
 50
0.0
 71
     0
 42
2.5
  3

  4

1001
ACAD
1000
txt
1071
        0
  0
STYLE
  5
6F
330
3
100
AcDbSymbolTableRecord
100
AcDbTextStyleTableRecord
  2
ISO
 70
     0
 40
0.0
 41
1.0
 50
0.0
 71
     0
 42
2.5
  3

  4

1001
ACAD
1000
txt
1071
        0
  0
STYLE
  5
70
330
3
100
AcDbSymbolTableRecord
100
AcDbTextStyleTableRecord
  2
zucchetti
 70
     0
 40
0.0
 41
1.0
 50
0.0
 71
     0
 42
2.5
  3

  4

1001
ACAD
1000
Arial
1071
        0
  0
ENDTAB
  0
TABLE
  2
VIEW
  5
6
330
0
100
AcDbSymbolTable
 70
     0
  0
ENDTAB
  0
TABLE
  2
UCS
  5
7
330
0
100
AcDbSymbolTable
 70
     0
  0
ENDTAB
  0
TABLE
  2
APPID
  5
9
330
0
100
AcDbSymbolTable
 70
     2
  0
APPID
  5
12
330
9
100
AcDbSymbolTableRecord
100
AcDbRegAppTableRecord
  2
ACAD
 70
     0
  0
APPID
  5
255
330
9
100
AcDbSymbolTableRecord
100
AcDbRegAppTableRecord
  2
ACAD_MLEADERVER
 70
     0
  0
ENDTAB
  0
TABLE
  2
DIMSTYLE
  5
A
330
0
100
AcDbSymbolTable
 70
     4
100
AcDbDimStyleTable
  0
DIMSTYLE
105
27
330
A
100
AcDbSymbolTableRecord
100
AcDbDimStyleTableRecord
  2
ISO-25
 70
     0
 41
2.5
 42
0.625
 43
3.75
 44
1.25
 73
     0
 74
     0
 77
     1
 78
     8
140
2.5
141
2.5
143
0.03937
147
0.625
171
     3
172
     1
178
     0
271
     2
272
     2
274
     3
278
    44
283
     0
284
     8
340
11
  0
DIMSTYLE
105
71
330
A
100
AcDbSymbolTableRecord
100
AcDbDimStyleTableRecord
  2
Default
 70
     0
  3
<>
 41
4.375
 42
1.05
 44
2.1
 73
     0
 74
     0
 77
     1
 78
     8
140
3.5
146
0.4
147
1.75
172
     1
271
     2
178
     3
271
     2
272
     3
284
     8
340
6E
341
72
342
72
  0
DIMSTYLE
105
79
330
A
100
AcDbSymbolTableRecord
100
AcDbDimStyleTableRecord
  2
ISO
 70
     0
  3
<>
 41
4.375
 42
1.05
 44
2.1
 73
     0
 74
     0
 77
     1
 78
     8
140
3.5
146
0.4
147
1.75
172
     1
271
     2
178
     3
271
     2
272
     3
284
     8
340
6F
341
72
342
72
  0
DIMSTYLE
105
7A
330
A
100
AcDbSymbolTableRecord
100
AcDbDimStyleTableRecord
  2
zucchetti
 70
     0
  3
<>
 41
3.0
 42
0.9
 44
1.8
 73
     0
 74
     0
 77
     1
 78
     8
140
3.0
146
0.6
147
1.5
172
     1
176
     3
177
     3
271
     2
178
     3
271
     2
272
     2
284
     8
340
70
  0
ENDTAB
  0
TABLE
  2
BLOCK_RECORD
  5
1
330
0
100
AcDbSymbolTable
 70
     7
  0
BLOCK_RECORD
  5
1F
330
1
100
AcDbSymbolTableRecord
100
AcDbBlockTableRecord
  2
*Model_Space
340
22
  0
BLOCK_RECORD
  5
1B
330
1
100
AcDbSymbolTableRecord
100
AcDbBlockTableRecord
  2
*Paper_Space
340
1E
  0
BLOCK_RECORD
  5
23
330
1
100
AcDbSymbolTableRecord
100
AcDbBlockTableRecord
  2
*Paper_Space0
340
26
  0
BLOCK_RECORD
  5
72
330
1
100
AcDbSymbolTableRecord
100
AcDbBlockTableRecord
  2
_Closed
340
0
  0
BLOCK_RECORD
  5
7B
330
1
100
AcDbSymbolTableRecord
100
AcDbBlockTableRecord
  2
a
340
0
102
{BLKREFS
331
B5
102
}
  0
BLOCK_RECORD
  5
B6
330
1
100
AcDbSymbolTableRecord
100
AcDbBlockTableRecord
  2
b
340
0
102
{BLKREFS
331
108
102
}
  0
BLOCK_RECORD
  5
109
330
1
100
AcDbSymbolTableRecord
100
AcDbBlockTableRecord
  2
c
340
0
102
{BLKREFS
331
15E
102
}
  0
BLOCK_RECORD
  5
15F
330
1
100
AcDbSymbolTableRecord
100
AcDbBlockTableRecord
  2
d
340
0
102
{BLKREFS
331
1B1
102
}
  0
BLOCK_RECORD
  5
1B2
330
1
100
AcDbSymbolTableRecord
100
AcDbBlockTableRecord
  2
e
340
0
102
{BLKREFS
331
20F
102
}
  0
ENDTAB
  0
ENDSEC
  0
SECTION
  2
BLOCKS
  0
BLOCK
  5
20
330
1F
100
AcDbEntity
  8
0
100
AcDbBlockBegin
  2
*Model_Space
 70
     0
 10
0.0
 20
0.0
 30
0.0
  3
*Model_Space
  1

  0
ENDBLK
  5
21
330
1F
100
AcDbEntity
  8
0
100
AcDbBlockEnd
  0
BLOCK
  5
1C
330
1B
100
AcDbEntity
 67
     1
  8
0
100
AcDbBlockBegin
  2
*Paper_Space
 70
     0
 10
0.0
 20
0.0
 30
0.0
  3
*Paper_Space
  1

  0
ENDBLK
  5
1D
330
1B
100
AcDbEntity
 67
     1
  8
0
100
AcDbBlockEnd
  0
BLOCK
  5
24
330
23
100
AcDbEntity
  8
0
100
AcDbBlockBegin
  2
*Paper_Space0
 70
     0
 10
0.0
 20
0.0
 30
0.0
  3
*Paper_Space0
  1

  0
ENDBLK
  5
25
330
23
100
AcDbEntity
  8
0
100
AcDbBlockEnd
  0
BLOCK
  5
73
330
72
100
AcDbEntity
  8
0
100
AcDbBlockBegin
  2
_Closed
 70
     0
 10
0.0
 20
0.0
 30
0.0
  3
_Closed
  1

  0
LINE
  5
75
330
72
100
AcDbEntity
  8
0
  6
ByBlock
 62
     0
370
    -2
100
AcDbLine
 10
-1.0
 20
0.166667
 30
0.0
 11
0.0
 21
0.0
 31
0.0
  0
LINE
  5
76
330
72
100
AcDbEntity
  8
0
  6
ByBlock
 62
     0
370
    -2
100
AcDbLine
 10
0.0
 20
0.0
 30
0.0
 11
-1.0
 21
-0.166667
 31
0.0
  0
LINE
  5
77
330
72
100
AcDbEntity
  8
0
  6
ByBlock
 62
     0
370
    -2
100
AcDbLine
 10
-1.0
 20
0.166667
 30
0.0
 11
-1.0
 21
-0.166667
 31
0.0
  0
LINE
  5
78
330
72
100
AcDbEntity
  8
0
  6
ByBlock
 62
     0
370
    -2
100
AcDbLine
 10
0.0
 20
0.0
 30
0.0
 11
-1.0
 21
0.0
 31
0.0
  0
ENDBLK
  5
74
330
72
100
AcDbEntity
  8
0
100
AcDbBlockEnd
  0
BLOCK
  5
B3
330
7B
100
AcDbEntity
  8
0
100
AcDbBlockBegin
  2
a
 70
     0
 10
66.019836
 20
37.472153
 30
0.0
  3
a
  1

  0
ARC
  5
7C
330
7B
100
AcDbEntity
  8
0
  6
Continuous
 62
     0
370
    30
100
AcDbCircle
 10
159.623995
 20
116.506287
 30
0.0
 40
22.10000004088621
100
AcDbArc
 50
345.383985
 51
90.0
  0
ARC
  5
7D
330
7B
100
AcDbEntity
  8
0
  6
Continuous
 62
     0
370
    30
100
AcDbCircle
 10
159.623995
 20
116.506287
 30
0.0
 40
22.10000004088621
100
AcDbArc
 50
90.0
 51
194.616584
  0
ARC
  5
7E
330
7B
100
AcDbEntity
  8
0
  6
Continuous
 62
     0
370
     0
100
AcDbCircle
 10
159.623995
 20
138.006287
 30
0.0
 40
89.0
100
AcDbArc
 50
277.911988
 51
180.0
  0
ARC
  5
7F
330
7B
100
AcDbEntity
  8
0
  6
Continuous
 62
     0
370
     0
100
AcDbCircle
 10
159.623995
 20
138.006287
 30
0.0
 40
89.0
100
AcDbArc
 50
180.0
 51
262.088036
  0
ARC
  5
80
330
7B
100
AcDbEntity
  8
0
  6
Continuous
 62
     0
370
    30
100
AcDbCircle
 10
159.623995
 20
138.006287
 30
0.0
 40
90.0
100
AcDbArc
 50
277.288459
 51
180.0
  0
ARC
  5
81
330
7B
100
AcDbEntity
  8
0
  6
Continuous
 62
     0
370
    30
100
AcDbCircle
 10
159.623995
 20
138.006287
 30
0.0
 40
90.0
100
AcDbArc
 50
180.0
 51
262.711564
  0
CIRCLE
  5
82
330
7B
100
AcDbEntity
  8
0
  6
Continuous
 62
     0
370
    30
100
AcDbCircle
 10
159.623997
 20
164.506286
 30
0.0
 40
10.65000065233946
  0
CIRCLE
  5
83
330
7B
100
AcDbEntity
  8
0
  6
Continuous
 62
     0
370
    30
100
AcDbCircle
 10
159.623997
 20
164.506286
 30
0.0
 40
10.9500006642604
  0
CIRCLE
  5
84
330
7B
100
AcDbEntity
  8
0
  6
Continuous
 62
     0
370
    30
100
AcDbCircle
 10
159.623997
 20
164.506286
 30
0.0
 40
10.99999954011361
  0
ARC
  5
85
330
7B
100
AcDbEntity
  8
0
  6
Continuous
 62
     0
370
    30
100
AcDbCircle
 10
159.623779
 20
116.506057
 30
0.0
 40
21.99393697203807
100
AcDbArc
 50
359.573392
 51
89.999398
  0
ARC
  5
86
330
7B
100
AcDbEntity
  8
0
  6
Continuous
 62
     0
370
    30
100
AcDbCircle
 10
159.624242
 20
116.506057
 30
0.0
 40
21.99393697203799
100
AcDbArc
 50
90.000603
 51
180.426609
  0
LINE
  5
87
330
7B
100
AcDbEntity
  8
0
  6
Continuous
 62
     0
370
     0
100
AcDbLine
 10
181.29472
 20
112.750122
 30
0.0
 11
181.224529
 21
112.750187
 31
0.0
  0
LINE
  5
88
330
7B
100
AcDbEntity
  8
0
  6
Continuous
 62
     0
370
     0
100
AcDbLine
 10
181.224529
 20
112.750187
 30
0.0
 11
181.200631
 21
112.55886
 31
0.0
  0
SPLINE
  5
89
330
7B
100
AcDbEntity
  8
0
  6
Continuous
 62
     0
370
     0
100
AcDbSpline
210
0.0
220
0.0
230
1.0
 70
     8
 71
     3
 72
     8
 73
     4
 74
     0
 42
0.000000001
 43
0.0
 40
0.0
 40
0.0
 40
0.0
 40
0.0
 40
3.675194520389776
 40
3.675194520389776
 40
3.675194520389776
 40
3.675194520389776
 10
181.2115366821551
 20
112.7501431682055
 30
0.0
 10
181.3466003930495
 20
113.9475551162897
 30
0.0
 10
181.6073778334687
 20
115.1375663543979
 30
0.0
 10
181.6170630723014
 20
116.3422983707433
 30
0.0
  0
LINE
  5
8A
330
7B
100
AcDbEntity
  8
0
  6
Continuous
 62
     0
370
     0
100
AcDbLine
 10
137.953301
 20
112.750121
 30
0.0
 11
138.023492
 21
112.750186
 31
0.0
  0
LINE
  5
8B
330
7B
100
AcDbEntity
  8
0
  6
Continuous
 62
     0
370
     0
100
AcDbLine
 10
138.023492
 20
112.750186
 30
0.0
 11
138.047389
 21
112.558859
 31
0.0
  0
LINE
  5
8C
330
7B
100
AcDbEntity
  8
0
  6
Continuous
 62
     0
370
     0
100
AcDbLine
 10
181.211544
 20
112.750142
 30
0.0
 11
178.753017
 21
90.974952
 31
0.0
  0
LINE
  5
8D
330
7B
100
AcDbEntity
  8
0
  6
Continuous
 62
     0
370
     0
100
AcDbLine
 10
178.753017
 20
90.974952
 30
0.0
 11
175.279345
 21
60.200536
 31
0.0
  0
LINE
  5
8E
330
7B
100
AcDbEntity
  8
0
  6
Continuous
 62
     0
370
     0
100
AcDbLine
 10
159.623998
 20
43.899775
 30
0.0
 11
159.624003
 21
43.825145
 31
0.0
  0
SPLINE
  5
8F
330
7B
100
AcDbEntity
  8
0
  6
Continuous
 62
     0
370
     0
100
AcDbSpline
210
0.0
220
0.0
230
1.0
 70
     8
 71
     3
 72
     8
 73
     4
 74
     0
 42
0.000000001
 43
0.0
 40
0.0
 40
0.0
 40
0.0
 40
0.0
 40
3.653222443064005
 40
3.653222443064005
 40
3.653222443064005
 40
3.653222443064005
 10
180.307429841122
 20
116.6175815361946
 30
0.0
 10
180.2959418026788
 20
115.4194115943759
 30
0.0
 10
180.0393895641824
 20
114.23717593751
 30
0.0
 10
179.9037760217781
 20
113.0469067763218
 30
0.0
  0
LINE
  5
90
330
7B
100
AcDbEntity
  8
0
  6
Continuous
 62
     0
370
     0
100
AcDbLine
 10
179.903776
 20
113.046907
 30
0.0
 11
173.978127
 21
60.624454
 31
0.0
  0
SPLINE
  5
91
330
7B
100
AcDbEntity
  8
0
  6
Continuous
 62
     0
370
     0
100
AcDbSpline
210
0.0
220
0.0
230
1.0
 70
     8
 71
     3
 72
    14
 73
    10
 74
     0
 42
0.000000001
 43
0.0
 40
0.0
 40
0.0
 40
0.0
 40
0.0
 40
3.357648776850969
 40
6.714049718873458
 40
10.06778576981204
 40
13.4176008828416
 40
16.7644510004888
 40
20.11421126264104
 40
23.46800661547983
 40
23.46800661547983
 40
23.46800661547983
 40
23.46800661547983
 10
173.9781272698287
 20
60.62445407207385
 30
0.0
 10
173.8514032395554
 20
59.53072115560691
 30
0.0
 10
173.4968993310441
 20
57.35331821420435
 30
0.0
 10
172.5699500870757
 20
54.17055897569709
 30
0.0
 10
171.121028561006
 20
51.17436492867047
 30
0.0
 10
169.0111025442452
 20
48.56504236529929
 30
0.0
 10
166.2117252501462
 20
46.66423739845598
 30
0.0
 10
162.984708830023
 20
45.6454964153514
 30
0.0
 10
160.7419428801855
 20
45.46581180066784
 30
0.0
 10
159.6240110959062
 20
45.46581107547772
 30
0.0
  0
LINE
  5
92
330
7B
100
AcDbEntity
  8
0
  6
Continuous
 62
     0
370
     0
100
AcDbLine
 10
159.624011
 20
45.465811
 30
0.0
 11
159.624009
 21
137.437674
 31
0.0
  0
ARC
  5
93
330
7B
100
AcDbEntity
  8
0
  6
Continuous
 62
     0
370
     0
100
AcDbCircle
 10
159.624599
 20
116.754391
 30
0.0
 40
20.68328310527695
100
AcDbArc
 50
359.621014
 51
90.001632
  0
SPLINE
  5
94
330
7B
100
AcDbEntity
  8
0
  6
Continuous
 62
     0
370
     0
100
AcDbSpline
210
0.0
220
0.0
230
1.0
 70
     8
 71
     7
 72
    16
 73
     8
 74
     0
 42
0.000000001
 43
0.0
 40
0.0
 40
0.0
 40
0.0
 40
0.0
 40
0.0
 40
0.0
 40
0.0
 40
0.0
 40
1.0
 40
1.0
 40
1.0
 40
1.0
 40
1.0
 40
1.0
 40
1.0
 40
1.0
 10
173.9781326987764
 20
60.62445971297636
 30
0.0
 10
174.2858214510801
 20
60.58108781842272
 30
0.0
 10
174.5820275869988
 20
60.52576777663174
 30
0.0
 10
174.8462560935161
 20
60.46138916284539
 30
0.0
 10
175.0591391912418
 20
60.39203396937269
 30
0.0
 10
175.2059394502696
 20
60.32250350413035
 30
0.0
 10
175.2793424539319
 20
60.25740856859916
 30
0.0
 10
175.2793448386051
 20
60.20053775453552
 30
0.0
  0
LINE
  5
95
330
7B
100
AcDbEntity
  8
0
  6
Continuous
 62
     0
370
     0
100
AcDbLine
 10
159.62401
 20
137.437674
 30
0.0
 11
159.62401
 21
138.499994
 31
0.0
  0
LINE
  5
96
330
7B
100
AcDbEntity
  8
0
  6
Continuous
 62
     0
370
     0
100
AcDbLine
 10
159.623998
 20
45.465811
 30
0.0
 11
159.623998
 21
43.899775
 31
0.0
  0
SPLINE
  5
97
330
7B
100
AcDbEntity
  8
0
  6
Continuous
 62
     0
370
     0
100
AcDbSpline
210
0.0
220
0.0
230
1.0
 70
     8
 71
     3
 72
    21
 73
    17
 74
     0
 42
0.000000001
 43
0.0
 40
0.0
 40
0.0
 40
0.0
 40
0.0
 40
0.7625472699044984
 40
1.527870988522846
 40
3.068173238571163
 40
6.184644795374176
 40
7.762267914638144
 40
9.344689078241554
 40
10.92485328317408
 40
12.49648425405301
 40
15.59751546688465
 40
18.64952673578841
 40
21.66346482859164
 40
23.1602384496008
 40
23.90640253390963
 40
24.65139873213821
 40
24.65139873213821
 40
24.65139873213821
 40
24.65139873213821
 10
159.6240242308415
 20
43.89977488337823
 30
0.0
 10
159.3634130667692
 20
43.89954716385864
 30
0.0
 10
158.8414918697076
 20
43.90910905746654
 30
0.0
 10
157.7924627696993
 20
43.9676362042218
 30
0.0
 10
155.9427678795494
 20
44.18543131032793
 30
0.0
 10
153.8437606717593
 20
44.74524763201984
 30
0.0
 10
151.8752792716014
 20
45.67612900840923
 30
0.0
 10
150.4910703950453
 20
46.56439420891093
 30
0.0
 10
149.2400134529729
 20
47.62149412834071
 30
0.0
 10
147.7830934705194
 20
49.20545160930179
 30
0.0
 10
146.350776515369
 20
51.43644327903237
 30
0.0
 10
145.1674842495282
 20
54.30221619605635
 30
0.0
 10
144.5200296608913
 20
56.75450362142169
 30
0.0
 10
144.2051557301475
 20
58.47876947012739
 30
0.0
 10
144.0585738233841
 20
59.462466437313
 30
0.0
 10
143.9986269662413
 20
59.95464084737547
 30
0.0
 10
143.9686770130471
 20
60.20053531536519
 30
0.0
  0
SPLINE
  5
98
330
7B
100
AcDbEntity
  8
0
  6
Continuous
 62
     0
370
     0
100
AcDbSpline
210
0.0
220
0.0
230
1.0
 70
     8
 71
     3
 72
     8
 73
     4
 74
     0
 42
0.000000001
 43
0.0
 40
0.0
 40
0.0
 40
0.0
 40
0.0
 40
3.653222443064025
 40
3.653222443064025
 40
3.653222443064025
 40
3.653222443064025
 10
138.9405907083255
 20
116.6175810587685
 30
0.0
 10
138.9520787745491
 20
115.4194111172195
 30
0.0
 10
139.2086310400992
 20
114.2371754662553
 30
0.0
 10
139.3442446100898
 20
113.046906308213
 30
0.0
  0
LINE
  5
99
330
7B
100
AcDbEntity
  8
0
  6
Continuous
 62
     0
370
     0
100
AcDbLine
 10
139.344245
 20
113.046906
 30
0.0
 11
145.269895
 21
60.624454
 31
0.0
  0
ARC
  5
9A
330
7B
100
AcDbEntity
  8
0
  6
Continuous
 62
     0
370
     0
100
AcDbCircle
 10
159.623421
 20
116.754391
 30
0.0
 40
20.68328310523923
100
AcDbArc
 50
89.998369
 51
180.378987
  0
SPLINE
  5
9B
330
7B
100
AcDbEntity
  8
0
  6
Continuous
 62
     0
370
     0
100
AcDbSpline
210
0.0
220
0.0
230
1.0
 70
     8
 71
     3
 72
     8
 73
     4
 74
     0
 42
0.000000001
 43
0.0
 40
0.0
 40
0.0
 40
0.0
 40
0.0
 40
3.675194520389775
 40
3.675194520389775
 40
3.675194520389775
 40
3.675194520389775
 10
138.0364839565628
 20
112.7501426699102
 30
0.0
 10
137.901420218029
 20
113.9475546148768
 30
0.0
 10
137.6406427501414
 20
115.1375658469655
 30
0.0
 10
137.6309574835003
 20
116.3422978630874
 30
0.0
  0
SPLINE
  5
9C
330
7B
100
AcDbEntity
  8
0
  6
Continuous
 62
     0
370
     0
100
AcDbSpline
210
0.0
220
0.0
230
1.0
 70
     8
 71
     7
 72
    16
 73
     8
 74
     0
 42
0.000000001
 43
0.0
 40
0.0
 40
0.0
 40
0.0
 40
0.0
 40
0.0
 40
0.0
 40
0.0
 40
0.0
 40
1.0
 40
1.0
 40
1.0
 40
1.0
 40
1.0
 40
1.0
 40
1.0
 40
1.0
 10
138.9405993758521
 20
116.6175713375011
 30
0.0
 10
138.6308223532945
 20
116.6093746244993
 30
0.0
 10
138.3326111419479
 20
116.5879094940848
 30
0.0
 10
138.0666097446847
 20
116.5537227808993
 30
0.0
 10
137.8523262379707
 20
116.5086839877042
 30
0.0
 10
137.7046024157652
 20
116.4559126102509
 30
0.0
 10
137.6307998695932
 20
116.3991866985849
 30
0.0
 10
137.630914210956
 20
116.3422975182651
 30
0.0
  0
LINE
  5
9D
330
7B
100
AcDbEntity
  8
0
  6
Continuous
 62
     0
370
    30
100
AcDbLine
 10
181.100082
 20
111.762921
 30
0.0
 11
181.288645
 21
112.715933
 31
0.0
  0
LINE
  5
9E
330
7B
100
AcDbEntity
  8
0
  6
Continuous
 62
     0
370
    30
100
AcDbLine
 10
181.288645
 20
112.715933
 30
0.0
 11
181.294596
 21
112.750107
 31
0.0
  0
SPLINE
  5
9F
330
7B
100
AcDbEntity
  8
0
  6
Continuous
 62
     0
370
     0
100
AcDbSpline
210
0.0
220
0.0
230
1.0
 70
     8
 71
     3
 72
    11
 73
     7
 74
     0
 42
0.000000001
 43
0.0
 40
0.0
 40
0.0
 40
0.0
 40
0.0
 40
0.5084500309309365
 40
1.01690006218892
 40
1.525350093773952
 40
2.033085648011041
 40
2.033085648011041
 40
2.033085648011041
 40
2.033085648011041
 10
181.6171063448458
 20
116.342298025922
 30
0.0
 10
181.6171727194002
 20
116.3753222725
 30
0.0
 10
181.5519398860385
 20
116.44181361311
 30
0.0
 10
181.2698082203916
 20
116.5283520774625
 30
0.0
 10
180.8393867301569
 20
116.5915173170135
 30
0.0
 10
180.4869986594087
 20
116.6128198527752
 30
0.0
 10
180.3074211729876
 20
116.6175718142293
 30
0.0
  0
LINE
  5
A0
330
7B
100
AcDbEntity
  8
0
  6
Continuous
 62
     0
370
     0
100
AcDbLine
 10
143.968677
 20
60.200537
 30
0.0
 11
140.495004
 21
90.974951
 31
0.0
  0
LINE
  5
A1
330
7B
100
AcDbEntity
  8
0
  6
Continuous
 62
     0
370
    30
100
AcDbLine
 10
181.294596
 20
112.750107
 30
0.0
 11
181.36693
 21
113.1944
 31
0.0
  0
ARC
  5
A2
330
7B
100
AcDbEntity
  8
0
  6
Continuous
 62
     0
370
    30
100
AcDbCircle
 10
159.59568
 20
116.50862
 30
0.0
 40
22.02206617279005
100
AcDbArc
 50
351.344361
 51
359.238121
  0
LINE
  5
A3
330
7B
100
AcDbEntity
  8
0
  6
Continuous
 62
     0
370
    30
100
AcDbLine
 10
137.953425
 20
112.750106
 30
0.0
 11
137.959376
 21
112.715932
 31
0.0
  0
LINE
  5
A4
330
7B
100
AcDbEntity
  8
0
  6
Continuous
 62
     0
370
    30
100
AcDbLine
 10
137.959376
 20
112.715932
 30
0.0
 11
138.139574
 21
111.800941
 31
0.0
  0
SPLINE
  5
A5
330
7B
100
AcDbEntity
  8
0
  6
Continuous
 62
     0
370
     0
100
AcDbSpline
210
0.0
220
0.0
230
1.0
 70
     8
 71
     7
 72
    16
 73
     8
 74
     0
 42
0.000000001
 43
0.0
 40
0.0
 40
0.0
 40
0.0
 40
0.0
 40
0.0
 40
0.0
 40
0.0
 40
0.0
 40
1.0
 40
1.0
 40
1.0
 40
1.0
 40
1.0
 40
1.0
 40
1.0
 40
1.0
 10
181.2115439787959
 20
112.7501423711188
 30
0.0
 10
181.2117718525811
 20
112.8082285944813
 30
0.0
 10
181.1383873190982
 20
112.866688942082
 30
0.0
 10
180.9908928919062
 20
112.9218770266589
 30
0.0
 10
180.7768734871469
 20
112.9699701694504
 30
0.0
 10
180.5111792096244
 20
113.0078933246212
 30
0.0
 10
180.2132772343201
 20
113.0337398239405
 30
0.0
 10
179.9038083539615
 20
113.0469397841407
 30
0.0
  0
SPLINE
  5
A6
330
7B
100
AcDbEntity
  8
0
  6
Continuous
 62
     0
370
     0
100
AcDbSpline
210
0.0
220
0.0
230
1.0
 70
     8
 71
     3
 72
    14
 73
    10
 74
     0
 42
0.000000001
 43
0.0
 40
0.0
 40
0.0
 40
0.0
 40
0.0
 40
3.357659727039317
 40
6.714168333140146
 40
10.06786817318082
 40
13.41762334460883
 40
16.76451129115895
 40
20.11429153093615
 40
23.46810869271241
 40
23.46810869271241
 40
23.46810869271241
 40
23.46810869271241
 10
145.2698891469407
 20
60.62445937768796
 30
0.0
 10
145.3967454104065
 20
59.53071659932073
 30
0.0
 10
145.7510357605578
 20
57.35328002815385
 30
0.0
 10
146.6784295879165
 20
54.17061839371343
 30
0.0
 10
148.126811687988
 20
51.17410420216535
 30
0.0
 10
150.2369963266956
 20
48.5650611242264
 30
0.0
 10
153.0362356228836
 20
46.66414993118229
 30
0.0
 10
156.2632831194429
 20
45.64528998097001
 30
0.0
 10
158.5060851780791
 20
45.46581524258046
 30
0.0
 10
159.6240242198432
 20
45.46581107838264
 30
0.0
  0
LINE
  5
A7
330
7B
100
AcDbEntity
  8
0
  6
Continuous
 62
     0
370
     0
100
AcDbLine
 10
140.495004
 20
90.974951
 30
0.0
 11
138.036477
 21
112.750142
 31
0.0
  0
SPLINE
  5
A8
330
7B
100
AcDbEntity
  8
0
  6
Continuous
 62
     0
370
     0
100
AcDbSpline
210
0.0
220
0.0
230
1.0
 70
     8
 71
     7
 72
    16
 73
     8
 74
     0
 42
0.000000001
 43
0.0
 40
0.0
 40
0.0
 40
0.0
 40
0.0
 40
0.0
 40
0.0
 40
0.0
 40
0.0
 40
1.0
 40
1.0
 40
1.0
 40
1.0
 40
1.0
 40
1.0
 40
1.0
 40
1.0
 10
138.036476659922
 20
112.7501418728233
 30
0.0
 10
138.0362487847961
 20
112.8082280961806
 30
0.0
 10
138.1096333169295
 20
112.8666884454752
 30
0.0
 10
138.2571277428477
 20
112.9218765334566
 30
0.0
 10
138.4711471464968
 20
112.9699696811882
 30
0.0
 10
138.736841423144
 20
113.0078928424919
 30
0.0
 10
139.0347433978517
 20
113.0337393486876
 30
0.0
 10
139.3442122779056
 20
113.0469393160311
 30
0.0
  0
SPLINE
  5
A9
330
7B
100
AcDbEntity
  8
0
  6
Continuous
 62
     0
370
     0
100
AcDbSpline
210
0.0
220
0.0
230
1.0
 70
     8
 71
     7
 72
    36
 73
    28
 74
     0
 42
0.000000001
 43
0.0
 40
0.0
 40
0.0
 40
0.0
 40
0.0
 40
0.0
 40
0.0
 40
0.0
 40
0.0
 40
0.11
 40
0.11
 40
0.11
 40
0.11
 40
0.11
 40
0.55
 40
0.55
 40
0.55
 40
0.55
 40
0.55
 40
0.65
 40
0.65
 40
0.65
 40
0.65
 40
0.65
 40
0.77
 40
0.77
 40
0.77
 40
0.77
 40
0.77
 40
1.0
 40
1.0
 40
1.0
 40
1.0
 40
1.0
 40
1.0
 40
1.0
 40
1.0
 10
175.2793448386502
 20
60.20053567673034
 30
0.0
 10
175.2341188957939
 20
59.81017683677271
 30
0.0
 10
175.184031075466
 20
59.42036274928505
 30
0.0
 10
175.1288144698856
 20
59.03119518416405
 30
0.0
 10
175.0684008541799
 20
58.6427641002292
 30
0.0
 10
175.0024666511235
 20
58.25520099172975
 30
0.0
 10
174.6442061833442
 20
56.3224007907785
 30
0.0
 10
174.1370241080424
 20
54.41860269323516
 30
0.0
 10
173.619869654646
 20
52.92406626603555
 30
0.0
 10
172.9739856735113
 20
51.47512679450142
 30
0.0
 10
172.172688325743
 20
50.09208567986596
 30
0.0
 10
170.9754065509841
 20
48.5402226803582
 30
0.0
 10
169.5380121760628
 20
47.22658929555038
 30
0.0
 10
169.2637458511768
 20
46.99197066373389
 30
0.0
 10
168.9816100895449
 20
46.76648701151881
 30
0.0
 10
168.6919900877913
 20
46.55042390821532
 30
0.0
 10
168.0390452055979
 20
46.09674732198356
 30
0.0
 10
167.3535768498585
 20
45.69173742176761
 30
0.0
 10
166.9707845879804
 20
45.48566628278029
 30
0.0
 10
166.5798375766973
 20
45.29485351041338
 30
0.0
 10
166.1817466742748
 20
45.11916113721678
 30
0.0
 10
165.0021947581812
 20
44.65090030695865
 30
0.0
 10
163.7762212120886
 20
44.30893318880531
 30
0.0
 10
162.9564367083923
 20
44.13695698389729
 30
0.0
 10
162.1280038952472
 20
44.014877748145
 30
0.0
 10
161.2946811126747
 20
43.93646855456259
 30
0.0
 10
160.4593395552095
 20
43.89977490045497
 30
0.0
 10
159.623997997119
 20
43.89977488337794
 30
0.0
  0
LINE
  5
AA
330
7B
100
AcDbEntity
  8
0
  6
Continuous
 62
     0
370
    30
100
AcDbLine
 10
181.294596
 20
112.750107
 30
0.0
 11
181.288645
 21
112.715933
 31
0.0
  0
ARC
  5
AB
330
7B
100
AcDbEntity
  8
0
  6
Continuous
 62
     0
370
    30
100
AcDbCircle
 10
159.652341
 20
116.50862
 30
0.0
 40
22.0220661727878
100
AcDbArc
 50
180.76188
 51
188.655641
  0
LINE
  5
AC
330
7B
100
AcDbEntity
  8
0
  6
Continuous
 62
     0
370
    30
100
AcDbLine
 10
137.88109
 20
113.194399
 30
0.0
 11
137.953425
 21
112.750106
 31
0.0
  0
LINE
  5
AD
330
7B
100
AcDbEntity
  8
0
  6
Continuous
 62
     0
370
    30
100
AcDbLine
 10
137.959376
 20
112.715932
 30
0.0
 11
137.953425
 21
112.750106
 31
0.0
  0
SPLINE
  5
AE
330
7B
100
AcDbEntity
  8
0
  6
Continuous
 62
     0
370
     0
100
AcDbSpline
210
0.0
220
0.0
230
1.0
 70
     8
 71
     3
 72
    11
 73
     7
 74
     0
 42
0.000000001
 43
0.0
 40
0.0
 40
0.0
 40
0.0
 40
0.0
 40
0.5463209427519092
 40
1.092641883762446
 40
1.638962823031614
 40
2.183354679579053
 40
2.183354679579053
 40
2.183354679579053
 40
2.183354679579053
 10
143.9686770130471
 20
60.20053531536519
 30
0.0
 10
143.9686770622586
 20
60.2335662915615
 30
0.0
 10
144.0336571546065
 20
60.30749666650364
 30
0.0
 10
144.3142868119145
 20
60.42611279262243
 30
0.0
 10
144.7419527885033
 20
60.53809524055754
 30
0.0
 10
145.0918010798093
 20
60.59935518573759
 30
0.0
 10
145.269889146939
 20
60.6244593776877
 30
0.0
  0
LINE
  5
AF
330
7B
100
AcDbEntity
  8
0
  6
Continuous
 62
     0
370
    30
100
AcDbLine
 10
137.666095
 20
115.252183
 30
0.0
 11
137.672575
 21
115.143434
 31
0.0
  0
SPLINE
  5
B0
330
7B
100
AcDbEntity
  8
0
  6
Continuous
 62
     0
370
    30
100
AcDbSpline
210
0.0
220
0.0
230
1.0
 70
     8
 71
     3
 72
    20
 73
    16
 74
     0
 42
0.000000001
 43
0.0
 40
0.0
 40
0.0
 40
0.0
 40
0.0
 40
1.550144395625683
 40
3.488758548384298
 40
5.233292340415846
 40
6.588945523624929
 40
7.93911189206719
 40
9.479361351093344
 40
11.19132342512716
 40
12.70651436918888
 40
14.20261570540671
 40
16.44234060872617
 40
18.30562461181167
 40
21.67954416437885
 40
24.57455186402689
 40
24.57455186402689
 40
24.57455186402689
 40
24.57455186402689
 10
159.6240190969897
 20
43.82514473576883
 30
0.0
 10
159.1074233331815
 20
43.82523832071561
 30
0.0
 10
157.9442066376206
 20
43.8664199261305
 30
0.0
 10
156.2113801059315
 20
44.08656613416485
 30
0.0
 10
154.5777698000322
 20
44.48434120496788
 30
0.0
 10
153.1825982865389
 20
44.98805856784325
 30
0.0
 10
151.907473596806
 20
45.60074113531866
 30
0.0
 10
150.6096315431978
 20
46.41617166802342
 30
0.0
 10
149.3864856918421
 20
47.42556893180279
 30
0.0
 10
148.3100153853981
 20
48.56672206313458
 30
0.0
 10
147.2588363401698
 20
49.95575021762752
 30
0.0
 10
146.3274759353142
 20
51.56183359419421
 30
0.0
 10
145.3362437306947
 20
53.82811084352771
 30
0.0
 10
144.568796069301
 20
56.40638868485437
 30
0.0
 10
144.2012063874735
 20
58.44229441415972
 30
0.0
 10
144.0704459298443
 20
59.38704251762216
 30
0.0
  0
SPLINE
  5
B1
330
7B
100
AcDbEntity
  8
0
  6
Continuous
 62
     0
370
    30
100
AcDbSpline
210
0.0
220
0.0
230
1.0
 70
     8
 71
     3
 72
    20
 73
    16
 74
     0
 42
0.000000001
 43
0.0
 40
0.0
 40
0.0
 40
0.0
 40
0.0
 40
1.550144395625692
 40
3.48875854838431
 40
5.233292340415859
 40
6.588945523624937
 40
7.939111892067185
 40
9.479361351093331
 40
11.19132342512719
 40
12.70651436918893
 40
14.20261570540679
 40
16.44234060872625
 40
18.30562461181174
 40
21.679544164379
 40
25.3821770292427
 40
25.3821770292427
 40
25.3821770292427
 40
25.3821770292427
 10
159.6240031326934
 20
43.82514473576863
 30
0.0
 10
160.1405988964995
 20
43.82523833263977
 30
0.0
 10
161.3038155911098
 20
43.86641996490471
 30
0.0
 10
163.0366421177173
 20
44.08656621293713
 30
0.0
 10
164.670252414435
 20
44.48434132144804
 30
0.0
 10
166.0654239163013
 20
44.98805871652753
 30
0.0
 10
167.3405485918919
 20
45.60074131343609
 30
0.0
 10
168.6383906266778
 20
46.41617187609839
 30
0.0
 10
169.8615364547341
 20
47.42556916811105
 30
0.0
 10
170.9380067348374
 20
48.56672232429058
 30
0.0
 10
171.9891857480034
 20
49.95575050304747
 30
0.0
 10
172.9205461157864
 20
51.56183390111227
 30
0.0
 10
173.9117782680944
 20
53.82811117332605
 30
0.0
 10
174.7554425319386
 20
56.66244264638557
 30
0.0
 10
175.1378105167274
 20
58.96766861957691
 30
0.0
 10
175.2780979370808
 20
60.178656785237
 30
0.0
  0
LINE
  5
B2
330
7B
100
AcDbEntity
  8
0
  6
Continuous
 62
     0
370
    30
100
AcDbLine
 10
181.581925
 20
115.252184
 30
0.0
 11
181.575445
 21
115.143434
 31
0.0
  0
ENDBLK
  5
B4
330
7B
100
AcDbEntity
  8
0
100
AcDbBlockEnd
  0
BLOCK
  5
106
330
B6
100
AcDbEntity
  8
0
100
AcDbBlockBegin
  2
b
 70
     0
 10
-21.99675
 20
0.0
 30
0.0
  3
b
  1

  0
LINE
  5
B7
330
B6
100
AcDbEntity
  8
0
  6
Continuous
 62
     0
370
    30
100
AcDbLine
 10
-61.788833
 20
94.406287
 30
0.0
 11
-61.788833
 21
138.606287
 31
0.0
  0
LINE
  5
B8
330
B6
100
AcDbEntity
  8
0
  6
Continuous
 62
     0
370
    30
100
AcDbLine
 10
-53.488833
 20
49.006287
 30
0.0
 11
-53.488833
 21
227.006287
 31
0.0
  0
LINE
  5
B9
330
B6
100
AcDbEntity
  8
0
  6
Continuous
 62
     0
370
     0
100
AcDbLine
 10
-52.488833
 20
48.006287
 30
0.0
 11
-52.488833
 21
228.006287
 31
0.0
  0
LINE
  5
BA
330
B6
100
AcDbEntity
  8
0
  6
Continuous
 62
     0
370
    30
100
AcDbLine
 10
-41.488833
 20
48.006287
 30
0.0
 11
-41.488833
 21
228.006287
 31
0.0
  0
ARC
  5
BB
330
B6
100
AcDbEntity
  8
0
  6
Continuous
 62
     0
370
    30
100
AcDbCircle
 10
-75.398265
 20
153.785095
 30
0.0
 40
0.3000002024697762
100
AcDbArc
 50
180.0
 51
229.7027
  0
LINE
  5
BC
330
B6
100
AcDbEntity
  8
0
  6
Continuous
 62
     0
370
    30
100
AcDbLine
 10
-75.592292
 20
153.556285
 30
0.0
 11
-71.189685
 21
153.556285
 31
0.0
  0
ARC
  5
BD
330
B6
100
AcDbEntity
  8
0
  6
Continuous
 62
     0
370
    30
100
AcDbCircle
 10
-71.189685
 20
153.856286
 30
0.0
 40
0.3000000749317842
100
AcDbArc
 50
270.0
 51
359.500045
  0
LINE
  5
BE
330
B6
100
AcDbEntity
  8
0
  6
Continuous
 62
     0
370
    30
100
AcDbLine
 10
-70.889696
 20
153.853668
 30
0.0
 11
-70.883052
 21
154.615012
 31
0.0
  0
ARC
  5
BF
330
B6
100
AcDbEntity
  8
0
  6
Continuous
 62
     0
370
    30
100
AcDbCircle
 10
-69.883056
 20
154.606251
 30
0.0
 40
1.000034461682265
100
AcDbArc
 50
89.999997
 51
179.498043
  0
LINE
  5
C0
330
B6
100
AcDbEntity
  8
0
  6
Continuous
 62
     0
370
    30
100
AcDbLine
 10
-69.883056
 20
155.606286
 30
0.0
 11
-56.98883
 21
155.606286
 31
0.0
  0
LINE
  5
C1
330
B6
100
AcDbEntity
  8
0
  6
Continuous
 62
     0
370
    30
100
AcDbLine
 10
-56.98883
 20
154.506287
 30
0.0
 11
-55.98883
 21
153.506287
 31
0.0
  0
LINE
  5
C2
330
B6
100
AcDbEntity
  8
0
  6
Continuous
 62
     0
370
    30
100
AcDbLine
 10
-75.592292
 20
153.556285
 30
0.0
 11
-75.592292
 21
175.456287
 31
0.0
  0
LINE
  5
C3
330
B6
100
AcDbEntity
  8
0
  6
Continuous
 62
     0
370
     0
100
AcDbLine
 10
-71.189685
 20
153.556285
 30
0.0
 11
-71.189685
 21
175.456287
 31
0.0
  0
LINE
  5
C4
330
B6
100
AcDbEntity
  8
0
  6
Continuous
 62
     0
370
     0
100
AcDbLine
 10
-70.883052
 20
154.615012
 30
0.0
 11
-70.883052
 21
174.39756
 31
0.0
  0
LINE
  5
C5
330
B6
100
AcDbEntity
  8
0
  6
Continuous
 62
     0
370
     0
100
AcDbLine
 10
-69.883056
 20
155.606286
 30
0.0
 11
-69.883056
 21
173.406287
 31
0.0
  0
LINE
  5
C6
330
B6
100
AcDbEntity
  8
0
  6
Continuous
 62
     0
370
    30
100
AcDbLine
 10
-56.98883
 20
154.506287
 30
0.0
 11
-56.98883
 21
174.506286
 31
0.0
  0
LINE
  5
C7
330
B6
100
AcDbEntity
  8
0
  6
Continuous
 62
     0
370
    30
100
AcDbLine
 10
-55.98883
 20
153.506287
 30
0.0
 11
-55.98883
 21
175.506286
 31
0.0
  0
LINE
  5
C8
330
B6
100
AcDbEntity
  8
0
  6
Continuous
 62
     0
370
    30
100
AcDbLine
 10
-64.859231
 20
94.512579
 30
0.0
 11
-76.296573
 21
94.512579
 31
0.0
  0
ARC
  5
C9
330
B6
100
AcDbEntity
  8
0
  6
Continuous
 62
     0
370
    30
100
AcDbCircle
 10
-78.854586
 20
71.55975
 30
0.0
 40
23.09493049424952
100
AcDbArc
 50
83.640824
 51
91.115074
  0
LINE
  5
CA
330
B6
100
AcDbEntity
  8
0
  6
Continuous
 62
     0
370
     0
100
AcDbLine
 10
-91.990646
 20
116.342298
 30
0.0
 11
-88.190896
 21
138.499994
 31
0.0
  0
ARC
  5
CB
330
B6
100
AcDbEntity
  8
0
  6
Continuous
 62
     0
370
    30
100
AcDbCircle
 10
-74.959626
 20
116.184453
 30
0.0
 40
10.10040946158599
100
AcDbArc
 50
0.100021
 51
19.899209
  0
LINE
  5
CC
330
B6
100
AcDbEntity
  8
0
  6
Continuous
 62
     0
370
     0
100
AcDbLine
 10
-89.539098
 20
112.750122
 30
0.0
 11
-91.208655
 21
112.750187
 31
0.0
  0
SPLINE
  5
CD
330
B6
100
AcDbEntity
  8
0
  6
Continuous
 62
     0
370
     0
100
AcDbSpline
210
0.0
220
0.0
230
1.0
 70
     8
 71
     3
 72
    18
 73
    14
 74
     0
 42
0.000000001
 43
0.0
 40
0.0
 40
0.0
 40
0.0
 40
0.0
 40
1.612020921592817
 40
3.224116834552431
 40
6.44818337938824
 40
9.672482443629368
 40
12.89652384406626
 40
16.12063455891719
 40
17.73307287272355
 40
19.34484000979754
 40
20.95705083966383
 40
21.76300101780321
 40
22.56861979264833
 40
22.56861979264833
 40
22.56861979264833
 40
22.56861979264833
 10
-91.20865455046692
 20
112.7501869407834
 30
0.0
 10
-91.29870814448304
 20
112.2240743589116
 30
0.0
 10
-91.49002137718549
 20
111.1825817048245
 30
0.0
 10
-91.84787213746881
 20
109.0888282450598
 30
0.0
 10
-92.30438302180437
 20
106.4795887212892
 30
0.0
 10
-92.85137586031897
 20
103.348489532979
 30
0.0
 10
-93.39644229322835
 20
100.2160834109242
 30
0.0
 10
-93.85645138614746
 20
97.60391601248573
 30
0.0
 10
-94.2234257104376
 20
95.50985124626696
 30
0.0
 10
-94.50264168878721
 20
93.93792034572647
 30
0.0
 10
-94.73467926651642
 20
92.62527069621791
 30
0.0
 10
-94.92115042603973
 20
91.57795161509563
 30
0.0
 10
-95.0174949529453
 20
91.04761533995016
 30
0.0
 10
-95.06259165061124
 20
90.78821756196218
 30
0.0
  0
SPLINE
  5
CE
330
B6
100
AcDbEntity
  8
0
  6
Continuous
 62
     0
370
     0
100
AcDbSpline
210
0.0
220
0.0
230
1.0
 70
     8
 71
     3
 72
    17
 73
    13
 74
     0
 42
0.000000001
 43
0.0
 40
0.0
 40
0.0
 40
0.0
 40
0.0
 40
0.796876025657048
 40
1.594375716149764
 40
3.189591663228656
 40
4.784596642401478
 40
6.379767638693502
 40
9.568585047499543
 40
12.75731078586577
 40
15.94516772308056
 40
19.13264561178925
 40
22.31836371266837
 40
22.31836371266837
 40
22.31836371266837
 40
22.31836371266837
 10
-95.06259161757907
 20
90.78821767540097
 30
0.0
 10
-95.10128771504378
 20
90.55193353945634
 30
0.0
 10
-95.16588344580623
 20
90.13297756902332
 30
0.0
 10
-95.30448324657755
 20
89.25568984432113
 30
0.0
 10
-95.46044670494052
 20
88.2210919804243
 30
0.0
 10
-95.63793017270314
 20
87.0246293803709
 30
0.0
 10
-95.85391817105233
 20
85.518590905296
 30
0.0
 10
-96.0923882118434
 20
83.79498465212048
 30
0.0
 10
-96.3275802052367
 20
82.02360325934711
 30
0.0
 10
-96.51034364063798
 20
80.60441142501004
 30
0.0
 10
-96.6330197632808
 20
79.62803325394196
 30
0.0
 10
-96.67588175341143
 20
79.33008692309224
 30
0.0
 10
-96.68243345876363
 20
79.29618447613592
 30
0.0
  0
SPLINE
  5
CF
330
B6
100
AcDbEntity
  8
0
  6
Continuous
 62
     0
370
    30
100
AcDbSpline
210
0.0
220
0.0
230
1.0
 70
     8
 71
     3
 72
    14
 73
    10
 74
     0
 42
0.000000001
 43
0.0
 40
0.0
 40
0.0
 40
0.0
 40
0.0
 40
3.341454141587608
 40
6.683510156799508
 40
10.02349257324499
 40
13.36048803168824
 40
16.69668072166062
 40
20.03403197351035
 40
23.37375397537685
 40
23.37375397537685
 40
23.37375397537685
 40
23.37375397537685
 10
-96.6824334271912
 20
79.29618463805637
 30
0.0
 10
-96.46876896566027
 20
80.38931689910162
 30
0.0
 10
-95.86862957417748
 20
82.54318237895158
 30
0.0
 10
-94.59403294342178
 20
85.63980442116866
 30
0.0
 10
-92.8836661952721
 20
88.52706328283476
 30
0.0
 10
-90.62793007822938
 20
91.02583983192154
 30
0.0
 10
-87.82900071535346
 20
92.90742358580141
 30
0.0
 10
-84.66310171609985
 20
94.0526258026587
 30
0.0
 10
-82.44691146705145
 20
94.36855876486052
 30
0.0
 10
-81.33638177823832
 20
94.44620278209185
 30
0.0
  0
ARC
  5
D0
330
B6
100
AcDbEntity
  8
0
  6
Continuous
 62
     0
370
    30
100
AcDbCircle
 10
-79.14701
 20
82.870077
 30
0.0
 40
11.78134263435776
100
AcDbArc
 50
90.77029
 51
100.70975
  0
LINE
  5
D1
330
B6
100
AcDbEntity
  8
0
  6
Continuous
 62
     0
370
     0
100
AcDbLine
 10
-92.653234
 20
112.750143
 30
0.0
 11
-91.990646
 21
116.342298
 31
0.0
  0
SPLINE
  5
D2
330
B6
100
AcDbEntity
  8
0
  6
Continuous
 62
     0
370
     0
100
AcDbSpline
210
0.0
220
0.0
230
1.0
 70
     8
 71
     7
 72
    31
 73
    23
 74
     0
 42
0.000000001
 43
0.0
 40
-0.0000000000000264
 40
-0.0000000000000264
 40
-0.0000000000000264
 40
-0.0000000000000264
 40
-0.0000000000000264
 40
-0.0000000000000264
 40
-0.0000000000000264
 40
-0.0000000000000264
 40
0.3899999999999839
 40
0.3899999999999839
 40
0.3899999999999839
 40
0.3899999999999839
 40
0.3899999999999839
 40
0.6436379999999904
 40
0.6436379999999904
 40
0.6436379999999904
 40
0.6436379999999904
 40
0.6436379999999904
 40
0.7742999999999939
 40
0.7742999999999939
 40
0.7742999999999939
 40
0.7742999999999939
 40
0.7742999999999939
 40
1.0
 40
1.0
 40
1.0
 40
1.0
 40
1.0
 40
1.0
 40
1.0
 40
1.0
 10
-96.66976531510818
 20
90.97495163235334
 30
0.0
 10
-96.54964002487873
 20
90.95279714368371
 30
0.0
 10
-96.42930563193954
 20
90.93178969707635
 30
0.0
 10
-96.3103819650837
 20
90.91117937241604
 30
0.0
 10
-96.18978392866143
 20
90.88980247102307
 30
0.0
 10
-96.07220241638947
 20
90.86819057099231
 30
0.0
 10
-95.87968324450367
 20
90.83107328260152
 30
0.0
 10
-95.68885092454252
 20
90.7915666495192
 30
0.0
 10
-95.61360275844913
 20
90.77551539639835
 30
0.0
 10
-95.53974417662516
 20
90.75970791523255
 30
0.0
 10
-95.46638556112089
 20
90.74355759666483
 30
0.0
 10
-95.35684375033247
 20
90.72028914118496
 30
0.0
 10
-95.26076889626029
 20
90.7047439667171
 30
0.0
 10
-95.23033462630997
 20
90.70070992620052
 30
0.0
 10
-95.20267049723384
 20
90.69818505463478
 30
0.0
 10
-95.1793762379807
 20
90.69786396268421
 30
0.0
 10
-95.12611121705686
 20
90.70174032428515
 30
0.0
 10
-95.09738533323207
 20
90.71675667460995
 30
0.0
 10
-95.08643859822382
 20
90.72930488340876
 30
0.0
 10
-95.07799089238688
 20
90.74295539221893
 30
0.0
 10
-95.07221213536559
 20
90.75773828858883
 30
0.0
 10
-95.06733917614133
 20
90.77296685331453
 30
0.0
 10
-95.06240840056239
 20
90.78818487578789
 30
0.0
  0
LINE
  5
D3
330
B6
100
AcDbEntity
  8
0
  6
Continuous
 62
     0
370
     0
100
AcDbLine
 10
-92.653235
 20
112.750142
 30
0.0
 11
-96.669765
 21
90.974952
 31
0.0
  0
LINE
  5
D4
330
B6
100
AcDbEntity
  8
0
  6
Continuous
 62
     0
370
     0
100
AcDbLine
 10
-96.669765
 20
90.974952
 30
0.0
 11
-102.346232
 21
60.200536
 31
0.0
  0
SPLINE
  5
D5
330
B6
100
AcDbEntity
  8
0
  6
Continuous
 62
     0
370
     0
100
AcDbSpline
210
0.0
220
0.0
230
1.0
 70
     8
 71
     7
 72
    26
 73
    18
 74
     0
 42
0.000000001
 43
0.0
 40
0.0
 40
0.0
 40
0.0
 40
0.0
 40
0.0
 40
0.0
 40
0.0
 40
0.0
 40
0.4874999999999879
 40
0.4874999999999879
 40
0.4874999999999879
 40
0.4874999999999879
 40
0.4874999999999879
 40
0.7499999999999812
 40
0.7499999999999812
 40
0.7499999999999812
 40
0.7499999999999812
 40
0.7499999999999812
 40
0.9999999999999749
 40
0.9999999999999749
 40
0.9999999999999749
 40
0.9999999999999749
 40
0.9999999999999749
 40
0.9999999999999749
 40
0.9999999999999749
 40
0.9999999999999749
 10
-102.3462316370499
 20
60.20053567673031
 30
0.0
 10
-102.1861129476624
 20
60.17100311811201
 30
0.0
 10
-102.0260122977184
 20
60.14137274481946
 30
0.0
 10
-101.8661237136071
 20
60.11174361650407
 30
0.0
 10
-101.7066813460342
 20
60.08225584346749
 30
0.0
 10
-101.5484331623234
 20
60.0532003016894
 30
0.0
 10
-101.3078945557618
 20
60.00975575687772
 30
0.0
 10
-101.0813972872834
 20
59.97150347967214
 30
0.0
 10
-101.0044761204372
 20
59.95896748884188
 30
0.0
 10
-100.9308284122994
 20
59.94757757422347
 30
0.0
 10
-100.8617744090657
 20
59.93775624342807
 30
0.0
 10
-100.7403116228284
 20
59.92283219396006
 30
0.0
 10
-100.650807545366
 20
59.91756806656188
 30
0.0
 10
-100.6160799978916
 20
59.91760805957519
 30
0.0
 10
-100.5912204138763
 20
59.92040308041314
 30
0.0
 10
-100.5752040089551
 20
59.925583492328
 30
0.0
 10
-100.5669088563998
 20
59.93282325040714
 30
0.0
 10
-100.5652462153021
 20
59.94181743003139
 30
0.0
  0
LINE
  5
D6
330
B6
100
AcDbEntity
  8
0
  6
Continuous
 62
     0
370
     0
100
AcDbLine
 10
-100.565246
 20
59.941817
 30
0.0
 11
-95.062408
 21
90.788185
 31
0.0
  0
SPLINE
  5
D7
330
B6
100
AcDbEntity
  8
0
  6
Continuous
 62
     0
370
    30
100
AcDbSpline
210
0.0
220
0.0
230
1.0
 70
     8
 71
     3
 72
     8
 73
     4
 74
     0
 42
0.000000001
 43
0.0
 40
0.0
 40
0.0
 40
0.0
 40
0.0
 40
0.7943518780146329
 40
0.7943518780146329
 40
0.7943518780146329
 40
0.7943518780146329
 10
-105.3527695433484
 20
43.89977488337794
 30
0.0
 10
-104.4397463332827
 20
43.731375385006
 30
0.0
 10
-103.8406992634359
 20
43.8471931451519
 30
0.0
 10
-103.5520743357869
 20
44.25507277613116
 30
0.0
  0
LINE
  5
D8
330
B6
100
AcDbEntity
  8
0
  6
Continuous
 62
     0
370
     0
100
AcDbLine
 10
-93.499874
 20
116.617582
 30
0.0
 11
-94.15819
 21
113.046907
 31
0.0
  0
LINE
  5
D9
330
B6
100
AcDbEntity
  8
0
  6
Continuous
 62
     0
370
     0
100
AcDbLine
 10
-94.15819
 20
113.046907
 30
0.0
 11
-103.827257
 21
60.624454
 31
0.0
  0
LINE
  5
DA
330
B6
100
AcDbEntity
  8
0
  6
Continuous
 62
     0
370
     0
100
AcDbLine
 10
-103.827257
 20
60.624454
 30
0.0
 11
-106.623176
 21
45.465811
 31
0.0
  0
SPLINE
  5
DB
330
B6
100
AcDbEntity
  8
0
  6
Continuous
 62
     0
370
    30
100
AcDbSpline
210
0.0
220
0.0
230
1.0
 70
     8
 71
     3
 72
    44
 73
    40
 74
     0
 42
0.000000001
 43
0.0
 40
0.0000895826433184
 40
0.0000895826433184
 40
0.0000895826433184
 40
0.0000895826433184
 40
1.455705552506579
 40
2.911589491455752
 40
5.824081540223627
 40
8.738562618644004
 40
11.65580985319745
 40
14.57578990662235
 40
16.03659608486232
 40
17.49778930288207
 40
20.42097080381651
 40
23.34485787363343
 40
29.19406413399674
 40
35.04490031177655
 40
40.89750583144499
 40
46.75217532138652
 40
52.60924050521431
 40
58.46889873474117
 40
61.39961580462718
 40
64.3307164339991
 40
67.26188709626257
 40
67.99463745970205
 40
68.72736871185101
 40
69.46006464945697
 40
70.192677557325
 40
70.92522637029062
 40
71.65766554636134
 40
72.38986921751011
 40
73.12154096573981
 40
73.85284092927583
 40
74.58380294677747
 40
76.04479523316759
 40
78.96357029080804
 40
81.87875183536413
 40
84.79115651375291
 40
87.70151606648814
 40
90.61036732559818
 40
92.064314958274
 40
93.51784755774796
 40
93.51784755774796
 40
93.51784755774796
 40
93.51784755774796
 10
-106.6231762768712
 20
45.46581107547773
 30
0.0
 10
-106.6101808784597
 20
45.95079848464461
 30
0.0
 10
-106.584187256763
 20
46.92086257851116
 30
0.0
 10
-106.5040709537782
 20
48.860841559926
 30
0.0
 10
-106.3406747928868
 20
51.28421191965789
 30
0.0
 10
-106.0335197551888
 20
54.18582504694004
 30
0.0
 10
-105.6359284639709
 20
57.08095748379287
 30
0.0
 10
-105.2533283276175
 20
59.48902656531196
 30
0.0
 10
-104.9300032855449
 20
61.4142402380365
 30
0.0
 10
-104.6043597112402
 20
63.3405208806835
 30
0.0
 10
-104.206944386427
 20
65.75144969577802
 30
0.0
 10
-103.5723533085281
 20
69.61043377485649
 30
0.0
 10
-102.7929181886386
 20
74.43702901828502
 30
0.0
 10
-101.8582653544854
 20
80.22827683375633
 30
0.0
 10
-100.9143977316344
 20
86.0185100686765
 30
0.0
 10
-99.94797042424352
 20
91.80644022151218
 30
0.0
 10
-98.94574501207126
 20
97.59066037869754
 30
0.0
 10
-98.07063712832269
 20
102.4057453697351
 30
0.0
 10
-97.33969743258717
 20
106.2531232347898
 30
0.0
 10
-96.7748799120834
 20
109.1357083090331
 30
0.0
 10
-96.3376970646907
 20
111.2943245832627
 30
0.0
 10
-96.04000424274909
 20
112.7316108394102
 30
0.0
 10
-95.88994963549476
 20
113.4498224390161
 30
0.0
 10
-95.73865478479411
 20
114.1675820789954
 30
0.0
 10
-95.58607036885292
 20
114.8849306475927
 30
0.0
 10
-95.43219212990925
 20
115.6017477583275
 30
0.0
 10
-95.27701488635284
 20
116.318035878304
 30
0.0
 10
-95.12055319569026
 20
117.0336532548335
 30
0.0
 10
-94.96269295908587
 20
117.7490087306266
 30
0.0
 10
-94.80350934219291
 20
118.4636657174841
 30
0.0
 10
-94.5894438924472
 20
119.4155328020273
 30
0.0
 10
-94.21020598797963
 20
121.0786222063847
 30
0.0
 10
-93.65128097094407
 20
123.4480975719601
 30
0.0
 10
-92.9638681611284
 20
126.2837193689067
 30
0.0
 10
-92.22445573017421
 20
129.101842868194
 30
0.0
 10
-91.4267406436486
 20
131.9002280317407
 30
0.0
 10
-90.71372727675043
 20
134.2156128737071
 30
0.0
 10
-90.1196800831035
 20
136.0591120218371
 30
0.0
 10
-89.81586603943515
 20
136.9781972620915
 30
0.0
 10
-89.66398059630978
 20
137.4376742463903
 30
0.0
  0
LINE
  5
DC
330
B6
100
AcDbEntity
  8
0
  6
Continuous
 62
     0
370
     0
100
AcDbLine
 10
-89.663981
 20
137.437674
 30
0.0
 11
-93.499874
 21
116.617582
 31
0.0
  0
SPLINE
  5
DD
330
B6
100
AcDbEntity
  8
0
  6
Continuous
 62
     0
370
     0
100
AcDbSpline
210
0.0
220
0.0
230
1.0
 70
     8
 71
     7
 72
    16
 73
     8
 74
     0
 42
0.000000001
 43
0.0
 40
0.0
 40
0.0
 40
0.0
 40
0.0
 40
0.0
 40
0.0
 40
0.0
 40
0.0
 40
1.0
 40
1.0
 40
1.0
 40
1.0
 40
1.0
 40
1.0
 40
1.0
 40
1.0
 10
-103.8272910577762
 20
60.62445971297636
 30
0.0
 10
-103.785413925593
 20
60.58108781842272
 30
0.0
 10
-103.6715438697747
 20
60.52576777663174
 30
0.0
 10
-103.4884735193029
 20
60.46138916284539
 30
0.0
 10
-103.2461685871965
 20
60.39203396937269
 30
0.0
 10
-102.9614033124208
 20
60.32250350413035
 30
0.0
 10
-102.6545818317632
 20
60.25740856859916
 30
0.0
 10
-102.3462429024016
 20
60.20053775453552
 30
0.0
  0
ARC
  5
DE
330
B6
100
AcDbEntity
  8
0
  6
Continuous
 62
     0
370
    30
100
AcDbCircle
 10
-88.190896
 20
136.947494
 30
0.0
 40
1.552499994455959
100
AcDbArc
 50
90.0
 51
161.594746
  0
SPLINE
  5
DF
330
B6
100
AcDbEntity
  8
0
  6
Continuous
 62
     0
370
    30
100
AcDbSpline
210
0.0
220
0.0
230
1.0
 70
     8
 71
     3
 72
     8
 73
     4
 74
     0
 42
0.000000001
 43
0.0
 40
0.2452070702832738
 40
0.2452070702832738
 40
0.2452070702832738
 40
0.2452070702832738
 40
34.96414840839081
 40
34.96414840839081
 40
34.96414840839081
 40
34.96414840839081
 10
-96.7296971677085
 20
79.05557457486631
 30
0.0
 10
-98.93515592490398
 20
67.69459871587888
 30
0.0
 10
-100.7519909630355
 20
56.25208748612902
 30
0.0
 10
-103.3136906652613
 20
44.96644039864272
 30
0.0
  0
SPLINE
  5
E0
330
B6
100
AcDbEntity
  8
0
  6
Continuous
 62
     0
370
     0
100
AcDbSpline
210
0.0
220
0.0
230
1.0
 70
     8
 71
     3
 72
    14
 73
    10
 74
     0
 42
0.000000001
 43
0.0
 40
0.0
 40
0.0
 40
0.0
 40
0.0
 40
4.302726272694155
 40
8.60797003312282
 40
12.91498592349899
 40
17.2229963951179
 40
21.53124926575671
 40
25.83887154380674
 40
30.14462411466932
 40
30.14462411466932
 40
30.14462411466932
 40
30.14462411466932
 10
-79.30402478968199
 20
94.65030663138462
 30
0.0
 10
-79.4369534244679
 20
94.80987403487681
 30
0.0
 10
-79.93380969764235
 20
95.40813932764024
 30
0.0
 10
-81.1949636998886
 20
97.0316721838034
 30
0.0
 10
-82.79852023130707
 20
99.2585271246021
 30
0.0
 10
-84.58623419525975
 20
101.9907011347533
 30
0.0
 10
-86.4208108136138
 20
105.1625931197737
 30
0.0
 10
-88.15494974468515
 20
108.7307579350306
 30
0.0
 10
-89.1302452366167
 20
111.3578373838104
 30
0.0
 10
-89.52907504805444
 20
112.7159326959603
 30
0.0
  0
LINE
  5
E1
330
B6
100
AcDbEntity
  8
0
  6
Continuous
 62
     0
370
     0
100
AcDbLine
 10
-89.529075
 20
112.715933
 30
0.0
 11
-89.539227
 21
112.750107
 31
0.0
  0
LINE
  5
E2
330
B6
100
AcDbEntity
  8
0
  6
Continuous
 62
     0
370
     0
100
AcDbLine
 10
-91.990646
 20
116.342298
 30
0.0
 11
-93.49982
 21
116.617572
 31
0.0
  0
LINE
  5
E3
330
B6
100
AcDbEntity
  8
0
  6
Continuous
 62
     0
370
     0
100
AcDbLine
 10
-89.539227
 20
112.750107
 30
0.0
 11
-89.67153
 21
113.1944
 31
0.0
  0
LINE
  5
E4
330
B6
100
AcDbEntity
  8
0
  6
Continuous
 62
     0
370
     0
100
AcDbLine
 10
-89.67153
 20
113.1944
 30
0.0
 11
-90.59466
 21
116.215795
 31
0.0
  0
LINE
  5
E5
330
B6
100
AcDbEntity
  8
0
  6
Continuous
 62
     0
370
     0
100
AcDbLine
 10
-90.59466
 20
116.215795
 30
0.0
 11
-91.990646
 21
116.342298
 31
0.0
  0
LINE
  5
E6
330
B6
100
AcDbEntity
  8
0
  6
Continuous
 62
     0
370
     0
100
AcDbLine
 10
-92.653235
 20
112.750142
 30
0.0
 11
-94.15839
 21
113.04694
 31
0.0
  0
LINE
  5
E7
330
B6
100
AcDbEntity
  8
0
  6
Continuous
 62
     0
370
     0
100
AcDbLine
 10
-91.208659
 20
112.750158
 30
0.0
 11
-92.653234
 21
112.750143
 31
0.0
  0
LINE
  5
E8
330
B6
100
AcDbEntity
  8
0
  6
Continuous
 62
     0
370
     0
100
AcDbLine
 10
-102.346232
 20
60.200536
 30
0.0
 11
-105.35277
 21
43.899775
 31
0.0
  0
LINE
  5
E9
330
B6
100
AcDbEntity
  8
0
  6
Continuous
 62
     0
370
    30
100
AcDbLine
 10
-64.859232
 20
116.202085
 30
0.0
 11
-64.859231
 21
94.512579
 31
0.0
  0
SPLINE
  5
EA
330
B6
100
AcDbEntity
  8
0
  6
Continuous
 62
     0
370
    30
100
AcDbSpline
210
0.0
220
0.0
230
1.0
 70
     8
 71
     3
 72
    11
 73
     7
 74
     0
 42
0.000000001
 43
0.0
 40
32.11140425613716
 40
32.11140425613716
 40
32.11140425613716
 40
32.11140425613716
 40
36.69302645961227
 40
45.86094439878419
 40
55.03829037776859
 40
64.22280851227431
 40
64.22280851227431
 40
64.22280851227431
 40
64.22280851227431
 10
-72.33202694605026
 20
138.4966877471633
 30
0.0
 10
-72.33202736679131
 20
138.4966877324362
 30
0.0
 10
-72.1575540905345
 20
138.0173278238127
 30
0.0
 10
-70.9935213317467
 20
134.8192507949193
 30
0.0
 10
-68.5442505081553
 20
128.0897758946087
 30
0.0
 10
-66.50000632831097
 20
122.4735104053375
 30
0.0
 10
-65.4622833468004
 20
119.6222948355815
 30
0.0
  0
LINE
  5
EB
330
B6
100
AcDbEntity
  8
0
  6
Continuous
 62
     0
370
    30
100
AcDbLine
 10
-103.390264
 20
44.630719
 30
0.0
 11
-100.565246
 21
59.941817
 31
0.0
  0
LINE
  5
EC
330
B6
100
AcDbEntity
  8
0
  6
Continuous
 62
     0
370
    30
100
AcDbLine
 10
-55.98883
 20
153.506287
 30
0.0
 11
-53.488833
 21
153.506287
 31
0.0
  0
LINE
  5
ED
330
B6
100
AcDbEntity
  8
0
  6
Continuous
 62
     0
370
    30
100
AcDbLine
 10
-61.788833
 20
138.606287
 30
0.0
 11
-53.488833
 21
138.606287
 31
0.0
  0
ARC
  5
EE
330
B6
100
AcDbEntity
  8
0
  6
Continuous
 62
     0
370
    30
100
AcDbCircle
 10
-60.418927
 20
116.40211
 30
0.0
 40
20.49999999987011
100
AcDbArc
 50
93.831629
 51
120.221507
  0
LINE
  5
EF
330
B6
100
AcDbEntity
  8
0
  6
Continuous
 62
     0
370
    30
100
AcDbLine
 10
-61.788833
 20
94.406287
 30
0.0
 11
-53.488833
 21
94.406287
 31
0.0
  0
ARC
  5
F0
330
B6
100
AcDbEntity
  8
0
  6
Continuous
 62
     0
370
    30
100
AcDbCircle
 10
-60.418927
 20
116.610464
 30
0.0
 40
20.49999999902545
100
AcDbArc
 50
257.490575
 51
266.168371
  0
LINE
  5
F1
330
B6
100
AcDbEntity
  8
0
  6
Continuous
 62
     0
370
    30
100
AcDbLine
 10
-55.98883
 20
175.506286
 30
0.0
 11
-53.488833
 21
175.506286
 31
0.0
  0
LINE
  5
F2
330
B6
100
AcDbEntity
  8
0
  6
Continuous
 62
     0
370
    30
100
AcDbLine
 10
-56.98883
 20
174.506286
 30
0.0
 11
-55.98883
 21
175.506286
 31
0.0
  0
LINE
  5
F3
330
B6
100
AcDbEntity
  8
0
  6
Continuous
 62
     0
370
    30
100
AcDbLine
 10
-69.883056
 20
173.406287
 30
0.0
 11
-56.98883
 21
173.406287
 31
0.0
  0
ARC
  5
F4
330
B6
100
AcDbEntity
  8
0
  6
Continuous
 62
     0
370
    30
100
AcDbCircle
 10
-69.883056
 20
174.406321
 30
0.0
 40
1.000034461682265
100
AcDbArc
 50
180.501957
 51
270.000003
  0
LINE
  5
F5
330
B6
100
AcDbEntity
  8
0
  6
Continuous
 62
     0
370
    30
100
AcDbLine
 10
-70.889696
 20
175.158904
 30
0.0
 11
-70.883052
 21
174.39756
 31
0.0
  0
LINE
  5
F6
330
B6
100
AcDbEntity
  8
0
  6
Continuous
 62
     0
370
    30
100
AcDbLine
 10
-70.889731
 20
153.851043
 30
0.0
 11
-70.889731
 21
175.16153
 31
0.0
  0
ARC
  5
F7
330
B6
100
AcDbEntity
  8
0
  6
Continuous
 62
     0
370
    30
100
AcDbCircle
 10
-71.189685
 20
175.156287
 30
0.0
 40
0.3000000749317842
100
AcDbArc
 50
0.499955
 51
90.0
  0
LINE
  5
F8
330
B6
100
AcDbEntity
  8
0
  6
Continuous
 62
     0
370
    30
100
AcDbLine
 10
-75.592292
 20
175.456287
 30
0.0
 11
-71.189685
 21
175.456287
 31
0.0
  0
LINE
  5
F9
330
B6
100
AcDbEntity
  8
0
  6
Continuous
 62
     0
370
    30
100
AcDbLine
 10
-75.698266
 20
153.785095
 30
0.0
 11
-75.698266
 21
175.227477
 31
0.0
  0
ARC
  5
FA
330
B6
100
AcDbEntity
  8
0
  6
Continuous
 62
     0
370
    30
100
AcDbCircle
 10
-75.398265
 20
175.227477
 30
0.0
 40
0.3000002024697762
100
AcDbArc
 50
130.2973
 51
180.0
  0
LINE
  5
FB
330
B6
100
AcDbEntity
  8
0
  6
Continuous
 62
     0
370
    30
100
AcDbLine
 10
-52.488833
 20
48.006287
 30
0.0
 11
-41.488833
 21
48.006287
 31
0.0
  0
LINE
  5
FC
330
B6
100
AcDbEntity
  8
0
  6
Continuous
 62
     0
370
    30
100
AcDbLine
 10
-52.488833
 20
228.006287
 30
0.0
 11
-41.488833
 21
228.006287
 31
0.0
  0
ARC
  5
FD
330
B6
100
AcDbEntity
  8
0
  6
Continuous
 62
     0
370
    30
100
AcDbCircle
 10
-52.488821
 20
49.006299
 30
0.0
 40
1.000011948645219
100
AcDbArc
 50
180.000685
 51
269.999315
  0
ARC
  5
FE
330
B6
100
AcDbEntity
  8
0
  6
Continuous
 62
     0
370
    30
100
AcDbCircle
 10
-52.488821
 20
227.006275
 30
0.0
 40
1.000011948624755
100
AcDbArc
 50
90.000685
 51
179.999315
  0
LINE
  5
FF
330
B6
100
AcDbEntity
  8
0
  6
Continuous
 62
     0
370
    30
100
AcDbLine
 10
-96.680176
 20
79.309098
 30
0.0
 11
-96.72923
 21
79.055484
 31
0.0
  0
LINE
  5
100
330
B6
100
AcDbEntity
  8
0
  6
Continuous
 62
     0
370
    30
100
AcDbLine
 10
-103.313624
 20
44.966425
 30
0.0
 11
-103.089065
 21
45.962224
 31
0.0
  0
LINE
  5
101
330
B6
100
AcDbEntity
  8
0
  6
Continuous
 62
     0
370
    30
100
AcDbLine
 10
-103.313593
 20
44.966564
 30
0.0
 11
-103.089072
 21
45.962195
 31
0.0
  0
ARC
  5
102
330
B6
100
AcDbEntity
  8
0
  6
Continuous
 62
     0
370
    30
100
AcDbCircle
 10
-105.071981
 20
45.425862
 30
0.0
 40
1.551711482536299
100
AcDbArc
 50
178.524457
 51
259.574591
  0
ARC
  5
103
330
B6
100
AcDbEntity
  8
0
  6
Continuous
 62
     0
370
    30
100
AcDbCircle
 10
-104.429752
 20
44.855921
 30
0.0
 40
1.063643125754691
100
AcDbArc
 50
325.604895
 51
347.823197
  0
SPLINE
  5
104
330
B6
100
AcDbEntity
  8
0
  6
Continuous
 62
     0
370
    30
100
AcDbSpline
210
0.0
220
0.0
230
1.0
 70
     8
 71
     3
 72
    17
 73
    13
 74
     0
 42
0.000000001
 43
0.0
 40
0.0
 40
0.0
 40
0.0
 40
0.0
 40
0.8483286207429801
 40
2.133548256498516
 40
3.403969631539715
 40
5.817352910236466
 40
9.090003595257551
 40
12.53243882962966
 40
16.15299836797754
 40
17.07317138102837
 40
18.16120298513397
 40
19.24709656565008
 40
19.24709656565008
 40
19.24709656565008
 40
19.24709656565008
 10
-95.52666884376595
 20
83.29521983802951
 30
0.0
 10
-95.42901386266954
 20
83.55346923805143
 30
0.0
 10
-95.16603303777401
 20
84.21772400309474
 30
0.0
 10
-94.7060624696328
 20
85.25217225597187
 30
0.0
 10
-93.95168160313006
 20
86.7282840561972
 30
0.0
 10
-92.71785845298223
 20
88.69645943130634
 30
0.0
 10
-90.67933070928802
 20
90.98052405404934
 30
0.0
 10
-87.80748365310455
 20
92.93692811396075
 30
0.0
 10
-85.2786574633028
 20
93.82485261026585
 30
0.0
 10
-83.44021222500078
 20
94.20501365745737
 30
0.0
 10
-82.41888972702964
 20
94.34460994231365
 30
0.0
 10
-81.69829517677977
 20
94.44052378055927
 30
0.0
 10
-81.33637587314183
 20
94.44620250501205
 30
0.0
  0
LINE
  5
105
330
B6
100
AcDbEntity
  8
0
  6
Continuous
 62
     0
370
    30
100
AcDbLine
 10
-88.190896
 20
138.499994
 30
0.0
 11
-72.333228
 21
138.499994
 31
0.0
  0
ENDBLK
  5
107
330
B6
100
AcDbEntity
  8
0
100
AcDbBlockEnd
  0
BLOCK
  5
15C
330
109
100
AcDbEntity
  8
0
100
AcDbBlockBegin
  2
c
 70
     0
 10
278.90094
 20
0.0
 30
0.0
  3
c
  1

  0
LINE
  5
10A
330
109
100
AcDbEntity
  8
0
  6
Continuous
 62
     0
370
    30
100
AcDbLine
 10
386.450471
 20
138.606287
 30
0.0
 11
386.450471
 21
94.406287
 31
0.0
  0
LINE
  5
10B
330
109
100
AcDbEntity
  8
0
  6
Continuous
 62
     0
370
    30
100
AcDbLine
 10
378.150471
 20
227.006287
 30
0.0
 11
378.150471
 21
138.006287
 31
0.0
  0
LINE
  5
10C
330
109
100
AcDbEntity
  8
0
  6
Continuous
 62
     0
370
    30
100
AcDbLine
 10
378.150471
 20
138.006287
 30
0.0
 11
378.150471
 21
49.006287
 31
0.0
  0
LINE
  5
10D
330
109
100
AcDbEntity
  8
0
  6
Continuous
 62
     0
370
     0
100
AcDbLine
 10
377.150471
 20
228.006287
 30
0.0
 11
377.150471
 21
138.006287
 31
0.0
  0
LINE
  5
10E
330
109
100
AcDbEntity
  8
0
  6
Continuous
 62
     0
370
     0
100
AcDbLine
 10
377.150471
 20
138.006287
 30
0.0
 11
377.150471
 21
48.006287
 31
0.0
  0
LINE
  5
10F
330
109
100
AcDbEntity
  8
0
  6
Continuous
 62
     0
370
    30
100
AcDbLine
 10
366.150471
 20
228.006287
 30
0.0
 11
366.150471
 21
138.006287
 31
0.0
  0
LINE
  5
110
330
109
100
AcDbEntity
  8
0
  6
Continuous
 62
     0
370
    30
100
AcDbLine
 10
366.150471
 20
138.006287
 30
0.0
 11
366.150471
 21
48.006287
 31
0.0
  0
ARC
  5
111
330
109
100
AcDbEntity
  8
0
  6
Continuous
 62
     0
370
    30
100
AcDbCircle
 10
400.059904
 20
153.785095
 30
0.0
 40
0.3000002024697762
100
AcDbArc
 50
310.2973
 51
0.0
  0
LINE
  5
112
330
109
100
AcDbEntity
  8
0
  6
Continuous
 62
     0
370
    30
100
AcDbLine
 10
400.25393
 20
153.556285
 30
0.0
 11
395.851323
 21
153.556285
 31
0.0
  0
ARC
  5
113
330
109
100
AcDbEntity
  8
0
  6
Continuous
 62
     0
370
    30
100
AcDbCircle
 10
395.851323
 20
153.856286
 30
0.0
 40
0.3000000749317842
100
AcDbArc
 50
180.499955
 51
270.0
  0
LINE
  5
114
330
109
100
AcDbEntity
  8
0
  6
Continuous
 62
     0
370
    30
100
AcDbLine
 10
395.551335
 20
153.853668
 30
0.0
 11
395.544691
 21
154.615012
 31
0.0
  0
ARC
  5
115
330
109
100
AcDbEntity
  8
0
  6
Continuous
 62
     0
370
    30
100
AcDbCircle
 10
394.544695
 20
154.606251
 30
0.0
 40
1.000034461682265
100
AcDbArc
 50
0.501957
 51
90.000003
  0
LINE
  5
116
330
109
100
AcDbEntity
  8
0
  6
Continuous
 62
     0
370
    30
100
AcDbLine
 10
394.544694
 20
155.606286
 30
0.0
 11
381.650468
 21
155.606286
 31
0.0
  0
LINE
  5
117
330
109
100
AcDbEntity
  8
0
  6
Continuous
 62
     0
370
    30
100
AcDbLine
 10
381.650468
 20
154.506287
 30
0.0
 11
380.650468
 21
153.506287
 31
0.0
  0
LINE
  5
118
330
109
100
AcDbEntity
  8
0
  6
Continuous
 62
     0
370
    30
100
AcDbLine
 10
400.25393
 20
175.456287
 30
0.0
 11
400.25393
 21
153.556285
 31
0.0
  0
LINE
  5
119
330
109
100
AcDbEntity
  8
0
  6
Continuous
 62
     0
370
     0
100
AcDbLine
 10
395.851323
 20
175.456287
 30
0.0
 11
395.851323
 21
153.556285
 31
0.0
  0
LINE
  5
11A
330
109
100
AcDbEntity
  8
0
  6
Continuous
 62
     0
370
     0
100
AcDbLine
 10
395.544691
 20
174.39756
 30
0.0
 11
395.544691
 21
154.615012
 31
0.0
  0
LINE
  5
11B
330
109
100
AcDbEntity
  8
0
  6
Continuous
 62
     0
370
     0
100
AcDbLine
 10
394.544694
 20
173.406287
 30
0.0
 11
394.544694
 21
155.606286
 31
0.0
  0
LINE
  5
11C
330
109
100
AcDbEntity
  8
0
  6
Continuous
 62
     0
370
    30
100
AcDbLine
 10
381.650468
 20
174.506286
 30
0.0
 11
381.650468
 21
154.506287
 31
0.0
  0
LINE
  5
11D
330
109
100
AcDbEntity
  8
0
  6
Continuous
 62
     0
370
    30
100
AcDbLine
 10
380.650468
 20
175.506286
 30
0.0
 11
380.650468
 21
153.506287
 31
0.0
  0
LINE
  5
11E
330
109
100
AcDbEntity
  8
0
  6
Continuous
 62
     0
370
    30
100
AcDbLine
 10
389.520869
 20
94.512579
 30
0.0
 11
400.958211
 21
94.512579
 31
0.0
  0
LINE
  5
11F
330
109
100
AcDbEntity
  8
0
  6
Continuous
 62
     0
370
     0
100
AcDbLine
 10
412.852534
 20
138.499994
 30
0.0
 11
416.652284
 21
116.342298
 31
0.0
  0
ARC
  5
120
330
109
100
AcDbEntity
  8
0
  6
Continuous
 62
     0
370
    30
100
AcDbCircle
 10
403.516139
 20
71.561615
 30
0.0
 40
23.09306727800637
100
AcDbArc
 50
88.884623
 51
96.359477
  0
ARC
  5
121
330
109
100
AcDbEntity
  8
0
  6
Continuous
 62
     0
370
    30
100
AcDbCircle
 10
399.621261
 20
116.184438
 30
0.0
 40
10.10040632611679
100
AcDbArc
 50
160.100705
 51
179.899894
  0
SPLINE
  5
122
330
109
100
AcDbEntity
  8
0
  6
Continuous
 62
     0
370
    30
100
AcDbSpline
210
0.0
220
0.0
230
1.0
 70
     8
 71
     3
 72
    14
 73
    10
 74
     0
 42
0.000000001
 43
0.0
 40
0.0
 40
0.0
 40
0.0
 40
0.0
 40
3.341454141587608
 40
6.683510156799508
 40
10.02349257324499
 40
13.36048803168824
 40
16.69668072166062
 40
20.03403197351035
 40
23.37375397537685
 40
23.37375397537685
 40
23.37375397537685
 40
23.37375397537685
 10
421.3440717522838
 20
79.29618463805637
 30
0.0
 10
421.1304072907528
 20
80.38931689910162
 30
0.0
 10
420.5302678992978
 20
82.54318237895158
 30
0.0
 10
419.2556712685059
 20
85.63980442116866
 30
0.0
 10
417.5453045203678
 20
88.52706328283476
 30
0.0
 10
415.2895684033142
 20
91.02583983192154
 30
0.0
 10
412.4906390404467
 20
92.90742358580141
 30
0.0
 10
409.3247400411979
 20
94.0526258026587
 30
0.0
 10
407.1085497921431
 20
94.36855876486052
 30
0.0
 10
405.9980201033311
 20
94.44620278209185
 30
0.0
  0
LINE
  5
123
330
109
100
AcDbEntity
  8
0
  6
Continuous
 62
     0
370
     0
100
AcDbLine
 10
414.200737
 20
112.750121
 30
0.0
 11
415.870293
 21
112.750186
 31
0.0
  0
SPLINE
  5
124
330
109
100
AcDbEntity
  8
0
  6
Continuous
 62
     0
370
     0
100
AcDbSpline
210
0.0
220
0.0
230
1.0
 70
     8
 71
     3
 72
    18
 73
    14
 74
     0
 42
0.000000001
 43
0.0
 40
0.0
 40
0.0
 40
0.0
 40
0.0
 40
1.612020921592839
 40
3.224116834552438
 40
6.448183379388242
 40
9.672482443629365
 40
12.89652384406625
 40
16.12063455891719
 40
17.73307287272356
 40
19.34484000979758
 40
20.95705083966383
 40
21.76300101780323
 40
22.56861979264836
 40
22.56861979264836
 40
22.56861979264836
 40
22.56861979264836
 10
415.8702928755595
 20
112.7501864421882
 30
0.0
 10
415.9603464695756
 20
112.224073861745
 30
0.0
 10
416.1516597022783
 20
111.1825812120118
 30
0.0
 10
416.5095104625614
 20
109.0888277597926
 30
0.0
 10
416.9660213468967
 20
106.4795882464421
 30
0.0
 10
417.5130141854115
 20
103.3484890705959
 30
0.0
 10
418.0580806183209
 20
100.2160829608895
 30
0.0
 10
418.51808971124
 20
97.60391557236673
 30
0.0
 10
418.8850640355301
 20
95.50985081346568
 30
0.0
 10
419.1642800138798
 20
93.93791991808637
 30
0.0
 10
419.3963175916087
 20
92.62527027245338
 30
0.0
 10
419.5827887511323
 20
91.57795119477899
 30
0.0
 10
419.6791332780379
 20
91.04761492025492
 30
0.0
 10
419.7242299757036
 20
90.78821714348675
 30
0.0
  0
SPLINE
  5
125
330
109
100
AcDbEntity
  8
0
  6
Continuous
 62
     0
370
     0
100
AcDbSpline
210
0.0
220
0.0
230
1.0
 70
     8
 71
     3
 72
    17
 73
    13
 74
     0
 42
0.000000001
 43
0.0
 40
0.0
 40
0.0
 40
0.0
 40
0.0
 40
0.7968760256570281
 40
1.594375716149743
 40
3.189591663228643
 40
4.784596642401475
 40
6.379767638693498
 40
9.56858504749953
 40
12.75731078586576
 40
15.94516772308053
 40
19.13264561178922
 40
22.31836371266835
 40
22.31836371266835
 40
22.31836371266835
 40
22.31836371266835
 10
419.7242299426716
 20
90.78821725692555
 30
0.0
 10
419.7629260401363
 20
90.55193312363585
 30
0.0
 10
419.8275217708988
 20
90.13297716079448
 30
0.0
 10
419.9661215716699
 20
89.25568944951273
 30
0.0
 10
420.1220850300331
 20
88.22109160464345
 30
0.0
 10
420.2995684977957
 20
87.02462902859678
 30
0.0
 10
420.5155564961449
 20
85.51859058785531
 30
0.0
 10
420.754026536936
 20
83.79498438123547
 30
0.0
 10
420.9892185303293
 20
82.02360304963162
 30
0.0
 10
421.1719819657303
 20
80.60441128133212
 30
0.0
 10
421.2946580883734
 20
79.62803318052968
 30
0.0
 10
421.3375200785038
 20
79.33008689859373
 30
0.0
 10
421.3440717838562
 20
79.29618447613596
 30
0.0
  0
ARC
  5
126
330
109
100
AcDbEntity
  8
0
  6
Continuous
 62
     0
370
    30
100
AcDbCircle
 10
403.808648
 20
82.87007
 30
0.0
 40
11.78134931407476
100
AcDbArc
 50
79.290255
 51
89.229708
  0
SPLINE
  5
127
330
109
100
AcDbEntity
  8
0
  6
Continuous
 62
     0
370
    30
100
AcDbSpline
210
0.0
220
0.0
230
1.0
 70
     8
 71
     3
 72
     8
 73
     4
 74
     0
 42
0.000000001
 43
0.0
 40
0.0
 40
0.0
 40
0.0
 40
0.0
 40
1.0
 40
1.0
 40
1.0
 40
1.0
 10
430.014407868442
 20
43.89977488337794
 30
0.0
 10
428.865013959602
 20
43.68777878563745
 30
0.0
 10
428.2132090759324
 20
43.92620987164725
 30
0.0
 10
428.0519026922982
 20
44.63071880316213
 30
0.0
  0
SPLINE
  5
128
330
109
100
AcDbEntity
  8
0
  6
Continuous
 62
     0
370
    30
100
AcDbSpline
210
0.0
220
0.0
230
1.0
 70
     8
 71
     3
 72
    44
 73
    40
 74
     0
 42
0.000000001
 43
0.0
 40
0.0000895826433184
 40
0.0000895826433184
 40
0.0000895826433184
 40
0.0000895826433184
 40
1.455705552506579
 40
2.911589491455752
 40
5.824081540223627
 40
8.738562618644004
 40
11.65580985319745
 40
14.57578990662235
 40
16.03659608486232
 40
17.49778930288207
 40
20.42097080381651
 40
23.34485787363343
 40
29.19406413399674
 40
35.04490031177655
 40
40.89750583144499
 40
46.75217532138652
 40
52.60924050521431
 40
58.46889873474117
 40
61.39961580462718
 40
64.3307164339991
 40
67.26188709626257
 40
67.99463745970205
 40
68.72736871185101
 40
69.46006464945697
 40
70.192677557325
 40
70.92522637029062
 40
71.65766554636134
 40
72.38986921751011
 40
73.12154096573981
 40
73.85284092927583
 40
74.58380294677747
 40
76.04479523316759
 40
78.96357029080804
 40
81.87875183536413
 40
84.79115651375291
 40
87.70151606648814
 40
90.61036732559818
 40
92.064314958274
 40
93.51784755774796
 40
93.51784755774796
 40
93.51784755774796
 40
93.51784755774796
 10
431.2848146019637
 20
45.46581107547773
 30
0.0
 10
431.2718192035522
 20
45.95079848464461
 30
0.0
 10
431.2458255818556
 20
46.92086257851116
 30
0.0
 10
431.1657092788707
 20
48.860841559926
 30
0.0
 10
431.0023131179794
 20
51.28421191965789
 30
0.0
 10
430.6951580802813
 20
54.18582504694004
 30
0.0
 10
430.2975667890635
 20
57.08095748379287
 30
0.0
 10
429.9149666527101
 20
59.48902656531196
 30
0.0
 10
429.5916416106375
 20
61.4142402380365
 30
0.0
 10
429.2659980363328
 20
63.3405208806835
 30
0.0
 10
428.8685827115196
 20
65.75144969577802
 30
0.0
 10
428.2339916336207
 20
69.61043377485649
 30
0.0
 10
427.4545565137312
 20
74.43702901828502
 30
0.0
 10
426.519903679578
 20
80.22827683375633
 30
0.0
 10
425.5760360567269
 20
86.0185100686765
 30
0.0
 10
424.6096087493361
 20
91.80644022151218
 30
0.0
 10
423.6073833371638
 20
97.59066037869754
 30
0.0
 10
422.7322754534152
 20
102.4057453697351
 30
0.0
 10
422.00133575768
 20
106.2531232347898
 30
0.0
 10
421.4365182371762
 20
109.1357083090331
 30
0.0
 10
420.9993353897835
 20
111.2943245832627
 30
0.0
 10
420.7016425678419
 20
112.7316108394102
 30
0.0
 10
420.5515879605875
 20
113.4498224390161
 30
0.0
 10
420.4002931098869
 20
114.1675820789954
 30
0.0
 10
420.2477086939457
 20
114.8849306475927
 30
0.0
 10
420.093830455002
 20
115.6017477583275
 30
0.0
 10
419.9386532114456
 20
116.318035878304
 30
0.0
 10
419.782191520783
 20
117.0336532548335
 30
0.0
 10
419.6243312841787
 20
117.7490087306266
 30
0.0
 10
419.4651476672857
 20
118.4636657174841
 30
0.0
 10
419.25108221754
 20
119.4155328020273
 30
0.0
 10
418.8718443130724
 20
121.0786222063847
 30
0.0
 10
418.3129192960369
 20
123.4480975719601
 30
0.0
 10
417.6255064862212
 20
126.2837193689067
 30
0.0
 10
416.886094055267
 20
129.101842868194
 30
0.0
 10
416.0883789687412
 20
131.9002280317407
 30
0.0
 10
415.375365601843
 20
134.2156128737071
 30
0.0
 10
414.7813184081961
 20
136.0591120218371
 30
0.0
 10
414.4775043645277
 20
136.9781972620915
 30
0.0
 10
414.3256189214023
 20
137.4376742463903
 30
0.0
  0
ARC
  5
129
330
109
100
AcDbEntity
  8
0
  6
Continuous
 62
     0
370
    30
100
AcDbCircle
 10
412.852534
 20
136.947494
 30
0.0
 40
1.552499994677199
100
AcDbArc
 50
18.405254
 51
90.0
  0
SPLINE
  5
12A
330
109
100
AcDbEntity
  8
0
  6
Continuous
 62
     0
370
     0
100
AcDbSpline
210
0.0
220
0.0
230
1.0
 70
     8
 71
     3
 72
    21
 73
    17
 74
     0
 42
0.000000001
 43
0.0
 40
0.0
 40
0.0
 40
0.0
 40
0.0
 40
0.7625472699044984
 40
1.527870988522846
 40
3.068173238571163
 40
6.184644795374176
 40
7.762267914638144
 40
9.344689078241554
 40
10.92485328317408
 40
12.49648425405301
 40
15.59751546688465
 40
18.64952673578841
 40
21.66346482859164
 40
23.1602384496008
 40
23.90640253390963
 40
24.65139873213821
 40
24.65139873213821
 40
24.65139873213821
 40
24.65139873213821
 10
430.0144078684409
 20
43.89977488337823
 30
0.0
 10
430.0144498854718
 20
43.89954716385864
 30
0.0
 10
430.0126863066992
 20
43.90910905746654
 30
0.0
 10
430.0018915307505
 20
43.9676362042218
 30
0.0
 10
429.9617211665811
 20
44.18543131032793
 30
0.0
 10
429.8584678760465
 20
44.74524763201984
 30
0.0
 10
429.6867747364647
 20
45.67612900840923
 30
0.0
 10
429.5229417517473
 20
46.56439420891093
 30
0.0
 10
429.3279686036576
 20
47.62149412834071
 30
0.0
 10
429.0358209953661
 20
49.20545160930179
 30
0.0
 10
428.6243333310765
 20
51.43644327903237
 30
0.0
 10
428.095765547502
 20
54.30221619605635
 30
0.0
 10
427.6434616697729
 20
56.75450362142169
 30
0.0
 10
427.3254352659062
 20
58.47876947012739
 30
0.0
 10
427.1440005917782
 20
59.462466437313
 30
0.0
 10
427.0532231395312
 20
59.95464084737547
 30
0.0
 10
427.0078699621424
 20
60.20053531536519
 30
0.0
  0
LINE
  5
12B
330
109
100
AcDbEntity
  8
0
  6
Continuous
 62
     0
370
     0
100
AcDbLine
 10
418.161512
 20
116.617581
 30
0.0
 11
418.819828
 21
113.046906
 31
0.0
  0
LINE
  5
12C
330
109
100
AcDbEntity
  8
0
  6
Continuous
 62
     0
370
     0
100
AcDbLine
 10
418.819828
 20
113.046906
 30
0.0
 11
428.488895
 21
60.624454
 31
0.0
  0
LINE
  5
12D
330
109
100
AcDbEntity
  8
0
  6
Continuous
 62
     0
370
     0
100
AcDbLine
 10
414.325619
 20
137.437674
 30
0.0
 11
418.161512
 21
116.617581
 31
0.0
  0
LINE
  5
12E
330
109
100
AcDbEntity
  8
0
  6
Continuous
 62
     0
370
     0
100
AcDbLine
 10
425.226885
 20
59.941817
 30
0.0
 11
419.724047
 21
90.788184
 31
0.0
  0
LINE
  5
12F
330
109
100
AcDbEntity
  8
0
  6
Continuous
 62
     0
370
     0
100
AcDbLine
 10
415.870299
 20
112.750142
 30
0.0
 11
417.314873
 21
112.750142
 31
0.0
  0
LINE
  5
130
330
109
100
AcDbEntity
  8
0
  6
Continuous
 62
     0
370
     0
100
AcDbLine
 10
417.314873
 20
112.750143
 30
0.0
 11
416.652284
 21
116.342298
 31
0.0
  0
LINE
  5
131
330
109
100
AcDbEntity
  8
0
  6
Continuous
 62
     0
370
     0
100
AcDbLine
 10
418.161458
 20
116.617571
 30
0.0
 11
416.652284
 21
116.342298
 31
0.0
  0
SPLINE
  5
132
330
109
100
AcDbEntity
  8
0
  6
Continuous
 62
     0
370
    30
100
AcDbSpline
210
0.0
220
0.0
230
1.0
 70
     8
 71
     3
 72
     8
 73
     4
 74
     0
 42
0.000000001
 43
0.0
 40
0.245208375585023
 40
0.245208375585023
 40
0.245208375585023
 40
0.245208375585023
 40
34.96414840839086
 40
34.96414840839086
 40
34.96414840839086
 40
34.96414840839086
 10
421.3913357415522
 20
79.05557329347629
 30
0.0
 10
423.5967943866219
 20
67.69459785548803
 30
0.0
 10
425.4136293843877
 20
56.25208706183107
 30
0.0
 10
427.9753289903524
 20
44.96644039864267
 30
0.0
  0
LINE
  5
133
330
109
100
AcDbEntity
  8
0
  6
Continuous
 62
     0
370
     0
100
AcDbLine
 10
427.007881
 20
60.200537
 30
0.0
 11
421.331404
 21
90.974951
 31
0.0
  0
LINE
  5
134
330
109
100
AcDbEntity
  8
0
  6
Continuous
 62
     0
370
     0
100
AcDbLine
 10
414.200865
 20
112.750106
 30
0.0
 11
414.190713
 21
112.715932
 31
0.0
  0
SPLINE
  5
135
330
109
100
AcDbEntity
  8
0
  6
Continuous
 62
     0
370
     0
100
AcDbSpline
210
0.0
220
0.0
230
1.0
 70
     8
 71
     3
 72
    14
 73
    10
 74
     0
 42
0.000000001
 43
0.0
 40
0.0
 40
0.0
 40
0.0
 40
0.0
 40
4.305752570864028
 40
8.61337484891225
 40
12.92162771954973
 40
17.2296381911673
 40
21.53665408154193
 40
25.84189784197021
 40
30.14462411466675
 40
30.14462411466675
 40
30.14462411466675
 40
30.14462411466675
 10
414.190713373147
 20
112.7159321958824
 30
0.0
 10
413.791883561709
 20
111.3578368892167
 30
0.0
 10
412.8165880697759
 20
108.7307574571424
 30
0.0
 10
411.0824491387066
 20
105.1625926817058
 30
0.0
 10
409.2478725203441
 20
101.9907007498039
 30
0.0
 10
407.460158556403
 20
99.25852680518835
 30
0.0
 10
405.8566020249807
 20
97.03167194172552
 30
0.0
 10
404.5954480227358
 20
95.40813917362533
 30
0.0
 10
404.0985917495605
 20
94.80987394539447
 30
0.0
 10
403.9656631147745
 20
94.65030657465925
 30
0.0
  0
LINE
  5
136
330
109
100
AcDbEntity
  8
0
  6
Continuous
 62
     0
370
     0
100
AcDbLine
 10
428.488929
 20
60.624459
 30
0.0
 11
431.284815
 21
45.465811
 31
0.0
  0
LINE
  5
137
330
109
100
AcDbEntity
  8
0
  6
Continuous
 62
     0
370
     0
100
AcDbLine
 10
421.331404
 20
90.974951
 30
0.0
 11
417.314873
 21
112.750142
 31
0.0
  0
SPLINE
  5
138
330
109
100
AcDbEntity
  8
0
  6
Continuous
 62
     0
370
     0
100
AcDbSpline
210
0.0
220
0.0
230
1.0
 70
     8
 71
     7
 72
    26
 73
    18
 74
     0
 42
0.000000001
 43
0.0
 40
0.0
 40
0.0
 40
0.0
 40
0.0
 40
0.0
 40
0.0
 40
0.0
 40
0.0
 40
0.2499999999999937
 40
0.2499999999999937
 40
0.2499999999999937
 40
0.2499999999999937
 40
0.2499999999999937
 40
0.512499999999987
 40
0.512499999999987
 40
0.512499999999987
 40
0.512499999999987
 40
0.512499999999987
 40
0.9999999999999749
 40
0.9999999999999749
 40
0.9999999999999749
 40
0.9999999999999749
 40
0.9999999999999749
 40
0.9999999999999749
 40
0.9999999999999749
 40
0.9999999999999749
 10
419.7240467256549
 20
90.78818445731227
 30
0.0
 10
419.7295084081341
 20
90.77132787682945
 30
0.0
 10
419.7348991535621
 20
90.75445836166232
 30
0.0
 10
419.74153455334
 20
90.73816373567401
 30
0.0
 10
419.7519188150886
 20
90.72357116736029
 30
0.0
 10
419.7651421007643
 20
90.71009729271337
 30
0.0
 10
419.8169464469941
 20
90.69278502139778
 30
0.0
 10
419.9250138488749
 20
90.70208562194962
 30
0.0
 10
419.9977999414859
 20
90.71595312260112
 30
0.0
 10
420.0701914387378
 20
90.73144226684897
 30
0.0
 10
420.1455341146934
 20
90.74757036670788
 30
0.0
 10
420.3637639843269
 20
90.79463762979677
 30
0.0
 10
420.5882939578244
 20
90.84099658749302
 30
0.0
 10
420.7345607085788
 20
90.86885290921396
 30
0.0
 10
420.8824270111088
 20
90.8956610470479
 30
0.0
 10
421.0307617772871
 20
90.92135689324098
 30
0.0
 10
421.181246072314
 20
90.94725790382338
 30
0.0
 10
421.3314036402005
 20
90.9749511908069
 30
0.0
  0
LINE
  5
139
330
109
100
AcDbEntity
  8
0
  6
Continuous
 62
     0
370
     0
100
AcDbLine
 10
417.314873
 20
112.750142
 30
0.0
 11
418.820028
 21
113.046939
 31
0.0
  0
LINE
  5
13A
330
109
100
AcDbEntity
  8
0
  6
Continuous
 62
     0
370
     0
100
AcDbLine
 10
416.652284
 20
116.342298
 30
0.0
 11
415.256298
 21
116.215794
 31
0.0
  0
LINE
  5
13B
330
109
100
AcDbEntity
  8
0
  6
Continuous
 62
     0
370
     0
100
AcDbLine
 10
415.256298
 20
116.215794
 30
0.0
 11
414.333168
 21
113.194399
 31
0.0
  0
LINE
  5
13C
330
109
100
AcDbEntity
  8
0
  6
Continuous
 62
     0
370
     0
100
AcDbLine
 10
414.333168
 20
113.194399
 30
0.0
 11
414.200865
 21
112.750106
 31
0.0
  0
SPLINE
  5
13D
330
109
100
AcDbEntity
  8
0
  6
Continuous
 62
     0
370
    30
100
AcDbSpline
210
0.0
220
0.0
230
1.0
 70
    12
 71
     2
 72
     6
 73
     3
 74
     0
 42
0.000000001
 43
0.0
 40
0.0
 40
0.0
 40
0.0
 40
0.2475618167315173
 40
0.2475618167315173
 40
0.2475618167315173
 10
389.5208691991365
 20
94.5125791811889
 30
0.0
 41
1.0
 10
389.5208701473057
 20
94.5125789308403
 30
0.0
 41
0.7099632905687996
 10
389.5208701604201
 20
116.2020848688548
 30
0.0
 41
0.9943426987825525
  0
LINE
  5
13E
330
109
100
AcDbEntity
  8
0
  6
Continuous
 62
     0
370
    30
100
AcDbLine
 10
390.123927
 20
119.622292
 30
0.0
 11
396.993665
 21
138.496688
 31
0.0
  0
SPLINE
  5
13F
330
109
100
AcDbEntity
  8
0
  6
Continuous
 62
     0
370
     0
100
AcDbSpline
210
0.0
220
0.0
230
1.0
 70
     8
 71
     3
 72
    11
 73
     7
 74
     0
 42
0.000000001
 43
0.0
 40
0.0
 40
0.0
 40
0.0
 40
0.0
 40
0.5463209427519092
 40
1.092641883762446
 40
1.638962823031614
 40
2.183354679579053
 40
2.183354679579053
 40
2.183354679579053
 40
2.183354679579053
 10
427.0078699621424
 20
60.20053531536519
 30
0.0
 10
427.1869562596905
 20
60.2335662915615
 30
0.0
 10
427.5469723118972
 20
60.30749666650364
 30
0.0
 10
428.0138034848828
 20
60.42611279262243
 30
0.0
 10
428.3523072267074
 20
60.53809524055754
 30
0.0
 10
428.4646866020828
 20
60.59935518573759
 30
0.0
 10
428.4889293590159
 20
60.6244593776877
 30
0.0
  0
LINE
  5
140
330
109
100
AcDbEntity
  8
0
  6
Continuous
 62
     0
370
    30
100
AcDbLine
 10
428.051903
 20
44.630719
 30
0.0
 11
425.226885
 21
59.941817
 31
0.0
  0
SPLINE
  5
141
330
109
100
AcDbEntity
  8
0
  6
Continuous
 62
     0
370
     0
100
AcDbSpline
210
0.0
220
0.0
230
1.0
 70
     8
 71
     3
 72
     8
 73
     4
 74
     0
 42
0.000000001
 43
0.0
 40
0.0
 40
0.0
 40
0.0
 40
0.0
 40
1.0
 40
1.0
 40
1.0
 40
1.0
 10
425.2268845403917
 20
59.94181709276273
 30
0.0
 10
425.2406161028989
 20
59.86753517648519
 30
0.0
 10
425.8293378487947
 20
59.98316488313048
 30
0.0
 10
427.0078699621424
 20
60.20053531536519
 30
0.0
  0
LINE
  5
142
330
109
100
AcDbEntity
  8
0
  6
Continuous
 62
     0
370
    30
100
AcDbLine
 10
380.650468
 20
153.506287
 30
0.0
 11
378.150471
 21
153.506287
 31
0.0
  0
LINE
  5
143
330
109
100
AcDbEntity
  8
0
  6
Continuous
 62
     0
370
    30
100
AcDbLine
 10
386.450471
 20
138.606287
 30
0.0
 11
378.150471
 21
138.606287
 31
0.0
  0
ARC
  5
144
330
109
100
AcDbEntity
  8
0
  6
Continuous
 62
     0
370
    30
100
AcDbCircle
 10
385.080565
 20
116.40211
 30
0.0
 40
20.49999999980129
100
AcDbArc
 50
59.778493
 51
86.168371
  0
LINE
  5
145
330
109
100
AcDbEntity
  8
0
  6
Continuous
 62
     0
370
    30
100
AcDbLine
 10
386.450471
 20
94.406287
 30
0.0
 11
378.150471
 21
94.406287
 31
0.0
  0
ARC
  5
146
330
109
100
AcDbEntity
  8
0
  6
Continuous
 62
     0
370
    30
100
AcDbCircle
 10
385.080565
 20
116.610464
 30
0.0
 40
20.49999999929269
100
AcDbArc
 50
273.831629
 51
282.509425
  0
LINE
  5
147
330
109
100
AcDbEntity
  8
0
  6
Continuous
 62
     0
370
    30
100
AcDbLine
 10
380.650468
 20
175.506286
 30
0.0
 11
378.150471
 21
175.506286
 31
0.0
  0
LINE
  5
148
330
109
100
AcDbEntity
  8
0
  6
Continuous
 62
     0
370
    30
100
AcDbLine
 10
381.650468
 20
174.506286
 30
0.0
 11
380.650468
 21
175.506286
 31
0.0
  0
LINE
  5
149
330
109
100
AcDbEntity
  8
0
  6
Continuous
 62
     0
370
    30
100
AcDbLine
 10
394.544694
 20
173.406287
 30
0.0
 11
381.650468
 21
173.406287
 31
0.0
  0
ARC
  5
14A
330
109
100
AcDbEntity
  8
0
  6
Continuous
 62
     0
370
    30
100
AcDbCircle
 10
394.544695
 20
174.406321
 30
0.0
 40
1.000034461682265
100
AcDbArc
 50
269.999997
 51
359.498043
  0
LINE
  5
14B
330
109
100
AcDbEntity
  8
0
  6
Continuous
 62
     0
370
    30
100
AcDbLine
 10
395.551335
 20
175.158904
 30
0.0
 11
395.544691
 21
174.39756
 31
0.0
  0
LINE
  5
14C
330
109
100
AcDbEntity
  8
0
  6
Continuous
 62
     0
370
    30
100
AcDbLine
 10
395.551369
 20
175.16153
 30
0.0
 11
395.551369
 21
153.851043
 31
0.0
  0
ARC
  5
14D
330
109
100
AcDbEntity
  8
0
  6
Continuous
 62
     0
370
    30
100
AcDbCircle
 10
395.851323
 20
175.156287
 30
0.0
 40
0.3000000749317842
100
AcDbArc
 50
90.0
 51
179.500045
  0
LINE
  5
14E
330
109
100
AcDbEntity
  8
0
  6
Continuous
 62
     0
370
    30
100
AcDbLine
 10
400.25393
 20
175.456287
 30
0.0
 11
395.851323
 21
175.456287
 31
0.0
  0
LINE
  5
14F
330
109
100
AcDbEntity
  8
0
  6
Continuous
 62
     0
370
    30
100
AcDbLine
 10
400.359904
 20
175.227477
 30
0.0
 11
400.359904
 21
153.785095
 31
0.0
  0
ARC
  5
150
330
109
100
AcDbEntity
  8
0
  6
Continuous
 62
     0
370
    30
100
AcDbCircle
 10
400.059904
 20
175.227477
 30
0.0
 40
0.3000002024697762
100
AcDbArc
 50
360.0
 51
49.7027
  0
LINE
  5
151
330
109
100
AcDbEntity
  8
0
  6
Continuous
 62
     0
370
    30
100
AcDbLine
 10
377.150471
 20
48.006287
 30
0.0
 11
366.150471
 21
48.006287
 31
0.0
  0
LINE
  5
152
330
109
100
AcDbEntity
  8
0
  6
Continuous
 62
     0
370
    30
100
AcDbLine
 10
377.150471
 20
228.006287
 30
0.0
 11
366.150471
 21
228.006287
 31
0.0
  0
ARC
  5
153
330
109
100
AcDbEntity
  8
0
  6
Continuous
 62
     0
370
    30
100
AcDbCircle
 10
377.15046
 20
49.006299
 30
0.0
 40
1.000011948460937
100
AcDbArc
 50
270.000685
 51
359.999315
  0
ARC
  5
154
330
109
100
AcDbEntity
  8
0
  6
Continuous
 62
     0
370
    30
100
AcDbCircle
 10
377.15046
 20
227.006275
 30
0.0
 40
1.000011948440459
100
AcDbArc
 50
0.000685
 51
89.999315
  0
LINE
  5
155
330
109
100
AcDbEntity
  8
0
  6
Continuous
 62
     0
370
    30
100
AcDbLine
 10
427.975263
 20
44.966425
 30
0.0
 11
427.750704
 21
45.962224
 31
0.0
  0
LINE
  5
156
330
109
100
AcDbEntity
  8
0
  6
Continuous
 62
     0
370
    30
100
AcDbLine
 10
421.341815
 20
79.309098
 30
0.0
 11
421.390869
 21
79.055483
 31
0.0
  0
LINE
  5
157
330
109
100
AcDbEntity
  8
0
  6
Continuous
 62
     0
370
    30
100
AcDbLine
 10
427.975231
 20
44.966564
 30
0.0
 11
427.75071
 21
45.962195
 31
0.0
  0
ARC
  5
158
330
109
100
AcDbEntity
  8
0
  6
Continuous
 62
     0
370
    30
100
AcDbCircle
 10
429.091385
 20
44.855919
 30
0.0
 40
1.063637548923488
100
AcDbArc
 50
192.176768
 51
214.39578
  0
ARC
  5
159
330
109
100
AcDbEntity
  8
0
  6
Continuous
 62
     0
370
    30
100
AcDbCircle
 10
429.733619
 20
45.425862
 30
0.0
 40
1.551711482434384
100
AcDbArc
 50
280.425409
 51
1.475543
  0
SPLINE
  5
15A
330
109
100
AcDbEntity
  8
0
  6
Continuous
 62
     0
370
    30
100
AcDbSpline
210
0.0
220
0.0
230
1.0
 70
     8
 71
     3
 72
    17
 73
    13
 74
     0
 42
0.000000001
 43
0.0
 40
0.0
 40
0.0
 40
0.0
 40
0.0
 40
0.8483282170824675
 40
2.13352640889009
 40
3.403926791944551
 40
5.817310399533394
 40
9.089958910551506
 40
12.53239070085906
 40
16.15294797518102
 40
17.07312078819045
 40
18.16118436713609
 40
19.24710992806179
 40
19.24710992806179
 40
19.24710992806179
 40
19.24710992806179
 10
420.1883118730398
 20
83.29520739777855
 30
0.0
 10
420.0906571551495
 20
83.55345648704588
 30
0.0
 10
419.8276792550851
 20
84.21770487891882
 30
0.0
 10
419.3677155344456
 20
85.25214039358715
 30
0.0
 10
418.6133440511792
 20
86.72824121458682
 30
0.0
 10
417.3795308470133
 20
88.69641372663133
 30
0.0
 10
415.3410131430635
 20
90.98048474836676
 30
0.0
 10
412.4691771907912
 20
92.93690025143776
 30
0.0
 10
409.9403565945631
 20
93.82483511842568
 30
0.0
 10
408.1019030978678
 20
94.20500475297287
 30
0.0
 10
407.0805598873603
 20
94.3446067451114
 30
0.0
 10
406.3599441490144
 20
94.44052295998799
 30
0.0
 10
405.9980141971623
 20
94.44620250496341
 30
0.0
  0
LINE
  5
15B
330
109
100
AcDbEntity
  8
0
  6
Continuous
 62
     0
370
    30
100
AcDbLine
 10
412.852534
 20
138.499994
 30
0.0
 11
396.994867
 21
138.499994
 31
0.0
  0
ENDBLK
  5
15D
330
109
100
AcDbEntity
  8
0
100
AcDbBlockEnd
  0
BLOCK
  5
1AF
330
15F
100
AcDbEntity
  8
0
100
AcDbBlockBegin
  2
d
 70
     0
 10
0.0
 20
-56.227234
 30
0.0
  3
d
  1

  0
LINE
  5
160
330
15F
100
AcDbEntity
  8
0
  6
Continuous
 62
     0
370
    30
100
AcDbLine
 10
181.723995
 20
-96.019317
 30
0.0
 11
168.523997
 21
-96.019317
 31
0.0
  0
LINE
  5
161
330
15F
100
AcDbEntity
  8
0
  6
Continuous
 62
     0
370
    30
100
AcDbLine
 10
150.723996
 20
-96.019317
 30
0.0
 11
137.523995
 21
-96.019317
 31
0.0
  0
ARC
  5
162
330
15F
100
AcDbEntity
  8
0
  6
Continuous
 62
     0
370
    30
100
AcDbCircle
 10
70.624007
 20
-86.719306
 30
0.0
 40
1.000011948426944
100
AcDbArc
 50
180.000685
 51
269.999315
  0
LINE
  5
163
330
15F
100
AcDbEntity
  8
0
  6
Continuous
 62
     0
370
    30
100
AcDbLine
 10
69.623995
 20
-86.719318
 30
0.0
 11
69.623995
 21
-75.719318
 31
0.0
  0
LINE
  5
164
330
15F
100
AcDbEntity
  8
0
  6
Continuous
 62
     0
370
    30
100
AcDbLine
 10
248.623995
 20
-87.719318
 30
0.0
 11
70.623995
 21
-87.719318
 31
0.0
  0
LINE
  5
165
330
15F
100
AcDbEntity
  8
0
  6
Continuous
 62
     0
370
     0
100
AcDbLine
 10
249.623995
 20
-86.719318
 30
0.0
 11
69.623995
 21
-86.719318
 31
0.0
  0
LINE
  5
166
330
15F
100
AcDbEntity
  8
0
  6
Continuous
 62
     0
370
    30
100
AcDbLine
 10
249.623995
 20
-75.719318
 30
0.0
 11
69.623995
 21
-75.719318
 31
0.0
  0
LINE
  5
167
330
15F
100
AcDbEntity
  8
0
  6
Continuous
 62
     0
370
    30
100
AcDbLine
 10
170.573997
 20
-109.822778
 30
0.0
 11
148.673996
 21
-109.822778
 31
0.0
  0
LINE
  5
168
330
15F
100
AcDbEntity
  8
0
  6
Continuous
 62
     0
370
     0
100
AcDbLine
 10
170.573997
 20
-105.420171
 30
0.0
 11
148.673996
 21
-105.420171
 31
0.0
  0
LINE
  5
169
330
15F
100
AcDbEntity
  8
0
  6
Continuous
 62
     0
370
     0
100
AcDbLine
 10
170.276615
 20
-105.120183
 30
0.0
 11
148.971378
 21
-105.120183
 31
0.0
  0
LINE
  5
16A
330
15F
100
AcDbEntity
  8
0
  6
Continuous
 62
     0
370
     0
100
AcDbLine
 10
169.515271
 20
-105.113538
 30
0.0
 11
149.732723
 21
-105.113538
 31
0.0
  0
LINE
  5
16B
330
15F
100
AcDbEntity
  8
0
  6
Continuous
 62
     0
370
     0
100
AcDbLine
 10
168.523997
 20
-104.113542
 30
0.0
 11
150.723996
 21
-104.113542
 31
0.0
  0
LINE
  5
16C
330
15F
100
AcDbEntity
  8
0
  6
Continuous
 62
     0
370
    30
100
AcDbLine
 10
169.623996
 20
-91.219316
 30
0.0
 11
149.623997
 21
-91.219316
 31
0.0
  0
LINE
  5
16D
330
15F
100
AcDbEntity
  8
0
  6
Continuous
 62
     0
370
    30
100
AcDbLine
 10
170.623996
 20
-90.219316
 30
0.0
 11
148.623997
 21
-90.219316
 31
0.0
  0
SPLINE
  5
16E
330
15F
100
AcDbEntity
  8
0
  6
Continuous
 62
     0
370
     0
100
AcDbSpline
210
0.0
220
0.0
230
1.0
 70
     8
 71
     3
 72
    14
 73
    10
 74
     0
 42
0.000000001
 43
0.0
 40
0.0
 40
0.0
 40
0.0
 40
0.0
 40
4.985091455020036
 40
9.970147469987417
 40
14.95499429598457
 40
19.93965986576175
 40
24.92412306109085
 40
29.90843907769888
 40
34.89265281904024
 40
34.89265281904024
 40
34.89265281904024
 40
34.89265281904024
 10
181.6171063448458
 20
-126.2211287033633
 30
0.0
 10
181.6293081333538
 20
-125.93268404429
 30
0.0
 10
181.2851668766868
 20
-125.3779974061792
 30
0.0
 10
179.6854816210985
 20
-124.5696238406115
 30
0.0
 10
177.0743816221863
 20
-123.8448440081033
 30
0.0
 10
173.5732630371373
 20
-123.2351365303687
 30
0.0
 10
169.3502456700288
 20
-122.7740740348911
 30
0.0
 10
164.620888301456
 20
-122.4865221457853
 30
0.0
 10
161.28541460262
 20
-122.4213806661751
 30
0.0
 10
159.6240100221729
 20
-122.4213806661751
 30
0.0
  0
SPLINE
  5
16F
330
15F
100
AcDbEntity
  8
0
  6
Continuous
 62
     0
370
     0
100
AcDbSpline
210
0.0
220
0.0
230
1.0
 70
     8
 71
     3
 72
    14
 73
    10
 74
     0
 42
0.000000001
 43
0.0
 40
0.0
 40
0.0
 40
0.0
 40
0.0
 40
4.98421374134114
 40
9.968529757949064
 40
14.95299295327749
 40
19.93765852305448
 40
24.92250534905096
 40
29.90756136401821
 40
34.89265281903796
 40
34.89265281903796
 40
34.89265281903796
 40
34.89265281903796
 10
159.6240100221727
 20
-122.4213806661751
 30
0.0
 10
157.9626054417257
 20
-122.4213806661751
 30
0.0
 10
154.6271317516616
 20
-122.4865221457883
 30
0.0
 10
149.8977744218048
 20
-122.7740740348827
 30
0.0
 10
145.6747571167916
 20
-123.2351365303869
 30
0.0
 10
142.1736386138055
 20
-123.8448440081215
 30
0.0
 10
139.5625387126219
 20
-124.5696238406033
 30
0.0
 10
137.9628535653716
 20
-125.3779974061811
 30
0.0
 10
137.6187123846752
 20
-125.93268404429
 30
0.0
 10
137.630914210956
 20
-126.2211287033633
 30
0.0
  0
ARC
  5
170
330
15F
100
AcDbEntity
  8
0
  6
Continuous
 62
     0
370
    30
100
AcDbCircle
 10
141.499585
 20
-98.022115
 30
0.0
 40
4.011836753980779
100
AcDbArc
 50
195.433067
 51
204.609517
  0
ARC
  5
171
330
15F
100
AcDbEntity
  8
0
  6
Continuous
 62
     0
370
    30
100
AcDbCircle
 10
177.748329
 20
-98.02206
 30
0.0
 40
4.011954266431993
100
AcDbArc
 50
335.39047
 51
344.566586
  0
SPLINE
  5
172
330
15F
100
AcDbEntity
  8
0
  6
Continuous
 62
     0
370
     0
100
AcDbSpline
210
0.0
220
0.0
230
1.0
 70
     8
 71
     3
 72
     8
 73
     4
 74
     0
 42
0.000000001
 43
0.0
 40
0.0
 40
0.0
 40
0.0
 40
0.0
 40
3.653222443064005
 40
3.653222443064005
 40
3.653222443064005
 40
3.653222443064005
 10
180.307429841122
 20
-127.7303573726531
 30
0.0
 10
180.2959418026788
 20
-127.9474966912833
 30
0.0
 10
180.0393895641824
 20
-128.1701301161856
 30
0.0
 10
179.9037760217781
 20
-128.3886729249107
 30
0.0
  0
LINE
  5
173
330
15F
100
AcDbEntity
  8
0
  6
Continuous
 62
     0
370
     0
100
AcDbLine
 10
179.903776
 20
-128.388673
 30
0.0
 11
173.978127
 21
-138.057738
 31
0.0
  0
SPLINE
  5
174
330
15F
100
AcDbEntity
  8
0
  6
Continuous
 62
     0
370
     0
100
AcDbSpline
210
0.0
220
0.0
230
1.0
 70
     8
 71
     3
 72
    14
 73
    10
 74
     0
 42
0.000000001
 43
0.0
 40
0.0
 40
0.0
 40
0.0
 40
0.0
 40
3.357648776850969
 40
6.714049718873458
 40
10.06778576981204
 40
13.4176008828416
 40
16.7644510004888
 40
20.11421126264104
 40
23.46800661547983
 40
23.46800661547983
 40
23.46800661547983
 40
23.46800661547983
 10
173.9781272698287
 20
-138.0577379414849
 30
0.0
 10
173.8514032395554
 20
-138.2585720588147
 30
0.0
 10
173.4968993310441
 20
-138.6613733062929
 30
0.0
 10
172.5699500870757
 20
-139.2479379217134
 30
0.0
 10
171.121028561006
 20
-139.8010997746906
 30
0.0
 10
169.0111025442452
 20
-140.2817295192219
 30
0.0
 10
166.2117252501462
 20
-140.6325354365949
 30
0.0
 10
162.984708830023
 20
-140.8200168766878
 30
0.0
 10
160.7419428801855
 20
-140.8536570304097
 30
0.0
 10
159.6240110959062
 20
-140.8536572716639
 30
0.0
  0
LINE
  5
175
330
15F
100
AcDbEntity
  8
0
  6
Continuous
 62
     0
370
     0
100
AcDbLine
 10
159.624011
 20
-140.853657
 30
0.0
 11
159.624009
 21
-123.894466
 31
0.0
  0
SPLINE
  5
176
330
15F
100
AcDbEntity
  8
0
  6
Continuous
 62
     0
370
     0
100
AcDbSpline
210
0.0
220
0.0
230
1.0
 70
     8
 71
     3
 72
    14
 73
    10
 74
     0
 42
0.000000001
 43
0.0
 40
0.0
 40
0.0
 40
0.0
 40
0.0
 40
4.69023605813217
 40
9.37981662551812
 40
14.07059875637071
 40
18.76087985973196
 40
23.45161344181452
 40
28.14254872602786
 40
32.83347914028617
 40
32.83347914028617
 40
32.83347914028617
 40
32.83347914028617
 10
159.6240100343474
 20
-123.894465611321
 30
0.0
 10
161.1874220537247
 20
-123.8944649646237
 30
0.0
 10
164.3259744077436
 20
-123.9602741636181
 30
0.0
 10
168.7748868687388
 20
-124.2514434461525
 30
0.0
 10
172.7457778525307
 20
-124.7174358771792
 30
0.0
 10
176.0358693741539
 20
-125.3331440653064
 30
0.0
 10
178.4898920142085
 20
-126.0665463329706
 30
0.0
 10
179.9909741345901
 20
-126.8759011517873
 30
0.0
 10
180.3221810887607
 20
-127.4515390280878
 30
0.0
 10
180.3074298411226
 20
-127.730357372651
 30
0.0
  0
ARC
  5
177
330
15F
100
AcDbEntity
  8
0
  6
Continuous
 62
     0
370
     0
100
AcDbCircle
 10
173.781032
 20
-136.568013
 30
0.0
 40
1.502741555440785
100
AcDbArc
 50
277.536674
 51
327.716762
  0
LINE
  5
178
330
15F
100
AcDbEntity
  8
0
  6
Continuous
 62
     0
370
     0
100
AcDbLine
 10
159.62401
 20
-123.894466
 30
0.0
 11
159.62401
 21
-122.421381
 31
0.0
  0
SPLINE
  5
179
330
15F
100
AcDbEntity
  8
0
  6
Continuous
 62
     0
370
     0
100
AcDbSpline
210
0.0
220
0.0
230
1.0
 70
     8
 71
     3
 72
     8
 73
     4
 74
     0
 42
0.000000001
 43
0.0
 40
0.0
 40
0.0
 40
0.0
 40
0.0
 40
3.653222443064025
 40
3.653222443064025
 40
3.653222443064025
 40
3.653222443064025
 10
138.9405907083255
 20
-127.7303573726531
 30
0.0
 10
138.9520787745491
 20
-127.9474966913021
 30
0.0
 10
139.2086310400992
 20
-128.1701301161706
 30
0.0
 10
139.3442446100898
 20
-128.3886729249105
 30
0.0
  0
LINE
  5
17A
330
15F
100
AcDbEntity
  8
0
  6
Continuous
 62
     0
370
     0
100
AcDbLine
 10
139.344245
 20
-128.388673
 30
0.0
 11
145.269895
 21
-138.057738
 31
0.0
  0
SPLINE
  5
17B
330
15F
100
AcDbEntity
  8
0
  6
Continuous
 62
     0
370
     0
100
AcDbSpline
210
0.0
220
0.0
230
1.0
 70
     8
 71
     3
 72
    14
 73
    10
 74
     0
 42
0.000000001
 43
0.0
 40
0.0
 40
0.0
 40
0.0
 40
0.0
 40
4.69023605804528
 40
9.379816625478341
 40
14.07059875641934
 40
18.76087985972481
 40
23.45161344182406
 40
28.14254872603607
 40
32.83347914028535
 40
32.83347914028535
 40
32.83347914028535
 40
32.83347914028535
 10
159.624010034519
 20
-123.894465611321
 30
0.0
 10
158.0605980151707
 20
-123.8944649646235
 30
0.0
 10
154.9220456694279
 20
-123.9602741636247
 30
0.0
 10
150.4731332448713
 20
-124.2514434461641
 30
0.0
 10
146.502242319387
 20
-124.717435877157
 30
0.0
 10
143.2121508749931
 20
-125.3331440653208
 30
0.0
 10
140.7581283266733
 20
-126.066546332964
 30
0.0
 10
139.2570463081561
 20
-126.8759011518
 30
0.0
 10
138.9258394250151
 20
-127.451539028064
 30
0.0
 10
138.9405907083249
 20
-127.730357372651
 30
0.0
  0
ARC
  5
17C
330
15F
100
AcDbEntity
  8
0
  6
Continuous
 62
     0
370
     0
100
AcDbCircle
 10
139.16653
 20
-126.211367
 30
0.0
 40
1.535646868694869
100
AcDbArc
 50
180.364207
 51
261.539699
  0
ARC
  5
17D
330
15F
100
AcDbEntity
  8
0
  6
Continuous
 62
     0
370
     0
100
AcDbCircle
 10
180.081491
 20
-126.211368
 30
0.0
 40
1.535646354388587
100
AcDbArc
 50
278.460284
 51
359.635809
  0
ARC
  5
17E
330
15F
100
AcDbEntity
  8
0
  6
Continuous
 62
     0
370
     0
100
AcDbCircle
 10
179.673456
 20
-126.860124
 30
0.0
 40
1.54600595241071
100
AcDbArc
 50
278.568873
 51
328.380396
  0
SPLINE
  5
17F
330
15F
100
AcDbEntity
  8
0
  6
Continuous
 62
     0
370
     0
100
AcDbSpline
210
0.0
220
0.0
230
1.0
 70
     8
 71
     3
 72
    14
 73
    10
 74
     0
 42
0.000000001
 43
0.0
 40
0.0
 40
0.0
 40
0.0
 40
0.0
 40
3.357659727039317
 40
6.714168333140146
 40
10.06786817318082
 40
13.41762334460883
 40
16.76451129115895
 40
20.11429153093615
 40
23.46810869271241
 40
23.46810869271241
 40
23.46810869271241
 40
23.46810869271241
 10
145.2698891469407
 20
-138.0577720638832
 30
0.0
 10
145.3967454104065
 20
-138.2584892996358
 30
0.0
 10
145.7510357605578
 20
-138.6615643949601
 30
0.0
 10
146.6784295879165
 20
-139.2480037811126
 30
0.0
 10
148.126811687988
 20
-139.8008712245437
 30
0.0
 10
150.2369963266956
 20
-140.281961554085
 30
0.0
 10
153.0362356228836
 20
-140.6328126286082
 30
0.0
 10
156.2632831194429
 20
-140.8203801563986
 30
0.0
 10
158.5060851780791
 20
-140.8538222252732
 30
0.0
 10
159.6240242198432
 20
-140.8536573800534
 30
0.0
  0
ARC
  5
180
330
15F
100
AcDbEntity
  8
0
  6
Continuous
 62
     0
370
     0
100
AcDbCircle
 10
139.574564
 20
-126.860124
 30
0.0
 40
1.546005947008486
100
AcDbArc
 50
211.61961
 51
261.431127
  0
SPLINE
  5
181
330
15F
100
AcDbEntity
  8
0
  6
Continuous
 62
     0
370
    30
100
AcDbSpline
210
0.0
220
0.0
230
1.0
 70
     8
 71
     3
 72
    10
 73
     6
 74
     0
 42
0.000000001
 43
0.0
 40
43.54675263675923
 40
43.54675263675923
 40
43.54675263675923
 40
43.54675263675923
 40
45.86094439878419
 40
55.03829037776859
 40
64.22280851227431
 40
64.22280851227431
 40
64.22280851227431
 40
64.22280851227431
 10
170.5739974115947
 20
-105.5001098237475
 30
0.0
 10
171.2378245634026
 20
-105.3616711858921
 30
0.0
 10
174.4259893010835
 20
-104.6142429092692
 30
0.0
 10
179.0198841122361
 20
-102.7747342667358
 30
0.0
 10
180.9877963988027
 20
-100.7304897553765
 30
0.0
 10
181.395865037598
 20
-99.69276663139817
 30
0.0
  0
SPLINE
  5
182
330
15F
100
AcDbEntity
  8
0
  6
Continuous
 62
     0
370
    30
100
AcDbSpline
210
0.0
220
0.0
230
1.0
 70
     8
 71
     3
 72
    10
 73
     6
 74
     0
 42
0.000000001
 43
0.0
 40
0.0
 40
0.0
 40
0.0
 40
0.0
 40
9.18456123342156
 40
18.36188666089489
 40
20.67602764863839
 40
20.67602764863839
 40
20.67602764863839
 40
20.67602764863839
 10
137.8521551646043
 20
-99.69277154077281
 30
0.0
 10
138.2602247880836
 20
-100.7305114868645
 30
0.0
 10
140.2281507364228
 20
-102.7747110774769
 30
0.0
 10
144.8220399927683
 20
-104.6142582305568
 30
0.0
 10
148.0101840157552
 20
-105.3616814537102
 30
0.0
 10
148.673996083074
 20
-105.5001166443363
 30
0.0
  0
ARC
  5
183
330
15F
100
AcDbEntity
  8
0
  6
Continuous
 62
     0
370
     0
100
AcDbCircle
 10
145.466917
 20
-136.568194
 30
0.0
 40
1.502551956211468
100
AcDbArc
 50
212.278918
 51
262.465163
  0
LINE
  5
184
330
15F
100
AcDbEntity
  8
0
  6
Continuous
 62
     0
370
    30
100
AcDbLine
 10
137.632407
 20
-99.089715
 30
0.0
 11
139.717158
 21
-99.089715
 31
0.0
  0
LINE
  5
185
330
15F
100
AcDbEntity
  8
0
  6
Continuous
 62
     0
370
    30
100
AcDbLine
 10
179.530832
 20
-99.089715
 30
0.0
 11
181.615614
 21
-99.089715
 31
0.0
  0
LINE
  5
186
330
15F
100
AcDbEntity
  8
0
  6
Continuous
 62
     0
370
     0
100
AcDbLine
 10
137.852155
 20
-99.692772
 30
0.0
 11
140.105391
 21
-99.692771
 31
0.0
  0
LINE
  5
187
330
15F
100
AcDbEntity
  8
0
  6
Continuous
 62
     0
370
     0
100
AcDbLine
 10
179.142599
 20
-99.692767
 30
0.0
 11
181.395865
 21
-99.692767
 31
0.0
  0
ARC
  5
188
330
15F
100
AcDbEntity
  8
0
  6
Continuous
 62
     0
370
    30
100
AcDbCircle
 10
176.023876
 20
-97.258504
 30
0.0
 40
3.956270012657749
100
AcDbArc
 50
322.026826
 51
332.427991
  0
ARC
  5
189
330
15F
100
AcDbEntity
  8
0
  6
Continuous
 62
     0
370
    30
100
AcDbCircle
 10
143.235544
 20
-97.251159
 30
0.0
 40
3.969802468002018
100
AcDbArc
 50
207.589618
 51
217.955289
  0
SPLINE
  5
18A
330
15F
100
AcDbEntity
  8
0
  6
Continuous
 62
     0
370
    30
100
AcDbSpline
210
0.0
220
0.0
230
1.0
 70
     8
 71
     3
 72
    12
 73
     8
 74
     0
 42
0.000000001
 43
0.0
 40
9.232443725116552
 40
9.232443725116552
 40
9.232443725116552
 40
9.232443725116552
 40
10.34673182827687
 40
15.08660100492988
 40
19.51100575680303
 40
24.10631538952021
 40
26.83194968575
 40
26.83194968575
 40
26.83194968575
 40
26.83194968575
 10
168.533901632065
 20
-104.2539390718178
 30
0.0
 10
168.8666798239101
 20
-104.1974820366984
 30
0.0
 10
170.5909182986328
 20
-103.8842321258756
 30
0.0
 10
173.3707689789919
 20
-103.1845637411552
 30
0.0
 10
176.3734287061678
 20
-101.9861650136766
 30
0.0
 10
178.2060655070067
 20
-100.7941506436098
 30
0.0
 10
178.9324629913053
 20
-99.99484665864793
 30
0.0
 10
179.1425993621147
 20
-99.6927668854446
 30
0.0
  0
SPLINE
  5
18B
330
15F
100
AcDbEntity
  8
0
  6
Continuous
 62
     0
370
    30
100
AcDbSpline
210
0.0
220
0.0
230
1.0
 70
     8
 71
     3
 72
    12
 73
     8
 74
     0
 42
0.000000001
 43
0.0
 40
0.0
 40
0.0
 40
0.0
 40
0.0
 40
2.728838129486278
 40
7.323175539144718
 40
11.74570190627852
 40
16.48542702088379
 40
17.5994226499184
 40
17.5994226499184
 40
17.5994226499184
 40
17.5994226499184
 10
140.1053909534275
 20
-99.6927712867298
 30
0.0
 10
140.3157741474604
 20
-99.99520685584753
 30
0.0
 10
141.0425882219827
 20
-100.79475428922
 30
0.0
 10
142.875901726336
 20
-101.9875872091586
 30
0.0
 10
145.8781347026148
 20
-103.1857701761294
 30
0.0
 10
148.6573038992804
 20
-103.8845345808353
 30
0.0
 10
150.3814003234368
 20
-104.1975546234182
 30
0.0
 10
150.7140882375911
 20
-104.2539646341348
 30
0.0
  0
LINE
  5
18C
330
15F
100
AcDbEntity
  8
0
  6
Continuous
 62
     0
370
    30
100
AcDbLine
 10
137.523995
 20
-96.019317
 30
0.0
 11
137.523995
 21
-87.719317
 31
0.0
  0
LINE
  5
18D
330
15F
100
AcDbEntity
  8
0
  6
Continuous
 62
     0
370
    30
100
AcDbLine
 10
181.723995
 20
-96.019317
 30
0.0
 11
181.723995
 21
-87.719317
 31
0.0
  0
ARC
  5
18E
330
15F
100
AcDbEntity
  8
0
  6
Continuous
 62
     0
370
    30
100
AcDbCircle
 10
159.728172
 20
-94.649411
 30
0.0
 40
20.49999999877492
100
AcDbArc
 50
183.831629
 51
192.522827
  0
ARC
  5
18F
330
15F
100
AcDbEntity
  8
0
  6
Continuous
 62
     0
370
    30
100
AcDbCircle
 10
159.519818
 20
-94.649411
 30
0.0
 40
20.50000000225041
100
AcDbArc
 50
347.477139
 51
356.168371
  0
LINE
  5
190
330
15F
100
AcDbEntity
  8
0
  6
Continuous
 62
     0
370
    30
100
AcDbLine
 10
170.623996
 20
-90.219316
 30
0.0
 11
170.623996
 21
-87.719319
 31
0.0
  0
LINE
  5
191
330
15F
100
AcDbEntity
  8
0
  6
Continuous
 62
     0
370
    30
100
AcDbLine
 10
148.623997
 20
-90.219316
 30
0.0
 11
148.623997
 21
-87.719319
 31
0.0
  0
LINE
  5
192
330
15F
100
AcDbEntity
  8
0
  6
Continuous
 62
     0
370
    30
100
AcDbLine
 10
169.623996
 20
-91.219316
 30
0.0
 11
170.623996
 21
-90.219316
 31
0.0
  0
LINE
  5
193
330
15F
100
AcDbEntity
  8
0
  6
Continuous
 62
     0
370
    30
100
AcDbLine
 10
149.623997
 20
-91.219316
 30
0.0
 11
148.623997
 21
-90.219316
 31
0.0
  0
LINE
  5
194
330
15F
100
AcDbEntity
  8
0
  6
Continuous
 62
     0
370
    30
100
AcDbLine
 10
168.523997
 20
-104.113542
 30
0.0
 11
168.523997
 21
-91.219316
 31
0.0
  0
LINE
  5
195
330
15F
100
AcDbEntity
  8
0
  6
Continuous
 62
     0
370
    30
100
AcDbLine
 10
150.723996
 20
-104.113542
 30
0.0
 11
150.723996
 21
-91.219316
 31
0.0
  0
ARC
  5
196
330
15F
100
AcDbEntity
  8
0
  6
Continuous
 62
     0
370
    30
100
AcDbCircle
 10
169.524032
 20
-104.113542
 30
0.0
 40
1.000034461682265
100
AcDbArc
 50
179.999997
 51
269.498043
  0
ARC
  5
197
330
15F
100
AcDbEntity
  8
0
  6
Continuous
 62
     0
370
    30
100
AcDbCircle
 10
149.723962
 20
-104.113542
 30
0.0
 40
1.000034461682265
100
AcDbArc
 50
270.501957
 51
0.000003
  0
LINE
  5
198
330
15F
100
AcDbEntity
  8
0
  6
Continuous
 62
     0
370
    30
100
AcDbLine
 10
170.276615
 20
-105.120183
 30
0.0
 11
169.515271
 21
-105.113538
 31
0.0
  0
LINE
  5
199
330
15F
100
AcDbEntity
  8
0
  6
Continuous
 62
     0
370
    30
100
AcDbLine
 10
148.971378
 20
-105.120183
 30
0.0
 11
149.732723
 21
-105.113538
 31
0.0
  0
ARC
  5
19A
330
15F
100
AcDbEntity
  8
0
  6
Continuous
 62
     0
370
    30
100
AcDbCircle
 10
170.273997
 20
-105.420171
 30
0.0
 40
0.3000000749317842
100
AcDbArc
 50
0.0
 51
89.500045
  0
ARC
  5
19B
330
15F
100
AcDbEntity
  8
0
  6
Continuous
 62
     0
370
    30
100
AcDbCircle
 10
148.973996
 20
-105.420171
 30
0.0
 40
0.3000000749317842
100
AcDbArc
 50
90.499955
 51
180.0
  0
LINE
  5
19C
330
15F
100
AcDbEntity
  8
0
  6
Continuous
 62
     0
370
    30
100
AcDbLine
 10
170.573997
 20
-109.822778
 30
0.0
 11
170.573997
 21
-105.420171
 31
0.0
  0
LINE
  5
19D
330
15F
100
AcDbEntity
  8
0
  6
Continuous
 62
     0
370
    30
100
AcDbLine
 10
148.673996
 20
-109.822778
 30
0.0
 11
148.673996
 21
-105.420171
 31
0.0
  0
LINE
  5
19E
330
15F
100
AcDbEntity
  8
0
  6
Continuous
 62
     0
370
    30
100
AcDbLine
 10
170.345188
 20
-109.928752
 30
0.0
 11
148.902806
 21
-109.928752
 31
0.0
  0
ARC
  5
19F
330
15F
100
AcDbEntity
  8
0
  6
Continuous
 62
     0
370
    30
100
AcDbCircle
 10
170.345188
 20
-109.628752
 30
0.0
 40
0.3000002024697762
100
AcDbArc
 50
270.0
 51
319.7027
  0
ARC
  5
1A0
330
15F
100
AcDbEntity
  8
0
  6
Continuous
 62
     0
370
    30
100
AcDbCircle
 10
148.902806
 20
-109.628752
 30
0.0
 40
0.3000002024697762
100
AcDbArc
 50
220.2973
 51
270.0
  0
LINE
  5
1A1
330
15F
100
AcDbEntity
  8
0
  6
Continuous
 62
     0
370
    30
100
AcDbLine
 10
249.623995
 20
-86.719318
 30
0.0
 11
249.623995
 21
-75.719318
 31
0.0
  0
ARC
  5
1A2
330
15F
100
AcDbEntity
  8
0
  6
Continuous
 62
     0
370
    30
100
AcDbCircle
 10
248.623983
 20
-86.719306
 30
0.0
 40
1.000011948471162
100
AcDbArc
 50
270.000685
 51
359.999315
  0
LINE
  5
1A3
330
15F
100
AcDbEntity
  8
0
  6
Continuous
 62
     0
370
    30
100
AcDbLine
 10
137.630298
 20
-126.19306
 30
0.0
 11
137.632137
 21
-126.281772
 31
0.0
  0
LINE
  5
1A4
330
15F
100
AcDbEntity
  8
0
  6
Continuous
 62
     0
370
    30
100
AcDbLine
 10
138.241684
 20
-127.643798
 30
0.0
 11
138.257409
 21
-127.667682
 31
0.0
  0
ARC
  5
1A5
330
15F
100
AcDbEntity
  8
0
  6
Continuous
 62
     0
370
    30
100
AcDbCircle
 10
140.032989
 20
-126.032488
 30
0.0
 40
2.413822973548368
100
AcDbArc
 50
185.944169
 51
222.643058
  0
LINE
  5
1A6
330
15F
100
AcDbEntity
  8
0
  6
Continuous
 62
     0
370
    30
100
AcDbLine
 10
144.196545
 20
-137.370635
 30
0.0
 11
138.258059
 21
-127.670647
 31
0.0
  0
SPLINE
  5
1A7
330
15F
100
AcDbEntity
  8
0
  6
Continuous
 62
     0
370
    30
100
AcDbSpline
210
0.0
220
0.0
230
1.0
 70
     8
 71
     3
 72
    16
 73
    12
 74
     0
 42
0.000000001
 43
0.0
 40
0.0
 40
0.0
 40
0.0
 40
0.0
 40
1.437735140053489
 40
2.081603729467817
 40
3.752507183649513
 40
5.566106915738658
 40
8.76016785867689
 40
13.71034710936293
 40
15.03146131243329
 40
17.79839402707587
 40
23.92746954935706
 40
23.92746954935706
 40
23.92746954935706
 40
23.92746954935706
 10
144.2148957806493
 20
-137.3990645137362
 30
0.0
 10
144.2718087646539
 20
-137.4852469344023
 30
0.0
 10
144.4501137085298
 20
-137.7376725329959
 30
0.0
 10
144.7552965386765
 20
-138.068971097445
 30
0.0
 10
145.1561206128151
 20
-138.4317331003783
 30
0.0
 10
145.9139790329927
 20
-138.9408608546398
 30
0.0
 10
147.3152880727469
 20
-139.5976002068912
 30
0.0
 10
149.2336904120462
 20
-140.0979961627479
 30
0.0
 10
151.5839723839923
 20
-140.4596501071285
 30
0.0
 10
154.5808580280014
 20
-140.7721665493905
 30
0.0
 10
157.5941540910914
 20
-140.8544914486715
 30
0.0
 10
159.6240242200832
 20
-140.8541450373682
 30
0.0
  0
SPLINE
  5
1A8
330
15F
100
AcDbEntity
  8
0
  6
Continuous
 62
     0
370
    30
100
AcDbSpline
210
0.0
220
0.0
230
1.0
 70
     8
 71
     3
 72
    17
 73
    13
 74
     0
 42
0.000000001
 43
0.0
 40
0.0
 40
0.0
 40
0.0
 40
0.0
 40
6.415807714441042
 40
9.240101162276693
 40
10.6249021001224
 40
15.91625842104205
 40
18.26109240644196
 40
20.3391019884534
 40
21.30765492876278
 40
23.02289684321802
 40
23.47783409924324
 40
23.92773675465181
 40
23.92773675465181
 40
23.92773675465181
 40
23.92773675465181
 10
159.6239979726207
 20
-140.8541450373682
 30
0.0
 10
161.747144132825
 20
-140.8545073668661
 30
0.0
 10
164.8835180195098
 20
-140.7644868150212
 30
0.0
 10
167.9534907331558
 20
-140.4231242685632
 30
0.0
 10
170.3621179981783
 20
-140.0272794553673
 30
0.0
 10
172.0952539454649
 20
-139.5328586382354
 30
0.0
 10
173.4286773066442
 20
-138.880208700383
 30
0.0
 10
174.0389389826729
 20
-138.4678544081862
 30
0.0
 10
174.5077284363994
 20
-138.0583738177859
 30
0.0
 10
174.7634417210728
 20
-137.7831042718867
 30
0.0
 10
174.9702812802978
 20
-137.495078400648
 30
0.0
 10
175.0152905168864
 20
-137.4260726067271
 30
0.0
 10
175.0331261417734
 20
-137.3990644003391
 30
0.0
  0
LINE
  5
1A9
330
15F
100
AcDbEntity
  8
0
  6
Continuous
 62
     0
370
    30
100
AcDbLine
 10
181.006337
 20
-127.643798
 30
0.0
 11
180.990611
 21
-127.667682
 31
0.0
  0
ARC
  5
1AA
330
15F
100
AcDbEntity
  8
0
  6
Continuous
 62
     0
370
    30
100
AcDbCircle
 10
179.215032
 20
-126.032488
 30
0.0
 40
2.413822823819841
100
AcDbArc
 50
317.356946
 51
354.055838
  0
LINE
  5
1AB
330
15F
100
AcDbEntity
  8
0
  6
Continuous
 62
     0
370
    30
100
AcDbLine
 10
181.615884
 20
-126.281772
 30
0.0
 11
181.617722
 21
-126.193078
 31
0.0
  0
LINE
  5
1AC
330
15F
100
AcDbEntity
  8
0
  6
Continuous
 62
     0
370
    30
100
AcDbLine
 10
175.051477
 20
-137.370634
 30
0.0
 11
180.989962
 21
-127.670647
 31
0.0
  0
LINE
  5
1AD
330
15F
100
AcDbEntity
  8
0
  6
Continuous
 62
     0
370
    30
100
AcDbLine
 10
181.617718
 20
-126.192331
 30
0.0
 11
181.617718
 21
-99.094413
 31
0.0
  0
LINE
  5
1AE
330
15F
100
AcDbEntity
  8
0
  6
Continuous
 62
     0
370
    30
100
AcDbLine
 10
137.630303
 20
-126.192331
 30
0.0
 11
137.630303
 21
-99.094413
 31
0.0
  0
ENDBLK
  5
1B0
330
15F
100
AcDbEntity
  8
0
100
AcDbBlockEnd
  0
BLOCK
  5
20D
330
1B2
100
AcDbEntity
  8
0
100
AcDbBlockBegin
  2
e
 70
     0
 10
347.123169
 20
-224.215393
 30
0.0
  3
e
  1

  0
ELLIPSE
  5
1B3
330
1B2
100
AcDbEntity
  8
0
  6
Continuous
 62
     0
370
    30
100
AcDbEllipse
 10
405.177523
 20
-128.553922
 30
0.0
 11
7.659449734531807
 21
-18.85352300670039
 31
0.0
210
0.0
220
0.0
230
1.0
 40
0.586112
 41
0.3032425556195051
 42
2.565531906292307
  0
ELLIPSE
  5
1B4
330
1B2
100
AcDbEntity
  8
0
  6
Continuous
 62
     0
370
    30
100
AcDbEllipse
 10
405.177523
 20
-128.553922
 30
0.0
 11
7.659449734531807
 21
-18.85352300670039
 31
0.0
210
0.0
220
0.0
230
1.0
 40
0.586112
 41
2.565531906292307
 42
3.190060250420922
  0
ELLIPSE
  5
1B5
330
1B2
100
AcDbEntity
  8
0
  6
Continuous
 62
     0
370
    30
100
AcDbEllipse
 10
405.177523
 20
-128.553922
 30
0.0
 11
8.318124788516894
 21
-20.47483337685148
 31
0.0
210
0.0
220
0.0
230
1.0
 40
0.586112
 41
6.161879300457546
 42
8.84871721347189
  0
ELLIPSE
  5
1B6
330
1B2
100
AcDbEntity
  8
0
  6
Continuous
 62
     0
370
    30
100
AcDbEllipse
 10
405.177523
 20
-128.553922
 30
0.0
 11
8.318124788516894
 21
-20.47483337685148
 31
0.0
210
0.0
220
0.0
230
1.0
 40
0.586112
 41
2.565531906292303
 42
3.477020080554585
  0
ELLIPSE
  5
1B7
330
1B2
100
AcDbEntity
  8
0
  6
Continuous
 62
     0
370
     0
100
AcDbEllipse
 10
410.981103
 20
-106.734804
 30
0.0
 11
33.49833053431601
 21
-82.45521118409505
 31
0.0
210
0.0
220
0.0
230
1.0
 40
0.586112
 41
5.351574258552301
 42
10.41951354026679
  0
ELLIPSE
  5
1B8
330
1B2
100
AcDbEntity
  8
0
  6
Continuous
 62
     0
370
     0
100
AcDbEllipse
 10
410.981103
 20
-106.734804
 30
0.0
 11
33.49833053431601
 21
-82.45521118409505
 31
0.0
210
0.0
220
0.0
230
1.0
 40
0.586112
 41
4.136328233087202
 42
4.838000588352005
  0
ELLIPSE
  5
1B9
330
1B2
100
AcDbEntity
  8
0
  6
Continuous
 62
     0
370
     0
100
AcDbEllipse
 10
411.731751
 20
-106.429845
 30
0.0
 11
33.87471627065665
 21
-83.38167423110735
 31
0.0
210
0.0
220
0.0
230
1.0
 40
0.586112
 41
0.0000000314831246
 42
3.141594748348441
  0
ELLIPSE
  5
1BA
330
1B2
100
AcDbEntity
  8
0
  6
Continuous
 62
     0
370
    30
100
AcDbEllipse
 10
419.988882
 20
-103.075296
 30
0.0
 11
33.87471627065665
 21
-83.38167423110735
 31
0.0
210
0.0
220
0.0
230
1.0
 40
0.586112
 41
0.0000000314831246
 42
3.141592685072918
  0
ELLIPSE
  5
1BB
330
1B2
100
AcDbEntity
  8
0
  6
Continuous
 62
     0
370
    30
100
AcDbEllipse
 10
393.790009
 20
-89.73163
 30
0.0
 11
4.008508337558973
 21
-9.866832055049441
 31
0.0
210
0.0
220
0.0
230
1.0
 40
0.586112
 41
0.0
 42
6.283185307179586
  0
ELLIPSE
  5
1BC
330
1B2
100
AcDbEntity
  8
0
  6
Continuous
 62
     0
370
    30
100
AcDbEllipse
 10
393.863126
 20
-89.701926
 30
0.0
 11
4.121424062948033
 21
-10.14477098019744
 31
0.0
210
0.0
220
0.0
230
1.0
 40
0.586112
 41
5.622800847495792
 42
5.707124559882098
  0
ELLIPSE
  5
1BD
330
1B2
100
AcDbEntity
  8
0
  6
Continuous
 62
     0
370
    30
100
AcDbEllipse
 10
393.863126
 20
-89.701926
 30
0.0
 11
4.121424062948033
 21
-10.14477098019744
 31
0.0
210
0.0
220
0.0
230
1.0
 40
0.586112
 41
5.707124559882098
 42
10.08516223118465
  0
ELLIPSE
  5
1BE
330
1B2
100
AcDbEntity
  8
0
  6
Continuous
 62
     0
370
     0
100
AcDbEllipse
 10
397.167935
 20
-88.359311
 30
0.0
 11
4.121424062947964
 21
-10.14477098019727
 31
0.0
210
0.0
220
0.0
230
1.0
 40
0.586112
 41
0.0000000314831263
 42
3.141592685072919
  0
ELLIPSE
  5
1BF
330
1B2
100
AcDbEntity
  8
0
  6
Continuous
 62
     0
370
    30
100
AcDbEllipse
 10
408.802974
 20
-83.632449
 30
0.0
 11
3.349833191310973
 21
-8.245521457795752
 31
0.0
210
0.0
220
0.0
230
1.0
 40
0.586112
 41
2.823477162212382
 42
3.141592685072913
  0
ELLIPSE
  5
1C0
330
1B2
100
AcDbEntity
  8
0
  6
Continuous
 62
     0
370
    30
100
AcDbEllipse
 10
408.802974
 20
-83.632449
 30
0.0
 11
3.349833191310973
 21
-8.245521457795752
 31
0.0
210
0.0
220
0.0
230
1.0
 40
0.586112
 41
0.0000000314831263
 42
0.3181129842539736
  0
ELLIPSE
  5
1C1
330
1B2
100
AcDbEntity
  8
0
  6
Continuous
 62
     0
370
    30
100
AcDbEllipse
 10
408.802974
 20
-83.632449
 30
0.0
 11
3.575664322141699
 21
-8.801398520550119
 31
0.0
210
0.0
220
0.0
230
1.0
 40
0.586112
 41
3.21897193192974
 42
3.498899439727503
  0
ELLIPSE
  5
1C2
330
1B2
100
AcDbEntity
  8
0
  6
Continuous
 62
     0
370
    30
100
AcDbEllipse
 10
408.802974
 20
-83.632449
 30
0.0
 11
3.575664322141699
 21
-8.801398520550119
 31
0.0
210
0.0
220
0.0
230
1.0
 40
0.586112
 41
5.925878584008121
 42
6.205810950430629
  0
ELLIPSE
  5
1C3
330
1B2
100
AcDbEntity
  8
0
  6
Continuous
 62
     0
370
     0
100
AcDbEllipse
 10
408.015444
 20
-83.952392
 30
0.0
 11
3.5756643221417
 21
-8.801398520550119
 31
0.0
210
0.0
220
0.0
230
1.0
 40
0.586112
 41
3.141592684955633
 42
3.498899439727506
  0
ELLIPSE
  5
1C4
330
1B2
100
AcDbEntity
  8
0
  6
Continuous
 62
     0
370
     0
100
AcDbEllipse
 10
408.015444
 20
-83.952392
 30
0.0
 11
3.5756643221417
 21
-8.801398520550119
 31
0.0
210
0.0
220
0.0
230
1.0
 40
0.586112
 41
5.925878584008118
 42
6.283185338662715
  0
ELLIPSE
  5
1C5
330
1B2
100
AcDbEntity
  8
0
  6
Continuous
 62
     0
370
     0
100
AcDbEllipse
 10
407.827782
 20
-84.028632
 30
0.0
 11
3.669760756226857
 21
-9.033014282303196
 31
0.0
210
0.0
220
0.0
230
1.0
 40
0.586112
 41
5.86252772352257
 42
9.845435607392641
  0
ELLIPSE
  5
1C6
330
1B2
100
AcDbEntity
  8
0
  6
Continuous
 62
     0
370
    30
100
AcDbEllipse
 10
407.827782
 20
-84.028632
 30
0.0
 11
3.763857190312018
 21
-9.264630044056279
 31
0.0
210
0.0
220
0.0
230
1.0
 40
0.586112
 41
5.809734351498204
 42
9.898228979417011
  0
ELLIPSE
  5
1C7
330
1B2
100
AcDbEntity
  8
0
  6
Continuous
 62
     0
370
    30
100
AcDbEllipse
 10
408.57843
 20
-83.723673
 30
0.0
 11
4.140242926652245
 21
-10.19109309106759
 31
0.0
210
0.0
220
0.0
230
1.0
 40
0.586112
 41
5.654992684281216
 42
5.707124559882097
  0
ELLIPSE
  5
1C8
330
1B2
100
AcDbEntity
  8
0
  6
Continuous
 62
     0
370
    30
100
AcDbEllipse
 10
408.57843
 20
-83.723673
 30
0.0
 11
4.140242926652245
 21
-10.19109309106759
 31
0.0
210
0.0
220
0.0
230
1.0
 40
0.586112
 41
5.707124559882097
 42
10.05297064663399
  0
SPLINE
  5
1C9
330
1B2
100
AcDbEntity
  8
0
  6
Continuous
 62
     0
370
     0
100
AcDbSpline
210
0.0
220
0.0
230
1.0
 70
     8
 71
     3
 72
    14
 73
    10
 74
     0
 42
0.000000001
 43
0.0
 40
0.0
 40
0.0
 40
0.0
 40
0.0
 40
4.985091455020036
 40
9.970147469987417
 40
14.95499429598457
 40
19.93965986576175
 40
24.92412306109085
 40
29.90843907769888
 40
34.89265281904024
 40
34.89265281904024
 40
34.89265281904024
 40
34.89265281904024
 10
397.0341767748997
 20
-144.9417884212794
 30
0.0
 10
397.2262704103323
 20
-143.3896644197315
 30
0.0
 10
397.3500372284418
 20
-140.1578521205125
 30
0.0
 10
396.8072322360028
 20
-135.1893819906427
 30
0.0
 10
395.5428573610207
 20
-130.3353202100406
 30
0.0
 10
393.6178065298571
 20
-125.8407851831766
 30
0.0
 10
391.1216051419266
 20
-121.9369531556621
 30
0.0
 10
388.1808733765934
 20
-118.8327119705141
 30
0.0
 10
386.0194685749988
 20
-117.4056981506609
 30
0.0
 10
384.9222706887203
 20
-116.8746047746843
 30
0.0
  0
SPLINE
  5
1CA
330
1B2
100
AcDbEntity
  8
0
  6
Continuous
 62
     0
370
     0
100
AcDbSpline
210
0.0
220
0.0
230
1.0
 70
     8
 71
     3
 72
    10
 73
     6
 74
     0
 42
0.000000001
 43
0.0
 40
0.0
 40
0.0
 40
0.0
 40
0.0
 40
4.98421374134114
 40
9.968529757949064
 40
12.66285210386311
 40
12.66285210386311
 40
12.66285210386311
 40
12.66285210386311
 10
384.9222706887202
 20
-116.8746047746842
 30
0.0
 10
383.8250728024418
 20
-116.3435113987077
 30
0.0
 10
381.580958646932
 20
-115.6380548910875
 30
0.0
 10
378.7814285314586
 20
-115.7063261098349
 30
0.0
 10
377.1725561722525
 20
-116.1920327010882
 30
0.0
 10
376.6231127732884
 20
-116.4152895143292
 30
0.0
  0
ARC
  5
1CB
330
1B2
100
AcDbEntity
  8
0
  6
Continuous
 62
     0
370
    30
100
AcDbCircle
 10
410.152309
 20
-136.874221
 30
0.0
 40
7.250266437840702
100
AcDbArc
 50
0.640859
 51
24.753111
  0
LINE
  5
1CC
330
1B2
100
AcDbEntity
  8
0
  6
Continuous
 62
     0
370
     0
100
AcDbLine
 10
398.73283
 20
-147.313704
 30
0.0
 11
397.433225
 21
-147.800354
 31
0.0
  0
SPLINE
  5
1CD
330
1B2
100
AcDbEntity
  8
0
  6
Continuous
 62
     0
370
     0
100
AcDbSpline
210
0.0
220
0.0
230
1.0
 70
     8
 71
     3
 72
    11
 73
     7
 74
     0
 42
0.000000001
 43
0.0
 40
0.0
 40
0.0
 40
0.0
 40
0.0
 40
1.612020921592817
 40
3.224116834552431
 40
6.44818337938824
 40
9.079859061722496
 40
9.079859061722496
 40
9.079859061722496
 40
9.079859061722496
 10
397.4332247421921
 20
-147.8003539254983
 30
0.0
 10
397.3351970234539
 20
-148.2800152749849
 30
0.0
 10
397.0876958721842
 20
-149.2123998384461
 30
0.0
 10
396.6447590475047
 20
-151.0953700321309
 30
0.0
 10
396.0990573572501
 20
-153.2593418818944
 30
0.0
 10
395.6721204250792
 20
-154.9563699812916
 30
0.0
 10
395.4807165222726
 20
-155.7192491395898
 30
0.0
  0
SPLINE
  5
1CE
330
1B2
100
AcDbEntity
  8
0
  6
Continuous
 62
     0
370
     0
100
AcDbSpline
210
0.0
220
0.0
230
1.0
 70
     8
 71
     3
 72
     8
 73
     4
 74
     0
 42
0.000000001
 43
0.0
 40
0.0
 40
0.0
 40
0.0
 40
0.0
 40
3.675194520389776
 40
3.675194520389776
 40
3.675194520389776
 40
3.675194520389776
 10
396.3402743874759
 20
-148.2367778709304
 30
0.0
 10
396.5714332407982
 20
-147.138407097262
 30
0.0
 10
396.8849781468804
 20
-146.0871798973312
 30
0.0
 10
397.0341482031678
 20
-144.9417742741384
 30
0.0
  0
SPLINE
  5
1CF
330
1B2
100
AcDbEntity
  8
0
  6
Continuous
 62
     0
370
     0
100
AcDbSpline
210
0.0
220
0.0
230
1.0
 70
     8
 71
     7
 72
    26
 73
    18
 74
     0
 42
0.000000001
 43
0.0
 40
-0.0000000000000264
 40
-0.0000000000000264
 40
-0.0000000000000264
 40
-0.0000000000000264
 40
-0.0000000000000264
 40
-0.0000000000000264
 40
-0.0000000000000264
 40
-0.0000000000000264
 40
0.3899999999999839
 40
0.3899999999999839
 40
0.3899999999999839
 40
0.3899999999999839
 40
0.3899999999999839
 40
0.6436379999999904
 40
0.6436379999999904
 40
0.6436379999999904
 40
0.6436379999999904
 40
0.6436379999999904
 40
0.6931274597220138
 40
0.6931274597220138
 40
0.6931274597220138
 40
0.6931274597220138
 40
0.6931274597220138
 40
0.6931274597220138
 40
0.6931274597220138
 40
0.6931274597220138
 10
392.1339206804834
 20
-168.210587860276
 30
0.0
 10
392.2245138448555
 20
-168.1938207374914
 30
0.0
 10
392.3083049799952
 20
-168.1726033744653
 30
0.0
 10
392.3869029597562
 20
-168.1494626394331
 30
0.0
 10
392.4639214330292
 20
-168.1251187005221
 30
0.0
 10
392.5369581633668
 20
-168.1010719440105
 30
0.0
 10
392.6543575955563
 20
-168.0621785158883
 30
0.0
 10
392.765238432928
 20
-168.0233776842175
 30
0.0
 10
392.8081618303146
 20
-168.0081112686031
 30
0.0
 10
392.8478475339443
 20
-167.9919899824829
 30
0.0
 10
392.8864447102914
 20
-167.9759802008786
 30
0.0
 10
392.9262096480615
 20
-167.953772691525
 30
0.0
 10
392.950116745871
 20
-167.9252242036043
 30
0.0
 10
392.9535533474046
 20
-167.9203802525088
 30
0.0
 10
392.9564862119914
 20
-167.9153424302282
 30
0.0
 10
392.9588757194315
 20
-167.9101012249796
 30
0.0
 10
392.9606849496206
 20
-167.90465021219
 30
0.0
 10
392.9618855526103
 20
-167.8989874351346
 30
0.0
  0
LINE
  5
1D0
330
1B2
100
AcDbEntity
  8
0
  6
Continuous
 62
     0
370
     0
100
AcDbLine
 10
396.340279
 20
-148.236781
 30
0.0
 11
392.133921
 21
-168.210588
 31
0.0
  0
LINE
  5
1D1
330
1B2
100
AcDbEntity
  8
0
  6
Continuous
 62
     0
370
     0
100
AcDbLine
 10
392.133921
 20
-168.210588
 30
0.0
 11
386.189773
 21
-196.439434
 31
0.0
  0
SPLINE
  5
1D2
330
1B2
100
AcDbEntity
  8
0
  6
Continuous
 62
     0
370
     0
100
AcDbSpline
210
0.0
220
0.0
230
1.0
 70
     8
 71
     7
 72
    21
 73
    13
 74
     0
 42
0.000000001
 43
0.0
 40
0.0
 40
0.0
 40
0.0
 40
0.0
 40
0.0
 40
0.0
 40
0.0
 40
0.0
 40
0.4874999999999879
 40
0.4874999999999879
 40
0.4874999999999879
 40
0.4874999999999879
 40
0.4874999999999879
 40
0.700954680500282
 40
0.700954680500282
 40
0.700954680500282
 40
0.700954680500282
 40
0.700954680500282
 40
0.700954680500282
 40
0.700954680500282
 40
0.700954680500282
 10
386.1897734906439
 20
-196.4394338517843
 30
0.0
 10
386.310552586953
 20
-196.4170983043759
 30
0.0
 10
386.4279278689448
 20
-196.3932140240011
 30
0.0
 10
386.5411358371715
 20
-196.3674531955923
 30
0.0
 10
386.6490918988283
 20
-196.3393229630644
 30
0.0
 10
386.7501630965358
 20
-196.3082746188357
 30
0.0
 10
386.8818750206675
 20
-196.2578237229545
 30
0.0
 10
386.9813962532014
 20
-196.1959626463418
 30
0.0
 10
387.0082011249337
 20
-196.1759409517845
 30
0.0
 10
387.0308892623872
 20
-196.15461581539
 30
0.0
 10
387.0486456893551
 20
-196.1318353887632
 30
0.0
 10
387.0605377964372
 20
-196.1075444814877
 30
0.0
 10
387.0658894338052
 20
-196.08183353902
 30
0.0
  0
SPLINE
  5
1D3
330
1B2
100
AcDbEntity
  8
0
  6
Continuous
 62
     0
370
     0
100
AcDbSpline
210
0.0
220
0.0
230
1.0
 70
     8
 71
     3
 72
     8
 73
     4
 74
     0
 42
0.000000001
 43
0.0
 40
0.0
 40
0.0
 40
0.0
 40
0.0
 40
3.653222443064005
 40
3.653222443064005
 40
3.653222443064005
 40
3.653222443064005
 10
395.0308969227333
 20
-144.7364224432008
 30
0.0
 10
394.88409999793
 20
-145.873864126415
 30
0.0
 10
394.5710212907005
 20
-146.9203478908722
 30
0.0
 10
394.3410410452561
 20
-148.0114510612225
 30
0.0
  0
LINE
  5
1D4
330
1B2
100
AcDbEntity
  8
0
  6
Continuous
 62
     0
370
     0
100
AcDbLine
 10
394.341041
 20
-148.011451
 30
0.0
 11
384.2103
 21
-196.094829
 31
0.0
  0
SPLINE
  5
1D5
330
1B2
100
AcDbEntity
  8
0
  6
Continuous
 62
     0
370
     0
100
AcDbSpline
210
0.0
220
0.0
230
1.0
 70
     8
 71
     3
 72
    14
 73
    10
 74
     0
 42
0.000000001
 43
0.0
 40
0.0
 40
0.0
 40
0.0
 40
0.0
 40
3.357648776850969
 40
6.714049718873458
 40
10.06778576981204
 40
13.4176008828416
 40
16.7644510004888
 40
20.11421126264104
 40
23.46800661547983
 40
23.46800661547983
 40
23.46800661547983
 40
23.46800661547983
 10
384.2103001479102
 20
-196.0948285606387
 30
0.0
 10
383.9975672112989
 20
-197.0967689265051
 30
0.0
 10
383.5043134186361
 20
-199.0596635687327
 30
0.0
 10
382.5150303980907
 20
-201.797527132098
 30
0.0
 10
381.2024050914303
 20
-204.1909774902436
 30
0.0
 10
379.500016162582
 20
-206.003940379685
 30
0.0
 10
377.4256981241865
 20
-206.9212973885558
 30
0.0
 10
375.1740548204473
 20
-206.8608335014593
 30
0.0
 10
373.6712387067208
 20
-206.3153555617467
 30
0.0
 10
372.9329521493502
 20
-205.9579922870003
 30
0.0
  0
SPLINE
  5
1D6
330
1B2
100
AcDbEntity
  8
0
  6
Continuous
 62
     0
370
     0
100
AcDbSpline
210
0.0
220
0.0
230
1.0
 70
     8
 71
     3
 72
    44
 73
    40
 74
     0
 42
0.000000001
 43
0.0
 40
0.0000895826433184
 40
0.0000895826433184
 40
0.0000895826433184
 40
0.0000895826433184
 40
1.455705552506579
 40
2.911589491455752
 40
5.824081540223627
 40
8.738562618644004
 40
11.65580985319745
 40
14.57578990662235
 40
16.03659608486232
 40
17.49778930288207
 40
20.42097080381651
 40
23.34485787363343
 40
29.19406413399674
 40
35.04490031177655
 40
40.89750583144499
 40
46.75217532138652
 40
52.60924050521431
 40
58.46889873474117
 40
61.39961580462718
 40
64.3307164339991
 40
67.26188709626257
 40
67.99463745970205
 40
68.72736871185101
 40
69.46006464945697
 40
70.192677557325
 40
70.92522637029062
 40
71.65766554636134
 40
72.38986921751011
 40
73.12154096573981
 40
73.85284092927583
 40
74.58380294677747
 40
76.04479523316759
 40
78.96357029080804
 40
81.87875183536413
 40
84.79115651375291
 40
87.70151606648814
 40
90.61036732559818
 40
92.064314958274
 40
93.51784755774796
 40
93.51784755774796
 40
93.51784755774796
 40
93.51784755774796
 10
372.9329521493502
 20
-205.9579922870003
 30
0.0
 10
372.9330795373866
 20
-205.5189400770462
 30
0.0
 10
372.933334661719
 20
-204.6407547053089
 30
0.0
 10
372.9549628964327
 20
-202.8759396036071
 30
0.0
 10
373.0295090921877
 20
-200.6520702251898
 30
0.0
 10
373.2024739267401
 20
-197.9553218402605
 30
0.0
 10
373.4434532263137
 20
-195.2368080230538
 30
0.0
 10
373.6828482576157
 20
-192.9598174108536
 30
0.0
 10
373.88733371554
 20
-191.13407972838
 30
0.0
 10
374.0935384380339
 20
-189.3066778154073
 30
0.0
 10
374.3439979161458
 20
-187.0226037765582
 30
0.0
 10
374.7437472228842
 20
-183.3671297032756
 30
0.0
 10
375.233015266108
 20
-178.7994263354972
 30
0.0
 10
375.8196475906622
 20
-173.3189842434422
 30
0.0
 10
376.4132170760368
 20
-167.8366421913643
 30
0.0
 10
377.0237665267682
 20
-162.3494864191936
 30
0.0
 10
377.6612611538907
 20
-156.8547418577779
 30
0.0
 10
378.2225736261374
 20
-152.2681879109834
 30
0.0
 10
378.6948767543336
 20
-148.5937433163662
 30
0.0
 10
379.0616330145868
 20
-145.8354886736645
 30
0.0
 10
379.3469523035398
 20
-143.7656402067971
 30
0.0
 10
379.5418829776872
 20
-142.3854459939816
 30
0.0
 10
379.6402638165459
 20
-141.6953675699875
 30
0.0
 10
379.7395846181223
 20
-141.0053163840341
 30
0.0
 10
379.8398815931186
 20
-140.3152407131124
 30
0.0
 10
379.9411603269343
 20
-139.6252472589727
 30
0.0
 10
380.0434246604648
 20
-138.9353322283089
 30
0.0
 10
380.1466664800309
 20
-138.2456272288939
 30
0.0
 10
380.2509633175656
 20
-137.5557306865434
 30
0.0
 10
380.3562674170218
 20
-136.8660571932808
 30
0.0
 10
380.4980595648096
 20
-135.9468424172851
 30
0.0
 10
380.7497195219848
 20
-134.3392090950281
 30
0.0
 10
381.122238675526
 20
-132.0430696058252
 30
0.0
 10
381.5819536472718
 20
-129.2895600897313
 30
0.0
 10
382.0810493490079
 20
-126.5358907651526
 30
0.0
 10
382.624301696652
 20
-123.782149076988
 30
0.0
 10
383.1135609394137
 20
-121.4875444220821
 30
0.0
 10
383.5228858816675
 20
-119.652554961186
 30
0.0
 10
383.7326984561581
 20
-118.7353796230494
 30
0.0
 10
383.83758984833
 20
-118.2768574174425
 30
0.0
  0
SPLINE
  5
1D7
330
1B2
100
AcDbEntity
  8
0
  6
Continuous
 62
     0
370
     0
100
AcDbSpline
210
0.0
220
0.0
230
1.0
 70
     8
 71
     3
 72
    14
 73
    10
 74
     0
 42
0.000000001
 43
0.0
 40
0.0
 40
0.0
 40
0.0
 40
0.0
 40
4.69023605813217
 40
9.37981662551812
 40
14.07059875637071
 40
18.76087985973196
 40
23.45161344181452
 40
28.14254872602786
 40
32.83347914028617
 40
32.83347914028617
 40
32.83347914028617
 40
32.83347914028617
 10
383.8375903760227
 20
-118.2768576728727
 30
0.0
 10
384.8700740934797
 20
-118.7766262450707
 30
0.0
 10
386.9004926177996
 20
-120.1211254319779
 30
0.0
 10
389.651346391857
 20
-123.0484382761135
 30
0.0
 10
391.9741682447679
 20
-126.7297531742638
 30
0.0
 10
393.7511226678724
 20
-130.9675469932603
 30
0.0
 10
394.90018939396
 20
-135.5434902354387
 30
0.0
 10
395.3714772830959
 20
-140.2248332613291
 30
0.0
 10
395.2193919213325
 20
-143.2758872939104
 30
0.0
 10
395.0308969227349
 20
-144.7364224431909
 30
0.0
  0
ARC
  5
1D8
330
1B2
100
AcDbEntity
  8
0
  6
Continuous
 62
     0
370
     0
100
AcDbCircle
 10
385.762618
 20
-193.035407
 30
0.0
 40
3.430723641253823
100
AcDbArc
 50
243.09697
 51
277.152247
  0
ARC
  5
1D9
330
1B2
100
AcDbEntity
  8
0
  6
Continuous
 62
     0
370
     0
100
AcDbCircle
 10
385.817243
 20
-118.687531
 30
0.0
 40
2.021800369584042
100
AcDbArc
 50
116.273787
 51
168.28038
  0
ARC
  5
1DA
330
1B2
100
AcDbEntity
  8
0
  6
Continuous
 62
     0
370
     0
100
AcDbCircle
 10
373.938269
 20
-206.049547
 30
0.0
 40
1.009486667173519
100
AcDbArc
 50
174.796238
 51
239.325389
  0
SPLINE
  5
1DB
330
1B2
100
AcDbEntity
  8
0
  6
Continuous
 62
     0
370
     0
100
AcDbSpline
210
0.0
220
0.0
230
1.0
 70
     8
 71
     3
 72
     8
 73
     4
 74
     0
 42
0.000000001
 43
0.0
 40
0.0
 40
0.0
 40
0.0
 40
0.0
 40
3.653222443064025
 40
3.653222443064025
 40
3.653222443064025
 40
3.653222443064025
 10
367.7120794638865
 20
-131.5128798413115
 30
0.0
 10
367.5804560457343
 20
-132.6576661876744
 30
0.0
 10
367.6062334990984
 20
-133.8681716519046
 30
0.0
 10
367.5553726673743
 20
-135.0459767156154
 30
0.0
  0
LINE
  5
1DC
330
1B2
100
AcDbEntity
  8
0
  6
Continuous
 62
     0
370
     0
100
AcDbLine
 10
367.555373
 20
-135.045977
 30
0.0
 11
365.251274
 21
-186.917803
 31
0.0
  0
SPLINE
  5
1DD
330
1B2
100
AcDbEntity
  8
0
  6
Continuous
 62
     0
370
     0
100
AcDbSpline
210
0.0
220
0.0
230
1.0
 70
     8
 71
     3
 72
    14
 73
    10
 74
     0
 42
0.000000001
 43
0.0
 40
0.0
 40
0.0
 40
0.0
 40
0.0
 40
4.69023605804528
 40
9.379816625478341
 40
14.07059875641934
 40
18.76087985972481
 40
23.45161344182406
 40
28.14254872603607
 40
32.83347914028535
 40
32.83347914028535
 40
32.83347914028535
 40
32.83347914028535
 10
383.8375903761361
 20
-118.2768576729275
 30
0.0
 10
382.805107639046
 20
-117.7770891339635
 30
0.0
 10
380.6901024119266
 20
-117.1150158306029
 30
0.0
 10
377.5647988840208
 20
-117.1980029079005
 30
0.0
 10
374.6428378425942
 20
-118.3406057937987
 30
0.0
 10
372.0742144776927
 20
-120.4749435209235
 30
0.0
 10
369.9819895462302
 20
-123.4819550776508
 30
0.0
 10
368.4706368514582
 20
-127.2036104353457
 30
0.0
 10
367.8810908791681
 20
-130.0429137569288
 30
0.0
 10
367.7120794638873
 20
-131.5128798413012
 30
0.0
  0
ARC
  5
1DE
330
1B2
100
AcDbEntity
  8
0
  6
Continuous
 62
     0
370
     0
100
AcDbCircle
 10
367.861342
 20
-131.148437
 30
0.0
 40
0.393802017330811
100
AcDbArc
 50
185.698242
 51
247.733807
  0
SPLINE
  5
1DF
330
1B2
100
AcDbEntity
  8
0
  6
Continuous
 62
     0
370
     0
100
AcDbSpline
210
0.0
220
0.0
230
1.0
 70
     8
 71
     3
 72
    12
 73
     8
 74
     0
 42
0.000000001
 43
0.0
 40
10.554154211969
 40
10.554154211969
 40
10.554154211969
 40
10.554154211969
 40
12.91498592349899
 40
17.2229963951179
 40
21.53124926575671
 40
25.83887154380674
 40
30.14462411466932
 40
30.14462411466932
 40
30.14462411466932
 40
30.14462411466932
 10
398.335440164874
 20
-155.073014967615
 30
0.0
 10
398.5184741690479
 20
-154.9986537721506
 30
0.0
 10
398.9597328535954
 20
-154.7073811967249
 30
0.0
 10
399.3665153674277
 20
-153.8594481383361
 30
0.0
 10
399.4460502037162
 20
-152.3089350699021
 30
0.0
 10
399.2127677347562
 20
-150.1881868255401
 30
0.0
 10
398.9064450075074
 20
-148.3601620175
 30
0.0
 10
398.7370206659704
 20
-147.3393766508056
 30
0.0
  0
LINE
  5
1E0
330
1B2
100
AcDbEntity
  8
0
  6
Continuous
 62
     0
370
     0
100
AcDbLine
 10
398.737021
 20
-147.339377
 30
0.0
 11
398.732652
 21
-147.313717
 31
0.0
  0
ARC
  5
1E1
330
1B2
100
AcDbEntity
  8
0
  6
Continuous
 62
     0
370
     0
100
AcDbCircle
 10
396.451381
 20
-140.75386
 30
0.0
 40
4.22828474481417
100
AcDbArc
 50
250.370304
 51
277.922451
  0
LINE
  5
1E2
330
1B2
100
AcDbEntity
  8
0
  6
Continuous
 62
     0
370
     0
100
AcDbLine
 10
398.732652
 20
-147.313717
 30
0.0
 11
398.672289
 21
-146.978605
 31
0.0
  0
ARC
  5
1E3
330
1B2
100
AcDbEntity
  8
0
  6
Continuous
 62
     0
370
     0
100
AcDbCircle
 10
377.680216
 20
-150.988926
 30
0.0
 40
21.37170542792128
100
AcDbArc
 50
10.815455
 51
17.312294
  0
LINE
  5
1E4
330
1B2
100
AcDbEntity
  8
0
  6
Continuous
 62
     0
370
     0
100
AcDbLine
 10
398.083719
 20
-144.62914
 30
0.0
 11
397.034177
 21
-144.941788
 31
0.0
  0
ARC
  5
1E5
330
1B2
100
AcDbEntity
  8
0
  6
Continuous
 62
     0
370
     0
100
AcDbCircle
 10
395.78803
 20
-144.15329
 30
0.0
 40
4.120664886292211
100
AcDbArc
 50
249.440157
 51
277.701928
  0
SPLINE
  5
1E6
330
1B2
100
AcDbEntity
  8
0
  6
Continuous
 62
     0
370
     0
100
AcDbSpline
210
0.0
220
0.0
230
1.0
 70
     8
 71
     3
 72
    14
 73
    10
 74
     0
 42
0.000000001
 43
0.0
 40
0.0
 40
0.0
 40
0.0
 40
0.0
 40
3.357659727039317
 40
6.714168333140146
 40
10.06786817318082
 40
13.41762334460883
 40
16.76451129115895
 40
20.11429153093615
 40
23.46810869271241
 40
23.46810869271241
 40
23.46810869271241
 40
23.46810869271241
 10
365.2512450815477
 20
-186.9178066626079
 30
0.0
 10
365.2060654654744
 20
-188.0007810522352
 30
0.0
 10
365.180697193889
 20
-190.1903663057245
 30
0.0
 10
365.4161214367724
 20
-193.5208732509809
 30
0.0
 10
366.0171137875746
 20
-196.8406884645608
 30
0.0
 10
367.1013506571081
 20
-200.0025640207502
 30
0.0
 10
368.724348462151
 20
-202.7097135481458
 30
0.0
 10
370.7349311894056
 20
-204.7125229177586
 30
0.0
 10
372.1945457280516
 20
-205.6006767291317
 30
0.0
 10
372.9329607350277
 20
-205.9579965127159
 30
0.0
  0
LINE
  5
1E7
330
1B2
100
AcDbEntity
  8
0
  6
Continuous
 62
     0
370
     0
100
AcDbLine
 10
397.433386
 20
-147.80046
 30
0.0
 11
396.340274
 21
-148.236778
 31
0.0
  0
ARC
  5
1E8
330
1B2
100
AcDbEntity
  8
0
  6
Continuous
 62
     0
370
     0
100
AcDbCircle
 10
367.701279
 20
-134.677438
 30
0.0
 40
0.3964531019130245
100
AcDbArc
 50
189.806503
 51
248.379191
  0
SPLINE
  5
1E9
330
1B2
100
AcDbEntity
  8
0
  6
Continuous
 62
     0
370
     0
100
AcDbSpline
210
0.0
220
0.0
230
1.0
 70
     8
 71
     7
 72
    31
 73
    23
 74
     0
 42
0.000000001
 43
0.0
 40
0.0
 40
0.0
 40
0.0
 40
0.0
 40
0.0
 40
0.0
 40
0.0
 40
0.0
 40
0.11
 40
0.11
 40
0.11
 40
0.11
 40
0.11
 40
0.55
 40
0.55
 40
0.55
 40
0.55
 40
0.55
 40
0.65
 40
0.65
 40
0.65
 40
0.65
 40
0.65
 40
0.7161454017039829
 40
0.7161454017039829
 40
0.7161454017039829
 40
0.7161454017039829
 40
0.7161454017039829
 40
0.7161454017039829
 40
0.7161454017039829
 40
0.7161454017039829
 10
386.1897734906439
 20
-196.4394338517843
 30
0.0
 10
386.1136097058768
 20
-196.7971297574669
 30
0.0
 10
386.0342997262723
 20
-197.1527521435989
 30
0.0
 10
385.9516793547957
 20
-197.5061186655253
 30
0.0
 10
385.8657142045667
 20
-197.8571217508488
 30
0.0
 10
385.7762061791331
 20
-198.2055326016066
 30
0.0
 10
385.3103802870473
 20
-199.9336663660051
 30
0.0
 10
384.7496456408548
 20
-201.5865455716308
 30
0.0
 10
384.2308634684194
 20
-202.8460626533497
 30
0.0
 10
383.6324756114266
 20
-204.0209589908105
 30
0.0
 10
382.9392677012252
 20
-205.0833501125807
 30
0.0
 10
381.9645279790803
 20
-206.1801070257756
 30
0.0
 10
380.85947093065
 20
-206.9729893374956
 30
0.0
 10
380.6505187417204
 20
-207.108992267003
 30
0.0
 10
380.4374529520979
 20
-207.233770673122
 30
0.0
 10
380.2205618154619
 20
-207.3471754390898
 30
0.0
 10
379.8542768177998
 20
-207.5161860485813
 30
0.0
 10
379.4790336704172
 20
-207.6528052036019
 30
0.0
 10
379.328315994325
 20
-207.7020451439151
 30
0.0
 10
379.1763632943542
 20
-207.7461125803816
 30
0.0
 10
379.0232723327858
 20
-207.7850142771712
 30
0.0
 10
378.869141567924
 20
-207.8187777577038
 30
0.0
 10
378.7140685511556
 20
-207.8474457084389
 30
0.0
  0
SPLINE
  5
1EA
330
1B2
100
AcDbEntity
  8
0
  6
Continuous
 62
     0
370
    30
100
AcDbSpline
210
0.0
220
0.0
230
1.0
 70
    12
 71
     2
 72
     6
 73
     3
 74
     0
 42
0.000000001
 43
0.0
 40
0.7524381832684824
 40
0.7524381832684824
 40
0.7524381832684824
 40
0.9067811941142282
 40
0.9067811941142282
 40
0.9067811941142282
 10
417.4021221360231
 20
-136.7931280938172
 30
0.0
 41
0.9943426987825532
 10
417.5280374993098
 20
-147.2823775188772
 30
0.0
 41
0.8170456718591996
 10
411.1446960896303
 20
-149.8691315595232
 30
0.0
 41
0.8630201146244367
  0
SPLINE
  5
1EB
330
1B2
100
AcDbEntity
  8
0
  6
Continuous
 62
     0
370
    30
100
AcDbSpline
210
0.0
220
0.0
230
1.0
 70
     8
 71
     3
 72
    12
 73
     8
 74
     0
 42
0.000000001
 43
0.0
 40
19.43376338486331
 40
19.43376338486331
 40
19.43376338486331
 40
19.43376338486331
 40
27.52979576487102
 40
36.69302645961227
 40
45.86094439878419
 40
55.03829037776859
 40
64.22280851227431
 40
64.22280851227431
 40
64.22280851227431
 40
64.22280851227431
 10
389.9454203476674
 20
-111.0037793819785
 30
0.0
 10
390.9966819052878
 20
-110.5766928045443
 30
0.0
 10
393.893161097816
 20
-110.518354325141
 30
0.0
 10
399.9108360981995
 20
-113.4311896651151
 30
0.0
 10
406.6741435495103
 20
-119.1770531396563
 30
0.0
 10
412.6857546994385
 20
-126.4225259466877
 30
0.0
 10
415.6313693430018
 20
-131.4666205542185
 30
0.0
 10
416.7364243806708
 20
-133.8384691996791
 30
0.0
  0
ARC
  5
1EC
330
1B2
100
AcDbEntity
  8
0
  6
Continuous
 62
     0
370
     0
100
AcDbCircle
 10
365.309497
 20
-186.600332
 30
0.0
 40
0.3227749845925559
100
AcDbArc
 50
196.623738
 51
259.60271
  0
ELLIPSE
  5
1ED
330
1B2
100
AcDbEntity
  8
0
  6
Continuous
 62
     0
370
    30
100
AcDbEllipse
 10
410.455048
 20
-82.961276
 30
0.0
 11
4.140242926652245
 21
-10.19109309106759
 31
0.0
210
0.0
220
0.0
230
1.0
 40
0.586112
 41
0.0000000314831281
 42
3.141592685072921
  0
ELLIPSE
  5
1EE
330
1B2
100
AcDbEntity
  8
0
  6
Continuous
 62
     0
370
    30
100
AcDbEllipse
 10
411.407904
 20
-126.022762
 30
0.0
 11
8.318124788516894
 21
-20.47483337685148
 31
0.0
210
0.0
220
0.0
230
1.0
 40
0.586112
 41
0.0000000314831219
 42
2.565531906292303
  0
ELLIPSE
  5
1EF
330
1B2
100
AcDbEntity
  8
0
  6
Continuous
 62
     0
370
    30
100
AcDbEllipse
 10
411.407904
 20
-126.022762
 30
0.0
 11
8.318124788516894
 21
-20.47483337685148
 31
0.0
210
0.0
220
0.0
230
1.0
 40
0.586112
 41
2.565531906292303
 42
3.141592685072919
  0
LINE
  5
1F0
330
1B2
100
AcDbEntity
  8
0
  6
Continuous
 62
     0
370
    30
100
AcDbLine
 10
396.859398
 20
-108.079089
 30
0.0
 11
403.089778
 21
-105.547928
 31
0.0
  0
LINE
  5
1F1
330
1B2
100
AcDbEntity
  8
0
  6
Continuous
 62
     0
370
    30
100
AcDbLine
 10
413.495648
 20
-149.028755
 30
0.0
 11
419.726029
 21
-146.497595
 31
0.0
  0
ARC
  5
1F2
330
1B2
100
AcDbEntity
  8
0
  6
Continuous
 62
     0
370
    30
100
AcDbCircle
 10
406.247647
 20
-128.224293
 30
0.0
 40
20.49357297550218
100
AcDbArc
 50
116.849682
 51
123.893735
  0
LINE
  5
1F3
330
1B2
100
AcDbEntity
  8
0
  6
Continuous
 62
     0
370
    30
100
AcDbLine
 10
412.718673
 20
-93.914766
 30
0.0
 11
414.595291
 21
-93.152369
 31
0.0
  0
LINE
  5
1F4
330
1B2
100
AcDbEntity
  8
0
  6
Continuous
 62
     0
370
    30
100
AcDbLine
 10
404.438187
 20
-73.53258
 30
0.0
 11
406.314805
 21
-72.770183
 31
0.0
  0
SPLINE
  5
1F5
330
1B2
100
AcDbEntity
  8
0
  6
Continuous
 62
     0
370
    30
100
AcDbSpline
210
0.0
220
0.0
230
1.0
 70
     8
 71
     3
 72
    21
 73
    17
 74
     0
 42
0.000000001
 43
0.0
 40
0.0
 40
0.0
 40
0.0
 40
0.0
 40
1.493250024732059
 40
4.312021055918405
 40
6.746583782778787
 40
9.221132215607758
 40
11.17137783632291
 40
13.30346917918768
 40
15.43936400714277
 40
17.57791094442217
 40
19.71513817094348
 40
21.67083563516352
 40
23.79412087796764
 40
25.85767200112386
 40
28.48286590786494
 40
30.04509032785287
 40
30.04509032785287
 40
30.04509032785287
 40
30.04509032785287
 10
411.5911080626641
 20
-92.75379030515978
 30
0.0
 10
411.8473934091074
 20
-92.64967156584112
 30
0.0
 10
412.5483309164686
 20
-92.24963263600688
 30
0.0
 10
413.4364334885505
 20
-91.18210724632223
 30
0.0
 10
414.0701665970091
 20
-89.41467093713425
 30
0.0
 10
414.2629271442638
 20
-87.50146958879589
 30
0.0
 10
414.113720267216
 20
-85.49000541195898
 30
0.0
 10
413.6858562839694
 20
-83.50838386881816
 30
0.0
 10
412.9579382116738
 20
-81.48990511047134
 30
0.0
 10
411.978262884962
 20
-79.59466644448594
 30
0.0
 10
410.8301729627466
 20
-77.96688980411119
 30
0.0
 10
409.554251324548
 20
-76.62599574923195
 30
0.0
 10
408.223114966666
 20
-75.6383553039484
 30
0.0
 10
406.744876215943
 20
-74.9797674773177
 30
0.0
 10
405.4685688847193
 20
-74.85021154055278
 30
0.0
 10
404.7078789034297
 20
-75.04207490112611
 30
0.0
 10
404.4397790941677
 20
-75.15099339577466
 30
0.0
  0
LINE
  5
1F6
330
1B2
100
AcDbEntity
  8
0
  6
Continuous
 62
     0
370
    30
100
AcDbLine
 10
412.378638
 20
-92.433848
 30
0.0
 11
411.591108
 21
-92.75379
 31
0.0
  0
LINE
  5
1F7
330
1B2
100
AcDbEntity
  8
0
  6
Continuous
 62
     0
370
    30
100
AcDbLine
 10
404.060749
 20
-95.165458
 30
0.0
 11
412.152807
 21
-91.877971
 31
0.0
  0
LINE
  5
1F8
330
1B2
100
AcDbEntity
  8
0
  6
Continuous
 62
     0
370
    30
100
AcDbLine
 10
397.360979
 20
-78.674457
 30
0.0
 11
405.45314
 21
-75.386928
 31
0.0
  0
SPLINE
  5
1F9
330
1B2
100
AcDbEntity
  8
0
  6
Continuous
 62
     0
370
    30
100
AcDbSpline
210
0.0
220
0.0
230
1.0
 70
     8
 71
     3
 72
    21
 73
    17
 74
     0
 42
0.000000001
 43
0.0
 40
0.0
 40
0.0
 40
0.0
 40
0.0
 40
1.909425393372762
 40
4.921133124665249
 40
6.90054985364002
 40
10.43656223701446
 40
12.69681970768245
 40
15.16723238842706
 40
17.63328779186379
 40
20.09615311115892
 40
22.56082847235461
 40
24.82452771232256
 40
27.84257611034067
 40
29.52876436150406
 40
32.27721500075597
 40
34.17354524816294
 40
34.17354524816294
 40
34.17354524816294
 40
34.17354524816294
 10
401.2893587950007
 20
-98.50408183058191
 30
0.0
 10
401.65230677163
 20
-98.35663022303417
 30
0.0
 10
402.5331212883128
 20
-97.83584291069651
 30
0.0
 10
403.4972575521952
 20
-96.64349276137601
 30
0.0
 10
404.2881532067025
 20
-94.70362750244738
 30
0.0
 10
404.5839789699321
 20
-92.54389855521686
 30
0.0
 10
404.4067343470234
 20
-89.99714603664904
 30
0.0
 10
403.9124692867945
 20
-87.69968555402926
 30
0.0
 10
403.0654234422253
 20
-85.36984321872967
 30
0.0
 10
401.9240055939379
 20
-83.19173439575496
 30
0.0
 10
400.5825086466973
 20
-81.32600732219134
 30
0.0
 10
398.9666553291072
 20
-79.67408017610268
 30
0.0
 10
397.4100404628431
 20
-78.62202135392516
 30
0.0
 10
395.7355057042512
 20
-77.97850825128808
 30
0.0
 10
394.3451815113866
 20
-77.83970445633241
 30
0.0
 10
393.4069758465915
 20
-78.06809693609364
 30
0.0
 10
393.0465102949521
 20
-78.21454002219099
 30
0.0
  0
LINE
  5
1FA
330
1B2
100
AcDbEntity
  8
0
  6
Continuous
 62
     0
370
    30
100
AcDbLine
 10
397.98455
 20
-99.846697
 30
0.0
 11
401.289359
 21
-98.504082
 31
0.0
  0
LINE
  5
1FB
330
1B2
100
AcDbEntity
  8
0
  6
Continuous
 62
     0
370
    30
100
AcDbLine
 10
389.741701
 20
-79.557155
 30
0.0
 11
393.04651
 21
-78.21454
 31
0.0
  0
SPLINE
  5
1FC
330
1B2
100
AcDbEntity
  8
0
  6
Continuous
 62
     0
370
    30
100
AcDbSpline
210
0.0
220
0.0
230
1.0
 70
     8
 71
     3
 72
    18
 73
    14
 74
     0
 42
0.000000001
 43
0.0
 40
0.0
 40
0.0
 40
0.0
 40
0.0
 40
1.125832483182012
 40
2.854693348345007
 40
4.866996120230274
 40
6.920755997700666
 40
9.198143763463232
 40
11.05789243090676
 40
13.12403849993267
 40
15.39755545923039
 40
17.26160918881073
 40
19.00304578178526
 40
19.87307095871939
 40
19.87307095871939
 40
19.87307095871939
 40
19.87307095871939
 10
393.4706677907012
 20
-99.19561345348087
 30
0.0
 10
393.2196384230235
 20
-99.04566167053575
 30
0.0
 10
392.5858976020498
 20
-98.62300346376712
 30
0.0
 10
391.5327678672046
 20
-97.73020390462663
 30
0.0
 10
390.3516077581706
 20
-96.42614555053164
 30
0.0
 10
389.1869070593426
 20
-94.75961539990402
 30
0.0
 10
388.2242222736115
 20
-92.94378475601223
 30
0.0
 10
387.4630900770494
 20
-91.0134410375311
 30
0.0
 10
386.9181506334999
 20
-89.03718360639834
 30
0.0
 10
386.6320408433696
 20
-87.08005635310417
 30
0.0
 10
386.6061063681617
 20
-85.31448063905384
 30
0.0
 10
386.7501902563855
 20
-84.0657115283031
 30
0.0
 10
386.9026030105026
 20
-83.39019246213809
 30
0.0
 10
386.9608238759843
 20
-83.17181411027491
 30
0.0
  0
LINE
  5
1FD
330
1B2
100
AcDbEntity
  8
0
  6
Continuous
 62
     0
370
    30
100
AcDbLine
 10
445.606469
 20
-189.811519
 30
0.0
 11
453.8636
 21
-186.456969
 31
0.0
  0
LINE
  5
1FE
330
1B2
100
AcDbEntity
  8
0
  6
Continuous
 62
     0
370
    30
100
AcDbLine
 10
377.857033
 20
-23.048171
 30
0.0
 11
386.114164
 21
-19.693622
 31
0.0
  0
SPLINE
  5
1FF
330
1B2
100
AcDbEntity
  8
0
  6
Continuous
 62
     0
370
    30
100
AcDbSpline
210
0.0
220
0.0
230
1.0
 70
     8
 71
     3
 72
    16
 73
    12
 74
     0
 42
0.000000001
 43
0.0
 40
0.0
 40
0.0
 40
0.0
 40
0.0
 40
6.622533709645483
 40
17.22186937760165
 40
23.18603217838369
 40
34.45631564558879
 40
51.26298701826017
 40
63.56659180804247
 40
69.78228885896382
 40
82.00123201410389
 40
89.36699745018045
 40
89.36699745018045
 40
89.36699745018045
 40
89.36699745018045
 10
351.9561086963769
 20
-78.00134701834133
 30
0.0
 10
351.9122198688897
 20
-76.01792493600124
 30
0.0
 10
351.9383023960816
 20
-70.92461941708478
 30
0.0
 10
352.4651354530293
 20
-64.34977555660123
 30
0.0
 10
353.6596216080753
 20
-56.8651624658504
 30
0.0
 10
355.8277068046538
 20
-48.28790828164705
 30
0.0
 10
359.7259967262902
 20
-39.4238343820416
 30
0.0
 10
364.2515016774412
 20
-33.09337951367456
 30
0.0
 10
368.7533688735552
 20
-28.45700168672539
 30
0.0
 10
372.9778842134629
 20
-25.32495958753231
 30
0.0
 10
376.4961487335971
 20
-23.60105122469787
 30
0.0
 10
377.8569328955233
 20
-23.04821225898081
 30
0.0
  0
SPLINE
  5
200
330
1B2
100
AcDbEntity
  8
0
  6
Continuous
 62
     0
370
    30
100
AcDbSpline
210
0.0
220
0.0
230
1.0
 70
     8
 71
     3
 72
    14
 73
    10
 74
     0
 42
0.000000001
 43
0.0
 40
129.4450164927268
 40
129.4450164927268
 40
129.4450164927268
 40
129.4450164927268
 40
138.2164436540242
 40
148.3420837072625
 40
157.6218382585648
 40
168.5898712773377
 40
175.949938245293
 40
186.0881516234167
 40
192.6069576565405
 40
192.6069576565405
 40
192.6069576565405
 40
192.6069576565405
 10
367.2129865137193
 20
-136.9401558604911
 30
0.0
 10
365.9175478207528
 20
-134.336478110234
 30
0.0
 10
363.2780775734361
 20
-128.6232016612531
 30
0.0
 10
359.8691894537493
 20
-119.857534276488
 30
0.0
 10
356.8221459585059
 20
-110.2498208458626
 30
0.0
 10
354.6801117372232
 20
-101.467680829496
 30
0.0
 10
353.0846442103543
 20
-92.47829973778465
 30
0.0
 10
352.2432765125706
 20
-85.00763352022994
 30
0.0
 10
351.9993104152018
 20
-79.95371731437808
 30
0.0
 10
351.9561086963762
 20
-78.00134701831229
 30
0.0
  0
SPLINE
  5
201
330
1B2
100
AcDbEntity
  8
0
  6
Continuous
 62
     0
370
    30
100
AcDbSpline
210
0.0
220
0.0
230
1.0
 70
     8
 71
     3
 72
    16
 73
    12
 74
     0
 42
0.000000001
 43
0.0
 40
0.0
 40
0.0
 40
0.0
 40
0.0
 40
6.956800054581461
 40
18.31587930356453
 40
23.58884752512291
 40
34.09368690320098
 40
47.04490265365742
 40
60.5703596900758
 40
69.24061319722318
 40
79.22957999554232
 40
83.88928541254874
 40
83.88928541254874
 40
83.88928541254874
 40
83.88928541254874
 10
445.6064690059883
 20
-189.8115186448842
 30
0.0
 10
444.3211965830815
 20
-190.3336746896765
 30
0.0
 10
440.844265866079
 20
-191.4860689819101
 30
0.0
 10
436.101364121536
 20
-192.1986820647135
 30
0.0
 10
430.4386616233836
 20
-192.2066852479695
 30
0.0
 10
424.2669600448079
 20
-191.4025524951564
 30
0.0
 10
416.1120279509791
 20
-188.8367481358854
 30
0.0
 10
408.295771495024
 20
-184.8177308339441
 30
0.0
 10
401.2140715633135
 20
-179.9966761848385
 30
0.0
 10
396.1779124419579
 20
-175.8442451641478
 30
0.0
 10
393.0887248084334
 20
-172.934057374741
 30
0.0
 10
392.1148737134118
 20
-171.9790960612359
 30
0.0
  0
SPLINE
  5
202
330
1B2
100
AcDbEntity
  8
0
  6
Continuous
 62
     0
370
    30
100
AcDbSpline
210
0.0
220
0.0
230
1.0
 70
     8
 71
     3
 72
    11
 73
     7
 74
     0
 42
0.000000001
 43
0.0
 40
0.0
 40
0.0
 40
0.0
 40
0.0
 40
5.428997924008224
 40
11.87098323851752
 40
17.74710699714767
 40
22.05509043231543
 40
22.05509043231543
 40
22.05509043231543
 40
22.05509043231543
 10
376.623035055725
 20
-116.4150982484702
 30
0.0
 10
375.4193163681813
 20
-116.904105984826
 30
0.0
 10
372.9349990282827
 20
-118.4839904092866
 30
0.0
 10
370.0362128391127
 20
-122.2125437639899
 30
0.0
 10
368.2320410972903
 20
-126.715879110021
 30
0.0
 10
367.6303993582453
 20
-129.832255443847
 30
0.0
 10
367.4695093644199
 20
-131.1875399118769
 30
0.0
  0
SPLINE
  5
203
330
1B2
100
AcDbEntity
  8
0
  6
Continuous
 62
     0
370
    30
100
AcDbSpline
210
0.0
220
0.0
230
1.0
 70
     8
 71
     3
 72
    14
 73
    10
 74
     0
 42
0.000000001
 43
0.0
 40
0.0
 40
0.0
 40
0.0
 40
0.0
 40
0.668566813131837
 40
1.117486062828686
 40
2.017261072516116
 40
2.692278711010299
 40
3.141968571219242
 40
3.366590918958746
 40
3.671043883861923
 40
3.671043883861923
 40
3.671043883861923
 40
3.671043883861923
 10
367.3106182719728
 20
-134.7449623929134
 30
0.0
 10
367.3203732203972
 20
-134.5260356882893
 30
0.0
 10
367.3375544936584
 20
-134.1690752205583
 30
0.0
 10
367.3511622528187
 20
-133.513786098822
 30
0.0
 10
367.3610732501193
 20
-132.8578782104699
 30
0.0
 10
367.3810429455633
 20
-132.2027214824934
 30
0.0
 10
367.4093742318012
 20
-131.7668949083513
 30
0.0
 10
367.4364387875619
 20
-131.4537136727061
 30
0.0
 10
367.4585673082549
 20
-131.2794463695292
 30
0.0
 10
367.4694770084873
 20
-131.187608836188
 30
0.0
  0
LINE
  5
204
330
1B2
100
AcDbEntity
  8
0
  6
Continuous
 62
     0
370
    30
100
AcDbLine
 10
365.000174
 20
-186.692904
 30
0.0
 11
367.310618
 21
-134.744963
 31
0.0
  0
SPLINE
  5
205
330
1B2
100
AcDbEntity
  8
0
  6
Continuous
 62
     0
370
    30
100
AcDbSpline
210
0.0
220
0.0
230
1.0
 70
     8
 71
     3
 72
    14
 73
    10
 74
     0
 42
0.000000001
 43
0.0
 40
0.0
 40
0.0
 40
0.0
 40
0.0
 40
2.826865905167479
 40
7.843813286227068
 40
12.3732061626778
 40
15.36143101960475
 40
18.20906713128534
 40
23.38621773868321
 40
24.80328119726818
 40
24.80328119726818
 40
24.80328119726818
 40
24.80328119726818
 10
365.0001888310654
 20
-186.6932510962469
 30
0.0
 10
364.965087519493
 20
-187.6059795050912
 30
0.0
 10
364.9170175080914
 20
-190.1616194865796
 30
0.0
 10
365.2115246857517
 20
-194.2653871071214
 30
0.0
 10
366.1790205226031
 20
-198.3657454892243
 30
0.0
 10
367.5618236301381
 20
-201.4457590351241
 30
0.0
 10
369.4980783100403
 20
-204.2529061941586
 30
0.0
 10
371.5758781063848
 20
-205.948076779976
 30
0.0
 10
373.0932937707474
 20
-206.7585049202019
 30
0.0
 10
373.4232861431243
 20
-206.9177930651308
 30
0.0
  0
SPLINE
  5
206
330
1B2
100
AcDbEntity
  8
0
  6
Continuous
 62
     0
370
    30
100
AcDbSpline
210
0.0
220
0.0
230
1.0
 70
     8
 71
     3
 72
    10
 73
     6
 74
     0
 42
0.000000001
 43
0.0
 40
0.0
 40
0.0
 40
0.0
 40
0.0
 40
3.043706459051438
 40
5.178978511973374
 40
7.226512580882552
 40
7.226512580882552
 40
7.226512580882552
 40
7.226512580882552
 10
373.4218647698249
 20
-206.9171050568109
 30
0.0
 10
374.1296520896147
 20
-207.2606568009469
 30
0.0
 10
375.3618121961687
 20
-207.7297026833048
 30
0.0
 10
377.1573731176459
 20
-208.00597913408
 30
0.0
 10
378.2104327474904
 20
-207.9406188758751
 30
0.0
 10
378.7140750250945
 20
-207.8474807278025
 30
0.0
  0
SPLINE
  5
207
330
1B2
100
AcDbEntity
  8
0
  6
Continuous
 62
     0
370
    30
100
AcDbSpline
210
0.0
220
0.0
230
1.0
 70
     8
 71
     3
 72
    18
 73
    14
 74
     0
 42
0.000000001
 43
0.0
 40
0.0
 40
0.0
 40
0.0
 40
0.0
 40
0.6017561751639913
 40
1.412166112212735
 40
3.078236905011252
 40
4.124362632312235
 40
6.489194632136892
 40
8.721864188493386
 40
11.42619672372739
 40
13.60593525468198
 40
15.4457104628907
 40
16.55966482256628
 40
18.12806429796946
 40
18.12806429796946
 40
18.12806429796946
 40
18.12806429796946
 10
378.7143978370268
 20
-207.8473848240212
 30
0.0
 10
378.897207017237
 20
-207.8135780558015
 30
0.0
 10
379.3166459754339
 20
-207.722024402191
 30
0.0
 10
380.1756657634675
 20
-207.4626071287777
 30
0.0
 10
381.0510815233778
 20
-207.0539404532323
 30
0.0
 10
382.1729142569116
 20
-206.3117358665851
 30
0.0
 10
383.2402650493149
 20
-205.2918116892479
 30
0.0
 10
384.3819799416376
 20
-203.7007224875298
 30
0.0
 10
385.2872415632654
 20
-201.930737245009
 30
0.0
 10
385.9848501699889
 20
-200.1151804767108
 30
0.0
 10
386.4349792643771
 20
-198.6617646299479
 30
0.0
 10
386.7843005477603
 20
-197.3474434880932
 30
0.0
 10
386.9682373704723
 20
-196.550986192541
 30
0.0
 10
387.0658897854935
 20
-196.0818353118137
 30
0.0
  0
SPLINE
  5
208
330
1B2
100
AcDbEntity
  8
0
  6
Continuous
 62
     0
370
    30
100
AcDbSpline
210
0.0
220
0.0
230
1.0
 70
     8
 71
     3
 72
    10
 73
     6
 74
     0
 42
0.000000001
 43
0.0
 40
0.0
 40
0.0
 40
0.0
 40
0.0
 40
9.390773559974091
 40
17.09074258365069
 40
31.46798266856243
 40
31.46798266856243
 40
31.46798266856243
 40
31.46798266856243
 10
387.0658894338052
 20
-196.08183353902
 30
0.0
 10
387.6486984503691
 20
-193.2818351786546
 30
0.0
 10
388.7238737690373
 20
-188.1715170743124
 30
0.0
 10
390.6936700974942
 20
-178.7702301697896
 30
0.0
 10
392.0752305897809
 20
-172.1887745171554
 30
0.0
 10
392.9619457166681
 20
-167.8986963514524
 30
0.0
  0
SPLINE
  5
209
330
1B2
100
AcDbEntity
  8
0
  6
Continuous
 62
     0
370
    30
100
AcDbSpline
210
0.0
220
0.0
230
1.0
 70
     8
 71
     3
 72
    18
 73
    14
 74
     0
 42
0.000000001
 43
0.0
 40
0.0
 40
0.0
 40
0.0
 40
0.0
 40
1.202201159485042
 40
2.369268858696874
 40
3.742525736114175
 40
6.48600543151173
 40
7.856518762750502
 40
9.213047170127746
 40
10.57223569806729
 40
11.85924016753599
 40
13.16090286582143
 40
13.45973375825756
 40
13.62004493034518
 40
13.62004493034518
 40
13.62004493034518
 40
13.62004493034518
 10
392.9613104226113
 20
-167.9014482773276
 30
0.0
 10
393.0520505074201
 20
-167.5464565795834
 30
0.0
 10
393.1544086418672
 20
-166.8270327742405
 30
0.0
 10
393.3961181472922
 20
-165.7205294818852
 30
0.0
 10
393.6988949695648
 20
-164.1455297623932
 30
0.0
 10
394.0344937816244
 20
-162.5196381745701
 30
0.0
 10
394.3690930998778
 20
-160.8978060195213
 30
0.0
 10
394.6214171568145
 20
-159.6867598597706
 30
0.0
 10
394.8713887575683
 20
-158.4958212927485
 30
0.0
 10
395.120464470153
 20
-157.3245542764295
 30
0.0
 10
395.3153871401116
 20
-156.4314498227372
 30
0.0
 10
395.4374402549867
 20
-155.8973530866908
 30
0.0
 10
395.480821659321
 20
-155.7196818287339
 30
0.0
 10
395.4809175743648
 20
-155.7192995827119
 30
0.0
  0
SPLINE
  5
20A
330
1B2
100
AcDbEntity
  8
0
  6
Continuous
 62
     0
370
    30
100
AcDbSpline
210
0.0
220
0.0
230
1.0
 70
     8
 71
     3
 72
    13
 73
     9
 74
     0
 42
0.000000001
 43
0.0
 40
9.474293445057684
 40
9.474293445057684
 40
9.474293445057684
 40
9.474293445057684
 40
10.92992877251138
 40
12.75761172563563
 40
13.58462947792914
 40
14.37450269194222
 40
15.1232989233939
 40
15.84535983875174
 40
15.84535983875174
 40
15.84535983875174
 40
15.84535983875174
 10
395.2487432817162
 20
-156.7392274316987
 30
0.0
 10
395.3639084864677
 20
-156.6461413637536
 30
0.0
 10
395.696575335146
 20
-156.3959075579088
 30
0.0
 10
396.3225588275723
 20
-156.0137561636718
 30
0.0
 10
396.9378515092772
 20
-155.6941460602085
 30
0.0
 10
397.3900863234577
 20
-155.476789728469
 30
0.0
 10
397.8666767016978
 20
-155.2692863670059
 30
0.0
 10
398.1525658955617
 20
-155.1419490035606
 30
0.0
 10
398.3357877351836
 20
-155.0728797347826
 30
0.0
  0
LINE
  5
20B
330
1B2
100
AcDbEntity
  8
0
  6
Continuous
 62
     0
370
    30
100
AcDbLine
 10
411.150863
 20
-149.866629
 30
0.0
 11
398.33545
 21
-155.073031
 31
0.0
  0
LINE
  5
20C
330
1B2
100
AcDbEntity
  8
0
  6
Continuous
 62
     0
370
    30
100
AcDbLine
 10
376.624017
 20
-116.414672
 30
0.0
 11
389.954047
 21
-110.999202
 31
0.0
  0
ENDBLK
  5
20E
330
1B2
100
AcDbEntity
  8
0
100
AcDbBlockEnd
  0
ENDSEC
  0
SECTION
  2
ENTITIES
  0
INSERT
  5
B5
330
1F
100
AcDbEntity
  8
0
  6
Continuous
 62
     7
370
     0
100
AcDbBlockReference
  2
a
 10
66.019836
 20
37.472153
 30
0.0
  0
INSERT
  5
108
330
1F
100
AcDbEntity
  8
0
  6
Continuous
 62
     7
370
     0
100
AcDbBlockReference
  2
b
 10
-21.99675
 20
0.0
 30
0.0
  0
INSERT
  5
15E
330
1F
100
AcDbEntity
  8
0
  6
Continuous
 62
     7
370
     0
100
AcDbBlockReference
  2
c
 10
278.90094
 20
0.0
 30
0.0
  0
INSERT
  5
1B1
330
1F
100
AcDbEntity
  8
0
  6
Continuous
 62
     7
370
     0
100
AcDbBlockReference
  2
d
 10
0.0
 20
-56.227234
 30
0.0
  0
INSERT
  5
20F
330
1F
100
AcDbEntity
  8
0
  6
Continuous
 62
     7
370
     0
100
AcDbBlockReference
  2
e
 10
347.123169
 20
-224.215393
 30
0.0
  0
ENDSEC
  0
SECTION
  2
OBJECTS
  0
DICTIONARY
  5
C
330
0
100
AcDbDictionary
281
     1
  3
ACAD_GROUP
350
D
  3
ACAD_LAYOUT
350
1A
  3
ACAD_MATERIAL
350
43
  3
ACAD_MLEADERSTYLE
350
6B
  3
ACAD_MLINESTYLE
350
17
  3
ACAD_PLOTSETTINGS
350
19
  3
ACAD_PLOTSTYLENAME
350
E
  3
ACAD_SCALELIST
350
47
  3
ACAD_TABLESTYLE
350
69
  3
ACAD_VISUALSTYLE
350
2A
  3
AcDbVariableDictionary
350
210
  0
DICTIONARY
  5
21B
330
8
100
AcDbDictionary
280
     1
281
     1
  3
ACAD_XREC_ROUNDTRIP
360
21C
  0
DICTIONARY
  5
D
102
{ACAD_REACTORS
330
C
102
}
330
C
100
AcDbDictionary
281
     1
  0
DICTIONARY
  5
1A
102
{ACAD_REACTORS
330
C
102
}
330
C
100
AcDbDictionary
281
     1
  3
Layout1
350
1E
  3
Layout2
350
26
  3
Model
350
22
  0
DICTIONARY
  5
43
102
{ACAD_REACTORS
330
C
102
}
330
C
100
AcDbDictionary
281
     1
  3
ByBlock
350
45
  3
ByLayer
350
44
  3
Global
350
46
  0
DICTIONARY
  5
6B
102
{ACAD_REACTORS
330
C
102
}
330
C
100
AcDbDictionary
281
     1
  3
Standard
350
6C
  0
DICTIONARY
  5
17
102
{ACAD_REACTORS
330
C
102
}
330
C
100
AcDbDictionary
281
     1
  3
Standard
350
18
  0
DICTIONARY
  5
19
102
{ACAD_REACTORS
330
C
102
}
330
C
100
AcDbDictionary
281
     1
  0
ACDBDICTIONARYWDFLT
  5
E
102
{ACAD_REACTORS
330
C
102
}
330
C
100
AcDbDictionary
281
     1
  3
Normal
350
F
100
AcDbDictionaryWithDefault
340
F
  0
DICTIONARY
  5
47
102
{ACAD_REACTORS
330
C
102
}
330
C
100
AcDbDictionary
281
     1
  3
A0
350
48
  3
A1
350
49
  3
A2
350
4A
  3
A3
350
4B
  3
A4
350
4C
  3
A5
350
4D
  3
A6
350
4E
  3
A7
350
4F
  3
A8
350
50
  3
A9
350
51
  3
B0
350
52
  3
B1
350
53
  3
B2
350
54
  3
B3
350
55
  3
B4
350
56
  3
B5
350
57
  3
B6
350
58
  3
B7
350
59
  3
B8
350
5A
  3
B9
350
5B
  3
C0
350
5C
  3
C1
350
5D
  3
C2
350
5E
  3
C3
350
5F
  3
C4
350
60
  3
C5
350
61
  3
C6
350
62
  3
C7
350
63
  3
C8
350
64
  3
C9
350
65
  3
D0
350
66
  3
D1
350
67
  3
D2
350
68
  0
DICTIONARY
  5
69
102
{ACAD_REACTORS
330
C
102
}
330
C
100
AcDbDictionary
281
     1
  3
Standard
350
6A
  0
DICTIONARY
  5
2A
102
{ACAD_REACTORS
330
C
102
}
330
C
100
AcDbDictionary
281
     1
  3
2dWireframe
350
2F
  3
Basic
350
32
  3
Brighten
350
36
  3
ColorChange
350
3A
  3
Conceptual
350
34
  3
Dim
350
35
  3
EdgeColorOff
350
3D
  3
Facepattern
350
39
  3
Flat
350
2B
  3
FlatWithEdges
350
2C
  3
Gouraud
350
2D
  3
GouraudWithEdges
350
2E
  3
Hidden
350
31
  3
JitterOff
350
3B
  3
Linepattern
350
38
  3
OverhangOff
350
3C
  3
Realistic
350
33
  3
Shaded
350
42
  3
Shaded with edges
350
41
  3
Shades of Gray
350
3E
  3
Sketchy
350
3F
  3
Thicken
350
37
  3
Wireframe
350
30
  3
X-Ray
350
40
  0
DICTIONARY
  5
210
102
{ACAD_REACTORS
330
C
102
}
330
C
100
AcDbDictionary
281
     1
  3
CANNOSCALE
350
21D
  3
CENTEREXE
350
217
  3
CENTERLTYPEFILE
350
218
  3
CMLEADERSTYLE
350
212
  3
CTABLESTYLE
350
211
  3
DIMASSOC
350
219
  3
HIDETEXT
350
21A
  3
MSLTSCALE
350
21E
  3
PSOLHEIGHT
350
214
  3
PSOLWIDTH
350
213
  0
XRECORD
  5
21C
102
{ACAD_REACTORS
330
21B
102
}
330
21B
100
AcDbXrecord
280
     1
102
VTR_0.000_0.000_1.000_1.000_VISUALSTYLE
340
2F
102
VTR_0.000_0.000_1.000_1.000_GRIDDISPLAY
 70
     3
102
VTR_0.000_0.000_1.000_1.000_GRIDMAJOR
 70
     5
102
VTR_0.000_0.000_1.000_1.000_DEFAULTLIGHTING
280
     1
102
VTR_0.000_0.000_1.000_1.000_DEFAULTLIGHTINGTYPE
 70
     1
102
VTR_0.000_0.000_1.000_1.000_BRIGHTNESS
141
0.0
102
VTR_0.000_0.000_1.000_1.000_CONTRAST
142
0.0
  0
LAYOUT
  5
1E
102
{ACAD_REACTORS
330
1A
102
}
330
1A
100
AcDbPlotSettings
  1

  2
none_device
  4

  6

 40
0.0
 41
0.0
 42
0.0
 43
0.0
 44
0.0
 45
0.0
 46
0.0
 47
0.0
 48
0.0
 49
0.0
140
0.0
141
0.0
142
1.0
143
1.0
 70
   688
 72
     1
 73
     0
 74
     5
  7

 75
    16
147
1.0
148
0.0
149
0.0
100
AcDbLayout
  1
Layout1
 70
     1
 71
     1
 10
0.0
 20
0.0
 11
420.0
 21
297.0
 12
0.0
 22
0.0
 32
0.0
 14
1.000000E+20
 24
1.000000E+20
 34
1.000000E+20
 15
-1.000000E+20
 25
-1.000000E+20
 35
-1.000000E+20
146
0.0
 13
0.0
 23
0.0
 33
0.0
 16
1.0
 26
0.0
 36
0.0
 17
0.0
 27
1.0
 37
0.0
 76
     0
330
1B
  0
LAYOUT
  5
26
102
{ACAD_REACTORS
330
1A
102
}
330
1A
100
AcDbPlotSettings
  1

  2
none_device
  4

  6

 40
0.0
 41
0.0
 42
0.0
 43
0.0
 44
0.0
 45
0.0
 46
0.0
 47
0.0
 48
0.0
 49
0.0
140
0.0
141
0.0
142
1.0
143
1.0
 70
   688
 72
     1
 73
     0
 74
     5
  7

 75
    16
147
1.0
148
0.0
149
0.0
100
AcDbLayout
  1
Layout2
 70
     1
 71
     2
 10
0.0
 20
0.0
 11
0.0
 21
0.0
 12
0.0
 22
0.0
 32
0.0
 14
0.0
 24
0.0
 34
0.0
 15
0.0
 25
0.0
 35
0.0
146
0.0
 13
0.0
 23
0.0
 33
0.0
 16
1.0
 26
0.0
 36
0.0
 17
0.0
 27
1.0
 37
0.0
 76
     0
330
23
  0
LAYOUT
  5
22
102
{ACAD_REACTORS
330
1A
102
}
330
1A
100
AcDbPlotSettings
  1

  2
none_device
  4
Letter_(8.50_x_11.00_Inches)
  6

 40
6.35
 41
6.35
 42
6.350005
 43
6.350005
 44
215.9
 45
279.4
 46
0.0
 47
0.0
 48
0.0
 49
0.0
140
0.0
141
0.0
142
1.0
143
1.0
 70
  1712
 72
     1
 73
     0
 74
     0
  7

 75
     0
147
1.0
148
0.0
149
0.0
100
AcDbLayout
  1
Model
 70
     1
 71
     0
 10
-106.623177
 20
-231.145386
 11
479.446777
 21
228.006287
 12
0.0
 22
0.0
 32
0.0
 14
-106.623177
 24
-231.145386
 34
0.0
 15
479.446777
 25
228.006287
 35
0.0
146
0.0
 13
0.0
 23
0.0
 33
0.0
 16
1.0
 26
0.0
 36
0.0
 17
0.0
 27
1.0
 37
0.0
 76
     0
330
1F
331
29
  0
MATERIAL
  5
45
102
{ACAD_REACTORS
330
43
102
}
102
{ACAD_XDICTIONARY
360
251
102
}
330
43
100
AcDbMaterial
  1
ByBlock
  0
MATERIAL
  5
44
102
{ACAD_REACTORS
330
43
102
}
102
{ACAD_XDICTIONARY
360
24F
102
}
330
43
100
AcDbMaterial
  1
ByLayer
  0
MATERIAL
  5
46
102
{ACAD_REACTORS
330
43
102
}
102
{ACAD_XDICTIONARY
360
253
102
}
330
43
100
AcDbMaterial
  1
Global
  0
MLEADERSTYLE
  5
6C
102
{ACAD_REACTORS
330
6B
102
}
102
{ACAD_XDICTIONARY
360
256
102
}
330
6B
100
AcDbMLeaderStyle
170
     2
171
     1
172
     0
 90
        2
 40
0.0
 41
0.0
173
     1
 91
-1056964608
340
14
 92
       -2
290
     1
 42
2.0
291
     1
 43
8.0
  3
Standard
341
0
 44
4.0
300

342
11
174
     1
178
     6
175
     1
176
     0
 93
-1056964608
 45
4.0
292
     0
297
     0
 46
4.0
343
0
 94
-1056964608
 47
1.0
 49
1.0
140
1.0
293
     1
141
0.0
294
     1
177
     0
142
1.0
295
     0
296
     0
143
3.75
1001
ACAD_MLEADERVER
1070
     2
  0
MLINESTYLE
  5
18
102
{ACAD_REACTORS
330
17
102
}
330
17
100
AcDbMlineStyle
  2
Standard
 70
     0
  3

 62
   256
 51
90.0
 52
90.0
 71
     2
 49
0.5
 62
   256
  6
BYLAYER
 49
-0.5
 62
   256
  6
BYLAYER
  0
ACDBPLACEHOLDER
  5
F
102
{ACAD_REACTORS
330
E
102
}
330
E
  0
SCALE
  5
48
102
{ACAD_REACTORS
330
47
102
}
330
47
100
AcDbScale
 70
     0
300
1:1
140
1.0
141
1.0
290
     1
  0
SCALE
  5
49
102
{ACAD_REACTORS
330
47
102
}
330
47
100
AcDbScale
 70
     0
300
1:2
140
1.0
141
2.0
290
     0
  0
SCALE
  5
4A
102
{ACAD_REACTORS
330
47
102
}
330
47
100
AcDbScale
 70
     0
300
1:4
140
1.0
141
4.0
290
     0
  0
SCALE
  5
4B
102
{ACAD_REACTORS
330
47
102
}
330
47
100
AcDbScale
 70
     0
300
1:5
140
1.0
141
5.0
290
     0
  0
SCALE
  5
4C
102
{ACAD_REACTORS
330
47
102
}
330
47
100
AcDbScale
 70
     0
300
1:8
140
1.0
141
8.0
290
     0
  0
SCALE
  5
4D
102
{ACAD_REACTORS
330
47
102
}
330
47
100
AcDbScale
 70
     0
300
1:10
140
1.0
141
10.0
290
     0
  0
SCALE
  5
4E
102
{ACAD_REACTORS
330
47
102
}
330
47
100
AcDbScale
 70
     0
300
1:16
140
1.0
141
16.0
290
     0
  0
SCALE
  5
4F
102
{ACAD_REACTORS
330
47
102
}
330
47
100
AcDbScale
 70
     0
300
1:20
140
1.0
141
20.0
290
     0
  0
SCALE
  5
50
102
{ACAD_REACTORS
330
47
102
}
330
47
100
AcDbScale
 70
     0
300
1:30
140
1.0
141
30.0
290
     0
  0
SCALE
  5
51
102
{ACAD_REACTORS
330
47
102
}
330
47
100
AcDbScale
 70
     0
300
1:40
140
1.0
141
40.0
290
     0
  0
SCALE
  5
52
102
{ACAD_REACTORS
330
47
102
}
330
47
100
AcDbScale
 70
     0
300
1:50
140
1.0
141
50.0
290
     0
  0
SCALE
  5
53
102
{ACAD_REACTORS
330
47
102
}
330
47
100
AcDbScale
 70
     0
300
1:100
140
1.0
141
100.0
290
     0
  0
SCALE
  5
54
102
{ACAD_REACTORS
330
47
102
}
330
47
100
AcDbScale
 70
     0
300
2:1
140
2.0
141
1.0
290
     0
  0
SCALE
  5
55
102
{ACAD_REACTORS
330
47
102
}
330
47
100
AcDbScale
 70
     0
300
4:1
140
4.0
141
1.0
290
     0
  0
SCALE
  5
56
102
{ACAD_REACTORS
330
47
102
}
330
47
100
AcDbScale
 70
     0
300
8:1
140
8.0
141
1.0
290
     0
  0
SCALE
  5
57
102
{ACAD_REACTORS
330
47
102
}
330
47
100
AcDbScale
 70
     0
300
10:1
140
10.0
141
1.0
290
     0
  0
SCALE
  5
58
102
{ACAD_REACTORS
330
47
102
}
330
47
100
AcDbScale
 70
     0
300
100:1
140
100.0
141
1.0
290
     0
  0
SCALE
  5
59
102
{ACAD_REACTORS
330
47
102
}
330
47
100
AcDbScale
 70
     0
300
1/128" = 1'-0"
140
0.007812
141
12.0
290
     0
  0
SCALE
  5
5A
102
{ACAD_REACTORS
330
47
102
}
330
47
100
AcDbScale
 70
     0
300
1/64" = 1'-0"
140
0.015625
141
12.0
290
     0
  0
SCALE
  5
5B
102
{ACAD_REACTORS
330
47
102
}
330
47
100
AcDbScale
 70
     0
300
1/32" = 1'-0"
140
0.03125
141
12.0
290
     0
  0
SCALE
  5
5C
102
{ACAD_REACTORS
330
47
102
}
330
47
100
AcDbScale
 70
     0
300
1/16" = 1'-0"
140
0.0625
141
12.0
290
     0
  0
SCALE
  5
5D
102
{ACAD_REACTORS
330
47
102
}
330
47
100
AcDbScale
 70
     0
300
3/32" = 1'-0"
140
0.09375
141
12.0
290
     0
  0
SCALE
  5
5E
102
{ACAD_REACTORS
330
47
102
}
330
47
100
AcDbScale
 70
     0
300
1/8" = 1'-0"
140
0.125
141
12.0
290
     0
  0
SCALE
  5
5F
102
{ACAD_REACTORS
330
47
102
}
330
47
100
AcDbScale
 70
     0
300
3/16" = 1'-0"
140
0.1875
141
12.0
290
     0
  0
SCALE
  5
60
102
{ACAD_REACTORS
330
47
102
}
330
47
100
AcDbScale
 70
     0
300
1/4" = 1'-0"
140
0.25
141
12.0
290
     0
  0
SCALE
  5
61
102
{ACAD_REACTORS
330
47
102
}
330
47
100
AcDbScale
 70
     0
300
3/8" = 1'-0"
140
0.375
141
12.0
290
     0
  0
SCALE
  5
62
102
{ACAD_REACTORS
330
47
102
}
330
47
100
AcDbScale
 70
     0
300
1/2" = 1'-0"
140
0.5
141
12.0
290
     0
  0
SCALE
  5
63
102
{ACAD_REACTORS
330
47
102
}
330
47
100
AcDbScale
 70
     0
300
3/4" = 1'-0"
140
0.75
141
12.0
290
     0
  0
SCALE
  5
64
102
{ACAD_REACTORS
330
47
102
}
330
47
100
AcDbScale
 70
     0
300
1" = 1'-0"
140
1.0
141
12.0
290
     0
  0
SCALE
  5
65
102
{ACAD_REACTORS
330
47
102
}
330
47
100
AcDbScale
 70
     0
300
1-1/2" = 1'-0"
140
1.5
141
12.0
290
     0
  0
SCALE
  5
66
102
{ACAD_REACTORS
330
47
102
}
330
47
100
AcDbScale
 70
     0
300
3" = 1'-0"
140
3.0
141
12.0
290
     0
  0
SCALE
  5
67
102
{ACAD_REACTORS
330
47
102
}
330
47
100
AcDbScale
 70
     0
300
6" = 1'-0"
140
6.0
141
12.0
290
     0
  0
SCALE
  5
68
102
{ACAD_REACTORS
330
47
102
}
330
47
100
AcDbScale
 70
     0
300
1'-0" = 1'-0"
140
12.0
141
12.0
290
     0
  0
TABLESTYLE
  5
6A
102
{ACAD_REACTORS
330
69
102
}
330
69
100
AcDbTableStyle
  3
Standard
 70
     0
 71
     0
 40
1.5
 41
1.5
280
     0
281
     0
  7
Standard
140
4.5
170
     2
 62
     0
 63
   257
283
     0
274
    -2
284
     1
 64
     0
275
    -2
285
     1
 65
     0
276
    -2
286
     1
 66
     0
277
    -2
287
     1
 67
     0
278
    -2
288
     1
 68
     0
279
    -2
289
     1
 69
     0
  7
Standard
140
6.0
170
     5
 62
     0
 63
   257
283
     0
274
    -2
284
     1
 64
     0
275
    -2
285
     1
 65
     0
276
    -2
286
     1
 66
     0
277
    -2
287
     1
 67
     0
278
    -2
288
     1
 68
     0
279
    -2
289
     1
 69
     0
  7
Standard
140
4.5
170
     5
 62
     0
 63
   257
283
     0
274
    -2
284
     1
 64
     0
275
    -2
285
     1
 65
     0
276
    -2
286
     1
 66
     0
277
    -2
287
     1
 67
     0
278
    -2
288
     1
 68
     0
279
    -2
289
     1
 69
     0
  0
VISUALSTYLE
  5
2F
102
{ACAD_REACTORS
330
2A
102
}
102
{ACAD_XDICTIONARY
360
227
102
}
330
2A
100
AcDbVisualStyle
  2
2dWireframe
 70
     4
 71
     0
 72
     2
 73
     0
 90
        0
 40
0.6
 41
30.0
 62
     5
 63
     7
 74
     1
 91
        4
 64
     7
 65
   257
 75
     1
175
     1
 42
1.0
 92
        0
 66
   257
 43
1.0
 76
     1
 77
     6
 78
     2
 67
     7
 79
     5
170
     0
171
     0
290
     0
174
     0
 93
        1
 44
0.0
173
     0
291
     0
 45
0.0
1001
ACAD
1000
AcDbSavedByObjectVersion
1070
     0
  0
VISUALSTYLE
  5
32
102
{ACAD_REACTORS
330
2A
102
}
102
{ACAD_XDICTIONARY
360
22D
102
}
330
2A
100
AcDbVisualStyle
  2
Basic
 70
     7
 71
     1
 72
     0
 73
     1
 90
        0
 40
0.6
 41
30.0
 62
     5
 63
     7
 74
     0
 91
        4
 64
     7
 65
   257
 75
     1
175
     1
 42
1.0
 92
        8
 66
     7
 43
1.0
 76
     1
 77
     6
 78
     2
 67
     7
 79
     5
170
     0
171
     0
290
     0
174
     0
 93
        1
 44
0.0
173
     0
291
     1
 45
0.0
1001
ACAD
1000
AcDbSavedByObjectVersion
1070
     0
  0
VISUALSTYLE
  5
36
102
{ACAD_REACTORS
330
2A
102
}
102
{ACAD_XDICTIONARY
360
235
102
}
330
2A
100
AcDbVisualStyle
  2
Brighten
 70
    12
 71
     2
 72
     2
 73
     0
 90
        0
 40
0.6
 41
30.0
 62
     5
 63
     7
 74
     1
 91
        4
 64
     7
 65
   257
 75
     1
175
     1
 42
1.0
 92
        8
 66
     7
 43
1.0
 76
     1
 77
     6
 78
     2
 67
     7
 79
     5
170
     0
171
     0
290
     0
174
     0
 93
        1
 44
50.0
173
     0
291
     1
 45
0.0
1001
ACAD
1000
AcDbSavedByObjectVersion
1070
     0
  0
VISUALSTYLE
  5
3A
102
{ACAD_REACTORS
330
2A
102
}
102
{ACAD_XDICTIONARY
360
23D
102
}
330
2A
100
AcDbVisualStyle
  2
ColorChange
 70
    16
 71
     2
 72
     2
 73
     3
 90
        0
 40
0.6
 41
30.0
 62
     5
 63
     8
 74
     1
 91
        4
 64
     7
 65
   257
 75
     1
175
     1
 42
1.0
 92
        8
 66
     8
 43
1.0
 76
     1
 77
     6
 78
     2
 67
     7
 79
     5
170
     0
171
     0
290
     0
174
     0
 93
        1
 44
0.0
173
     0
291
     1
 45
0.0
1001
ACAD
1000
AcDbSavedByObjectVersion
1070
     0
  0
VISUALSTYLE
  5
34
102
{ACAD_REACTORS
330
2A
102
}
102
{ACAD_XDICTIONARY
360
231
102
}
330
2A
100
AcDbVisualStyle
  2
Conceptual
 70
     9
 71
     3
 72
     2
 73
     0
 90
        0
 40
0.6
 41
30.0
 62
     5
 63
     7
 74
     2
 91
        2
 64
     7
 65
   257
 75
     1
175
     1
 42
179.0
 92
        8
 66
     7
 43
1.0
 76
     1
 77
     6
 78
     2
 67
     7
 79
     3
170
     0
171
     0
290
     0
174
     0
 93
        1
 44
0.0
173
     0
291
     0
 45
0.0
1001
ACAD
1000
AcDbSavedByObjectVersion
1070
     0
  0
VISUALSTYLE
  5
35
102
{ACAD_REACTORS
330
2A
102
}
102
{ACAD_XDICTIONARY
360
233
102
}
330
2A
100
AcDbVisualStyle
  2
Dim
 70
    11
 71
     2
 72
     2
 73
     0
 90
        0
 40
0.6
 41
30.0
 62
     5
 63
     7
 74
     1
 91
        4
 64
     7
 65
   257
 75
     1
175
     1
 42
1.0
 92
        8
 66
     7
 43
1.0
 76
     1
 77
     6
 78
     2
 67
     7
 79
     5
170
     0
171
     0
290
     0
174
     0
 93
        1
 44
-50.0
173
     0
291
     1
 45
0.0
1001
ACAD
1000
AcDbSavedByObjectVersion
1070
     0
  0
VISUALSTYLE
  5
3D
102
{ACAD_REACTORS
330
2A
102
}
102
{ACAD_XDICTIONARY
360
243
102
}
330
2A
100
AcDbVisualStyle
  2
EdgeColorOff
 70
    22
 71
     2
 72
     2
 73
     0
 90
        0
 40
0.6
 41
30.0
 62
     5
 63
     7
 74
     1
 91
        4
 64
     7
 65
   257
 75
     1
175
     1
 42
1.0
 92
        8
 66
     7
 43
1.0
 76
     1
 77
     6
 78
     2
 67
     7
 79
     5
170
     0
171
     0
290
     0
174
     0
 93
        1
 44
0.0
173
     0
291
     1
 45
0.0
1001
ACAD
1000
AcDbSavedByObjectVersion
1070
     0
  0
VISUALSTYLE
  5
39
102
{ACAD_REACTORS
330
2A
102
}
102
{ACAD_XDICTIONARY
360
23B
102
}
330
2A
100
AcDbVisualStyle
  2
Facepattern
 70
    15
 71
     2
 72
     2
 73
     0
 90
        0
 40
0.6
 41
30.0
 62
     5
 63
     7
 74
     1
 91
        4
 64
     7
 65
   257
 75
     1
175
     1
 42
1.0
 92
        8
 66
     7
 43
1.0
 76
     1
 77
     6
 78
     2
 67
     7
 79
     5
170
     0
171
     0
290
     0
174
     0
 93
        1
 44
0.0
173
     0
291
     1
 45
0.0
1001
ACAD
1000
AcDbSavedByObjectVersion
1070
     0
  0
VISUALSTYLE
  5
2B
102
{ACAD_REACTORS
330
2A
102
}
102
{ACAD_XDICTIONARY
360
21F
102
}
330
2A
100
AcDbVisualStyle
  2
Flat
 70
     0
 71
     2
 72
     1
 73
     1
 90
        2
 40
0.6
 41
30.0
 62
     5
 63
     7
 74
     0
 91
        0
 64
     7
 65
   257
 75
     1
175
     1
 42
1.0
 92
        8
 66
     7
 43
1.0
 76
     1
 77
     6
 78
     2
 67
     7
 79
     5
170
     0
171
     0
290
     0
174
     0
 93
       13
 44
0.0
173
     0
291
     1
 45
0.0
1001
ACAD
1000
AcDbSavedByObjectVersion
1070
     0
  0
VISUALSTYLE
  5
2C
102
{ACAD_REACTORS
330
2A
102
}
102
{ACAD_XDICTIONARY
360
221
102
}
330
2A
100
AcDbVisualStyle
  2
FlatWithEdges
 70
     1
 71
     2
 72
     1
 73
     1
 90
        2
 40
0.6
 41
30.0
 62
     5
 63
     7
 74
     1
 91
        0
 64
     7
 65
   257
 75
     1
175
     1
 42
1.0
 92
        0
 66
   257
 43
1.0
 76
     1
 77
     6
 78
     2
 67
     7
 79
     5
170
     0
171
     0
290
     0
174
     0
 93
       13
 44
0.0
173
     0
291
     1
 45
0.0
1001
ACAD
1000
AcDbSavedByObjectVersion
1070
     0
  0
VISUALSTYLE
  5
2D
102
{ACAD_REACTORS
330
2A
102
}
102
{ACAD_XDICTIONARY
360
223
102
}
330
2A
100
AcDbVisualStyle
  2
Gouraud
 70
     2
 71
     2
 72
     2
 73
     1
 90
        2
 40
0.6
 41
30.0
 62
     5
 63
     7
 74
     0
 91
        0
 64
     7
 65
   257
 75
     1
175
     1
 42
1.0
 92
        0
 66
     7
 43
1.0
 76
     1
 77
     6
 78
     2
 67
     7
 79
     5
170
     0
171
     0
290
     0
174
     0
 93
       13
 44
0.0
173
     0
291
     1
 45
0.0
1001
ACAD
1000
AcDbSavedByObjectVersion
1070
     0
  0
VISUALSTYLE
  5
2E
102
{ACAD_REACTORS
330
2A
102
}
102
{ACAD_XDICTIONARY
360
225
102
}
330
2A
100
AcDbVisualStyle
  2
GouraudWithEdges
 70
     3
 71
     2
 72
     2
 73
     1
 90
        2
 40
0.6
 41
30.0
 62
     5
 63
     7
 74
     1
 91
        0
 64
     7
 65
   257
 75
     1
175
     1
 42
1.0
 92
        0
 66
   257
 43
1.0
 76
     1
 77
     6
 78
     2
 67
     7
 79
     5
170
     0
171
     0
290
     0
174
     0
 93
       13
 44
0.0
173
     0
291
     1
 45
0.0
1001
ACAD
1000
AcDbSavedByObjectVersion
1070
     0
  0
VISUALSTYLE
  5
31
102
{ACAD_REACTORS
330
2A
102
}
102
{ACAD_XDICTIONARY
360
22B
102
}
330
2A
100
AcDbVisualStyle
  2
Hidden
 70
     6
 71
     1
 72
     2
 73
     2
 90
        0
 40
0.6
 41
30.0
 62
     5
 63
     7
 74
     2
 91
        2
 64
     7
 65
   257
 75
     2
175
     1
 42
40.0
 92
        0
 66
   257
 43
1.0
 76
     1
 77
     6
 78
     2
 67
     7
 79
     3
170
     0
171
     0
290
     0
174
     0
 93
        1
 44
0.0
173
     0
291
     0
 45
0.0
1001
ACAD
1000
AcDbSavedByObjectVersion
1070
     0
  0
VISUALSTYLE
  5
3B
102
{ACAD_REACTORS
330
2A
102
}
102
{ACAD_XDICTIONARY
360
23F
102
}
330
2A
100
AcDbVisualStyle
  2
JitterOff
 70
    20
 71
     2
 72
     2
 73
     0
 90
        0
 40
0.6
 41
30.0
 62
     5
 63
     7
 74
     1
 91
        4
 64
     7
 65
   257
 75
     1
175
     1
 42
1.0
 92
       10
 66
     7
 43
1.0
 76
     1
 77
     6
 78
     2
 67
     7
 79
     5
170
     0
171
     0
290
     0
174
     0
 93
        1
 44
0.0
173
     0
291
     1
 45
0.0
1001
ACAD
1000
AcDbSavedByObjectVersion
1070
     0
  0
VISUALSTYLE
  5
38
102
{ACAD_REACTORS
330
2A
102
}
102
{ACAD_XDICTIONARY
360
239
102
}
330
2A
100
AcDbVisualStyle
  2
Linepattern
 70
    14
 71
     2
 72
     2
 73
     0
 90
        0
 40
0.6
 41
30.0
 62
     5
 63
     7
 74
     1
 91
        4
 64
     7
 65
   257
 75
     7
175
     7
 42
1.0
 92
        8
 66
     7
 43
1.0
 76
     1
 77
     6
 78
     2
 67
     7
 79
     5
170
     0
171
     0
290
     0
174
     0
 93
        1
 44
0.0
173
     0
291
     1
 45
0.0
1001
ACAD
1000
AcDbSavedByObjectVersion
1070
     0
  0
VISUALSTYLE
  5
3C
102
{ACAD_REACTORS
330
2A
102
}
102
{ACAD_XDICTIONARY
360
241
102
}
330
2A
100
AcDbVisualStyle
  2
OverhangOff
 70
    21
 71
     2
 72
     2
 73
     0
 90
        0
 40
0.6
 41
30.0
 62
     5
 63
     7
 74
     1
 91
        4
 64
     7
 65
   257
 75
     1
175
     1
 42
1.0
 92
        9
 66
     7
 43
1.0
 76
     1
 77
     6
 78
     2
 67
     7
 79
     5
170
     0
171
     0
290
     0
174
     0
 93
        1
 44
0.0
173
     0
291
     1
 45
0.0
1001
ACAD
1000
AcDbSavedByObjectVersion
1070
     0
  0
VISUALSTYLE
  5
33
102
{ACAD_REACTORS
330
2A
102
}
102
{ACAD_XDICTIONARY
360
22F
102
}
330
2A
100
AcDbVisualStyle
  2
Realistic
 70
     8
 71
     2
 72
     3
 73
     0
 90
        2
 40
0.6
 41
30.0
 62
     5
 63
     7
 74
     0
 91
        0
 64
     7
 65
   257
 75
     1
175
     1
 42
1.0
 92
        8
 66
   257
 43
1.0
 76
     1
 77
     6
 78
     2
 67
     7
 79
     3
170
     0
171
     0
290
     0
174
     0
 93
       13
 44
0.0
173
     0
291
     0
 45
0.0
1001
ACAD
1000
AcDbSavedByObjectVersion
1070
     0
  0
VISUALSTYLE
  5
42
102
{ACAD_REACTORS
330
2A
102
}
102
{ACAD_XDICTIONARY
360
24D
102
}
330
2A
100
AcDbVisualStyle
  2
Shaded
 70
    27
 71
     2
 72
     2
 73
     1
 90
        2
 40
0.6
 41
30.0
 62
     5
 63
     7
 74
     0
 91
        4
 64
     7
 65
   257
 75
     1
175
     1
 42
1.0
 92
        8
 66
   257
 43
1.0
 76
     1
 77
     6
 78
     2
 67
     8
 79
     3
170
     0
171
     0
290
     0
174
     0
 93
        5
 44
0.0
173
     0
291
     0
 45
0.0
1001
ACAD
1000
AcDbSavedByObjectVersion
1070
     0
  0
VISUALSTYLE
  5
41
102
{ACAD_REACTORS
330
2A
102
}
102
{ACAD_XDICTIONARY
360
24B
102
}
330
2A
100
AcDbVisualStyle
  2
Shaded with edges
 70
    26
 71
     2
 72
     2
 73
     1
 90
        2
 40
0.6
 41
30.0
 62
     5
 63
     7
 74
     1
 91
       10
 64
     7
 65
   257
 75
     2
175
     1
 42
1.0
 92
        8
 66
   257
 43
1.0
 76
     1
 77
     6
 78
     2
 67
     7
 79
     3
170
     0
171
     0
290
     0
174
     0
 93
        5
 44
0.0
173
     0
291
     0
 45
0.0
1001
ACAD
1000
AcDbSavedByObjectVersion
1070
     0
  0
VISUALSTYLE
  5
3E
102
{ACAD_REACTORS
330
2A
102
}
102
{ACAD_XDICTIONARY
360
245
102
}
330
2A
100
AcDbVisualStyle
  2
Shades of Gray
 70
    23
 71
     2
 72
     2
 73
     3
 90
        0
 40
0.6
 41
30.0
 62
     5
 63
     7
 74
     2
 91
        2
 64
     7
 65
     7
 75
     1
175
     1
 42
40.0
 92
        8
 66
     7
 43
1.0
 76
     1
 77
     6
 78
     2
 67
     7
 79
     3
170
     0
171
     0
290
     0
174
     0
 93
        1
 44
0.0
173
     0
291
     0
 45
0.0
1001
ACAD
1000
AcDbSavedByObjectVersion
1070
     0
  0
VISUALSTYLE
  5
3F
102
{ACAD_REACTORS
330
2A
102
}
102
{ACAD_XDICTIONARY
360
247
102
}
330
2A
100
AcDbVisualStyle
  2
Sketchy
 70
    24
 71
     1
 72
     2
 73
     2
 90
        0
 40
0.6
 41
30.0
 62
     5
 63
     7
 74
     2
 91
        2
 64
     7
 65
     7
 75
     1
175
     1
 42
40.0
 92
       11
 66
     7
 43
1.0
 76
     1
 77
     6
 78
     2
 67
     7
 79
     6
170
     0
171
     0
290
     0
174
     0
 93
        1
 44
0.0
173
     0
291
     0
 45
0.0
1001
ACAD
1000
AcDbSavedByObjectVersion
1070
     0
  0
VISUALSTYLE
  5
37
102
{ACAD_REACTORS
330
2A
102
}
102
{ACAD_XDICTIONARY
360
237
102
}
330
2A
100
AcDbVisualStyle
  2
Thicken
 70
    13
 71
     2
 72
     2
 73
     0
 90
        0
 40
0.6
 41
30.0
 62
     5
 63
     7
 74
     1
 91
        4
 64
     7
 65
   257
 75
     1
175
     1
 42
1.0
 92
       12
 66
     7
 43
1.0
 76
     1
 77
     6
 78
     2
 67
     7
 79
     5
170
     0
171
     0
290
     0
174
     0
 93
        1
 44
0.0
173
     0
291
     1
 45
0.0
1001
ACAD
1000
AcDbSavedByObjectVersion
1070
     0
  0
VISUALSTYLE
  5
30
102
{ACAD_REACTORS
330
2A
102
}
102
{ACAD_XDICTIONARY
360
229
102
}
330
2A
100
AcDbVisualStyle
  2
Wireframe
 70
     5
 71
     0
 72
     2
 73
     0
 90
        0
 40
0.6
 41
30.0
 62
     5
 63
     7
 74
     1
 91
        4
 64
     7
 65
   257
 75
     1
175
     1
 42
1.0
 92
        0
 66
   257
 43
1.0
 76
     1
 77
     6
 78
     2
 67
     7
 79
     3
170
     0
171
     0
290
     0
174
     0
 93
        1
 44
0.0
173
     0
291
     0
 45
0.0
1001
ACAD
1000
AcDbSavedByObjectVersion
1070
     0
  0
VISUALSTYLE
  5
40
102
{ACAD_REACTORS
330
2A
102
}
102
{ACAD_XDICTIONARY
360
249
102
}
330
2A
100
AcDbVisualStyle
  2
X-Ray
 70
    25
 71
     2
 72
     2
 73
     1
 90
        1
 40
0.5
 41
30.0
 62
     5
 63
     7
 74
     1
 91
        0
 64
     7
 65
   257
 75
     1
175
     1
 42
1.0
 92
        8
 66
     7
 43
1.0
 76
     1
 77
     6
 78
     2
 67
     7
 79
     3
170
     0
171
     0
290
     0
174
     0
 93
       13
 44
0.0
173
     0
291
     0
 45
0.0
1001
ACAD
1000
AcDbSavedByObjectVersion
1070
     0
  0
DICTIONARYVAR
  5
21D
102
{ACAD_REACTORS
330
210
102
}
330
210
100
DictionaryVariables
280
     0
  1
1:1
  0
DICTIONARYVAR
  5
217
102
{ACAD_REACTORS
330
210
102
}
330
210
100
DictionaryVariables
280
     0
  1
3.500000
  0
DICTIONARYVAR
  5
218
102
{ACAD_REACTORS
330
210
102
}
330
210
100
DictionaryVariables
280
     0
  1
acadiso.lin
  0
DICTIONARYVAR
  5
212
102
{ACAD_REACTORS
330
210
102
}
330
210
100
DictionaryVariables
280
     0
  1
Standard
  0
DICTIONARYVAR
  5
211
102
{ACAD_REACTORS
330
210
102
}
330
210
100
DictionaryVariables
280
     0
  1
Standard
  0
DICTIONARYVAR
  5
219
102
{ACAD_REACTORS
330
210
102
}
330
210
100
DictionaryVariables
280
     0
  1
2
  0
DICTIONARYVAR
  5
21A
102
{ACAD_REACTORS
330
210
102
}
330
210
100
DictionaryVariables
280
     0
  1
1
  0
DICTIONARYVAR
  5
21E
102
{ACAD_REACTORS
330
210
102
}
330
210
100
DictionaryVariables
280
     0
  1
1
  0
DICTIONARYVAR
  5
214
102
{ACAD_REACTORS
330
210
102
}
330
210
100
DictionaryVariables
280
     0
  1
80.000000
  0
DICTIONARYVAR
  5
213
102
{ACAD_REACTORS
330
210
102
}
330
210
100
DictionaryVariables
280
     0
  1
5.000000
  0
DICTIONARY
  5
251
330
45
100
AcDbDictionary
280
     1
281
     1
  3
ACAD_XREC_ROUNDTRIP
360
252
  0
DICTIONARY
  5
24F
330
44
100
AcDbDictionary
280
     1
281
     1
  3
ACAD_XREC_ROUNDTRIP
360
250
  0
DICTIONARY
  5
253
330
46
100
AcDbDictionary
280
     1
281
     1
  3
ACAD_XREC_ROUNDTRIP
360
254
  0
DICTIONARY
  5
256
330
6C
100
AcDbDictionary
280
     1
281
     1
  3
ACAD_XREC_ROUNDTRIP
360
257
  0
DICTIONARY
  5
227
330
2F
100
AcDbDictionary
280
     1
281
     1
  3
ACAD_XREC_ROUNDTRIP
360
228
  0
DICTIONARY
  5
22D
330
32
100
AcDbDictionary
280
     1
281
     1
  3
ACAD_XREC_ROUNDTRIP
360
22E
  0
DICTIONARY
  5
235
330
36
100
AcDbDictionary
280
     1
281
     1
  3
ACAD_XREC_ROUNDTRIP
360
236
  0
DICTIONARY
  5
23D
330
3A
100
AcDbDictionary
280
     1
281
     1
  3
ACAD_XREC_ROUNDTRIP
360
23E
  0
DICTIONARY
  5
231
330
34
100
AcDbDictionary
280
     1
281
     1
  3
ACAD_XREC_ROUNDTRIP
360
232
  0
DICTIONARY
  5
233
330
35
100
AcDbDictionary
280
     1
281
     1
  3
ACAD_XREC_ROUNDTRIP
360
234
  0
DICTIONARY
  5
243
330
3D
100
AcDbDictionary
280
     1
281
     1
  3
ACAD_XREC_ROUNDTRIP
360
244
  0
DICTIONARY
  5
23B
330
39
100
AcDbDictionary
280
     1
281
     1
  3
ACAD_XREC_ROUNDTRIP
360
23C
  0
DICTIONARY
  5
21F
330
2B
100
AcDbDictionary
280
     1
281
     1
  3
ACAD_XREC_ROUNDTRIP
360
220
  0
DICTIONARY
  5
221
330
2C
100
AcDbDictionary
280
     1
281
     1
  3
ACAD_XREC_ROUNDTRIP
360
222
  0
DICTIONARY
  5
223
330
2D
100
AcDbDictionary
280
     1
281
     1
  3
ACAD_XREC_ROUNDTRIP
360
224
  0
DICTIONARY
  5
225
330
2E
100
AcDbDictionary
280
     1
281
     1
  3
ACAD_XREC_ROUNDTRIP
360
226
  0
DICTIONARY
  5
22B
330
31
100
AcDbDictionary
280
     1
281
     1
  3
ACAD_XREC_ROUNDTRIP
360
22C
  0
DICTIONARY
  5
23F
330
3B
100
AcDbDictionary
280
     1
281
     1
  3
ACAD_XREC_ROUNDTRIP
360
240
  0
DICTIONARY
  5
239
330
38
100
AcDbDictionary
280
     1
281
     1
  3
ACAD_XREC_ROUNDTRIP
360
23A
  0
DICTIONARY
  5
241
330
3C
100
AcDbDictionary
280
     1
281
     1
  3
ACAD_XREC_ROUNDTRIP
360
242
  0
DICTIONARY
  5
22F
330
33
100
AcDbDictionary
280
     1
281
     1
  3
ACAD_XREC_ROUNDTRIP
360
230
  0
DICTIONARY
  5
24D
330
42
100
AcDbDictionary
280
     1
281
     1
  3
ACAD_XREC_ROUNDTRIP
360
24E
  0
DICTIONARY
  5
24B
330
41
100
AcDbDictionary
280
     1
281
     1
  3
ACAD_XREC_ROUNDTRIP
360
24C
  0
DICTIONARY
  5
245
330
3E
100
AcDbDictionary
280
     1
281
     1
  3
ACAD_XREC_ROUNDTRIP
360
246
  0
DICTIONARY
  5
247
330
3F
100
AcDbDictionary
280
     1
281
     1
  3
ACAD_XREC_ROUNDTRIP
360
248
  0
DICTIONARY
  5
237
330
37
100
AcDbDictionary
280
     1
281
     1
  3
ACAD_XREC_ROUNDTRIP
360
238
  0
DICTIONARY
  5
229
330
30
100
AcDbDictionary
280
     1
281
     1
  3
ACAD_XREC_ROUNDTRIP
360
22A
  0
DICTIONARY
  5
249
330
40
100
AcDbDictionary
280
     1
281
     1
  3
ACAD_XREC_ROUNDTRIP
360
24A
  0
XRECORD
  5
252
102
{ACAD_REACTORS
330
251
102
}
330
251
100
AcDbXrecord
280
     1
102
MATERIAL
148
0.0
149
0.0
149
0.0
 93
        0
 94
      127
282
     0
 72
     1
 77
     1
171
     1
175
     1
179
     1
273
     0
  0
XRECORD
  5
250
102
{ACAD_REACTORS
330
24F
102
}
330
24F
100
AcDbXrecord
280
     1
102
MATERIAL
148
0.0
149
0.0
149
0.0
 93
        0
 94
      127
282
     0
 72
     1
 77
     1
171
     1
175
     1
179
     1
273
     0
  0
XRECORD
  5
254
102
{ACAD_REACTORS
330
253
102
}
330
253
100
AcDbXrecord
280
     1
102
MATERIAL
148
0.0
149
0.0
149
0.0
 93
        0
 94
      127
282
     0
 72
     1
 77
     1
171
     1
175
     1
179
     1
273
     0
  0
XRECORD
  5
257
102
{ACAD_REACTORS
330
256
102
}
330
256
100
AcDbXrecord
280
     1
102
ACAD_ROUNDTRIP_2010_MLEADER_STYLE
  0
XRECORD
  5
228
102
{ACAD_REACTORS
330
227
102
}
330
227
100
AcDbXrecord
280
     1
102
RTVSPropertyOp0
 70
     1
102
RTVSPropertyOp1
 70
     1
102
RTVSPropertyOp2
 70
     1
102
RTVSPropertyOp3
 70
     1
102
RTVSPropertyOp4
 70
     1
102
RTVSPropertyOp5
 70
     1
102
RTVSPropertyOp6
 70
     1
102
RTVSPropertyOp7
 70
     1
102
RTVSPropertyOp8
 70
     1
102
RTVSPropertyOp9
 70
     1
102
RTVSPropertyOp10
 70
     1
102
RTVSPropertyOp11
 70
     1
102
RTVSPropertyOp12
 70
     1
102
RTVSPropertyOp13
 70
     1
102
RTVSPropertyOp14
 70
     1
102
RTVSPropertyOp15
 70
     1
102
RTVSPropertyOp16
 70
     1
102
RTVSPropertyOp17
 70
     1
102
RTVSPropertyOp18
 70
     1
102
RTVSPropertyOp19
 70
     1
102
RTVSPropertyOp20
 70
     1
102
RTVSPropertyOp21
 70
     1
102
RTVSPropertyOp22
 70
     1
102
RTVSPropertyOp23
 70
     1
102
RTVSPropertyOp24
 70
     1
102
RTVSPropertyOp25
 70
     1
102
RTVSPropertyOp26
 70
     1
102
RTVSPropertyOp27
 70
     1
102
RTVSPropertyOp28
 70
     1
102
RTVSPropertyOp29
 70
     1
102
RTVSPropertyOp30
 70
     1
102
RTVSPropertyOp31
 70
     1
102
RTVSPropertyOp32
 70
     1
102
RTVSPropertyOp33
 70
     1
102
RTVSPropertyOp34
 70
     1
102
RTVSPropertyOp35
 70
     1
102
RTVSPropertyOp36
 70
     1
102
RTVSPropertyOp37
 70
     1
102
RTVSPropertyOp38
 70
     1
102
RTVSPropertyOp39
 70
     1
102
RTVSPropertyOp40
 70
     1
102
RTVSPropertyOp41
 70
     1
102
RTVSPropertyOp42
 70
     1
102
RTVSPropertyOp43
 70
     1
102
RTVSPropertyOp44
 70
     1
102
RTVSPropertyOp45
 70
     1
102
RTVSPropertyOp46
 70
     1
102
RTVSPropertyOp47
 70
     1
102
RTVSPropertyOp48
 70
     1
102
RTVSPropertyOp49
 70
     1
102
RTVSPropertyOp50
 70
     1
102
RTVSPropertyOp51
 70
     0
102
RTVSPropertyOp52
 70
     0
102
RTVSPropertyOp53
 70
     1
102
RTVSPropertyOp54
 70
     1
102
RTVSPropertyOp55
 70
     1
102
RTVSPropertyOp56
 70
     1
102
RTVSPropertyOp57
 70
     1
102
RTVSPost2010Prop28
280
     1
102
RTVSPost2010PropOp28
 70
     1
102
RTVSPost2010Prop29
280
     1
102
RTVSPost2010PropOp29
 70
     1
102
RTVSPost2010Prop30
280
     0
102
RTVSPost2010PropOp30
 70
     1
102
RTVSPost2010Prop31
280
     0
102
RTVSPost2010PropOp31
 70
     1
102
RTVSPost2010Prop32
280
     0
102
RTVSPost2010PropOp32
 70
     1
102
RTVSPost2010Prop33
280
     0
102
RTVSPost2010PropOp33
 70
     1
102
RTVSPost2010Prop34
280
     0
102
RTVSPost2010PropOp34
 70
     1
102
RTVSPost2010Prop35
280
     0
102
RTVSPost2010PropOp35
 70
     1
102
RTVSPost2010Prop36
280
     0
102
RTVSPost2010PropOp36
 70
     1
102
RTVSPost2010Prop37
 90
       50
102
RTVSPost2010PropOp37
 70
     1
102
RTVSPost2010Prop38
140
0.0
102
RTVSPost2010PropOp38
 70
     1
102
RTVSPost2010Prop39
140
1.0
102
RTVSPost2010PropOp39
 70
     1
102
RTVSPost2010Prop40
 90
        0
102
RTVSPost2010PropOp40
 70
     1
102
RTVSPost2010Prop41ColorIndex
 90
       18
102
RTVSPost2010Prop41ColorRGB
 90
        0
102
RTVSPost2010PropOp41
 70
     1
102
RTVSPost2010Prop42
 90
       50
102
RTVSPost2010PropOp42
 70
     1
102
RTVSPost2010Prop43
 90
        3
102
RTVSPost2010PropOp43
 70
     1
102
RTVSPost2010Prop44ColorIndex
 90
        5
102
RTVSPost2010Prop44ColorRGB
 90
      255
102
RTVSPost2010PropOp44
 70
     1
102
RTVSPost2010Prop45
280
     0
102
RTVSPost2010PropOp45
 70
     1
102
RTVSPost2010Prop46
 90
       50
102
RTVSPost2010PropOp46
 70
     1
102
RTVSPost2010Prop47
 90
       50
102
RTVSPost2010PropOp47
 70
     1
102
RTVSPost2010Prop48
 90
       50
102
RTVSPost2010PropOp48
 70
     1
102
RTVSPost2010Prop49
280
     0
102
RTVSPost2010PropOp49
 70
     1
102
RTVSPost2010Prop50
 90
       50
102
RTVSPost2010PropOp50
 70
     1
102
RTVSPost2010Prop51ColorIndex
 90
      256
102
RTVSPost2010Prop51ColorRGB
 90
-16777216
102
RTVSPost2010PropOp51
 70
     0
102
RTVSPost2010Prop52
140
1.0
102
RTVSPost2010PropOp52
 70
     0
102
RTVSPost2010Prop53
 90
        2
102
RTVSPost2010PropOp53
 70
     1
102
RTVSPost2010Prop54
  1
strokes_ogs.tif
102
RTVSPost2010PropOp54
 70
     1
102
RTVSPost2010Prop55
280
     0
102
RTVSPost2010PropOp55
 70
     1
102
RTVSPost2010Prop56
140
1.0
102
RTVSPost2010PropOp56
 70
     1
102
RTVSPost2010Prop57
140
1.0
102
RTVSPost2010PropOp57
 70
     1
  0
XRECORD
  5
22E
102
{ACAD_REACTORS
330
22D
102
}
330
22D
100
AcDbXrecord
280
     1
102
RTVSPropertyOp0
 70
     1
102
RTVSPropertyOp1
 70
     1
102
RTVSPropertyOp2
 70
     1
102
RTVSPropertyOp3
 70
     1
102
RTVSPropertyOp4
 70
     1
102
RTVSPropertyOp5
 70
     1
102
RTVSPropertyOp6
 70
     1
102
RTVSPropertyOp7
 70
     1
102
RTVSPropertyOp8
 70
     1
102
RTVSPropertyOp9
 70
     1
102
RTVSPropertyOp10
 70
     1
102
RTVSPropertyOp11
 70
     1
102
RTVSPropertyOp12
 70
     1
102
RTVSPropertyOp13
 70
     1
102
RTVSPropertyOp14
 70
     1
102
RTVSPropertyOp15
 70
     1
102
RTVSPropertyOp16
 70
     1
102
RTVSPropertyOp17
 70
     1
102
RTVSPropertyOp18
 70
     1
102
RTVSPropertyOp19
 70
     1
102
RTVSPropertyOp20
 70
     1
102
RTVSPropertyOp21
 70
     1
102
RTVSPropertyOp22
 70
     1
102
RTVSPropertyOp23
 70
     1
102
RTVSPropertyOp24
 70
     1
102
RTVSPropertyOp25
 70
     1
102
RTVSPropertyOp26
 70
     1
102
RTVSPropertyOp27
 70
     1
102
RTVSPropertyOp28
 70
     1
102
RTVSPropertyOp29
 70
     1
102
RTVSPropertyOp30
 70
     1
102
RTVSPropertyOp31
 70
     1
102
RTVSPropertyOp32
 70
     1
102
RTVSPropertyOp33
 70
     1
102
RTVSPropertyOp34
 70
     1
102
RTVSPropertyOp35
 70
     1
102
RTVSPropertyOp36
 70
     1
102
RTVSPropertyOp37
 70
     1
102
RTVSPropertyOp38
 70
     1
102
RTVSPropertyOp39
 70
     1
102
RTVSPropertyOp40
 70
     1
102
RTVSPropertyOp41
 70
     1
102
RTVSPropertyOp42
 70
     1
102
RTVSPropertyOp43
 70
     1
102
RTVSPropertyOp44
 70
     1
102
RTVSPropertyOp45
 70
     1
102
RTVSPropertyOp46
 70
     1
102
RTVSPropertyOp47
 70
     1
102
RTVSPropertyOp48
 70
     1
102
RTVSPropertyOp49
 70
     1
102
RTVSPropertyOp50
 70
     1
102
RTVSPropertyOp51
 70
     0
102
RTVSPropertyOp52
 70
     0
102
RTVSPropertyOp53
 70
     1
102
RTVSPropertyOp54
 70
     1
102
RTVSPropertyOp55
 70
     1
102
RTVSPropertyOp56
 70
     1
102
RTVSPropertyOp57
 70
     1
102
RTVSPost2010Prop28
280
     0
102
RTVSPost2010PropOp28
 70
     1
102
RTVSPost2010Prop29
280
     1
102
RTVSPost2010PropOp29
 70
     1
102
RTVSPost2010Prop30
280
     1
102
RTVSPost2010PropOp30
 70
     1
102
RTVSPost2010Prop31
280
     0
102
RTVSPost2010PropOp31
 70
     1
102
RTVSPost2010Prop32
280
     0
102
RTVSPost2010PropOp32
 70
     1
102
RTVSPost2010Prop33
280
     0
102
RTVSPost2010PropOp33
 70
     1
102
RTVSPost2010Prop34
280
     0
102
RTVSPost2010PropOp34
 70
     1
102
RTVSPost2010Prop35
280
     0
102
RTVSPost2010PropOp35
 70
     1
102
RTVSPost2010Prop36
280
     0
102
RTVSPost2010PropOp36
 70
     1
102
RTVSPost2010Prop37
 90
       50
102
RTVSPost2010PropOp37
 70
     1
102
RTVSPost2010Prop38
140
0.0
102
RTVSPost2010PropOp38
 70
     1
102
RTVSPost2010Prop39
140
1.0
102
RTVSPost2010PropOp39
 70
     1
102
RTVSPost2010Prop40
 90
        0
102
RTVSPost2010PropOp40
 70
     1
102
RTVSPost2010Prop41ColorIndex
 90
       18
102
RTVSPost2010Prop41ColorRGB
 90
        0
102
RTVSPost2010PropOp41
 70
     1
102
RTVSPost2010Prop42
 90
       50
102
RTVSPost2010PropOp42
 70
     1
102
RTVSPost2010Prop43
 90
        3
102
RTVSPost2010PropOp43
 70
     1
102
RTVSPost2010Prop44ColorIndex
 90
        5
102
RTVSPost2010Prop44ColorRGB
 90
      255
102
RTVSPost2010PropOp44
 70
     1
102
RTVSPost2010Prop45
280
     0
102
RTVSPost2010PropOp45
 70
     1
102
RTVSPost2010Prop46
 90
       50
102
RTVSPost2010PropOp46
 70
     1
102
RTVSPost2010Prop47
 90
       50
102
RTVSPost2010PropOp47
 70
     1
102
RTVSPost2010Prop48
 90
       50
102
RTVSPost2010PropOp48
 70
     1
102
RTVSPost2010Prop49
280
     0
102
RTVSPost2010PropOp49
 70
     1
102
RTVSPost2010Prop50
 90
       50
102
RTVSPost2010PropOp50
 70
     1
102
RTVSPost2010Prop51ColorIndex
 90
      256
102
RTVSPost2010Prop51ColorRGB
 90
-16777216
102
RTVSPost2010PropOp51
 70
     0
102
RTVSPost2010Prop52
140
1.0
102
RTVSPost2010PropOp52
 70
     0
102
RTVSPost2010Prop53
 90
        2
102
RTVSPost2010PropOp53
 70
     1
102
RTVSPost2010Prop54
  1
strokes_ogs.tif
102
RTVSPost2010PropOp54
 70
     1
102
RTVSPost2010Prop55
280
     0
102
RTVSPost2010PropOp55
 70
     1
102
RTVSPost2010Prop56
140
1.0
102
RTVSPost2010PropOp56
 70
     1
102
RTVSPost2010Prop57
140
1.0
102
RTVSPost2010PropOp57
 70
     1
  0
XRECORD
  5
236
102
{ACAD_REACTORS
330
235
102
}
330
235
100
AcDbXrecord
280
     1
102
RTVSPropertyOp0
 70
     1
102
RTVSPropertyOp1
 70
     1
102
RTVSPropertyOp2
 70
     1
102
RTVSPropertyOp3
 70
     1
102
RTVSPropertyOp4
 70
     1
102
RTVSPropertyOp5
 70
     1
102
RTVSPropertyOp6
 70
     1
102
RTVSPropertyOp7
 70
     1
102
RTVSPropertyOp8
 70
     1
102
RTVSPropertyOp9
 70
     1
102
RTVSPropertyOp10
 70
     1
102
RTVSPropertyOp11
 70
     1
102
RTVSPropertyOp12
 70
     1
102
RTVSPropertyOp13
 70
     1
102
RTVSPropertyOp14
 70
     1
102
RTVSPropertyOp15
 70
     1
102
RTVSPropertyOp16
 70
     1
102
RTVSPropertyOp17
 70
     1
102
RTVSPropertyOp18
 70
     1
102
RTVSPropertyOp19
 70
     1
102
RTVSPropertyOp20
 70
     1
102
RTVSPropertyOp21
 70
     1
102
RTVSPropertyOp22
 70
     1
102
RTVSPropertyOp23
 70
     1
102
RTVSPropertyOp24
 70
     1
102
RTVSPropertyOp25
 70
     1
102
RTVSPropertyOp26
 70
     1
102
RTVSPropertyOp27
 70
     1
102
RTVSPropertyOp28
 70
     1
102
RTVSPropertyOp29
 70
     1
102
RTVSPropertyOp30
 70
     1
102
RTVSPropertyOp31
 70
     1
102
RTVSPropertyOp32
 70
     1
102
RTVSPropertyOp33
 70
     1
102
RTVSPropertyOp34
 70
     1
102
RTVSPropertyOp35
 70
     1
102
RTVSPropertyOp36
 70
     1
102
RTVSPropertyOp37
 70
     1
102
RTVSPropertyOp38
 70
     1
102
RTVSPropertyOp39
 70
     1
102
RTVSPropertyOp40
 70
     1
102
RTVSPropertyOp41
 70
     1
102
RTVSPropertyOp42
 70
     1
102
RTVSPropertyOp43
 70
     1
102
RTVSPropertyOp44
 70
     1
102
RTVSPropertyOp45
 70
     1
102
RTVSPropertyOp46
 70
     1
102
RTVSPropertyOp47
 70
     1
102
RTVSPropertyOp48
 70
     1
102
RTVSPropertyOp49
 70
     1
102
RTVSPropertyOp50
 70
     1
102
RTVSPropertyOp51
 70
     0
102
RTVSPropertyOp52
 70
     0
102
RTVSPropertyOp53
 70
     1
102
RTVSPropertyOp54
 70
     1
102
RTVSPropertyOp55
 70
     1
102
RTVSPropertyOp56
 70
     1
102
RTVSPropertyOp57
 70
     1
102
RTVSPost2010Prop28
280
     0
102
RTVSPost2010PropOp28
 70
     1
102
RTVSPost2010Prop29
280
     1
102
RTVSPost2010PropOp29
 70
     1
102
RTVSPost2010Prop30
280
     1
102
RTVSPost2010PropOp30
 70
     1
102
RTVSPost2010Prop31
280
     0
102
RTVSPost2010PropOp31
 70
     1
102
RTVSPost2010Prop32
280
     0
102
RTVSPost2010PropOp32
 70
     1
102
RTVSPost2010Prop33
280
     0
102
RTVSPost2010PropOp33
 70
     1
102
RTVSPost2010Prop34
280
     0
102
RTVSPost2010PropOp34
 70
     1
102
RTVSPost2010Prop35
280
     0
102
RTVSPost2010PropOp35
 70
     1
102
RTVSPost2010Prop36
280
     0
102
RTVSPost2010PropOp36
 70
     1
102
RTVSPost2010Prop37
 90
       50
102
RTVSPost2010PropOp37
 70
     1
102
RTVSPost2010Prop38
140
0.0
102
RTVSPost2010PropOp38
 70
     1
102
RTVSPost2010Prop39
140
1.0
102
RTVSPost2010PropOp39
 70
     1
102
RTVSPost2010Prop40
 90
        0
102
RTVSPost2010PropOp40
 70
     1
102
RTVSPost2010Prop41ColorIndex
 90
       18
102
RTVSPost2010Prop41ColorRGB
 90
        0
102
RTVSPost2010PropOp41
 70
     1
102
RTVSPost2010Prop42
 90
       50
102
RTVSPost2010PropOp42
 70
     1
102
RTVSPost2010Prop43
 90
        3
102
RTVSPost2010PropOp43
 70
     1
102
RTVSPost2010Prop44ColorIndex
 90
        5
102
RTVSPost2010Prop44ColorRGB
 90
      255
102
RTVSPost2010PropOp44
 70
     1
102
RTVSPost2010Prop45
280
     0
102
RTVSPost2010PropOp45
 70
     1
102
RTVSPost2010Prop46
 90
       50
102
RTVSPost2010PropOp46
 70
     1
102
RTVSPost2010Prop47
 90
       50
102
RTVSPost2010PropOp47
 70
     1
102
RTVSPost2010Prop48
 90
       50
102
RTVSPost2010PropOp48
 70
     1
102
RTVSPost2010Prop49
280
     0
102
RTVSPost2010PropOp49
 70
     1
102
RTVSPost2010Prop50
 90
       50
102
RTVSPost2010PropOp50
 70
     1
102
RTVSPost2010Prop51ColorIndex
 90
      256
102
RTVSPost2010Prop51ColorRGB
 90
-16777216
102
RTVSPost2010PropOp51
 70
     0
102
RTVSPost2010Prop52
140
1.0
102
RTVSPost2010PropOp52
 70
     0
102
RTVSPost2010Prop53
 90
        2
102
RTVSPost2010PropOp53
 70
     1
102
RTVSPost2010Prop54
  1
strokes_ogs.tif
102
RTVSPost2010PropOp54
 70
     1
102
RTVSPost2010Prop55
280
     0
102
RTVSPost2010PropOp55
 70
     1
102
RTVSPost2010Prop56
140
1.0
102
RTVSPost2010PropOp56
 70
     1
102
RTVSPost2010Prop57
140
1.0
102
RTVSPost2010PropOp57
 70
     1
  0
XRECORD
  5
23E
102
{ACAD_REACTORS
330
23D
102
}
330
23D
100
AcDbXrecord
280
     1
102
RTVSPropertyOp0
 70
     1
102
RTVSPropertyOp1
 70
     1
102
RTVSPropertyOp2
 70
     1
102
RTVSPropertyOp3
 70
     1
102
RTVSPropertyOp4
 70
     1
102
RTVSPropertyOp5
 70
     1
102
RTVSPropertyOp6
 70
     1
102
RTVSPropertyOp7
 70
     1
102
RTVSPropertyOp8
 70
     1
102
RTVSPropertyOp9
 70
     1
102
RTVSPropertyOp10
 70
     1
102
RTVSPropertyOp11
 70
     1
102
RTVSPropertyOp12
 70
     1
102
RTVSPropertyOp13
 70
     1
102
RTVSPropertyOp14
 70
     1
102
RTVSPropertyOp15
 70
     1
102
RTVSPropertyOp16
 70
     1
102
RTVSPropertyOp17
 70
     1
102
RTVSPropertyOp18
 70
     1
102
RTVSPropertyOp19
 70
     1
102
RTVSPropertyOp20
 70
     1
102
RTVSPropertyOp21
 70
     1
102
RTVSPropertyOp22
 70
     1
102
RTVSPropertyOp23
 70
     1
102
RTVSPropertyOp24
 70
     1
102
RTVSPropertyOp25
 70
     1
102
RTVSPropertyOp26
 70
     1
102
RTVSPropertyOp27
 70
     1
102
RTVSPropertyOp28
 70
     1
102
RTVSPropertyOp29
 70
     1
102
RTVSPropertyOp30
 70
     1
102
RTVSPropertyOp31
 70
     1
102
RTVSPropertyOp32
 70
     1
102
RTVSPropertyOp33
 70
     1
102
RTVSPropertyOp34
 70
     1
102
RTVSPropertyOp35
 70
     1
102
RTVSPropertyOp36
 70
     1
102
RTVSPropertyOp37
 70
     1
102
RTVSPropertyOp38
 70
     1
102
RTVSPropertyOp39
 70
     1
102
RTVSPropertyOp40
 70
     1
102
RTVSPropertyOp41
 70
     1
102
RTVSPropertyOp42
 70
     1
102
RTVSPropertyOp43
 70
     1
102
RTVSPropertyOp44
 70
     1
102
RTVSPropertyOp45
 70
     1
102
RTVSPropertyOp46
 70
     1
102
RTVSPropertyOp47
 70
     1
102
RTVSPropertyOp48
 70
     1
102
RTVSPropertyOp49
 70
     1
102
RTVSPropertyOp50
 70
     1
102
RTVSPropertyOp51
 70
     0
102
RTVSPropertyOp52
 70
     0
102
RTVSPropertyOp53
 70
     1
102
RTVSPropertyOp54
 70
     1
102
RTVSPropertyOp55
 70
     1
102
RTVSPropertyOp56
 70
     1
102
RTVSPropertyOp57
 70
     1
102
RTVSPost2010Prop28
280
     0
102
RTVSPost2010PropOp28
 70
     1
102
RTVSPost2010Prop29
280
     1
102
RTVSPost2010PropOp29
 70
     1
102
RTVSPost2010Prop30
280
     1
102
RTVSPost2010PropOp30
 70
     1
102
RTVSPost2010Prop31
280
     0
102
RTVSPost2010PropOp31
 70
     1
102
RTVSPost2010Prop32
280
     0
102
RTVSPost2010PropOp32
 70
     1
102
RTVSPost2010Prop33
280
     0
102
RTVSPost2010PropOp33
 70
     1
102
RTVSPost2010Prop34
280
     0
102
RTVSPost2010PropOp34
 70
     1
102
RTVSPost2010Prop35
280
     0
102
RTVSPost2010PropOp35
 70
     1
102
RTVSPost2010Prop36
280
     0
102
RTVSPost2010PropOp36
 70
     1
102
RTVSPost2010Prop37
 90
       50
102
RTVSPost2010PropOp37
 70
     1
102
RTVSPost2010Prop38
140
0.0
102
RTVSPost2010PropOp38
 70
     1
102
RTVSPost2010Prop39
140
1.0
102
RTVSPost2010PropOp39
 70
     1
102
RTVSPost2010Prop40
 90
        0
102
RTVSPost2010PropOp40
 70
     1
102
RTVSPost2010Prop41ColorIndex
 90
       18
102
RTVSPost2010Prop41ColorRGB
 90
        0
102
RTVSPost2010PropOp41
 70
     1
102
RTVSPost2010Prop42
 90
       50
102
RTVSPost2010PropOp42
 70
     1
102
RTVSPost2010Prop43
 90
        3
102
RTVSPost2010PropOp43
 70
     1
102
RTVSPost2010Prop44ColorIndex
 90
        5
102
RTVSPost2010Prop44ColorRGB
 90
      255
102
RTVSPost2010PropOp44
 70
     1
102
RTVSPost2010Prop45
280
     0
102
RTVSPost2010PropOp45
 70
     1
102
RTVSPost2010Prop46
 90
       50
102
RTVSPost2010PropOp46
 70
     1
102
RTVSPost2010Prop47
 90
       50
102
RTVSPost2010PropOp47
 70
     1
102
RTVSPost2010Prop48
 90
       50
102
RTVSPost2010PropOp48
 70
     1
102
RTVSPost2010Prop49
280
     0
102
RTVSPost2010PropOp49
 70
     1
102
RTVSPost2010Prop50
 90
       50
102
RTVSPost2010PropOp50
 70
     1
102
RTVSPost2010Prop51ColorIndex
 90
      256
102
RTVSPost2010Prop51ColorRGB
 90
-16777216
102
RTVSPost2010PropOp51
 70
     0
102
RTVSPost2010Prop52
140
1.0
102
RTVSPost2010PropOp52
 70
     0
102
RTVSPost2010Prop53
 90
        2
102
RTVSPost2010PropOp53
 70
     1
102
RTVSPost2010Prop54
  1
strokes_ogs.tif
102
RTVSPost2010PropOp54
 70
     1
102
RTVSPost2010Prop55
280
     0
102
RTVSPost2010PropOp55
 70
     1
102
RTVSPost2010Prop56
140
1.0
102
RTVSPost2010PropOp56
 70
     1
102
RTVSPost2010Prop57
140
1.0
102
RTVSPost2010PropOp57
 70
     1
  0
XRECORD
  5
232
102
{ACAD_REACTORS
330
231
102
}
330
231
100
AcDbXrecord
280
     1
102
RTVSPropertyOp0
 70
     1
102
RTVSPropertyOp1
 70
     1
102
RTVSPropertyOp2
 70
     1
102
RTVSPropertyOp3
 70
     1
102
RTVSPropertyOp4
 70
     1
102
RTVSPropertyOp5
 70
     1
102
RTVSPropertyOp6
 70
     1
102
RTVSPropertyOp7
 70
     1
102
RTVSPropertyOp8
 70
     1
102
RTVSPropertyOp9
 70
     1
102
RTVSPropertyOp10
 70
     1
102
RTVSPropertyOp11
 70
     1
102
RTVSPropertyOp12
 70
     1
102
RTVSPropertyOp13
 70
     1
102
RTVSPropertyOp14
 70
     1
102
RTVSPropertyOp15
 70
     1
102
RTVSPropertyOp16
 70
     1
102
RTVSPropertyOp17
 70
     1
102
RTVSPropertyOp18
 70
     1
102
RTVSPropertyOp19
 70
     1
102
RTVSPropertyOp20
 70
     1
102
RTVSPropertyOp21
 70
     1
102
RTVSPropertyOp22
 70
     1
102
RTVSPropertyOp23
 70
     1
102
RTVSPropertyOp24
 70
     1
102
RTVSPropertyOp25
 70
     1
102
RTVSPropertyOp26
 70
     1
102
RTVSPropertyOp27
 70
     1
102
RTVSPropertyOp28
 70
     1
102
RTVSPropertyOp29
 70
     1
102
RTVSPropertyOp30
 70
     1
102
RTVSPropertyOp31
 70
     1
102
RTVSPropertyOp32
 70
     1
102
RTVSPropertyOp33
 70
     1
102
RTVSPropertyOp34
 70
     1
102
RTVSPropertyOp35
 70
     1
102
RTVSPropertyOp36
 70
     1
102
RTVSPropertyOp37
 70
     1
102
RTVSPropertyOp38
 70
     1
102
RTVSPropertyOp39
 70
     1
102
RTVSPropertyOp40
 70
     1
102
RTVSPropertyOp41
 70
     1
102
RTVSPropertyOp42
 70
     1
102
RTVSPropertyOp43
 70
     1
102
RTVSPropertyOp44
 70
     1
102
RTVSPropertyOp45
 70
     1
102
RTVSPropertyOp46
 70
     1
102
RTVSPropertyOp47
 70
     1
102
RTVSPropertyOp48
 70
     1
102
RTVSPropertyOp49
 70
     1
102
RTVSPropertyOp50
 70
     1
102
RTVSPropertyOp51
 70
     0
102
RTVSPropertyOp52
 70
     0
102
RTVSPropertyOp53
 70
     1
102
RTVSPropertyOp54
 70
     1
102
RTVSPropertyOp55
 70
     1
102
RTVSPropertyOp56
 70
     1
102
RTVSPropertyOp57
 70
     1
102
RTVSPost2010Prop28
280
     0
102
RTVSPost2010PropOp28
 70
     1
102
RTVSPost2010Prop29
280
     1
102
RTVSPost2010PropOp29
 70
     1
102
RTVSPost2010Prop30
280
     1
102
RTVSPost2010PropOp30
 70
     1
102
RTVSPost2010Prop31
280
     0
102
RTVSPost2010PropOp31
 70
     1
102
RTVSPost2010Prop32
280
     0
102
RTVSPost2010PropOp32
 70
     1
102
RTVSPost2010Prop33
280
     0
102
RTVSPost2010PropOp33
 70
     1
102
RTVSPost2010Prop34
280
     0
102
RTVSPost2010PropOp34
 70
     1
102
RTVSPost2010Prop35
280
     0
102
RTVSPost2010PropOp35
 70
     1
102
RTVSPost2010Prop36
280
     0
102
RTVSPost2010PropOp36
 70
     1
102
RTVSPost2010Prop37
 90
       50
102
RTVSPost2010PropOp37
 70
     1
102
RTVSPost2010Prop38
140
0.0
102
RTVSPost2010PropOp38
 70
     1
102
RTVSPost2010Prop39
140
1.0
102
RTVSPost2010PropOp39
 70
     1
102
RTVSPost2010Prop40
 90
        0
102
RTVSPost2010PropOp40
 70
     1
102
RTVSPost2010Prop41ColorIndex
 90
       18
102
RTVSPost2010Prop41ColorRGB
 90
        0
102
RTVSPost2010PropOp41
 70
     1
102
RTVSPost2010Prop42
 90
       50
102
RTVSPost2010PropOp42
 70
     1
102
RTVSPost2010Prop43
 90
        3
102
RTVSPost2010PropOp43
 70
     1
102
RTVSPost2010Prop44ColorIndex
 90
        5
102
RTVSPost2010Prop44ColorRGB
 90
      255
102
RTVSPost2010PropOp44
 70
     1
102
RTVSPost2010Prop45
280
     0
102
RTVSPost2010PropOp45
 70
     1
102
RTVSPost2010Prop46
 90
       50
102
RTVSPost2010PropOp46
 70
     1
102
RTVSPost2010Prop47
 90
       50
102
RTVSPost2010PropOp47
 70
     1
102
RTVSPost2010Prop48
 90
       50
102
RTVSPost2010PropOp48
 70
     1
102
RTVSPost2010Prop49
280
     0
102
RTVSPost2010PropOp49
 70
     1
102
RTVSPost2010Prop50
 90
       50
102
RTVSPost2010PropOp50
 70
     1
102
RTVSPost2010Prop51ColorIndex
 90
      256
102
RTVSPost2010Prop51ColorRGB
 90
-16777216
102
RTVSPost2010PropOp51
 70
     0
102
RTVSPost2010Prop52
140
1.0
102
RTVSPost2010PropOp52
 70
     0
102
RTVSPost2010Prop53
 90
        2
102
RTVSPost2010PropOp53
 70
     1
102
RTVSPost2010Prop54
  1
strokes_ogs.tif
102
RTVSPost2010PropOp54
 70
     1
102
RTVSPost2010Prop55
280
     0
102
RTVSPost2010PropOp55
 70
     1
102
RTVSPost2010Prop56
140
1.0
102
RTVSPost2010PropOp56
 70
     1
102
RTVSPost2010Prop57
140
1.0
102
RTVSPost2010PropOp57
 70
     1
  0
XRECORD
  5
234
102
{ACAD_REACTORS
330
233
102
}
330
233
100
AcDbXrecord
280
     1
102
RTVSPropertyOp0
 70
     1
102
RTVSPropertyOp1
 70
     1
102
RTVSPropertyOp2
 70
     1
102
RTVSPropertyOp3
 70
     1
102
RTVSPropertyOp4
 70
     1
102
RTVSPropertyOp5
 70
     1
102
RTVSPropertyOp6
 70
     1
102
RTVSPropertyOp7
 70
     1
102
RTVSPropertyOp8
 70
     1
102
RTVSPropertyOp9
 70
     1
102
RTVSPropertyOp10
 70
     1
102
RTVSPropertyOp11
 70
     1
102
RTVSPropertyOp12
 70
     1
102
RTVSPropertyOp13
 70
     1
102
RTVSPropertyOp14
 70
     1
102
RTVSPropertyOp15
 70
     1
102
RTVSPropertyOp16
 70
     1
102
RTVSPropertyOp17
 70
     1
102
RTVSPropertyOp18
 70
     1
102
RTVSPropertyOp19
 70
     1
102
RTVSPropertyOp20
 70
     1
102
RTVSPropertyOp21
 70
     1
102
RTVSPropertyOp22
 70
     1
102
RTVSPropertyOp23
 70
     1
102
RTVSPropertyOp24
 70
     1
102
RTVSPropertyOp25
 70
     1
102
RTVSPropertyOp26
 70
     1
102
RTVSPropertyOp27
 70
     1
102
RTVSPropertyOp28
 70
     1
102
RTVSPropertyOp29
 70
     1
102
RTVSPropertyOp30
 70
     1
102
RTVSPropertyOp31
 70
     1
102
RTVSPropertyOp32
 70
     1
102
RTVSPropertyOp33
 70
     1
102
RTVSPropertyOp34
 70
     1
102
RTVSPropertyOp35
 70
     1
102
RTVSPropertyOp36
 70
     1
102
RTVSPropertyOp37
 70
     1
102
RTVSPropertyOp38
 70
     1
102
RTVSPropertyOp39
 70
     1
102
RTVSPropertyOp40
 70
     1
102
RTVSPropertyOp41
 70
     1
102
RTVSPropertyOp42
 70
     1
102
RTVSPropertyOp43
 70
     1
102
RTVSPropertyOp44
 70
     1
102
RTVSPropertyOp45
 70
     1
102
RTVSPropertyOp46
 70
     1
102
RTVSPropertyOp47
 70
     1
102
RTVSPropertyOp48
 70
     1
102
RTVSPropertyOp49
 70
     1
102
RTVSPropertyOp50
 70
     1
102
RTVSPropertyOp51
 70
     0
102
RTVSPropertyOp52
 70
     0
102
RTVSPropertyOp53
 70
     1
102
RTVSPropertyOp54
 70
     1
102
RTVSPropertyOp55
 70
     1
102
RTVSPropertyOp56
 70
     1
102
RTVSPropertyOp57
 70
     1
102
RTVSPost2010Prop28
280
     0
102
RTVSPost2010PropOp28
 70
     1
102
RTVSPost2010Prop29
280
     1
102
RTVSPost2010PropOp29
 70
     1
102
RTVSPost2010Prop30
280
     1
102
RTVSPost2010PropOp30
 70
     1
102
RTVSPost2010Prop31
280
     0
102
RTVSPost2010PropOp31
 70
     1
102
RTVSPost2010Prop32
280
     0
102
RTVSPost2010PropOp32
 70
     1
102
RTVSPost2010Prop33
280
     0
102
RTVSPost2010PropOp33
 70
     1
102
RTVSPost2010Prop34
280
     0
102
RTVSPost2010PropOp34
 70
     1
102
RTVSPost2010Prop35
280
     0
102
RTVSPost2010PropOp35
 70
     1
102
RTVSPost2010Prop36
280
     0
102
RTVSPost2010PropOp36
 70
     1
102
RTVSPost2010Prop37
 90
       50
102
RTVSPost2010PropOp37
 70
     1
102
RTVSPost2010Prop38
140
0.0
102
RTVSPost2010PropOp38
 70
     1
102
RTVSPost2010Prop39
140
1.0
102
RTVSPost2010PropOp39
 70
     1
102
RTVSPost2010Prop40
 90
        0
102
RTVSPost2010PropOp40
 70
     1
102
RTVSPost2010Prop41ColorIndex
 90
       18
102
RTVSPost2010Prop41ColorRGB
 90
        0
102
RTVSPost2010PropOp41
 70
     1
102
RTVSPost2010Prop42
 90
       50
102
RTVSPost2010PropOp42
 70
     1
102
RTVSPost2010Prop43
 90
        3
102
RTVSPost2010PropOp43
 70
     1
102
RTVSPost2010Prop44ColorIndex
 90
        5
102
RTVSPost2010Prop44ColorRGB
 90
      255
102
RTVSPost2010PropOp44
 70
     1
102
RTVSPost2010Prop45
280
     0
102
RTVSPost2010PropOp45
 70
     1
102
RTVSPost2010Prop46
 90
       50
102
RTVSPost2010PropOp46
 70
     1
102
RTVSPost2010Prop47
 90
       50
102
RTVSPost2010PropOp47
 70
     1
102
RTVSPost2010Prop48
 90
       50
102
RTVSPost2010PropOp48
 70
     1
102
RTVSPost2010Prop49
280
     0
102
RTVSPost2010PropOp49
 70
     1
102
RTVSPost2010Prop50
 90
       50
102
RTVSPost2010PropOp50
 70
     1
102
RTVSPost2010Prop51ColorIndex
 90
      256
102
RTVSPost2010Prop51ColorRGB
 90
-16777216
102
RTVSPost2010PropOp51
 70
     0
102
RTVSPost2010Prop52
140
1.0
102
RTVSPost2010PropOp52
 70
     0
102
RTVSPost2010Prop53
 90
        2
102
RTVSPost2010PropOp53
 70
     1
102
RTVSPost2010Prop54
  1
strokes_ogs.tif
102
RTVSPost2010PropOp54
 70
     1
102
RTVSPost2010Prop55
280
     0
102
RTVSPost2010PropOp55
 70
     1
102
RTVSPost2010Prop56
140
1.0
102
RTVSPost2010PropOp56
 70
     1
102
RTVSPost2010Prop57
140
1.0
102
RTVSPost2010PropOp57
 70
     1
  0
XRECORD
  5
244
102
{ACAD_REACTORS
330
243
102
}
330
243
100
AcDbXrecord
280
     1
102
RTVSPropertyOp0
 70
     0
102
RTVSPropertyOp1
 70
     0
102
RTVSPropertyOp2
 70
     0
102
RTVSPropertyOp3
 70
     0
102
RTVSPropertyOp4
 70
     0
102
RTVSPropertyOp5
 70
     0
102
RTVSPropertyOp6
 70
     0
102
RTVSPropertyOp7
 70
     0
102
RTVSPropertyOp8
 70
     0
102
RTVSPropertyOp9
 70
     0
102
RTVSPropertyOp10
 70
     0
102
RTVSPropertyOp11
 70
     0
102
RTVSPropertyOp12
 70
     0
102
RTVSPropertyOp13
 70
     0
102
RTVSPropertyOp14
 70
     2
102
RTVSPropertyOp15
 70
     0
102
RTVSPropertyOp16
 70
     0
102
RTVSPropertyOp17
 70
     0
102
RTVSPropertyOp18
 70
     0
102
RTVSPropertyOp19
 70
     0
102
RTVSPropertyOp20
 70
     0
102
RTVSPropertyOp21
 70
     0
102
RTVSPropertyOp22
 70
     0
102
RTVSPropertyOp23
 70
     0
102
RTVSPropertyOp24
 70
     0
102
RTVSPropertyOp25
 70
     0
102
RTVSPropertyOp26
 70
     0
102
RTVSPropertyOp27
 70
     0
102
RTVSPropertyOp28
 70
     0
102
RTVSPropertyOp29
 70
     0
102
RTVSPropertyOp30
 70
     0
102
RTVSPropertyOp31
 70
     0
102
RTVSPropertyOp32
 70
     0
102
RTVSPropertyOp33
 70
     0
102
RTVSPropertyOp34
 70
     0
102
RTVSPropertyOp35
 70
     0
102
RTVSPropertyOp36
 70
     0
102
RTVSPropertyOp37
 70
     0
102
RTVSPropertyOp38
 70
     0
102
RTVSPropertyOp39
 70
     0
102
RTVSPropertyOp40
 70
     0
102
RTVSPropertyOp41
 70
     0
102
RTVSPropertyOp42
 70
     0
102
RTVSPropertyOp43
 70
     0
102
RTVSPropertyOp44
 70
     0
102
RTVSPropertyOp45
 70
     0
102
RTVSPropertyOp46
 70
     0
102
RTVSPropertyOp47
 70
     0
102
RTVSPropertyOp48
 70
     0
102
RTVSPropertyOp49
 70
     0
102
RTVSPropertyOp50
 70
     0
102
RTVSPropertyOp51
 70
     0
102
RTVSPropertyOp52
 70
     0
102
RTVSPropertyOp53
 70
     0
102
RTVSPropertyOp54
 70
     0
102
RTVSPropertyOp55
 70
     0
102
RTVSPropertyOp56
 70
     0
102
RTVSPropertyOp57
 70
     0
102
RTVSPost2010Prop28
280
     0
102
RTVSPost2010PropOp28
 70
     0
102
RTVSPost2010Prop29
280
     1
102
RTVSPost2010PropOp29
 70
     0
102
RTVSPost2010Prop30
280
     1
102
RTVSPost2010PropOp30
 70
     0
102
RTVSPost2010Prop31
280
     0
102
RTVSPost2010PropOp31
 70
     0
102
RTVSPost2010Prop32
280
     0
102
RTVSPost2010PropOp32
 70
     0
102
RTVSPost2010Prop33
280
     0
102
RTVSPost2010PropOp33
 70
     0
102
RTVSPost2010Prop34
280
     0
102
RTVSPost2010PropOp34
 70
     0
102
RTVSPost2010Prop35
280
     0
102
RTVSPost2010PropOp35
 70
     0
102
RTVSPost2010Prop36
280
     0
102
RTVSPost2010PropOp36
 70
     0
102
RTVSPost2010Prop37
 90
       50
102
RTVSPost2010PropOp37
 70
     0
102
RTVSPost2010Prop38
140
0.0
102
RTVSPost2010PropOp38
 70
     0
102
RTVSPost2010Prop39
140
1.0
102
RTVSPost2010PropOp39
 70
     0
102
RTVSPost2010Prop40
 90
        0
102
RTVSPost2010PropOp40
 70
     0
102
RTVSPost2010Prop41ColorIndex
 90
       18
102
RTVSPost2010Prop41ColorRGB
 90
        0
102
RTVSPost2010PropOp41
 70
     0
102
RTVSPost2010Prop42
 90
       50
102
RTVSPost2010PropOp42
 70
     0
102
RTVSPost2010Prop43
 90
        3
102
RTVSPost2010PropOp43
 70
     0
102
RTVSPost2010Prop44ColorIndex
 90
        5
102
RTVSPost2010Prop44ColorRGB
 90
      255
102
RTVSPost2010PropOp44
 70
     0
102
RTVSPost2010Prop45
280
     0
102
RTVSPost2010PropOp45
 70
     0
102
RTVSPost2010Prop46
 90
       50
102
RTVSPost2010PropOp46
 70
     0
102
RTVSPost2010Prop47
 90
       50
102
RTVSPost2010PropOp47
 70
     0
102
RTVSPost2010Prop48
 90
       50
102
RTVSPost2010PropOp48
 70
     0
102
RTVSPost2010Prop49
280
     0
102
RTVSPost2010PropOp49
 70
     0
102
RTVSPost2010Prop50
 90
       50
102
RTVSPost2010PropOp50
 70
     0
102
RTVSPost2010Prop51ColorIndex
 90
      256
102
RTVSPost2010Prop51ColorRGB
 90
-16777216
102
RTVSPost2010PropOp51
 70
     0
102
RTVSPost2010Prop52
140
1.0
102
RTVSPost2010PropOp52
 70
     0
102
RTVSPost2010Prop53
 90
        2
102
RTVSPost2010PropOp53
 70
     0
102
RTVSPost2010Prop54
  1
strokes_ogs.tif
102
RTVSPost2010PropOp54
 70
     0
102
RTVSPost2010Prop55
280
     0
102
RTVSPost2010PropOp55
 70
     0
102
RTVSPost2010Prop56
140
1.0
102
RTVSPost2010PropOp56
 70
     0
102
RTVSPost2010Prop57
140
1.0
102
RTVSPost2010PropOp57
 70
     0
  0
XRECORD
  5
23C
102
{ACAD_REACTORS
330
23B
102
}
330
23B
100
AcDbXrecord
280
     1
102
RTVSPropertyOp0
 70
     1
102
RTVSPropertyOp1
 70
     1
102
RTVSPropertyOp2
 70
     1
102
RTVSPropertyOp3
 70
     1
102
RTVSPropertyOp4
 70
     1
102
RTVSPropertyOp5
 70
     1
102
RTVSPropertyOp6
 70
     1
102
RTVSPropertyOp7
 70
     1
102
RTVSPropertyOp8
 70
     1
102
RTVSPropertyOp9
 70
     1
102
RTVSPropertyOp10
 70
     1
102
RTVSPropertyOp11
 70
     1
102
RTVSPropertyOp12
 70
     1
102
RTVSPropertyOp13
 70
     1
102
RTVSPropertyOp14
 70
     1
102
RTVSPropertyOp15
 70
     1
102
RTVSPropertyOp16
 70
     1
102
RTVSPropertyOp17
 70
     1
102
RTVSPropertyOp18
 70
     1
102
RTVSPropertyOp19
 70
     1
102
RTVSPropertyOp20
 70
     1
102
RTVSPropertyOp21
 70
     1
102
RTVSPropertyOp22
 70
     1
102
RTVSPropertyOp23
 70
     1
102
RTVSPropertyOp24
 70
     1
102
RTVSPropertyOp25
 70
     1
102
RTVSPropertyOp26
 70
     1
102
RTVSPropertyOp27
 70
     1
102
RTVSPropertyOp28
 70
     1
102
RTVSPropertyOp29
 70
     1
102
RTVSPropertyOp30
 70
     1
102
RTVSPropertyOp31
 70
     1
102
RTVSPropertyOp32
 70
     1
102
RTVSPropertyOp33
 70
     1
102
RTVSPropertyOp34
 70
     1
102
RTVSPropertyOp35
 70
     1
102
RTVSPropertyOp36
 70
     1
102
RTVSPropertyOp37
 70
     1
102
RTVSPropertyOp38
 70
     1
102
RTVSPropertyOp39
 70
     1
102
RTVSPropertyOp40
 70
     1
102
RTVSPropertyOp41
 70
     1
102
RTVSPropertyOp42
 70
     1
102
RTVSPropertyOp43
 70
     1
102
RTVSPropertyOp44
 70
     1
102
RTVSPropertyOp45
 70
     1
102
RTVSPropertyOp46
 70
     1
102
RTVSPropertyOp47
 70
     1
102
RTVSPropertyOp48
 70
     1
102
RTVSPropertyOp49
 70
     1
102
RTVSPropertyOp50
 70
     1
102
RTVSPropertyOp51
 70
     0
102
RTVSPropertyOp52
 70
     0
102
RTVSPropertyOp53
 70
     1
102
RTVSPropertyOp54
 70
     1
102
RTVSPropertyOp55
 70
     1
102
RTVSPropertyOp56
 70
     1
102
RTVSPropertyOp57
 70
     1
102
RTVSPost2010Prop28
280
     0
102
RTVSPost2010PropOp28
 70
     1
102
RTVSPost2010Prop29
280
     1
102
RTVSPost2010PropOp29
 70
     1
102
RTVSPost2010Prop30
280
     1
102
RTVSPost2010PropOp30
 70
     1
102
RTVSPost2010Prop31
280
     0
102
RTVSPost2010PropOp31
 70
     1
102
RTVSPost2010Prop32
280
     0
102
RTVSPost2010PropOp32
 70
     1
102
RTVSPost2010Prop33
280
     0
102
RTVSPost2010PropOp33
 70
     1
102
RTVSPost2010Prop34
280
     0
102
RTVSPost2010PropOp34
 70
     1
102
RTVSPost2010Prop35
280
     0
102
RTVSPost2010PropOp35
 70
     1
102
RTVSPost2010Prop36
280
     0
102
RTVSPost2010PropOp36
 70
     1
102
RTVSPost2010Prop37
 90
       50
102
RTVSPost2010PropOp37
 70
     1
102
RTVSPost2010Prop38
140
0.0
102
RTVSPost2010PropOp38
 70
     1
102
RTVSPost2010Prop39
140
1.0
102
RTVSPost2010PropOp39
 70
     1
102
RTVSPost2010Prop40
 90
        0
102
RTVSPost2010PropOp40
 70
     1
102
RTVSPost2010Prop41ColorIndex
 90
       18
102
RTVSPost2010Prop41ColorRGB
 90
        0
102
RTVSPost2010PropOp41
 70
     1
102
RTVSPost2010Prop42
 90
       50
102
RTVSPost2010PropOp42
 70
     1
102
RTVSPost2010Prop43
 90
        3
102
RTVSPost2010PropOp43
 70
     1
102
RTVSPost2010Prop44ColorIndex
 90
        5
102
RTVSPost2010Prop44ColorRGB
 90
      255
102
RTVSPost2010PropOp44
 70
     1
102
RTVSPost2010Prop45
280
     0
102
RTVSPost2010PropOp45
 70
     1
102
RTVSPost2010Prop46
 90
       50
102
RTVSPost2010PropOp46
 70
     1
102
RTVSPost2010Prop47
 90
       50
102
RTVSPost2010PropOp47
 70
     1
102
RTVSPost2010Prop48
 90
       50
102
RTVSPost2010PropOp48
 70
     1
102
RTVSPost2010Prop49
280
     0
102
RTVSPost2010PropOp49
 70
     1
102
RTVSPost2010Prop50
 90
       50
102
RTVSPost2010PropOp50
 70
     1
102
RTVSPost2010Prop51ColorIndex
 90
      256
102
RTVSPost2010Prop51ColorRGB
 90
-16777216
102
RTVSPost2010PropOp51
 70
     0
102
RTVSPost2010Prop52
140
1.0
102
RTVSPost2010PropOp52
 70
     0
102
RTVSPost2010Prop53
 90
        2
102
RTVSPost2010PropOp53
 70
     1
102
RTVSPost2010Prop54
  1
strokes_ogs.tif
102
RTVSPost2010PropOp54
 70
     1
102
RTVSPost2010Prop55
280
     0
102
RTVSPost2010PropOp55
 70
     1
102
RTVSPost2010Prop56
140
1.0
102
RTVSPost2010PropOp56
 70
     1
102
RTVSPost2010Prop57
140
1.0
102
RTVSPost2010PropOp57
 70
     1
  0
XRECORD
  5
220
102
{ACAD_REACTORS
330
21F
102
}
330
21F
100
AcDbXrecord
280
     1
102
RTVSPropertyOp0
 70
     1
102
RTVSPropertyOp1
 70
     1
102
RTVSPropertyOp2
 70
     1
102
RTVSPropertyOp3
 70
     1
102
RTVSPropertyOp4
 70
     1
102
RTVSPropertyOp5
 70
     1
102
RTVSPropertyOp6
 70
     1
102
RTVSPropertyOp7
 70
     1
102
RTVSPropertyOp8
 70
     1
102
RTVSPropertyOp9
 70
     1
102
RTVSPropertyOp10
 70
     1
102
RTVSPropertyOp11
 70
     1
102
RTVSPropertyOp12
 70
     1
102
RTVSPropertyOp13
 70
     1
102
RTVSPropertyOp14
 70
     1
102
RTVSPropertyOp15
 70
     1
102
RTVSPropertyOp16
 70
     1
102
RTVSPropertyOp17
 70
     1
102
RTVSPropertyOp18
 70
     1
102
RTVSPropertyOp19
 70
     1
102
RTVSPropertyOp20
 70
     1
102
RTVSPropertyOp21
 70
     1
102
RTVSPropertyOp22
 70
     1
102
RTVSPropertyOp23
 70
     1
102
RTVSPropertyOp24
 70
     1
102
RTVSPropertyOp25
 70
     1
102
RTVSPropertyOp26
 70
     1
102
RTVSPropertyOp27
 70
     1
102
RTVSPropertyOp28
 70
     1
102
RTVSPropertyOp29
 70
     1
102
RTVSPropertyOp30
 70
     1
102
RTVSPropertyOp31
 70
     1
102
RTVSPropertyOp32
 70
     1
102
RTVSPropertyOp33
 70
     1
102
RTVSPropertyOp34
 70
     1
102
RTVSPropertyOp35
 70
     1
102
RTVSPropertyOp36
 70
     1
102
RTVSPropertyOp37
 70
     1
102
RTVSPropertyOp38
 70
     1
102
RTVSPropertyOp39
 70
     1
102
RTVSPropertyOp40
 70
     1
102
RTVSPropertyOp41
 70
     1
102
RTVSPropertyOp42
 70
     1
102
RTVSPropertyOp43
 70
     1
102
RTVSPropertyOp44
 70
     1
102
RTVSPropertyOp45
 70
     1
102
RTVSPropertyOp46
 70
     1
102
RTVSPropertyOp47
 70
     1
102
RTVSPropertyOp48
 70
     1
102
RTVSPropertyOp49
 70
     1
102
RTVSPropertyOp50
 70
     1
102
RTVSPropertyOp51
 70
     0
102
RTVSPropertyOp52
 70
     0
102
RTVSPropertyOp53
 70
     1
102
RTVSPropertyOp54
 70
     1
102
RTVSPropertyOp55
 70
     1
102
RTVSPropertyOp56
 70
     1
102
RTVSPropertyOp57
 70
     1
102
RTVSPost2010Prop28
280
     0
102
RTVSPost2010PropOp28
 70
     1
102
RTVSPost2010Prop29
280
     1
102
RTVSPost2010PropOp29
 70
     1
102
RTVSPost2010Prop30
280
     1
102
RTVSPost2010PropOp30
 70
     1
102
RTVSPost2010Prop31
280
     0
102
RTVSPost2010PropOp31
 70
     1
102
RTVSPost2010Prop32
280
     0
102
RTVSPost2010PropOp32
 70
     1
102
RTVSPost2010Prop33
280
     0
102
RTVSPost2010PropOp33
 70
     1
102
RTVSPost2010Prop34
280
     0
102
RTVSPost2010PropOp34
 70
     1
102
RTVSPost2010Prop35
280
     0
102
RTVSPost2010PropOp35
 70
     1
102
RTVSPost2010Prop36
280
     0
102
RTVSPost2010PropOp36
 70
     1
102
RTVSPost2010Prop37
 90
       50
102
RTVSPost2010PropOp37
 70
     1
102
RTVSPost2010Prop38
140
0.0
102
RTVSPost2010PropOp38
 70
     1
102
RTVSPost2010Prop39
140
1.0
102
RTVSPost2010PropOp39
 70
     1
102
RTVSPost2010Prop40
 90
        0
102
RTVSPost2010PropOp40
 70
     1
102
RTVSPost2010Prop41ColorIndex
 90
       18
102
RTVSPost2010Prop41ColorRGB
 90
        0
102
RTVSPost2010PropOp41
 70
     1
102
RTVSPost2010Prop42
 90
       50
102
RTVSPost2010PropOp42
 70
     1
102
RTVSPost2010Prop43
 90
        3
102
RTVSPost2010PropOp43
 70
     1
102
RTVSPost2010Prop44ColorIndex
 90
        5
102
RTVSPost2010Prop44ColorRGB
 90
      255
102
RTVSPost2010PropOp44
 70
     1
102
RTVSPost2010Prop45
280
     0
102
RTVSPost2010PropOp45
 70
     1
102
RTVSPost2010Prop46
 90
       50
102
RTVSPost2010PropOp46
 70
     1
102
RTVSPost2010Prop47
 90
       50
102
RTVSPost2010PropOp47
 70
     1
102
RTVSPost2010Prop48
 90
       50
102
RTVSPost2010PropOp48
 70
     1
102
RTVSPost2010Prop49
280
     0
102
RTVSPost2010PropOp49
 70
     1
102
RTVSPost2010Prop50
 90
       50
102
RTVSPost2010PropOp50
 70
     1
102
RTVSPost2010Prop51ColorIndex
 90
      256
102
RTVSPost2010Prop51ColorRGB
 90
-16777216
102
RTVSPost2010PropOp51
 70
     0
102
RTVSPost2010Prop52
140
1.0
102
RTVSPost2010PropOp52
 70
     0
102
RTVSPost2010Prop53
 90
        2
102
RTVSPost2010PropOp53
 70
     1
102
RTVSPost2010Prop54
  1
strokes_ogs.tif
102
RTVSPost2010PropOp54
 70
     1
102
RTVSPost2010Prop55
280
     0
102
RTVSPost2010PropOp55
 70
     1
102
RTVSPost2010Prop56
140
1.0
102
RTVSPost2010PropOp56
 70
     1
102
RTVSPost2010Prop57
140
1.0
102
RTVSPost2010PropOp57
 70
     1
  0
XRECORD
  5
222
102
{ACAD_REACTORS
330
221
102
}
330
221
100
AcDbXrecord
280
     1
102
RTVSPropertyOp0
 70
     1
102
RTVSPropertyOp1
 70
     1
102
RTVSPropertyOp2
 70
     1
102
RTVSPropertyOp3
 70
     1
102
RTVSPropertyOp4
 70
     1
102
RTVSPropertyOp5
 70
     1
102
RTVSPropertyOp6
 70
     1
102
RTVSPropertyOp7
 70
     1
102
RTVSPropertyOp8
 70
     1
102
RTVSPropertyOp9
 70
     1
102
RTVSPropertyOp10
 70
     1
102
RTVSPropertyOp11
 70
     1
102
RTVSPropertyOp12
 70
     1
102
RTVSPropertyOp13
 70
     1
102
RTVSPropertyOp14
 70
     1
102
RTVSPropertyOp15
 70
     1
102
RTVSPropertyOp16
 70
     1
102
RTVSPropertyOp17
 70
     1
102
RTVSPropertyOp18
 70
     1
102
RTVSPropertyOp19
 70
     1
102
RTVSPropertyOp20
 70
     1
102
RTVSPropertyOp21
 70
     1
102
RTVSPropertyOp22
 70
     1
102
RTVSPropertyOp23
 70
     1
102
RTVSPropertyOp24
 70
     1
102
RTVSPropertyOp25
 70
     1
102
RTVSPropertyOp26
 70
     1
102
RTVSPropertyOp27
 70
     1
102
RTVSPropertyOp28
 70
     1
102
RTVSPropertyOp29
 70
     1
102
RTVSPropertyOp30
 70
     1
102
RTVSPropertyOp31
 70
     1
102
RTVSPropertyOp32
 70
     1
102
RTVSPropertyOp33
 70
     1
102
RTVSPropertyOp34
 70
     1
102
RTVSPropertyOp35
 70
     1
102
RTVSPropertyOp36
 70
     1
102
RTVSPropertyOp37
 70
     1
102
RTVSPropertyOp38
 70
     1
102
RTVSPropertyOp39
 70
     1
102
RTVSPropertyOp40
 70
     1
102
RTVSPropertyOp41
 70
     1
102
RTVSPropertyOp42
 70
     1
102
RTVSPropertyOp43
 70
     1
102
RTVSPropertyOp44
 70
     1
102
RTVSPropertyOp45
 70
     1
102
RTVSPropertyOp46
 70
     1
102
RTVSPropertyOp47
 70
     1
102
RTVSPropertyOp48
 70
     1
102
RTVSPropertyOp49
 70
     1
102
RTVSPropertyOp50
 70
     1
102
RTVSPropertyOp51
 70
     0
102
RTVSPropertyOp52
 70
     0
102
RTVSPropertyOp53
 70
     1
102
RTVSPropertyOp54
 70
     1
102
RTVSPropertyOp55
 70
     1
102
RTVSPropertyOp56
 70
     1
102
RTVSPropertyOp57
 70
     1
102
RTVSPost2010Prop28
280
     0
102
RTVSPost2010PropOp28
 70
     1
102
RTVSPost2010Prop29
280
     1
102
RTVSPost2010PropOp29
 70
     1
102
RTVSPost2010Prop30
280
     1
102
RTVSPost2010PropOp30
 70
     1
102
RTVSPost2010Prop31
280
     0
102
RTVSPost2010PropOp31
 70
     1
102
RTVSPost2010Prop32
280
     0
102
RTVSPost2010PropOp32
 70
     1
102
RTVSPost2010Prop33
280
     0
102
RTVSPost2010PropOp33
 70
     1
102
RTVSPost2010Prop34
280
     0
102
RTVSPost2010PropOp34
 70
     1
102
RTVSPost2010Prop35
280
     0
102
RTVSPost2010PropOp35
 70
     1
102
RTVSPost2010Prop36
280
     0
102
RTVSPost2010PropOp36
 70
     1
102
RTVSPost2010Prop37
 90
       50
102
RTVSPost2010PropOp37
 70
     1
102
RTVSPost2010Prop38
140
0.0
102
RTVSPost2010PropOp38
 70
     1
102
RTVSPost2010Prop39
140
1.0
102
RTVSPost2010PropOp39
 70
     1
102
RTVSPost2010Prop40
 90
        0
102
RTVSPost2010PropOp40
 70
     1
102
RTVSPost2010Prop41ColorIndex
 90
       18
102
RTVSPost2010Prop41ColorRGB
 90
        0
102
RTVSPost2010PropOp41
 70
     1
102
RTVSPost2010Prop42
 90
       50
102
RTVSPost2010PropOp42
 70
     1
102
RTVSPost2010Prop43
 90
        3
102
RTVSPost2010PropOp43
 70
     1
102
RTVSPost2010Prop44ColorIndex
 90
        5
102
RTVSPost2010Prop44ColorRGB
 90
      255
102
RTVSPost2010PropOp44
 70
     1
102
RTVSPost2010Prop45
280
     0
102
RTVSPost2010PropOp45
 70
     1
102
RTVSPost2010Prop46
 90
       50
102
RTVSPost2010PropOp46
 70
     1
102
RTVSPost2010Prop47
 90
       50
102
RTVSPost2010PropOp47
 70
     1
102
RTVSPost2010Prop48
 90
       50
102
RTVSPost2010PropOp48
 70
     1
102
RTVSPost2010Prop49
280
     0
102
RTVSPost2010PropOp49
 70
     1
102
RTVSPost2010Prop50
 90
       50
102
RTVSPost2010PropOp50
 70
     1
102
RTVSPost2010Prop51ColorIndex
 90
      256
102
RTVSPost2010Prop51ColorRGB
 90
-16777216
102
RTVSPost2010PropOp51
 70
     0
102
RTVSPost2010Prop52
140
1.0
102
RTVSPost2010PropOp52
 70
     0
102
RTVSPost2010Prop53
 90
        2
102
RTVSPost2010PropOp53
 70
     1
102
RTVSPost2010Prop54
  1
strokes_ogs.tif
102
RTVSPost2010PropOp54
 70
     1
102
RTVSPost2010Prop55
280
     0
102
RTVSPost2010PropOp55
 70
     1
102
RTVSPost2010Prop56
140
1.0
102
RTVSPost2010PropOp56
 70
     1
102
RTVSPost2010Prop57
140
1.0
102
RTVSPost2010PropOp57
 70
     1
  0
XRECORD
  5
224
102
{ACAD_REACTORS
330
223
102
}
330
223
100
AcDbXrecord
280
     1
102
RTVSPropertyOp0
 70
     1
102
RTVSPropertyOp1
 70
     1
102
RTVSPropertyOp2
 70
     1
102
RTVSPropertyOp3
 70
     1
102
RTVSPropertyOp4
 70
     1
102
RTVSPropertyOp5
 70
     1
102
RTVSPropertyOp6
 70
     1
102
RTVSPropertyOp7
 70
     1
102
RTVSPropertyOp8
 70
     1
102
RTVSPropertyOp9
 70
     1
102
RTVSPropertyOp10
 70
     1
102
RTVSPropertyOp11
 70
     1
102
RTVSPropertyOp12
 70
     1
102
RTVSPropertyOp13
 70
     1
102
RTVSPropertyOp14
 70
     1
102
RTVSPropertyOp15
 70
     1
102
RTVSPropertyOp16
 70
     1
102
RTVSPropertyOp17
 70
     1
102
RTVSPropertyOp18
 70
     1
102
RTVSPropertyOp19
 70
     1
102
RTVSPropertyOp20
 70
     1
102
RTVSPropertyOp21
 70
     1
102
RTVSPropertyOp22
 70
     1
102
RTVSPropertyOp23
 70
     1
102
RTVSPropertyOp24
 70
     1
102
RTVSPropertyOp25
 70
     1
102
RTVSPropertyOp26
 70
     1
102
RTVSPropertyOp27
 70
     1
102
RTVSPropertyOp28
 70
     1
102
RTVSPropertyOp29
 70
     1
102
RTVSPropertyOp30
 70
     1
102
RTVSPropertyOp31
 70
     1
102
RTVSPropertyOp32
 70
     1
102
RTVSPropertyOp33
 70
     1
102
RTVSPropertyOp34
 70
     1
102
RTVSPropertyOp35
 70
     1
102
RTVSPropertyOp36
 70
     1
102
RTVSPropertyOp37
 70
     1
102
RTVSPropertyOp38
 70
     1
102
RTVSPropertyOp39
 70
     1
102
RTVSPropertyOp40
 70
     1
102
RTVSPropertyOp41
 70
     1
102
RTVSPropertyOp42
 70
     1
102
RTVSPropertyOp43
 70
     1
102
RTVSPropertyOp44
 70
     1
102
RTVSPropertyOp45
 70
     1
102
RTVSPropertyOp46
 70
     1
102
RTVSPropertyOp47
 70
     1
102
RTVSPropertyOp48
 70
     1
102
RTVSPropertyOp49
 70
     1
102
RTVSPropertyOp50
 70
     1
102
RTVSPropertyOp51
 70
     0
102
RTVSPropertyOp52
 70
     0
102
RTVSPropertyOp53
 70
     1
102
RTVSPropertyOp54
 70
     1
102
RTVSPropertyOp55
 70
     1
102
RTVSPropertyOp56
 70
     1
102
RTVSPropertyOp57
 70
     1
102
RTVSPost2010Prop28
280
     0
102
RTVSPost2010PropOp28
 70
     1
102
RTVSPost2010Prop29
280
     1
102
RTVSPost2010PropOp29
 70
     1
102
RTVSPost2010Prop30
280
     1
102
RTVSPost2010PropOp30
 70
     1
102
RTVSPost2010Prop31
280
     0
102
RTVSPost2010PropOp31
 70
     1
102
RTVSPost2010Prop32
280
     0
102
RTVSPost2010PropOp32
 70
     1
102
RTVSPost2010Prop33
280
     0
102
RTVSPost2010PropOp33
 70
     1
102
RTVSPost2010Prop34
280
     0
102
RTVSPost2010PropOp34
 70
     1
102
RTVSPost2010Prop35
280
     0
102
RTVSPost2010PropOp35
 70
     1
102
RTVSPost2010Prop36
280
     0
102
RTVSPost2010PropOp36
 70
     1
102
RTVSPost2010Prop37
 90
       50
102
RTVSPost2010PropOp37
 70
     1
102
RTVSPost2010Prop38
140
0.0
102
RTVSPost2010PropOp38
 70
     1
102
RTVSPost2010Prop39
140
1.0
102
RTVSPost2010PropOp39
 70
     1
102
RTVSPost2010Prop40
 90
        0
102
RTVSPost2010PropOp40
 70
     1
102
RTVSPost2010Prop41ColorIndex
 90
       18
102
RTVSPost2010Prop41ColorRGB
 90
        0
102
RTVSPost2010PropOp41
 70
     1
102
RTVSPost2010Prop42
 90
       50
102
RTVSPost2010PropOp42
 70
     1
102
RTVSPost2010Prop43
 90
        3
102
RTVSPost2010PropOp43
 70
     1
102
RTVSPost2010Prop44ColorIndex
 90
        5
102
RTVSPost2010Prop44ColorRGB
 90
      255
102
RTVSPost2010PropOp44
 70
     1
102
RTVSPost2010Prop45
280
     0
102
RTVSPost2010PropOp45
 70
     1
102
RTVSPost2010Prop46
 90
       50
102
RTVSPost2010PropOp46
 70
     1
102
RTVSPost2010Prop47
 90
       50
102
RTVSPost2010PropOp47
 70
     1
102
RTVSPost2010Prop48
 90
       50
102
RTVSPost2010PropOp48
 70
     1
102
RTVSPost2010Prop49
280
     0
102
RTVSPost2010PropOp49
 70
     1
102
RTVSPost2010Prop50
 90
       50
102
RTVSPost2010PropOp50
 70
     1
102
RTVSPost2010Prop51ColorIndex
 90
      256
102
RTVSPost2010Prop51ColorRGB
 90
-16777216
102
RTVSPost2010PropOp51
 70
     0
102
RTVSPost2010Prop52
140
1.0
102
RTVSPost2010PropOp52
 70
     0
102
RTVSPost2010Prop53
 90
        2
102
RTVSPost2010PropOp53
 70
     1
102
RTVSPost2010Prop54
  1
strokes_ogs.tif
102
RTVSPost2010PropOp54
 70
     1
102
RTVSPost2010Prop55
280
     0
102
RTVSPost2010PropOp55
 70
     1
102
RTVSPost2010Prop56
140
1.0
102
RTVSPost2010PropOp56
 70
     1
102
RTVSPost2010Prop57
140
1.0
102
RTVSPost2010PropOp57
 70
     1
  0
XRECORD
  5
226
102
{ACAD_REACTORS
330
225
102
}
330
225
100
AcDbXrecord
280
     1
102
RTVSPropertyOp0
 70
     1
102
RTVSPropertyOp1
 70
     1
102
RTVSPropertyOp2
 70
     1
102
RTVSPropertyOp3
 70
     1
102
RTVSPropertyOp4
 70
     1
102
RTVSPropertyOp5
 70
     1
102
RTVSPropertyOp6
 70
     1
102
RTVSPropertyOp7
 70
     1
102
RTVSPropertyOp8
 70
     1
102
RTVSPropertyOp9
 70
     1
102
RTVSPropertyOp10
 70
     1
102
RTVSPropertyOp11
 70
     1
102
RTVSPropertyOp12
 70
     1
102
RTVSPropertyOp13
 70
     1
102
RTVSPropertyOp14
 70
     1
102
RTVSPropertyOp15
 70
     1
102
RTVSPropertyOp16
 70
     1
102
RTVSPropertyOp17
 70
     1
102
RTVSPropertyOp18
 70
     1
102
RTVSPropertyOp19
 70
     1
102
RTVSPropertyOp20
 70
     1
102
RTVSPropertyOp21
 70
     1
102
RTVSPropertyOp22
 70
     1
102
RTVSPropertyOp23
 70
     1
102
RTVSPropertyOp24
 70
     1
102
RTVSPropertyOp25
 70
     1
102
RTVSPropertyOp26
 70
     1
102
RTVSPropertyOp27
 70
     1
102
RTVSPropertyOp28
 70
     1
102
RTVSPropertyOp29
 70
     1
102
RTVSPropertyOp30
 70
     1
102
RTVSPropertyOp31
 70
     1
102
RTVSPropertyOp32
 70
     1
102
RTVSPropertyOp33
 70
     1
102
RTVSPropertyOp34
 70
     1
102
RTVSPropertyOp35
 70
     1
102
RTVSPropertyOp36
 70
     1
102
RTVSPropertyOp37
 70
     1
102
RTVSPropertyOp38
 70
     1
102
RTVSPropertyOp39
 70
     1
102
RTVSPropertyOp40
 70
     1
102
RTVSPropertyOp41
 70
     1
102
RTVSPropertyOp42
 70
     1
102
RTVSPropertyOp43
 70
     1
102
RTVSPropertyOp44
 70
     1
102
RTVSPropertyOp45
 70
     1
102
RTVSPropertyOp46
 70
     1
102
RTVSPropertyOp47
 70
     1
102
RTVSPropertyOp48
 70
     1
102
RTVSPropertyOp49
 70
     1
102
RTVSPropertyOp50
 70
     1
102
RTVSPropertyOp51
 70
     0
102
RTVSPropertyOp52
 70
     0
102
RTVSPropertyOp53
 70
     1
102
RTVSPropertyOp54
 70
     1
102
RTVSPropertyOp55
 70
     1
102
RTVSPropertyOp56
 70
     1
102
RTVSPropertyOp57
 70
     1
102
RTVSPost2010Prop28
280
     0
102
RTVSPost2010PropOp28
 70
     1
102
RTVSPost2010Prop29
280
     1
102
RTVSPost2010PropOp29
 70
     1
102
RTVSPost2010Prop30
280
     1
102
RTVSPost2010PropOp30
 70
     1
102
RTVSPost2010Prop31
280
     0
102
RTVSPost2010PropOp31
 70
     1
102
RTVSPost2010Prop32
280
     0
102
RTVSPost2010PropOp32
 70
     1
102
RTVSPost2010Prop33
280
     0
102
RTVSPost2010PropOp33
 70
     1
102
RTVSPost2010Prop34
280
     0
102
RTVSPost2010PropOp34
 70
     1
102
RTVSPost2010Prop35
280
     0
102
RTVSPost2010PropOp35
 70
     1
102
RTVSPost2010Prop36
280
     0
102
RTVSPost2010PropOp36
 70
     1
102
RTVSPost2010Prop37
 90
       50
102
RTVSPost2010PropOp37
 70
     1
102
RTVSPost2010Prop38
140
0.0
102
RTVSPost2010PropOp38
 70
     1
102
RTVSPost2010Prop39
140
1.0
102
RTVSPost2010PropOp39
 70
     1
102
RTVSPost2010Prop40
 90
        0
102
RTVSPost2010PropOp40
 70
     1
102
RTVSPost2010Prop41ColorIndex
 90
       18
102
RTVSPost2010Prop41ColorRGB
 90
        0
102
RTVSPost2010PropOp41
 70
     1
102
RTVSPost2010Prop42
 90
       50
102
RTVSPost2010PropOp42
 70
     1
102
RTVSPost2010Prop43
 90
        3
102
RTVSPost2010PropOp43
 70
     1
102
RTVSPost2010Prop44ColorIndex
 90
        5
102
RTVSPost2010Prop44ColorRGB
 90
      255
102
RTVSPost2010PropOp44
 70
     1
102
RTVSPost2010Prop45
280
     0
102
RTVSPost2010PropOp45
 70
     1
102
RTVSPost2010Prop46
 90
       50
102
RTVSPost2010PropOp46
 70
     1
102
RTVSPost2010Prop47
 90
       50
102
RTVSPost2010PropOp47
 70
     1
102
RTVSPost2010Prop48
 90
       50
102
RTVSPost2010PropOp48
 70
     1
102
RTVSPost2010Prop49
280
     0
102
RTVSPost2010PropOp49
 70
     1
102
RTVSPost2010Prop50
 90
       50
102
RTVSPost2010PropOp50
 70
     1
102
RTVSPost2010Prop51ColorIndex
 90
      256
102
RTVSPost2010Prop51ColorRGB
 90
-16777216
102
RTVSPost2010PropOp51
 70
     0
102
RTVSPost2010Prop52
140
1.0
102
RTVSPost2010PropOp52
 70
     0
102
RTVSPost2010Prop53
 90
        2
102
RTVSPost2010PropOp53
 70
     1
102
RTVSPost2010Prop54
  1
strokes_ogs.tif
102
RTVSPost2010PropOp54
 70
     1
102
RTVSPost2010Prop55
280
     0
102
RTVSPost2010PropOp55
 70
     1
102
RTVSPost2010Prop56
140
1.0
102
RTVSPost2010PropOp56
 70
     1
102
RTVSPost2010Prop57
140
1.0
102
RTVSPost2010PropOp57
 70
     1
  0
XRECORD
  5
22C
102
{ACAD_REACTORS
330
22B
102
}
330
22B
100
AcDbXrecord
280
     1
102
RTVSPropertyOp0
 70
     1
102
RTVSPropertyOp1
 70
     1
102
RTVSPropertyOp2
 70
     1
102
RTVSPropertyOp3
 70
     1
102
RTVSPropertyOp4
 70
     1
102
RTVSPropertyOp5
 70
     1
102
RTVSPropertyOp6
 70
     1
102
RTVSPropertyOp7
 70
     1
102
RTVSPropertyOp8
 70
     1
102
RTVSPropertyOp9
 70
     1
102
RTVSPropertyOp10
 70
     1
102
RTVSPropertyOp11
 70
     1
102
RTVSPropertyOp12
 70
     1
102
RTVSPropertyOp13
 70
     1
102
RTVSPropertyOp14
 70
     1
102
RTVSPropertyOp15
 70
     1
102
RTVSPropertyOp16
 70
     1
102
RTVSPropertyOp17
 70
     1
102
RTVSPropertyOp18
 70
     1
102
RTVSPropertyOp19
 70
     1
102
RTVSPropertyOp20
 70
     1
102
RTVSPropertyOp21
 70
     1
102
RTVSPropertyOp22
 70
     1
102
RTVSPropertyOp23
 70
     1
102
RTVSPropertyOp24
 70
     1
102
RTVSPropertyOp25
 70
     1
102
RTVSPropertyOp26
 70
     1
102
RTVSPropertyOp27
 70
     1
102
RTVSPropertyOp28
 70
     1
102
RTVSPropertyOp29
 70
     1
102
RTVSPropertyOp30
 70
     1
102
RTVSPropertyOp31
 70
     1
102
RTVSPropertyOp32
 70
     1
102
RTVSPropertyOp33
 70
     1
102
RTVSPropertyOp34
 70
     1
102
RTVSPropertyOp35
 70
     1
102
RTVSPropertyOp36
 70
     1
102
RTVSPropertyOp37
 70
     1
102
RTVSPropertyOp38
 70
     1
102
RTVSPropertyOp39
 70
     1
102
RTVSPropertyOp40
 70
     1
102
RTVSPropertyOp41
 70
     1
102
RTVSPropertyOp42
 70
     1
102
RTVSPropertyOp43
 70
     1
102
RTVSPropertyOp44
 70
     1
102
RTVSPropertyOp45
 70
     1
102
RTVSPropertyOp46
 70
     1
102
RTVSPropertyOp47
 70
     1
102
RTVSPropertyOp48
 70
     1
102
RTVSPropertyOp49
 70
     1
102
RTVSPropertyOp50
 70
     1
102
RTVSPropertyOp51
 70
     0
102
RTVSPropertyOp52
 70
     0
102
RTVSPropertyOp53
 70
     1
102
RTVSPropertyOp54
 70
     1
102
RTVSPropertyOp55
 70
     1
102
RTVSPropertyOp56
 70
     1
102
RTVSPropertyOp57
 70
     1
102
RTVSPost2010Prop28
280
     0
102
RTVSPost2010PropOp28
 70
     1
102
RTVSPost2010Prop29
280
     1
102
RTVSPost2010PropOp29
 70
     1
102
RTVSPost2010Prop30
280
     1
102
RTVSPost2010PropOp30
 70
     1
102
RTVSPost2010Prop31
280
     0
102
RTVSPost2010PropOp31
 70
     1
102
RTVSPost2010Prop32
280
     0
102
RTVSPost2010PropOp32
 70
     1
102
RTVSPost2010Prop33
280
     0
102
RTVSPost2010PropOp33
 70
     1
102
RTVSPost2010Prop34
280
     0
102
RTVSPost2010PropOp34
 70
     1
102
RTVSPost2010Prop35
280
     0
102
RTVSPost2010PropOp35
 70
     1
102
RTVSPost2010Prop36
280
     0
102
RTVSPost2010PropOp36
 70
     1
102
RTVSPost2010Prop37
 90
       50
102
RTVSPost2010PropOp37
 70
     1
102
RTVSPost2010Prop38
140
0.0
102
RTVSPost2010PropOp38
 70
     1
102
RTVSPost2010Prop39
140
1.0
102
RTVSPost2010PropOp39
 70
     1
102
RTVSPost2010Prop40
 90
        0
102
RTVSPost2010PropOp40
 70
     1
102
RTVSPost2010Prop41ColorIndex
 90
       18
102
RTVSPost2010Prop41ColorRGB
 90
        0
102
RTVSPost2010PropOp41
 70
     1
102
RTVSPost2010Prop42
 90
       50
102
RTVSPost2010PropOp42
 70
     1
102
RTVSPost2010Prop43
 90
        3
102
RTVSPost2010PropOp43
 70
     1
102
RTVSPost2010Prop44ColorIndex
 90
        5
102
RTVSPost2010Prop44ColorRGB
 90
      255
102
RTVSPost2010PropOp44
 70
     1
102
RTVSPost2010Prop45
280
     0
102
RTVSPost2010PropOp45
 70
     1
102
RTVSPost2010Prop46
 90
       50
102
RTVSPost2010PropOp46
 70
     1
102
RTVSPost2010Prop47
 90
       50
102
RTVSPost2010PropOp47
 70
     1
102
RTVSPost2010Prop48
 90
       50
102
RTVSPost2010PropOp48
 70
     1
102
RTVSPost2010Prop49
280
     0
102
RTVSPost2010PropOp49
 70
     1
102
RTVSPost2010Prop50
 90
       50
102
RTVSPost2010PropOp50
 70
     1
102
RTVSPost2010Prop51ColorIndex
 90
      256
102
RTVSPost2010Prop51ColorRGB
 90
-16777216
102
RTVSPost2010PropOp51
 70
     0
102
RTVSPost2010Prop52
140
1.0
102
RTVSPost2010PropOp52
 70
     0
102
RTVSPost2010Prop53
 90
        2
102
RTVSPost2010PropOp53
 70
     1
102
RTVSPost2010Prop54
  1
strokes_ogs.tif
102
RTVSPost2010PropOp54
 70
     1
102
RTVSPost2010Prop55
280
     0
102
RTVSPost2010PropOp55
 70
     1
102
RTVSPost2010Prop56
140
1.0
102
RTVSPost2010PropOp56
 70
     1
102
RTVSPost2010Prop57
140
1.0
102
RTVSPost2010PropOp57
 70
     1
  0
XRECORD
  5
240
102
{ACAD_REACTORS
330
23F
102
}
330
23F
100
AcDbXrecord
280
     1
102
RTVSPropertyOp0
 70
     0
102
RTVSPropertyOp1
 70
     0
102
RTVSPropertyOp2
 70
     0
102
RTVSPropertyOp3
 70
     0
102
RTVSPropertyOp4
 70
     0
102
RTVSPropertyOp5
 70
     0
102
RTVSPropertyOp6
 70
     0
102
RTVSPropertyOp7
 70
     0
102
RTVSPropertyOp8
 70
     0
102
RTVSPropertyOp9
 70
     0
102
RTVSPropertyOp10
 70
     0
102
RTVSPropertyOp11
 70
     0
102
RTVSPropertyOp12
 70
     0
102
RTVSPropertyOp13
 70
     0
102
RTVSPropertyOp14
 70
     2
102
RTVSPropertyOp15
 70
     0
102
RTVSPropertyOp16
 70
     0
102
RTVSPropertyOp17
 70
     0
102
RTVSPropertyOp18
 70
     0
102
RTVSPropertyOp19
 70
     0
102
RTVSPropertyOp20
 70
     0
102
RTVSPropertyOp21
 70
     0
102
RTVSPropertyOp22
 70
     0
102
RTVSPropertyOp23
 70
     0
102
RTVSPropertyOp24
 70
     0
102
RTVSPropertyOp25
 70
     0
102
RTVSPropertyOp26
 70
     0
102
RTVSPropertyOp27
 70
     0
102
RTVSPropertyOp28
 70
     0
102
RTVSPropertyOp29
 70
     0
102
RTVSPropertyOp30
 70
     0
102
RTVSPropertyOp31
 70
     0
102
RTVSPropertyOp32
 70
     0
102
RTVSPropertyOp33
 70
     0
102
RTVSPropertyOp34
 70
     0
102
RTVSPropertyOp35
 70
     0
102
RTVSPropertyOp36
 70
     0
102
RTVSPropertyOp37
 70
     0
102
RTVSPropertyOp38
 70
     0
102
RTVSPropertyOp39
 70
     0
102
RTVSPropertyOp40
 70
     0
102
RTVSPropertyOp41
 70
     0
102
RTVSPropertyOp42
 70
     0
102
RTVSPropertyOp43
 70
     0
102
RTVSPropertyOp44
 70
     0
102
RTVSPropertyOp45
 70
     0
102
RTVSPropertyOp46
 70
     0
102
RTVSPropertyOp47
 70
     0
102
RTVSPropertyOp48
 70
     0
102
RTVSPropertyOp49
 70
     0
102
RTVSPropertyOp50
 70
     0
102
RTVSPropertyOp51
 70
     0
102
RTVSPropertyOp52
 70
     0
102
RTVSPropertyOp53
 70
     0
102
RTVSPropertyOp54
 70
     0
102
RTVSPropertyOp55
 70
     0
102
RTVSPropertyOp56
 70
     0
102
RTVSPropertyOp57
 70
     0
102
RTVSPost2010Prop28
280
     0
102
RTVSPost2010PropOp28
 70
     0
102
RTVSPost2010Prop29
280
     1
102
RTVSPost2010PropOp29
 70
     0
102
RTVSPost2010Prop30
280
     1
102
RTVSPost2010PropOp30
 70
     0
102
RTVSPost2010Prop31
280
     0
102
RTVSPost2010PropOp31
 70
     0
102
RTVSPost2010Prop32
280
     0
102
RTVSPost2010PropOp32
 70
     0
102
RTVSPost2010Prop33
280
     0
102
RTVSPost2010PropOp33
 70
     0
102
RTVSPost2010Prop34
280
     0
102
RTVSPost2010PropOp34
 70
     0
102
RTVSPost2010Prop35
280
     0
102
RTVSPost2010PropOp35
 70
     0
102
RTVSPost2010Prop36
280
     0
102
RTVSPost2010PropOp36
 70
     0
102
RTVSPost2010Prop37
 90
       50
102
RTVSPost2010PropOp37
 70
     0
102
RTVSPost2010Prop38
140
0.0
102
RTVSPost2010PropOp38
 70
     0
102
RTVSPost2010Prop39
140
1.0
102
RTVSPost2010PropOp39
 70
     0
102
RTVSPost2010Prop40
 90
        0
102
RTVSPost2010PropOp40
 70
     0
102
RTVSPost2010Prop41ColorIndex
 90
       18
102
RTVSPost2010Prop41ColorRGB
 90
        0
102
RTVSPost2010PropOp41
 70
     0
102
RTVSPost2010Prop42
 90
       50
102
RTVSPost2010PropOp42
 70
     0
102
RTVSPost2010Prop43
 90
        3
102
RTVSPost2010PropOp43
 70
     0
102
RTVSPost2010Prop44ColorIndex
 90
        5
102
RTVSPost2010Prop44ColorRGB
 90
      255
102
RTVSPost2010PropOp44
 70
     0
102
RTVSPost2010Prop45
280
     0
102
RTVSPost2010PropOp45
 70
     0
102
RTVSPost2010Prop46
 90
       50
102
RTVSPost2010PropOp46
 70
     0
102
RTVSPost2010Prop47
 90
       50
102
RTVSPost2010PropOp47
 70
     0
102
RTVSPost2010Prop48
 90
       50
102
RTVSPost2010PropOp48
 70
     0
102
RTVSPost2010Prop49
280
     0
102
RTVSPost2010PropOp49
 70
     0
102
RTVSPost2010Prop50
 90
       50
102
RTVSPost2010PropOp50
 70
     0
102
RTVSPost2010Prop51ColorIndex
 90
      256
102
RTVSPost2010Prop51ColorRGB
 90
-16777216
102
RTVSPost2010PropOp51
 70
     0
102
RTVSPost2010Prop52
140
1.0
102
RTVSPost2010PropOp52
 70
     0
102
RTVSPost2010Prop53
 90
        2
102
RTVSPost2010PropOp53
 70
     0
102
RTVSPost2010Prop54
  1
strokes_ogs.tif
102
RTVSPost2010PropOp54
 70
     0
102
RTVSPost2010Prop55
280
     0
102
RTVSPost2010PropOp55
 70
     0
102
RTVSPost2010Prop56
140
1.0
102
RTVSPost2010PropOp56
 70
     0
102
RTVSPost2010Prop57
140
1.0
102
RTVSPost2010PropOp57
 70
     0
  0
XRECORD
  5
23A
102
{ACAD_REACTORS
330
239
102
}
330
239
100
AcDbXrecord
280
     1
102
RTVSPropertyOp0
 70
     1
102
RTVSPropertyOp1
 70
     1
102
RTVSPropertyOp2
 70
     1
102
RTVSPropertyOp3
 70
     1
102
RTVSPropertyOp4
 70
     1
102
RTVSPropertyOp5
 70
     1
102
RTVSPropertyOp6
 70
     1
102
RTVSPropertyOp7
 70
     1
102
RTVSPropertyOp8
 70
     1
102
RTVSPropertyOp9
 70
     1
102
RTVSPropertyOp10
 70
     1
102
RTVSPropertyOp11
 70
     1
102
RTVSPropertyOp12
 70
     1
102
RTVSPropertyOp13
 70
     1
102
RTVSPropertyOp14
 70
     1
102
RTVSPropertyOp15
 70
     1
102
RTVSPropertyOp16
 70
     1
102
RTVSPropertyOp17
 70
     1
102
RTVSPropertyOp18
 70
     1
102
RTVSPropertyOp19
 70
     1
102
RTVSPropertyOp20
 70
     1
102
RTVSPropertyOp21
 70
     1
102
RTVSPropertyOp22
 70
     1
102
RTVSPropertyOp23
 70
     1
102
RTVSPropertyOp24
 70
     1
102
RTVSPropertyOp25
 70
     1
102
RTVSPropertyOp26
 70
     1
102
RTVSPropertyOp27
 70
     1
102
RTVSPropertyOp28
 70
     1
102
RTVSPropertyOp29
 70
     1
102
RTVSPropertyOp30
 70
     1
102
RTVSPropertyOp31
 70
     1
102
RTVSPropertyOp32
 70
     1
102
RTVSPropertyOp33
 70
     1
102
RTVSPropertyOp34
 70
     1
102
RTVSPropertyOp35
 70
     1
102
RTVSPropertyOp36
 70
     1
102
RTVSPropertyOp37
 70
     1
102
RTVSPropertyOp38
 70
     1
102
RTVSPropertyOp39
 70
     1
102
RTVSPropertyOp40
 70
     1
102
RTVSPropertyOp41
 70
     1
102
RTVSPropertyOp42
 70
     1
102
RTVSPropertyOp43
 70
     1
102
RTVSPropertyOp44
 70
     1
102
RTVSPropertyOp45
 70
     1
102
RTVSPropertyOp46
 70
     1
102
RTVSPropertyOp47
 70
     1
102
RTVSPropertyOp48
 70
     1
102
RTVSPropertyOp49
 70
     1
102
RTVSPropertyOp50
 70
     1
102
RTVSPropertyOp51
 70
     0
102
RTVSPropertyOp52
 70
     0
102
RTVSPropertyOp53
 70
     1
102
RTVSPropertyOp54
 70
     1
102
RTVSPropertyOp55
 70
     1
102
RTVSPropertyOp56
 70
     1
102
RTVSPropertyOp57
 70
     1
102
RTVSPost2010Prop28
280
     0
102
RTVSPost2010PropOp28
 70
     1
102
RTVSPost2010Prop29
280
     1
102
RTVSPost2010PropOp29
 70
     1
102
RTVSPost2010Prop30
280
     1
102
RTVSPost2010PropOp30
 70
     1
102
RTVSPost2010Prop31
280
     0
102
RTVSPost2010PropOp31
 70
     1
102
RTVSPost2010Prop32
280
     0
102
RTVSPost2010PropOp32
 70
     1
102
RTVSPost2010Prop33
280
     0
102
RTVSPost2010PropOp33
 70
     1
102
RTVSPost2010Prop34
280
     0
102
RTVSPost2010PropOp34
 70
     1
102
RTVSPost2010Prop35
280
     0
102
RTVSPost2010PropOp35
 70
     1
102
RTVSPost2010Prop36
280
     0
102
RTVSPost2010PropOp36
 70
     1
102
RTVSPost2010Prop37
 90
       50
102
RTVSPost2010PropOp37
 70
     1
102
RTVSPost2010Prop38
140
0.0
102
RTVSPost2010PropOp38
 70
     1
102
RTVSPost2010Prop39
140
1.0
102
RTVSPost2010PropOp39
 70
     1
102
RTVSPost2010Prop40
 90
        0
102
RTVSPost2010PropOp40
 70
     1
102
RTVSPost2010Prop41ColorIndex
 90
       18
102
RTVSPost2010Prop41ColorRGB
 90
        0
102
RTVSPost2010PropOp41
 70
     1
102
RTVSPost2010Prop42
 90
       50
102
RTVSPost2010PropOp42
 70
     1
102
RTVSPost2010Prop43
 90
        3
102
RTVSPost2010PropOp43
 70
     1
102
RTVSPost2010Prop44ColorIndex
 90
        5
102
RTVSPost2010Prop44ColorRGB
 90
      255
102
RTVSPost2010PropOp44
 70
     1
102
RTVSPost2010Prop45
280
     0
102
RTVSPost2010PropOp45
 70
     1
102
RTVSPost2010Prop46
 90
       50
102
RTVSPost2010PropOp46
 70
     1
102
RTVSPost2010Prop47
 90
       50
102
RTVSPost2010PropOp47
 70
     1
102
RTVSPost2010Prop48
 90
       50
102
RTVSPost2010PropOp48
 70
     1
102
RTVSPost2010Prop49
280
     0
102
RTVSPost2010PropOp49
 70
     1
102
RTVSPost2010Prop50
 90
       50
102
RTVSPost2010PropOp50
 70
     1
102
RTVSPost2010Prop51ColorIndex
 90
      256
102
RTVSPost2010Prop51ColorRGB
 90
-16777216
102
RTVSPost2010PropOp51
 70
     0
102
RTVSPost2010Prop52
140
1.0
102
RTVSPost2010PropOp52
 70
     0
102
RTVSPost2010Prop53
 90
        2
102
RTVSPost2010PropOp53
 70
     1
102
RTVSPost2010Prop54
  1
strokes_ogs.tif
102
RTVSPost2010PropOp54
 70
     1
102
RTVSPost2010Prop55
280
     0
102
RTVSPost2010PropOp55
 70
     1
102
RTVSPost2010Prop56
140
1.0
102
RTVSPost2010PropOp56
 70
     1
102
RTVSPost2010Prop57
140
1.0
102
RTVSPost2010PropOp57
 70
     1
  0
XRECORD
  5
242
102
{ACAD_REACTORS
330
241
102
}
330
241
100
AcDbXrecord
280
     1
102
RTVSPropertyOp0
 70
     0
102
RTVSPropertyOp1
 70
     0
102
RTVSPropertyOp2
 70
     0
102
RTVSPropertyOp3
 70
     0
102
RTVSPropertyOp4
 70
     0
102
RTVSPropertyOp5
 70
     0
102
RTVSPropertyOp6
 70
     0
102
RTVSPropertyOp7
 70
     0
102
RTVSPropertyOp8
 70
     0
102
RTVSPropertyOp9
 70
     0
102
RTVSPropertyOp10
 70
     0
102
RTVSPropertyOp11
 70
     0
102
RTVSPropertyOp12
 70
     0
102
RTVSPropertyOp13
 70
     0
102
RTVSPropertyOp14
 70
     2
102
RTVSPropertyOp15
 70
     0
102
RTVSPropertyOp16
 70
     0
102
RTVSPropertyOp17
 70
     0
102
RTVSPropertyOp18
 70
     0
102
RTVSPropertyOp19
 70
     0
102
RTVSPropertyOp20
 70
     0
102
RTVSPropertyOp21
 70
     0
102
RTVSPropertyOp22
 70
     0
102
RTVSPropertyOp23
 70
     0
102
RTVSPropertyOp24
 70
     0
102
RTVSPropertyOp25
 70
     0
102
RTVSPropertyOp26
 70
     0
102
RTVSPropertyOp27
 70
     0
102
RTVSPropertyOp28
 70
     0
102
RTVSPropertyOp29
 70
     0
102
RTVSPropertyOp30
 70
     0
102
RTVSPropertyOp31
 70
     0
102
RTVSPropertyOp32
 70
     0
102
RTVSPropertyOp33
 70
     0
102
RTVSPropertyOp34
 70
     0
102
RTVSPropertyOp35
 70
     0
102
RTVSPropertyOp36
 70
     0
102
RTVSPropertyOp37
 70
     0
102
RTVSPropertyOp38
 70
     0
102
RTVSPropertyOp39
 70
     0
102
RTVSPropertyOp40
 70
     0
102
RTVSPropertyOp41
 70
     0
102
RTVSPropertyOp42
 70
     0
102
RTVSPropertyOp43
 70
     0
102
RTVSPropertyOp44
 70
     0
102
RTVSPropertyOp45
 70
     0
102
RTVSPropertyOp46
 70
     0
102
RTVSPropertyOp47
 70
     0
102
RTVSPropertyOp48
 70
     0
102
RTVSPropertyOp49
 70
     0
102
RTVSPropertyOp50
 70
     0
102
RTVSPropertyOp51
 70
     0
102
RTVSPropertyOp52
 70
     0
102
RTVSPropertyOp53
 70
     0
102
RTVSPropertyOp54
 70
     0
102
RTVSPropertyOp55
 70
     0
102
RTVSPropertyOp56
 70
     0
102
RTVSPropertyOp57
 70
     0
102
RTVSPost2010Prop28
280
     0
102
RTVSPost2010PropOp28
 70
     0
102
RTVSPost2010Prop29
280
     1
102
RTVSPost2010PropOp29
 70
     0
102
RTVSPost2010Prop30
280
     1
102
RTVSPost2010PropOp30
 70
     0
102
RTVSPost2010Prop31
280
     0
102
RTVSPost2010PropOp31
 70
     0
102
RTVSPost2010Prop32
280
     0
102
RTVSPost2010PropOp32
 70
     0
102
RTVSPost2010Prop33
280
     0
102
RTVSPost2010PropOp33
 70
     0
102
RTVSPost2010Prop34
280
     0
102
RTVSPost2010PropOp34
 70
     0
102
RTVSPost2010Prop35
280
     0
102
RTVSPost2010PropOp35
 70
     0
102
RTVSPost2010Prop36
280
     0
102
RTVSPost2010PropOp36
 70
     0
102
RTVSPost2010Prop37
 90
       50
102
RTVSPost2010PropOp37
 70
     0
102
RTVSPost2010Prop38
140
0.0
102
RTVSPost2010PropOp38
 70
     0
102
RTVSPost2010Prop39
140
1.0
102
RTVSPost2010PropOp39
 70
     0
102
RTVSPost2010Prop40
 90
        0
102
RTVSPost2010PropOp40
 70
     0
102
RTVSPost2010Prop41ColorIndex
 90
       18
102
RTVSPost2010Prop41ColorRGB
 90
        0
102
RTVSPost2010PropOp41
 70
     0
102
RTVSPost2010Prop42
 90
       50
102
RTVSPost2010PropOp42
 70
     0
102
RTVSPost2010Prop43
 90
        3
102
RTVSPost2010PropOp43
 70
     0
102
RTVSPost2010Prop44ColorIndex
 90
        5
102
RTVSPost2010Prop44ColorRGB
 90
      255
102
RTVSPost2010PropOp44
 70
     0
102
RTVSPost2010Prop45
280
     0
102
RTVSPost2010PropOp45
 70
     0
102
RTVSPost2010Prop46
 90
       50
102
RTVSPost2010PropOp46
 70
     0
102
RTVSPost2010Prop47
 90
       50
102
RTVSPost2010PropOp47
 70
     0
102
RTVSPost2010Prop48
 90
       50
102
RTVSPost2010PropOp48
 70
     0
102
RTVSPost2010Prop49
280
     0
102
RTVSPost2010PropOp49
 70
     0
102
RTVSPost2010Prop50
 90
       50
102
RTVSPost2010PropOp50
 70
     0
102
RTVSPost2010Prop51ColorIndex
 90
      256
102
RTVSPost2010Prop51ColorRGB
 90
-16777216
102
RTVSPost2010PropOp51
 70
     0
102
RTVSPost2010Prop52
140
1.0
102
RTVSPost2010PropOp52
 70
     0
102
RTVSPost2010Prop53
 90
        2
102
RTVSPost2010PropOp53
 70
     0
102
RTVSPost2010Prop54
  1
strokes_ogs.tif
102
RTVSPost2010PropOp54
 70
     0
102
RTVSPost2010Prop55
280
     0
102
RTVSPost2010PropOp55
 70
     0
102
RTVSPost2010Prop56
140
1.0
102
RTVSPost2010PropOp56
 70
     0
102
RTVSPost2010Prop57
140
1.0
102
RTVSPost2010PropOp57
 70
     0
  0
XRECORD
  5
230
102
{ACAD_REACTORS
330
22F
102
}
330
22F
100
AcDbXrecord
280
     1
102
RTVSPropertyOp0
 70
     1
102
RTVSPropertyOp1
 70
     1
102
RTVSPropertyOp2
 70
     1
102
RTVSPropertyOp3
 70
     1
102
RTVSPropertyOp4
 70
     1
102
RTVSPropertyOp5
 70
     1
102
RTVSPropertyOp6
 70
     1
102
RTVSPropertyOp7
 70
     1
102
RTVSPropertyOp8
 70
     1
102
RTVSPropertyOp9
 70
     1
102
RTVSPropertyOp10
 70
     1
102
RTVSPropertyOp11
 70
     1
102
RTVSPropertyOp12
 70
     1
102
RTVSPropertyOp13
 70
     1
102
RTVSPropertyOp14
 70
     1
102
RTVSPropertyOp15
 70
     1
102
RTVSPropertyOp16
 70
     1
102
RTVSPropertyOp17
 70
     1
102
RTVSPropertyOp18
 70
     1
102
RTVSPropertyOp19
 70
     1
102
RTVSPropertyOp20
 70
     1
102
RTVSPropertyOp21
 70
     1
102
RTVSPropertyOp22
 70
     1
102
RTVSPropertyOp23
 70
     1
102
RTVSPropertyOp24
 70
     1
102
RTVSPropertyOp25
 70
     1
102
RTVSPropertyOp26
 70
     1
102
RTVSPropertyOp27
 70
     1
102
RTVSPropertyOp28
 70
     1
102
RTVSPropertyOp29
 70
     1
102
RTVSPropertyOp30
 70
     1
102
RTVSPropertyOp31
 70
     1
102
RTVSPropertyOp32
 70
     1
102
RTVSPropertyOp33
 70
     1
102
RTVSPropertyOp34
 70
     1
102
RTVSPropertyOp35
 70
     1
102
RTVSPropertyOp36
 70
     1
102
RTVSPropertyOp37
 70
     1
102
RTVSPropertyOp38
 70
     1
102
RTVSPropertyOp39
 70
     1
102
RTVSPropertyOp40
 70
     1
102
RTVSPropertyOp41
 70
     1
102
RTVSPropertyOp42
 70
     1
102
RTVSPropertyOp43
 70
     1
102
RTVSPropertyOp44
 70
     1
102
RTVSPropertyOp45
 70
     1
102
RTVSPropertyOp46
 70
     1
102
RTVSPropertyOp47
 70
     1
102
RTVSPropertyOp48
 70
     1
102
RTVSPropertyOp49
 70
     1
102
RTVSPropertyOp50
 70
     1
102
RTVSPropertyOp51
 70
     0
102
RTVSPropertyOp52
 70
     0
102
RTVSPropertyOp53
 70
     1
102
RTVSPropertyOp54
 70
     1
102
RTVSPropertyOp55
 70
     1
102
RTVSPropertyOp56
 70
     1
102
RTVSPropertyOp57
 70
     1
102
RTVSPost2010Prop28
280
     0
102
RTVSPost2010PropOp28
 70
     1
102
RTVSPost2010Prop29
280
     1
102
RTVSPost2010PropOp29
 70
     1
102
RTVSPost2010Prop30
280
     1
102
RTVSPost2010PropOp30
 70
     1
102
RTVSPost2010Prop31
280
     0
102
RTVSPost2010PropOp31
 70
     1
102
RTVSPost2010Prop32
280
     0
102
RTVSPost2010PropOp32
 70
     1
102
RTVSPost2010Prop33
280
     0
102
RTVSPost2010PropOp33
 70
     1
102
RTVSPost2010Prop34
280
     0
102
RTVSPost2010PropOp34
 70
     1
102
RTVSPost2010Prop35
280
     0
102
RTVSPost2010PropOp35
 70
     1
102
RTVSPost2010Prop36
280
     0
102
RTVSPost2010PropOp36
 70
     1
102
RTVSPost2010Prop37
 90
       50
102
RTVSPost2010PropOp37
 70
     1
102
RTVSPost2010Prop38
140
0.0
102
RTVSPost2010PropOp38
 70
     1
102
RTVSPost2010Prop39
140
1.0
102
RTVSPost2010PropOp39
 70
     1
102
RTVSPost2010Prop40
 90
        0
102
RTVSPost2010PropOp40
 70
     1
102
RTVSPost2010Prop41ColorIndex
 90
       18
102
RTVSPost2010Prop41ColorRGB
 90
        0
102
RTVSPost2010PropOp41
 70
     1
102
RTVSPost2010Prop42
 90
       50
102
RTVSPost2010PropOp42
 70
     1
102
RTVSPost2010Prop43
 90
        3
102
RTVSPost2010PropOp43
 70
     1
102
RTVSPost2010Prop44ColorIndex
 90
        5
102
RTVSPost2010Prop44ColorRGB
 90
      255
102
RTVSPost2010PropOp44
 70
     1
102
RTVSPost2010Prop45
280
     0
102
RTVSPost2010PropOp45
 70
     1
102
RTVSPost2010Prop46
 90
       50
102
RTVSPost2010PropOp46
 70
     1
102
RTVSPost2010Prop47
 90
       50
102
RTVSPost2010PropOp47
 70
     1
102
RTVSPost2010Prop48
 90
       50
102
RTVSPost2010PropOp48
 70
     1
102
RTVSPost2010Prop49
280
     0
102
RTVSPost2010PropOp49
 70
     1
102
RTVSPost2010Prop50
 90
       50
102
RTVSPost2010PropOp50
 70
     1
102
RTVSPost2010Prop51ColorIndex
 90
      256
102
RTVSPost2010Prop51ColorRGB
 90
-16777216
102
RTVSPost2010PropOp51
 70
     0
102
RTVSPost2010Prop52
140
1.0
102
RTVSPost2010PropOp52
 70
     0
102
RTVSPost2010Prop53
 90
        2
102
RTVSPost2010PropOp53
 70
     1
102
RTVSPost2010Prop54
  1
strokes_ogs.tif
102
RTVSPost2010PropOp54
 70
     1
102
RTVSPost2010Prop55
280
     0
102
RTVSPost2010PropOp55
 70
     1
102
RTVSPost2010Prop56
140
1.0
102
RTVSPost2010PropOp56
 70
     1
102
RTVSPost2010Prop57
140
1.0
102
RTVSPost2010PropOp57
 70
     1
  0
XRECORD
  5
24E
102
{ACAD_REACTORS
330
24D
102
}
330
24D
100
AcDbXrecord
280
     1
102
RTVSPropertyOp0
 70
     1
102
RTVSPropertyOp1
 70
     1
102
RTVSPropertyOp2
 70
     1
102
RTVSPropertyOp3
 70
     1
102
RTVSPropertyOp4
 70
     1
102
RTVSPropertyOp5
 70
     1
102
RTVSPropertyOp6
 70
     1
102
RTVSPropertyOp7
 70
     1
102
RTVSPropertyOp8
 70
     1
102
RTVSPropertyOp9
 70
     1
102
RTVSPropertyOp10
 70
     1
102
RTVSPropertyOp11
 70
     1
102
RTVSPropertyOp12
 70
     1
102
RTVSPropertyOp13
 70
     1
102
RTVSPropertyOp14
 70
     1
102
RTVSPropertyOp15
 70
     1
102
RTVSPropertyOp16
 70
     1
102
RTVSPropertyOp17
 70
     1
102
RTVSPropertyOp18
 70
     1
102
RTVSPropertyOp19
 70
     1
102
RTVSPropertyOp20
 70
     1
102
RTVSPropertyOp21
 70
     1
102
RTVSPropertyOp22
 70
     1
102
RTVSPropertyOp23
 70
     1
102
RTVSPropertyOp24
 70
     1
102
RTVSPropertyOp25
 70
     1
102
RTVSPropertyOp26
 70
     1
102
RTVSPropertyOp27
 70
     1
102
RTVSPropertyOp28
 70
     1
102
RTVSPropertyOp29
 70
     1
102
RTVSPropertyOp30
 70
     1
102
RTVSPropertyOp31
 70
     1
102
RTVSPropertyOp32
 70
     1
102
RTVSPropertyOp33
 70
     1
102
RTVSPropertyOp34
 70
     1
102
RTVSPropertyOp35
 70
     1
102
RTVSPropertyOp36
 70
     1
102
RTVSPropertyOp37
 70
     1
102
RTVSPropertyOp38
 70
     1
102
RTVSPropertyOp39
 70
     1
102
RTVSPropertyOp40
 70
     1
102
RTVSPropertyOp41
 70
     1
102
RTVSPropertyOp42
 70
     1
102
RTVSPropertyOp43
 70
     1
102
RTVSPropertyOp44
 70
     1
102
RTVSPropertyOp45
 70
     1
102
RTVSPropertyOp46
 70
     1
102
RTVSPropertyOp47
 70
     1
102
RTVSPropertyOp48
 70
     1
102
RTVSPropertyOp49
 70
     1
102
RTVSPropertyOp50
 70
     1
102
RTVSPropertyOp51
 70
     0
102
RTVSPropertyOp52
 70
     0
102
RTVSPropertyOp53
 70
     1
102
RTVSPropertyOp54
 70
     1
102
RTVSPropertyOp55
 70
     1
102
RTVSPropertyOp56
 70
     1
102
RTVSPropertyOp57
 70
     1
102
RTVSPost2010Prop28
280
     0
102
RTVSPost2010PropOp28
 70
     1
102
RTVSPost2010Prop29
280
     1
102
RTVSPost2010PropOp29
 70
     1
102
RTVSPost2010Prop30
280
     1
102
RTVSPost2010PropOp30
 70
     1
102
RTVSPost2010Prop31
280
     0
102
RTVSPost2010PropOp31
 70
     1
102
RTVSPost2010Prop32
280
     0
102
RTVSPost2010PropOp32
 70
     1
102
RTVSPost2010Prop33
280
     0
102
RTVSPost2010PropOp33
 70
     1
102
RTVSPost2010Prop34
280
     0
102
RTVSPost2010PropOp34
 70
     1
102
RTVSPost2010Prop35
280
     0
102
RTVSPost2010PropOp35
 70
     1
102
RTVSPost2010Prop36
280
     0
102
RTVSPost2010PropOp36
 70
     1
102
RTVSPost2010Prop37
 90
       50
102
RTVSPost2010PropOp37
 70
     1
102
RTVSPost2010Prop38
140
0.0
102
RTVSPost2010PropOp38
 70
     1
102
RTVSPost2010Prop39
140
1.0
102
RTVSPost2010PropOp39
 70
     1
102
RTVSPost2010Prop40
 90
        0
102
RTVSPost2010PropOp40
 70
     1
102
RTVSPost2010Prop41ColorIndex
 90
       18
102
RTVSPost2010Prop41ColorRGB
 90
        0
102
RTVSPost2010PropOp41
 70
     1
102
RTVSPost2010Prop42
 90
       50
102
RTVSPost2010PropOp42
 70
     1
102
RTVSPost2010Prop43
 90
        3
102
RTVSPost2010PropOp43
 70
     1
102
RTVSPost2010Prop44ColorIndex
 90
        5
102
RTVSPost2010Prop44ColorRGB
 90
      255
102
RTVSPost2010PropOp44
 70
     1
102
RTVSPost2010Prop45
280
     0
102
RTVSPost2010PropOp45
 70
     1
102
RTVSPost2010Prop46
 90
       50
102
RTVSPost2010PropOp46
 70
     1
102
RTVSPost2010Prop47
 90
       50
102
RTVSPost2010PropOp47
 70
     1
102
RTVSPost2010Prop48
 90
       50
102
RTVSPost2010PropOp48
 70
     1
102
RTVSPost2010Prop49
280
     0
102
RTVSPost2010PropOp49
 70
     1
102
RTVSPost2010Prop50
 90
       50
102
RTVSPost2010PropOp50
 70
     1
102
RTVSPost2010Prop51ColorIndex
 90
      256
102
RTVSPost2010Prop51ColorRGB
 90
-16777216
102
RTVSPost2010PropOp51
 70
     0
102
RTVSPost2010Prop52
140
1.0
102
RTVSPost2010PropOp52
 70
     0
102
RTVSPost2010Prop53
 90
        2
102
RTVSPost2010PropOp53
 70
     1
102
RTVSPost2010Prop54
  1
strokes_ogs.tif
102
RTVSPost2010PropOp54
 70
     1
102
RTVSPost2010Prop55
280
     0
102
RTVSPost2010PropOp55
 70
     1
102
RTVSPost2010Prop56
140
1.0
102
RTVSPost2010PropOp56
 70
     1
102
RTVSPost2010Prop57
140
1.0
102
RTVSPost2010PropOp57
 70
     1
  0
XRECORD
  5
24C
102
{ACAD_REACTORS
330
24B
102
}
330
24B
100
AcDbXrecord
280
     1
102
RTVSPropertyOp0
 70
     1
102
RTVSPropertyOp1
 70
     1
102
RTVSPropertyOp2
 70
     1
102
RTVSPropertyOp3
 70
     1
102
RTVSPropertyOp4
 70
     1
102
RTVSPropertyOp5
 70
     1
102
RTVSPropertyOp6
 70
     1
102
RTVSPropertyOp7
 70
     1
102
RTVSPropertyOp8
 70
     1
102
RTVSPropertyOp9
 70
     1
102
RTVSPropertyOp10
 70
     1
102
RTVSPropertyOp11
 70
     1
102
RTVSPropertyOp12
 70
     1
102
RTVSPropertyOp13
 70
     1
102
RTVSPropertyOp14
 70
     1
102
RTVSPropertyOp15
 70
     1
102
RTVSPropertyOp16
 70
     1
102
RTVSPropertyOp17
 70
     1
102
RTVSPropertyOp18
 70
     1
102
RTVSPropertyOp19
 70
     1
102
RTVSPropertyOp20
 70
     1
102
RTVSPropertyOp21
 70
     1
102
RTVSPropertyOp22
 70
     1
102
RTVSPropertyOp23
 70
     1
102
RTVSPropertyOp24
 70
     1
102
RTVSPropertyOp25
 70
     1
102
RTVSPropertyOp26
 70
     1
102
RTVSPropertyOp27
 70
     1
102
RTVSPropertyOp28
 70
     1
102
RTVSPropertyOp29
 70
     1
102
RTVSPropertyOp30
 70
     1
102
RTVSPropertyOp31
 70
     1
102
RTVSPropertyOp32
 70
     1
102
RTVSPropertyOp33
 70
     1
102
RTVSPropertyOp34
 70
     1
102
RTVSPropertyOp35
 70
     1
102
RTVSPropertyOp36
 70
     1
102
RTVSPropertyOp37
 70
     1
102
RTVSPropertyOp38
 70
     1
102
RTVSPropertyOp39
 70
     1
102
RTVSPropertyOp40
 70
     1
102
RTVSPropertyOp41
 70
     1
102
RTVSPropertyOp42
 70
     1
102
RTVSPropertyOp43
 70
     1
102
RTVSPropertyOp44
 70
     1
102
RTVSPropertyOp45
 70
     1
102
RTVSPropertyOp46
 70
     1
102
RTVSPropertyOp47
 70
     1
102
RTVSPropertyOp48
 70
     1
102
RTVSPropertyOp49
 70
     1
102
RTVSPropertyOp50
 70
     1
102
RTVSPropertyOp51
 70
     0
102
RTVSPropertyOp52
 70
     0
102
RTVSPropertyOp53
 70
     1
102
RTVSPropertyOp54
 70
     1
102
RTVSPropertyOp55
 70
     1
102
RTVSPropertyOp56
 70
     1
102
RTVSPropertyOp57
 70
     1
102
RTVSPost2010Prop28
280
     0
102
RTVSPost2010PropOp28
 70
     1
102
RTVSPost2010Prop29
280
     1
102
RTVSPost2010PropOp29
 70
     1
102
RTVSPost2010Prop30
280
     1
102
RTVSPost2010PropOp30
 70
     1
102
RTVSPost2010Prop31
280
     0
102
RTVSPost2010PropOp31
 70
     1
102
RTVSPost2010Prop32
280
     0
102
RTVSPost2010PropOp32
 70
     1
102
RTVSPost2010Prop33
280
     0
102
RTVSPost2010PropOp33
 70
     1
102
RTVSPost2010Prop34
280
     0
102
RTVSPost2010PropOp34
 70
     1
102
RTVSPost2010Prop35
280
     0
102
RTVSPost2010PropOp35
 70
     1
102
RTVSPost2010Prop36
280
     0
102
RTVSPost2010PropOp36
 70
     1
102
RTVSPost2010Prop37
 90
       50
102
RTVSPost2010PropOp37
 70
     1
102
RTVSPost2010Prop38
140
0.0
102
RTVSPost2010PropOp38
 70
     1
102
RTVSPost2010Prop39
140
1.0
102
RTVSPost2010PropOp39
 70
     1
102
RTVSPost2010Prop40
 90
        0
102
RTVSPost2010PropOp40
 70
     1
102
RTVSPost2010Prop41ColorIndex
 90
       18
102
RTVSPost2010Prop41ColorRGB
 90
        0
102
RTVSPost2010PropOp41
 70
     1
102
RTVSPost2010Prop42
 90
       50
102
RTVSPost2010PropOp42
 70
     1
102
RTVSPost2010Prop43
 90
        3
102
RTVSPost2010PropOp43
 70
     1
102
RTVSPost2010Prop44ColorIndex
 90
        5
102
RTVSPost2010Prop44ColorRGB
 90
      255
102
RTVSPost2010PropOp44
 70
     1
102
RTVSPost2010Prop45
280
     0
102
RTVSPost2010PropOp45
 70
     1
102
RTVSPost2010Prop46
 90
       50
102
RTVSPost2010PropOp46
 70
     1
102
RTVSPost2010Prop47
 90
       50
102
RTVSPost2010PropOp47
 70
     1
102
RTVSPost2010Prop48
 90
       50
102
RTVSPost2010PropOp48
 70
     1
102
RTVSPost2010Prop49
280
     0
102
RTVSPost2010PropOp49
 70
     1
102
RTVSPost2010Prop50
 90
       50
102
RTVSPost2010PropOp50
 70
     1
102
RTVSPost2010Prop51ColorIndex
 90
      256
102
RTVSPost2010Prop51ColorRGB
 90
-16777216
102
RTVSPost2010PropOp51
 70
     0
102
RTVSPost2010Prop52
140
1.0
102
RTVSPost2010PropOp52
 70
     0
102
RTVSPost2010Prop53
 90
        2
102
RTVSPost2010PropOp53
 70
     1
102
RTVSPost2010Prop54
  1
strokes_ogs.tif
102
RTVSPost2010PropOp54
 70
     1
102
RTVSPost2010Prop55
280
     0
102
RTVSPost2010PropOp55
 70
     1
102
RTVSPost2010Prop56
140
1.0
102
RTVSPost2010PropOp56
 70
     1
102
RTVSPost2010Prop57
140
1.0
102
RTVSPost2010PropOp57
 70
     1
  0
XRECORD
  5
246
102
{ACAD_REACTORS
330
245
102
}
330
245
100
AcDbXrecord
280
     1
102
RTVSPropertyOp0
 70
     1
102
RTVSPropertyOp1
 70
     1
102
RTVSPropertyOp2
 70
     1
102
RTVSPropertyOp3
 70
     1
102
RTVSPropertyOp4
 70
     1
102
RTVSPropertyOp5
 70
     1
102
RTVSPropertyOp6
 70
     1
102
RTVSPropertyOp7
 70
     1
102
RTVSPropertyOp8
 70
     1
102
RTVSPropertyOp9
 70
     1
102
RTVSPropertyOp10
 70
     1
102
RTVSPropertyOp11
 70
     1
102
RTVSPropertyOp12
 70
     1
102
RTVSPropertyOp13
 70
     1
102
RTVSPropertyOp14
 70
     1
102
RTVSPropertyOp15
 70
     1
102
RTVSPropertyOp16
 70
     1
102
RTVSPropertyOp17
 70
     1
102
RTVSPropertyOp18
 70
     1
102
RTVSPropertyOp19
 70
     1
102
RTVSPropertyOp20
 70
     1
102
RTVSPropertyOp21
 70
     1
102
RTVSPropertyOp22
 70
     1
102
RTVSPropertyOp23
 70
     1
102
RTVSPropertyOp24
 70
     1
102
RTVSPropertyOp25
 70
     1
102
RTVSPropertyOp26
 70
     1
102
RTVSPropertyOp27
 70
     1
102
RTVSPropertyOp28
 70
     1
102
RTVSPropertyOp29
 70
     1
102
RTVSPropertyOp30
 70
     1
102
RTVSPropertyOp31
 70
     1
102
RTVSPropertyOp32
 70
     1
102
RTVSPropertyOp33
 70
     1
102
RTVSPropertyOp34
 70
     1
102
RTVSPropertyOp35
 70
     1
102
RTVSPropertyOp36
 70
     1
102
RTVSPropertyOp37
 70
     1
102
RTVSPropertyOp38
 70
     1
102
RTVSPropertyOp39
 70
     1
102
RTVSPropertyOp40
 70
     1
102
RTVSPropertyOp41
 70
     1
102
RTVSPropertyOp42
 70
     1
102
RTVSPropertyOp43
 70
     1
102
RTVSPropertyOp44
 70
     1
102
RTVSPropertyOp45
 70
     1
102
RTVSPropertyOp46
 70
     1
102
RTVSPropertyOp47
 70
     1
102
RTVSPropertyOp48
 70
     1
102
RTVSPropertyOp49
 70
     1
102
RTVSPropertyOp50
 70
     1
102
RTVSPropertyOp51
 70
     0
102
RTVSPropertyOp52
 70
     0
102
RTVSPropertyOp53
 70
     1
102
RTVSPropertyOp54
 70
     1
102
RTVSPropertyOp55
 70
     1
102
RTVSPropertyOp56
 70
     1
102
RTVSPropertyOp57
 70
     1
102
RTVSPost2010Prop28
280
     0
102
RTVSPost2010PropOp28
 70
     1
102
RTVSPost2010Prop29
280
     1
102
RTVSPost2010PropOp29
 70
     1
102
RTVSPost2010Prop30
280
     1
102
RTVSPost2010PropOp30
 70
     1
102
RTVSPost2010Prop31
280
     0
102
RTVSPost2010PropOp31
 70
     1
102
RTVSPost2010Prop32
280
     0
102
RTVSPost2010PropOp32
 70
     1
102
RTVSPost2010Prop33
280
     0
102
RTVSPost2010PropOp33
 70
     1
102
RTVSPost2010Prop34
280
     0
102
RTVSPost2010PropOp34
 70
     1
102
RTVSPost2010Prop35
280
     0
102
RTVSPost2010PropOp35
 70
     1
102
RTVSPost2010Prop36
280
     0
102
RTVSPost2010PropOp36
 70
     1
102
RTVSPost2010Prop37
 90
       50
102
RTVSPost2010PropOp37
 70
     1
102
RTVSPost2010Prop38
140
0.0
102
RTVSPost2010PropOp38
 70
     1
102
RTVSPost2010Prop39
140
1.0
102
RTVSPost2010PropOp39
 70
     1
102
RTVSPost2010Prop40
 90
        0
102
RTVSPost2010PropOp40
 70
     1
102
RTVSPost2010Prop41ColorIndex
 90
       18
102
RTVSPost2010Prop41ColorRGB
 90
        0
102
RTVSPost2010PropOp41
 70
     1
102
RTVSPost2010Prop42
 90
       50
102
RTVSPost2010PropOp42
 70
     1
102
RTVSPost2010Prop43
 90
        3
102
RTVSPost2010PropOp43
 70
     1
102
RTVSPost2010Prop44ColorIndex
 90
        5
102
RTVSPost2010Prop44ColorRGB
 90
      255
102
RTVSPost2010PropOp44
 70
     1
102
RTVSPost2010Prop45
280
     0
102
RTVSPost2010PropOp45
 70
     1
102
RTVSPost2010Prop46
 90
       50
102
RTVSPost2010PropOp46
 70
     1
102
RTVSPost2010Prop47
 90
       50
102
RTVSPost2010PropOp47
 70
     1
102
RTVSPost2010Prop48
 90
       50
102
RTVSPost2010PropOp48
 70
     1
102
RTVSPost2010Prop49
280
     0
102
RTVSPost2010PropOp49
 70
     1
102
RTVSPost2010Prop50
 90
       50
102
RTVSPost2010PropOp50
 70
     1
102
RTVSPost2010Prop51ColorIndex
 90
      256
102
RTVSPost2010Prop51ColorRGB
 90
-16777216
102
RTVSPost2010PropOp51
 70
     0
102
RTVSPost2010Prop52
140
1.0
102
RTVSPost2010PropOp52
 70
     0
102
RTVSPost2010Prop53
 90
        2
102
RTVSPost2010PropOp53
 70
     1
102
RTVSPost2010Prop54
  1
strokes_ogs.tif
102
RTVSPost2010PropOp54
 70
     1
102
RTVSPost2010Prop55
280
     0
102
RTVSPost2010PropOp55
 70
     1
102
RTVSPost2010Prop56
140
1.0
102
RTVSPost2010PropOp56
 70
     1
102
RTVSPost2010Prop57
140
1.0
102
RTVSPost2010PropOp57
 70
     1
  0
XRECORD
  5
248
102
{ACAD_REACTORS
330
247
102
}
330
247
100
AcDbXrecord
280
     1
102
RTVSPropertyOp0
 70
     1
102
RTVSPropertyOp1
 70
     1
102
RTVSPropertyOp2
 70
     1
102
RTVSPropertyOp3
 70
     1
102
RTVSPropertyOp4
 70
     1
102
RTVSPropertyOp5
 70
     1
102
RTVSPropertyOp6
 70
     1
102
RTVSPropertyOp7
 70
     1
102
RTVSPropertyOp8
 70
     1
102
RTVSPropertyOp9
 70
     1
102
RTVSPropertyOp10
 70
     1
102
RTVSPropertyOp11
 70
     1
102
RTVSPropertyOp12
 70
     1
102
RTVSPropertyOp13
 70
     1
102
RTVSPropertyOp14
 70
     1
102
RTVSPropertyOp15
 70
     1
102
RTVSPropertyOp16
 70
     1
102
RTVSPropertyOp17
 70
     1
102
RTVSPropertyOp18
 70
     1
102
RTVSPropertyOp19
 70
     1
102
RTVSPropertyOp20
 70
     1
102
RTVSPropertyOp21
 70
     1
102
RTVSPropertyOp22
 70
     1
102
RTVSPropertyOp23
 70
     1
102
RTVSPropertyOp24
 70
     1
102
RTVSPropertyOp25
 70
     1
102
RTVSPropertyOp26
 70
     1
102
RTVSPropertyOp27
 70
     1
102
RTVSPropertyOp28
 70
     1
102
RTVSPropertyOp29
 70
     1
102
RTVSPropertyOp30
 70
     1
102
RTVSPropertyOp31
 70
     1
102
RTVSPropertyOp32
 70
     1
102
RTVSPropertyOp33
 70
     1
102
RTVSPropertyOp34
 70
     1
102
RTVSPropertyOp35
 70
     1
102
RTVSPropertyOp36
 70
     1
102
RTVSPropertyOp37
 70
     1
102
RTVSPropertyOp38
 70
     1
102
RTVSPropertyOp39
 70
     1
102
RTVSPropertyOp40
 70
     1
102
RTVSPropertyOp41
 70
     1
102
RTVSPropertyOp42
 70
     1
102
RTVSPropertyOp43
 70
     1
102
RTVSPropertyOp44
 70
     1
102
RTVSPropertyOp45
 70
     1
102
RTVSPropertyOp46
 70
     1
102
RTVSPropertyOp47
 70
     1
102
RTVSPropertyOp48
 70
     1
102
RTVSPropertyOp49
 70
     1
102
RTVSPropertyOp50
 70
     1
102
RTVSPropertyOp51
 70
     0
102
RTVSPropertyOp52
 70
     0
102
RTVSPropertyOp53
 70
     1
102
RTVSPropertyOp54
 70
     1
102
RTVSPropertyOp55
 70
     1
102
RTVSPropertyOp56
 70
     1
102
RTVSPropertyOp57
 70
     1
102
RTVSPost2010Prop28
280
     0
102
RTVSPost2010PropOp28
 70
     1
102
RTVSPost2010Prop29
280
     1
102
RTVSPost2010PropOp29
 70
     1
102
RTVSPost2010Prop30
280
     1
102
RTVSPost2010PropOp30
 70
     1
102
RTVSPost2010Prop31
280
     0
102
RTVSPost2010PropOp31
 70
     1
102
RTVSPost2010Prop32
280
     0
102
RTVSPost2010PropOp32
 70
     1
102
RTVSPost2010Prop33
280
     0
102
RTVSPost2010PropOp33
 70
     1
102
RTVSPost2010Prop34
280
     0
102
RTVSPost2010PropOp34
 70
     1
102
RTVSPost2010Prop35
280
     0
102
RTVSPost2010PropOp35
 70
     1
102
RTVSPost2010Prop36
280
     0
102
RTVSPost2010PropOp36
 70
     1
102
RTVSPost2010Prop37
 90
       50
102
RTVSPost2010PropOp37
 70
     1
102
RTVSPost2010Prop38
140
0.0
102
RTVSPost2010PropOp38
 70
     1
102
RTVSPost2010Prop39
140
1.0
102
RTVSPost2010PropOp39
 70
     1
102
RTVSPost2010Prop40
 90
        0
102
RTVSPost2010PropOp40
 70
     1
102
RTVSPost2010Prop41ColorIndex
 90
       18
102
RTVSPost2010Prop41ColorRGB
 90
        0
102
RTVSPost2010PropOp41
 70
     1
102
RTVSPost2010Prop42
 90
       50
102
RTVSPost2010PropOp42
 70
     1
102
RTVSPost2010Prop43
 90
        3
102
RTVSPost2010PropOp43
 70
     1
102
RTVSPost2010Prop44ColorIndex
 90
        5
102
RTVSPost2010Prop44ColorRGB
 90
      255
102
RTVSPost2010PropOp44
 70
     1
102
RTVSPost2010Prop45
280
     0
102
RTVSPost2010PropOp45
 70
     1
102
RTVSPost2010Prop46
 90
       50
102
RTVSPost2010PropOp46
 70
     1
102
RTVSPost2010Prop47
 90
       50
102
RTVSPost2010PropOp47
 70
     1
102
RTVSPost2010Prop48
 90
       50
102
RTVSPost2010PropOp48
 70
     1
102
RTVSPost2010Prop49
280
     0
102
RTVSPost2010PropOp49
 70
     1
102
RTVSPost2010Prop50
 90
       50
102
RTVSPost2010PropOp50
 70
     1
102
RTVSPost2010Prop51ColorIndex
 90
      256
102
RTVSPost2010Prop51ColorRGB
 90
-16777216
102
RTVSPost2010PropOp51
 70
     0
102
RTVSPost2010Prop52
140
1.0
102
RTVSPost2010PropOp52
 70
     0
102
RTVSPost2010Prop53
 90
        2
102
RTVSPost2010PropOp53
 70
     1
102
RTVSPost2010Prop54
  1
strokes_ogs.tif
102
RTVSPost2010PropOp54
 70
     1
102
RTVSPost2010Prop55
280
     0
102
RTVSPost2010PropOp55
 70
     1
102
RTVSPost2010Prop56
140
1.0
102
RTVSPost2010PropOp56
 70
     1
102
RTVSPost2010Prop57
140
1.0
102
RTVSPost2010PropOp57
 70
     1
  0
XRECORD
  5
238
102
{ACAD_REACTORS
330
237
102
}
330
237
100
AcDbXrecord
280
     1
102
RTVSPropertyOp0
 70
     1
102
RTVSPropertyOp1
 70
     1
102
RTVSPropertyOp2
 70
     1
102
RTVSPropertyOp3
 70
     1
102
RTVSPropertyOp4
 70
     1
102
RTVSPropertyOp5
 70
     1
102
RTVSPropertyOp6
 70
     1
102
RTVSPropertyOp7
 70
     1
102
RTVSPropertyOp8
 70
     1
102
RTVSPropertyOp9
 70
     1
102
RTVSPropertyOp10
 70
     1
102
RTVSPropertyOp11
 70
     1
102
RTVSPropertyOp12
 70
     1
102
RTVSPropertyOp13
 70
     1
102
RTVSPropertyOp14
 70
     1
102
RTVSPropertyOp15
 70
     1
102
RTVSPropertyOp16
 70
     1
102
RTVSPropertyOp17
 70
     1
102
RTVSPropertyOp18
 70
     1
102
RTVSPropertyOp19
 70
     1
102
RTVSPropertyOp20
 70
     1
102
RTVSPropertyOp21
 70
     1
102
RTVSPropertyOp22
 70
     1
102
RTVSPropertyOp23
 70
     1
102
RTVSPropertyOp24
 70
     1
102
RTVSPropertyOp25
 70
     1
102
RTVSPropertyOp26
 70
     1
102
RTVSPropertyOp27
 70
     1
102
RTVSPropertyOp28
 70
     1
102
RTVSPropertyOp29
 70
     1
102
RTVSPropertyOp30
 70
     1
102
RTVSPropertyOp31
 70
     1
102
RTVSPropertyOp32
 70
     1
102
RTVSPropertyOp33
 70
     1
102
RTVSPropertyOp34
 70
     1
102
RTVSPropertyOp35
 70
     1
102
RTVSPropertyOp36
 70
     1
102
RTVSPropertyOp37
 70
     1
102
RTVSPropertyOp38
 70
     1
102
RTVSPropertyOp39
 70
     1
102
RTVSPropertyOp40
 70
     1
102
RTVSPropertyOp41
 70
     1
102
RTVSPropertyOp42
 70
     1
102
RTVSPropertyOp43
 70
     1
102
RTVSPropertyOp44
 70
     1
102
RTVSPropertyOp45
 70
     1
102
RTVSPropertyOp46
 70
     1
102
RTVSPropertyOp47
 70
     1
102
RTVSPropertyOp48
 70
     1
102
RTVSPropertyOp49
 70
     1
102
RTVSPropertyOp50
 70
     1
102
RTVSPropertyOp51
 70
     0
102
RTVSPropertyOp52
 70
     0
102
RTVSPropertyOp53
 70
     1
102
RTVSPropertyOp54
 70
     1
102
RTVSPropertyOp55
 70
     1
102
RTVSPropertyOp56
 70
     1
102
RTVSPropertyOp57
 70
     1
102
RTVSPost2010Prop28
280
     0
102
RTVSPost2010PropOp28
 70
     1
102
RTVSPost2010Prop29
280
     1
102
RTVSPost2010PropOp29
 70
     1
102
RTVSPost2010Prop30
280
     1
102
RTVSPost2010PropOp30
 70
     1
102
RTVSPost2010Prop31
280
     0
102
RTVSPost2010PropOp31
 70
     1
102
RTVSPost2010Prop32
280
     0
102
RTVSPost2010PropOp32
 70
     1
102
RTVSPost2010Prop33
280
     0
102
RTVSPost2010PropOp33
 70
     1
102
RTVSPost2010Prop34
280
     0
102
RTVSPost2010PropOp34
 70
     1
102
RTVSPost2010Prop35
280
     0
102
RTVSPost2010PropOp35
 70
     1
102
RTVSPost2010Prop36
280
     0
102
RTVSPost2010PropOp36
 70
     1
102
RTVSPost2010Prop37
 90
       50
102
RTVSPost2010PropOp37
 70
     1
102
RTVSPost2010Prop38
140
0.0
102
RTVSPost2010PropOp38
 70
     1
102
RTVSPost2010Prop39
140
1.0
102
RTVSPost2010PropOp39
 70
     1
102
RTVSPost2010Prop40
 90
        0
102
RTVSPost2010PropOp40
 70
     1
102
RTVSPost2010Prop41ColorIndex
 90
       18
102
RTVSPost2010Prop41ColorRGB
 90
        0
102
RTVSPost2010PropOp41
 70
     1
102
RTVSPost2010Prop42
 90
       50
102
RTVSPost2010PropOp42
 70
     1
102
RTVSPost2010Prop43
 90
        3
102
RTVSPost2010PropOp43
 70
     1
102
RTVSPost2010Prop44ColorIndex
 90
        5
102
RTVSPost2010Prop44ColorRGB
 90
      255
102
RTVSPost2010PropOp44
 70
     1
102
RTVSPost2010Prop45
280
     0
102
RTVSPost2010PropOp45
 70
     1
102
RTVSPost2010Prop46
 90
       50
102
RTVSPost2010PropOp46
 70
     1
102
RTVSPost2010Prop47
 90
       50
102
RTVSPost2010PropOp47
 70
     1
102
RTVSPost2010Prop48
 90
       50
102
RTVSPost2010PropOp48
 70
     1
102
RTVSPost2010Prop49
280
     0
102
RTVSPost2010PropOp49
 70
     1
102
RTVSPost2010Prop50
 90
       50
102
RTVSPost2010PropOp50
 70
     1
102
RTVSPost2010Prop51ColorIndex
 90
      256
102
RTVSPost2010Prop51ColorRGB
 90
-16777216
102
RTVSPost2010PropOp51
 70
     0
102
RTVSPost2010Prop52
140
1.0
102
RTVSPost2010PropOp52
 70
     0
102
RTVSPost2010Prop53
 90
        2
102
RTVSPost2010PropOp53
 70
     1
102
RTVSPost2010Prop54
  1
strokes_ogs.tif
102
RTVSPost2010PropOp54
 70
     1
102
RTVSPost2010Prop55
280
     0
102
RTVSPost2010PropOp55
 70
     1
102
RTVSPost2010Prop56
140
1.0
102
RTVSPost2010PropOp56
 70
     1
102
RTVSPost2010Prop57
140
1.0
102
RTVSPost2010PropOp57
 70
     1
  0
XRECORD
  5
22A
102
{ACAD_REACTORS
330
229
102
}
330
229
100
AcDbXrecord
280
     1
102
RTVSPropertyOp0
 70
     1
102
RTVSPropertyOp1
 70
     1
102
RTVSPropertyOp2
 70
     1
102
RTVSPropertyOp3
 70
     1
102
RTVSPropertyOp4
 70
     1
102
RTVSPropertyOp5
 70
     1
102
RTVSPropertyOp6
 70
     1
102
RTVSPropertyOp7
 70
     1
102
RTVSPropertyOp8
 70
     1
102
RTVSPropertyOp9
 70
     1
102
RTVSPropertyOp10
 70
     1
102
RTVSPropertyOp11
 70
     1
102
RTVSPropertyOp12
 70
     1
102
RTVSPropertyOp13
 70
     1
102
RTVSPropertyOp14
 70
     1
102
RTVSPropertyOp15
 70
     1
102
RTVSPropertyOp16
 70
     1
102
RTVSPropertyOp17
 70
     1
102
RTVSPropertyOp18
 70
     1
102
RTVSPropertyOp19
 70
     1
102
RTVSPropertyOp20
 70
     1
102
RTVSPropertyOp21
 70
     1
102
RTVSPropertyOp22
 70
     1
102
RTVSPropertyOp23
 70
     1
102
RTVSPropertyOp24
 70
     1
102
RTVSPropertyOp25
 70
     1
102
RTVSPropertyOp26
 70
     1
102
RTVSPropertyOp27
 70
     1
102
RTVSPropertyOp28
 70
     1
102
RTVSPropertyOp29
 70
     1
102
RTVSPropertyOp30
 70
     1
102
RTVSPropertyOp31
 70
     1
102
RTVSPropertyOp32
 70
     1
102
RTVSPropertyOp33
 70
     1
102
RTVSPropertyOp34
 70
     1
102
RTVSPropertyOp35
 70
     1
102
RTVSPropertyOp36
 70
     1
102
RTVSPropertyOp37
 70
     1
102
RTVSPropertyOp38
 70
     1
102
RTVSPropertyOp39
 70
     1
102
RTVSPropertyOp40
 70
     1
102
RTVSPropertyOp41
 70
     1
102
RTVSPropertyOp42
 70
     1
102
RTVSPropertyOp43
 70
     1
102
RTVSPropertyOp44
 70
     1
102
RTVSPropertyOp45
 70
     1
102
RTVSPropertyOp46
 70
     1
102
RTVSPropertyOp47
 70
     1
102
RTVSPropertyOp48
 70
     1
102
RTVSPropertyOp49
 70
     1
102
RTVSPropertyOp50
 70
     1
102
RTVSPropertyOp51
 70
     0
102
RTVSPropertyOp52
 70
     0
102
RTVSPropertyOp53
 70
     1
102
RTVSPropertyOp54
 70
     1
102
RTVSPropertyOp55
 70
     1
102
RTVSPropertyOp56
 70
     1
102
RTVSPropertyOp57
 70
     1
102
RTVSPost2010Prop28
280
     0
102
RTVSPost2010PropOp28
 70
     1
102
RTVSPost2010Prop29
280
     1
102
RTVSPost2010PropOp29
 70
     1
102
RTVSPost2010Prop30
280
     1
102
RTVSPost2010PropOp30
 70
     1
102
RTVSPost2010Prop31
280
     0
102
RTVSPost2010PropOp31
 70
     1
102
RTVSPost2010Prop32
280
     0
102
RTVSPost2010PropOp32
 70
     1
102
RTVSPost2010Prop33
280
     0
102
RTVSPost2010PropOp33
 70
     1
102
RTVSPost2010Prop34
280
     0
102
RTVSPost2010PropOp34
 70
     1
102
RTVSPost2010Prop35
280
     0
102
RTVSPost2010PropOp35
 70
     1
102
RTVSPost2010Prop36
280
     0
102
RTVSPost2010PropOp36
 70
     1
102
RTVSPost2010Prop37
 90
       50
102
RTVSPost2010PropOp37
 70
     1
102
RTVSPost2010Prop38
140
0.0
102
RTVSPost2010PropOp38
 70
     1
102
RTVSPost2010Prop39
140
1.0
102
RTVSPost2010PropOp39
 70
     1
102
RTVSPost2010Prop40
 90
        0
102
RTVSPost2010PropOp40
 70
     1
102
RTVSPost2010Prop41ColorIndex
 90
       18
102
RTVSPost2010Prop41ColorRGB
 90
        0
102
RTVSPost2010PropOp41
 70
     1
102
RTVSPost2010Prop42
 90
       50
102
RTVSPost2010PropOp42
 70
     1
102
RTVSPost2010Prop43
 90
        3
102
RTVSPost2010PropOp43
 70
     1
102
RTVSPost2010Prop44ColorIndex
 90
        5
102
RTVSPost2010Prop44ColorRGB
 90
      255
102
RTVSPost2010PropOp44
 70
     1
102
RTVSPost2010Prop45
280
     0
102
RTVSPost2010PropOp45
 70
     1
102
RTVSPost2010Prop46
 90
       50
102
RTVSPost2010PropOp46
 70
     1
102
RTVSPost2010Prop47
 90
       50
102
RTVSPost2010PropOp47
 70
     1
102
RTVSPost2010Prop48
 90
       50
102
RTVSPost2010PropOp48
 70
     1
102
RTVSPost2010Prop49
280
     0
102
RTVSPost2010PropOp49
 70
     1
102
RTVSPost2010Prop50
 90
       50
102
RTVSPost2010PropOp50
 70
     1
102
RTVSPost2010Prop51ColorIndex
 90
      256
102
RTVSPost2010Prop51ColorRGB
 90
-16777216
102
RTVSPost2010PropOp51
 70
     0
102
RTVSPost2010Prop52
140
1.0
102
RTVSPost2010PropOp52
 70
     0
102
RTVSPost2010Prop53
 90
        2
102
RTVSPost2010PropOp53
 70
     1
102
RTVSPost2010Prop54
  1
strokes_ogs.tif
102
RTVSPost2010PropOp54
 70
     1
102
RTVSPost2010Prop55
280
     0
102
RTVSPost2010PropOp55
 70
     1
102
RTVSPost2010Prop56
140
1.0
102
RTVSPost2010PropOp56
 70
     1
102
RTVSPost2010Prop57
140
1.0
102
RTVSPost2010PropOp57
 70
     1
  0
XRECORD
  5
24A
102
{ACAD_REACTORS
330
249
102
}
330
249
100
AcDbXrecord
280
     1
102
RTVSPropertyOp0
 70
     1
102
RTVSPropertyOp1
 70
     1
102
RTVSPropertyOp2
 70
     1
102
RTVSPropertyOp3
 70
     1
102
RTVSPropertyOp4
 70
     1
102
RTVSPropertyOp5
 70
     1
102
RTVSPropertyOp6
 70
     1
102
RTVSPropertyOp7
 70
     1
102
RTVSPropertyOp8
 70
     1
102
RTVSPropertyOp9
 70
     1
102
RTVSPropertyOp10
 70
     1
102
RTVSPropertyOp11
 70
     1
102
RTVSPropertyOp12
 70
     1
102
RTVSPropertyOp13
 70
     1
102
RTVSPropertyOp14
 70
     1
102
RTVSPropertyOp15
 70
     1
102
RTVSPropertyOp16
 70
     1
102
RTVSPropertyOp17
 70
     1
102
RTVSPropertyOp18
 70
     1
102
RTVSPropertyOp19
 70
     1
102
RTVSPropertyOp20
 70
     1
102
RTVSPropertyOp21
 70
     1
102
RTVSPropertyOp22
 70
     1
102
RTVSPropertyOp23
 70
     1
102
RTVSPropertyOp24
 70
     1
102
RTVSPropertyOp25
 70
     1
102
RTVSPropertyOp26
 70
     1
102
RTVSPropertyOp27
 70
     1
102
RTVSPropertyOp28
 70
     1
102
RTVSPropertyOp29
 70
     1
102
RTVSPropertyOp30
 70
     1
102
RTVSPropertyOp31
 70
     1
102
RTVSPropertyOp32
 70
     1
102
RTVSPropertyOp33
 70
     1
102
RTVSPropertyOp34
 70
     1
102
RTVSPropertyOp35
 70
     1
102
RTVSPropertyOp36
 70
     1
102
RTVSPropertyOp37
 70
     1
102
RTVSPropertyOp38
 70
     1
102
RTVSPropertyOp39
 70
     1
102
RTVSPropertyOp40
 70
     1
102
RTVSPropertyOp41
 70
     1
102
RTVSPropertyOp42
 70
     1
102
RTVSPropertyOp43
 70
     1
102
RTVSPropertyOp44
 70
     1
102
RTVSPropertyOp45
 70
     1
102
RTVSPropertyOp46
 70
     1
102
RTVSPropertyOp47
 70
     1
102
RTVSPropertyOp48
 70
     1
102
RTVSPropertyOp49
 70
     1
102
RTVSPropertyOp50
 70
     1
102
RTVSPropertyOp51
 70
     0
102
RTVSPropertyOp52
 70
     0
102
RTVSPropertyOp53
 70
     1
102
RTVSPropertyOp54
 70
     1
102
RTVSPropertyOp55
 70
     1
102
RTVSPropertyOp56
 70
     1
102
RTVSPropertyOp57
 70
     1
102
RTVSPost2010Prop28
280
     0
102
RTVSPost2010PropOp28
 70
     1
102
RTVSPost2010Prop29
280
     1
102
RTVSPost2010PropOp29
 70
     1
102
RTVSPost2010Prop30
280
     1
102
RTVSPost2010PropOp30
 70
     1
102
RTVSPost2010Prop31
280
     0
102
RTVSPost2010PropOp31
 70
     1
102
RTVSPost2010Prop32
280
     0
102
RTVSPost2010PropOp32
 70
     1
102
RTVSPost2010Prop33
280
     0
102
RTVSPost2010PropOp33
 70
     1
102
RTVSPost2010Prop34
280
     0
102
RTVSPost2010PropOp34
 70
     1
102
RTVSPost2010Prop35
280
     0
102
RTVSPost2010PropOp35
 70
     1
102
RTVSPost2010Prop36
280
     0
102
RTVSPost2010PropOp36
 70
     1
102
RTVSPost2010Prop37
 90
       50
102
RTVSPost2010PropOp37
 70
     1
102
RTVSPost2010Prop38
140
0.0
102
RTVSPost2010PropOp38
 70
     1
102
RTVSPost2010Prop39
140
1.0
102
RTVSPost2010PropOp39
 70
     1
102
RTVSPost2010Prop40
 90
        0
102
RTVSPost2010PropOp40
 70
     1
102
RTVSPost2010Prop41ColorIndex
 90
       18
102
RTVSPost2010Prop41ColorRGB
 90
        0
102
RTVSPost2010PropOp41
 70
     1
102
RTVSPost2010Prop42
 90
       50
102
RTVSPost2010PropOp42
 70
     1
102
RTVSPost2010Prop43
 90
        3
102
RTVSPost2010PropOp43
 70
     1
102
RTVSPost2010Prop44ColorIndex
 90
        5
102
RTVSPost2010Prop44ColorRGB
 90
      255
102
RTVSPost2010PropOp44
 70
     1
102
RTVSPost2010Prop45
280
     0
102
RTVSPost2010PropOp45
 70
     1
102
RTVSPost2010Prop46
 90
       50
102
RTVSPost2010PropOp46
 70
     1
102
RTVSPost2010Prop47
 90
       50
102
RTVSPost2010PropOp47
 70
     1
102
RTVSPost2010Prop48
 90
       50
102
RTVSPost2010PropOp48
 70
     1
102
RTVSPost2010Prop49
280
     0
102
RTVSPost2010PropOp49
 70
     1
102
RTVSPost2010Prop50
 90
       50
102
RTVSPost2010PropOp50
 70
     1
102
RTVSPost2010Prop51ColorIndex
 90
      256
102
RTVSPost2010Prop51ColorRGB
 90
-16777216
102
RTVSPost2010PropOp51
 70
     0
102
RTVSPost2010Prop52
140
1.0
102
RTVSPost2010PropOp52
 70
     0
102
RTVSPost2010Prop53
 90
        2
102
RTVSPost2010PropOp53
 70
     1
102
RTVSPost2010Prop54
  1
strokes_ogs.tif
102
RTVSPost2010PropOp54
 70
     1
102
RTVSPost2010Prop55
280
     0
102
RTVSPost2010PropOp55
 70
     1
102
RTVSPost2010Prop56
140
1.0
102
RTVSPost2010PropOp56
 70
     1
102
RTVSPost2010Prop57
140
1.0
102
RTVSPost2010PropOp57
 70
     1
  0
ENDSEC
  0
EOF
