  0
SECTION
  2
HEADER
  9
$ACADVER
  1
AC1015
  9
$ACADMAINTVER
 70
     6
  9
$DWGCODEPAGE
  3
ANSI_1252
  9
$INSBASE
 10
0.0
 20
0.0
 30
0.0
  9
$EXTMIN
 10
-167.733734
 20
-232.283447
 30
0.0
  9
$EXTMAX
 10
460.336914
 20
233.383423
 30
0.0
  9
$LIMMIN
 10
-167.733734
 20
-232.283447
  9
$LIMMAX
 10
460.336914
 20
233.383423
  9
$ORTHOMODE
 70
     0
  9
$REGENMODE
 70
     1
  9
$FILLMODE
 70
     1
  9
$QTEXTMODE
 70
     0
  9
$MIRRTEXT
 70
     1
  9
$LTSCALE
 40
1.0
  9
$ATTMODE
 70
     1
  9
$TEXTSIZE
 40
2.5
  9
$TRACEWID
 40
1.0
  9
$TEXTSTYLE
  7
Standard
  9
$CLAYER
  8
0
  9
$CELTYPE
  6
ByLayer
  9
$CECOLOR
 62
   256
  9
$CELTSCALE
 40
1.0
  9
$DISPSILH
 70
     0
  9
$DIMSCALE
 40
1.0
  9
$DIMASZ
 40
2.5
  9
$DIMEXO
 40
0.625
  9
$DIMDLI
 40
3.75
  9
$DIMRND
 40
0.0
  9
$DIMDLE
 40
0.0
  9
$DIMEXE
 40
1.25
  9
$DIMTP
 40
0.0
  9
$DIMTM
 40
0.0
  9
$DIMTXT
 40
2.5
  9
$DIMCEN
 40
2.5
  9
$DIMTSZ
 40
0.0
  9
$DIMTOL
 70
     0
  9
$DIMLIM
 70
     0
  9
$DIMTIH
 70
     0
  9
$DIMTOH
 70
     0
  9
$DIMSE1
 70
     0
  9
$DIMSE2
 70
     0
  9
$DIMTAD
 70
     1
  9
$DIMZIN
 70
     8
  9
$DIMBLK
  1

  9
$DIMASO
 70
     1
  9
$DIMSHO
 70
     1
  9
$DIMPOST
  1

  9
$DIMAPOST
  1

  9
$DIMALT
 70
     0
  9
$DIMALTD
 70
     3
  9
$DIMALTF
 40
0.03937
  9
$DIMLFAC
 40
1.0
  9
$DIMTOFL
 70
     1
  9
$DIMTVP
 40
0.0
  9
$DIMTIX
 70
     0
  9
$DIMSOXD
 70
     0
  9
$DIMSAH
 70
     0
  9
$DIMBLK1
  1

  9
$DIMBLK2
  1

  9
$DIMSTYLE
  2
ISO-25
  9
$DIMCLRD
 70
     0
  9
$DIMCLRE
 70
     0
  9
$DIMCLRT
 70
     0
  9
$DIMTFAC
 40
1.0
  9
$DIMGAP
 40
0.625
  9
$DIMJUST
 70
     0
  9
$DIMSD1
 70
     0
  9
$DIMSD2
 70
     0
  9
$DIMTOLJ
 70
     0
  9
$DIMTZIN
 70
     8
  9
$DIMALTZ
 70
     0
  9
$DIMALTTZ
 70
     0
  9
$DIMUPT
 70
     0
  9
$DIMDEC
 70
     2
  9
$DIMTDEC
 70
     2
  9
$DIMALTU
 70
     2
  9
$DIMALTTD
 70
     3
  9
$DIMTXSTY
  7
Standard
  9
$DIMAUNIT
 70
     0
  9
$DIMADEC
 70
     0
  9
$DIMALTRND
 40
0.0
  9
$DIMAZIN
 70
     0
  9
$DIMDSEP
 70
    44
  9
$DIMATFIT
 70
     3
  9
$DIMFRAC
 70
     0
  9
$DIMLDRBLK
  1

  9
$DIMLUNIT
 70
     2
  9
$DIMLWD
 70
    -2
  9
$DIMLWE
 70
    -2
  9
$DIMTMOVE
 70
     0
  9
$LUNITS
 70
     2
  9
$LUPREC
 70
     4
  9
$SKETCHINC
 40
1.0
  9
$FILLETRAD
 40
10.0
  9
$AUNITS
 70
     0
  9
$AUPREC
 70
     0
  9
$MENU
  1
.
  9
$ELEVATION
 40
0.0
  9
$PELEVATION
 40
0.0
  9
$THICKNESS
 40
0.0
  9
$LIMCHECK
 70
     0
  9
$CHAMFERA
 40
0.0
  9
$CHAMFERB
 40
0.0
  9
$CHAMFERC
 40
0.0
  9
$CHAMFERD
 40
0.0
  9
$SKPOLY
 70
     0
  9
$TDCREATE
 40
2459549.447035914
  9
$TDUCREATE
 40
2459549.405369248
  9
$TDUPDATE
 40
2459549.447036806
  9
$TDUUPDATE
 40
2459549.405370139
  9
$TDINDWG
 40
0.0000000116
  9
$TDUSRTIMER
 40
0.0000000116
  9
$USRTIMER
 70
     1
  9
$ANGBASE
 50
0.0
  9
$ANGDIR
 70
     0
  9
$PDMODE
 70
     0
  9
$PDSIZE
 40
0.0
  9
$PLINEWID
 40
0.0
  9
$SPLFRAME
 70
     0
  9
$SPLINETYPE
 70
     6
  9
$SPLINESEGS
 70
     8
  9
$HANDSEED
  5
1F1
  9
$SURFTAB1
 70
     6
  9
$SURFTAB2
 70
     6
  9
$SURFTYPE
 70
     6
  9
$SURFU
 70
     6
  9
$SURFV
 70
     6
  9
$UCSBASE
  2

  9
$UCSNAME
  2

  9
$UCSORG
 10
0.0
 20
0.0
 30
0.0
  9
$UCSXDIR
 10
1.0
 20
0.0
 30
0.0
  9
$UCSYDIR
 10
0.0
 20
1.0
 30
0.0
  9
$UCSORTHOREF
  2

  9
$UCSORTHOVIEW
 70
     0
  9
$UCSORGTOP
 10
0.0
 20
0.0
 30
0.0
  9
$UCSORGBOTTOM
 10
0.0
 20
0.0
 30
0.0
  9
$UCSORGLEFT
 10
0.0
 20
0.0
 30
0.0
  9
$UCSORGRIGHT
 10
0.0
 20
0.0
 30
0.0
  9
$UCSORGFRONT
 10
0.0
 20
0.0
 30
0.0
  9
$UCSORGBACK
 10
0.0
 20
0.0
 30
0.0
  9
$PUCSBASE
  2

  9
$PUCSNAME
  2

  9
$PUCSORG
 10
0.0
 20
0.0
 30
0.0
  9
$PUCSXDIR
 10
1.0
 20
0.0
 30
0.0
  9
$PUCSYDIR
 10
0.0
 20
1.0
 30
0.0
  9
$PUCSORTHOREF
  2

  9
$PUCSORTHOVIEW
 70
     0
  9
$PUCSORGTOP
 10
0.0
 20
0.0
 30
0.0
  9
$PUCSORGBOTTOM
 10
0.0
 20
0.0
 30
0.0
  9
$PUCSORGLEFT
 10
0.0
 20
0.0
 30
0.0
  9
$PUCSORGRIGHT
 10
0.0
 20
0.0
 30
0.0
  9
$PUCSORGFRONT
 10
0.0
 20
0.0
 30
0.0
  9
$PUCSORGBACK
 10
0.0
 20
0.0
 30
0.0
  9
$USERI1
 70
     0
  9
$USERI2
 70
     0
  9
$USERI3
 70
     0
  9
$USERI4
 70
     0
  9
$USERI5
 70
     0
  9
$USERR1
 40
0.0
  9
$USERR2
 40
0.0
  9
$USERR3
 40
0.0
  9
$USERR4
 40
0.0
  9
$USERR5
 40
0.0
  9
$WORLDVIEW
 70
     1
  9
$SHADEDGE
 70
     3
  9
$SHADEDIF
 70
    70
  9
$TILEMODE
 70
     1
  9
$MAXACTVP
 70
    64
  9
$PINSBASE
 10
0.0
 20
0.0
 30
0.0
  9
$PLIMCHECK
 70
     0
  9
$PEXTMIN
 10
1.000000E+20
 20
1.000000E+20
 30
1.000000E+20
  9
$PEXTMAX
 10
-1.000000E+20
 20
-1.000000E+20
 30
-1.000000E+20
  9
$PLIMMIN
 10
0.0
 20
0.0
  9
$PLIMMAX
 10
420.0
 20
297.0
  9
$UNITMODE
 70
     0
  9
$VISRETAIN
 70
     1
  9
$PLINEGEN
 70
     0
  9
$PSLTSCALE
 70
     1
  9
$TREEDEPTH
 70
  3020
  9
$CMLSTYLE
  2
Standard
  9
$CMLJUST
 70
     0
  9
$CMLSCALE
 40
20.0
  9
$PROXYGRAPHICS
 70
     1
  9
$MEASUREMENT
 70
     1
  9
$CELWEIGHT
370
    -1
  9
$ENDCAPS
280
     0
  9
$JOINSTYLE
280
     0
  9
$LWDISPLAY
290
     0
  9
$INSUNITS
 70
     4
  9
$HYPERLINKBASE
  1

  9
$STYLESHEET
  1

  9
$XEDIT
290
     1
  9
$CEPSNTYPE
380
     0
  9
$PSTYLEMODE
290
     1
  9
$FINGERPRINTGUID
  2
{714bd0d8-6e6f-4c32-b693-91fb0eaf7c1c}
  9
$VERSIONGUID
  2
{FAEB1C32-E019-11D5-929B-00C0DF256EC4}
  9
$EXTNAMES
290
     1
  9
$PSVPSCALE
 40
0.0
  9
$OLESTARTUP
290
     0
  0
ENDSEC
  0
SECTION
  2
CLASSES
  0
CLASS
  1
ACDBDICTIONARYWDFLT
  2
AcDbDictionaryWithDefault
  3
ObjectDBX Classes
 90
        0
280
     0
281
     0
  0
CLASS
  1
VISUALSTYLE
  2
AcDbVisualStyle
  3
ObjectDBX Classes
 90
     4095
280
     0
281
     0
  0
CLASS
  1
MATERIAL
  2
AcDbMaterial
  3
ObjectDBX Classes
 90
     1153
280
     0
281
     0
  0
CLASS
  1
SCALE
  2
AcDbScale
  3
ObjectDBX Classes
 90
     1153
280
     0
281
     0
  0
CLASS
  1
TABLESTYLE
  2
AcDbTableStyle
  3
ObjectDBX Classes
 90
     4095
280
     0
281
     0
  0
CLASS
  1
MLEADERSTYLE
  2
AcDbMLeaderStyle
  3
ACDB_MLEADERSTYLE_CLASS
 90
     4095
280
     0
281
     0
  0
CLASS
  1
SUN
  2
AcDbSun
  3
SCENEOE
 90
     1153
280
     0
281
     0
  0
CLASS
  1
DICTIONARYVAR
  2
AcDbDictionaryVar
  3
ObjectDBX Classes
 90
        0
280
     0
281
     0
  0
CLASS
  1
ACDBPLACEHOLDER
  2
AcDbPlaceHolder
  3
ObjectDBX Classes
 90
        0
280
     0
281
     0
  0
CLASS
  1
LAYOUT
  2
AcDbLayout
  3
ObjectDBX Classes
 90
        0
280
     0
281
     0
  0
ENDSEC
  0
SECTION
  2
TABLES
  0
TABLE
  2
VPORT
  5
8
102
{ACAD_XDICTIONARY
360
1B4
102
}
330
0
100
AcDbSymbolTable
 70
     1
  0
VPORT
  5
29
330
8
100
AcDbSymbolTableRecord
100
AcDbViewportTableRecord
  2
*Active
 70
     0
 10
0.0
 20
0.0
 11
1.0
 21
1.0
 12
344.186916
 22
148.5
 13
0.0
 23
0.0
 14
10.0
 24
10.0
 15
10.0
 25
10.0
 16
0.0
 26
0.0
 36
1.0
 17
0.0
 27
0.0
 37
0.0
 40
297.0
 41
1.972973
 42
50.0
 43
0.0
 44
0.0
 50
0.0
 51
0.0
 71
     0
 72
   100
 73
     1
 74
     3
 75
     0
 76
     0
 77
     0
 78
     0
281
     0
 65
     1
110
0.0
120
0.0
130
0.0
111
1.0
121
0.0
131
0.0
112
0.0
122
1.0
132
0.0
 79
     0
146
0.0
  0
ENDTAB
  0
TABLE
  2
LTYPE
  5
5
330
0
100
AcDbSymbolTable
 70
     1
  0
LTYPE
  5
14
330
5
100
AcDbSymbolTableRecord
100
AcDbLinetypeTableRecord
  2
ByBlock
 70
     0
  3

 72
    65
 73
     0
 40
0.0
  0
LTYPE
  5
15
330
5
100
AcDbSymbolTableRecord
100
AcDbLinetypeTableRecord
  2
ByLayer
 70
     0
  3

 72
    65
 73
     0
 40
0.0
  0
LTYPE
  5
16
330
5
100
AcDbSymbolTableRecord
100
AcDbLinetypeTableRecord
  2
Continuous
 70
     0
  3
Solid line
 72
    65
 73
     0
 40
0.0
  0
ENDTAB
  0
TABLE
  2
LAYER
  5
2
330
0
100
AcDbSymbolTable
 70
     1
  0
LAYER
  5
10
330
2
100
AcDbSymbolTableRecord
100
AcDbLayerTableRecord
  2
0
 70
     0
 62
   106
  6
Continuous
370
     0
390
F
  0
ENDTAB
  0
TABLE
  2
STYLE
  5
3
330
0
100
AcDbSymbolTable
 70
     4
  0
STYLE
  5
11
330
3
100
AcDbSymbolTableRecord
100
AcDbTextStyleTableRecord
  2
Standard
 70
     0
 40
0.0
 41
1.0
 50
0.0
 71
     0
 42
2.5
  3
txt
  4

  0
STYLE
  5
6E
330
3
100
AcDbSymbolTableRecord
100
AcDbTextStyleTableRecord
  2
Default
 70
     0
 40
0.0
 41
1.0
 50
0.0
 71
     0
 42
2.5
  3

  4

1001
ACAD
1000
txt
1071
        0
  0
STYLE
  5
6F
330
3
100
AcDbSymbolTableRecord
100
AcDbTextStyleTableRecord
  2
ISO
 70
     0
 40
0.0
 41
1.0
 50
0.0
 71
     0
 42
2.5
  3

  4

1001
ACAD
1000
txt
1071
        0
  0
STYLE
  5
70
330
3
100
AcDbSymbolTableRecord
100
AcDbTextStyleTableRecord
  2
zucchetti
 70
     0
 40
0.0
 41
1.0
 50
0.0
 71
     0
 42
2.5
  3

  4

1001
ACAD
1000
Arial
1071
        0
  0
ENDTAB
  0
TABLE
  2
VIEW
  5
6
330
0
100
AcDbSymbolTable
 70
     0
  0
ENDTAB
  0
TABLE
  2
UCS
  5
7
330
0
100
AcDbSymbolTable
 70
     0
  0
ENDTAB
  0
TABLE
  2
APPID
  5
9
330
0
100
AcDbSymbolTable
 70
     2
  0
APPID
  5
12
330
9
100
AcDbSymbolTableRecord
100
AcDbRegAppTableRecord
  2
ACAD
 70
     0
  0
APPID
  5
1EE
330
9
100
AcDbSymbolTableRecord
100
AcDbRegAppTableRecord
  2
ACAD_MLEADERVER
 70
     0
  0
ENDTAB
  0
TABLE
  2
DIMSTYLE
  5
A
330
0
100
AcDbSymbolTable
 70
     4
100
AcDbDimStyleTable
  0
DIMSTYLE
105
27
330
A
100
AcDbSymbolTableRecord
100
AcDbDimStyleTableRecord
  2
ISO-25
 70
     0
 41
2.5
 42
0.625
 43
3.75
 44
1.25
 73
     0
 74
     0
 77
     1
 78
     8
140
2.5
141
2.5
143
0.03937
147
0.625
171
     3
172
     1
178
     0
271
     2
272
     2
274
     3
278
    44
283
     0
284
     8
340
11
  0
DIMSTYLE
105
71
330
A
100
AcDbSymbolTableRecord
100
AcDbDimStyleTableRecord
  2
Default
 70
     0
  3
<>
 41
4.375
 42
1.05
 44
2.1
 73
     0
 74
     0
 77
     1
 78
     8
140
3.5
146
0.4
147
1.75
172
     1
271
     2
178
     3
271
     2
272
     3
284
     8
340
6E
341
72
342
72
  0
DIMSTYLE
105
79
330
A
100
AcDbSymbolTableRecord
100
AcDbDimStyleTableRecord
  2
ISO
 70
     0
  3
<>
 41
4.375
 42
1.05
 44
2.1
 73
     0
 74
     0
 77
     1
 78
     8
140
3.5
146
0.4
147
1.75
172
     1
271
     2
178
     3
271
     2
272
     3
284
     8
340
6F
341
72
342
72
  0
DIMSTYLE
105
7A
330
A
100
AcDbSymbolTableRecord
100
AcDbDimStyleTableRecord
  2
zucchetti
 70
     0
  3
<>
 41
3.0
 42
0.9
 44
1.8
 73
     0
 74
     0
 77
     1
 78
     8
140
3.0
146
0.6
147
1.5
172
     1
176
     3
177
     3
271
     2
178
     3
271
     2
272
     2
284
     8
340
70
  0
ENDTAB
  0
TABLE
  2
BLOCK_RECORD
  5
1
330
0
100
AcDbSymbolTable
 70
     7
  0
BLOCK_RECORD
  5
1F
330
1
100
AcDbSymbolTableRecord
100
AcDbBlockTableRecord
  2
*Model_Space
340
22
  0
BLOCK_RECORD
  5
1B
330
1
100
AcDbSymbolTableRecord
100
AcDbBlockTableRecord
  2
*Paper_Space
340
1E
  0
BLOCK_RECORD
  5
23
330
1
100
AcDbSymbolTableRecord
100
AcDbBlockTableRecord
  2
*Paper_Space0
340
26
  0
BLOCK_RECORD
  5
72
330
1
100
AcDbSymbolTableRecord
100
AcDbBlockTableRecord
  2
_Closed
340
0
  0
BLOCK_RECORD
  5
7B
330
1
100
AcDbSymbolTableRecord
100
AcDbBlockTableRecord
  2
a
340
0
102
{BLKREFS
331
B0
102
}
  0
BLOCK_RECORD
  5
B1
330
1
100
AcDbSymbolTableRecord
100
AcDbBlockTableRecord
  2
b
340
0
102
{BLKREFS
331
EB
102
}
  0
BLOCK_RECORD
  5
EC
330
1
100
AcDbSymbolTableRecord
100
AcDbBlockTableRecord
  2
c
340
0
102
{BLKREFS
331
129
102
}
  0
BLOCK_RECORD
  5
12A
330
1
100
AcDbSymbolTableRecord
100
AcDbBlockTableRecord
  2
d
340
0
102
{BLKREFS
331
163
102
}
  0
BLOCK_RECORD
  5
164
330
1
100
AcDbSymbolTableRecord
100
AcDbBlockTableRecord
  2
e
340
0
102
{BLKREFS
331
1A8
102
}
  0
ENDTAB
  0
ENDSEC
  0
SECTION
  2
BLOCKS
  0
BLOCK
  5
20
330
1F
100
AcDbEntity
  8
0
100
AcDbBlockBegin
  2
*Model_Space
 70
     0
 10
0.0
 20
0.0
 30
0.0
  3
*Model_Space
  1

  0
ENDBLK
  5
21
330
1F
100
AcDbEntity
  8
0
100
AcDbBlockEnd
  0
BLOCK
  5
1C
330
1B
100
AcDbEntity
 67
     1
  8
0
100
AcDbBlockBegin
  2
*Paper_Space
 70
     0
 10
0.0
 20
0.0
 30
0.0
  3
*Paper_Space
  1

  0
ENDBLK
  5
1D
330
1B
100
AcDbEntity
 67
     1
  8
0
100
AcDbBlockEnd
  0
BLOCK
  5
24
330
23
100
AcDbEntity
  8
0
100
AcDbBlockBegin
  2
*Paper_Space0
 70
     0
 10
0.0
 20
0.0
 30
0.0
  3
*Paper_Space0
  1

  0
ENDBLK
  5
25
330
23
100
AcDbEntity
  8
0
100
AcDbBlockEnd
  0
BLOCK
  5
73
330
72
100
AcDbEntity
  8
0
100
AcDbBlockBegin
  2
_Closed
 70
     0
 10
0.0
 20
0.0
 30
0.0
  3
_Closed
  1

  0
LINE
  5
75
330
72
100
AcDbEntity
  8
0
  6
ByBlock
 62
     0
370
    -2
100
AcDbLine
 10
-1.0
 20
0.166667
 30
0.0
 11
0.0
 21
0.0
 31
0.0
  0
LINE
  5
76
330
72
100
AcDbEntity
  8
0
  6
ByBlock
 62
     0
370
    -2
100
AcDbLine
 10
0.0
 20
0.0
 30
0.0
 11
-1.0
 21
-0.166667
 31
0.0
  0
LINE
  5
77
330
72
100
AcDbEntity
  8
0
  6
ByBlock
 62
     0
370
    -2
100
AcDbLine
 10
-1.0
 20
0.166667
 30
0.0
 11
-1.0
 21
-0.166667
 31
0.0
  0
LINE
  5
78
330
72
100
AcDbEntity
  8
0
  6
ByBlock
 62
     0
370
    -2
100
AcDbLine
 10
0.0
 20
0.0
 30
0.0
 11
-1.0
 21
0.0
 31
0.0
  0
ENDBLK
  5
74
330
72
100
AcDbEntity
  8
0
100
AcDbBlockEnd
  0
BLOCK
  5
AE
330
7B
100
AcDbEntity
  8
0
100
AcDbBlockBegin
  2
a
 70
     0
 10
41.043442
 20
49.780304
 30
0.0
  3
a
  1

  0
ARC
  5
7C
330
7B
100
AcDbEntity
  8
0
  6
Continuous
 62
     0
370
    30
100
AcDbCircle
 10
134.646561
 20
143.383419
 30
0.0
 40
22.10000004088621
100
AcDbArc
 50
345.383985
 51
90.0
  0
ARC
  5
7D
330
7B
100
AcDbEntity
  8
0
  6
Continuous
 62
     0
370
    30
100
AcDbCircle
 10
134.646561
 20
143.383419
 30
0.0
 40
22.10000004088621
100
AcDbArc
 50
90.0
 51
194.616584
  0
CIRCLE
  5
7E
330
7B
100
AcDbEntity
  8
0
  6
Continuous
 62
     0
370
     0
100
AcDbCircle
 10
134.646561
 20
143.383419
 30
0.0
 40
89.0
  0
CIRCLE
  5
7F
330
7B
100
AcDbEntity
  8
0
  6
Continuous
 62
     0
370
    30
100
AcDbCircle
 10
134.646561
 20
143.383419
 30
0.0
 40
90.0
  0
ARC
  5
80
330
7B
100
AcDbEntity
  8
0
  6
Continuous
 62
     0
370
    30
100
AcDbCircle
 10
134.646345
 20
143.38319
 30
0.0
 40
21.99393697203808
100
AcDbArc
 50
359.573392
 51
89.999398
  0
ARC
  5
81
330
7B
100
AcDbEntity
  8
0
  6
Continuous
 62
     0
370
    30
100
AcDbCircle
 10
134.646807
 20
143.38319
 30
0.0
 40
21.99393697203798
100
AcDbArc
 50
90.000603
 51
180.426609
  0
LINE
  5
82
330
7B
100
AcDbEntity
  8
0
  6
Continuous
 62
     0
370
     0
100
AcDbLine
 10
156.317286
 20
139.627254
 30
0.0
 11
156.247094
 21
139.627319
 31
0.0
  0
LINE
  5
83
330
7B
100
AcDbEntity
  8
0
  6
Continuous
 62
     0
370
     0
100
AcDbLine
 10
156.247094
 20
139.627319
 30
0.0
 11
156.223197
 21
139.435992
 31
0.0
  0
SPLINE
  5
84
330
7B
100
AcDbEntity
  8
0
  6
Continuous
 62
     0
370
     0
100
AcDbSpline
210
0.0
220
0.0
230
1.0
 70
     8
 71
     3
 72
     8
 73
     4
 74
     0
 42
0.000000001
 43
0.0
 40
0.0
 40
0.0
 40
0.0
 40
0.0
 40
3.675194520389784
 40
3.675194520389784
 40
3.675194520389784
 40
3.675194520389784
 10
156.234102584059
 20
139.6272755839756
 30
0.0
 10
156.3691662949534
 20
140.8246875320598
 30
0.0
 10
156.6299437353725
 20
142.014698770168
 30
0.0
 10
156.6396289742053
 20
143.2194307865134
 30
0.0
  0
LINE
  5
85
330
7B
100
AcDbEntity
  8
0
  6
Continuous
 62
     0
370
     0
100
AcDbLine
 10
112.975866
 20
139.627254
 30
0.0
 11
113.046058
 21
139.627319
 31
0.0
  0
LINE
  5
86
330
7B
100
AcDbEntity
  8
0
  6
Continuous
 62
     0
370
     0
100
AcDbLine
 10
113.046058
 20
139.627319
 30
0.0
 11
113.069955
 21
139.435991
 31
0.0
  0
LINE
  5
87
330
7B
100
AcDbEntity
  8
0
  6
Continuous
 62
     0
370
     0
100
AcDbLine
 10
156.23411
 20
139.627275
 30
0.0
 11
153.775583
 21
117.852084
 31
0.0
  0
LINE
  5
88
330
7B
100
AcDbEntity
  8
0
  6
Continuous
 62
     0
370
     0
100
AcDbLine
 10
153.775583
 20
117.852084
 30
0.0
 11
150.301911
 21
87.077668
 31
0.0
  0
LINE
  5
89
330
7B
100
AcDbEntity
  8
0
  6
Continuous
 62
     0
370
     0
100
AcDbLine
 10
134.646564
 20
70.776907
 30
0.0
 11
134.646569
 21
70.702277
 31
0.0
  0
SPLINE
  5
8A
330
7B
100
AcDbEntity
  8
0
  6
Continuous
 62
     0
370
     0
100
AcDbSpline
210
0.0
220
0.0
230
1.0
 70
     8
 71
     3
 72
     8
 73
     4
 74
     0
 42
0.000000001
 43
0.0
 40
0.0
 40
0.0
 40
0.0
 40
0.0
 40
3.653222443064012
 40
3.653222443064012
 40
3.653222443064012
 40
3.653222443064012
 10
155.3299957430258
 20
143.4947139519647
 30
0.0
 10
155.3185077045827
 20
142.296544010146
 30
0.0
 10
155.0619554660863
 20
141.11430835328
 30
0.0
 10
154.926341923682
 20
139.9240391920919
 30
0.0
  0
LINE
  5
8B
330
7B
100
AcDbEntity
  8
0
  6
Continuous
 62
     0
370
     0
100
AcDbLine
 10
154.926342
 20
139.924039
 30
0.0
 11
149.000693
 21
87.501586
 31
0.0
  0
SPLINE
  5
8C
330
7B
100
AcDbEntity
  8
0
  6
Continuous
 62
     0
370
     0
100
AcDbSpline
210
0.0
220
0.0
230
1.0
 70
     8
 71
     3
 72
    14
 73
    10
 74
     0
 42
0.000000001
 43
0.0
 40
0.0
 40
0.0
 40
0.0
 40
0.0
 40
3.357648776850948
 40
6.714049718873438
 40
10.06778576981203
 40
13.41760088284157
 40
16.76445100048878
 40
20.11421126264102
 40
23.4680066154798
 40
23.4680066154798
 40
23.4680066154798
 40
23.4680066154798
 10
149.0006931717325
 20
87.5015864878439
 30
0.0
 10
148.8739691414593
 20
86.40785357137696
 30
0.0
 10
148.519465232948
 20
84.23045062997437
 30
0.0
 10
147.5925159889796
 20
81.04769139146717
 30
0.0
 10
146.1435944629099
 20
78.05149734444052
 30
0.0
 10
144.0336684461491
 20
75.44217478106935
 30
0.0
 10
141.2342911520501
 20
73.54136981422602
 30
0.0
 10
138.0072747319269
 20
72.52262883112148
 30
0.0
 10
135.7645087820894
 20
72.34294421643791
 30
0.0
 10
134.6465769978101
 20
72.3429434912478
 30
0.0
  0
LINE
  5
8D
330
7B
100
AcDbEntity
  8
0
  6
Continuous
 62
     0
370
     0
100
AcDbLine
 10
134.646577
 20
72.342943
 30
0.0
 11
134.646575
 21
164.314807
 31
0.0
  0
ARC
  5
8E
330
7B
100
AcDbEntity
  8
0
  6
Continuous
 62
     0
370
     0
100
AcDbCircle
 10
134.647165
 20
143.631524
 30
0.0
 40
20.68328310527695
100
AcDbArc
 50
359.621014
 51
90.001632
  0
SPLINE
  5
8F
330
7B
100
AcDbEntity
  8
0
  6
Continuous
 62
     0
370
     0
100
AcDbSpline
210
0.0
220
0.0
230
1.0
 70
     8
 71
     7
 72
    16
 73
     8
 74
     0
 42
0.000000001
 43
0.0
 40
0.0
 40
0.0
 40
0.0
 40
0.0
 40
0.0
 40
0.0
 40
0.0
 40
0.0
 40
1.0
 40
1.0
 40
1.0
 40
1.0
 40
1.0
 40
1.0
 40
1.0
 40
1.0
 10
149.0006986006803
 20
87.50159212874642
 30
0.0
 10
149.308387352984
 20
87.45822023419278
 30
0.0
 10
149.6045934889027
 20
87.4029001924018
 30
0.0
 10
149.86882199542
 20
87.33852157861546
 30
0.0
 10
150.0817050931457
 20
87.26916638514275
 30
0.0
 10
150.2285053521735
 20
87.19963591990042
 30
0.0
 10
150.3019083558357
 20
87.13454098436922
 30
0.0
 10
150.301910740509
 20
87.07767017030558
 30
0.0
  0
LINE
  5
90
330
7B
100
AcDbEntity
  8
0
  6
Continuous
 62
     0
370
     0
100
AcDbLine
 10
134.646576
 20
164.314807
 30
0.0
 11
134.646576
 21
165.377126
 31
0.0
  0
LINE
  5
91
330
7B
100
AcDbEntity
  8
0
  6
Continuous
 62
     0
370
     0
100
AcDbLine
 10
134.646564
 20
72.342943
 30
0.0
 11
134.646564
 21
70.776907
 31
0.0
  0
SPLINE
  5
92
330
7B
100
AcDbEntity
  8
0
  6
Continuous
 62
     0
370
     0
100
AcDbSpline
210
0.0
220
0.0
230
1.0
 70
     8
 71
     3
 72
    21
 73
    17
 74
     0
 42
0.000000001
 43
0.0
 40
0.0
 40
0.0
 40
0.0
 40
0.0
 40
0.7625472699044984
 40
1.527870988522846
 40
3.068173238571163
 40
6.184644795374176
 40
7.762267914638144
 40
9.344689078241554
 40
10.92485328317408
 40
12.49648425405301
 40
15.59751546688465
 40
18.64952673578841
 40
21.66346482859164
 40
23.1602384496008
 40
23.90640253390963
 40
24.65139873213821
 40
24.65139873213821
 40
24.65139873213821
 40
24.65139873213821
 10
134.6465901327454
 20
70.77690729914829
 30
0.0
 10
134.3859789686731
 20
70.7766795796287
 30
0.0
 10
133.8640577716114
 20
70.7862414732366
 30
0.0
 10
132.8150286716032
 20
70.84476861999187
 30
0.0
 10
130.9653337814532
 20
71.06256372609799
 30
0.0
 10
128.8663265736631
 20
71.6223800477899
 30
0.0
 10
126.8978451735053
 20
72.5532614241793
 30
0.0
 10
125.5136362969492
 20
73.44152662468099
 30
0.0
 10
124.2625793548768
 20
74.49862654411078
 30
0.0
 10
122.8056593724233
 20
76.08258402507185
 30
0.0
 10
121.3733424172729
 20
78.31357569480244
 30
0.0
 10
120.1900501514321
 20
81.17934861182641
 30
0.0
 10
119.5425955627952
 20
83.63163603719175
 30
0.0
 10
119.2277216320514
 20
85.35590188589745
 30
0.0
 10
119.081139725288
 20
86.33959885308306
 30
0.0
 10
119.0211928681452
 20
86.83177326314554
 30
0.0
 10
118.9912429149509
 20
87.07766773113525
 30
0.0
  0
SPLINE
  5
93
330
7B
100
AcDbEntity
  8
0
  6
Continuous
 62
     0
370
     0
100
AcDbSpline
210
0.0
220
0.0
230
1.0
 70
     8
 71
     3
 72
     8
 73
     4
 74
     0
 42
0.000000001
 43
0.0
 40
0.0
 40
0.0
 40
0.0
 40
0.0
 40
3.653222443064017
 40
3.653222443064017
 40
3.653222443064017
 40
3.653222443064017
 10
113.9631566102294
 20
143.4947134745385
 30
0.0
 10
113.974644676453
 20
142.2965435329896
 30
0.0
 10
114.2311969420031
 20
141.1143078820254
 30
0.0
 10
114.3668105119937
 20
139.924038723983
 30
0.0
  0
LINE
  5
94
330
7B
100
AcDbEntity
  8
0
  6
Continuous
 62
     0
370
     0
100
AcDbLine
 10
114.366811
 20
139.924039
 30
0.0
 11
120.29246
 21
87.501586
 31
0.0
  0
ARC
  5
95
330
7B
100
AcDbEntity
  8
0
  6
Continuous
 62
     0
370
     0
100
AcDbCircle
 10
134.645987
 20
143.631524
 30
0.0
 40
20.68328310523918
100
AcDbArc
 50
89.998369
 51
180.378987
  0
SPLINE
  5
96
330
7B
100
AcDbEntity
  8
0
  6
Continuous
 62
     0
370
     0
100
AcDbSpline
210
0.0
220
0.0
230
1.0
 70
     8
 71
     3
 72
     8
 73
     4
 74
     0
 42
0.000000001
 43
0.0
 40
0.0
 40
0.0
 40
0.0
 40
0.0
 40
3.67519452038978
 40
3.67519452038978
 40
3.67519452038978
 40
3.67519452038978
 10
113.0590498584667
 20
139.6272750856803
 30
0.0
 10
112.9239861199329
 20
140.8246870306468
 30
0.0
 10
112.6632086520453
 20
142.0146982627356
 30
0.0
 10
112.6535233854042
 20
143.2194302788575
 30
0.0
  0
SPLINE
  5
97
330
7B
100
AcDbEntity
  8
0
  6
Continuous
 62
     0
370
     0
100
AcDbSpline
210
0.0
220
0.0
230
1.0
 70
     8
 71
     7
 72
    16
 73
     8
 74
     0
 42
0.000000001
 43
0.0
 40
0.0
 40
0.0
 40
0.0
 40
0.0
 40
0.0
 40
0.0
 40
0.0
 40
0.0
 40
1.0
 40
1.0
 40
1.0
 40
1.0
 40
1.0
 40
1.0
 40
1.0
 40
1.0
 10
113.9631652777559
 20
143.4947037532712
 30
0.0
 10
113.6533882551985
 20
143.4865070402694
 30
0.0
 10
113.3551770438518
 20
143.4650419098549
 30
0.0
 10
113.0891756465886
 20
143.4308551966694
 30
0.0
 10
112.8748921398746
 20
143.3858164034743
 30
0.0
 10
112.7271683176691
 20
143.333045026021
 30
0.0
 10
112.6533657714971
 20
143.276319114355
 30
0.0
 10
112.6534801128599
 20
143.2194299340352
 30
0.0
  0
LINE
  5
98
330
7B
100
AcDbEntity
  8
0
  6
Continuous
 62
     0
370
    30
100
AcDbLine
 10
156.122648
 20
138.640053
 30
0.0
 11
156.311211
 21
139.593065
 31
0.0
  0
LINE
  5
99
330
7B
100
AcDbEntity
  8
0
  6
Continuous
 62
     0
370
    30
100
AcDbLine
 10
156.311211
 20
139.593065
 30
0.0
 11
156.317162
 21
139.627239
 31
0.0
  0
SPLINE
  5
9A
330
7B
100
AcDbEntity
  8
0
  6
Continuous
 62
     0
370
     0
100
AcDbSpline
210
0.0
220
0.0
230
1.0
 70
     8
 71
     3
 72
    11
 73
     7
 74
     0
 42
0.000000001
 43
0.0
 40
0.0
 40
0.0
 40
0.0
 40
0.0
 40
0.5084500309309365
 40
1.01690006218892
 40
1.525350093773952
 40
2.033085648011041
 40
2.033085648011041
 40
2.033085648011041
 40
2.033085648011041
 10
156.6396722467497
 20
143.2194304416921
 30
0.0
 10
156.639738621304
 20
143.2524546882701
 30
0.0
 10
156.5745057879424
 20
143.3189460288801
 30
0.0
 10
156.2923741222955
 20
143.4054844932326
 30
0.0
 10
155.8619526320608
 20
143.4686497327835
 30
0.0
 10
155.5095645613126
 20
143.4899522685453
 30
0.0
 10
155.3299870748915
 20
143.4947042299993
 30
0.0
  0
LINE
  5
9B
330
7B
100
AcDbEntity
  8
0
  6
Continuous
 62
     0
370
     0
100
AcDbLine
 10
118.991243
 20
87.07767
 30
0.0
 11
115.51757
 21
117.852084
 31
0.0
  0
LINE
  5
9C
330
7B
100
AcDbEntity
  8
0
  6
Continuous
 62
     0
370
    30
100
AcDbLine
 10
156.317162
 20
139.627239
 30
0.0
 11
156.389496
 21
140.071532
 31
0.0
  0
ARC
  5
9D
330
7B
100
AcDbEntity
  8
0
  6
Continuous
 62
     0
370
    30
100
AcDbCircle
 10
134.618246
 20
143.385753
 30
0.0
 40
22.02206617279094
100
AcDbArc
 50
351.344361
 51
359.238121
  0
LINE
  5
9E
330
7B
100
AcDbEntity
  8
0
  6
Continuous
 62
     0
370
    30
100
AcDbLine
 10
112.975991
 20
139.627239
 30
0.0
 11
112.981942
 21
139.593065
 31
0.0
  0
LINE
  5
9F
330
7B
100
AcDbEntity
  8
0
  6
Continuous
 62
     0
370
    30
100
AcDbLine
 10
112.981942
 20
139.593065
 30
0.0
 11
113.16214
 21
138.678073
 31
0.0
  0
SPLINE
  5
A0
330
7B
100
AcDbEntity
  8
0
  6
Continuous
 62
     0
370
     0
100
AcDbSpline
210
0.0
220
0.0
230
1.0
 70
     8
 71
     7
 72
    16
 73
     8
 74
     0
 42
0.000000001
 43
0.0
 40
0.0
 40
0.0
 40
0.0
 40
0.0
 40
0.0
 40
0.0
 40
0.0
 40
0.0
 40
1.0
 40
1.0
 40
1.0
 40
1.0
 40
1.0
 40
1.0
 40
1.0
 40
1.0
 10
156.2341098806997
 20
139.6272747868889
 30
0.0
 10
156.234337754485
 20
139.6853610102514
 30
0.0
 10
156.1609532210021
 20
139.7438213578521
 30
0.0
 10
156.0134587938101
 20
139.799009442429
 30
0.0
 10
155.7994393890508
 20
139.8471025852205
 30
0.0
 10
155.5337451115283
 20
139.8850257403913
 30
0.0
 10
155.2358431362239
 20
139.9108722397106
 30
0.0
 10
154.9263742558654
 20
139.9240721999107
 30
0.0
  0
SPLINE
  5
A1
330
7B
100
AcDbEntity
  8
0
  6
Continuous
 62
     0
370
     0
100
AcDbSpline
210
0.0
220
0.0
230
1.0
 70
     8
 71
     3
 72
    14
 73
    10
 74
     0
 42
0.000000001
 43
0.0
 40
0.0
 40
0.0
 40
0.0
 40
0.0
 40
3.35765972703933
 40
6.714168333140146
 40
10.06786817318082
 40
13.41762334460883
 40
16.76451129115895
 40
20.11429153093615
 40
23.46810869271241
 40
23.46810869271241
 40
23.46810869271241
 40
23.46810869271241
 10
120.2924550488446
 20
87.50159179345802
 30
0.0
 10
120.4193113123104
 20
86.40784901509078
 30
0.0
 10
120.7736016624617
 20
84.23041244392392
 30
0.0
 10
121.7009954898204
 20
81.04775080948349
 30
0.0
 10
123.1493775898919
 20
78.05123661793542
 30
0.0
 10
125.2595622285994
 20
75.44219353999645
 30
0.0
 10
128.0588015247875
 20
73.54128234695233
 30
0.0
 10
131.2858490213467
 20
72.5224223967401
 30
0.0
 10
133.528651079983
 20
72.3429476583505
 30
0.0
 10
134.6465901217471
 20
72.34294349415268
 30
0.0
  0
LINE
  5
A2
330
7B
100
AcDbEntity
  8
0
  6
Continuous
 62
     0
370
     0
100
AcDbLine
 10
115.51757
 20
117.852084
 30
0.0
 11
113.059043
 21
139.627274
 31
0.0
  0
SPLINE
  5
A3
330
7B
100
AcDbEntity
  8
0
  6
Continuous
 62
     0
370
     0
100
AcDbSpline
210
0.0
220
0.0
230
1.0
 70
     8
 71
     7
 72
    16
 73
     8
 74
     0
 42
0.000000001
 43
0.0
 40
0.0
 40
0.0
 40
0.0
 40
0.0
 40
0.0
 40
0.0
 40
0.0
 40
0.0
 40
1.0
 40
1.0
 40
1.0
 40
1.0
 40
1.0
 40
1.0
 40
1.0
 40
1.0
 10
113.0590425618259
 20
139.6272742885934
 30
0.0
 10
113.0588146867
 20
139.6853605119506
 30
0.0
 10
113.1321992188334
 20
139.7438208612453
 30
0.0
 10
113.2796936447515
 20
139.7990089492267
 30
0.0
 10
113.4937130484007
 20
139.8471020969583
 30
0.0
 10
113.7594073250479
 20
139.885025258262
 30
0.0
 10
114.0573092997556
 20
139.9108717644576
 30
0.0
 10
114.3667781798095
 20
139.9240717318011
 30
0.0
  0
SPLINE
  5
A4
330
7B
100
AcDbEntity
  8
0
  6
Continuous
 62
     0
370
     0
100
AcDbSpline
210
0.0
220
0.0
230
1.0
 70
     8
 71
     7
 72
    36
 73
    28
 74
     0
 42
0.000000001
 43
0.0
 40
0.0
 40
0.0
 40
0.0
 40
0.0
 40
0.0
 40
0.0
 40
0.0
 40
0.0
 40
0.11
 40
0.11
 40
0.11
 40
0.11
 40
0.11
 40
0.55
 40
0.55
 40
0.55
 40
0.55
 40
0.55
 40
0.65
 40
0.65
 40
0.65
 40
0.65
 40
0.65
 40
0.77
 40
0.77
 40
0.77
 40
0.77
 40
0.77
 40
1.0
 40
1.0
 40
1.0
 40
1.0
 40
1.0
 40
1.0
 40
1.0
 40
1.0
 10
150.3019107405541
 20
87.0776680925004
 30
0.0
 10
150.2566847976978
 20
86.68730925254278
 30
0.0
 10
150.2065969773699
 20
86.29749516505511
 30
0.0
 10
150.1513803717895
 20
85.90832759993411
 30
0.0
 10
150.0909667560838
 20
85.51989651599926
 30
0.0
 10
150.0250325530274
 20
85.13233340749981
 30
0.0
 10
149.6667720852481
 20
83.19953320654857
 30
0.0
 10
149.1595900099463
 20
81.29573510900522
 30
0.0
 10
148.6424355565499
 20
79.80119868180562
 30
0.0
 10
147.9965515754151
 20
78.35225921027148
 30
0.0
 10
147.1952542276469
 20
76.96921809563602
 30
0.0
 10
145.997972452888
 20
75.41735509612826
 30
0.0
 10
144.5605780779667
 20
74.10372171132045
 30
0.0
 10
144.2863117530807
 20
73.86910307950396
 30
0.0
 10
144.0041759914488
 20
73.64361942728887
 30
0.0
 10
143.7145559896952
 20
73.42755632398539
 30
0.0
 10
143.0616111075018
 20
72.97387973775362
 30
0.0
 10
142.3761427517624
 20
72.56886983753768
 30
0.0
 10
141.9933504898843
 20
72.36279869855035
 30
0.0
 10
141.6024034786012
 20
72.17198592618344
 30
0.0
 10
141.2043125761787
 20
71.99629355298684
 30
0.0
 10
140.0247606600851
 20
71.52803272272871
 30
0.0
 10
138.7987871139925
 20
71.18606560457538
 30
0.0
 10
137.9790026102962
 20
71.01408939966736
 30
0.0
 10
137.1505697971511
 20
70.89201016391506
 30
0.0
 10
136.3172470145786
 20
70.81360097033266
 30
0.0
 10
135.4819054571133
 20
70.77690731622504
 30
0.0
 10
134.6465638990229
 20
70.77690729914801
 30
0.0
  0
LINE
  5
A5
330
7B
100
AcDbEntity
  8
0
  6
Continuous
 62
     0
370
    30
100
AcDbLine
 10
156.317162
 20
139.627239
 30
0.0
 11
156.311211
 21
139.593065
 31
0.0
  0
ARC
  5
A6
330
7B
100
AcDbEntity
  8
0
  6
Continuous
 62
     0
370
    30
100
AcDbCircle
 10
134.674906
 20
143.385753
 30
0.0
 40
22.02206617278875
100
AcDbArc
 50
180.76188
 51
188.655641
  0
LINE
  5
A7
330
7B
100
AcDbEntity
  8
0
  6
Continuous
 62
     0
370
    30
100
AcDbLine
 10
112.903656
 20
140.071531
 30
0.0
 11
112.975991
 21
139.627239
 31
0.0
  0
LINE
  5
A8
330
7B
100
AcDbEntity
  8
0
  6
Continuous
 62
     0
370
    30
100
AcDbLine
 10
112.981942
 20
139.593065
 30
0.0
 11
112.975991
 21
139.627239
 31
0.0
  0
SPLINE
  5
A9
330
7B
100
AcDbEntity
  8
0
  6
Continuous
 62
     0
370
     0
100
AcDbSpline
210
0.0
220
0.0
230
1.0
 70
     8
 71
     3
 72
    11
 73
     7
 74
     0
 42
0.000000001
 43
0.0
 40
0.0
 40
0.0
 40
0.0
 40
0.0
 40
0.5463209427519092
 40
1.092641883762446
 40
1.638962823031614
 40
2.183354679579053
 40
2.183354679579053
 40
2.183354679579053
 40
2.183354679579053
 10
118.9912429149509
 20
87.07766773113525
 30
0.0
 10
118.9912429641625
 20
87.11069870733157
 30
0.0
 10
119.0562230565104
 20
87.1846290822737
 30
0.0
 10
119.3368527138184
 20
87.3032452083925
 30
0.0
 10
119.7645186904072
 20
87.4152276563276
 30
0.0
 10
120.1143669817132
 20
87.47648760150766
 30
0.0
 10
120.2924550488429
 20
87.50159179345776
 30
0.0
  0
LINE
  5
AA
330
7B
100
AcDbEntity
  8
0
  6
Continuous
 62
     0
370
    30
100
AcDbLine
 10
112.688661
 20
142.129316
 30
0.0
 11
112.695141
 21
142.020566
 31
0.0
  0
SPLINE
  5
AB
330
7B
100
AcDbEntity
  8
0
  6
Continuous
 62
     0
370
    30
100
AcDbSpline
210
0.0
220
0.0
230
1.0
 70
     8
 71
     3
 72
    17
 73
    13
 74
     0
 42
0.000000001
 43
0.0
 40
0.0
 40
0.0
 40
0.0
 40
0.0
 40
1.550144395625678
 40
4.263898427094484
 40
6.97464668981883
 40
9.669442800780395
 40
11.1911474202472
 40
12.33224476659991
 40
14.20239377902586
 40
16.81470570836071
 40
20.55235518572253
 40
24.57406906676615
 40
24.57406906676615
 40
24.57406906676615
 40
24.57406906676615
 10
134.6465849988936
 20
70.7022771515389
 30
0.0
 10
134.1299892350854
 20
70.70237073648568
 30
0.0
 10
132.7084329875981
 20
70.75272712665789
 30
0.0
 10
130.4018007477628
 20
71.09283804091734
 30
0.0
 10
127.8255200582186
 20
71.95373703039766
 30
0.0
 10
125.8263594795939
 20
73.12471113737845
 30
0.0
 10
124.4610999294445
 20
74.2688350090784
 30
0.0
 10
123.4127407580541
 20
75.34830129207191
 30
0.0
 10
122.26766222031
 20
76.82328944369266
 30
0.0
 10
120.9284732203955
 20
79.19970679464703
 30
0.0
 10
119.7694171260611
 20
82.4354190321516
 30
0.0
 10
119.2744284701833
 20
84.9519040440308
 30
0.0
 10
119.0929597026699
 20
86.2641674817139
 30
0.0
  0
SPLINE
  5
AC
330
7B
100
AcDbEntity
  8
0
  6
Continuous
 62
     0
370
    30
100
AcDbSpline
210
0.0
220
0.0
230
1.0
 70
     8
 71
     3
 72
    17
 73
    13
 74
     0
 42
0.000000001
 43
0.0
 40
0.0
 40
0.0
 40
0.0
 40
0.0
 40
1.550144395625679
 40
4.263898427094483
 40
6.974646689818821
 40
9.669442800780365
 40
11.1911474202472
 40
12.33224476659995
 40
14.2023937790259
 40
16.81470570836075
 40
20.55235518572263
 40
25.38193013625801
 40
25.38193013625801
 40
25.38193013625801
 40
25.38193013625801
 10
134.6465690345973
 20
70.7022771515387
 30
0.0
 10
135.1631647984034
 20
70.70237074840983
 30
0.0
 10
136.5847210447282
 20
70.75272717139518
 30
0.0
 10
138.891353276713
 20
71.09283813889765
 30
0.0
 10
141.4676339463854
 20
71.9537371878451
 30
0.0
 10
143.4667944979811
 20
73.12471134097163
 30
0.0
 10
144.8320540217212
 20
74.26883524418527
 30
0.0
 10
145.8804131681947
 20
75.34830155137763
 30
0.0
 10
147.0254916718923
 20
76.82328972942973
 30
0.0
 10
148.364680616953
 20
79.19970711129604
 30
0.0
 10
149.614016770681
 20
82.68745252332016
 30
0.0
 10
150.1177621851103
 20
85.4769467234449
 30
0.0
 10
150.3006638389847
 20
87.05578920100706
 30
0.0
  0
LINE
  5
AD
330
7B
100
AcDbEntity
  8
0
  6
Continuous
 62
     0
370
    30
100
AcDbLine
 10
156.604491
 20
142.129316
 30
0.0
 11
156.598011
 21
142.020567
 31
0.0
  0
ENDBLK
  5
AF
330
7B
100
AcDbEntity
  8
0
100
AcDbBlockEnd
  0
BLOCK
  5
E9
330
B1
100
AcDbEntity
  8
0
100
AcDbBlockBegin
  2
b
 70
     0
 10
-83.107315
 20
0.0
 30
0.0
  3
b
  1

  0
LINE
  5
B2
330
B1
100
AcDbEntity
  8
0
  6
Continuous
 62
     0
370
    30
100
AcDbLine
 10
-122.899393
 20
121.283419
 30
0.0
 11
-122.899393
 21
165.483419
 31
0.0
  0
LINE
  5
B3
330
B1
100
AcDbEntity
  8
0
  6
Continuous
 62
     0
370
    30
100
AcDbLine
 10
-114.599393
 20
54.383419
 30
0.0
 11
-114.599393
 21
232.383419
 31
0.0
  0
LINE
  5
B4
330
B1
100
AcDbEntity
  8
0
  6
Continuous
 62
     0
370
     0
100
AcDbLine
 10
-113.599393
 20
53.383419
 30
0.0
 11
-113.599393
 21
233.383419
 31
0.0
  0
LINE
  5
B5
330
B1
100
AcDbEntity
  8
0
  6
Continuous
 62
     0
370
    30
100
AcDbLine
 10
-102.599393
 20
53.383419
 30
0.0
 11
-102.599393
 21
233.383419
 31
0.0
  0
LINE
  5
B6
330
B1
100
AcDbEntity
  8
0
  6
Continuous
 62
     0
370
    30
100
AcDbLine
 10
-125.969791
 20
121.389712
 30
0.0
 11
-137.407132
 21
121.389712
 31
0.0
  0
ARC
  5
B7
330
B1
100
AcDbEntity
  8
0
  6
Continuous
 62
     0
370
    30
100
AcDbCircle
 10
-139.965146
 20
98.436882
 30
0.0
 40
23.09493049689682
100
AcDbArc
 50
83.640824
 51
91.115074
  0
LINE
  5
B8
330
B1
100
AcDbEntity
  8
0
  6
Continuous
 62
     0
370
     0
100
AcDbLine
 10
-153.101205
 20
143.21943
 30
0.0
 11
-149.301455
 21
165.377126
 31
0.0
  0
ARC
  5
B9
330
B1
100
AcDbEntity
  8
0
  6
Continuous
 62
     0
370
    30
100
AcDbCircle
 10
-136.070186
 20
143.061586
 30
0.0
 40
10.10040946195248
100
AcDbArc
 50
0.100021
 51
19.899209
  0
LINE
  5
BA
330
B1
100
AcDbEntity
  8
0
  6
Continuous
 62
     0
370
     0
100
AcDbLine
 10
-150.649658
 20
139.627254
 30
0.0
 11
-152.319214
 21
139.627319
 31
0.0
  0
SPLINE
  5
BB
330
B1
100
AcDbEntity
  8
0
  6
Continuous
 62
     0
370
     0
100
AcDbSpline
210
0.0
220
0.0
230
1.0
 70
     8
 71
     3
 72
    18
 73
    14
 74
     0
 42
0.000000001
 43
0.0
 40
0.0
 40
0.0
 40
0.0
 40
0.0
 40
1.61202092159282
 40
3.22411683455244
 40
6.448183379388242
 40
9.672482443629375
 40
12.89652384406625
 40
16.12063455891719
 40
17.73307287272358
 40
19.34484000979756
 40
20.95705083966382
 40
21.76300101780323
 40
22.56861979264836
 40
22.56861979264836
 40
22.56861979264836
 40
22.56861979264836
 10
-152.3192142472587
 20
139.6273193565534
 30
0.0
 10
-152.4092678412749
 20
139.1012067746817
 30
0.0
 10
-152.6005810739773
 20
138.0597141205946
 30
0.0
 10
-152.9584318342606
 20
135.9659606608299
 30
0.0
 10
-153.4149427185962
 20
133.3567211370593
 30
0.0
 10
-153.9619355571108
 20
130.2256219487491
 30
0.0
 10
-154.5070019900202
 20
127.0932158266942
 30
0.0
 10
-154.9670110829393
 20
124.4810484282558
 30
0.0
 10
-155.3339854072296
 20
122.386983662037
 30
0.0
 10
-155.613201385579
 20
120.8150527614965
 30
0.0
 10
-155.8452389633082
 20
119.502403111988
 30
0.0
 10
-156.0317101228316
 20
118.4550840308657
 30
0.0
 10
-156.1280546497371
 20
117.9247477557202
 30
0.0
 10
-156.1731513474031
 20
117.6653499777322
 30
0.0
  0
SPLINE
  5
BC
330
B1
100
AcDbEntity
  8
0
  6
Continuous
 62
     0
370
     0
100
AcDbSpline
210
0.0
220
0.0
230
1.0
 70
     8
 71
     3
 72
    17
 73
    13
 74
     0
 42
0.000000001
 43
0.0
 40
0.0
 40
0.0
 40
0.0
 40
0.0
 40
0.7968760256570322
 40
1.594375716149753
 40
3.189591663228648
 40
4.784596642401463
 40
6.379767638693482
 40
9.56858504749952
 40
12.75731078586576
 40
15.94516772308053
 40
19.13264561178923
 40
22.31836371266835
 40
22.31836371266835
 40
22.31836371266835
 40
22.31836371266835
 10
-156.1731513143709
 20
117.665350091171
 30
0.0
 10
-156.2118474118358
 20
117.4290659552264
 30
0.0
 10
-156.2764431425985
 20
117.0101099847934
 30
0.0
 10
-156.4150429433694
 20
116.1328222600912
 30
0.0
 10
-156.5710064017323
 20
115.0982243961944
 30
0.0
 10
-156.748489869495
 20
113.901761796141
 30
0.0
 10
-156.9644778678442
 20
112.395723321066
 30
0.0
 10
-157.2029479086352
 20
110.6721170678906
 30
0.0
 10
-157.4381399020288
 20
108.9007356751172
 30
0.0
 10
-157.62090333743
 20
107.4815438407802
 30
0.0
 10
-157.7435794600726
 20
106.505165669712
 30
0.0
 10
-157.7864414502033
 20
106.2072193388623
 30
0.0
 10
-157.7929931555557
 20
106.173316891906
 30
0.0
  0
SPLINE
  5
BD
330
B1
100
AcDbEntity
  8
0
  6
Continuous
 62
     0
370
    30
100
AcDbSpline
210
0.0
220
0.0
230
1.0
 70
     8
 71
     3
 72
    14
 73
    10
 74
     0
 42
0.000000001
 43
0.0
 40
0.0
 40
0.0
 40
0.0
 40
0.0
 40
3.341454141587596
 40
6.683510156799494
 40
10.02349257324499
 40
13.36048803168822
 40
16.6966807216606
 40
20.03403197351033
 40
23.37375397537684
 40
23.37375397537684
 40
23.37375397537684
 40
23.37375397537684
 10
-157.792993123983
 20
106.1733170538265
 30
0.0
 10
-157.5793286624521
 20
107.2664493148717
 30
0.0
 10
-156.9791892709695
 20
109.4203147947217
 30
0.0
 10
-155.7045926402136
 20
112.5169368369387
 30
0.0
 10
-153.9942258920639
 20
115.4041956986048
 30
0.0
 10
-151.7384897750212
 20
117.9029722476916
 30
0.0
 10
-148.9395604121453
 20
119.7845560015715
 30
0.0
 10
-145.7736614128917
 20
120.9297582184287
 30
0.0
 10
-143.5574711638433
 20
121.2456911806306
 30
0.0
 10
-142.4469414750301
 20
121.3233351978619
 30
0.0
  0
ARC
  5
BE
330
B1
100
AcDbEntity
  8
0
  6
Continuous
 62
     0
370
    30
100
AcDbCircle
 10
-140.25757
 20
109.74721
 30
0.0
 40
11.78134263669087
100
AcDbArc
 50
90.77029
 51
100.70975
  0
LINE
  5
BF
330
B1
100
AcDbEntity
  8
0
  6
Continuous
 62
     0
370
     0
100
AcDbLine
 10
-153.763794
 20
139.627276
 30
0.0
 11
-153.101205
 21
143.219431
 31
0.0
  0
SPLINE
  5
C0
330
B1
100
AcDbEntity
  8
0
  6
Continuous
 62
     0
370
     0
100
AcDbSpline
210
0.0
220
0.0
230
1.0
 70
     8
 71
     7
 72
    31
 73
    23
 74
     0
 42
0.000000001
 43
0.0
 40
-0.0000000000000264
 40
-0.0000000000000264
 40
-0.0000000000000264
 40
-0.0000000000000264
 40
-0.0000000000000264
 40
-0.0000000000000264
 40
-0.0000000000000264
 40
-0.0000000000000264
 40
0.3899999999999839
 40
0.3899999999999839
 40
0.3899999999999839
 40
0.3899999999999839
 40
0.3899999999999839
 40
0.6436379999999904
 40
0.6436379999999904
 40
0.6436379999999904
 40
0.6436379999999904
 40
0.6436379999999904
 40
0.7742999999999939
 40
0.7742999999999939
 40
0.7742999999999939
 40
0.7742999999999939
 40
0.7742999999999939
 40
1.0
 40
1.0
 40
1.0
 40
1.0
 40
1.0
 40
1.0
 40
1.0
 40
1.0
 10
-157.7803250119
 20
117.8520840481234
 30
0.0
 10
-157.6601997216706
 20
117.8299295594538
 30
0.0
 10
-157.5398653287314
 20
117.8089221128464
 30
0.0
 10
-157.4209416618755
 20
117.7883117881861
 30
0.0
 10
-157.3003436254533
 20
117.7669348867931
 30
0.0
 10
-157.1827621131815
 20
117.7453229867624
 30
0.0
 10
-156.9902429412955
 20
117.7082056983716
 30
0.0
 10
-156.7994106213343
 20
117.6686990652893
 30
0.0
 10
-156.724162455241
 20
117.6526478121684
 30
0.0
 10
-156.6503038734172
 20
117.6368403310026
 30
0.0
 10
-156.5769452579127
 20
117.6206900124349
 30
0.0
 10
-156.4674034471245
 20
117.597421556955
 30
0.0
 10
-156.3713285930521
 20
117.5818763824872
 30
0.0
 10
-156.3408943231018
 20
117.5778423419706
 30
0.0
 10
-156.3132301940257
 20
117.5753174704048
 30
0.0
 10
-156.2899359347728
 20
117.5749963784543
 30
0.0
 10
-156.2366709138487
 20
117.5788727400552
 30
0.0
 10
-156.2079450300239
 20
117.59388909038
 30
0.0
 10
-156.1969982950156
 20
117.6064372991788
 30
0.0
 10
-156.1885505891787
 20
117.620087807989
 30
0.0
 10
-156.1827718321576
 20
117.6348707043589
 30
0.0
 10
-156.1778988729334
 20
117.6500992690846
 30
0.0
 10
-156.1729680973544
 20
117.665317291558
 30
0.0
  0
LINE
  5
C1
330
B1
100
AcDbEntity
  8
0
  6
Continuous
 62
     0
370
     0
100
AcDbLine
 10
-153.763794
 20
139.627275
 30
0.0
 11
-157.780325
 21
117.852084
 31
0.0
  0
LINE
  5
C2
330
B1
100
AcDbEntity
  8
0
  6
Continuous
 62
     0
370
     0
100
AcDbLine
 10
-157.780325
 20
117.852084
 30
0.0
 11
-163.456791
 21
87.077668
 31
0.0
  0
SPLINE
  5
C3
330
B1
100
AcDbEntity
  8
0
  6
Continuous
 62
     0
370
     0
100
AcDbSpline
210
0.0
220
0.0
230
1.0
 70
     8
 71
     7
 72
    26
 73
    18
 74
     0
 42
0.000000001
 43
0.0
 40
0.0
 40
0.0
 40
0.0
 40
0.0
 40
0.0
 40
0.0
 40
0.0
 40
0.0
 40
0.4874999999999879
 40
0.4874999999999879
 40
0.4874999999999879
 40
0.4874999999999879
 40
0.4874999999999879
 40
0.7499999999999812
 40
0.7499999999999812
 40
0.7499999999999812
 40
0.7499999999999812
 40
0.7499999999999812
 40
0.9999999999999749
 40
0.9999999999999749
 40
0.9999999999999749
 40
0.9999999999999749
 40
0.9999999999999749
 40
0.9999999999999749
 40
0.9999999999999749
 40
0.9999999999999749
 10
-163.4567913338417
 20
87.07766809250037
 30
0.0
 10
-163.2966726444542
 20
87.04813553388207
 30
0.0
 10
-163.1365719945102
 20
87.01850516058953
 30
0.0
 10
-162.9766834103989
 20
86.98887603227413
 30
0.0
 10
-162.8172410428263
 20
86.95938825923756
 30
0.0
 10
-162.6589928591152
 20
86.93033271745946
 30
0.0
 10
-162.4184542525536
 20
86.88688817264779
 30
0.0
 10
-162.1919569840754
 20
86.8486358954422
 30
0.0
 10
-162.1150358172292
 20
86.83609990461194
 30
0.0
 10
-162.0413881090913
 20
86.82470998999354
 30
0.0
 10
-161.9723341058575
 20
86.81488865919813
 30
0.0
 10
-161.8508713196204
 20
86.79996460973013
 30
0.0
 10
-161.7613672421578
 20
86.79470048233195
 30
0.0
 10
-161.7266396946834
 20
86.79474047534525
 30
0.0
 10
-161.7017801106681
 20
86.7975354961832
 30
0.0
 10
-161.6857637057471
 20
86.80271590809807
 30
0.0
 10
-161.6774685531916
 20
86.8099556661772
 30
0.0
 10
-161.6758059120941
 20
86.81894984580146
 30
0.0
  0
LINE
  5
C4
330
B1
100
AcDbEntity
  8
0
  6
Continuous
 62
     0
370
     0
100
AcDbLine
 10
-161.675806
 20
86.81895
 30
0.0
 11
-156.172968
 21
117.665317
 31
0.0
  0
SPLINE
  5
C5
330
B1
100
AcDbEntity
  8
0
  6
Continuous
 62
     0
370
    30
100
AcDbSpline
210
0.0
220
0.0
230
1.0
 70
     8
 71
     3
 72
     8
 73
     4
 74
     0
 42
0.000000001
 43
0.0
 40
0.0
 40
0.0
 40
0.0
 40
0.0
 40
0.7943518780043267
 40
0.7943518780043267
 40
0.7943518780043267
 40
0.7943518780043267
 10
-166.4633292401402
 20
70.77690729914801
 30
0.0
 10
-165.5503060300866
 20
70.60850780077826
 30
0.0
 10
-164.9512589602434
 20
70.72432556091896
 30
0.0
 10
-164.66263403259
 20
71.13220519188535
 30
0.0
  0
LINE
  5
C6
330
B1
100
AcDbEntity
  8
0
  6
Continuous
 62
     0
370
     0
100
AcDbLine
 10
-154.610434
 20
143.494714
 30
0.0
 11
-155.26875
 21
139.924039
 31
0.0
  0
LINE
  5
C7
330
B1
100
AcDbEntity
  8
0
  6
Continuous
 62
     0
370
     0
100
AcDbLine
 10
-155.26875
 20
139.924039
 30
0.0
 11
-164.937817
 21
87.501586
 31
0.0
  0
LINE
  5
C8
330
B1
100
AcDbEntity
  8
0
  6
Continuous
 62
     0
370
     0
100
AcDbLine
 10
-164.937817
 20
87.501586
 30
0.0
 11
-167.733736
 21
72.342943
 31
0.0
  0
SPLINE
  5
C9
330
B1
100
AcDbEntity
  8
0
  6
Continuous
 62
     0
370
    30
100
AcDbSpline
210
0.0
220
0.0
230
1.0
 70
     8
 71
     3
 72
    44
 73
    40
 74
     0
 42
0.000000001
 43
0.0
 40
0.0000895826433184
 40
0.0000895826433184
 40
0.0000895826433184
 40
0.0000895826433184
 40
1.455705552506579
 40
2.911589491455752
 40
5.824081540223627
 40
8.738562618644004
 40
11.65580985319745
 40
14.57578990662235
 40
16.03659608486232
 40
17.49778930288207
 40
20.42097080381651
 40
23.34485787363343
 40
29.19406413399674
 40
35.04490031177655
 40
40.89750583144499
 40
46.75217532138652
 40
52.60924050521431
 40
58.46889873474117
 40
61.39961580462718
 40
64.3307164339991
 40
67.26188709626257
 40
67.99463745970205
 40
68.72736871185101
 40
69.46006464945697
 40
70.192677557325
 40
70.92522637029062
 40
71.65766554636134
 40
72.38986921751011
 40
73.12154096573981
 40
73.85284092927583
 40
74.58380294677747
 40
76.04479523316759
 40
78.96357029080804
 40
81.87875183536413
 40
84.79115651375291
 40
87.70151606648814
 40
90.61036732559818
 40
92.064314958274
 40
93.51784755774796
 40
93.51784755774796
 40
93.51784755774796
 40
93.51784755774796
 10
-167.733735973663
 20
72.3429434912478
 30
0.0
 10
-167.7207405752515
 20
72.82793090041467
 30
0.0
 10
-167.6947469535548
 20
73.79799499428123
 30
0.0
 10
-167.61463065057
 20
75.73797397569606
 30
0.0
 10
-167.4512344896787
 20
78.16134433542796
 30
0.0
 10
-167.1440794519808
 20
81.0629574627101
 30
0.0
 10
-166.7464881607627
 20
83.95808989956294
 30
0.0
 10
-166.3638880244093
 20
86.36615898108202
 30
0.0
 10
-166.0405629823367
 20
88.29137265380656
 30
0.0
 10
-165.7149194080321
 20
90.21765329645356
 30
0.0
 10
-165.3175040832191
 20
92.62858211154808
 30
0.0
 10
-164.68291300532
 20
96.48756619062655
 30
0.0
 10
-163.9034778854304
 20
101.3141614340551
 30
0.0
 10
-162.9688250512772
 20
107.1054092495264
 30
0.0
 10
-162.0249574284262
 20
112.8956424844466
 30
0.0
 10
-161.0585301210356
 20
118.6835726372822
 30
0.0
 10
-160.0563047088631
 20
124.4677927944676
 30
0.0
 10
-159.1811968251145
 20
129.2828777855052
 30
0.0
 10
-158.4502571293792
 20
133.1302556505599
 30
0.0
 10
-157.8854396088752
 20
136.0128407248032
 30
0.0
 10
-157.4482567614825
 20
138.1714569990328
 30
0.0
 10
-157.1505639395409
 20
139.6087432551803
 30
0.0
 10
-157.0005093322868
 20
140.3269548547862
 30
0.0
 10
-156.8492144815859
 20
141.0447144947655
 30
0.0
 10
-156.696630065645
 20
141.7620630633627
 30
0.0
 10
-156.5427518267011
 20
142.4788801740976
 30
0.0
 10
-156.3875745831447
 20
143.1951682940741
 30
0.0
 10
-156.2311128924821
 20
143.9107856706035
 30
0.0
 10
-156.0732526558777
 20
144.6261411463966
 30
0.0
 10
-155.9140690389847
 20
145.3407981332542
 30
0.0
 10
-155.700003589239
 20
146.2926652177974
 30
0.0
 10
-155.3207656847715
 20
147.9557546221548
 30
0.0
 10
-154.7618406677359
 20
150.3252299877302
 30
0.0
 10
-154.0744278579205
 20
153.1608517846767
 30
0.0
 10
-153.335015426966
 20
155.978975283964
 30
0.0
 10
-152.5373003404402
 20
158.7773604475107
 30
0.0
 10
-151.8242869735425
 20
161.0927452894772
 30
0.0
 10
-151.2302397798953
 20
162.9362444376071
 30
0.0
 10
-150.926425736227
 20
163.8553296778615
 30
0.0
 10
-150.7745402931016
 20
164.3148066621604
 30
0.0
  0
LINE
  5
CA
330
B1
100
AcDbEntity
  8
0
  6
Continuous
 62
     0
370
     0
100
AcDbLine
 10
-150.77454
 20
164.314807
 30
0.0
 11
-154.610434
 21
143.494714
 31
0.0
  0
SPLINE
  5
CB
330
B1
100
AcDbEntity
  8
0
  6
Continuous
 62
     0
370
     0
100
AcDbSpline
210
0.0
220
0.0
230
1.0
 70
     8
 71
     7
 72
    16
 73
     8
 74
     0
 42
0.000000001
 43
0.0
 40
0.0
 40
0.0
 40
0.0
 40
0.0
 40
0.0
 40
0.0
 40
0.0
 40
0.0
 40
1.0
 40
1.0
 40
1.0
 40
1.0
 40
1.0
 40
1.0
 40
1.0
 40
1.0
 10
-164.9378507545682
 20
87.50159212874642
 30
0.0
 10
-164.8959736223851
 20
87.45822023419278
 30
0.0
 10
-164.7821035665665
 20
87.4029001924018
 30
0.0
 10
-164.5990332160948
 20
87.33852157861546
 30
0.0
 10
-164.3567282839886
 20
87.26916638514275
 30
0.0
 10
-164.0719630092126
 20
87.19963591990042
 30
0.0
 10
-163.765141528555
 20
87.13454098436922
 30
0.0
 10
-163.4568025991935
 20
87.07767017030558
 30
0.0
  0
ARC
  5
CC
330
B1
100
AcDbEntity
  8
0
  6
Continuous
 62
     0
370
    30
100
AcDbCircle
 10
-149.301455
 20
163.824626
 30
0.0
 40
1.552499994197305
100
AcDbArc
 50
90.0
 51
161.594746
  0
SPLINE
  5
CD
330
B1
100
AcDbEntity
  8
0
  6
Continuous
 62
     0
370
    30
100
AcDbSpline
210
0.0
220
0.0
230
1.0
 70
     8
 71
     3
 72
     8
 73
     4
 74
     0
 42
0.000000001
 43
0.0
 40
0.2452070704059732
 40
0.2452070704059732
 40
0.2452070704059732
 40
0.2452070704059732
 40
34.96414840844445
 40
34.96414840844445
 40
34.96414840844445
 40
34.96414840844445
 10
-157.8402568645238
 20
105.9327069905159
 30
0.0
 10
-160.0457156217125
 20
94.5717311315506
 30
0.0
 10
-161.8625506598421
 20
83.12921990182384
 30
0.0
 10
-164.424250362065
 20
71.84357281436046
 30
0.0
  0
SPLINE
  5
CE
330
B1
100
AcDbEntity
  8
0
  6
Continuous
 62
     0
370
     0
100
AcDbSpline
210
0.0
220
0.0
230
1.0
 70
     8
 71
     3
 72
    14
 73
    10
 74
     0
 42
0.000000001
 43
0.0
 40
0.0
 40
0.0
 40
0.0
 40
0.0
 40
4.30272627269416
 40
8.60797003312282
 40
12.91498592349899
 40
17.2229963951179
 40
21.53124926575671
 40
25.83887154380674
 40
30.14462411466932
 40
30.14462411466932
 40
30.14462411466932
 40
30.14462411466932
 10
-140.4145844864738
 20
121.5274390471547
 30
0.0
 10
-140.5475131212597
 20
121.6870064506469
 30
0.0
 10
-141.0443693944342
 20
122.2852717434103
 30
0.0
 10
-142.3055233966807
 20
123.9088045995734
 30
0.0
 10
-143.9090799280989
 20
126.1356595403722
 30
0.0
 10
-145.6967938920518
 20
128.8678335505233
 30
0.0
 10
-147.5313705104056
 20
132.0397255355437
 30
0.0
 10
-149.265509441477
 20
135.6078903508007
 30
0.0
 10
-150.2408049334085
 20
138.2349697995805
 30
0.0
 10
-150.6396347448463
 20
139.5930651117304
 30
0.0
  0
LINE
  5
CF
330
B1
100
AcDbEntity
  8
0
  6
Continuous
 62
     0
370
     0
100
AcDbLine
 10
-150.639635
 20
139.593065
 30
0.0
 11
-150.649787
 21
139.627239
 31
0.0
  0
LINE
  5
D0
330
B1
100
AcDbEntity
  8
0
  6
Continuous
 62
     0
370
     0
100
AcDbLine
 10
-153.101205
 20
143.21943
 30
0.0
 11
-154.61038
 21
143.494704
 31
0.0
  0
LINE
  5
D1
330
B1
100
AcDbEntity
  8
0
  6
Continuous
 62
     0
370
     0
100
AcDbLine
 10
-150.649787
 20
139.627239
 30
0.0
 11
-150.782089
 21
140.071532
 31
0.0
  0
LINE
  5
D2
330
B1
100
AcDbEntity
  8
0
  6
Continuous
 62
     0
370
     0
100
AcDbLine
 10
-150.782089
 20
140.071532
 30
0.0
 11
-151.70522
 21
143.092927
 31
0.0
  0
LINE
  5
D3
330
B1
100
AcDbEntity
  8
0
  6
Continuous
 62
     0
370
     0
100
AcDbLine
 10
-151.70522
 20
143.092927
 30
0.0
 11
-153.101205
 21
143.21943
 31
0.0
  0
LINE
  5
D4
330
B1
100
AcDbEntity
  8
0
  6
Continuous
 62
     0
370
     0
100
AcDbLine
 10
-153.763794
 20
139.627275
 30
0.0
 11
-155.268949
 21
139.924072
 31
0.0
  0
LINE
  5
D5
330
B1
100
AcDbEntity
  8
0
  6
Continuous
 62
     0
370
     0
100
AcDbLine
 10
-152.319218
 20
139.627291
 30
0.0
 11
-153.763794
 21
139.627276
 31
0.0
  0
LINE
  5
D6
330
B1
100
AcDbEntity
  8
0
  6
Continuous
 62
     0
370
     0
100
AcDbLine
 10
-163.456791
 20
87.077668
 30
0.0
 11
-166.463329
 21
70.776907
 31
0.0
  0
LINE
  5
D7
330
B1
100
AcDbEntity
  8
0
  6
Continuous
 62
     0
370
    30
100
AcDbLine
 10
-125.969792
 20
143.079218
 30
0.0
 11
-125.969791
 21
121.389712
 31
0.0
  0
SPLINE
  5
D8
330
B1
100
AcDbEntity
  8
0
  6
Continuous
 62
     0
370
    30
100
AcDbSpline
210
0.0
220
0.0
230
1.0
 70
     8
 71
     3
 72
    11
 73
     7
 74
     0
 42
0.000000001
 43
0.0
 40
32.11140425613715
 40
32.11140425613715
 40
32.11140425613715
 40
32.11140425613715
 40
36.69302645961226
 40
45.86094439878418
 40
55.03829037776858
 40
64.2228085122743
 40
64.2228085122743
 40
64.2228085122743
 40
64.2228085122743
 10
-133.4425866428422
 20
165.3738201629334
 30
0.0
 10
-133.4425870635833
 20
165.3738201482062
 30
0.0
 10
-133.2681137873266
 20
164.8944602395827
 30
0.0
 10
-132.1040810285388
 20
161.6963832106894
 30
0.0
 10
-129.6548102049471
 20
154.9669083103788
 30
0.0
 10
-127.6105660251028
 20
149.3506428211076
 30
0.0
 10
-126.5728430435922
 20
146.4994272513516
 30
0.0
  0
LINE
  5
D9
330
B1
100
AcDbEntity
  8
0
  6
Continuous
 62
     0
370
    30
100
AcDbLine
 10
-164.500824
 20
71.507851
 30
0.0
 11
-161.675806
 21
86.81895
 31
0.0
  0
LINE
  5
DA
330
B1
100
AcDbEntity
  8
0
  6
Continuous
 62
     0
370
    30
100
AcDbLine
 10
-122.899393
 20
165.483419
 30
0.0
 11
-114.599393
 21
165.483419
 31
0.0
  0
ARC
  5
DB
330
B1
100
AcDbEntity
  8
0
  6
Continuous
 62
     0
370
    30
100
AcDbCircle
 10
-121.529486
 20
143.279242
 30
0.0
 40
20.50000000005812
100
AcDbArc
 50
93.831629
 51
120.221507
  0
LINE
  5
DC
330
B1
100
AcDbEntity
  8
0
  6
Continuous
 62
     0
370
    30
100
AcDbLine
 10
-113.599393
 20
53.383419
 30
0.0
 11
-102.599393
 21
53.383419
 31
0.0
  0
LINE
  5
DD
330
B1
100
AcDbEntity
  8
0
  6
Continuous
 62
     0
370
    30
100
AcDbLine
 10
-113.599393
 20
233.383419
 30
0.0
 11
-102.599393
 21
233.383419
 31
0.0
  0
ARC
  5
DE
330
B1
100
AcDbEntity
  8
0
  6
Continuous
 62
     0
370
    30
100
AcDbCircle
 10
-113.599381
 20
54.383431
 30
0.0
 40
1.000011948601925
100
AcDbArc
 50
180.000685
 51
269.999315
  0
ARC
  5
DF
330
B1
100
AcDbEntity
  8
0
  6
Continuous
 62
     0
370
    30
100
AcDbCircle
 10
-113.599381
 20
232.383407
 30
0.0
 40
1.000011948766723
100
AcDbArc
 50
90.000685
 51
179.999315
  0
LINE
  5
E0
330
B1
100
AcDbEntity
  8
0
  6
Continuous
 62
     0
370
    30
100
AcDbLine
 10
-122.899393
 20
121.283419
 30
0.0
 11
-114.599393
 21
121.283419
 31
0.0
  0
ARC
  5
E1
330
B1
100
AcDbEntity
  8
0
  6
Continuous
 62
     0
370
    30
100
AcDbCircle
 10
-121.529486
 20
143.487596
 30
0.0
 40
20.49999999747021
100
AcDbArc
 50
257.490575
 51
266.168371
  0
LINE
  5
E2
330
B1
100
AcDbEntity
  8
0
  6
Continuous
 62
     0
370
    30
100
AcDbLine
 10
-157.790736
 20
106.186231
 30
0.0
 11
-157.83979
 21
105.932616
 31
0.0
  0
LINE
  5
E3
330
B1
100
AcDbEntity
  8
0
  6
Continuous
 62
     0
370
    30
100
AcDbLine
 10
-164.424184
 20
71.843558
 30
0.0
 11
-164.199625
 21
72.839357
 31
0.0
  0
LINE
  5
E4
330
B1
100
AcDbEntity
  8
0
  6
Continuous
 62
     0
370
    30
100
AcDbLine
 10
-164.424153
 20
71.843696
 30
0.0
 11
-164.199631
 21
72.839328
 31
0.0
  0
ARC
  5
E5
330
B1
100
AcDbEntity
  8
0
  6
Continuous
 62
     0
370
    30
100
AcDbCircle
 10
-166.18254
 20
72.302994
 30
0.0
 40
1.551711482470669
100
AcDbArc
 50
178.524457
 51
259.574591
  0
ARC
  5
E6
330
B1
100
AcDbEntity
  8
0
  6
Continuous
 62
     0
370
    30
100
AcDbCircle
 10
-165.540067
 20
71.732948
 30
0.0
 40
1.063381972737468
100
AcDbArc
 50
325.602132
 51
347.82596
  0
SPLINE
  5
E7
330
B1
100
AcDbEntity
  8
0
  6
Continuous
 62
     0
370
    30
100
AcDbSpline
210
0.0
220
0.0
230
1.0
 70
     8
 71
     3
 72
    17
 73
    13
 74
     0
 42
0.000000001
 43
0.0
 40
0.0
 40
0.0
 40
0.0
 40
0.0
 40
0.8483286207538254
 40
2.133548256909105
 40
3.403969632341086
 40
5.817352911031912
 40
9.090003596091341
 40
12.53243883052361
 40
16.1529983689113
 40
17.07317138196545
 40
18.16120298551103
 40
19.24709656546712
 40
19.24709656546712
 40
19.24709656546712
 40
19.24709656546712
 10
-156.6372285404934
 20
110.1723522539704
 30
0.0
 10
-156.5395735593922
 20
110.4306016539997
 30
0.0
 10
-156.2765927344442
 20
111.094856419161
 30
0.0
 10
-155.8166221661775
 20
112.129304672279
 30
0.0
 10
-155.0622412995031
 20
113.6054164727102
 30
0.0
 10
-153.8284181491783
 20
115.5735918478769
 30
0.0
 10
-151.7898904053072
 20
117.8576564705072
 30
0.0
 10
-148.91804334893
 20
119.8140605302188
 30
0.0
 10
-146.3892171590292
 20
120.701985026342
 30
0.0
 10
-144.5507719208733
 20
121.0821460733834
 30
0.0
 10
-143.5294494232639
 20
121.2217423581397
 30
0.0
 10
-142.8088548733854
 20
121.3176561963437
 30
0.0
 10
-142.4469355699339
 20
121.3233349207821
 30
0.0
  0
LINE
  5
E8
330
B1
100
AcDbEntity
  8
0
  6
Continuous
 62
     0
370
    30
100
AcDbLine
 10
-149.301455
 20
165.377126
 30
0.0
 11
-133.443788
 21
165.377126
 31
0.0
  0
ENDBLK
  5
EA
330
B1
100
AcDbEntity
  8
0
100
AcDbBlockEnd
  0
BLOCK
  5
127
330
EC
100
AcDbEntity
  8
0
100
AcDbBlockBegin
  2
c
 70
     0
 10
295.163696
 20
0.0
 30
0.0
  3
c
  1

  0
LINE
  5
ED
330
EC
100
AcDbEntity
  8
0
  6
Continuous
 62
     0
370
    30
100
AcDbLine
 10
402.713226
 20
165.483419
 30
0.0
 11
402.713226
 21
121.283419
 31
0.0
  0
LINE
  5
EE
330
EC
100
AcDbEntity
  8
0
  6
Continuous
 62
     0
370
    30
100
AcDbLine
 10
394.413226
 20
232.383419
 30
0.0
 11
394.413226
 21
143.383419
 31
0.0
  0
LINE
  5
EF
330
EC
100
AcDbEntity
  8
0
  6
Continuous
 62
     0
370
    30
100
AcDbLine
 10
394.413226
 20
143.383419
 30
0.0
 11
394.413226
 21
54.383419
 31
0.0
  0
LINE
  5
F0
330
EC
100
AcDbEntity
  8
0
  6
Continuous
 62
     0
370
     0
100
AcDbLine
 10
393.413226
 20
233.383419
 30
0.0
 11
393.413226
 21
143.383419
 31
0.0
  0
LINE
  5
F1
330
EC
100
AcDbEntity
  8
0
  6
Continuous
 62
     0
370
     0
100
AcDbLine
 10
393.413226
 20
143.383419
 30
0.0
 11
393.413226
 21
53.383419
 31
0.0
  0
LINE
  5
F2
330
EC
100
AcDbEntity
  8
0
  6
Continuous
 62
     0
370
    30
100
AcDbLine
 10
382.413226
 20
233.383419
 30
0.0
 11
382.413226
 21
143.383419
 31
0.0
  0
LINE
  5
F3
330
EC
100
AcDbEntity
  8
0
  6
Continuous
 62
     0
370
    30
100
AcDbLine
 10
382.413226
 20
143.383419
 30
0.0
 11
382.413226
 21
53.383419
 31
0.0
  0
LINE
  5
F4
330
EC
100
AcDbEntity
  8
0
  6
Continuous
 62
     0
370
    30
100
AcDbLine
 10
405.783624
 20
121.389712
 30
0.0
 11
417.220966
 21
121.389712
 31
0.0
  0
LINE
  5
F5
330
EC
100
AcDbEntity
  8
0
  6
Continuous
 62
     0
370
     0
100
AcDbLine
 10
429.115289
 20
165.377126
 30
0.0
 11
432.915039
 21
143.21943
 31
0.0
  0
ARC
  5
F6
330
EC
100
AcDbEntity
  8
0
  6
Continuous
 62
     0
370
    30
100
AcDbCircle
 10
419.778893
 20
98.438747
 30
0.0
 40
23.09306727518251
100
AcDbArc
 50
88.884623
 51
96.359477
  0
ARC
  5
F7
330
EC
100
AcDbEntity
  8
0
  6
Continuous
 62
     0
370
    30
100
AcDbCircle
 10
415.884016
 20
143.06157
 30
0.0
 40
10.10040632572504
100
AcDbArc
 50
160.100705
 51
179.899894
  0
SPLINE
  5
F8
330
EC
100
AcDbEntity
  8
0
  6
Continuous
 62
     0
370
    30
100
AcDbSpline
210
0.0
220
0.0
230
1.0
 70
     8
 71
     3
 72
    14
 73
    10
 74
     0
 42
0.000000001
 43
0.0
 40
0.0
 40
0.0
 40
0.0
 40
0.0
 40
3.341454141587596
 40
6.683510156799494
 40
10.02349257324499
 40
13.36048803168822
 40
16.6966807216606
 40
20.03403197351033
 40
23.37375397537684
 40
23.37375397537684
 40
23.37375397537684
 40
23.37375397537684
 10
437.6068264616076
 20
106.1733170538265
 30
0.0
 10
437.3931620000767
 20
107.2664493148717
 30
0.0
 10
436.7930226086219
 20
109.4203147947217
 30
0.0
 10
435.5184259778298
 20
112.5169368369387
 30
0.0
 10
433.8080592296917
 20
115.4041956986048
 30
0.0
 10
431.5523231126381
 20
117.9029722476916
 30
0.0
 10
428.7533937497706
 20
119.7845560015715
 30
0.0
 10
425.5874947505217
 20
120.9297582184287
 30
0.0
 10
423.371304501467
 20
121.2456911806306
 30
0.0
 10
422.260774812655
 20
121.3233351978619
 30
0.0
  0
LINE
  5
F9
330
EC
100
AcDbEntity
  8
0
  6
Continuous
 62
     0
370
     0
100
AcDbLine
 10
430.463491
 20
139.627254
 30
0.0
 11
432.133048
 21
139.627319
 31
0.0
  0
SPLINE
  5
FA
330
EC
100
AcDbEntity
  8
0
  6
Continuous
 62
     0
370
     0
100
AcDbSpline
210
0.0
220
0.0
230
1.0
 70
     8
 71
     3
 72
    18
 73
    14
 74
     0
 42
0.000000001
 43
0.0
 40
0.0
 40
0.0
 40
0.0
 40
0.0
 40
1.612020921592822
 40
3.22411683455244
 40
6.448183379388244
 40
9.672482443629375
 40
12.89652384406624
 40
16.12063455891718
 40
17.73307287272356
 40
19.34484000979756
 40
20.95705083966382
 40
21.76300101780322
 40
22.56861979264836
 40
22.56861979264836
 40
22.56861979264836
 40
22.56861979264836
 10
432.1330475848833
 20
139.6273188579582
 30
0.0
 10
432.2231011788995
 20
139.101206277515
 30
0.0
 10
432.4144144116019
 20
138.0597136277819
 30
0.0
 10
432.7722651718852
 20
135.9659601755626
 30
0.0
 10
433.2287760562208
 20
133.3567206622122
 30
0.0
 10
433.7757688947354
 20
130.225621486366
 30
0.0
 10
434.3208353276448
 20
127.0932153766596
 30
0.0
 10
434.7808444205639
 20
124.4810479881368
 30
0.0
 10
435.147818744854
 20
122.3869832292358
 30
0.0
 10
435.4270347232036
 20
120.8150523338564
 30
0.0
 10
435.6590723009326
 20
119.5024026882235
 30
0.0
 10
435.8455434604562
 20
118.4550836105491
 30
0.0
 10
435.9418879873617
 20
117.924747336025
 30
0.0
 10
435.9869846850277
 20
117.6653495592568
 30
0.0
  0
SPLINE
  5
FB
330
EC
100
AcDbEntity
  8
0
  6
Continuous
 62
     0
370
     0
100
AcDbSpline
210
0.0
220
0.0
230
1.0
 70
     8
 71
     3
 72
    17
 73
    13
 74
     0
 42
0.000000001
 43
0.0
 40
0.0
 40
0.0
 40
0.0
 40
0.0
 40
0.796876025657028
 40
1.59437571614975
 40
3.189591663228653
 40
4.784596642401474
 40
6.379767638693494
 40
9.568585047499527
 40
12.75731078586576
 40
15.94516772308054
 40
19.13264561178923
 40
22.31836371266836
 40
22.31836371266836
 40
22.31836371266836
 40
22.31836371266836
 10
435.9869846519955
 20
117.6653496726956
 30
0.0
 10
436.0256807494604
 20
117.4290655394059
 30
0.0
 10
436.0902764802229
 20
117.0101095765646
 30
0.0
 10
436.228876280994
 20
116.1328218652828
 30
0.0
 10
436.3848397393569
 20
115.0982240204135
 30
0.0
 10
436.5623232071196
 20
113.9017614443668
 30
0.0
 10
436.7783112054688
 20
112.3957230036254
 30
0.0
 10
437.0167812462598
 20
110.6721167970055
 30
0.0
 10
437.2519732396534
 20
108.9007354654017
 30
0.0
 10
437.4347366750544
 20
107.4815436971021
 30
0.0
 10
437.5574127976972
 20
106.5051655962997
 30
0.0
 10
437.6002747878276
 20
106.2072193143638
 30
0.0
 10
437.6068264931803
 20
106.173316891906
 30
0.0
  0
ARC
  5
FC
330
EC
100
AcDbEntity
  8
0
  6
Continuous
 62
     0
370
    30
100
AcDbCircle
 10
420.071403
 20
109.747203
 30
0.0
 40
11.78134931541652
100
AcDbArc
 50
79.290255
 51
89.229708
  0
SPLINE
  5
FD
330
EC
100
AcDbEntity
  8
0
  6
Continuous
 62
     0
370
    30
100
AcDbSpline
210
0.0
220
0.0
230
1.0
 70
     8
 71
     3
 72
     8
 73
     4
 74
     0
 42
0.000000001
 43
0.0
 40
0.0
 40
0.0
 40
0.0
 40
0.0
 40
1.0
 40
1.0
 40
1.0
 40
1.0
 10
446.2771625777659
 20
70.77690729914801
 30
0.0
 10
445.1277686689261
 20
70.56491120140751
 30
0.0
 10
444.4759637852562
 20
70.80334228741731
 30
0.0
 10
444.3146574016221
 20
71.50785121893219
 30
0.0
  0
SPLINE
  5
FE
330
EC
100
AcDbEntity
  8
0
  6
Continuous
 62
     0
370
    30
100
AcDbSpline
210
0.0
220
0.0
230
1.0
 70
     8
 71
     3
 72
    44
 73
    40
 74
     0
 42
0.000000001
 43
0.0
 40
0.0000895826433184
 40
0.0000895826433184
 40
0.0000895826433184
 40
0.0000895826433184
 40
1.455705552506579
 40
2.911589491455752
 40
5.824081540223627
 40
8.738562618644004
 40
11.65580985319745
 40
14.57578990662235
 40
16.03659608486232
 40
17.49778930288207
 40
20.42097080381651
 40
23.34485787363343
 40
29.19406413399674
 40
35.04490031177655
 40
40.89750583144499
 40
46.75217532138652
 40
52.60924050521431
 40
58.46889873474117
 40
61.39961580462718
 40
64.3307164339991
 40
67.26188709626257
 40
67.99463745970205
 40
68.72736871185101
 40
69.46006464945697
 40
70.192677557325
 40
70.92522637029062
 40
71.65766554636134
 40
72.38986921751011
 40
73.12154096573981
 40
73.85284092927583
 40
74.58380294677747
 40
76.04479523316759
 40
78.96357029080804
 40
81.87875183536413
 40
84.79115651375291
 40
87.70151606648814
 40
90.61036732559818
 40
92.064314958274
 40
93.51784755774796
 40
93.51784755774796
 40
93.51784755774796
 40
93.51784755774796
 10
447.5475693112876
 20
72.3429434912478
 30
0.0
 10
447.5345739128761
 20
72.82793090041467
 30
0.0
 10
447.5085802911794
 20
73.79799499428123
 30
0.0
 10
447.4284639881946
 20
75.73797397569606
 30
0.0
 10
447.2650678273033
 20
78.16134433542796
 30
0.0
 10
446.9579127896054
 20
81.0629574627101
 30
0.0
 10
446.5603214983873
 20
83.95808989956294
 30
0.0
 10
446.1777213620339
 20
86.36615898108202
 30
0.0
 10
445.8543963199613
 20
88.29137265380656
 30
0.0
 10
445.5287527456567
 20
90.21765329645356
 30
0.0
 10
445.1313374208437
 20
92.62858211154808
 30
0.0
 10
444.4967463429446
 20
96.48756619062655
 30
0.0
 10
443.717311223055
 20
101.3141614340551
 30
0.0
 10
442.7826583889018
 20
107.1054092495264
 30
0.0
 10
441.8387907660508
 20
112.8956424844466
 30
0.0
 10
440.8723634586602
 20
118.6835726372822
 30
0.0
 10
439.8701380464877
 20
124.4677927944676
 30
0.0
 10
438.9950301627391
 20
129.2828777855052
 30
0.0
 10
438.2640904670038
 20
133.1302556505599
 30
0.0
 10
437.6992729465001
 20
136.0128407248032
 30
0.0
 10
437.2620900991074
 20
138.1714569990328
 30
0.0
 10
436.9643972771657
 20
139.6087432551803
 30
0.0
 10
436.8143426699116
 20
140.3269548547862
 30
0.0
 10
436.6630478192108
 20
141.0447144947655
 30
0.0
 10
436.5104634032698
 20
141.7620630633627
 30
0.0
 10
436.3565851643259
 20
142.4788801740976
 30
0.0
 10
436.2014079207695
 20
143.1951682940741
 30
0.0
 10
436.0449462301069
 20
143.9107856706035
 30
0.0
 10
435.8870859935025
 20
144.6261411463966
 30
0.0
 10
435.7279023766096
 20
145.3407981332542
 30
0.0
 10
435.5138369268639
 20
146.2926652177974
 30
0.0
 10
435.1345990223963
 20
147.9557546221548
 30
0.0
 10
434.5756740053607
 20
150.3252299877302
 30
0.0
 10
433.8882611955453
 20
153.1608517846767
 30
0.0
 10
433.1488487645909
 20
155.978975283964
 30
0.0
 10
432.351133678065
 20
158.7773604475107
 30
0.0
 10
431.6381203111671
 20
161.0927452894772
 30
0.0
 10
431.0440731175199
 20
162.9362444376071
 30
0.0
 10
430.7402590738516
 20
163.8553296778615
 30
0.0
 10
430.5883736307262
 20
164.3148066621604
 30
0.0
  0
ARC
  5
FF
330
EC
100
AcDbEntity
  8
0
  6
Continuous
 62
     0
370
    30
100
AcDbCircle
 10
429.115289
 20
163.824626
 30
0.0
 40
1.552499994490263
100
AcDbArc
 50
18.405254
 51
90.0
  0
SPLINE
  5
100
330
EC
100
AcDbEntity
  8
0
  6
Continuous
 62
     0
370
     0
100
AcDbSpline
210
0.0
220
0.0
230
1.0
 70
     8
 71
     3
 72
    21
 73
    17
 74
     0
 42
0.000000001
 43
0.0
 40
0.0
 40
0.0
 40
0.0
 40
0.0
 40
0.7625472699044984
 40
1.527870988522846
 40
3.068173238571163
 40
6.184644795374176
 40
7.762267914638144
 40
9.344689078241554
 40
10.92485328317408
 40
12.49648425405301
 40
15.59751546688465
 40
18.64952673578841
 40
21.66346482859164
 40
23.1602384496008
 40
23.90640253390963
 40
24.65139873213821
 40
24.65139873213821
 40
24.65139873213821
 40
24.65139873213821
 10
446.2771625777648
 20
70.77690729914829
 30
0.0
 10
446.2772045947956
 20
70.7766795796287
 30
0.0
 10
446.275441016023
 20
70.7862414732366
 30
0.0
 10
446.2646462400744
 20
70.84476861999187
 30
0.0
 10
446.224475875905
 20
71.06256372609799
 30
0.0
 10
446.1212225853706
 20
71.6223800477899
 30
0.0
 10
445.9495294457886
 20
72.5532614241793
 30
0.0
 10
445.7856964610712
 20
73.44152662468099
 30
0.0
 10
445.5907233129815
 20
74.49862654411078
 30
0.0
 10
445.2985757046899
 20
76.08258402507185
 30
0.0
 10
444.8870880404004
 20
78.31357569480244
 30
0.0
 10
444.3585202568258
 20
81.17934861182641
 30
0.0
 10
443.9062163790968
 20
83.63163603719175
 30
0.0
 10
443.5881899752301
 20
85.35590188589745
 30
0.0
 10
443.4067553011021
 20
86.33959885308306
 30
0.0
 10
443.315977848855
 20
86.83177326314554
 30
0.0
 10
443.2706246714663
 20
87.07766773113525
 30
0.0
  0
LINE
  5
101
330
EC
100
AcDbEntity
  8
0
  6
Continuous
 62
     0
370
     0
100
AcDbLine
 10
434.424267
 20
143.494713
 30
0.0
 11
435.082583
 21
139.924039
 31
0.0
  0
LINE
  5
102
330
EC
100
AcDbEntity
  8
0
  6
Continuous
 62
     0
370
     0
100
AcDbLine
 10
435.082583
 20
139.924039
 30
0.0
 11
444.75165
 21
87.501586
 31
0.0
  0
LINE
  5
103
330
EC
100
AcDbEntity
  8
0
  6
Continuous
 62
     0
370
     0
100
AcDbLine
 10
430.588374
 20
164.314807
 30
0.0
 11
434.424267
 21
143.494713
 31
0.0
  0
LINE
  5
104
330
EC
100
AcDbEntity
  8
0
  6
Continuous
 62
     0
370
     0
100
AcDbLine
 10
441.489639
 20
86.81895
 30
0.0
 11
435.986801
 21
117.665317
 31
0.0
  0
LINE
  5
105
330
EC
100
AcDbEntity
  8
0
  6
Continuous
 62
     0
370
     0
100
AcDbLine
 10
432.133054
 20
139.627274
 30
0.0
 11
433.577628
 21
139.627274
 31
0.0
  0
LINE
  5
106
330
EC
100
AcDbEntity
  8
0
  6
Continuous
 62
     0
370
     0
100
AcDbLine
 10
433.577628
 20
139.627275
 30
0.0
 11
432.915039
 21
143.21943
 31
0.0
  0
LINE
  5
107
330
EC
100
AcDbEntity
  8
0
  6
Continuous
 62
     0
370
     0
100
AcDbLine
 10
434.424213
 20
143.494704
 30
0.0
 11
432.915039
 21
143.21943
 31
0.0
  0
SPLINE
  5
108
330
EC
100
AcDbEntity
  8
0
  6
Continuous
 62
     0
370
    30
100
AcDbSpline
210
0.0
220
0.0
230
1.0
 70
     8
 71
     3
 72
     8
 73
     4
 74
     0
 42
0.000000001
 43
0.0
 40
0.2452083757113815
 40
0.2452083757113815
 40
0.2452083757113815
 40
0.2452083757113815
 40
34.96414840844451
 40
34.96414840844451
 40
34.96414840844451
 40
34.96414840844451
 10
437.6540904509003
 20
105.9327057091223
 30
0.0
 10
439.8595490959628
 20
94.57173027115734
 30
0.0
 10
441.6763840937266
 20
83.1292194775247
 30
0.0
 10
444.2380836996883
 20
71.84357281436041
 30
0.0
  0
LINE
  5
109
330
EC
100
AcDbEntity
  8
0
  6
Continuous
 62
     0
370
     0
100
AcDbLine
 10
443.270636
 20
87.07767
 30
0.0
 11
437.594158
 21
117.852084
 31
0.0
  0
LINE
  5
10A
330
EC
100
AcDbEntity
  8
0
  6
Continuous
 62
     0
370
     0
100
AcDbLine
 10
430.46362
 20
139.627239
 30
0.0
 11
430.453468
 21
139.593065
 31
0.0
  0
SPLINE
  5
10B
330
EC
100
AcDbEntity
  8
0
  6
Continuous
 62
     0
370
     0
100
AcDbSpline
210
0.0
220
0.0
230
1.0
 70
     8
 71
     3
 72
    14
 73
    10
 74
     0
 42
0.000000001
 43
0.0
 40
0.0
 40
0.0
 40
0.0
 40
0.0
 40
4.305752570864016
 40
8.613374848912237
 40
12.92162771954973
 40
17.22963819116729
 40
21.53665408154191
 40
25.8418978419702
 40
30.14462411466674
 40
30.14462411466674
 40
30.14462411466674
 40
30.14462411466674
 10
430.4534680824709
 20
139.5930646116525
 30
0.0
 10
430.0546382710331
 20
138.2349693049868
 30
0.0
 10
429.0793427790998
 20
135.6078898729125
 30
0.0
 10
427.3452038480307
 20
132.0397250974759
 30
0.0
 10
425.510627229668
 20
128.867833165574
 30
0.0
 10
423.7229132657269
 20
126.1356592209584
 30
0.0
 10
422.1193567343046
 20
123.9088043574956
 30
0.0
 10
420.8582027320597
 20
122.2852715893954
 30
0.0
 10
420.3613464588846
 20
121.6870063611645
 30
0.0
 10
420.2284178240984
 20
121.5274389904293
 30
0.0
  0
LINE
  5
10C
330
EC
100
AcDbEntity
  8
0
  6
Continuous
 62
     0
370
     0
100
AcDbLine
 10
444.751684
 20
87.501592
 30
0.0
 11
447.547569
 21
72.342943
 31
0.0
  0
LINE
  5
10D
330
EC
100
AcDbEntity
  8
0
  6
Continuous
 62
     0
370
     0
100
AcDbLine
 10
437.594158
 20
117.852084
 30
0.0
 11
433.577628
 21
139.627274
 31
0.0
  0
SPLINE
  5
10E
330
EC
100
AcDbEntity
  8
0
  6
Continuous
 62
     0
370
     0
100
AcDbSpline
210
0.0
220
0.0
230
1.0
 70
     8
 71
     7
 72
    26
 73
    18
 74
     0
 42
0.000000001
 43
0.0
 40
0.0
 40
0.0
 40
0.0
 40
0.0
 40
0.0
 40
0.0
 40
0.0
 40
0.0
 40
0.2499999999999937
 40
0.2499999999999937
 40
0.2499999999999937
 40
0.2499999999999937
 40
0.2499999999999937
 40
0.512499999999987
 40
0.512499999999987
 40
0.512499999999987
 40
0.512499999999987
 40
0.512499999999987
 40
0.9999999999999749
 40
0.9999999999999749
 40
0.9999999999999749
 40
0.9999999999999749
 40
0.9999999999999749
 40
0.9999999999999749
 40
0.9999999999999749
 40
0.9999999999999749
 10
435.9868014349788
 20
117.6653168730823
 30
0.0
 10
435.9922631174579
 20
117.6484602925995
 30
0.0
 10
435.9976538628862
 20
117.6315907774324
 30
0.0
 10
436.0042892626639
 20
117.6152961514441
 30
0.0
 10
436.0146735244125
 20
117.6007035831304
 30
0.0
 10
436.0278968100881
 20
117.5872297084834
 30
0.0
 10
436.0797011563179
 20
117.5699174371679
 30
0.0
 10
436.1877685581987
 20
117.5792180377197
 30
0.0
 10
436.26055465081
 20
117.5930855383712
 30
0.0
 10
436.3329461480616
 20
117.6085746826191
 30
0.0
 10
436.4082888240173
 20
117.6247027824779
 30
0.0
 10
436.6265186936507
 20
117.6717700455668
 30
0.0
 10
436.8510486671482
 20
117.7181290032631
 30
0.0
 10
436.9973154179027
 20
117.745985324984
 30
0.0
 10
437.1451817204327
 20
117.772793462818
 30
0.0
 10
437.293516486611
 20
117.798489309011
 30
0.0
 10
437.4440007816379
 20
117.8243903195934
 30
0.0
 10
437.5941583495246
 20
117.852083606577
 30
0.0
  0
LINE
  5
10F
330
EC
100
AcDbEntity
  8
0
  6
Continuous
 62
     0
370
     0
100
AcDbLine
 10
433.577628
 20
139.627274
 30
0.0
 11
435.082783
 21
139.924072
 31
0.0
  0
LINE
  5
110
330
EC
100
AcDbEntity
  8
0
  6
Continuous
 62
     0
370
     0
100
AcDbLine
 10
432.915039
 20
143.21943
 30
0.0
 11
431.519053
 21
143.092927
 31
0.0
  0
LINE
  5
111
330
EC
100
AcDbEntity
  8
0
  6
Continuous
 62
     0
370
     0
100
AcDbLine
 10
431.519053
 20
143.092927
 30
0.0
 11
430.595923
 21
140.071531
 31
0.0
  0
LINE
  5
112
330
EC
100
AcDbEntity
  8
0
  6
Continuous
 62
     0
370
     0
100
AcDbLine
 10
430.595923
 20
140.071531
 30
0.0
 11
430.46362
 21
139.627239
 31
0.0
  0
SPLINE
  5
113
330
EC
100
AcDbEntity
  8
0
  6
Continuous
 62
     0
370
    30
100
AcDbSpline
210
0.0
220
0.0
230
1.0
 70
    12
 71
     2
 72
     6
 73
     3
 74
     0
 42
0.000000001
 43
0.0
 40
0.0
 40
0.0
 40
0.0
 40
0.2475618167315173
 40
0.2475618167315173
 40
0.2475618167315173
 10
405.7836239084604
 20
121.389711596959
 30
0.0
 41
1.0
 10
405.7836248566296
 20
121.3897113466104
 30
0.0
 41
0.7099632905687996
 10
405.783624869744
 20
143.0792172846249
 30
0.0
 41
0.9943426987825525
  0
LINE
  5
114
330
EC
100
AcDbEntity
  8
0
  6
Continuous
 62
     0
370
    30
100
AcDbLine
 10
406.386681
 20
146.499425
 30
0.0
 11
413.25642
 21
165.37382
 31
0.0
  0
SPLINE
  5
115
330
EC
100
AcDbEntity
  8
0
  6
Continuous
 62
     0
370
     0
100
AcDbSpline
210
0.0
220
0.0
230
1.0
 70
     8
 71
     3
 72
    11
 73
     7
 74
     0
 42
0.000000001
 43
0.0
 40
0.0
 40
0.0
 40
0.0
 40
0.0
 40
0.5463209427519092
 40
1.092641883762446
 40
1.638962823031614
 40
2.183354679579053
 40
2.183354679579053
 40
2.183354679579053
 40
2.183354679579053
 10
443.2706246714663
 20
87.07766773113525
 30
0.0
 10
443.4497109690144
 20
87.11069870733157
 30
0.0
 10
443.8097270212211
 20
87.1846290822737
 30
0.0
 10
444.2765581942067
 20
87.3032452083925
 30
0.0
 10
444.6150619360312
 20
87.4152276563276
 30
0.0
 10
444.7274413114069
 20
87.47648760150766
 30
0.0
 10
444.7516840683397
 20
87.50159179345776
 30
0.0
  0
LINE
  5
116
330
EC
100
AcDbEntity
  8
0
  6
Continuous
 62
     0
370
    30
100
AcDbLine
 10
444.314657
 20
71.507851
 30
0.0
 11
441.489639
 21
86.81895
 31
0.0
  0
SPLINE
  5
117
330
EC
100
AcDbEntity
  8
0
  6
Continuous
 62
     0
370
     0
100
AcDbSpline
210
0.0
220
0.0
230
1.0
 70
     8
 71
     3
 72
     8
 73
     4
 74
     0
 42
0.000000001
 43
0.0
 40
0.0
 40
0.0
 40
0.0
 40
0.0
 40
1.0
 40
1.0
 40
1.0
 40
1.0
 10
441.4896392497155
 20
86.8189495085328
 30
0.0
 10
441.5033708122228
 20
86.74466759225525
 30
0.0
 10
442.0920925581186
 20
86.86029729890055
 30
0.0
 10
443.2706246714663
 20
87.07766773113525
 30
0.0
  0
LINE
  5
118
330
EC
100
AcDbEntity
  8
0
  6
Continuous
 62
     0
370
    30
100
AcDbLine
 10
402.713226
 20
165.483419
 30
0.0
 11
394.413226
 21
165.483419
 31
0.0
  0
ARC
  5
119
330
EC
100
AcDbEntity
  8
0
  6
Continuous
 62
     0
370
    30
100
AcDbCircle
 10
401.34332
 20
143.279242
 30
0.0
 40
20.49999999998353
100
AcDbArc
 50
59.778493
 51
86.168371
  0
LINE
  5
11A
330
EC
100
AcDbEntity
  8
0
  6
Continuous
 62
     0
370
    30
100
AcDbLine
 10
393.413226
 20
53.383419
 30
0.0
 11
382.413226
 21
53.383419
 31
0.0
  0
LINE
  5
11B
330
EC
100
AcDbEntity
  8
0
  6
Continuous
 62
     0
370
    30
100
AcDbLine
 10
393.413226
 20
233.383419
 30
0.0
 11
382.413226
 21
233.383419
 31
0.0
  0
ARC
  5
11C
330
EC
100
AcDbEntity
  8
0
  6
Continuous
 62
     0
370
    30
100
AcDbCircle
 10
393.413214
 20
54.383431
 30
0.0
 40
1.000011948235074
100
AcDbArc
 50
270.000685
 51
359.999315
  0
ARC
  5
11D
330
EC
100
AcDbEntity
  8
0
  6
Continuous
 62
     0
370
    30
100
AcDbCircle
 10
393.413214
 20
232.383407
 30
0.0
 40
1.000011948399048
100
AcDbArc
 50
0.000685
 51
89.999315
  0
LINE
  5
11E
330
EC
100
AcDbEntity
  8
0
  6
Continuous
 62
     0
370
    30
100
AcDbLine
 10
402.713226
 20
121.283419
 30
0.0
 11
394.413226
 21
121.283419
 31
0.0
  0
ARC
  5
11F
330
EC
100
AcDbEntity
  8
0
  6
Continuous
 62
     0
370
    30
100
AcDbCircle
 10
401.34332
 20
143.487596
 30
0.0
 40
20.4999999975554
100
AcDbArc
 50
273.831629
 51
282.509425
  0
LINE
  5
120
330
EC
100
AcDbEntity
  8
0
  6
Continuous
 62
     0
370
    30
100
AcDbLine
 10
444.238017
 20
71.843558
 30
0.0
 11
444.013458
 21
72.839357
 31
0.0
  0
LINE
  5
121
330
EC
100
AcDbEntity
  8
0
  6
Continuous
 62
     0
370
    30
100
AcDbLine
 10
437.604569
 20
106.186231
 30
0.0
 11
437.653623
 21
105.932615
 31
0.0
  0
LINE
  5
122
330
EC
100
AcDbEntity
  8
0
  6
Continuous
 62
     0
370
    30
100
AcDbLine
 10
444.237986
 20
71.843696
 30
0.0
 11
444.013465
 21
72.839328
 31
0.0
  0
ARC
  5
123
330
EC
100
AcDbEntity
  8
0
  6
Continuous
 62
     0
370
    30
100
AcDbCircle
 10
445.353895
 20
71.732946
 30
0.0
 40
1.063376382705936
100
AcDbArc
 50
192.174005
 51
214.398543
  0
ARC
  5
124
330
EC
100
AcDbEntity
  8
0
  6
Continuous
 62
     0
370
    30
100
AcDbCircle
 10
445.996374
 20
72.302994
 30
0.0
 40
1.55171148281135
100
AcDbArc
 50
280.425409
 51
1.475543
  0
SPLINE
  5
125
330
EC
100
AcDbEntity
  8
0
  6
Continuous
 62
     0
370
    30
100
AcDbSpline
210
0.0
220
0.0
230
1.0
 70
     8
 71
     3
 72
    17
 73
    13
 74
     0
 42
0.000000001
 43
0.0
 40
0.0
 40
0.0
 40
0.0
 40
0.0
 40
0.8483282170931523
 40
2.133526409295893
 40
3.403926792736582
 40
5.817310400319948
 40
9.089958911375946
 40
12.5323907017433
 40
16.15294797610452
 40
17.07312078911716
 40
18.16118436750812
 40
19.24710992787886
 40
19.24710992787886
 40
19.24710992787886
 40
19.24710992787886
 10
436.4510665822991
 20
110.1723398137194
 30
0.0
 10
436.3534118644041
 20
110.4305889029941
 30
0.0
 10
436.0904339642886
 20
111.0948372949838
 30
0.0
 10
435.6304702435241
 20
112.1292728098901
 30
0.0
 10
434.8760987600881
 20
113.6053736310934
 30
0.0
 10
433.6422855557466
 20
115.5735461431943
 30
0.0
 10
431.6037678516216
 20
117.8576171648185
 30
0.0
 10
428.7319318991565
 20
119.8140326676912
 30
0.0
 10
426.2031113028333
 20
120.7019675344991
 30
0.0
 10
424.3646578062792
 20
121.0821371688974
 30
0.0
 10
423.3433145961321
 20
121.2217391609369
 30
0.0
 10
422.6226988581536
 20
121.3176553757723
 30
0.0
 10
422.2607689064864
 20
121.3233349207335
 30
0.0
  0
LINE
  5
126
330
EC
100
AcDbEntity
  8
0
  6
Continuous
 62
     0
370
    30
100
AcDbLine
 10
429.115289
 20
165.377126
 30
0.0
 11
413.257621
 21
165.377126
 31
0.0
  0
ENDBLK
  5
128
330
EC
100
AcDbEntity
  8
0
100
AcDbBlockEnd
  0
BLOCK
  5
161
330
12A
100
AcDbEntity
  8
0
100
AcDbBlockBegin
  2
d
 70
     0
 10
0.0
 20
-70.91835
 30
0.0
  3
d
  1

  0
LINE
  5
12B
330
12A
100
AcDbEntity
  8
0
  6
Continuous
 62
     0
370
    30
100
AcDbLine
 10
156.746561
 20
-110.71043
 30
0.0
 11
134.646561
 21
-110.71043
 31
0.0
  0
LINE
  5
12C
330
12A
100
AcDbEntity
  8
0
  6
Continuous
 62
     0
370
    30
100
AcDbLine
 10
134.646561
 20
-110.71043
 30
0.0
 11
112.546561
 21
-110.71043
 31
0.0
  0
ARC
  5
12D
330
12A
100
AcDbEntity
  8
0
  6
Continuous
 62
     0
370
    30
100
AcDbCircle
 10
45.646573
 20
-101.410418
 30
0.0
 40
1.000011948241505
100
AcDbArc
 50
180.000685
 51
269.999315
  0
LINE
  5
12E
330
12A
100
AcDbEntity
  8
0
  6
Continuous
 62
     0
370
    30
100
AcDbLine
 10
44.646561
 20
-101.41043
 30
0.0
 11
44.646561
 21
-90.41043
 31
0.0
  0
LINE
  5
12F
330
12A
100
AcDbEntity
  8
0
  6
Continuous
 62
     0
370
    30
100
AcDbLine
 10
223.646561
 20
-102.41043
 30
0.0
 11
45.646561
 21
-102.41043
 31
0.0
  0
LINE
  5
130
330
12A
100
AcDbEntity
  8
0
  6
Continuous
 62
     0
370
     0
100
AcDbLine
 10
224.646561
 20
-101.41043
 30
0.0
 11
44.646561
 21
-101.41043
 31
0.0
  0
LINE
  5
131
330
12A
100
AcDbEntity
  8
0
  6
Continuous
 62
     0
370
    30
100
AcDbLine
 10
224.646561
 20
-90.41043
 30
0.0
 11
44.646561
 21
-90.41043
 31
0.0
  0
SPLINE
  5
132
330
12A
100
AcDbEntity
  8
0
  6
Continuous
 62
     0
370
     0
100
AcDbSpline
210
0.0
220
0.0
230
1.0
 70
     8
 71
     3
 72
    14
 73
    10
 74
     0
 42
0.000000001
 43
0.0
 40
0.0
 40
0.0
 40
0.0
 40
0.0
 40
4.985091455020036
 40
9.970147469987413
 40
14.95499429598456
 40
19.93965986576175
 40
24.92412306109084
 40
29.90843907769888
 40
34.89265281904024
 40
34.89265281904024
 40
34.89265281904024
 40
34.89265281904024
 10
156.6396722467497
 20
-140.9122418211928
 30
0.0
 10
156.6518740352576
 20
-140.623797162119
 30
0.0
 10
156.3077327785907
 20
-140.0691105240082
 30
0.0
 10
154.7080475230024
 20
-139.2607369584407
 30
0.0
 10
152.0969475240901
 20
-138.5359571259326
 30
0.0
 10
148.5958289390412
 20
-137.9262496481979
 30
0.0
 10
144.3728115719327
 20
-137.4651871527203
 30
0.0
 10
139.6434542033599
 20
-137.1776352636145
 30
0.0
 10
136.3079805045238
 20
-137.1124937840043
 30
0.0
 10
134.6465759240767
 20
-137.1124937840043
 30
0.0
  0
SPLINE
  5
133
330
12A
100
AcDbEntity
  8
0
  6
Continuous
 62
     0
370
     0
100
AcDbSpline
210
0.0
220
0.0
230
1.0
 70
     8
 71
     3
 72
    14
 73
    10
 74
     0
 42
0.000000001
 43
0.0
 40
0.0
 40
0.0
 40
0.0
 40
0.0
 40
4.984213741341139
 40
9.968529757949065
 40
14.9529929532775
 40
19.93765852305448
 40
24.92250534905095
 40
29.9075613640182
 40
34.89265281903797
 40
34.89265281903797
 40
34.89265281903797
 40
34.89265281903797
 10
134.6465759240766
 20
-137.1124937840043
 30
0.0
 10
132.9851713436296
 20
-137.1124937840043
 30
0.0
 10
129.6496976535655
 20
-137.1776352636175
 30
0.0
 10
124.9203403237087
 20
-137.4651871527117
 30
0.0
 10
120.6973230186955
 20
-137.9262496482161
 30
0.0
 10
117.1962045157093
 20
-138.5359571259507
 30
0.0
 10
114.5851046145258
 20
-139.2607369584323
 30
0.0
 10
112.9854194672755
 20
-140.0691105240101
 30
0.0
 10
112.6412782865791
 20
-140.623797162119
 30
0.0
 10
112.6534801128599
 20
-140.9122418211928
 30
0.0
  0
ARC
  5
134
330
12A
100
AcDbEntity
  8
0
  6
Continuous
 62
     0
370
    30
100
AcDbCircle
 10
116.52215
 20
-112.713228
 30
0.0
 40
4.011836752653346
100
AcDbArc
 50
195.433067
 51
204.609517
  0
ARC
  5
135
330
12A
100
AcDbEntity
  8
0
  6
Continuous
 62
     0
370
    30
100
AcDbCircle
 10
152.770895
 20
-112.713174
 30
0.0
 40
4.011954285627572
100
AcDbArc
 50
335.39047
 51
344.566586
  0
SPLINE
  5
136
330
12A
100
AcDbEntity
  8
0
  6
Continuous
 62
     0
370
     0
100
AcDbSpline
210
0.0
220
0.0
230
1.0
 70
     8
 71
     3
 72
     8
 73
     4
 74
     0
 42
0.000000001
 43
0.0
 40
0.0
 40
0.0
 40
0.0
 40
0.0
 40
3.653222443064012
 40
3.653222443064012
 40
3.653222443064012
 40
3.653222443064012
 10
155.3299957430258
 20
-142.4214704904823
 30
0.0
 10
155.3185077045827
 20
-142.6386098091125
 30
0.0
 10
155.0619554660863
 20
-142.8612432340149
 30
0.0
 10
154.926341923682
 20
-143.0797860427397
 30
0.0
  0
LINE
  5
137
330
12A
100
AcDbEntity
  8
0
  6
Continuous
 62
     0
370
     0
100
AcDbLine
 10
154.926342
 20
-143.079786
 30
0.0
 11
149.000693
 21
-152.748851
 31
0.0
  0
SPLINE
  5
138
330
12A
100
AcDbEntity
  8
0
  6
Continuous
 62
     0
370
     0
100
AcDbSpline
210
0.0
220
0.0
230
1.0
 70
     8
 71
     3
 72
    14
 73
    10
 74
     0
 42
0.000000001
 43
0.0
 40
0.0
 40
0.0
 40
0.0
 40
0.0
 40
3.357648776850948
 40
6.714049718873438
 40
10.06778576981203
 40
13.41760088284157
 40
16.76445100048878
 40
20.11421126264102
 40
23.4680066154798
 40
23.4680066154798
 40
23.4680066154798
 40
23.4680066154798
 10
149.0006931717325
 20
-152.7488510593141
 30
0.0
 10
148.8739691414593
 20
-152.9496851766437
 30
0.0
 10
148.519465232948
 20
-153.3524864241219
 30
0.0
 10
147.5925159889796
 20
-153.9390510395424
 30
0.0
 10
146.1435944629099
 20
-154.4922128925198
 30
0.0
 10
144.0336684461491
 20
-154.9728426370511
 30
0.0
 10
141.2342911520501
 20
-155.3236485544242
 30
0.0
 10
138.0072747319269
 20
-155.5111299945168
 30
0.0
 10
135.7645087820894
 20
-155.5447701482392
 30
0.0
 10
134.6465769978101
 20
-155.5447703894931
 30
0.0
  0
LINE
  5
139
330
12A
100
AcDbEntity
  8
0
  6
Continuous
 62
     0
370
     0
100
AcDbLine
 10
134.646577
 20
-155.54477
 30
0.0
 11
134.646575
 21
-138.585579
 31
0.0
  0
SPLINE
  5
13A
330
12A
100
AcDbEntity
  8
0
  6
Continuous
 62
     0
370
     0
100
AcDbSpline
210
0.0
220
0.0
230
1.0
 70
     8
 71
     3
 72
    14
 73
    10
 74
     0
 42
0.000000001
 43
0.0
 40
0.0
 40
0.0
 40
0.0
 40
0.0
 40
4.690236058132167
 40
9.37981662551812
 40
14.07059875637071
 40
18.76087985973197
 40
23.45161344181452
 40
28.14254872602786
 40
32.83347914028616
 40
32.83347914028616
 40
32.83347914028616
 40
32.83347914028616
 10
134.6465759362513
 20
-138.5855787291503
 30
0.0
 10
136.2099879556285
 20
-138.5855780824529
 30
0.0
 10
139.3485403096475
 20
-138.6513872814476
 30
0.0
 10
143.7974527706427
 20
-138.942556563982
 30
0.0
 10
147.7683437544345
 20
-139.4085489950082
 30
0.0
 10
151.0584352760578
 20
-140.0242571831357
 30
0.0
 10
153.5124579161124
 20
-140.7576594507998
 30
0.0
 10
155.013540036494
 20
-141.5670142696165
 30
0.0
 10
155.3447469906646
 20
-142.1426521459171
 30
0.0
 10
155.3299957430265
 20
-142.4214704904803
 30
0.0
  0
ARC
  5
13B
330
12A
100
AcDbEntity
  8
0
  6
Continuous
 62
     0
370
     0
100
AcDbCircle
 10
148.803598
 20
-151.259126
 30
0.0
 40
1.50274155515818
100
AcDbArc
 50
277.536674
 51
327.716762
  0
LINE
  5
13C
330
12A
100
AcDbEntity
  8
0
  6
Continuous
 62
     0
370
     0
100
AcDbLine
 10
134.646576
 20
-138.585579
 30
0.0
 11
134.646576
 21
-137.112494
 31
0.0
  0
SPLINE
  5
13D
330
12A
100
AcDbEntity
  8
0
  6
Continuous
 62
     0
370
     0
100
AcDbSpline
210
0.0
220
0.0
230
1.0
 70
     8
 71
     3
 72
     8
 73
     4
 74
     0
 42
0.000000001
 43
0.0
 40
0.0
 40
0.0
 40
0.0
 40
0.0
 40
3.653222443064017
 40
3.653222443064017
 40
3.653222443064017
 40
3.653222443064017
 10
113.9631566102294
 20
-142.4214704904823
 30
0.0
 10
113.974644676453
 20
-142.6386098091316
 30
0.0
 10
114.2311969420031
 20
-142.8612432339996
 30
0.0
 10
114.3668105119937
 20
-143.0797860427394
 30
0.0
  0
LINE
  5
13E
330
12A
100
AcDbEntity
  8
0
  6
Continuous
 62
     0
370
     0
100
AcDbLine
 10
114.366811
 20
-143.079786
 30
0.0
 11
120.29246
 21
-152.748851
 31
0.0
  0
SPLINE
  5
13F
330
12A
100
AcDbEntity
  8
0
  6
Continuous
 62
     0
370
     0
100
AcDbSpline
210
0.0
220
0.0
230
1.0
 70
     8
 71
     3
 72
    14
 73
    10
 74
     0
 42
0.000000001
 43
0.0
 40
0.0
 40
0.0
 40
0.0
 40
0.0
 40
4.690236058045282
 40
9.379816625478346
 40
14.07059875641934
 40
18.76087985972482
 40
23.45161344182408
 40
28.14254872603607
 40
32.83347914028536
 40
32.83347914028536
 40
32.83347914028536
 40
32.83347914028536
 10
134.6465759364229
 20
-138.5855787291503
 30
0.0
 10
133.0831639170746
 20
-138.5855780824527
 30
0.0
 10
129.9446115713317
 20
-138.6513872814539
 30
0.0
 10
125.4956991467753
 20
-138.9425565639933
 30
0.0
 10
121.5248082212909
 20
-139.4085489949859
 30
0.0
 10
118.234716776897
 20
-140.02425718315
 30
0.0
 10
115.7806942285772
 20
-140.757659450793
 30
0.0
 10
114.27961221006
 20
-141.5670142696295
 30
0.0
 10
113.948405326919
 20
-142.1426521458934
 30
0.0
 10
113.9631566102288
 20
-142.4214704904803
 30
0.0
  0
ARC
  5
140
330
12A
100
AcDbEntity
  8
0
  6
Continuous
 62
     0
370
     0
100
AcDbCircle
 10
114.189096
 20
-140.90248
 30
0.0
 40
1.535646868550486
100
AcDbArc
 50
180.364207
 51
261.539699
  0
ARC
  5
141
330
12A
100
AcDbEntity
  8
0
  6
Continuous
 62
     0
370
     0
100
AcDbCircle
 10
155.104057
 20
-140.902481
 30
0.0
 40
1.535646354106274
100
AcDbArc
 50
278.460284
 51
359.635809
  0
ARC
  5
142
330
12A
100
AcDbEntity
  8
0
  6
Continuous
 62
     0
370
     0
100
AcDbCircle
 10
154.696022
 20
-141.551237
 30
0.0
 40
1.54600595216183
100
AcDbArc
 50
278.568873
 51
328.380396
  0
SPLINE
  5
143
330
12A
100
AcDbEntity
  8
0
  6
Continuous
 62
     0
370
     0
100
AcDbSpline
210
0.0
220
0.0
230
1.0
 70
     8
 71
     3
 72
    14
 73
    10
 74
     0
 42
0.000000001
 43
0.0
 40
0.0
 40
0.0
 40
0.0
 40
0.0
 40
3.35765972703933
 40
6.714168333140146
 40
10.06786817318082
 40
13.41762334460883
 40
16.76451129115895
 40
20.11429153093615
 40
23.46810869271241
 40
23.46810869271241
 40
23.46810869271241
 40
23.46810869271241
 10
120.2924550488446
 20
-152.7488851817125
 30
0.0
 10
120.4193113123104
 20
-152.9496024174648
 30
0.0
 10
120.7736016624617
 20
-153.3526775127893
 30
0.0
 10
121.7009954898204
 20
-153.9391168989421
 30
0.0
 10
123.1493775898919
 20
-154.4919843423729
 30
0.0
 10
125.2595622285994
 20
-154.973074671914
 30
0.0
 10
128.0588015247875
 20
-155.3239257464377
 30
0.0
 10
131.2858490213467
 20
-155.5114932742276
 30
0.0
 10
133.528651079983
 20
-155.5449353431022
 30
0.0
 10
134.6465901217471
 20
-155.5447704978826
 30
0.0
  0
ARC
  5
144
330
12A
100
AcDbEntity
  8
0
  6
Continuous
 62
     0
370
     0
100
AcDbCircle
 10
114.59713
 20
-141.551237
 30
0.0
 40
1.546005948072743
100
AcDbArc
 50
211.61961
 51
261.431127
  0
SPLINE
  5
145
330
12A
100
AcDbEntity
  8
0
  6
Continuous
 62
     0
370
    30
100
AcDbSpline
210
0.0
220
0.0
230
1.0
 70
     8
 71
     3
 72
    14
 73
    10
 74
     0
 42
0.000000001
 43
0.0
 40
0.0
 40
0.0
 40
0.0
 40
0.0
 40
9.18456123342155
 40
18.36188666089488
 40
27.52979576487101
 40
36.69302645961226
 40
45.86094439878418
 40
55.03829037776858
 40
64.2228085122743
 40
64.2228085122743
 40
64.2228085122743
 40
64.2228085122743
 10
112.8747210665082
 20
-114.3838846586023
 30
0.0
 10
113.2827906899875
 20
-115.4216246046935
 30
0.0
 10
115.2507166383266
 20
-117.4658241953061
 30
0.0
 10
121.3674057404501
 20
-119.9151514202808
 30
0.0
 10
129.9057306479689
 20
-121.3117594622524
 30
0.0
 10
139.3874379486586
 20
-121.3117672768856
 30
0.0
 10
147.9257649130104
 20
-119.91511876968
 30
0.0
 10
154.0424500141399
 20
-117.465847384565
 30
0.0
 10
156.0103623007065
 20
-115.4216028732055
 30
0.0
 10
156.4184309395019
 20
-114.3838797492272
 30
0.0
  0
ARC
  5
146
330
12A
100
AcDbEntity
  8
0
  6
Continuous
 62
     0
370
     0
100
AcDbCircle
 10
120.489483
 20
-151.259307
 30
0.0
 40
1.502551957093007
100
AcDbArc
 50
212.278918
 51
262.465163
  0
LINE
  5
147
330
12A
100
AcDbEntity
  8
0
  6
Continuous
 62
     0
370
    30
100
AcDbLine
 10
112.654973
 20
-113.780828
 30
0.0
 11
114.739724
 21
-113.780828
 31
0.0
  0
LINE
  5
148
330
12A
100
AcDbEntity
  8
0
  6
Continuous
 62
     0
370
    30
100
AcDbLine
 10
154.553398
 20
-113.780828
 30
0.0
 11
156.63818
 21
-113.780828
 31
0.0
  0
LINE
  5
149
330
12A
100
AcDbEntity
  8
0
  6
Continuous
 62
     0
370
     0
100
AcDbLine
 10
112.874721
 20
-114.383885
 30
0.0
 11
115.127957
 21
-114.383884
 31
0.0
  0
LINE
  5
14A
330
12A
100
AcDbEntity
  8
0
  6
Continuous
 62
     0
370
     0
100
AcDbLine
 10
154.165165
 20
-114.38388
 30
0.0
 11
156.418431
 21
-114.38388
 31
0.0
  0
ARC
  5
14B
330
12A
100
AcDbEntity
  8
0
  6
Continuous
 62
     0
370
    30
100
AcDbCircle
 10
151.046442
 20
-111.949617
 30
0.0
 40
3.956270001270508
100
AcDbArc
 50
322.026826
 51
332.427991
  0
ARC
  5
14C
330
12A
100
AcDbEntity
  8
0
  6
Continuous
 62
     0
370
    30
100
AcDbCircle
 10
118.25811
 20
-111.942272
 30
0.0
 40
3.969802453913785
100
AcDbArc
 50
207.589618
 51
217.955289
  0
SPLINE
  5
14D
330
12A
100
AcDbEntity
  8
0
  6
Continuous
 62
     0
370
    30
100
AcDbSpline
210
0.0
220
0.0
230
1.0
 70
     8
 71
     3
 72
    15
 73
    11
 74
     0
 42
0.000000001
 43
0.0
 40
0.0
 40
0.0
 40
0.0
 40
0.0
 40
2.185046697670824
 40
5.575295056366198
 40
7.45287102208486
 40
10.34673182827688
 40
15.08660100493028
 40
19.51100575680345
 40
24.10631538952071
 40
26.83194968575057
 40
26.83194968575057
 40
26.83194968575057
 40
26.83194968575057
 10
134.6465606910414
 20
-119.6590833590965
 30
0.0
 10
135.3745538649103
 20
-119.6590976607001
 30
0.0
 10
137.2336337866506
 20
-119.6245035303089
 30
0.0
 10
139.6799777928198
 20
-119.4606208914477
 30
0.0
 10
142.2611843850494
 20
-119.163320042846
 30
0.0
 10
145.1321964120291
 20
-118.696481911926
 30
0.0
 10
148.3933348808955
 20
-117.8756768589842
 30
0.0
 10
151.3959946080717
 20
-116.6772781315055
 30
0.0
 10
153.2286314089106
 20
-115.485263761439
 30
0.0
 10
153.9550288932092
 20
-114.6859597764769
 30
0.0
 10
154.1651652640186
 20
-114.3838800032736
 30
0.0
  0
SPLINE
  5
14E
330
12A
100
AcDbEntity
  8
0
  6
Continuous
 62
     0
370
    30
100
AcDbSpline
210
0.0
220
0.0
230
1.0
 70
     8
 71
     3
 72
    15
 73
    11
 74
     0
 42
0.000000001
 43
0.0
 40
0.0
 40
0.0
 40
0.0
 40
0.0
 40
2.728838129486427
 40
7.323175539144906
 40
11.74570190627875
 40
16.48542702088446
 40
19.37918714769459
 40
21.25669539756685
 40
24.6468484373081
 40
26.83187610356775
 40
26.83187610356775
 40
26.83187610356775
 40
26.83187610356775
 10
115.1279568553314
 20
-114.383884404559
 30
0.0
 10
115.3383400493643
 20
-114.6863199736767
 30
0.0
 10
116.0651541238866
 20
-115.4858674070492
 30
0.0
 10
117.8984676282399
 20
-116.6787003269878
 30
0.0
 10
120.900700604519
 20
-117.8768832939588
 30
0.0
 10
124.1611998642137
 20
-118.6966681515983
 30
0.0
 10
127.0321173100189
 20
-119.1632557580017
 30
0.0
 10
129.6132426634639
 20
-119.4604723976968
 30
0.0
 10
132.0595312615147
 20
-119.6244031353742
 30
0.0
 10
133.9185738606896
 20
-119.6590690576172
 30
0.0
 10
134.6465606910414
 20
-119.6590833590965
 30
0.0
  0
LINE
  5
14F
330
12A
100
AcDbEntity
  8
0
  6
Continuous
 62
     0
370
    30
100
AcDbLine
 10
224.646561
 20
-101.41043
 30
0.0
 11
224.646561
 21
-90.41043
 31
0.0
  0
ARC
  5
150
330
12A
100
AcDbEntity
  8
0
  6
Continuous
 62
     0
370
    30
100
AcDbCircle
 10
223.646549
 20
-101.410418
 30
0.0
 40
1.000011948614871
100
AcDbArc
 50
270.000685
 51
359.999315
  0
LINE
  5
151
330
12A
100
AcDbEntity
  8
0
  6
Continuous
 62
     0
370
    30
100
AcDbLine
 10
112.546561
 20
-110.71043
 30
0.0
 11
112.546561
 21
-102.41043
 31
0.0
  0
LINE
  5
152
330
12A
100
AcDbEntity
  8
0
  6
Continuous
 62
     0
370
    30
100
AcDbLine
 10
156.746561
 20
-110.71043
 30
0.0
 11
156.746561
 21
-102.41043
 31
0.0
  0
ARC
  5
153
330
12A
100
AcDbEntity
  8
0
  6
Continuous
 62
     0
370
    30
100
AcDbCircle
 10
134.750738
 20
-109.340524
 30
0.0
 40
20.49999999874337
100
AcDbArc
 50
183.831629
 51
192.522827
  0
ARC
  5
154
330
12A
100
AcDbEntity
  8
0
  6
Continuous
 62
     0
370
    30
100
AcDbCircle
 10
134.542384
 20
-109.340524
 30
0.0
 40
20.50000000097866
100
AcDbArc
 50
347.477139
 51
356.168371
  0
LINE
  5
155
330
12A
100
AcDbEntity
  8
0
  6
Continuous
 62
     0
370
    30
100
AcDbLine
 10
112.652864
 20
-140.884173
 30
0.0
 11
112.654703
 21
-140.972885
 31
0.0
  0
LINE
  5
156
330
12A
100
AcDbEntity
  8
0
  6
Continuous
 62
     0
370
    30
100
AcDbLine
 10
113.26425
 20
-142.334911
 30
0.0
 11
113.279975
 21
-142.358795
 31
0.0
  0
ARC
  5
157
330
12A
100
AcDbEntity
  8
0
  6
Continuous
 62
     0
370
    30
100
AcDbCircle
 10
115.055555
 20
-140.723601
 30
0.0
 40
2.4138229776901
100
AcDbArc
 50
185.944169
 51
222.643058
  0
LINE
  5
158
330
12A
100
AcDbEntity
  8
0
  6
Continuous
 62
     0
370
    30
100
AcDbLine
 10
119.219111
 20
-152.061748
 30
0.0
 11
113.280625
 21
-142.36176
 31
0.0
  0
SPLINE
  5
159
330
12A
100
AcDbEntity
  8
0
  6
Continuous
 62
     0
370
    30
100
AcDbSpline
210
0.0
220
0.0
230
1.0
 70
     8
 71
     3
 72
    16
 73
    12
 74
     0
 42
0.000000001
 43
0.0
 40
0.0
 40
0.0
 40
0.0
 40
0.0
 40
1.43773514005676
 40
2.081603729474129
 40
3.752507183662622
 40
5.56610691575554
 40
8.76016785869104
 40
13.71034710937912
 40
15.03146131245071
 40
17.79839402709633
 40
23.92746954935685
 40
23.92746954935685
 40
23.92746954935685
 40
23.92746954935685
 10
119.2374616825529
 20
-152.0901776315648
 30
0.0
 10
119.2943746665584
 20
-152.1763600522322
 30
0.0
 10
119.4726796104339
 20
-152.428785650827
 30
0.0
 10
119.7778624405828
 20
-152.7600842152754
 30
0.0
 10
120.1786865147218
 20
-153.1228462182107
 30
0.0
 10
120.936544934902
 20
-153.6319739724727
 30
0.0
 10
122.3378539746595
 20
-154.2887133247234
 30
0.0
 10
124.2562563139608
 20
-154.7891092805778
 30
0.0
 10
126.6065382859119
 20
-155.1507632249609
 30
0.0
 10
129.6034239299181
 20
-155.463279667219
 30
0.0
 10
132.616719993002
 20
-155.5456045664987
 30
0.0
 10
134.6465901219871
 20
-155.5452581551974
 30
0.0
  0
SPLINE
  5
15A
330
12A
100
AcDbEntity
  8
0
  6
Continuous
 62
     0
370
    30
100
AcDbSpline
210
0.0
220
0.0
230
1.0
 70
     8
 71
     3
 72
    17
 73
    13
 74
     0
 42
0.000000001
 43
0.0
 40
0.0
 40
0.0
 40
0.0
 40
0.0
 40
6.415807714441303
 40
9.240101162273683
 40
10.6249021001186
 40
15.91625842103683
 40
18.26109240643607
 40
20.33910198844761
 40
21.30765492875699
 40
23.02289684321126
 40
23.4778340992398
 40
23.92773675465158
 40
23.92773675465158
 40
23.92773675465158
 40
23.92773675465158
 10
134.6465638745245
 20
-155.545258155197
 30
0.0
 10
136.769710034729
 20
-155.5456204846987
 30
0.0
 10
139.9060839214134
 20
-155.4555999328495
 30
0.0
 10
142.9760566350573
 20
-155.1142373863934
 30
0.0
 10
145.3846839000797
 20
-154.7183925731961
 30
0.0
 10
147.1178198473663
 20
-154.2239717560651
 30
0.0
 10
148.4512432085463
 20
-153.5713218182134
 30
0.0
 10
149.0615048845753
 20
-153.1589675260161
 30
0.0
 10
149.5302943383021
 20
-152.7494869356162
 30
0.0
 10
149.7860076229753
 20
-152.4742173897171
 30
0.0
 10
149.9928471822009
 20
-152.1861915184779
 30
0.0
 10
150.03785641879
 20
-152.1171857245565
 30
0.0
 10
150.0556920436772
 20
-152.0901775181683
 30
0.0
  0
LINE
  5
15B
330
12A
100
AcDbEntity
  8
0
  6
Continuous
 62
     0
370
    30
100
AcDbLine
 10
156.028903
 20
-142.334911
 30
0.0
 11
156.013177
 21
-142.358795
 31
0.0
  0
ARC
  5
15C
330
12A
100
AcDbEntity
  8
0
  6
Continuous
 62
     0
370
    30
100
AcDbCircle
 10
154.237598
 20
-140.723601
 30
0.0
 40
2.413822817376894
100
AcDbArc
 50
317.356946
 51
354.055838
  0
LINE
  5
15D
330
12A
100
AcDbEntity
  8
0
  6
Continuous
 62
     0
370
    30
100
AcDbLine
 10
156.63845
 20
-140.972885
 30
0.0
 11
156.640288
 21
-140.884191
 31
0.0
  0
LINE
  5
15E
330
12A
100
AcDbEntity
  8
0
  6
Continuous
 62
     0
370
    30
100
AcDbLine
 10
150.074043
 20
-152.061748
 30
0.0
 11
156.012528
 21
-142.36176
 31
0.0
  0
LINE
  5
15F
330
12A
100
AcDbEntity
  8
0
  6
Continuous
 62
     0
370
    30
100
AcDbLine
 10
156.640284
 20
-140.883445
 30
0.0
 11
156.640284
 21
-113.785526
 31
0.0
  0
LINE
  5
160
330
12A
100
AcDbEntity
  8
0
  6
Continuous
 62
     0
370
    30
100
AcDbLine
 10
112.652869
 20
-140.883444
 30
0.0
 11
112.652869
 21
-113.785526
 31
0.0
  0
ENDBLK
  5
162
330
12A
100
AcDbEntity
  8
0
100
AcDbBlockEnd
  0
BLOCK
  5
1A6
330
164
100
AcDbEntity
  8
0
100
AcDbBlockBegin
  2
e
 70
     0
 10
321.972473
 20
-225.353455
 30
0.0
  3
e
  1

  0
ELLIPSE
  5
165
330
164
100
AcDbEntity
  8
0
  6
Continuous
 62
     0
370
    30
100
AcDbEllipse
 10
385.559323
 20
-120.464275
 30
0.0
 11
7.536328315025569
 21
-18.90307529287613
 31
0.0
210
0.0
220
0.0
230
1.0
 40
0.590412
 41
0.3092079376907151
 42
2.680988833538696
  0
ELLIPSE
  5
166
330
164
100
AcDbEntity
  8
0
  6
Continuous
 62
     0
370
    30
100
AcDbEllipse
 10
385.559323
 20
-120.464275
 30
0.0
 11
7.536328315025569
 21
-18.90307529287613
 31
0.0
210
0.0
220
0.0
230
1.0
 40
0.590412
 41
2.680988833538696
 42
3.190605456498468
  0
ELLIPSE
  5
167
330
164
100
AcDbEntity
  8
0
  6
Continuous
 62
     0
370
    30
100
AcDbEllipse
 10
385.559323
 20
-120.464275
 30
0.0
 11
8.184415531705008
 21
-20.52864691623772
 31
0.0
210
0.0
220
0.0
230
1.0
 40
0.590412
 41
6.16267132141287
 42
8.96417414071828
  0
ELLIPSE
  5
168
330
164
100
AcDbEntity
  8
0
  6
Continuous
 62
     0
370
    30
100
AcDbEllipse
 10
385.559323
 20
-120.464275
 30
0.0
 11
8.184415531705008
 21
-20.52864691623772
 31
0.0
210
0.0
220
0.0
230
1.0
 40
0.590412
 41
2.680988833538693
 42
3.479240353716215
  0
ELLIPSE
  5
169
330
164
100
AcDbEntity
  8
0
  6
Continuous
 62
     0
370
     0
100
AcDbEllipse
 10
391.781962
 20
-117.983417
 30
0.0
 11
32.95986339249512
 21
-82.67192634230837
 31
0.0
210
0.0
220
0.0
230
1.0
 40
0.590412
 41
5.346018709231313
 42
10.53497046751318
  0
ELLIPSE
  5
16A
330
164
100
AcDbEntity
  8
0
  6
Continuous
 62
     0
370
     0
100
AcDbEllipse
 10
391.781962
 20
-117.983417
 30
0.0
 11
32.95986339249512
 21
-82.67192634230837
 31
0.0
210
0.0
220
0.0
230
1.0
 40
0.590412
 41
4.25178516033359
 42
4.865081096410368
  0
ELLIPSE
  5
16B
330
164
100
AcDbEntity
  8
0
  6
Continuous
 62
     0
370
     0
100
AcDbEllipse
 10
392.531677
 20
-117.684519
 30
0.0
 11
33.33019893623101
 21
-83.60082439109836
 31
0.0
210
0.0
220
0.0
230
1.0
 40
0.590412
 41
-0.0000000059501177
 42
3.141592647639779
  0
ELLIPSE
  5
16C
330
164
100
AcDbEntity
  8
0
  6
Continuous
 62
     0
370
    30
100
AcDbEllipse
 10
400.778547
 20
-114.396635
 30
0.0
 11
33.33019893623101
 21
-83.60082439109836
 31
0.0
210
0.0
220
0.0
230
1.0
 40
0.590412
 41
-0.0000000059500129
 42
3.141592647639779
  0
SPLINE
  5
16D
330
164
100
AcDbEntity
  8
0
  6
Continuous
 62
     0
370
     0
100
AcDbSpline
210
0.0
220
0.0
230
1.0
 70
     8
 71
     3
 72
    14
 73
    10
 74
     0
 42
0.000000001
 43
0.0
 40
0.0
 40
0.0
 40
0.0
 40
0.0
 40
4.985091455020036
 40
9.970147469987413
 40
14.95499429598456
 40
19.93965986576175
 40
24.92412306109084
 40
29.90843907769888
 40
34.89265281904024
 40
34.89265281904024
 40
34.89265281904024
 40
34.89265281904024
 10
377.3559883996907
 20
-134.4169185017026
 30
0.0
 10
377.4362890512101
 20
-132.8126533392535
 30
0.0
 10
377.336900437887
 20
-129.513660602229
 30
0.0
 10
376.4808594345388
 20
-124.5633185275386
 30
0.0
 10
374.9391948101396
 20
-119.8454741984325
 30
0.0
 10
372.7872178275716
 20
-115.5996477224004
 30
0.0
 10
370.1264209724648
 20
-112.0455501450341
 30
0.0
 10
367.0925269686396
 20
-109.3745398912626
 30
0.0
 10
364.9202404650209
 20
-108.2780638691837
 30
0.0
 10
363.8305461592431
 20
-107.9175036933186
 30
0.0
  0
ARC
  5
16E
330
164
100
AcDbEntity
  8
0
  6
Continuous
 62
     0
370
     0
100
AcDbCircle
 10
360.748244
 20
-116.728445
 30
0.0
 40
9.334520551007145
100
AcDbArc
 50
70.7188
 51
112.420305
  0
ARC
  5
16F
330
164
100
AcDbEntity
  8
0
  6
Continuous
 62
     0
370
    30
100
AcDbCircle
 10
389.788664
 20
-127.115003
 30
0.0
 40
7.948460056631463
100
AcDbArc
 50
4.890732
 51
27.933463
  0
LINE
  5
170
330
164
100
AcDbEntity
  8
0
  6
Continuous
 62
     0
370
     0
100
AcDbLine
 10
379.2985
 20
-136.952327
 30
0.0
 11
378.000765
 21
-137.436062
 31
0.0
  0
SPLINE
  5
171
330
164
100
AcDbEntity
  8
0
  6
Continuous
 62
     0
370
     0
100
AcDbSpline
210
0.0
220
0.0
230
1.0
 70
     8
 71
     3
 72
    12
 73
     8
 74
     0
 42
0.000000001
 43
0.0
 40
0.0
 40
0.0
 40
0.0
 40
0.0
 40
1.61202092159282
 40
3.22411683455244
 40
6.448183379388242
 40
9.672482443629375
 40
9.728956221303985
 40
9.728956221303985
 40
9.728956221303985
 40
9.728956221303985
 10
378.000764789761
 20
-137.4360619223658
 30
0.0
 10
377.9389379454066
 20
-137.9384530524319
 30
0.0
 10
377.7634107719273
 20
-138.9225395236695
 30
0.0
 10
377.4649048716905
 20
-140.9042415306841
 30
0.0
 10
377.0560969740174
 20
-143.3674368905957
 30
0.0
 10
376.727361750055
 20
-145.3553759552718
 30
0.0
 10
376.5623975948755
 20
-146.3583059346769
 30
0.0
 10
376.559558225056
 20
-146.3755700227097
 30
0.0
  0
SPLINE
  5
172
330
164
100
AcDbEntity
  8
0
  6
Continuous
 62
     0
370
     0
100
AcDbSpline
210
0.0
220
0.0
230
1.0
 70
     8
 71
     3
 72
     8
 73
     4
 74
     0
 42
0.000000001
 43
0.0
 40
0.0
 40
0.0
 40
0.0
 40
0.0
 40
3.675194520389784
 40
3.675194520389784
 40
3.675194520389784
 40
3.675194520389784
 10
376.9092235339259
 20
-137.8650659513573
 30
0.0
 10
377.0580020165358
 20
-136.7156541250563
 30
0.0
 10
377.2891038662418
 20
-135.6007138435533
 30
0.0
 10
377.3559599998914
 20
-134.4169087852375
 30
0.0
  0
SPLINE
  5
173
330
164
100
AcDbEntity
  8
0
  6
Continuous
 62
     0
370
     0
100
AcDbSpline
210
0.0
220
0.0
230
1.0
 70
     8
 71
     7
 72
    26
 73
    18
 74
     0
 42
0.000000001
 43
0.0
 40
-0.0000000000000264
 40
-0.0000000000000264
 40
-0.0000000000000264
 40
-0.0000000000000264
 40
-0.0000000000000264
 40
-0.0000000000000264
 40
-0.0000000000000264
 40
-0.0000000000000264
 40
0.3899999999999839
 40
0.3899999999999839
 40
0.3899999999999839
 40
0.3899999999999839
 40
0.3899999999999839
 40
0.6436379999999904
 40
0.6436379999999904
 40
0.6436379999999904
 40
0.6436379999999904
 40
0.6436379999999904
 40
0.7021538707590199
 40
0.7021538707590199
 40
0.7021538707590199
 40
0.7021538707590199
 40
0.7021538707590199
 40
0.7021538707590199
 40
0.7021538707590199
 40
0.7021538707590199
 10
374.2009864713007
 20
-158.7673012027572
 30
0.0
 10
374.2929768175611
 20
-158.7519775832278
 30
0.0
 10
374.3781342420016
 20
-158.7332461651577
 30
0.0
 10
374.4581009953278
 20
-158.7132113884174
 30
0.0
 10
374.53655839909
 20
-158.6924514237759
 30
0.0
 10
374.6110646579804
 20
-158.672245571818
 30
0.0
 10
374.731003317819
 20
-158.6400416690131
 30
0.0
 10
374.8446239564196
 20
-158.6088207208415
 30
0.0
 10
374.8886654574026
 20
-158.5966839825388
 30
0.0
 10
374.9294689311853
 20
-158.5840164578023
 30
0.0
 10
374.9692126213895
 20
-158.5715803472672
 30
0.0
 10
375.0115453903928
 20
-158.5539334862839
 30
0.0
 10
375.036791727757
 20
-158.5309059684235
 30
0.0
 10
375.0408494906783
 20
-158.5263796989949
 30
0.0
 10
375.0441711504345
 20
-158.5216284135913
 30
0.0
 10
375.0466871090922
 20
-158.5166376306202
 30
0.0
 10
375.0483376758147
 20
-158.5113987344134
 30
0.0
 10
375.0490866254464
 20
-158.5059114269434
 30
0.0
  0
LINE
  5
174
330
164
100
AcDbEntity
  8
0
  6
Continuous
 62
     0
370
     0
100
AcDbLine
 10
376.909228
 20
-137.865068
 30
0.0
 11
374.200986
 21
-158.767301
 31
0.0
  0
LINE
  5
175
330
164
100
AcDbEntity
  8
0
  6
Continuous
 62
     0
370
     0
100
AcDbLine
 10
374.200986
 20
-158.767301
 30
0.0
 11
370.374092
 21
-188.308179
 31
0.0
  0
SPLINE
  5
176
330
164
100
AcDbEntity
  8
0
  6
Continuous
 62
     0
370
     0
100
AcDbSpline
210
0.0
220
0.0
230
1.0
 70
     8
 71
     7
 72
    21
 73
    13
 74
     0
 42
0.000000001
 43
0.0
 40
0.0
 40
0.0
 40
0.0
 40
0.0
 40
0.0
 40
0.0
 40
0.0
 40
0.0
 40
0.4874999999999879
 40
0.4874999999999879
 40
0.4874999999999879
 40
0.4874999999999879
 40
0.4874999999999879
 40
0.7186000778824714
 40
0.7186000778824714
 40
0.7186000778824714
 40
0.7186000778824714
 40
0.7186000778824714
 40
0.7186000778824714
 40
0.7186000778824714
 40
0.7186000778824714
 10
370.3740916558265
 20
-188.3081785578159
 30
0.0
 10
370.4967330774136
 20
-188.2877633397456
 30
0.0
 10
370.616000563248
 20
-188.2663296643827
 30
0.0
 10
370.7311282591544
 20
-188.2436410794203
 30
0.0
 10
370.8410284431255
 20
-188.2193396262515
 30
0.0
 10
370.9440563301019
 20
-188.1930283491465
 30
0.0
 10
371.0819696870336
 20
-188.1500735144398
 30
0.0
 10
371.1859031423384
 20
-188.0986350896916
 30
0.0
 10
371.2151510156894
 20
-188.0810993386397
 30
0.0
 10
371.2394202368686
 20
-188.0624610077341
 30
0.0
 10
371.2576193793548
 20
-188.0425755727755
 30
0.0
 10
371.2685075712075
 20
-188.021420948414
 30
0.0
 10
371.2713339934675
 20
-187.9991312532101
 30
0.0
  0
SPLINE
  5
177
330
164
100
AcDbEntity
  8
0
  6
Continuous
 62
     0
370
     0
100
AcDbSpline
210
0.0
220
0.0
230
1.0
 70
     8
 71
     3
 72
     8
 73
     4
 74
     0
 42
0.000000001
 43
0.0
 40
0.0
 40
0.0
 40
0.0
 40
0.0
 40
3.653222443064012
 40
3.653222443064012
 40
3.653222443064012
 40
3.653222443064012
 10
375.3412797616095
 20
-134.3279815896936
 30
0.0
 10
375.2763533209077
 20
-135.503826504511
 30
0.0
 10
375.0451716321604
 20
-136.6133220334742
 30
0.0
 10
374.8970856016393
 20
-137.7553065324454
 30
0.0
  0
LINE
  5
178
330
164
100
AcDbEntity
  8
0
  6
Continuous
 62
     0
370
     0
100
AcDbLine
 10
374.897086
 20
-137.755307
 30
0.0
 11
368.373
 21
-188.074524
 31
0.0
  0
SPLINE
  5
179
330
164
100
AcDbEntity
  8
0
  6
Continuous
 62
     0
370
     0
100
AcDbSpline
210
0.0
220
0.0
230
1.0
 70
     8
 71
     3
 72
    14
 73
    10
 74
     0
 42
0.000000001
 43
0.0
 40
0.0
 40
0.0
 40
0.0
 40
0.0
 40
3.357648776850948
 40
6.714049718873438
 40
10.06778576981203
 40
13.41760088284157
 40
16.76445100048878
 40
20.11421126264102
 40
23.4680066154798
 40
23.4680066154798
 40
23.4680066154798
 40
23.4680066154798
 10
368.3730004142675
 20
-188.0745240485891
 30
0.0
 10
368.2355292409121
 20
-189.1234354515512
 30
0.0
 10
367.8925709842539
 20
-191.1903143967144
 30
0.0
 10
367.1248224251772
 20
-194.1221446721168
 30
0.0
 10
366.0233495517016
 20
-196.7573404908333
 30
0.0
 10
364.5086781385357
 20
-198.8678925530407
 30
0.0
 10
362.5768080823467
 20
-200.1316035689305
 30
0.0
 10
360.4093080236485
 20
-200.4340058607688
 30
0.0
 10
358.928892156516
 20
-200.124310185643
 30
0.0
 10
358.1956546836489
 20
-199.8816959145763
 30
0.0
  0
SPLINE
  5
17A
330
164
100
AcDbEntity
  8
0
  6
Continuous
 62
     0
370
     0
100
AcDbSpline
210
0.0
220
0.0
230
1.0
 70
     8
 71
     3
 72
    44
 73
    40
 74
     0
 42
0.000000001
 43
0.0
 40
0.0000895826433184
 40
0.0000895826433184
 40
0.0000895826433184
 40
0.0000895826433184
 40
1.455705552506579
 40
2.911589491455752
 40
5.824081540223627
 40
8.738562618644004
 40
11.65580985319745
 40
14.57578990662235
 40
16.03659608486232
 40
17.49778930288207
 40
20.42097080381651
 40
23.34485787363343
 40
29.19406413399674
 40
35.04490031177655
 40
40.89750583144499
 40
46.75217532138652
 40
52.60924050521431
 40
58.46889873474117
 40
61.39961580462718
 40
64.3307164339991
 40
67.26188709626257
 40
67.99463745970205
 40
68.72736871185101
 40
69.46006464945697
 40
70.192677557325
 40
70.92522637029062
 40
71.65766554636134
 40
72.38986921751011
 40
73.12154096573981
 40
73.85284092927583
 40
74.58380294677747
 40
76.04479523316759
 40
78.96357029080804
 40
81.87875183536413
 40
84.79115651375291
 40
87.70151606648814
 40
90.61036732559818
 40
92.064314958274
 40
93.51784755774796
 40
93.51784755774796
 40
93.51784755774796
 40
93.51784755774796
 10
358.1956546836489
 20
-199.8816959145763
 30
0.0
 10
358.1627339335378
 20
-199.4271224846518
 30
0.0
 10
358.0968866977349
 20
-198.5178918184802
 30
0.0
 10
357.9862941381836
 20
-196.6911614037641
 30
0.0
 10
357.8956145606268
 20
-194.3903327902888
 30
0.0
 10
357.8706429399143
 20
-191.6021133889412
 30
0.0
 10
357.9140428761555
 20
-188.7928850989508
 30
0.0
 10
357.9890499514629
 20
-186.4407559097944
 30
0.0
 10
358.0620935337945
 20
-184.5550518295861
 30
0.0
 10
358.136781538701
 20
-182.6676632437393
 30
0.0
 10
358.222644443115
 20
-180.3084483954003
 30
0.0
 10
358.3589383832586
 20
-176.5326931591711
 30
0.0
 10
358.5187049277288
 20
-171.8144625162481
 30
0.0
 10
358.7099814776164
 20
-166.1534050973873
 30
0.0
 10
358.9082557039327
 20
-160.4905362062832
 30
0.0
 10
359.123645733541
 20
-154.8230644199901
 30
0.0
 10
359.3662002651473
 20
-149.1483401728579
 30
0.0
 10
359.5987060506853
 20
-144.4122091119053
 30
0.0
 10
359.808254529482
 20
-140.6184406733136
 30
0.0
 10
359.9781301384688
 20
-137.7708886553262
 30
0.0
 10
360.1160026030879
 20
-135.6342562582312
 30
0.0
 10
360.2127515917936
 20
-134.2096348421884
 30
0.0
 10
360.2620698554843
 20
-133.4973640184897
 30
0.0
 10
360.3123577112733
 20
-132.7851424862693
 30
0.0
 10
360.3636485386688
 20
-132.072917506377
 30
0.0
 10
360.4159561194999
 20
-131.3607996787647
 30
0.0
 10
360.4692841217748
 20
-130.6487851621261
 30
0.0
 10
360.5236341011986
 20
-129.9370100355997
 30
0.0
 10
360.5790556340313
 20
-129.2250602657894
 30
0.0
 10
360.6355307735308
 20
-128.5133640323418
 30
0.0
 10
360.7122846665212
 20
-127.564829088072
 30
0.0
 10
360.8503057828303
 20
-125.9059996285696
 30
0.0
 10
361.0609014104836
 20
-123.5370315676343
 30
0.0
 10
361.3268203861307
 20
-120.6964781946871
 30
0.0
 10
361.6332635253891
 20
-117.856643010638
 30
0.0
 10
361.9851534496595
 20
-115.017723698829
 30
0.0
 10
362.3160299370586
 20
-112.6529641562971
 30
0.0
 10
362.5992266543174
 20
-110.7622773751459
 30
0.0
 10
362.7461502697781
 20
-109.8173802342576
 30
0.0
 10
362.8196016734963
 20
-109.344999107723
 30
0.0
  0
SPLINE
  5
17B
330
164
100
AcDbEntity
  8
0
  6
Continuous
 62
     0
370
     0
100
AcDbSpline
210
0.0
220
0.0
230
1.0
 70
     8
 71
     3
 72
    14
 73
    10
 74
     0
 42
0.000000001
 43
0.0
 40
0.0
 40
0.0
 40
0.0
 40
0.0
 40
4.690236058132167
 40
9.37981662551812
 40
14.07059875637071
 40
18.76087985973197
 40
23.45161344181452
 40
28.14254872602786
 40
32.83347914028616
 40
32.83347914028616
 40
32.83347914028616
 40
32.83347914028616
 10
362.8196021975803
 20
-109.344999281136
 30
0.0
 10
363.8450249245303
 20
-109.6842930125602
 30
0.0
 10
365.8857140784327
 20
-110.7177543248548
 30
0.0
 10
368.7242892092793
 20
-113.237431356171
 30
0.0
 10
371.2019597104102
 20
-116.5897187463615
 30
0.0
 10
373.192287877633
 20
-120.5935760081472
 30
0.0
 10
374.601857394426
 20
-125.0411068025047
 30
0.0
 10
375.3673967507132
 20
-129.705261407476
 30
0.0
 10
375.4246487379395
 20
-132.8181346643094
 30
0.0
 10
375.3412797616106
 20
-134.3279815896834
 30
0.0
  0
ARC
  5
17C
330
164
100
AcDbEntity
  8
0
  6
Continuous
 62
     0
370
     0
100
AcDbCircle
 10
369.85124
 20
-184.099985
 30
0.0
 40
4.240550282628606
100
AcDbArc
 50
249.598195
 51
277.08236
  0
ARC
  5
17D
330
164
100
AcDbEntity
  8
0
  6
Continuous
 62
     0
370
     0
100
AcDbCircle
 10
364.647941
 20
-109.568098
 30
0.0
 40
1.841900274571044
100
AcDbArc
 50
116.345188
 51
173.043007
  0
SPLINE
  5
17E
330
164
100
AcDbEntity
  8
0
  6
Continuous
 62
     0
370
     0
100
AcDbSpline
210
0.0
220
0.0
230
1.0
 70
     8
 71
     3
 72
    10
 73
     6
 74
     0
 42
0.000000001
 43
0.0
 40
0.0019290809839787
 40
0.0019290809839787
 40
0.0019290809839787
 40
0.0019290809839787
 40
0.5463209375278026
 40
1.092641876796971
 40
1.624672515433704
 40
1.624672515433704
 40
1.624672515433704
 40
1.624672515433704
 10
358.1956459943051
 20
-199.8816930961015
 30
0.0
 10
358.2081653959467
 20
-200.0516519300944
 30
0.0
 10
358.2823580517053
 20
-200.3772742631048
 30
0.0
 10
358.5249688520399
 20
-200.7464308231387
 30
0.0
 10
358.7530699308414
 20
-200.8880589065596
 30
0.0
 10
358.8756219216809
 20
-200.9284422578355
 30
0.0
  0
SPLINE
  5
17F
330
164
100
AcDbEntity
  8
0
  6
Continuous
 62
     0
370
     0
100
AcDbSpline
210
0.0
220
0.0
230
1.0
 70
     8
 71
     3
 72
     8
 73
     4
 74
     0
 42
0.000000001
 43
0.0
 40
0.0
 40
0.0
 40
0.0
 40
0.0
 40
3.653222443064017
 40
3.653222443064017
 40
3.653222443064017
 40
3.653222443064017
 10
348.2092918150586
 20
-125.3504965338322
 30
0.0
 10
348.1594351115506
 20
-126.5313277526715
 30
0.0
 10
348.2647921942466
 20
-127.7521778862914
 30
0.0
 10
348.2946006052161
 20
-128.9530244447989
 30
0.0
  0
LINE
  5
180
330
164
100
AcDbEntity
  8
0
  6
Continuous
 62
     0
370
     0
100
AcDbLine
 10
348.294601
 20
-128.953024
 30
0.0
 11
349.543633
 21
-181.844226
 31
0.0
  0
SPLINE
  5
181
330
164
100
AcDbEntity
  8
0
  6
Continuous
 62
     0
370
     0
100
AcDbSpline
210
0.0
220
0.0
230
1.0
 70
     8
 71
     3
 72
    14
 73
    10
 74
     0
 42
0.000000001
 43
0.0
 40
0.0
 40
0.0
 40
0.0
 40
0.0
 40
4.690236058045282
 40
9.379816625478346
 40
14.07059875641934
 40
18.76087985972482
 40
23.45161344182408
 40
28.14254872603607
 40
32.83347914028536
 40
32.83347914028536
 40
32.83347914028536
 40
32.83347914028536
 10
362.8196021976929
 20
-109.3449992811732
 30
0.0
 10
361.7941804823751
 20
-109.005705606152
 30
0.0
 10
359.7177958490684
 20
-108.6769015189885
 30
0.0
 10
356.7203998831036
 20
-109.2655610586593
 30
0.0
 10
353.9891558151489
 20
-110.8943126432313
 30
0.0
 10
351.6636249836279
 20
-113.470130067395
 30
0.0
 10
349.8540695761278
 20
-116.8525105322176
 30
0.0
 10
348.6505273458512
 20
-120.8651315838261
 30
0.0
 10
348.2733104535307
 20
-123.834246930936
 30
0.0
 10
348.2092918150587
 20
-125.3504965338217
 30
0.0
  0
ARC
  5
182
330
164
100
AcDbEntity
  8
0
  6
Continuous
 62
     0
370
     0
100
AcDbCircle
 10
348.272972
 20
-125.045543
 30
0.0
 40
0.3115163274720056
100
AcDbArc
 50
195.806325
 51
258.213381
  0
SPLINE
  5
183
330
164
100
AcDbEntity
  8
0
  6
Continuous
 62
     0
370
     0
100
AcDbSpline
210
0.0
220
0.0
230
1.0
 70
     8
 71
     3
 72
    13
 73
     9
 74
     0
 42
0.000000001
 43
0.0
 40
7.856852086814351
 40
7.856852086814351
 40
7.856852086814351
 40
7.856852086814351
 40
8.60797003312282
 40
12.91498592349899
 40
17.2229963951179
 40
21.53124926575671
 40
25.83887154380674
 40
30.14462411466932
 40
30.14462411466932
 40
30.14462411466932
 40
30.14462411466932
 10
379.2968690427442
 20
-146.6382492045791
 30
0.0
 10
379.3675389696469
 20
-146.6100424004317
 30
0.0
 10
379.8219290281039
 20
-146.4007415498583
 30
0.0
 10
380.4013821074218
 20
-145.7751526537679
 30
0.0
 10
380.6830209747358
 20
-144.3867314393849
 30
0.0
 10
380.537813932366
 20
-142.4868847065099
 30
0.0
 10
380.0553039981762
 20
-140.0637805044861
 30
0.0
 10
379.5676730058083
 20
-138.0710599021306
 30
0.0
 10
379.3050378062904
 20
-136.9797843920343
 30
0.0
  0
LINE
  5
184
330
164
100
AcDbEntity
  8
0
  6
Continuous
 62
     0
370
     0
100
AcDbLine
 10
379.305038
 20
-136.979784
 30
0.0
 11
379.298324
 21
-136.952353
 31
0.0
  0
ARC
  5
185
330
164
100
AcDbEntity
  8
0
  6
Continuous
 62
     0
370
     0
100
AcDbCircle
 10
376.593453
 20
-128.82757
 30
0.0
 40
5.641123631778839
100
AcDbArc
 50
257.175469
 51
277.768703
  0
LINE
  5
186
330
164
100
AcDbEntity
  8
0
  6
Continuous
 62
     0
370
     0
100
AcDbLine
 10
379.298324
 20
-136.952353
 30
0.0
 11
379.207494
 21
-136.594724
 31
0.0
  0
ARC
  5
187
330
164
100
AcDbEntity
  8
0
  6
Continuous
 62
     0
370
     0
100
AcDbCircle
 10
355.197831
 20
-142.928451
 30
0.0
 40
24.83102957732565
100
AcDbArc
 50
14.777915
 51
20.78481
  0
LINE
  5
188
330
164
100
AcDbEntity
  8
0
  6
Continuous
 62
     0
370
     0
100
AcDbLine
 10
378.412851
 20
-134.116934
 30
0.0
 11
377.355988
 21
-134.416919
 31
0.0
  0
ARC
  5
189
330
164
100
AcDbEntity
  8
0
  6
Continuous
 62
     0
370
     0
100
AcDbCircle
 10
376.194232
 20
-132.470928
 30
0.0
 40
5.441320345165344
100
AcDbArc
 50
256.207141
 51
277.550568
  0
SPLINE
  5
18A
330
164
100
AcDbEntity
  8
0
  6
Continuous
 62
     0
370
     0
100
AcDbSpline
210
0.0
220
0.0
230
1.0
 70
     8
 71
     3
 72
    14
 73
    10
 74
     0
 42
0.000000001
 43
0.0
 40
0.0
 40
0.0
 40
0.0
 40
0.0
 40
3.35765972703933
 40
6.714168333140146
 40
10.06786817318082
 40
13.41762334460883
 40
16.76451129115895
 40
20.11429153093615
 40
23.46810869271241
 40
23.46810869271241
 40
23.46810869271241
 40
23.46810869271241
 10
349.5436031045206
 20
-181.8442299551276
 30
0.0
 10
349.5725405426455
 20
-182.9481479136265
 30
0.0
 10
349.6942691499495
 20
-185.1689634194706
 30
0.0
 10
350.1428461210352
 20
-188.5030975196785
 30
0.0
 10
350.9419270355455
 20
-191.7672794637602
 30
0.0
 10
352.1948030754951
 20
-194.7935634045133
 30
0.0
 10
353.9349705098227
 20
-197.2724057221209
 30
0.0
 10
356.0005554869995
 20
-198.9756136865654
 30
0.0
 10
357.4622971407455
 20
-199.63912760263
 30
0.0
 10
358.1956632099567
 20
-199.8816987924483
 30
0.0
  0
LINE
  5
18B
330
164
100
AcDbEntity
  8
0
  6
Continuous
 62
     0
370
     0
100
AcDbLine
 10
378.000927
 20
-137.436144
 30
0.0
 11
376.909224
 21
-137.865066
 31
0.0
  0
ARC
  5
18C
330
164
100
AcDbEntity
  8
0
  6
Continuous
 62
     0
370
     0
100
AcDbCircle
 10
348.354091
 20
-128.644027
 30
0.0
 40
0.3147267826751889
100
AcDbArc
 50
199.893161
 51
259.071952
  0
SPLINE
  5
18D
330
164
100
AcDbEntity
  8
0
  6
Continuous
 62
     0
370
     0
100
AcDbSpline
210
0.0
220
0.0
230
1.0
 70
     8
 71
     7
 72
    36
 73
    28
 74
     0
 42
0.000000001
 43
0.0
 40
0.0
 40
0.0
 40
0.0
 40
0.0
 40
0.0
 40
0.0
 40
0.0
 40
0.0
 40
0.11
 40
0.11
 40
0.11
 40
0.11
 40
0.11
 40
0.55
 40
0.55
 40
0.55
 40
0.55
 40
0.55
 40
0.65
 40
0.65
 40
0.65
 40
0.65
 40
0.65
 40
0.77
 40
0.77
 40
0.77
 40
0.77
 40
0.77
 40
0.7929728770982059
 40
0.7929728770982059
 40
0.7929728770982059
 40
0.7929728770982059
 40
0.7929728770982059
 40
0.7929728770982059
 40
0.7929728770982059
 40
0.7929728770982059
 10
370.3740916558265
 20
-188.3081785578159
 30
0.0
 10
370.3247894639666
 20
-188.6826364706018
 30
0.0
 10
370.2723258347186
 20
-189.055502992914
 30
0.0
 10
370.2165308267162
 20
-189.4266200168325
 30
0.0
 10
370.157364217985
 20
-189.795884179798
 30
0.0
 10
370.0946203938283
 20
-190.163095814481
 30
0.0
 10
369.7624021355372
 20
-191.9880123180643
 30
0.0
 10
369.3339671802145
 20
-193.7520597158679
 30
0.0
 10
368.9195815426577
 20
-195.1110618648786
 30
0.0
 10
368.4230578310302
 20
-196.397240891053
 30
0.0
 10
367.8279158231592
 20
-197.5848209421564
 30
0.0
 10
366.9645591594473
 20
-198.8526537782419
 30
0.0
 10
365.9557010806755
 20
-199.8338615913771
 30
0.0
 10
365.7640095335382
 20
-200.0053007355217
 30
0.0
 10
365.5676161058718
 20
-200.1660394844377
 30
0.0
 10
365.3667878103215
 20
-200.3158803169054
 30
0.0
 10
364.9157049151921
 20
-200.6207808478922
 30
0.0
 10
364.4457387199755
 20
-200.8707151492813
 30
0.0
 10
364.1843026153801
 20
-200.9904994316229
 30
0.0
 10
363.9182855664726
 20
-201.0934934802271
 30
0.0
 10
363.6483436411691
 20
-201.1800524893633
 30
0.0
 10
363.3226875661487
 20
-201.2637824902561
 30
0.0
 10
362.9930110757689
 20
-201.3250856605747
 30
0.0
 10
362.9399386364096
 20
-201.3343598701764
 30
0.0
 10
362.8867699007177
 20
-201.3430612279442
 30
0.0
 10
362.8335085627024
 20
-201.3511929782571
 30
0.0
 10
362.7801582668437
 20
-201.3587584905456
 30
0.0
 10
362.7267226017619
 20
-201.3657612629725
 30
0.0
  0
SPLINE
  5
18E
330
164
100
AcDbEntity
  8
0
  6
Continuous
 62
     0
370
    30
100
AcDbSpline
210
0.0
220
0.0
230
1.0
 70
    12
 71
     2
 72
     6
 73
     3
 74
     0
 42
0.000000001
 43
0.0
 40
0.7524381832684824
 40
0.7524381832684824
 40
0.7524381832684824
 40
0.9244833093070047
 40
0.9244833093070047
 40
0.9244833093070047
 10
397.7081844113762
 20
-126.4373510026664
 30
0.0
 41
0.9943426987825532
 10
398.7679200640204
 20
-138.8791992636967
 30
0.0
 41
0.7967108839297952
 10
391.3993300874022
 20
-141.8131754713011
 30
0.0
 41
0.8765030776493654
  0
SPLINE
  5
18F
330
164
100
AcDbEntity
  8
0
  6
Continuous
 62
     0
370
    30
100
AcDbSpline
210
0.0
220
0.0
230
1.0
 70
     8
 71
     3
 72
    12
 73
     8
 74
     0
 42
0.000000001
 43
0.0
 40
22.01106850049776
 40
22.01106850049776
 40
22.01106850049776
 40
22.01106850049776
 40
27.52979576487101
 40
36.69302645961226
 40
45.86094439878418
 40
55.03829037776858
 40
64.2228085122743
 40
64.2228085122743
 40
64.2228085122743
 40
64.2228085122743
 10
370.1336656985801
 20
-102.9402974430445
 30
0.0
 10
370.9156079002365
 20
-102.6285506588277
 30
0.0
 10
373.3786442626782
 20
-102.2935237219416
 30
0.0
 10
378.7723065429908
 20
-104.0781962042157
 30
0.0
 10
385.7571260121261
 20
-109.0795413893822
 30
0.0
 10
392.1972205862224
 20
-115.9284755385691
 30
0.0
 10
395.5146052093442
 20
-120.9636162289778
 30
0.0
 10
396.8110663116014
 20
-123.3915796484819
 30
0.0
  0
ARC
  5
190
330
164
100
AcDbEntity
  8
0
  6
Continuous
 62
     0
370
     0
100
AcDbCircle
 10
349.539198
 20
-181.567242
 30
0.0
 40
0.2770233898219375
100
AcDbArc
 50
212.772221
 51
270.911226
  0
ELLIPSE
  5
191
330
164
100
AcDbEntity
  8
0
  6
Continuous
 62
     0
370
    30
100
AcDbEllipse
 10
391.781962
 20
-117.983417
 30
0.0
 11
-8.184415531705008
 21
20.52864691623772
 31
0.0
210
0.0
220
0.0
230
-1.0
 40
0.590412
 41
0.0000000059500131
 42
0.4606038200510998
  0
ELLIPSE
  5
192
330
164
100
AcDbEntity
  8
0
  6
Continuous
 62
     0
370
    30
100
AcDbEllipse
 10
391.781962
 20
-117.983417
 30
0.0
 11
-8.184415531705008
 21
20.52864691623772
 31
0.0
210
0.0
220
0.0
230
-1.0
 40
0.590412
 41
0.4606038200510998
 42
3.14159265953981
  0
LINE
  5
193
330
164
100
AcDbEntity
  8
0
  6
Continuous
 62
     0
370
    30
100
AcDbLine
 10
425.861876
 20
-201.285343
 30
0.0
 11
434.108746
 21
-197.997459
 31
0.0
  0
LINE
  5
194
330
164
100
AcDbEntity
  8
0
  6
Continuous
 62
     0
370
    30
100
AcDbLine
 10
359.201479
 20
-34.083694
 30
0.0
 11
367.448349
 21
-30.79581
 31
0.0
  0
SPLINE
  5
195
330
164
100
AcDbEntity
  8
0
  6
Continuous
 62
     0
370
    30
100
AcDbSpline
210
0.0
220
0.0
230
1.0
 70
     8
 71
     3
 72
    18
 73
    14
 74
     0
 42
0.000000001
 43
0.0
 40
0.0
 40
0.0
 40
0.0
 40
0.0
 40
7.715831092217891
 40
20.06484287560614
 40
27.78575789691503
 40
40.91725889258651
 40
50.76531562963024
 40
59.52059490887459
 40
71.45368517745162
 40
78.31345261966283
 40
85.16272882749134
 40
91.61869293068322
 40
99.71965635483014
 40
99.71965635483014
 40
99.71965635483014
 40
99.71965635483014
 10
333.1622039275237
 20
-98.46353437609615
 30
0.0
 10
332.9357869295728
 20
-96.07171350647371
 30
0.0
 10
332.5356123087622
 20
-89.90982346217203
 30
0.0
 10
332.6685645228739
 20
-81.68095639491298
 30
0.0
 10
333.6472102628486
 20
-72.35621383859564
 30
0.0
 10
335.332275495458
 20
-64.30785879080719
 30
0.0
 10
337.9355088535115
 20
-56.79304341575266
 30
0.0
 10
341.0864707373474
 20
-50.26945991320991
 30
0.0
 10
344.5500740396992
 20
-45.16116368079145
 30
0.0
 10
348.257964017332
 20
-41.13371180771765
 30
0.0
 10
351.4340231224729
 20
-38.4047215872356
 30
0.0
 10
355.05624587828
 20
-35.97649544433511
 30
0.0
 10
357.6907029441017
 20
-34.68601444765028
 30
0.0
 10
359.2014786422071
 20
-34.08369439294631
 30
0.0
  0
SPLINE
  5
196
330
164
100
AcDbEntity
  8
0
  6
Continuous
 62
     0
370
    30
100
AcDbSpline
210
0.0
220
0.0
230
1.0
 70
     8
 71
     3
 72
    13
 73
     9
 74
     0
 42
0.000000001
 43
0.0
 40
126.9735085749258
 40
126.9735085749258
 40
126.9735085749258
 40
126.9735085749258
 40
135.1146690306066
 40
143.5556937180412
 40
156.2100872472084
 40
163.8032924744775
 40
174.9445926665632
 40
182.2640757347269
 40
182.2640757347269
 40
182.2640757347269
 40
182.2640757347269
 10
348.5632483548493
 20
-150.2444285226172
 30
0.0
 10
347.3385074536697
 20
-147.8466350045134
 30
0.0
 10
344.9656018516063
 20
-142.8724570969544
 30
0.0
 10
341.2541285704868
 20
-133.8508249879664
 30
0.0
 10
338.2421365478981
 20
-124.7817162127805
 30
0.0
 10
335.6601794354466
 20
-114.7877949270856
 30
0.0
 10
334.0838788475182
 20
-106.5114390989987
 30
0.0
 10
333.3769967038189
 20
-100.732559552864
 30
0.0
 10
333.1622038768652
 20
-98.46353384093824
 30
0.0
  0
SPLINE
  5
197
330
164
100
AcDbEntity
  8
0
  6
Continuous
 62
     0
370
    30
100
AcDbSpline
210
0.0
220
0.0
230
1.0
 70
     8
 71
     3
 72
    16
 73
    12
 74
     0
 42
0.000000001
 43
0.0
 40
0.0
 40
0.0
 40
0.0
 40
0.0
 40
7.820815670971047
 40
19.38986476664588
 40
24.76546641945974
 40
35.59827952542646
 40
48.78704820043329
 40
63.32935656446555
 40
72.62007681996243
 40
83.59542231709119
 40
84.34688252576392
 40
84.34688252576392
 40
84.34688252576392
 40
84.34688252576392
 10
425.8618759272962
 20
-201.2853434093184
 30
0.0
 10
424.403311542969
 20
-201.866847719229
 30
0.0
 10
420.6778951989006
 20
-203.0433529464289
 30
0.0
 10
415.6374545278809
 20
-203.6854979953623
 30
0.0
 10
409.7808872436938
 20
-203.5581118719621
 30
0.0
 10
403.4113059964557
 20
-202.5686506188594
 30
0.0
 10
394.8621635504521
 20
-199.6393404998383
 30
0.0
 10
386.6205323462013
 20
-195.0926823220169
 30
0.0
 10
379.0017376771326
 20
-189.5120917785927
 30
0.0
 10
374.5192419771677
 20
-185.5116667803219
 30
0.0
 10
372.0756191253095
 20
-183.0936481934306
 30
0.0
 10
371.9192713757565
 20
-182.9379423186484
 30
0.0
  0
LINE
  5
198
330
164
100
AcDbEntity
  8
0
  6
Continuous
 62
     0
370
    30
100
AcDbLine
 10
377.374908
 20
-99.935629
 30
0.0
 11
383.597546
 21
-97.454771
 31
0.0
  0
LINE
  5
199
330
164
100
AcDbEntity
  8
0
  6
Continuous
 62
     0
370
    30
100
AcDbLine
 10
393.743739
 20
-140.992922
 30
0.0
 11
399.966377
 21
-138.512064
 31
0.0
  0
ARC
  5
19A
330
164
100
AcDbEntity
  8
0
  6
Continuous
 62
     0
370
    30
100
AcDbCircle
 10
386.62297
 20
-120.136795
 30
0.0
 40
20.48576000808382
100
AcDbArc
 50
116.490677
 51
123.495307
  0
SPLINE
  5
19B
330
164
100
AcDbEntity
  8
0
  6
Continuous
 62
     0
370
    30
100
AcDbSpline
210
0.0
220
0.0
230
1.0
 70
     8
 71
     3
 72
    11
 73
     7
 74
     0
 42
0.000000001
 43
0.0
 40
0.0
 40
0.0
 40
0.0
 40
0.0
 40
5.357597268133675
 40
12.5404870724331
 40
19.45925718456524
 40
24.53824766313165
 40
24.53824766313165
 40
24.53824766313165
 40
24.53824766313165
 10
357.3266338706154
 20
-108.043093841945
 30
0.0
 10
356.1482143452724
 20
-108.5129094369159
 30
0.0
 10
353.538317286826
 20
-110.1497435158987
 30
0.0
 10
350.4138936759342
 20
-114.2939343916903
 30
0.0
 10
348.5300574806273
 20
-119.6812632130282
 30
0.0
 10
348.0485823254027
 20
-123.487381607568
 30
0.0
 10
347.9732650751499
 20
-125.1303973340582
 30
0.0
  0
SPLINE
  5
19C
330
164
100
AcDbEntity
  8
0
  6
Continuous
 62
     0
370
    30
100
AcDbSpline
210
0.0
220
0.0
230
1.0
 70
     8
 71
     3
 72
    13
 73
     9
 74
     0
 42
0.000000001
 43
0.0
 40
0.0
 40
0.0
 40
0.0
 40
0.0
 40
0.6702000932365364
 40
2.018887086577005
 40
2.693542370844266
 40
3.142968681207297
 40
3.367486520312154
 40
3.669574103907655
 40
3.669574103907655
 40
3.669574103907655
 40
3.669574103907655
 10
348.0581458729484
 20
-128.7511676394333
 30
0.0
 10
348.0529325114366
 20
-128.5291956271261
 30
0.0
 10
348.0393904803713
 20
-127.8669236133749
 30
0.0
 10
347.9857660953314
 20
-126.9771741532387
 30
0.0
 10
347.9559873883276
 20
-126.1638751558956
 30
0.0
 10
347.9540150433654
 20
-125.7203265582757
 30
0.0
 10
347.9591048141328
 20
-125.4011498718911
 30
0.0
 10
347.9688491370134
 20
-125.2258903954804
 30
0.0
 10
347.9732337420585
 20
-125.1304082875664
 30
0.0
  0
LINE
  5
19D
330
164
100
AcDbEntity
  8
0
  6
Continuous
 62
     0
370
    30
100
AcDbLine
 10
349.306237
 20
-181.717195
 30
0.0
 11
348.058146
 21
-128.751168
 31
0.0
  0
SPLINE
  5
19E
330
164
100
AcDbEntity
  8
0
  6
Continuous
 62
     0
370
    30
100
AcDbSpline
210
0.0
220
0.0
230
1.0
 70
     8
 71
     3
 72
    13
 73
     9
 74
     0
 42
0.000000001
 43
0.0
 40
0.0
 40
0.0
 40
0.0
 40
0.0
 40
7.837837197497391
 40
12.35747998217533
 40
15.29938515013827
 40
18.0375085444327
 40
22.89998713958784
 40
24.83717082085054
 40
24.83717082085054
 40
24.83717082085054
 40
24.83717082085054
 10
349.3062724910141
 20
-181.7173515351225
 30
0.0
 10
349.3814718368078
 20
-184.2873354243236
 30
0.0
 10
349.7401260200543
 20
-188.4346809071829
 30
0.0
 10
351.2117536366703
 20
-193.3153142101039
 30
0.0
 10
352.7242396460201
 20
-196.183078841674
 30
0.0
 10
354.6889627927715
 20
-198.653584291869
 30
0.0
 10
356.8363365501059
 20
-200.1476197686183
 30
0.0
 10
358.4200950799243
 20
-200.7783252108795
 30
0.0
 10
358.8756219126711
 20
-200.9284422780834
 30
0.0
  0
ARC
  5
19F
330
164
100
AcDbEntity
  8
0
  6
Continuous
 62
     0
370
    30
100
AcDbCircle
 10
361.725192
 20
-192.93279
 30
0.0
 40
8.488301503386168
100
AcDbArc
 50
250.371285
 51
278.17617
  0
SPLINE
  5
1A0
330
164
100
AcDbEntity
  8
0
  6
Continuous
 62
     0
370
    30
100
AcDbSpline
210
0.0
220
0.0
230
1.0
 70
     8
 71
     3
 72
    19
 73
    15
 74
     0
 42
0.000000001
 43
0.0
 40
0.0
 40
0.0
 40
0.0
 40
0.0
 40
0.7488979914581693
 40
1.736290208010239
 40
2.907625209146299
 40
3.911393407376768
 40
5.342786246302408
 40
7.684309851715441
 40
10.0013676281797
 40
12.41281637383705
 40
14.95546266728934
 40
16.43601520347459
 40
17.89388859700259
 40
19.70517044807229
 40
19.70517044807229
 40
19.70517044807229
 40
19.70517044807229
 10
362.928736514522
 20
-201.3357310665505
 30
0.0
 10
363.1537652385782
 20
-201.2982722131249
 30
0.0
 10
363.6622087928138
 20
-201.1936093976166
 30
0.0
 10
364.4551344106563
 20
-200.9513842420774
 30
0.0
 10
365.2394899561902
 20
-200.6021601097203
 30
0.0
 10
366.0531091009776
 20
-200.1124830865378
 30
0.0
 10
367.0254934170128
 20
-199.3355628381971
 30
0.0
 10
368.0715449852403
 20
-198.1146305943977
 30
0.0
 10
369.0507466875955
 20
-196.4350380351227
 30
0.0
 10
369.8512507796975
 20
-194.5029881231263
 30
0.0
 10
370.397827711397
 20
-192.66006822987
 30
0.0
 10
370.7729042792322
 20
-191.027664925454
 30
0.0
 10
371.046145666974
 20
-189.5814716167333
 30
0.0
 10
371.1994660468804
 20
-188.5655258870554
 30
0.0
 10
371.2713332207655
 20
-187.9991403886942
 30
0.0
  0
ARC
  5
1A1
330
164
100
AcDbEntity
  8
0
  6
Continuous
 62
     0
370
    30
100
AcDbCircle
 10
-17225.920682
 20
2080.993132
 30
0.0
 40
17742.87160310294
100
AcDbArc
 50
352.652787
 51
352.748807
  0
SPLINE
  5
1A2
330
164
100
AcDbEntity
  8
0
  6
Continuous
 62
     0
370
    30
100
AcDbSpline
210
0.0
220
0.0
230
1.0
 70
     8
 71
     3
 72
    19
 73
    15
 74
     0
 42
0.000000001
 43
0.0
 40
0.0
 40
0.0
 40
0.0
 40
0.0
 40
1.270603146989904
 40
2.509091810598299
 40
5.256450442053359
 40
7.995449624714484
 40
9.346291711396582
 40
10.7003276779621
 40
11.4438566477654
 40
12.19153761733246
 40
12.6965467741725
 40
12.9085819430654
 40
12.97480490694143
 40
13.03839785358561
 40
13.03839785358561
 40
13.03839785358561
 40
13.03839785358561
 10
375.0489000341447
 20
-158.5071321758571
 30
0.0
 10
375.1153395237609
 20
-158.1147415307737
 30
0.0
 10
375.1686306848811
 20
-157.3205999466645
 30
0.0
 10
375.3865928241623
 20
-155.6893970083569
 30
0.0
 10
375.6211052223297
 20
-153.591884202217
 30
0.0
 10
375.8897945022156
 20
-151.4689855181813
 30
0.0
 10
376.1035528030573
 20
-149.7756623587359
 30
0.0
 10
376.241808946531
 20
-148.7006791683507
 30
0.0
 10
376.3590420769765
 20
-147.8091775099431
 30
0.0
 10
376.4439967079085
 20
-147.178962494268
 30
0.0
 10
376.5101061470623
 20
-146.7085655638314
 30
0.0
 10
376.5485657942388
 20
-146.4479683233499
 30
0.0
 10
376.5660117375155
 20
-146.3370902177848
 30
0.0
 10
376.5653283172279
 20
-146.3411238049347
 30
0.0
 10
376.563616287794
 20
-146.3519740129141
 30
0.0
  0
SPLINE
  5
1A3
330
164
100
AcDbEntity
  8
0
  6
Continuous
 62
     0
370
    30
100
AcDbSpline
210
0.0
220
0.0
230
1.0
 70
     8
 71
     3
 72
    13
 73
     9
 74
     0
 42
0.000000001
 43
0.0
 40
12.67095621550518
 40
12.67095621550518
 40
12.67095621550518
 40
12.67095621550518
 40
13.78381280845519
 40
15.24604448518385
 40
15.94061127553557
 40
16.61612500280891
 40
17.54916052960483
 40
18.44730688097756
 40
18.44730688097756
 40
18.44730688097756
 40
18.44730688097756
 10
376.3087193027801
 20
-148.1924260073952
 30
0.0
 10
376.4384326577712
 20
-148.0983912494073
 30
0.0
 10
376.7786159835561
 20
-147.8656139221074
 30
0.0
 10
377.3045048965732
 20
-147.5570466380632
 30
0.0
 10
377.8039412319354
 20
-147.29771361783
 30
0.0
 10
378.2275182506687
 20
-147.0920181480172
 30
0.0
 10
378.7347169802173
 20
-146.8697761981799
 30
0.0
 10
379.0719588392094
 20
-146.7224068459165
 30
0.0
 10
379.2968584845432
 20
-146.6382227518297
 30
0.0
  0
LINE
  5
1A4
330
164
100
AcDbEntity
  8
0
  6
Continuous
 62
     0
370
    30
100
AcDbLine
 10
391.40246
 20
-141.811928
 30
0.0
 11
379.296457
 21
-146.638382
 31
0.0
  0
LINE
  5
1A5
330
164
100
AcDbEntity
  8
0
  6
Continuous
 62
     0
370
    30
100
AcDbLine
 10
357.325666
 20
-108.04335
 30
0.0
 11
370.134437
 21
-102.936715
 31
0.0
  0
ENDBLK
  5
1A7
330
164
100
AcDbEntity
  8
0
100
AcDbBlockEnd
  0
ENDSEC
  0
SECTION
  2
ENTITIES
  0
INSERT
  5
B0
330
1F
100
AcDbEntity
  8
0
  6
Continuous
 62
     7
370
     0
100
AcDbBlockReference
  2
a
 10
41.043442
 20
49.780304
 30
0.0
  0
INSERT
  5
EB
330
1F
100
AcDbEntity
  8
0
  6
Continuous
 62
     7
370
     0
100
AcDbBlockReference
  2
b
 10
-83.107315
 20
0.0
 30
0.0
  0
INSERT
  5
129
330
1F
100
AcDbEntity
  8
0
  6
Continuous
 62
     7
370
     0
100
AcDbBlockReference
  2
c
 10
295.163696
 20
0.0
 30
0.0
  0
INSERT
  5
163
330
1F
100
AcDbEntity
  8
0
  6
Continuous
 62
     7
370
     0
100
AcDbBlockReference
  2
d
 10
0.0
 20
-70.91835
 30
0.0
  0
INSERT
  5
1A8
330
1F
100
AcDbEntity
  8
0
  6
Continuous
 62
     7
370
     0
100
AcDbBlockReference
  2
e
 10
321.972473
 20
-225.353455
 30
0.0
  0
ENDSEC
  0
SECTION
  2
OBJECTS
  0
DICTIONARY
  5
C
330
0
100
AcDbDictionary
281
     1
  3
ACAD_GROUP
350
D
  3
ACAD_LAYOUT
350
1A
  3
ACAD_MATERIAL
350
43
  3
ACAD_MLEADERSTYLE
350
6B
  3
ACAD_MLINESTYLE
350
17
  3
ACAD_PLOTSETTINGS
350
19
  3
ACAD_PLOTSTYLENAME
350
E
  3
ACAD_SCALELIST
350
47
  3
ACAD_TABLESTYLE
350
69
  3
ACAD_VISUALSTYLE
350
2A
  3
AcDbVariableDictionary
350
1A9
  0
DICTIONARY
  5
1B4
330
8
100
AcDbDictionary
280
     1
281
     1
  3
ACAD_XREC_ROUNDTRIP
360
1B5
  0
DICTIONARY
  5
D
102
{ACAD_REACTORS
330
C
102
}
330
C
100
AcDbDictionary
281
     1
  0
DICTIONARY
  5
1A
102
{ACAD_REACTORS
330
C
102
}
330
C
100
AcDbDictionary
281
     1
  3
Layout1
350
1E
  3
Layout2
350
26
  3
Model
350
22
  0
DICTIONARY
  5
43
102
{ACAD_REACTORS
330
C
102
}
330
C
100
AcDbDictionary
281
     1
  3
ByBlock
350
45
  3
ByLayer
350
44
  3
Global
350
46
  0
DICTIONARY
  5
6B
102
{ACAD_REACTORS
330
C
102
}
330
C
100
AcDbDictionary
281
     1
  3
Standard
350
6C
  0
DICTIONARY
  5
17
102
{ACAD_REACTORS
330
C
102
}
330
C
100
AcDbDictionary
281
     1
  3
Standard
350
18
  0
DICTIONARY
  5
19
102
{ACAD_REACTORS
330
C
102
}
330
C
100
AcDbDictionary
281
     1
  0
ACDBDICTIONARYWDFLT
  5
E
102
{ACAD_REACTORS
330
C
102
}
330
C
100
AcDbDictionary
281
     1
  3
Normal
350
F
100
AcDbDictionaryWithDefault
340
F
  0
DICTIONARY
  5
47
102
{ACAD_REACTORS
330
C
102
}
330
C
100
AcDbDictionary
281
     1
  3
A0
350
48
  3
A1
350
49
  3
A2
350
4A
  3
A3
350
4B
  3
A4
350
4C
  3
A5
350
4D
  3
A6
350
4E
  3
A7
350
4F
  3
A8
350
50
  3
A9
350
51
  3
B0
350
52
  3
B1
350
53
  3
B2
350
54
  3
B3
350
55
  3
B4
350
56
  3
B5
350
57
  3
B6
350
58
  3
B7
350
59
  3
B8
350
5A
  3
B9
350
5B
  3
C0
350
5C
  3
C1
350
5D
  3
C2
350
5E
  3
C3
350
5F
  3
C4
350
60
  3
C5
350
61
  3
C6
350
62
  3
C7
350
63
  3
C8
350
64
  3
C9
350
65
  3
D0
350
66
  3
D1
350
67
  3
D2
350
68
  0
DICTIONARY
  5
69
102
{ACAD_REACTORS
330
C
102
}
330
C
100
AcDbDictionary
281
     1
  3
Standard
350
6A
  0
DICTIONARY
  5
2A
102
{ACAD_REACTORS
330
C
102
}
330
C
100
AcDbDictionary
281
     1
  3
2dWireframe
350
2F
  3
Basic
350
32
  3
Brighten
350
36
  3
ColorChange
350
3A
  3
Conceptual
350
34
  3
Dim
350
35
  3
EdgeColorOff
350
3D
  3
Facepattern
350
39
  3
Flat
350
2B
  3
FlatWithEdges
350
2C
  3
Gouraud
350
2D
  3
GouraudWithEdges
350
2E
  3
Hidden
350
31
  3
JitterOff
350
3B
  3
Linepattern
350
38
  3
OverhangOff
350
3C
  3
Realistic
350
33
  3
Shaded
350
42
  3
Shaded with edges
350
41
  3
Shades of Gray
350
3E
  3
Sketchy
350
3F
  3
Thicken
350
37
  3
Wireframe
350
30
  3
X-Ray
350
40
  0
DICTIONARY
  5
1A9
102
{ACAD_REACTORS
330
C
102
}
330
C
100
AcDbDictionary
281
     1
  3
CANNOSCALE
350
1B6
  3
CENTEREXE
350
1B0
  3
CENTERLTYPEFILE
350
1B1
  3
CMLEADERSTYLE
350
1AB
  3
CTABLESTYLE
350
1AA
  3
DIMASSOC
350
1B2
  3
HIDETEXT
350
1B3
  3
MSLTSCALE
350
1B7
  3
PSOLHEIGHT
350
1AD
  3
PSOLWIDTH
350
1AC
  0
XRECORD
  5
1B5
102
{ACAD_REACTORS
330
1B4
102
}
330
1B4
100
AcDbXrecord
280
     1
102
VTR_0.000_0.000_1.000_1.000_VISUALSTYLE
340
2F
102
VTR_0.000_0.000_1.000_1.000_GRIDDISPLAY
 70
     3
102
VTR_0.000_0.000_1.000_1.000_GRIDMAJOR
 70
     5
102
VTR_0.000_0.000_1.000_1.000_DEFAULTLIGHTING
280
     1
102
VTR_0.000_0.000_1.000_1.000_DEFAULTLIGHTINGTYPE
 70
     1
102
VTR_0.000_0.000_1.000_1.000_BRIGHTNESS
141
0.0
102
VTR_0.000_0.000_1.000_1.000_CONTRAST
142
0.0
  0
LAYOUT
  5
1E
102
{ACAD_REACTORS
330
1A
102
}
330
1A
100
AcDbPlotSettings
  1

  2
none_device
  4

  6

 40
0.0
 41
0.0
 42
0.0
 43
0.0
 44
0.0
 45
0.0
 46
0.0
 47
0.0
 48
0.0
 49
0.0
140
0.0
141
0.0
142
1.0
143
1.0
 70
   688
 72
     1
 73
     0
 74
     5
  7

 75
    16
147
1.0
148
0.0
149
0.0
100
AcDbLayout
  1
Layout1
 70
     1
 71
     1
 10
0.0
 20
0.0
 11
420.0
 21
297.0
 12
0.0
 22
0.0
 32
0.0
 14
1.000000E+20
 24
1.000000E+20
 34
1.000000E+20
 15
-1.000000E+20
 25
-1.000000E+20
 35
-1.000000E+20
146
0.0
 13
0.0
 23
0.0
 33
0.0
 16
1.0
 26
0.0
 36
0.0
 17
0.0
 27
1.0
 37
0.0
 76
     0
330
1B
  0
LAYOUT
  5
26
102
{ACAD_REACTORS
330
1A
102
}
330
1A
100
AcDbPlotSettings
  1

  2
none_device
  4

  6

 40
0.0
 41
0.0
 42
0.0
 43
0.0
 44
0.0
 45
0.0
 46
0.0
 47
0.0
 48
0.0
 49
0.0
140
0.0
141
0.0
142
1.0
143
1.0
 70
   688
 72
     1
 73
     0
 74
     5
  7

 75
    16
147
1.0
148
0.0
149
0.0
100
AcDbLayout
  1
Layout2
 70
     1
 71
     2
 10
0.0
 20
0.0
 11
0.0
 21
0.0
 12
0.0
 22
0.0
 32
0.0
 14
0.0
 24
0.0
 34
0.0
 15
0.0
 25
0.0
 35
0.0
146
0.0
 13
0.0
 23
0.0
 33
0.0
 16
1.0
 26
0.0
 36
0.0
 17
0.0
 27
1.0
 37
0.0
 76
     0
330
23
  0
LAYOUT
  5
22
102
{ACAD_REACTORS
330
1A
102
}
330
1A
100
AcDbPlotSettings
  1

  2
none_device
  4
Letter_(8.50_x_11.00_Inches)
  6

 40
6.35
 41
6.35
 42
6.350005
 43
6.350005
 44
215.9
 45
279.4
 46
0.0
 47
0.0
 48
0.0
 49
0.0
140
0.0
141
0.0
142
1.0
143
1.0
 70
  1712
 72
     1
 73
     0
 74
     0
  7

 75
     0
147
1.0
148
0.0
149
0.0
100
AcDbLayout
  1
Model
 70
     1
 71
     0
 10
-167.733734
 20
-232.283447
 11
460.336914
 21
233.383423
 12
0.0
 22
0.0
 32
0.0
 14
-167.733734
 24
-232.283447
 34
0.0
 15
460.336914
 25
233.383423
 35
0.0
146
0.0
 13
0.0
 23
0.0
 33
0.0
 16
1.0
 26
0.0
 36
0.0
 17
0.0
 27
1.0
 37
0.0
 76
     0
330
1F
331
29
  0
MATERIAL
  5
45
102
{ACAD_REACTORS
330
43
102
}
102
{ACAD_XDICTIONARY
360
1EA
102
}
330
43
100
AcDbMaterial
  1
ByBlock
  0
MATERIAL
  5
44
102
{ACAD_REACTORS
330
43
102
}
102
{ACAD_XDICTIONARY
360
1E8
102
}
330
43
100
AcDbMaterial
  1
ByLayer
  0
MATERIAL
  5
46
102
{ACAD_REACTORS
330
43
102
}
102
{ACAD_XDICTIONARY
360
1EC
102
}
330
43
100
AcDbMaterial
  1
Global
  0
MLEADERSTYLE
  5
6C
102
{ACAD_REACTORS
330
6B
102
}
102
{ACAD_XDICTIONARY
360
1EF
102
}
330
6B
100
AcDbMLeaderStyle
170
     2
171
     1
172
     0
 90
        2
 40
0.0
 41
0.0
173
     1
 91
-1056964608
340
14
 92
       -2
290
     1
 42
2.0
291
     1
 43
8.0
  3
Standard
341
0
 44
4.0
300

342
11
174
     1
178
     6
175
     1
176
     0
 93
-1056964608
 45
4.0
292
     0
297
     0
 46
4.0
343
0
 94
-1056964608
 47
1.0
 49
1.0
140
1.0
293
     1
141
0.0
294
     1
177
     0
142
1.0
295
     0
296
     0
143
3.75
1001
ACAD_MLEADERVER
1070
     2
  0
MLINESTYLE
  5
18
102
{ACAD_REACTORS
330
17
102
}
330
17
100
AcDbMlineStyle
  2
Standard
 70
     0
  3

 62
   256
 51
90.0
 52
90.0
 71
     2
 49
0.5
 62
   256
  6
BYLAYER
 49
-0.5
 62
   256
  6
BYLAYER
  0
ACDBPLACEHOLDER
  5
F
102
{ACAD_REACTORS
330
E
102
}
330
E
  0
SCALE
  5
48
102
{ACAD_REACTORS
330
47
102
}
330
47
100
AcDbScale
 70
     0
300
1:1
140
1.0
141
1.0
290
     1
  0
SCALE
  5
49
102
{ACAD_REACTORS
330
47
102
}
330
47
100
AcDbScale
 70
     0
300
1:2
140
1.0
141
2.0
290
     0
  0
SCALE
  5
4A
102
{ACAD_REACTORS
330
47
102
}
330
47
100
AcDbScale
 70
     0
300
1:4
140
1.0
141
4.0
290
     0
  0
SCALE
  5
4B
102
{ACAD_REACTORS
330
47
102
}
330
47
100
AcDbScale
 70
     0
300
1:5
140
1.0
141
5.0
290
     0
  0
SCALE
  5
4C
102
{ACAD_REACTORS
330
47
102
}
330
47
100
AcDbScale
 70
     0
300
1:8
140
1.0
141
8.0
290
     0
  0
SCALE
  5
4D
102
{ACAD_REACTORS
330
47
102
}
330
47
100
AcDbScale
 70
     0
300
1:10
140
1.0
141
10.0
290
     0
  0
SCALE
  5
4E
102
{ACAD_REACTORS
330
47
102
}
330
47
100
AcDbScale
 70
     0
300
1:16
140
1.0
141
16.0
290
     0
  0
SCALE
  5
4F
102
{ACAD_REACTORS
330
47
102
}
330
47
100
AcDbScale
 70
     0
300
1:20
140
1.0
141
20.0
290
     0
  0
SCALE
  5
50
102
{ACAD_REACTORS
330
47
102
}
330
47
100
AcDbScale
 70
     0
300
1:30
140
1.0
141
30.0
290
     0
  0
SCALE
  5
51
102
{ACAD_REACTORS
330
47
102
}
330
47
100
AcDbScale
 70
     0
300
1:40
140
1.0
141
40.0
290
     0
  0
SCALE
  5
52
102
{ACAD_REACTORS
330
47
102
}
330
47
100
AcDbScale
 70
     0
300
1:50
140
1.0
141
50.0
290
     0
  0
SCALE
  5
53
102
{ACAD_REACTORS
330
47
102
}
330
47
100
AcDbScale
 70
     0
300
1:100
140
1.0
141
100.0
290
     0
  0
SCALE
  5
54
102
{ACAD_REACTORS
330
47
102
}
330
47
100
AcDbScale
 70
     0
300
2:1
140
2.0
141
1.0
290
     0
  0
SCALE
  5
55
102
{ACAD_REACTORS
330
47
102
}
330
47
100
AcDbScale
 70
     0
300
4:1
140
4.0
141
1.0
290
     0
  0
SCALE
  5
56
102
{ACAD_REACTORS
330
47
102
}
330
47
100
AcDbScale
 70
     0
300
8:1
140
8.0
141
1.0
290
     0
  0
SCALE
  5
57
102
{ACAD_REACTORS
330
47
102
}
330
47
100
AcDbScale
 70
     0
300
10:1
140
10.0
141
1.0
290
     0
  0
SCALE
  5
58
102
{ACAD_REACTORS
330
47
102
}
330
47
100
AcDbScale
 70
     0
300
100:1
140
100.0
141
1.0
290
     0
  0
SCALE
  5
59
102
{ACAD_REACTORS
330
47
102
}
330
47
100
AcDbScale
 70
     0
300
1/128" = 1'-0"
140
0.007812
141
12.0
290
     0
  0
SCALE
  5
5A
102
{ACAD_REACTORS
330
47
102
}
330
47
100
AcDbScale
 70
     0
300
1/64" = 1'-0"
140
0.015625
141
12.0
290
     0
  0
SCALE
  5
5B
102
{ACAD_REACTORS
330
47
102
}
330
47
100
AcDbScale
 70
     0
300
1/32" = 1'-0"
140
0.03125
141
12.0
290
     0
  0
SCALE
  5
5C
102
{ACAD_REACTORS
330
47
102
}
330
47
100
AcDbScale
 70
     0
300
1/16" = 1'-0"
140
0.0625
141
12.0
290
     0
  0
SCALE
  5
5D
102
{ACAD_REACTORS
330
47
102
}
330
47
100
AcDbScale
 70
     0
300
3/32" = 1'-0"
140
0.09375
141
12.0
290
     0
  0
SCALE
  5
5E
102
{ACAD_REACTORS
330
47
102
}
330
47
100
AcDbScale
 70
     0
300
1/8" = 1'-0"
140
0.125
141
12.0
290
     0
  0
SCALE
  5
5F
102
{ACAD_REACTORS
330
47
102
}
330
47
100
AcDbScale
 70
     0
300
3/16" = 1'-0"
140
0.1875
141
12.0
290
     0
  0
SCALE
  5
60
102
{ACAD_REACTORS
330
47
102
}
330
47
100
AcDbScale
 70
     0
300
1/4" = 1'-0"
140
0.25
141
12.0
290
     0
  0
SCALE
  5
61
102
{ACAD_REACTORS
330
47
102
}
330
47
100
AcDbScale
 70
     0
300
3/8" = 1'-0"
140
0.375
141
12.0
290
     0
  0
SCALE
  5
62
102
{ACAD_REACTORS
330
47
102
}
330
47
100
AcDbScale
 70
     0
300
1/2" = 1'-0"
140
0.5
141
12.0
290
     0
  0
SCALE
  5
63
102
{ACAD_REACTORS
330
47
102
}
330
47
100
AcDbScale
 70
     0
300
3/4" = 1'-0"
140
0.75
141
12.0
290
     0
  0
SCALE
  5
64
102
{ACAD_REACTORS
330
47
102
}
330
47
100
AcDbScale
 70
     0
300
1" = 1'-0"
140
1.0
141
12.0
290
     0
  0
SCALE
  5
65
102
{ACAD_REACTORS
330
47
102
}
330
47
100
AcDbScale
 70
     0
300
1-1/2" = 1'-0"
140
1.5
141
12.0
290
     0
  0
SCALE
  5
66
102
{ACAD_REACTORS
330
47
102
}
330
47
100
AcDbScale
 70
     0
300
3" = 1'-0"
140
3.0
141
12.0
290
     0
  0
SCALE
  5
67
102
{ACAD_REACTORS
330
47
102
}
330
47
100
AcDbScale
 70
     0
300
6" = 1'-0"
140
6.0
141
12.0
290
     0
  0
SCALE
  5
68
102
{ACAD_REACTORS
330
47
102
}
330
47
100
AcDbScale
 70
     0
300
1'-0" = 1'-0"
140
12.0
141
12.0
290
     0
  0
TABLESTYLE
  5
6A
102
{ACAD_REACTORS
330
69
102
}
330
69
100
AcDbTableStyle
  3
Standard
 70
     0
 71
     0
 40
1.5
 41
1.5
280
     0
281
     0
  7
Standard
140
4.5
170
     2
 62
     0
 63
   257
283
     0
274
    -2
284
     1
 64
     0
275
    -2
285
     1
 65
     0
276
    -2
286
     1
 66
     0
277
    -2
287
     1
 67
     0
278
    -2
288
     1
 68
     0
279
    -2
289
     1
 69
     0
  7
Standard
140
6.0
170
     5
 62
     0
 63
   257
283
     0
274
    -2
284
     1
 64
     0
275
    -2
285
     1
 65
     0
276
    -2
286
     1
 66
     0
277
    -2
287
     1
 67
     0
278
    -2
288
     1
 68
     0
279
    -2
289
     1
 69
     0
  7
Standard
140
4.5
170
     5
 62
     0
 63
   257
283
     0
274
    -2
284
     1
 64
     0
275
    -2
285
     1
 65
     0
276
    -2
286
     1
 66
     0
277
    -2
287
     1
 67
     0
278
    -2
288
     1
 68
     0
279
    -2
289
     1
 69
     0
  0
VISUALSTYLE
  5
2F
102
{ACAD_REACTORS
330
2A
102
}
102
{ACAD_XDICTIONARY
360
1C0
102
}
330
2A
100
AcDbVisualStyle
  2
2dWireframe
 70
     4
 71
     0
 72
     2
 73
     0
 90
        0
 40
0.6
 41
30.0
 62
     5
 63
     7
 74
     1
 91
        4
 64
     7
 65
   257
 75
     1
175
     1
 42
1.0
 92
        0
 66
   257
 43
1.0
 76
     1
 77
     6
 78
     2
 67
     7
 79
     5
170
     0
171
     0
290
     0
174
     0
 93
        1
 44
0.0
173
     0
291
     0
 45
0.0
1001
ACAD
1000
AcDbSavedByObjectVersion
1070
     0
  0
VISUALSTYLE
  5
32
102
{ACAD_REACTORS
330
2A
102
}
102
{ACAD_XDICTIONARY
360
1C6
102
}
330
2A
100
AcDbVisualStyle
  2
Basic
 70
     7
 71
     1
 72
     0
 73
     1
 90
        0
 40
0.6
 41
30.0
 62
     5
 63
     7
 74
     0
 91
        4
 64
     7
 65
   257
 75
     1
175
     1
 42
1.0
 92
        8
 66
     7
 43
1.0
 76
     1
 77
     6
 78
     2
 67
     7
 79
     5
170
     0
171
     0
290
     0
174
     0
 93
        1
 44
0.0
173
     0
291
     1
 45
0.0
1001
ACAD
1000
AcDbSavedByObjectVersion
1070
     0
  0
VISUALSTYLE
  5
36
102
{ACAD_REACTORS
330
2A
102
}
102
{ACAD_XDICTIONARY
360
1CE
102
}
330
2A
100
AcDbVisualStyle
  2
Brighten
 70
    12
 71
     2
 72
     2
 73
     0
 90
        0
 40
0.6
 41
30.0
 62
     5
 63
     7
 74
     1
 91
        4
 64
     7
 65
   257
 75
     1
175
     1
 42
1.0
 92
        8
 66
     7
 43
1.0
 76
     1
 77
     6
 78
     2
 67
     7
 79
     5
170
     0
171
     0
290
     0
174
     0
 93
        1
 44
50.0
173
     0
291
     1
 45
0.0
1001
ACAD
1000
AcDbSavedByObjectVersion
1070
     0
  0
VISUALSTYLE
  5
3A
102
{ACAD_REACTORS
330
2A
102
}
102
{ACAD_XDICTIONARY
360
1D6
102
}
330
2A
100
AcDbVisualStyle
  2
ColorChange
 70
    16
 71
     2
 72
     2
 73
     3
 90
        0
 40
0.6
 41
30.0
 62
     5
 63
     8
 74
     1
 91
        4
 64
     7
 65
   257
 75
     1
175
     1
 42
1.0
 92
        8
 66
     8
 43
1.0
 76
     1
 77
     6
 78
     2
 67
     7
 79
     5
170
     0
171
     0
290
     0
174
     0
 93
        1
 44
0.0
173
     0
291
     1
 45
0.0
1001
ACAD
1000
AcDbSavedByObjectVersion
1070
     0
  0
VISUALSTYLE
  5
34
102
{ACAD_REACTORS
330
2A
102
}
102
{ACAD_XDICTIONARY
360
1CA
102
}
330
2A
100
AcDbVisualStyle
  2
Conceptual
 70
     9
 71
     3
 72
     2
 73
     0
 90
        0
 40
0.6
 41
30.0
 62
     5
 63
     7
 74
     2
 91
        2
 64
     7
 65
   257
 75
     1
175
     1
 42
179.0
 92
        8
 66
     7
 43
1.0
 76
     1
 77
     6
 78
     2
 67
     7
 79
     3
170
     0
171
     0
290
     0
174
     0
 93
        1
 44
0.0
173
     0
291
     0
 45
0.0
1001
ACAD
1000
AcDbSavedByObjectVersion
1070
     0
  0
VISUALSTYLE
  5
35
102
{ACAD_REACTORS
330
2A
102
}
102
{ACAD_XDICTIONARY
360
1CC
102
}
330
2A
100
AcDbVisualStyle
  2
Dim
 70
    11
 71
     2
 72
     2
 73
     0
 90
        0
 40
0.6
 41
30.0
 62
     5
 63
     7
 74
     1
 91
        4
 64
     7
 65
   257
 75
     1
175
     1
 42
1.0
 92
        8
 66
     7
 43
1.0
 76
     1
 77
     6
 78
     2
 67
     7
 79
     5
170
     0
171
     0
290
     0
174
     0
 93
        1
 44
-50.0
173
     0
291
     1
 45
0.0
1001
ACAD
1000
AcDbSavedByObjectVersion
1070
     0
  0
VISUALSTYLE
  5
3D
102
{ACAD_REACTORS
330
2A
102
}
102
{ACAD_XDICTIONARY
360
1DC
102
}
330
2A
100
AcDbVisualStyle
  2
EdgeColorOff
 70
    22
 71
     2
 72
     2
 73
     0
 90
        0
 40
0.6
 41
30.0
 62
     5
 63
     7
 74
     1
 91
        4
 64
     7
 65
   257
 75
     1
175
     1
 42
1.0
 92
        8
 66
     7
 43
1.0
 76
     1
 77
     6
 78
     2
 67
     7
 79
     5
170
     0
171
     0
290
     0
174
     0
 93
        1
 44
0.0
173
     0
291
     1
 45
0.0
1001
ACAD
1000
AcDbSavedByObjectVersion
1070
     0
  0
VISUALSTYLE
  5
39
102
{ACAD_REACTORS
330
2A
102
}
102
{ACAD_XDICTIONARY
360
1D4
102
}
330
2A
100
AcDbVisualStyle
  2
Facepattern
 70
    15
 71
     2
 72
     2
 73
     0
 90
        0
 40
0.6
 41
30.0
 62
     5
 63
     7
 74
     1
 91
        4
 64
     7
 65
   257
 75
     1
175
     1
 42
1.0
 92
        8
 66
     7
 43
1.0
 76
     1
 77
     6
 78
     2
 67
     7
 79
     5
170
     0
171
     0
290
     0
174
     0
 93
        1
 44
0.0
173
     0
291
     1
 45
0.0
1001
ACAD
1000
AcDbSavedByObjectVersion
1070
     0
  0
VISUALSTYLE
  5
2B
102
{ACAD_REACTORS
330
2A
102
}
102
{ACAD_XDICTIONARY
360
1B8
102
}
330
2A
100
AcDbVisualStyle
  2
Flat
 70
     0
 71
     2
 72
     1
 73
     1
 90
        2
 40
0.6
 41
30.0
 62
     5
 63
     7
 74
     0
 91
        0
 64
     7
 65
   257
 75
     1
175
     1
 42
1.0
 92
        8
 66
     7
 43
1.0
 76
     1
 77
     6
 78
     2
 67
     7
 79
     5
170
     0
171
     0
290
     0
174
     0
 93
       13
 44
0.0
173
     0
291
     1
 45
0.0
1001
ACAD
1000
AcDbSavedByObjectVersion
1070
     0
  0
VISUALSTYLE
  5
2C
102
{ACAD_REACTORS
330
2A
102
}
102
{ACAD_XDICTIONARY
360
1BA
102
}
330
2A
100
AcDbVisualStyle
  2
FlatWithEdges
 70
     1
 71
     2
 72
     1
 73
     1
 90
        2
 40
0.6
 41
30.0
 62
     5
 63
     7
 74
     1
 91
        0
 64
     7
 65
   257
 75
     1
175
     1
 42
1.0
 92
        0
 66
   257
 43
1.0
 76
     1
 77
     6
 78
     2
 67
     7
 79
     5
170
     0
171
     0
290
     0
174
     0
 93
       13
 44
0.0
173
     0
291
     1
 45
0.0
1001
ACAD
1000
AcDbSavedByObjectVersion
1070
     0
  0
VISUALSTYLE
  5
2D
102
{ACAD_REACTORS
330
2A
102
}
102
{ACAD_XDICTIONARY
360
1BC
102
}
330
2A
100
AcDbVisualStyle
  2
Gouraud
 70
     2
 71
     2
 72
     2
 73
     1
 90
        2
 40
0.6
 41
30.0
 62
     5
 63
     7
 74
     0
 91
        0
 64
     7
 65
   257
 75
     1
175
     1
 42
1.0
 92
        0
 66
     7
 43
1.0
 76
     1
 77
     6
 78
     2
 67
     7
 79
     5
170
     0
171
     0
290
     0
174
     0
 93
       13
 44
0.0
173
     0
291
     1
 45
0.0
1001
ACAD
1000
AcDbSavedByObjectVersion
1070
     0
  0
VISUALSTYLE
  5
2E
102
{ACAD_REACTORS
330
2A
102
}
102
{ACAD_XDICTIONARY
360
1BE
102
}
330
2A
100
AcDbVisualStyle
  2
GouraudWithEdges
 70
     3
 71
     2
 72
     2
 73
     1
 90
        2
 40
0.6
 41
30.0
 62
     5
 63
     7
 74
     1
 91
        0
 64
     7
 65
   257
 75
     1
175
     1
 42
1.0
 92
        0
 66
   257
 43
1.0
 76
     1
 77
     6
 78
     2
 67
     7
 79
     5
170
     0
171
     0
290
     0
174
     0
 93
       13
 44
0.0
173
     0
291
     1
 45
0.0
1001
ACAD
1000
AcDbSavedByObjectVersion
1070
     0
  0
VISUALSTYLE
  5
31
102
{ACAD_REACTORS
330
2A
102
}
102
{ACAD_XDICTIONARY
360
1C4
102
}
330
2A
100
AcDbVisualStyle
  2
Hidden
 70
     6
 71
     1
 72
     2
 73
     2
 90
        0
 40
0.6
 41
30.0
 62
     5
 63
     7
 74
     2
 91
        2
 64
     7
 65
   257
 75
     2
175
     1
 42
40.0
 92
        0
 66
   257
 43
1.0
 76
     1
 77
     6
 78
     2
 67
     7
 79
     3
170
     0
171
     0
290
     0
174
     0
 93
        1
 44
0.0
173
     0
291
     0
 45
0.0
1001
ACAD
1000
AcDbSavedByObjectVersion
1070
     0
  0
VISUALSTYLE
  5
3B
102
{ACAD_REACTORS
330
2A
102
}
102
{ACAD_XDICTIONARY
360
1D8
102
}
330
2A
100
AcDbVisualStyle
  2
JitterOff
 70
    20
 71
     2
 72
     2
 73
     0
 90
        0
 40
0.6
 41
30.0
 62
     5
 63
     7
 74
     1
 91
        4
 64
     7
 65
   257
 75
     1
175
     1
 42
1.0
 92
       10
 66
     7
 43
1.0
 76
     1
 77
     6
 78
     2
 67
     7
 79
     5
170
     0
171
     0
290
     0
174
     0
 93
        1
 44
0.0
173
     0
291
     1
 45
0.0
1001
ACAD
1000
AcDbSavedByObjectVersion
1070
     0
  0
VISUALSTYLE
  5
38
102
{ACAD_REACTORS
330
2A
102
}
102
{ACAD_XDICTIONARY
360
1D2
102
}
330
2A
100
AcDbVisualStyle
  2
Linepattern
 70
    14
 71
     2
 72
     2
 73
     0
 90
        0
 40
0.6
 41
30.0
 62
     5
 63
     7
 74
     1
 91
        4
 64
     7
 65
   257
 75
     7
175
     7
 42
1.0
 92
        8
 66
     7
 43
1.0
 76
     1
 77
     6
 78
     2
 67
     7
 79
     5
170
     0
171
     0
290
     0
174
     0
 93
        1
 44
0.0
173
     0
291
     1
 45
0.0
1001
ACAD
1000
AcDbSavedByObjectVersion
1070
     0
  0
VISUALSTYLE
  5
3C
102
{ACAD_REACTORS
330
2A
102
}
102
{ACAD_XDICTIONARY
360
1DA
102
}
330
2A
100
AcDbVisualStyle
  2
OverhangOff
 70
    21
 71
     2
 72
     2
 73
     0
 90
        0
 40
0.6
 41
30.0
 62
     5
 63
     7
 74
     1
 91
        4
 64
     7
 65
   257
 75
     1
175
     1
 42
1.0
 92
        9
 66
     7
 43
1.0
 76
     1
 77
     6
 78
     2
 67
     7
 79
     5
170
     0
171
     0
290
     0
174
     0
 93
        1
 44
0.0
173
     0
291
     1
 45
0.0
1001
ACAD
1000
AcDbSavedByObjectVersion
1070
     0
  0
VISUALSTYLE
  5
33
102
{ACAD_REACTORS
330
2A
102
}
102
{ACAD_XDICTIONARY
360
1C8
102
}
330
2A
100
AcDbVisualStyle
  2
Realistic
 70
     8
 71
     2
 72
     3
 73
     0
 90
        2
 40
0.6
 41
30.0
 62
     5
 63
     7
 74
     0
 91
        0
 64
     7
 65
   257
 75
     1
175
     1
 42
1.0
 92
        8
 66
   257
 43
1.0
 76
     1
 77
     6
 78
     2
 67
     7
 79
     3
170
     0
171
     0
290
     0
174
     0
 93
       13
 44
0.0
173
     0
291
     0
 45
0.0
1001
ACAD
1000
AcDbSavedByObjectVersion
1070
     0
  0
VISUALSTYLE
  5
42
102
{ACAD_REACTORS
330
2A
102
}
102
{ACAD_XDICTIONARY
360
1E6
102
}
330
2A
100
AcDbVisualStyle
  2
Shaded
 70
    27
 71
     2
 72
     2
 73
     1
 90
        2
 40
0.6
 41
30.0
 62
     5
 63
     7
 74
     0
 91
        4
 64
     7
 65
   257
 75
     1
175
     1
 42
1.0
 92
        8
 66
   257
 43
1.0
 76
     1
 77
     6
 78
     2
 67
     8
 79
     3
170
     0
171
     0
290
     0
174
     0
 93
        5
 44
0.0
173
     0
291
     0
 45
0.0
1001
ACAD
1000
AcDbSavedByObjectVersion
1070
     0
  0
VISUALSTYLE
  5
41
102
{ACAD_REACTORS
330
2A
102
}
102
{ACAD_XDICTIONARY
360
1E4
102
}
330
2A
100
AcDbVisualStyle
  2
Shaded with edges
 70
    26
 71
     2
 72
     2
 73
     1
 90
        2
 40
0.6
 41
30.0
 62
     5
 63
     7
 74
     1
 91
       10
 64
     7
 65
   257
 75
     2
175
     1
 42
1.0
 92
        8
 66
   257
 43
1.0
 76
     1
 77
     6
 78
     2
 67
     7
 79
     3
170
     0
171
     0
290
     0
174
     0
 93
        5
 44
0.0
173
     0
291
     0
 45
0.0
1001
ACAD
1000
AcDbSavedByObjectVersion
1070
     0
  0
VISUALSTYLE
  5
3E
102
{ACAD_REACTORS
330
2A
102
}
102
{ACAD_XDICTIONARY
360
1DE
102
}
330
2A
100
AcDbVisualStyle
  2
Shades of Gray
 70
    23
 71
     2
 72
     2
 73
     3
 90
        0
 40
0.6
 41
30.0
 62
     5
 63
     7
 74
     2
 91
        2
 64
     7
 65
     7
 75
     1
175
     1
 42
40.0
 92
        8
 66
     7
 43
1.0
 76
     1
 77
     6
 78
     2
 67
     7
 79
     3
170
     0
171
     0
290
     0
174
     0
 93
        1
 44
0.0
173
     0
291
     0
 45
0.0
1001
ACAD
1000
AcDbSavedByObjectVersion
1070
     0
  0
VISUALSTYLE
  5
3F
102
{ACAD_REACTORS
330
2A
102
}
102
{ACAD_XDICTIONARY
360
1E0
102
}
330
2A
100
AcDbVisualStyle
  2
Sketchy
 70
    24
 71
     1
 72
     2
 73
     2
 90
        0
 40
0.6
 41
30.0
 62
     5
 63
     7
 74
     2
 91
        2
 64
     7
 65
     7
 75
     1
175
     1
 42
40.0
 92
       11
 66
     7
 43
1.0
 76
     1
 77
     6
 78
     2
 67
     7
 79
     6
170
     0
171
     0
290
     0
174
     0
 93
        1
 44
0.0
173
     0
291
     0
 45
0.0
1001
ACAD
1000
AcDbSavedByObjectVersion
1070
     0
  0
VISUALSTYLE
  5
37
102
{ACAD_REACTORS
330
2A
102
}
102
{ACAD_XDICTIONARY
360
1D0
102
}
330
2A
100
AcDbVisualStyle
  2
Thicken
 70
    13
 71
     2
 72
     2
 73
     0
 90
        0
 40
0.6
 41
30.0
 62
     5
 63
     7
 74
     1
 91
        4
 64
     7
 65
   257
 75
     1
175
     1
 42
1.0
 92
       12
 66
     7
 43
1.0
 76
     1
 77
     6
 78
     2
 67
     7
 79
     5
170
     0
171
     0
290
     0
174
     0
 93
        1
 44
0.0
173
     0
291
     1
 45
0.0
1001
ACAD
1000
AcDbSavedByObjectVersion
1070
     0
  0
VISUALSTYLE
  5
30
102
{ACAD_REACTORS
330
2A
102
}
102
{ACAD_XDICTIONARY
360
1C2
102
}
330
2A
100
AcDbVisualStyle
  2
Wireframe
 70
     5
 71
     0
 72
     2
 73
     0
 90
        0
 40
0.6
 41
30.0
 62
     5
 63
     7
 74
     1
 91
        4
 64
     7
 65
   257
 75
     1
175
     1
 42
1.0
 92
        0
 66
   257
 43
1.0
 76
     1
 77
     6
 78
     2
 67
     7
 79
     3
170
     0
171
     0
290
     0
174
     0
 93
        1
 44
0.0
173
     0
291
     0
 45
0.0
1001
ACAD
1000
AcDbSavedByObjectVersion
1070
     0
  0
VISUALSTYLE
  5
40
102
{ACAD_REACTORS
330
2A
102
}
102
{ACAD_XDICTIONARY
360
1E2
102
}
330
2A
100
AcDbVisualStyle
  2
X-Ray
 70
    25
 71
     2
 72
     2
 73
     1
 90
        1
 40
0.5
 41
30.0
 62
     5
 63
     7
 74
     1
 91
        0
 64
     7
 65
   257
 75
     1
175
     1
 42
1.0
 92
        8
 66
     7
 43
1.0
 76
     1
 77
     6
 78
     2
 67
     7
 79
     3
170
     0
171
     0
290
     0
174
     0
 93
       13
 44
0.0
173
     0
291
     0
 45
0.0
1001
ACAD
1000
AcDbSavedByObjectVersion
1070
     0
  0
DICTIONARYVAR
  5
1B6
102
{ACAD_REACTORS
330
1A9
102
}
330
1A9
100
DictionaryVariables
280
     0
  1
1:1
  0
DICTIONARYVAR
  5
1B0
102
{ACAD_REACTORS
330
1A9
102
}
330
1A9
100
DictionaryVariables
280
     0
  1
3.500000
  0
DICTIONARYVAR
  5
1B1
102
{ACAD_REACTORS
330
1A9
102
}
330
1A9
100
DictionaryVariables
280
     0
  1
acadiso.lin
  0
DICTIONARYVAR
  5
1AB
102
{ACAD_REACTORS
330
1A9
102
}
330
1A9
100
DictionaryVariables
280
     0
  1
Standard
  0
DICTIONARYVAR
  5
1AA
102
{ACAD_REACTORS
330
1A9
102
}
330
1A9
100
DictionaryVariables
280
     0
  1
Standard
  0
DICTIONARYVAR
  5
1B2
102
{ACAD_REACTORS
330
1A9
102
}
330
1A9
100
DictionaryVariables
280
     0
  1
2
  0
DICTIONARYVAR
  5
1B3
102
{ACAD_REACTORS
330
1A9
102
}
330
1A9
100
DictionaryVariables
280
     0
  1
1
  0
DICTIONARYVAR
  5
1B7
102
{ACAD_REACTORS
330
1A9
102
}
330
1A9
100
DictionaryVariables
280
     0
  1
1
  0
DICTIONARYVAR
  5
1AD
102
{ACAD_REACTORS
330
1A9
102
}
330
1A9
100
DictionaryVariables
280
     0
  1
80.000000
  0
DICTIONARYVAR
  5
1AC
102
{ACAD_REACTORS
330
1A9
102
}
330
1A9
100
DictionaryVariables
280
     0
  1
5.000000
  0
DICTIONARY
  5
1EA
330
45
100
AcDbDictionary
280
     1
281
     1
  3
ACAD_XREC_ROUNDTRIP
360
1EB
  0
DICTIONARY
  5
1E8
330
44
100
AcDbDictionary
280
     1
281
     1
  3
ACAD_XREC_ROUNDTRIP
360
1E9
  0
DICTIONARY
  5
1EC
330
46
100
AcDbDictionary
280
     1
281
     1
  3
ACAD_XREC_ROUNDTRIP
360
1ED
  0
DICTIONARY
  5
1EF
330
6C
100
AcDbDictionary
280
     1
281
     1
  3
ACAD_XREC_ROUNDTRIP
360
1F0
  0
DICTIONARY
  5
1C0
330
2F
100
AcDbDictionary
280
     1
281
     1
  3
ACAD_XREC_ROUNDTRIP
360
1C1
  0
DICTIONARY
  5
1C6
330
32
100
AcDbDictionary
280
     1
281
     1
  3
ACAD_XREC_ROUNDTRIP
360
1C7
  0
DICTIONARY
  5
1CE
330
36
100
AcDbDictionary
280
     1
281
     1
  3
ACAD_XREC_ROUNDTRIP
360
1CF
  0
DICTIONARY
  5
1D6
330
3A
100
AcDbDictionary
280
     1
281
     1
  3
ACAD_XREC_ROUNDTRIP
360
1D7
  0
DICTIONARY
  5
1CA
330
34
100
AcDbDictionary
280
     1
281
     1
  3
ACAD_XREC_ROUNDTRIP
360
1CB
  0
DICTIONARY
  5
1CC
330
35
100
AcDbDictionary
280
     1
281
     1
  3
ACAD_XREC_ROUNDTRIP
360
1CD
  0
DICTIONARY
  5
1DC
330
3D
100
AcDbDictionary
280
     1
281
     1
  3
ACAD_XREC_ROUNDTRIP
360
1DD
  0
DICTIONARY
  5
1D4
330
39
100
AcDbDictionary
280
     1
281
     1
  3
ACAD_XREC_ROUNDTRIP
360
1D5
  0
DICTIONARY
  5
1B8
330
2B
100
AcDbDictionary
280
     1
281
     1
  3
ACAD_XREC_ROUNDTRIP
360
1B9
  0
DICTIONARY
  5
1BA
330
2C
100
AcDbDictionary
280
     1
281
     1
  3
ACAD_XREC_ROUNDTRIP
360
1BB
  0
DICTIONARY
  5
1BC
330
2D
100
AcDbDictionary
280
     1
281
     1
  3
ACAD_XREC_ROUNDTRIP
360
1BD
  0
DICTIONARY
  5
1BE
330
2E
100
AcDbDictionary
280
     1
281
     1
  3
ACAD_XREC_ROUNDTRIP
360
1BF
  0
DICTIONARY
  5
1C4
330
31
100
AcDbDictionary
280
     1
281
     1
  3
ACAD_XREC_ROUNDTRIP
360
1C5
  0
DICTIONARY
  5
1D8
330
3B
100
AcDbDictionary
280
     1
281
     1
  3
ACAD_XREC_ROUNDTRIP
360
1D9
  0
DICTIONARY
  5
1D2
330
38
100
AcDbDictionary
280
     1
281
     1
  3
ACAD_XREC_ROUNDTRIP
360
1D3
  0
DICTIONARY
  5
1DA
330
3C
100
AcDbDictionary
280
     1
281
     1
  3
ACAD_XREC_ROUNDTRIP
360
1DB
  0
DICTIONARY
  5
1C8
330
33
100
AcDbDictionary
280
     1
281
     1
  3
ACAD_XREC_ROUNDTRIP
360
1C9
  0
DICTIONARY
  5
1E6
330
42
100
AcDbDictionary
280
     1
281
     1
  3
ACAD_XREC_ROUNDTRIP
360
1E7
  0
DICTIONARY
  5
1E4
330
41
100
AcDbDictionary
280
     1
281
     1
  3
ACAD_XREC_ROUNDTRIP
360
1E5
  0
DICTIONARY
  5
1DE
330
3E
100
AcDbDictionary
280
     1
281
     1
  3
ACAD_XREC_ROUNDTRIP
360
1DF
  0
DICTIONARY
  5
1E0
330
3F
100
AcDbDictionary
280
     1
281
     1
  3
ACAD_XREC_ROUNDTRIP
360
1E1
  0
DICTIONARY
  5
1D0
330
37
100
AcDbDictionary
280
     1
281
     1
  3
ACAD_XREC_ROUNDTRIP
360
1D1
  0
DICTIONARY
  5
1C2
330
30
100
AcDbDictionary
280
     1
281
     1
  3
ACAD_XREC_ROUNDTRIP
360
1C3
  0
DICTIONARY
  5
1E2
330
40
100
AcDbDictionary
280
     1
281
     1
  3
ACAD_XREC_ROUNDTRIP
360
1E3
  0
XRECORD
  5
1EB
102
{ACAD_REACTORS
330
1EA
102
}
330
1EA
100
AcDbXrecord
280
     1
102
MATERIAL
148
0.0
149
0.0
149
0.0
 93
        0
 94
      127
282
     0
 72
     1
 77
     1
171
     1
175
     1
179
     1
273
     0
  0
XRECORD
  5
1E9
102
{ACAD_REACTORS
330
1E8
102
}
330
1E8
100
AcDbXrecord
280
     1
102
MATERIAL
148
0.0
149
0.0
149
0.0
 93
        0
 94
      127
282
     0
 72
     1
 77
     1
171
     1
175
     1
179
     1
273
     0
  0
XRECORD
  5
1ED
102
{ACAD_REACTORS
330
1EC
102
}
330
1EC
100
AcDbXrecord
280
     1
102
MATERIAL
148
0.0
149
0.0
149
0.0
 93
        0
 94
      127
282
     0
 72
     1
 77
     1
171
     1
175
     1
179
     1
273
     0
  0
XRECORD
  5
1F0
102
{ACAD_REACTORS
330
1EF
102
}
330
1EF
100
AcDbXrecord
280
     1
102
ACAD_ROUNDTRIP_2010_MLEADER_STYLE
  0
XRECORD
  5
1C1
102
{ACAD_REACTORS
330
1C0
102
}
330
1C0
100
AcDbXrecord
280
     1
102
RTVSPropertyOp0
 70
     1
102
RTVSPropertyOp1
 70
     1
102
RTVSPropertyOp2
 70
     1
102
RTVSPropertyOp3
 70
     1
102
RTVSPropertyOp4
 70
     1
102
RTVSPropertyOp5
 70
     1
102
RTVSPropertyOp6
 70
     1
102
RTVSPropertyOp7
 70
     1
102
RTVSPropertyOp8
 70
     1
102
RTVSPropertyOp9
 70
     1
102
RTVSPropertyOp10
 70
     1
102
RTVSPropertyOp11
 70
     1
102
RTVSPropertyOp12
 70
     1
102
RTVSPropertyOp13
 70
     1
102
RTVSPropertyOp14
 70
     1
102
RTVSPropertyOp15
 70
     1
102
RTVSPropertyOp16
 70
     1
102
RTVSPropertyOp17
 70
     1
102
RTVSPropertyOp18
 70
     1
102
RTVSPropertyOp19
 70
     1
102
RTVSPropertyOp20
 70
     1
102
RTVSPropertyOp21
 70
     1
102
RTVSPropertyOp22
 70
     1
102
RTVSPropertyOp23
 70
     1
102
RTVSPropertyOp24
 70
     1
102
RTVSPropertyOp25
 70
     1
102
RTVSPropertyOp26
 70
     1
102
RTVSPropertyOp27
 70
     1
102
RTVSPropertyOp28
 70
     1
102
RTVSPropertyOp29
 70
     1
102
RTVSPropertyOp30
 70
     1
102
RTVSPropertyOp31
 70
     1
102
RTVSPropertyOp32
 70
     1
102
RTVSPropertyOp33
 70
     1
102
RTVSPropertyOp34
 70
     1
102
RTVSPropertyOp35
 70
     1
102
RTVSPropertyOp36
 70
     1
102
RTVSPropertyOp37
 70
     1
102
RTVSPropertyOp38
 70
     1
102
RTVSPropertyOp39
 70
     1
102
RTVSPropertyOp40
 70
     1
102
RTVSPropertyOp41
 70
     1
102
RTVSPropertyOp42
 70
     1
102
RTVSPropertyOp43
 70
     1
102
RTVSPropertyOp44
 70
     1
102
RTVSPropertyOp45
 70
     1
102
RTVSPropertyOp46
 70
     1
102
RTVSPropertyOp47
 70
     1
102
RTVSPropertyOp48
 70
     1
102
RTVSPropertyOp49
 70
     1
102
RTVSPropertyOp50
 70
     1
102
RTVSPropertyOp51
 70
     0
102
RTVSPropertyOp52
 70
     0
102
RTVSPropertyOp53
 70
     1
102
RTVSPropertyOp54
 70
     1
102
RTVSPropertyOp55
 70
     1
102
RTVSPropertyOp56
 70
     1
102
RTVSPropertyOp57
 70
     1
102
RTVSPost2010Prop28
280
     1
102
RTVSPost2010PropOp28
 70
     1
102
RTVSPost2010Prop29
280
     1
102
RTVSPost2010PropOp29
 70
     1
102
RTVSPost2010Prop30
280
     0
102
RTVSPost2010PropOp30
 70
     1
102
RTVSPost2010Prop31
280
     0
102
RTVSPost2010PropOp31
 70
     1
102
RTVSPost2010Prop32
280
     0
102
RTVSPost2010PropOp32
 70
     1
102
RTVSPost2010Prop33
280
     0
102
RTVSPost2010PropOp33
 70
     1
102
RTVSPost2010Prop34
280
     0
102
RTVSPost2010PropOp34
 70
     1
102
RTVSPost2010Prop35
280
     0
102
RTVSPost2010PropOp35
 70
     1
102
RTVSPost2010Prop36
280
     0
102
RTVSPost2010PropOp36
 70
     1
102
RTVSPost2010Prop37
 90
       50
102
RTVSPost2010PropOp37
 70
     1
102
RTVSPost2010Prop38
140
0.0
102
RTVSPost2010PropOp38
 70
     1
102
RTVSPost2010Prop39
140
1.0
102
RTVSPost2010PropOp39
 70
     1
102
RTVSPost2010Prop40
 90
        0
102
RTVSPost2010PropOp40
 70
     1
102
RTVSPost2010Prop41ColorIndex
 90
       18
102
RTVSPost2010Prop41ColorRGB
 90
        0
102
RTVSPost2010PropOp41
 70
     1
102
RTVSPost2010Prop42
 90
       50
102
RTVSPost2010PropOp42
 70
     1
102
RTVSPost2010Prop43
 90
        3
102
RTVSPost2010PropOp43
 70
     1
102
RTVSPost2010Prop44ColorIndex
 90
        5
102
RTVSPost2010Prop44ColorRGB
 90
      255
102
RTVSPost2010PropOp44
 70
     1
102
RTVSPost2010Prop45
280
     0
102
RTVSPost2010PropOp45
 70
     1
102
RTVSPost2010Prop46
 90
       50
102
RTVSPost2010PropOp46
 70
     1
102
RTVSPost2010Prop47
 90
       50
102
RTVSPost2010PropOp47
 70
     1
102
RTVSPost2010Prop48
 90
       50
102
RTVSPost2010PropOp48
 70
     1
102
RTVSPost2010Prop49
280
     0
102
RTVSPost2010PropOp49
 70
     1
102
RTVSPost2010Prop50
 90
       50
102
RTVSPost2010PropOp50
 70
     1
102
RTVSPost2010Prop51ColorIndex
 90
      256
102
RTVSPost2010Prop51ColorRGB
 90
-16777216
102
RTVSPost2010PropOp51
 70
     0
102
RTVSPost2010Prop52
140
1.0
102
RTVSPost2010PropOp52
 70
     0
102
RTVSPost2010Prop53
 90
        2
102
RTVSPost2010PropOp53
 70
     1
102
RTVSPost2010Prop54
  1
strokes_ogs.tif
102
RTVSPost2010PropOp54
 70
     1
102
RTVSPost2010Prop55
280
     0
102
RTVSPost2010PropOp55
 70
     1
102
RTVSPost2010Prop56
140
1.0
102
RTVSPost2010PropOp56
 70
     1
102
RTVSPost2010Prop57
140
1.0
102
RTVSPost2010PropOp57
 70
     1
  0
XRECORD
  5
1C7
102
{ACAD_REACTORS
330
1C6
102
}
330
1C6
100
AcDbXrecord
280
     1
102
RTVSPropertyOp0
 70
     1
102
RTVSPropertyOp1
 70
     1
102
RTVSPropertyOp2
 70
     1
102
RTVSPropertyOp3
 70
     1
102
RTVSPropertyOp4
 70
     1
102
RTVSPropertyOp5
 70
     1
102
RTVSPropertyOp6
 70
     1
102
RTVSPropertyOp7
 70
     1
102
RTVSPropertyOp8
 70
     1
102
RTVSPropertyOp9
 70
     1
102
RTVSPropertyOp10
 70
     1
102
RTVSPropertyOp11
 70
     1
102
RTVSPropertyOp12
 70
     1
102
RTVSPropertyOp13
 70
     1
102
RTVSPropertyOp14
 70
     1
102
RTVSPropertyOp15
 70
     1
102
RTVSPropertyOp16
 70
     1
102
RTVSPropertyOp17
 70
     1
102
RTVSPropertyOp18
 70
     1
102
RTVSPropertyOp19
 70
     1
102
RTVSPropertyOp20
 70
     1
102
RTVSPropertyOp21
 70
     1
102
RTVSPropertyOp22
 70
     1
102
RTVSPropertyOp23
 70
     1
102
RTVSPropertyOp24
 70
     1
102
RTVSPropertyOp25
 70
     1
102
RTVSPropertyOp26
 70
     1
102
RTVSPropertyOp27
 70
     1
102
RTVSPropertyOp28
 70
     1
102
RTVSPropertyOp29
 70
     1
102
RTVSPropertyOp30
 70
     1
102
RTVSPropertyOp31
 70
     1
102
RTVSPropertyOp32
 70
     1
102
RTVSPropertyOp33
 70
     1
102
RTVSPropertyOp34
 70
     1
102
RTVSPropertyOp35
 70
     1
102
RTVSPropertyOp36
 70
     1
102
RTVSPropertyOp37
 70
     1
102
RTVSPropertyOp38
 70
     1
102
RTVSPropertyOp39
 70
     1
102
RTVSPropertyOp40
 70
     1
102
RTVSPropertyOp41
 70
     1
102
RTVSPropertyOp42
 70
     1
102
RTVSPropertyOp43
 70
     1
102
RTVSPropertyOp44
 70
     1
102
RTVSPropertyOp45
 70
     1
102
RTVSPropertyOp46
 70
     1
102
RTVSPropertyOp47
 70
     1
102
RTVSPropertyOp48
 70
     1
102
RTVSPropertyOp49
 70
     1
102
RTVSPropertyOp50
 70
     1
102
RTVSPropertyOp51
 70
     0
102
RTVSPropertyOp52
 70
     0
102
RTVSPropertyOp53
 70
     1
102
RTVSPropertyOp54
 70
     1
102
RTVSPropertyOp55
 70
     1
102
RTVSPropertyOp56
 70
     1
102
RTVSPropertyOp57
 70
     1
102
RTVSPost2010Prop28
280
     0
102
RTVSPost2010PropOp28
 70
     1
102
RTVSPost2010Prop29
280
     1
102
RTVSPost2010PropOp29
 70
     1
102
RTVSPost2010Prop30
280
     1
102
RTVSPost2010PropOp30
 70
     1
102
RTVSPost2010Prop31
280
     0
102
RTVSPost2010PropOp31
 70
     1
102
RTVSPost2010Prop32
280
     0
102
RTVSPost2010PropOp32
 70
     1
102
RTVSPost2010Prop33
280
     0
102
RTVSPost2010PropOp33
 70
     1
102
RTVSPost2010Prop34
280
     0
102
RTVSPost2010PropOp34
 70
     1
102
RTVSPost2010Prop35
280
     0
102
RTVSPost2010PropOp35
 70
     1
102
RTVSPost2010Prop36
280
     0
102
RTVSPost2010PropOp36
 70
     1
102
RTVSPost2010Prop37
 90
       50
102
RTVSPost2010PropOp37
 70
     1
102
RTVSPost2010Prop38
140
0.0
102
RTVSPost2010PropOp38
 70
     1
102
RTVSPost2010Prop39
140
1.0
102
RTVSPost2010PropOp39
 70
     1
102
RTVSPost2010Prop40
 90
        0
102
RTVSPost2010PropOp40
 70
     1
102
RTVSPost2010Prop41ColorIndex
 90
       18
102
RTVSPost2010Prop41ColorRGB
 90
        0
102
RTVSPost2010PropOp41
 70
     1
102
RTVSPost2010Prop42
 90
       50
102
RTVSPost2010PropOp42
 70
     1
102
RTVSPost2010Prop43
 90
        3
102
RTVSPost2010PropOp43
 70
     1
102
RTVSPost2010Prop44ColorIndex
 90
        5
102
RTVSPost2010Prop44ColorRGB
 90
      255
102
RTVSPost2010PropOp44
 70
     1
102
RTVSPost2010Prop45
280
     0
102
RTVSPost2010PropOp45
 70
     1
102
RTVSPost2010Prop46
 90
       50
102
RTVSPost2010PropOp46
 70
     1
102
RTVSPost2010Prop47
 90
       50
102
RTVSPost2010PropOp47
 70
     1
102
RTVSPost2010Prop48
 90
       50
102
RTVSPost2010PropOp48
 70
     1
102
RTVSPost2010Prop49
280
     0
102
RTVSPost2010PropOp49
 70
     1
102
RTVSPost2010Prop50
 90
       50
102
RTVSPost2010PropOp50
 70
     1
102
RTVSPost2010Prop51ColorIndex
 90
      256
102
RTVSPost2010Prop51ColorRGB
 90
-16777216
102
RTVSPost2010PropOp51
 70
     0
102
RTVSPost2010Prop52
140
1.0
102
RTVSPost2010PropOp52
 70
     0
102
RTVSPost2010Prop53
 90
        2
102
RTVSPost2010PropOp53
 70
     1
102
RTVSPost2010Prop54
  1
strokes_ogs.tif
102
RTVSPost2010PropOp54
 70
     1
102
RTVSPost2010Prop55
280
     0
102
RTVSPost2010PropOp55
 70
     1
102
RTVSPost2010Prop56
140
1.0
102
RTVSPost2010PropOp56
 70
     1
102
RTVSPost2010Prop57
140
1.0
102
RTVSPost2010PropOp57
 70
     1
  0
XRECORD
  5
1CF
102
{ACAD_REACTORS
330
1CE
102
}
330
1CE
100
AcDbXrecord
280
     1
102
RTVSPropertyOp0
 70
     1
102
RTVSPropertyOp1
 70
     1
102
RTVSPropertyOp2
 70
     1
102
RTVSPropertyOp3
 70
     1
102
RTVSPropertyOp4
 70
     1
102
RTVSPropertyOp5
 70
     1
102
RTVSPropertyOp6
 70
     1
102
RTVSPropertyOp7
 70
     1
102
RTVSPropertyOp8
 70
     1
102
RTVSPropertyOp9
 70
     1
102
RTVSPropertyOp10
 70
     1
102
RTVSPropertyOp11
 70
     1
102
RTVSPropertyOp12
 70
     1
102
RTVSPropertyOp13
 70
     1
102
RTVSPropertyOp14
 70
     1
102
RTVSPropertyOp15
 70
     1
102
RTVSPropertyOp16
 70
     1
102
RTVSPropertyOp17
 70
     1
102
RTVSPropertyOp18
 70
     1
102
RTVSPropertyOp19
 70
     1
102
RTVSPropertyOp20
 70
     1
102
RTVSPropertyOp21
 70
     1
102
RTVSPropertyOp22
 70
     1
102
RTVSPropertyOp23
 70
     1
102
RTVSPropertyOp24
 70
     1
102
RTVSPropertyOp25
 70
     1
102
RTVSPropertyOp26
 70
     1
102
RTVSPropertyOp27
 70
     1
102
RTVSPropertyOp28
 70
     1
102
RTVSPropertyOp29
 70
     1
102
RTVSPropertyOp30
 70
     1
102
RTVSPropertyOp31
 70
     1
102
RTVSPropertyOp32
 70
     1
102
RTVSPropertyOp33
 70
     1
102
RTVSPropertyOp34
 70
     1
102
RTVSPropertyOp35
 70
     1
102
RTVSPropertyOp36
 70
     1
102
RTVSPropertyOp37
 70
     1
102
RTVSPropertyOp38
 70
     1
102
RTVSPropertyOp39
 70
     1
102
RTVSPropertyOp40
 70
     1
102
RTVSPropertyOp41
 70
     1
102
RTVSPropertyOp42
 70
     1
102
RTVSPropertyOp43
 70
     1
102
RTVSPropertyOp44
 70
     1
102
RTVSPropertyOp45
 70
     1
102
RTVSPropertyOp46
 70
     1
102
RTVSPropertyOp47
 70
     1
102
RTVSPropertyOp48
 70
     1
102
RTVSPropertyOp49
 70
     1
102
RTVSPropertyOp50
 70
     1
102
RTVSPropertyOp51
 70
     0
102
RTVSPropertyOp52
 70
     0
102
RTVSPropertyOp53
 70
     1
102
RTVSPropertyOp54
 70
     1
102
RTVSPropertyOp55
 70
     1
102
RTVSPropertyOp56
 70
     1
102
RTVSPropertyOp57
 70
     1
102
RTVSPost2010Prop28
280
     0
102
RTVSPost2010PropOp28
 70
     1
102
RTVSPost2010Prop29
280
     1
102
RTVSPost2010PropOp29
 70
     1
102
RTVSPost2010Prop30
280
     1
102
RTVSPost2010PropOp30
 70
     1
102
RTVSPost2010Prop31
280
     0
102
RTVSPost2010PropOp31
 70
     1
102
RTVSPost2010Prop32
280
     0
102
RTVSPost2010PropOp32
 70
     1
102
RTVSPost2010Prop33
280
     0
102
RTVSPost2010PropOp33
 70
     1
102
RTVSPost2010Prop34
280
     0
102
RTVSPost2010PropOp34
 70
     1
102
RTVSPost2010Prop35
280
     0
102
RTVSPost2010PropOp35
 70
     1
102
RTVSPost2010Prop36
280
     0
102
RTVSPost2010PropOp36
 70
     1
102
RTVSPost2010Prop37
 90
       50
102
RTVSPost2010PropOp37
 70
     1
102
RTVSPost2010Prop38
140
0.0
102
RTVSPost2010PropOp38
 70
     1
102
RTVSPost2010Prop39
140
1.0
102
RTVSPost2010PropOp39
 70
     1
102
RTVSPost2010Prop40
 90
        0
102
RTVSPost2010PropOp40
 70
     1
102
RTVSPost2010Prop41ColorIndex
 90
       18
102
RTVSPost2010Prop41ColorRGB
 90
        0
102
RTVSPost2010PropOp41
 70
     1
102
RTVSPost2010Prop42
 90
       50
102
RTVSPost2010PropOp42
 70
     1
102
RTVSPost2010Prop43
 90
        3
102
RTVSPost2010PropOp43
 70
     1
102
RTVSPost2010Prop44ColorIndex
 90
        5
102
RTVSPost2010Prop44ColorRGB
 90
      255
102
RTVSPost2010PropOp44
 70
     1
102
RTVSPost2010Prop45
280
     0
102
RTVSPost2010PropOp45
 70
     1
102
RTVSPost2010Prop46
 90
       50
102
RTVSPost2010PropOp46
 70
     1
102
RTVSPost2010Prop47
 90
       50
102
RTVSPost2010PropOp47
 70
     1
102
RTVSPost2010Prop48
 90
       50
102
RTVSPost2010PropOp48
 70
     1
102
RTVSPost2010Prop49
280
     0
102
RTVSPost2010PropOp49
 70
     1
102
RTVSPost2010Prop50
 90
       50
102
RTVSPost2010PropOp50
 70
     1
102
RTVSPost2010Prop51ColorIndex
 90
      256
102
RTVSPost2010Prop51ColorRGB
 90
-16777216
102
RTVSPost2010PropOp51
 70
     0
102
RTVSPost2010Prop52
140
1.0
102
RTVSPost2010PropOp52
 70
     0
102
RTVSPost2010Prop53
 90
        2
102
RTVSPost2010PropOp53
 70
     1
102
RTVSPost2010Prop54
  1
strokes_ogs.tif
102
RTVSPost2010PropOp54
 70
     1
102
RTVSPost2010Prop55
280
     0
102
RTVSPost2010PropOp55
 70
     1
102
RTVSPost2010Prop56
140
1.0
102
RTVSPost2010PropOp56
 70
     1
102
RTVSPost2010Prop57
140
1.0
102
RTVSPost2010PropOp57
 70
     1
  0
XRECORD
  5
1D7
102
{ACAD_REACTORS
330
1D6
102
}
330
1D6
100
AcDbXrecord
280
     1
102
RTVSPropertyOp0
 70
     1
102
RTVSPropertyOp1
 70
     1
102
RTVSPropertyOp2
 70
     1
102
RTVSPropertyOp3
 70
     1
102
RTVSPropertyOp4
 70
     1
102
RTVSPropertyOp5
 70
     1
102
RTVSPropertyOp6
 70
     1
102
RTVSPropertyOp7
 70
     1
102
RTVSPropertyOp8
 70
     1
102
RTVSPropertyOp9
 70
     1
102
RTVSPropertyOp10
 70
     1
102
RTVSPropertyOp11
 70
     1
102
RTVSPropertyOp12
 70
     1
102
RTVSPropertyOp13
 70
     1
102
RTVSPropertyOp14
 70
     1
102
RTVSPropertyOp15
 70
     1
102
RTVSPropertyOp16
 70
     1
102
RTVSPropertyOp17
 70
     1
102
RTVSPropertyOp18
 70
     1
102
RTVSPropertyOp19
 70
     1
102
RTVSPropertyOp20
 70
     1
102
RTVSPropertyOp21
 70
     1
102
RTVSPropertyOp22
 70
     1
102
RTVSPropertyOp23
 70
     1
102
RTVSPropertyOp24
 70
     1
102
RTVSPropertyOp25
 70
     1
102
RTVSPropertyOp26
 70
     1
102
RTVSPropertyOp27
 70
     1
102
RTVSPropertyOp28
 70
     1
102
RTVSPropertyOp29
 70
     1
102
RTVSPropertyOp30
 70
     1
102
RTVSPropertyOp31
 70
     1
102
RTVSPropertyOp32
 70
     1
102
RTVSPropertyOp33
 70
     1
102
RTVSPropertyOp34
 70
     1
102
RTVSPropertyOp35
 70
     1
102
RTVSPropertyOp36
 70
     1
102
RTVSPropertyOp37
 70
     1
102
RTVSPropertyOp38
 70
     1
102
RTVSPropertyOp39
 70
     1
102
RTVSPropertyOp40
 70
     1
102
RTVSPropertyOp41
 70
     1
102
RTVSPropertyOp42
 70
     1
102
RTVSPropertyOp43
 70
     1
102
RTVSPropertyOp44
 70
     1
102
RTVSPropertyOp45
 70
     1
102
RTVSPropertyOp46
 70
     1
102
RTVSPropertyOp47
 70
     1
102
RTVSPropertyOp48
 70
     1
102
RTVSPropertyOp49
 70
     1
102
RTVSPropertyOp50
 70
     1
102
RTVSPropertyOp51
 70
     0
102
RTVSPropertyOp52
 70
     0
102
RTVSPropertyOp53
 70
     1
102
RTVSPropertyOp54
 70
     1
102
RTVSPropertyOp55
 70
     1
102
RTVSPropertyOp56
 70
     1
102
RTVSPropertyOp57
 70
     1
102
RTVSPost2010Prop28
280
     0
102
RTVSPost2010PropOp28
 70
     1
102
RTVSPost2010Prop29
280
     1
102
RTVSPost2010PropOp29
 70
     1
102
RTVSPost2010Prop30
280
     1
102
RTVSPost2010PropOp30
 70
     1
102
RTVSPost2010Prop31
280
     0
102
RTVSPost2010PropOp31
 70
     1
102
RTVSPost2010Prop32
280
     0
102
RTVSPost2010PropOp32
 70
     1
102
RTVSPost2010Prop33
280
     0
102
RTVSPost2010PropOp33
 70
     1
102
RTVSPost2010Prop34
280
     0
102
RTVSPost2010PropOp34
 70
     1
102
RTVSPost2010Prop35
280
     0
102
RTVSPost2010PropOp35
 70
     1
102
RTVSPost2010Prop36
280
     0
102
RTVSPost2010PropOp36
 70
     1
102
RTVSPost2010Prop37
 90
       50
102
RTVSPost2010PropOp37
 70
     1
102
RTVSPost2010Prop38
140
0.0
102
RTVSPost2010PropOp38
 70
     1
102
RTVSPost2010Prop39
140
1.0
102
RTVSPost2010PropOp39
 70
     1
102
RTVSPost2010Prop40
 90
        0
102
RTVSPost2010PropOp40
 70
     1
102
RTVSPost2010Prop41ColorIndex
 90
       18
102
RTVSPost2010Prop41ColorRGB
 90
        0
102
RTVSPost2010PropOp41
 70
     1
102
RTVSPost2010Prop42
 90
       50
102
RTVSPost2010PropOp42
 70
     1
102
RTVSPost2010Prop43
 90
        3
102
RTVSPost2010PropOp43
 70
     1
102
RTVSPost2010Prop44ColorIndex
 90
        5
102
RTVSPost2010Prop44ColorRGB
 90
      255
102
RTVSPost2010PropOp44
 70
     1
102
RTVSPost2010Prop45
280
     0
102
RTVSPost2010PropOp45
 70
     1
102
RTVSPost2010Prop46
 90
       50
102
RTVSPost2010PropOp46
 70
     1
102
RTVSPost2010Prop47
 90
       50
102
RTVSPost2010PropOp47
 70
     1
102
RTVSPost2010Prop48
 90
       50
102
RTVSPost2010PropOp48
 70
     1
102
RTVSPost2010Prop49
280
     0
102
RTVSPost2010PropOp49
 70
     1
102
RTVSPost2010Prop50
 90
       50
102
RTVSPost2010PropOp50
 70
     1
102
RTVSPost2010Prop51ColorIndex
 90
      256
102
RTVSPost2010Prop51ColorRGB
 90
-16777216
102
RTVSPost2010PropOp51
 70
     0
102
RTVSPost2010Prop52
140
1.0
102
RTVSPost2010PropOp52
 70
     0
102
RTVSPost2010Prop53
 90
        2
102
RTVSPost2010PropOp53
 70
     1
102
RTVSPost2010Prop54
  1
strokes_ogs.tif
102
RTVSPost2010PropOp54
 70
     1
102
RTVSPost2010Prop55
280
     0
102
RTVSPost2010PropOp55
 70
     1
102
RTVSPost2010Prop56
140
1.0
102
RTVSPost2010PropOp56
 70
     1
102
RTVSPost2010Prop57
140
1.0
102
RTVSPost2010PropOp57
 70
     1
  0
XRECORD
  5
1CB
102
{ACAD_REACTORS
330
1CA
102
}
330
1CA
100
AcDbXrecord
280
     1
102
RTVSPropertyOp0
 70
     1
102
RTVSPropertyOp1
 70
     1
102
RTVSPropertyOp2
 70
     1
102
RTVSPropertyOp3
 70
     1
102
RTVSPropertyOp4
 70
     1
102
RTVSPropertyOp5
 70
     1
102
RTVSPropertyOp6
 70
     1
102
RTVSPropertyOp7
 70
     1
102
RTVSPropertyOp8
 70
     1
102
RTVSPropertyOp9
 70
     1
102
RTVSPropertyOp10
 70
     1
102
RTVSPropertyOp11
 70
     1
102
RTVSPropertyOp12
 70
     1
102
RTVSPropertyOp13
 70
     1
102
RTVSPropertyOp14
 70
     1
102
RTVSPropertyOp15
 70
     1
102
RTVSPropertyOp16
 70
     1
102
RTVSPropertyOp17
 70
     1
102
RTVSPropertyOp18
 70
     1
102
RTVSPropertyOp19
 70
     1
102
RTVSPropertyOp20
 70
     1
102
RTVSPropertyOp21
 70
     1
102
RTVSPropertyOp22
 70
     1
102
RTVSPropertyOp23
 70
     1
102
RTVSPropertyOp24
 70
     1
102
RTVSPropertyOp25
 70
     1
102
RTVSPropertyOp26
 70
     1
102
RTVSPropertyOp27
 70
     1
102
RTVSPropertyOp28
 70
     1
102
RTVSPropertyOp29
 70
     1
102
RTVSPropertyOp30
 70
     1
102
RTVSPropertyOp31
 70
     1
102
RTVSPropertyOp32
 70
     1
102
RTVSPropertyOp33
 70
     1
102
RTVSPropertyOp34
 70
     1
102
RTVSPropertyOp35
 70
     1
102
RTVSPropertyOp36
 70
     1
102
RTVSPropertyOp37
 70
     1
102
RTVSPropertyOp38
 70
     1
102
RTVSPropertyOp39
 70
     1
102
RTVSPropertyOp40
 70
     1
102
RTVSPropertyOp41
 70
     1
102
RTVSPropertyOp42
 70
     1
102
RTVSPropertyOp43
 70
     1
102
RTVSPropertyOp44
 70
     1
102
RTVSPropertyOp45
 70
     1
102
RTVSPropertyOp46
 70
     1
102
RTVSPropertyOp47
 70
     1
102
RTVSPropertyOp48
 70
     1
102
RTVSPropertyOp49
 70
     1
102
RTVSPropertyOp50
 70
     1
102
RTVSPropertyOp51
 70
     0
102
RTVSPropertyOp52
 70
     0
102
RTVSPropertyOp53
 70
     1
102
RTVSPropertyOp54
 70
     1
102
RTVSPropertyOp55
 70
     1
102
RTVSPropertyOp56
 70
     1
102
RTVSPropertyOp57
 70
     1
102
RTVSPost2010Prop28
280
     0
102
RTVSPost2010PropOp28
 70
     1
102
RTVSPost2010Prop29
280
     1
102
RTVSPost2010PropOp29
 70
     1
102
RTVSPost2010Prop30
280
     1
102
RTVSPost2010PropOp30
 70
     1
102
RTVSPost2010Prop31
280
     0
102
RTVSPost2010PropOp31
 70
     1
102
RTVSPost2010Prop32
280
     0
102
RTVSPost2010PropOp32
 70
     1
102
RTVSPost2010Prop33
280
     0
102
RTVSPost2010PropOp33
 70
     1
102
RTVSPost2010Prop34
280
     0
102
RTVSPost2010PropOp34
 70
     1
102
RTVSPost2010Prop35
280
     0
102
RTVSPost2010PropOp35
 70
     1
102
RTVSPost2010Prop36
280
     0
102
RTVSPost2010PropOp36
 70
     1
102
RTVSPost2010Prop37
 90
       50
102
RTVSPost2010PropOp37
 70
     1
102
RTVSPost2010Prop38
140
0.0
102
RTVSPost2010PropOp38
 70
     1
102
RTVSPost2010Prop39
140
1.0
102
RTVSPost2010PropOp39
 70
     1
102
RTVSPost2010Prop40
 90
        0
102
RTVSPost2010PropOp40
 70
     1
102
RTVSPost2010Prop41ColorIndex
 90
       18
102
RTVSPost2010Prop41ColorRGB
 90
        0
102
RTVSPost2010PropOp41
 70
     1
102
RTVSPost2010Prop42
 90
       50
102
RTVSPost2010PropOp42
 70
     1
102
RTVSPost2010Prop43
 90
        3
102
RTVSPost2010PropOp43
 70
     1
102
RTVSPost2010Prop44ColorIndex
 90
        5
102
RTVSPost2010Prop44ColorRGB
 90
      255
102
RTVSPost2010PropOp44
 70
     1
102
RTVSPost2010Prop45
280
     0
102
RTVSPost2010PropOp45
 70
     1
102
RTVSPost2010Prop46
 90
       50
102
RTVSPost2010PropOp46
 70
     1
102
RTVSPost2010Prop47
 90
       50
102
RTVSPost2010PropOp47
 70
     1
102
RTVSPost2010Prop48
 90
       50
102
RTVSPost2010PropOp48
 70
     1
102
RTVSPost2010Prop49
280
     0
102
RTVSPost2010PropOp49
 70
     1
102
RTVSPost2010Prop50
 90
       50
102
RTVSPost2010PropOp50
 70
     1
102
RTVSPost2010Prop51ColorIndex
 90
      256
102
RTVSPost2010Prop51ColorRGB
 90
-16777216
102
RTVSPost2010PropOp51
 70
     0
102
RTVSPost2010Prop52
140
1.0
102
RTVSPost2010PropOp52
 70
     0
102
RTVSPost2010Prop53
 90
        2
102
RTVSPost2010PropOp53
 70
     1
102
RTVSPost2010Prop54
  1
strokes_ogs.tif
102
RTVSPost2010PropOp54
 70
     1
102
RTVSPost2010Prop55
280
     0
102
RTVSPost2010PropOp55
 70
     1
102
RTVSPost2010Prop56
140
1.0
102
RTVSPost2010PropOp56
 70
     1
102
RTVSPost2010Prop57
140
1.0
102
RTVSPost2010PropOp57
 70
     1
  0
XRECORD
  5
1CD
102
{ACAD_REACTORS
330
1CC
102
}
330
1CC
100
AcDbXrecord
280
     1
102
RTVSPropertyOp0
 70
     1
102
RTVSPropertyOp1
 70
     1
102
RTVSPropertyOp2
 70
     1
102
RTVSPropertyOp3
 70
     1
102
RTVSPropertyOp4
 70
     1
102
RTVSPropertyOp5
 70
     1
102
RTVSPropertyOp6
 70
     1
102
RTVSPropertyOp7
 70
     1
102
RTVSPropertyOp8
 70
     1
102
RTVSPropertyOp9
 70
     1
102
RTVSPropertyOp10
 70
     1
102
RTVSPropertyOp11
 70
     1
102
RTVSPropertyOp12
 70
     1
102
RTVSPropertyOp13
 70
     1
102
RTVSPropertyOp14
 70
     1
102
RTVSPropertyOp15
 70
     1
102
RTVSPropertyOp16
 70
     1
102
RTVSPropertyOp17
 70
     1
102
RTVSPropertyOp18
 70
     1
102
RTVSPropertyOp19
 70
     1
102
RTVSPropertyOp20
 70
     1
102
RTVSPropertyOp21
 70
     1
102
RTVSPropertyOp22
 70
     1
102
RTVSPropertyOp23
 70
     1
102
RTVSPropertyOp24
 70
     1
102
RTVSPropertyOp25
 70
     1
102
RTVSPropertyOp26
 70
     1
102
RTVSPropertyOp27
 70
     1
102
RTVSPropertyOp28
 70
     1
102
RTVSPropertyOp29
 70
     1
102
RTVSPropertyOp30
 70
     1
102
RTVSPropertyOp31
 70
     1
102
RTVSPropertyOp32
 70
     1
102
RTVSPropertyOp33
 70
     1
102
RTVSPropertyOp34
 70
     1
102
RTVSPropertyOp35
 70
     1
102
RTVSPropertyOp36
 70
     1
102
RTVSPropertyOp37
 70
     1
102
RTVSPropertyOp38
 70
     1
102
RTVSPropertyOp39
 70
     1
102
RTVSPropertyOp40
 70
     1
102
RTVSPropertyOp41
 70
     1
102
RTVSPropertyOp42
 70
     1
102
RTVSPropertyOp43
 70
     1
102
RTVSPropertyOp44
 70
     1
102
RTVSPropertyOp45
 70
     1
102
RTVSPropertyOp46
 70
     1
102
RTVSPropertyOp47
 70
     1
102
RTVSPropertyOp48
 70
     1
102
RTVSPropertyOp49
 70
     1
102
RTVSPropertyOp50
 70
     1
102
RTVSPropertyOp51
 70
     0
102
RTVSPropertyOp52
 70
     0
102
RTVSPropertyOp53
 70
     1
102
RTVSPropertyOp54
 70
     1
102
RTVSPropertyOp55
 70
     1
102
RTVSPropertyOp56
 70
     1
102
RTVSPropertyOp57
 70
     1
102
RTVSPost2010Prop28
280
     0
102
RTVSPost2010PropOp28
 70
     1
102
RTVSPost2010Prop29
280
     1
102
RTVSPost2010PropOp29
 70
     1
102
RTVSPost2010Prop30
280
     1
102
RTVSPost2010PropOp30
 70
     1
102
RTVSPost2010Prop31
280
     0
102
RTVSPost2010PropOp31
 70
     1
102
RTVSPost2010Prop32
280
     0
102
RTVSPost2010PropOp32
 70
     1
102
RTVSPost2010Prop33
280
     0
102
RTVSPost2010PropOp33
 70
     1
102
RTVSPost2010Prop34
280
     0
102
RTVSPost2010PropOp34
 70
     1
102
RTVSPost2010Prop35
280
     0
102
RTVSPost2010PropOp35
 70
     1
102
RTVSPost2010Prop36
280
     0
102
RTVSPost2010PropOp36
 70
     1
102
RTVSPost2010Prop37
 90
       50
102
RTVSPost2010PropOp37
 70
     1
102
RTVSPost2010Prop38
140
0.0
102
RTVSPost2010PropOp38
 70
     1
102
RTVSPost2010Prop39
140
1.0
102
RTVSPost2010PropOp39
 70
     1
102
RTVSPost2010Prop40
 90
        0
102
RTVSPost2010PropOp40
 70
     1
102
RTVSPost2010Prop41ColorIndex
 90
       18
102
RTVSPost2010Prop41ColorRGB
 90
        0
102
RTVSPost2010PropOp41
 70
     1
102
RTVSPost2010Prop42
 90
       50
102
RTVSPost2010PropOp42
 70
     1
102
RTVSPost2010Prop43
 90
        3
102
RTVSPost2010PropOp43
 70
     1
102
RTVSPost2010Prop44ColorIndex
 90
        5
102
RTVSPost2010Prop44ColorRGB
 90
      255
102
RTVSPost2010PropOp44
 70
     1
102
RTVSPost2010Prop45
280
     0
102
RTVSPost2010PropOp45
 70
     1
102
RTVSPost2010Prop46
 90
       50
102
RTVSPost2010PropOp46
 70
     1
102
RTVSPost2010Prop47
 90
       50
102
RTVSPost2010PropOp47
 70
     1
102
RTVSPost2010Prop48
 90
       50
102
RTVSPost2010PropOp48
 70
     1
102
RTVSPost2010Prop49
280
     0
102
RTVSPost2010PropOp49
 70
     1
102
RTVSPost2010Prop50
 90
       50
102
RTVSPost2010PropOp50
 70
     1
102
RTVSPost2010Prop51ColorIndex
 90
      256
102
RTVSPost2010Prop51ColorRGB
 90
-16777216
102
RTVSPost2010PropOp51
 70
     0
102
RTVSPost2010Prop52
140
1.0
102
RTVSPost2010PropOp52
 70
     0
102
RTVSPost2010Prop53
 90
        2
102
RTVSPost2010PropOp53
 70
     1
102
RTVSPost2010Prop54
  1
strokes_ogs.tif
102
RTVSPost2010PropOp54
 70
     1
102
RTVSPost2010Prop55
280
     0
102
RTVSPost2010PropOp55
 70
     1
102
RTVSPost2010Prop56
140
1.0
102
RTVSPost2010PropOp56
 70
     1
102
RTVSPost2010Prop57
140
1.0
102
RTVSPost2010PropOp57
 70
     1
  0
XRECORD
  5
1DD
102
{ACAD_REACTORS
330
1DC
102
}
330
1DC
100
AcDbXrecord
280
     1
102
RTVSPropertyOp0
 70
     0
102
RTVSPropertyOp1
 70
     0
102
RTVSPropertyOp2
 70
     0
102
RTVSPropertyOp3
 70
     0
102
RTVSPropertyOp4
 70
     0
102
RTVSPropertyOp5
 70
     0
102
RTVSPropertyOp6
 70
     0
102
RTVSPropertyOp7
 70
     0
102
RTVSPropertyOp8
 70
     0
102
RTVSPropertyOp9
 70
     0
102
RTVSPropertyOp10
 70
     0
102
RTVSPropertyOp11
 70
     0
102
RTVSPropertyOp12
 70
     0
102
RTVSPropertyOp13
 70
     0
102
RTVSPropertyOp14
 70
     2
102
RTVSPropertyOp15
 70
     0
102
RTVSPropertyOp16
 70
     0
102
RTVSPropertyOp17
 70
     0
102
RTVSPropertyOp18
 70
     0
102
RTVSPropertyOp19
 70
     0
102
RTVSPropertyOp20
 70
     0
102
RTVSPropertyOp21
 70
     0
102
RTVSPropertyOp22
 70
     0
102
RTVSPropertyOp23
 70
     0
102
RTVSPropertyOp24
 70
     0
102
RTVSPropertyOp25
 70
     0
102
RTVSPropertyOp26
 70
     0
102
RTVSPropertyOp27
 70
     0
102
RTVSPropertyOp28
 70
     0
102
RTVSPropertyOp29
 70
     0
102
RTVSPropertyOp30
 70
     0
102
RTVSPropertyOp31
 70
     0
102
RTVSPropertyOp32
 70
     0
102
RTVSPropertyOp33
 70
     0
102
RTVSPropertyOp34
 70
     0
102
RTVSPropertyOp35
 70
     0
102
RTVSPropertyOp36
 70
     0
102
RTVSPropertyOp37
 70
     0
102
RTVSPropertyOp38
 70
     0
102
RTVSPropertyOp39
 70
     0
102
RTVSPropertyOp40
 70
     0
102
RTVSPropertyOp41
 70
     0
102
RTVSPropertyOp42
 70
     0
102
RTVSPropertyOp43
 70
     0
102
RTVSPropertyOp44
 70
     0
102
RTVSPropertyOp45
 70
     0
102
RTVSPropertyOp46
 70
     0
102
RTVSPropertyOp47
 70
     0
102
RTVSPropertyOp48
 70
     0
102
RTVSPropertyOp49
 70
     0
102
RTVSPropertyOp50
 70
     0
102
RTVSPropertyOp51
 70
     0
102
RTVSPropertyOp52
 70
     0
102
RTVSPropertyOp53
 70
     0
102
RTVSPropertyOp54
 70
     0
102
RTVSPropertyOp55
 70
     0
102
RTVSPropertyOp56
 70
     0
102
RTVSPropertyOp57
 70
     0
102
RTVSPost2010Prop28
280
     0
102
RTVSPost2010PropOp28
 70
     0
102
RTVSPost2010Prop29
280
     1
102
RTVSPost2010PropOp29
 70
     0
102
RTVSPost2010Prop30
280
     1
102
RTVSPost2010PropOp30
 70
     0
102
RTVSPost2010Prop31
280
     0
102
RTVSPost2010PropOp31
 70
     0
102
RTVSPost2010Prop32
280
     0
102
RTVSPost2010PropOp32
 70
     0
102
RTVSPost2010Prop33
280
     0
102
RTVSPost2010PropOp33
 70
     0
102
RTVSPost2010Prop34
280
     0
102
RTVSPost2010PropOp34
 70
     0
102
RTVSPost2010Prop35
280
     0
102
RTVSPost2010PropOp35
 70
     0
102
RTVSPost2010Prop36
280
     0
102
RTVSPost2010PropOp36
 70
     0
102
RTVSPost2010Prop37
 90
       50
102
RTVSPost2010PropOp37
 70
     0
102
RTVSPost2010Prop38
140
0.0
102
RTVSPost2010PropOp38
 70
     0
102
RTVSPost2010Prop39
140
1.0
102
RTVSPost2010PropOp39
 70
     0
102
RTVSPost2010Prop40
 90
        0
102
RTVSPost2010PropOp40
 70
     0
102
RTVSPost2010Prop41ColorIndex
 90
       18
102
RTVSPost2010Prop41ColorRGB
 90
        0
102
RTVSPost2010PropOp41
 70
     0
102
RTVSPost2010Prop42
 90
       50
102
RTVSPost2010PropOp42
 70
     0
102
RTVSPost2010Prop43
 90
        3
102
RTVSPost2010PropOp43
 70
     0
102
RTVSPost2010Prop44ColorIndex
 90
        5
102
RTVSPost2010Prop44ColorRGB
 90
      255
102
RTVSPost2010PropOp44
 70
     0
102
RTVSPost2010Prop45
280
     0
102
RTVSPost2010PropOp45
 70
     0
102
RTVSPost2010Prop46
 90
       50
102
RTVSPost2010PropOp46
 70
     0
102
RTVSPost2010Prop47
 90
       50
102
RTVSPost2010PropOp47
 70
     0
102
RTVSPost2010Prop48
 90
       50
102
RTVSPost2010PropOp48
 70
     0
102
RTVSPost2010Prop49
280
     0
102
RTVSPost2010PropOp49
 70
     0
102
RTVSPost2010Prop50
 90
       50
102
RTVSPost2010PropOp50
 70
     0
102
RTVSPost2010Prop51ColorIndex
 90
      256
102
RTVSPost2010Prop51ColorRGB
 90
-16777216
102
RTVSPost2010PropOp51
 70
     0
102
RTVSPost2010Prop52
140
1.0
102
RTVSPost2010PropOp52
 70
     0
102
RTVSPost2010Prop53
 90
        2
102
RTVSPost2010PropOp53
 70
     0
102
RTVSPost2010Prop54
  1
strokes_ogs.tif
102
RTVSPost2010PropOp54
 70
     0
102
RTVSPost2010Prop55
280
     0
102
RTVSPost2010PropOp55
 70
     0
102
RTVSPost2010Prop56
140
1.0
102
RTVSPost2010PropOp56
 70
     0
102
RTVSPost2010Prop57
140
1.0
102
RTVSPost2010PropOp57
 70
     0
  0
XRECORD
  5
1D5
102
{ACAD_REACTORS
330
1D4
102
}
330
1D4
100
AcDbXrecord
280
     1
102
RTVSPropertyOp0
 70
     1
102
RTVSPropertyOp1
 70
     1
102
RTVSPropertyOp2
 70
     1
102
RTVSPropertyOp3
 70
     1
102
RTVSPropertyOp4
 70
     1
102
RTVSPropertyOp5
 70
     1
102
RTVSPropertyOp6
 70
     1
102
RTVSPropertyOp7
 70
     1
102
RTVSPropertyOp8
 70
     1
102
RTVSPropertyOp9
 70
     1
102
RTVSPropertyOp10
 70
     1
102
RTVSPropertyOp11
 70
     1
102
RTVSPropertyOp12
 70
     1
102
RTVSPropertyOp13
 70
     1
102
RTVSPropertyOp14
 70
     1
102
RTVSPropertyOp15
 70
     1
102
RTVSPropertyOp16
 70
     1
102
RTVSPropertyOp17
 70
     1
102
RTVSPropertyOp18
 70
     1
102
RTVSPropertyOp19
 70
     1
102
RTVSPropertyOp20
 70
     1
102
RTVSPropertyOp21
 70
     1
102
RTVSPropertyOp22
 70
     1
102
RTVSPropertyOp23
 70
     1
102
RTVSPropertyOp24
 70
     1
102
RTVSPropertyOp25
 70
     1
102
RTVSPropertyOp26
 70
     1
102
RTVSPropertyOp27
 70
     1
102
RTVSPropertyOp28
 70
     1
102
RTVSPropertyOp29
 70
     1
102
RTVSPropertyOp30
 70
     1
102
RTVSPropertyOp31
 70
     1
102
RTVSPropertyOp32
 70
     1
102
RTVSPropertyOp33
 70
     1
102
RTVSPropertyOp34
 70
     1
102
RTVSPropertyOp35
 70
     1
102
RTVSPropertyOp36
 70
     1
102
RTVSPropertyOp37
 70
     1
102
RTVSPropertyOp38
 70
     1
102
RTVSPropertyOp39
 70
     1
102
RTVSPropertyOp40
 70
     1
102
RTVSPropertyOp41
 70
     1
102
RTVSPropertyOp42
 70
     1
102
RTVSPropertyOp43
 70
     1
102
RTVSPropertyOp44
 70
     1
102
RTVSPropertyOp45
 70
     1
102
RTVSPropertyOp46
 70
     1
102
RTVSPropertyOp47
 70
     1
102
RTVSPropertyOp48
 70
     1
102
RTVSPropertyOp49
 70
     1
102
RTVSPropertyOp50
 70
     1
102
RTVSPropertyOp51
 70
     0
102
RTVSPropertyOp52
 70
     0
102
RTVSPropertyOp53
 70
     1
102
RTVSPropertyOp54
 70
     1
102
RTVSPropertyOp55
 70
     1
102
RTVSPropertyOp56
 70
     1
102
RTVSPropertyOp57
 70
     1
102
RTVSPost2010Prop28
280
     0
102
RTVSPost2010PropOp28
 70
     1
102
RTVSPost2010Prop29
280
     1
102
RTVSPost2010PropOp29
 70
     1
102
RTVSPost2010Prop30
280
     1
102
RTVSPost2010PropOp30
 70
     1
102
RTVSPost2010Prop31
280
     0
102
RTVSPost2010PropOp31
 70
     1
102
RTVSPost2010Prop32
280
     0
102
RTVSPost2010PropOp32
 70
     1
102
RTVSPost2010Prop33
280
     0
102
RTVSPost2010PropOp33
 70
     1
102
RTVSPost2010Prop34
280
     0
102
RTVSPost2010PropOp34
 70
     1
102
RTVSPost2010Prop35
280
     0
102
RTVSPost2010PropOp35
 70
     1
102
RTVSPost2010Prop36
280
     0
102
RTVSPost2010PropOp36
 70
     1
102
RTVSPost2010Prop37
 90
       50
102
RTVSPost2010PropOp37
 70
     1
102
RTVSPost2010Prop38
140
0.0
102
RTVSPost2010PropOp38
 70
     1
102
RTVSPost2010Prop39
140
1.0
102
RTVSPost2010PropOp39
 70
     1
102
RTVSPost2010Prop40
 90
        0
102
RTVSPost2010PropOp40
 70
     1
102
RTVSPost2010Prop41ColorIndex
 90
       18
102
RTVSPost2010Prop41ColorRGB
 90
        0
102
RTVSPost2010PropOp41
 70
     1
102
RTVSPost2010Prop42
 90
       50
102
RTVSPost2010PropOp42
 70
     1
102
RTVSPost2010Prop43
 90
        3
102
RTVSPost2010PropOp43
 70
     1
102
RTVSPost2010Prop44ColorIndex
 90
        5
102
RTVSPost2010Prop44ColorRGB
 90
      255
102
RTVSPost2010PropOp44
 70
     1
102
RTVSPost2010Prop45
280
     0
102
RTVSPost2010PropOp45
 70
     1
102
RTVSPost2010Prop46
 90
       50
102
RTVSPost2010PropOp46
 70
     1
102
RTVSPost2010Prop47
 90
       50
102
RTVSPost2010PropOp47
 70
     1
102
RTVSPost2010Prop48
 90
       50
102
RTVSPost2010PropOp48
 70
     1
102
RTVSPost2010Prop49
280
     0
102
RTVSPost2010PropOp49
 70
     1
102
RTVSPost2010Prop50
 90
       50
102
RTVSPost2010PropOp50
 70
     1
102
RTVSPost2010Prop51ColorIndex
 90
      256
102
RTVSPost2010Prop51ColorRGB
 90
-16777216
102
RTVSPost2010PropOp51
 70
     0
102
RTVSPost2010Prop52
140
1.0
102
RTVSPost2010PropOp52
 70
     0
102
RTVSPost2010Prop53
 90
        2
102
RTVSPost2010PropOp53
 70
     1
102
RTVSPost2010Prop54
  1
strokes_ogs.tif
102
RTVSPost2010PropOp54
 70
     1
102
RTVSPost2010Prop55
280
     0
102
RTVSPost2010PropOp55
 70
     1
102
RTVSPost2010Prop56
140
1.0
102
RTVSPost2010PropOp56
 70
     1
102
RTVSPost2010Prop57
140
1.0
102
RTVSPost2010PropOp57
 70
     1
  0
XRECORD
  5
1B9
102
{ACAD_REACTORS
330
1B8
102
}
330
1B8
100
AcDbXrecord
280
     1
102
RTVSPropertyOp0
 70
     1
102
RTVSPropertyOp1
 70
     1
102
RTVSPropertyOp2
 70
     1
102
RTVSPropertyOp3
 70
     1
102
RTVSPropertyOp4
 70
     1
102
RTVSPropertyOp5
 70
     1
102
RTVSPropertyOp6
 70
     1
102
RTVSPropertyOp7
 70
     1
102
RTVSPropertyOp8
 70
     1
102
RTVSPropertyOp9
 70
     1
102
RTVSPropertyOp10
 70
     1
102
RTVSPropertyOp11
 70
     1
102
RTVSPropertyOp12
 70
     1
102
RTVSPropertyOp13
 70
     1
102
RTVSPropertyOp14
 70
     1
102
RTVSPropertyOp15
 70
     1
102
RTVSPropertyOp16
 70
     1
102
RTVSPropertyOp17
 70
     1
102
RTVSPropertyOp18
 70
     1
102
RTVSPropertyOp19
 70
     1
102
RTVSPropertyOp20
 70
     1
102
RTVSPropertyOp21
 70
     1
102
RTVSPropertyOp22
 70
     1
102
RTVSPropertyOp23
 70
     1
102
RTVSPropertyOp24
 70
     1
102
RTVSPropertyOp25
 70
     1
102
RTVSPropertyOp26
 70
     1
102
RTVSPropertyOp27
 70
     1
102
RTVSPropertyOp28
 70
     1
102
RTVSPropertyOp29
 70
     1
102
RTVSPropertyOp30
 70
     1
102
RTVSPropertyOp31
 70
     1
102
RTVSPropertyOp32
 70
     1
102
RTVSPropertyOp33
 70
     1
102
RTVSPropertyOp34
 70
     1
102
RTVSPropertyOp35
 70
     1
102
RTVSPropertyOp36
 70
     1
102
RTVSPropertyOp37
 70
     1
102
RTVSPropertyOp38
 70
     1
102
RTVSPropertyOp39
 70
     1
102
RTVSPropertyOp40
 70
     1
102
RTVSPropertyOp41
 70
     1
102
RTVSPropertyOp42
 70
     1
102
RTVSPropertyOp43
 70
     1
102
RTVSPropertyOp44
 70
     1
102
RTVSPropertyOp45
 70
     1
102
RTVSPropertyOp46
 70
     1
102
RTVSPropertyOp47
 70
     1
102
RTVSPropertyOp48
 70
     1
102
RTVSPropertyOp49
 70
     1
102
RTVSPropertyOp50
 70
     1
102
RTVSPropertyOp51
 70
     0
102
RTVSPropertyOp52
 70
     0
102
RTVSPropertyOp53
 70
     1
102
RTVSPropertyOp54
 70
     1
102
RTVSPropertyOp55
 70
     1
102
RTVSPropertyOp56
 70
     1
102
RTVSPropertyOp57
 70
     1
102
RTVSPost2010Prop28
280
     0
102
RTVSPost2010PropOp28
 70
     1
102
RTVSPost2010Prop29
280
     1
102
RTVSPost2010PropOp29
 70
     1
102
RTVSPost2010Prop30
280
     1
102
RTVSPost2010PropOp30
 70
     1
102
RTVSPost2010Prop31
280
     0
102
RTVSPost2010PropOp31
 70
     1
102
RTVSPost2010Prop32
280
     0
102
RTVSPost2010PropOp32
 70
     1
102
RTVSPost2010Prop33
280
     0
102
RTVSPost2010PropOp33
 70
     1
102
RTVSPost2010Prop34
280
     0
102
RTVSPost2010PropOp34
 70
     1
102
RTVSPost2010Prop35
280
     0
102
RTVSPost2010PropOp35
 70
     1
102
RTVSPost2010Prop36
280
     0
102
RTVSPost2010PropOp36
 70
     1
102
RTVSPost2010Prop37
 90
       50
102
RTVSPost2010PropOp37
 70
     1
102
RTVSPost2010Prop38
140
0.0
102
RTVSPost2010PropOp38
 70
     1
102
RTVSPost2010Prop39
140
1.0
102
RTVSPost2010PropOp39
 70
     1
102
RTVSPost2010Prop40
 90
        0
102
RTVSPost2010PropOp40
 70
     1
102
RTVSPost2010Prop41ColorIndex
 90
       18
102
RTVSPost2010Prop41ColorRGB
 90
        0
102
RTVSPost2010PropOp41
 70
     1
102
RTVSPost2010Prop42
 90
       50
102
RTVSPost2010PropOp42
 70
     1
102
RTVSPost2010Prop43
 90
        3
102
RTVSPost2010PropOp43
 70
     1
102
RTVSPost2010Prop44ColorIndex
 90
        5
102
RTVSPost2010Prop44ColorRGB
 90
      255
102
RTVSPost2010PropOp44
 70
     1
102
RTVSPost2010Prop45
280
     0
102
RTVSPost2010PropOp45
 70
     1
102
RTVSPost2010Prop46
 90
       50
102
RTVSPost2010PropOp46
 70
     1
102
RTVSPost2010Prop47
 90
       50
102
RTVSPost2010PropOp47
 70
     1
102
RTVSPost2010Prop48
 90
       50
102
RTVSPost2010PropOp48
 70
     1
102
RTVSPost2010Prop49
280
     0
102
RTVSPost2010PropOp49
 70
     1
102
RTVSPost2010Prop50
 90
       50
102
RTVSPost2010PropOp50
 70
     1
102
RTVSPost2010Prop51ColorIndex
 90
      256
102
RTVSPost2010Prop51ColorRGB
 90
-16777216
102
RTVSPost2010PropOp51
 70
     0
102
RTVSPost2010Prop52
140
1.0
102
RTVSPost2010PropOp52
 70
     0
102
RTVSPost2010Prop53
 90
        2
102
RTVSPost2010PropOp53
 70
     1
102
RTVSPost2010Prop54
  1
strokes_ogs.tif
102
RTVSPost2010PropOp54
 70
     1
102
RTVSPost2010Prop55
280
     0
102
RTVSPost2010PropOp55
 70
     1
102
RTVSPost2010Prop56
140
1.0
102
RTVSPost2010PropOp56
 70
     1
102
RTVSPost2010Prop57
140
1.0
102
RTVSPost2010PropOp57
 70
     1
  0
XRECORD
  5
1BB
102
{ACAD_REACTORS
330
1BA
102
}
330
1BA
100
AcDbXrecord
280
     1
102
RTVSPropertyOp0
 70
     1
102
RTVSPropertyOp1
 70
     1
102
RTVSPropertyOp2
 70
     1
102
RTVSPropertyOp3
 70
     1
102
RTVSPropertyOp4
 70
     1
102
RTVSPropertyOp5
 70
     1
102
RTVSPropertyOp6
 70
     1
102
RTVSPropertyOp7
 70
     1
102
RTVSPropertyOp8
 70
     1
102
RTVSPropertyOp9
 70
     1
102
RTVSPropertyOp10
 70
     1
102
RTVSPropertyOp11
 70
     1
102
RTVSPropertyOp12
 70
     1
102
RTVSPropertyOp13
 70
     1
102
RTVSPropertyOp14
 70
     1
102
RTVSPropertyOp15
 70
     1
102
RTVSPropertyOp16
 70
     1
102
RTVSPropertyOp17
 70
     1
102
RTVSPropertyOp18
 70
     1
102
RTVSPropertyOp19
 70
     1
102
RTVSPropertyOp20
 70
     1
102
RTVSPropertyOp21
 70
     1
102
RTVSPropertyOp22
 70
     1
102
RTVSPropertyOp23
 70
     1
102
RTVSPropertyOp24
 70
     1
102
RTVSPropertyOp25
 70
     1
102
RTVSPropertyOp26
 70
     1
102
RTVSPropertyOp27
 70
     1
102
RTVSPropertyOp28
 70
     1
102
RTVSPropertyOp29
 70
     1
102
RTVSPropertyOp30
 70
     1
102
RTVSPropertyOp31
 70
     1
102
RTVSPropertyOp32
 70
     1
102
RTVSPropertyOp33
 70
     1
102
RTVSPropertyOp34
 70
     1
102
RTVSPropertyOp35
 70
     1
102
RTVSPropertyOp36
 70
     1
102
RTVSPropertyOp37
 70
     1
102
RTVSPropertyOp38
 70
     1
102
RTVSPropertyOp39
 70
     1
102
RTVSPropertyOp40
 70
     1
102
RTVSPropertyOp41
 70
     1
102
RTVSPropertyOp42
 70
     1
102
RTVSPropertyOp43
 70
     1
102
RTVSPropertyOp44
 70
     1
102
RTVSPropertyOp45
 70
     1
102
RTVSPropertyOp46
 70
     1
102
RTVSPropertyOp47
 70
     1
102
RTVSPropertyOp48
 70
     1
102
RTVSPropertyOp49
 70
     1
102
RTVSPropertyOp50
 70
     1
102
RTVSPropertyOp51
 70
     0
102
RTVSPropertyOp52
 70
     0
102
RTVSPropertyOp53
 70
     1
102
RTVSPropertyOp54
 70
     1
102
RTVSPropertyOp55
 70
     1
102
RTVSPropertyOp56
 70
     1
102
RTVSPropertyOp57
 70
     1
102
RTVSPost2010Prop28
280
     0
102
RTVSPost2010PropOp28
 70
     1
102
RTVSPost2010Prop29
280
     1
102
RTVSPost2010PropOp29
 70
     1
102
RTVSPost2010Prop30
280
     1
102
RTVSPost2010PropOp30
 70
     1
102
RTVSPost2010Prop31
280
     0
102
RTVSPost2010PropOp31
 70
     1
102
RTVSPost2010Prop32
280
     0
102
RTVSPost2010PropOp32
 70
     1
102
RTVSPost2010Prop33
280
     0
102
RTVSPost2010PropOp33
 70
     1
102
RTVSPost2010Prop34
280
     0
102
RTVSPost2010PropOp34
 70
     1
102
RTVSPost2010Prop35
280
     0
102
RTVSPost2010PropOp35
 70
     1
102
RTVSPost2010Prop36
280
     0
102
RTVSPost2010PropOp36
 70
     1
102
RTVSPost2010Prop37
 90
       50
102
RTVSPost2010PropOp37
 70
     1
102
RTVSPost2010Prop38
140
0.0
102
RTVSPost2010PropOp38
 70
     1
102
RTVSPost2010Prop39
140
1.0
102
RTVSPost2010PropOp39
 70
     1
102
RTVSPost2010Prop40
 90
        0
102
RTVSPost2010PropOp40
 70
     1
102
RTVSPost2010Prop41ColorIndex
 90
       18
102
RTVSPost2010Prop41ColorRGB
 90
        0
102
RTVSPost2010PropOp41
 70
     1
102
RTVSPost2010Prop42
 90
       50
102
RTVSPost2010PropOp42
 70
     1
102
RTVSPost2010Prop43
 90
        3
102
RTVSPost2010PropOp43
 70
     1
102
RTVSPost2010Prop44ColorIndex
 90
        5
102
RTVSPost2010Prop44ColorRGB
 90
      255
102
RTVSPost2010PropOp44
 70
     1
102
RTVSPost2010Prop45
280
     0
102
RTVSPost2010PropOp45
 70
     1
102
RTVSPost2010Prop46
 90
       50
102
RTVSPost2010PropOp46
 70
     1
102
RTVSPost2010Prop47
 90
       50
102
RTVSPost2010PropOp47
 70
     1
102
RTVSPost2010Prop48
 90
       50
102
RTVSPost2010PropOp48
 70
     1
102
RTVSPost2010Prop49
280
     0
102
RTVSPost2010PropOp49
 70
     1
102
RTVSPost2010Prop50
 90
       50
102
RTVSPost2010PropOp50
 70
     1
102
RTVSPost2010Prop51ColorIndex
 90
      256
102
RTVSPost2010Prop51ColorRGB
 90
-16777216
102
RTVSPost2010PropOp51
 70
     0
102
RTVSPost2010Prop52
140
1.0
102
RTVSPost2010PropOp52
 70
     0
102
RTVSPost2010Prop53
 90
        2
102
RTVSPost2010PropOp53
 70
     1
102
RTVSPost2010Prop54
  1
strokes_ogs.tif
102
RTVSPost2010PropOp54
 70
     1
102
RTVSPost2010Prop55
280
     0
102
RTVSPost2010PropOp55
 70
     1
102
RTVSPost2010Prop56
140
1.0
102
RTVSPost2010PropOp56
 70
     1
102
RTVSPost2010Prop57
140
1.0
102
RTVSPost2010PropOp57
 70
     1
  0
XRECORD
  5
1BD
102
{ACAD_REACTORS
330
1BC
102
}
330
1BC
100
AcDbXrecord
280
     1
102
RTVSPropertyOp0
 70
     1
102
RTVSPropertyOp1
 70
     1
102
RTVSPropertyOp2
 70
     1
102
RTVSPropertyOp3
 70
     1
102
RTVSPropertyOp4
 70
     1
102
RTVSPropertyOp5
 70
     1
102
RTVSPropertyOp6
 70
     1
102
RTVSPropertyOp7
 70
     1
102
RTVSPropertyOp8
 70
     1
102
RTVSPropertyOp9
 70
     1
102
RTVSPropertyOp10
 70
     1
102
RTVSPropertyOp11
 70
     1
102
RTVSPropertyOp12
 70
     1
102
RTVSPropertyOp13
 70
     1
102
RTVSPropertyOp14
 70
     1
102
RTVSPropertyOp15
 70
     1
102
RTVSPropertyOp16
 70
     1
102
RTVSPropertyOp17
 70
     1
102
RTVSPropertyOp18
 70
     1
102
RTVSPropertyOp19
 70
     1
102
RTVSPropertyOp20
 70
     1
102
RTVSPropertyOp21
 70
     1
102
RTVSPropertyOp22
 70
     1
102
RTVSPropertyOp23
 70
     1
102
RTVSPropertyOp24
 70
     1
102
RTVSPropertyOp25
 70
     1
102
RTVSPropertyOp26
 70
     1
102
RTVSPropertyOp27
 70
     1
102
RTVSPropertyOp28
 70
     1
102
RTVSPropertyOp29
 70
     1
102
RTVSPropertyOp30
 70
     1
102
RTVSPropertyOp31
 70
     1
102
RTVSPropertyOp32
 70
     1
102
RTVSPropertyOp33
 70
     1
102
RTVSPropertyOp34
 70
     1
102
RTVSPropertyOp35
 70
     1
102
RTVSPropertyOp36
 70
     1
102
RTVSPropertyOp37
 70
     1
102
RTVSPropertyOp38
 70
     1
102
RTVSPropertyOp39
 70
     1
102
RTVSPropertyOp40
 70
     1
102
RTVSPropertyOp41
 70
     1
102
RTVSPropertyOp42
 70
     1
102
RTVSPropertyOp43
 70
     1
102
RTVSPropertyOp44
 70
     1
102
RTVSPropertyOp45
 70
     1
102
RTVSPropertyOp46
 70
     1
102
RTVSPropertyOp47
 70
     1
102
RTVSPropertyOp48
 70
     1
102
RTVSPropertyOp49
 70
     1
102
RTVSPropertyOp50
 70
     1
102
RTVSPropertyOp51
 70
     0
102
RTVSPropertyOp52
 70
     0
102
RTVSPropertyOp53
 70
     1
102
RTVSPropertyOp54
 70
     1
102
RTVSPropertyOp55
 70
     1
102
RTVSPropertyOp56
 70
     1
102
RTVSPropertyOp57
 70
     1
102
RTVSPost2010Prop28
280
     0
102
RTVSPost2010PropOp28
 70
     1
102
RTVSPost2010Prop29
280
     1
102
RTVSPost2010PropOp29
 70
     1
102
RTVSPost2010Prop30
280
     1
102
RTVSPost2010PropOp30
 70
     1
102
RTVSPost2010Prop31
280
     0
102
RTVSPost2010PropOp31
 70
     1
102
RTVSPost2010Prop32
280
     0
102
RTVSPost2010PropOp32
 70
     1
102
RTVSPost2010Prop33
280
     0
102
RTVSPost2010PropOp33
 70
     1
102
RTVSPost2010Prop34
280
     0
102
RTVSPost2010PropOp34
 70
     1
102
RTVSPost2010Prop35
280
     0
102
RTVSPost2010PropOp35
 70
     1
102
RTVSPost2010Prop36
280
     0
102
RTVSPost2010PropOp36
 70
     1
102
RTVSPost2010Prop37
 90
       50
102
RTVSPost2010PropOp37
 70
     1
102
RTVSPost2010Prop38
140
0.0
102
RTVSPost2010PropOp38
 70
     1
102
RTVSPost2010Prop39
140
1.0
102
RTVSPost2010PropOp39
 70
     1
102
RTVSPost2010Prop40
 90
        0
102
RTVSPost2010PropOp40
 70
     1
102
RTVSPost2010Prop41ColorIndex
 90
       18
102
RTVSPost2010Prop41ColorRGB
 90
        0
102
RTVSPost2010PropOp41
 70
     1
102
RTVSPost2010Prop42
 90
       50
102
RTVSPost2010PropOp42
 70
     1
102
RTVSPost2010Prop43
 90
        3
102
RTVSPost2010PropOp43
 70
     1
102
RTVSPost2010Prop44ColorIndex
 90
        5
102
RTVSPost2010Prop44ColorRGB
 90
      255
102
RTVSPost2010PropOp44
 70
     1
102
RTVSPost2010Prop45
280
     0
102
RTVSPost2010PropOp45
 70
     1
102
RTVSPost2010Prop46
 90
       50
102
RTVSPost2010PropOp46
 70
     1
102
RTVSPost2010Prop47
 90
       50
102
RTVSPost2010PropOp47
 70
     1
102
RTVSPost2010Prop48
 90
       50
102
RTVSPost2010PropOp48
 70
     1
102
RTVSPost2010Prop49
280
     0
102
RTVSPost2010PropOp49
 70
     1
102
RTVSPost2010Prop50
 90
       50
102
RTVSPost2010PropOp50
 70
     1
102
RTVSPost2010Prop51ColorIndex
 90
      256
102
RTVSPost2010Prop51ColorRGB
 90
-16777216
102
RTVSPost2010PropOp51
 70
     0
102
RTVSPost2010Prop52
140
1.0
102
RTVSPost2010PropOp52
 70
     0
102
RTVSPost2010Prop53
 90
        2
102
RTVSPost2010PropOp53
 70
     1
102
RTVSPost2010Prop54
  1
strokes_ogs.tif
102
RTVSPost2010PropOp54
 70
     1
102
RTVSPost2010Prop55
280
     0
102
RTVSPost2010PropOp55
 70
     1
102
RTVSPost2010Prop56
140
1.0
102
RTVSPost2010PropOp56
 70
     1
102
RTVSPost2010Prop57
140
1.0
102
RTVSPost2010PropOp57
 70
     1
  0
XRECORD
  5
1BF
102
{ACAD_REACTORS
330
1BE
102
}
330
1BE
100
AcDbXrecord
280
     1
102
RTVSPropertyOp0
 70
     1
102
RTVSPropertyOp1
 70
     1
102
RTVSPropertyOp2
 70
     1
102
RTVSPropertyOp3
 70
     1
102
RTVSPropertyOp4
 70
     1
102
RTVSPropertyOp5
 70
     1
102
RTVSPropertyOp6
 70
     1
102
RTVSPropertyOp7
 70
     1
102
RTVSPropertyOp8
 70
     1
102
RTVSPropertyOp9
 70
     1
102
RTVSPropertyOp10
 70
     1
102
RTVSPropertyOp11
 70
     1
102
RTVSPropertyOp12
 70
     1
102
RTVSPropertyOp13
 70
     1
102
RTVSPropertyOp14
 70
     1
102
RTVSPropertyOp15
 70
     1
102
RTVSPropertyOp16
 70
     1
102
RTVSPropertyOp17
 70
     1
102
RTVSPropertyOp18
 70
     1
102
RTVSPropertyOp19
 70
     1
102
RTVSPropertyOp20
 70
     1
102
RTVSPropertyOp21
 70
     1
102
RTVSPropertyOp22
 70
     1
102
RTVSPropertyOp23
 70
     1
102
RTVSPropertyOp24
 70
     1
102
RTVSPropertyOp25
 70
     1
102
RTVSPropertyOp26
 70
     1
102
RTVSPropertyOp27
 70
     1
102
RTVSPropertyOp28
 70
     1
102
RTVSPropertyOp29
 70
     1
102
RTVSPropertyOp30
 70
     1
102
RTVSPropertyOp31
 70
     1
102
RTVSPropertyOp32
 70
     1
102
RTVSPropertyOp33
 70
     1
102
RTVSPropertyOp34
 70
     1
102
RTVSPropertyOp35
 70
     1
102
RTVSPropertyOp36
 70
     1
102
RTVSPropertyOp37
 70
     1
102
RTVSPropertyOp38
 70
     1
102
RTVSPropertyOp39
 70
     1
102
RTVSPropertyOp40
 70
     1
102
RTVSPropertyOp41
 70
     1
102
RTVSPropertyOp42
 70
     1
102
RTVSPropertyOp43
 70
     1
102
RTVSPropertyOp44
 70
     1
102
RTVSPropertyOp45
 70
     1
102
RTVSPropertyOp46
 70
     1
102
RTVSPropertyOp47
 70
     1
102
RTVSPropertyOp48
 70
     1
102
RTVSPropertyOp49
 70
     1
102
RTVSPropertyOp50
 70
     1
102
RTVSPropertyOp51
 70
     0
102
RTVSPropertyOp52
 70
     0
102
RTVSPropertyOp53
 70
     1
102
RTVSPropertyOp54
 70
     1
102
RTVSPropertyOp55
 70
     1
102
RTVSPropertyOp56
 70
     1
102
RTVSPropertyOp57
 70
     1
102
RTVSPost2010Prop28
280
     0
102
RTVSPost2010PropOp28
 70
     1
102
RTVSPost2010Prop29
280
     1
102
RTVSPost2010PropOp29
 70
     1
102
RTVSPost2010Prop30
280
     1
102
RTVSPost2010PropOp30
 70
     1
102
RTVSPost2010Prop31
280
     0
102
RTVSPost2010PropOp31
 70
     1
102
RTVSPost2010Prop32
280
     0
102
RTVSPost2010PropOp32
 70
     1
102
RTVSPost2010Prop33
280
     0
102
RTVSPost2010PropOp33
 70
     1
102
RTVSPost2010Prop34
280
     0
102
RTVSPost2010PropOp34
 70
     1
102
RTVSPost2010Prop35
280
     0
102
RTVSPost2010PropOp35
 70
     1
102
RTVSPost2010Prop36
280
     0
102
RTVSPost2010PropOp36
 70
     1
102
RTVSPost2010Prop37
 90
       50
102
RTVSPost2010PropOp37
 70
     1
102
RTVSPost2010Prop38
140
0.0
102
RTVSPost2010PropOp38
 70
     1
102
RTVSPost2010Prop39
140
1.0
102
RTVSPost2010PropOp39
 70
     1
102
RTVSPost2010Prop40
 90
        0
102
RTVSPost2010PropOp40
 70
     1
102
RTVSPost2010Prop41ColorIndex
 90
       18
102
RTVSPost2010Prop41ColorRGB
 90
        0
102
RTVSPost2010PropOp41
 70
     1
102
RTVSPost2010Prop42
 90
       50
102
RTVSPost2010PropOp42
 70
     1
102
RTVSPost2010Prop43
 90
        3
102
RTVSPost2010PropOp43
 70
     1
102
RTVSPost2010Prop44ColorIndex
 90
        5
102
RTVSPost2010Prop44ColorRGB
 90
      255
102
RTVSPost2010PropOp44
 70
     1
102
RTVSPost2010Prop45
280
     0
102
RTVSPost2010PropOp45
 70
     1
102
RTVSPost2010Prop46
 90
       50
102
RTVSPost2010PropOp46
 70
     1
102
RTVSPost2010Prop47
 90
       50
102
RTVSPost2010PropOp47
 70
     1
102
RTVSPost2010Prop48
 90
       50
102
RTVSPost2010PropOp48
 70
     1
102
RTVSPost2010Prop49
280
     0
102
RTVSPost2010PropOp49
 70
     1
102
RTVSPost2010Prop50
 90
       50
102
RTVSPost2010PropOp50
 70
     1
102
RTVSPost2010Prop51ColorIndex
 90
      256
102
RTVSPost2010Prop51ColorRGB
 90
-16777216
102
RTVSPost2010PropOp51
 70
     0
102
RTVSPost2010Prop52
140
1.0
102
RTVSPost2010PropOp52
 70
     0
102
RTVSPost2010Prop53
 90
        2
102
RTVSPost2010PropOp53
 70
     1
102
RTVSPost2010Prop54
  1
strokes_ogs.tif
102
RTVSPost2010PropOp54
 70
     1
102
RTVSPost2010Prop55
280
     0
102
RTVSPost2010PropOp55
 70
     1
102
RTVSPost2010Prop56
140
1.0
102
RTVSPost2010PropOp56
 70
     1
102
RTVSPost2010Prop57
140
1.0
102
RTVSPost2010PropOp57
 70
     1
  0
XRECORD
  5
1C5
102
{ACAD_REACTORS
330
1C4
102
}
330
1C4
100
AcDbXrecord
280
     1
102
RTVSPropertyOp0
 70
     1
102
RTVSPropertyOp1
 70
     1
102
RTVSPropertyOp2
 70
     1
102
RTVSPropertyOp3
 70
     1
102
RTVSPropertyOp4
 70
     1
102
RTVSPropertyOp5
 70
     1
102
RTVSPropertyOp6
 70
     1
102
RTVSPropertyOp7
 70
     1
102
RTVSPropertyOp8
 70
     1
102
RTVSPropertyOp9
 70
     1
102
RTVSPropertyOp10
 70
     1
102
RTVSPropertyOp11
 70
     1
102
RTVSPropertyOp12
 70
     1
102
RTVSPropertyOp13
 70
     1
102
RTVSPropertyOp14
 70
     1
102
RTVSPropertyOp15
 70
     1
102
RTVSPropertyOp16
 70
     1
102
RTVSPropertyOp17
 70
     1
102
RTVSPropertyOp18
 70
     1
102
RTVSPropertyOp19
 70
     1
102
RTVSPropertyOp20
 70
     1
102
RTVSPropertyOp21
 70
     1
102
RTVSPropertyOp22
 70
     1
102
RTVSPropertyOp23
 70
     1
102
RTVSPropertyOp24
 70
     1
102
RTVSPropertyOp25
 70
     1
102
RTVSPropertyOp26
 70
     1
102
RTVSPropertyOp27
 70
     1
102
RTVSPropertyOp28
 70
     1
102
RTVSPropertyOp29
 70
     1
102
RTVSPropertyOp30
 70
     1
102
RTVSPropertyOp31
 70
     1
102
RTVSPropertyOp32
 70
     1
102
RTVSPropertyOp33
 70
     1
102
RTVSPropertyOp34
 70
     1
102
RTVSPropertyOp35
 70
     1
102
RTVSPropertyOp36
 70
     1
102
RTVSPropertyOp37
 70
     1
102
RTVSPropertyOp38
 70
     1
102
RTVSPropertyOp39
 70
     1
102
RTVSPropertyOp40
 70
     1
102
RTVSPropertyOp41
 70
     1
102
RTVSPropertyOp42
 70
     1
102
RTVSPropertyOp43
 70
     1
102
RTVSPropertyOp44
 70
     1
102
RTVSPropertyOp45
 70
     1
102
RTVSPropertyOp46
 70
     1
102
RTVSPropertyOp47
 70
     1
102
RTVSPropertyOp48
 70
     1
102
RTVSPropertyOp49
 70
     1
102
RTVSPropertyOp50
 70
     1
102
RTVSPropertyOp51
 70
     0
102
RTVSPropertyOp52
 70
     0
102
RTVSPropertyOp53
 70
     1
102
RTVSPropertyOp54
 70
     1
102
RTVSPropertyOp55
 70
     1
102
RTVSPropertyOp56
 70
     1
102
RTVSPropertyOp57
 70
     1
102
RTVSPost2010Prop28
280
     0
102
RTVSPost2010PropOp28
 70
     1
102
RTVSPost2010Prop29
280
     1
102
RTVSPost2010PropOp29
 70
     1
102
RTVSPost2010Prop30
280
     1
102
RTVSPost2010PropOp30
 70
     1
102
RTVSPost2010Prop31
280
     0
102
RTVSPost2010PropOp31
 70
     1
102
RTVSPost2010Prop32
280
     0
102
RTVSPost2010PropOp32
 70
     1
102
RTVSPost2010Prop33
280
     0
102
RTVSPost2010PropOp33
 70
     1
102
RTVSPost2010Prop34
280
     0
102
RTVSPost2010PropOp34
 70
     1
102
RTVSPost2010Prop35
280
     0
102
RTVSPost2010PropOp35
 70
     1
102
RTVSPost2010Prop36
280
     0
102
RTVSPost2010PropOp36
 70
     1
102
RTVSPost2010Prop37
 90
       50
102
RTVSPost2010PropOp37
 70
     1
102
RTVSPost2010Prop38
140
0.0
102
RTVSPost2010PropOp38
 70
     1
102
RTVSPost2010Prop39
140
1.0
102
RTVSPost2010PropOp39
 70
     1
102
RTVSPost2010Prop40
 90
        0
102
RTVSPost2010PropOp40
 70
     1
102
RTVSPost2010Prop41ColorIndex
 90
       18
102
RTVSPost2010Prop41ColorRGB
 90
        0
102
RTVSPost2010PropOp41
 70
     1
102
RTVSPost2010Prop42
 90
       50
102
RTVSPost2010PropOp42
 70
     1
102
RTVSPost2010Prop43
 90
        3
102
RTVSPost2010PropOp43
 70
     1
102
RTVSPost2010Prop44ColorIndex
 90
        5
102
RTVSPost2010Prop44ColorRGB
 90
      255
102
RTVSPost2010PropOp44
 70
     1
102
RTVSPost2010Prop45
280
     0
102
RTVSPost2010PropOp45
 70
     1
102
RTVSPost2010Prop46
 90
       50
102
RTVSPost2010PropOp46
 70
     1
102
RTVSPost2010Prop47
 90
       50
102
RTVSPost2010PropOp47
 70
     1
102
RTVSPost2010Prop48
 90
       50
102
RTVSPost2010PropOp48
 70
     1
102
RTVSPost2010Prop49
280
     0
102
RTVSPost2010PropOp49
 70
     1
102
RTVSPost2010Prop50
 90
       50
102
RTVSPost2010PropOp50
 70
     1
102
RTVSPost2010Prop51ColorIndex
 90
      256
102
RTVSPost2010Prop51ColorRGB
 90
-16777216
102
RTVSPost2010PropOp51
 70
     0
102
RTVSPost2010Prop52
140
1.0
102
RTVSPost2010PropOp52
 70
     0
102
RTVSPost2010Prop53
 90
        2
102
RTVSPost2010PropOp53
 70
     1
102
RTVSPost2010Prop54
  1
strokes_ogs.tif
102
RTVSPost2010PropOp54
 70
     1
102
RTVSPost2010Prop55
280
     0
102
RTVSPost2010PropOp55
 70
     1
102
RTVSPost2010Prop56
140
1.0
102
RTVSPost2010PropOp56
 70
     1
102
RTVSPost2010Prop57
140
1.0
102
RTVSPost2010PropOp57
 70
     1
  0
XRECORD
  5
1D9
102
{ACAD_REACTORS
330
1D8
102
}
330
1D8
100
AcDbXrecord
280
     1
102
RTVSPropertyOp0
 70
     0
102
RTVSPropertyOp1
 70
     0
102
RTVSPropertyOp2
 70
     0
102
RTVSPropertyOp3
 70
     0
102
RTVSPropertyOp4
 70
     0
102
RTVSPropertyOp5
 70
     0
102
RTVSPropertyOp6
 70
     0
102
RTVSPropertyOp7
 70
     0
102
RTVSPropertyOp8
 70
     0
102
RTVSPropertyOp9
 70
     0
102
RTVSPropertyOp10
 70
     0
102
RTVSPropertyOp11
 70
     0
102
RTVSPropertyOp12
 70
     0
102
RTVSPropertyOp13
 70
     0
102
RTVSPropertyOp14
 70
     2
102
RTVSPropertyOp15
 70
     0
102
RTVSPropertyOp16
 70
     0
102
RTVSPropertyOp17
 70
     0
102
RTVSPropertyOp18
 70
     0
102
RTVSPropertyOp19
 70
     0
102
RTVSPropertyOp20
 70
     0
102
RTVSPropertyOp21
 70
     0
102
RTVSPropertyOp22
 70
     0
102
RTVSPropertyOp23
 70
     0
102
RTVSPropertyOp24
 70
     0
102
RTVSPropertyOp25
 70
     0
102
RTVSPropertyOp26
 70
     0
102
RTVSPropertyOp27
 70
     0
102
RTVSPropertyOp28
 70
     0
102
RTVSPropertyOp29
 70
     0
102
RTVSPropertyOp30
 70
     0
102
RTVSPropertyOp31
 70
     0
102
RTVSPropertyOp32
 70
     0
102
RTVSPropertyOp33
 70
     0
102
RTVSPropertyOp34
 70
     0
102
RTVSPropertyOp35
 70
     0
102
RTVSPropertyOp36
 70
     0
102
RTVSPropertyOp37
 70
     0
102
RTVSPropertyOp38
 70
     0
102
RTVSPropertyOp39
 70
     0
102
RTVSPropertyOp40
 70
     0
102
RTVSPropertyOp41
 70
     0
102
RTVSPropertyOp42
 70
     0
102
RTVSPropertyOp43
 70
     0
102
RTVSPropertyOp44
 70
     0
102
RTVSPropertyOp45
 70
     0
102
RTVSPropertyOp46
 70
     0
102
RTVSPropertyOp47
 70
     0
102
RTVSPropertyOp48
 70
     0
102
RTVSPropertyOp49
 70
     0
102
RTVSPropertyOp50
 70
     0
102
RTVSPropertyOp51
 70
     0
102
RTVSPropertyOp52
 70
     0
102
RTVSPropertyOp53
 70
     0
102
RTVSPropertyOp54
 70
     0
102
RTVSPropertyOp55
 70
     0
102
RTVSPropertyOp56
 70
     0
102
RTVSPropertyOp57
 70
     0
102
RTVSPost2010Prop28
280
     0
102
RTVSPost2010PropOp28
 70
     0
102
RTVSPost2010Prop29
280
     1
102
RTVSPost2010PropOp29
 70
     0
102
RTVSPost2010Prop30
280
     1
102
RTVSPost2010PropOp30
 70
     0
102
RTVSPost2010Prop31
280
     0
102
RTVSPost2010PropOp31
 70
     0
102
RTVSPost2010Prop32
280
     0
102
RTVSPost2010PropOp32
 70
     0
102
RTVSPost2010Prop33
280
     0
102
RTVSPost2010PropOp33
 70
     0
102
RTVSPost2010Prop34
280
     0
102
RTVSPost2010PropOp34
 70
     0
102
RTVSPost2010Prop35
280
     0
102
RTVSPost2010PropOp35
 70
     0
102
RTVSPost2010Prop36
280
     0
102
RTVSPost2010PropOp36
 70
     0
102
RTVSPost2010Prop37
 90
       50
102
RTVSPost2010PropOp37
 70
     0
102
RTVSPost2010Prop38
140
0.0
102
RTVSPost2010PropOp38
 70
     0
102
RTVSPost2010Prop39
140
1.0
102
RTVSPost2010PropOp39
 70
     0
102
RTVSPost2010Prop40
 90
        0
102
RTVSPost2010PropOp40
 70
     0
102
RTVSPost2010Prop41ColorIndex
 90
       18
102
RTVSPost2010Prop41ColorRGB
 90
        0
102
RTVSPost2010PropOp41
 70
     0
102
RTVSPost2010Prop42
 90
       50
102
RTVSPost2010PropOp42
 70
     0
102
RTVSPost2010Prop43
 90
        3
102
RTVSPost2010PropOp43
 70
     0
102
RTVSPost2010Prop44ColorIndex
 90
        5
102
RTVSPost2010Prop44ColorRGB
 90
      255
102
RTVSPost2010PropOp44
 70
     0
102
RTVSPost2010Prop45
280
     0
102
RTVSPost2010PropOp45
 70
     0
102
RTVSPost2010Prop46
 90
       50
102
RTVSPost2010PropOp46
 70
     0
102
RTVSPost2010Prop47
 90
       50
102
RTVSPost2010PropOp47
 70
     0
102
RTVSPost2010Prop48
 90
       50
102
RTVSPost2010PropOp48
 70
     0
102
RTVSPost2010Prop49
280
     0
102
RTVSPost2010PropOp49
 70
     0
102
RTVSPost2010Prop50
 90
       50
102
RTVSPost2010PropOp50
 70
     0
102
RTVSPost2010Prop51ColorIndex
 90
      256
102
RTVSPost2010Prop51ColorRGB
 90
-16777216
102
RTVSPost2010PropOp51
 70
     0
102
RTVSPost2010Prop52
140
1.0
102
RTVSPost2010PropOp52
 70
     0
102
RTVSPost2010Prop53
 90
        2
102
RTVSPost2010PropOp53
 70
     0
102
RTVSPost2010Prop54
  1
strokes_ogs.tif
102
RTVSPost2010PropOp54
 70
     0
102
RTVSPost2010Prop55
280
     0
102
RTVSPost2010PropOp55
 70
     0
102
RTVSPost2010Prop56
140
1.0
102
RTVSPost2010PropOp56
 70
     0
102
RTVSPost2010Prop57
140
1.0
102
RTVSPost2010PropOp57
 70
     0
  0
XRECORD
  5
1D3
102
{ACAD_REACTORS
330
1D2
102
}
330
1D2
100
AcDbXrecord
280
     1
102
RTVSPropertyOp0
 70
     1
102
RTVSPropertyOp1
 70
     1
102
RTVSPropertyOp2
 70
     1
102
RTVSPropertyOp3
 70
     1
102
RTVSPropertyOp4
 70
     1
102
RTVSPropertyOp5
 70
     1
102
RTVSPropertyOp6
 70
     1
102
RTVSPropertyOp7
 70
     1
102
RTVSPropertyOp8
 70
     1
102
RTVSPropertyOp9
 70
     1
102
RTVSPropertyOp10
 70
     1
102
RTVSPropertyOp11
 70
     1
102
RTVSPropertyOp12
 70
     1
102
RTVSPropertyOp13
 70
     1
102
RTVSPropertyOp14
 70
     1
102
RTVSPropertyOp15
 70
     1
102
RTVSPropertyOp16
 70
     1
102
RTVSPropertyOp17
 70
     1
102
RTVSPropertyOp18
 70
     1
102
RTVSPropertyOp19
 70
     1
102
RTVSPropertyOp20
 70
     1
102
RTVSPropertyOp21
 70
     1
102
RTVSPropertyOp22
 70
     1
102
RTVSPropertyOp23
 70
     1
102
RTVSPropertyOp24
 70
     1
102
RTVSPropertyOp25
 70
     1
102
RTVSPropertyOp26
 70
     1
102
RTVSPropertyOp27
 70
     1
102
RTVSPropertyOp28
 70
     1
102
RTVSPropertyOp29
 70
     1
102
RTVSPropertyOp30
 70
     1
102
RTVSPropertyOp31
 70
     1
102
RTVSPropertyOp32
 70
     1
102
RTVSPropertyOp33
 70
     1
102
RTVSPropertyOp34
 70
     1
102
RTVSPropertyOp35
 70
     1
102
RTVSPropertyOp36
 70
     1
102
RTVSPropertyOp37
 70
     1
102
RTVSPropertyOp38
 70
     1
102
RTVSPropertyOp39
 70
     1
102
RTVSPropertyOp40
 70
     1
102
RTVSPropertyOp41
 70
     1
102
RTVSPropertyOp42
 70
     1
102
RTVSPropertyOp43
 70
     1
102
RTVSPropertyOp44
 70
     1
102
RTVSPropertyOp45
 70
     1
102
RTVSPropertyOp46
 70
     1
102
RTVSPropertyOp47
 70
     1
102
RTVSPropertyOp48
 70
     1
102
RTVSPropertyOp49
 70
     1
102
RTVSPropertyOp50
 70
     1
102
RTVSPropertyOp51
 70
     0
102
RTVSPropertyOp52
 70
     0
102
RTVSPropertyOp53
 70
     1
102
RTVSPropertyOp54
 70
     1
102
RTVSPropertyOp55
 70
     1
102
RTVSPropertyOp56
 70
     1
102
RTVSPropertyOp57
 70
     1
102
RTVSPost2010Prop28
280
     0
102
RTVSPost2010PropOp28
 70
     1
102
RTVSPost2010Prop29
280
     1
102
RTVSPost2010PropOp29
 70
     1
102
RTVSPost2010Prop30
280
     1
102
RTVSPost2010PropOp30
 70
     1
102
RTVSPost2010Prop31
280
     0
102
RTVSPost2010PropOp31
 70
     1
102
RTVSPost2010Prop32
280
     0
102
RTVSPost2010PropOp32
 70
     1
102
RTVSPost2010Prop33
280
     0
102
RTVSPost2010PropOp33
 70
     1
102
RTVSPost2010Prop34
280
     0
102
RTVSPost2010PropOp34
 70
     1
102
RTVSPost2010Prop35
280
     0
102
RTVSPost2010PropOp35
 70
     1
102
RTVSPost2010Prop36
280
     0
102
RTVSPost2010PropOp36
 70
     1
102
RTVSPost2010Prop37
 90
       50
102
RTVSPost2010PropOp37
 70
     1
102
RTVSPost2010Prop38
140
0.0
102
RTVSPost2010PropOp38
 70
     1
102
RTVSPost2010Prop39
140
1.0
102
RTVSPost2010PropOp39
 70
     1
102
RTVSPost2010Prop40
 90
        0
102
RTVSPost2010PropOp40
 70
     1
102
RTVSPost2010Prop41ColorIndex
 90
       18
102
RTVSPost2010Prop41ColorRGB
 90
        0
102
RTVSPost2010PropOp41
 70
     1
102
RTVSPost2010Prop42
 90
       50
102
RTVSPost2010PropOp42
 70
     1
102
RTVSPost2010Prop43
 90
        3
102
RTVSPost2010PropOp43
 70
     1
102
RTVSPost2010Prop44ColorIndex
 90
        5
102
RTVSPost2010Prop44ColorRGB
 90
      255
102
RTVSPost2010PropOp44
 70
     1
102
RTVSPost2010Prop45
280
     0
102
RTVSPost2010PropOp45
 70
     1
102
RTVSPost2010Prop46
 90
       50
102
RTVSPost2010PropOp46
 70
     1
102
RTVSPost2010Prop47
 90
       50
102
RTVSPost2010PropOp47
 70
     1
102
RTVSPost2010Prop48
 90
       50
102
RTVSPost2010PropOp48
 70
     1
102
RTVSPost2010Prop49
280
     0
102
RTVSPost2010PropOp49
 70
     1
102
RTVSPost2010Prop50
 90
       50
102
RTVSPost2010PropOp50
 70
     1
102
RTVSPost2010Prop51ColorIndex
 90
      256
102
RTVSPost2010Prop51ColorRGB
 90
-16777216
102
RTVSPost2010PropOp51
 70
     0
102
RTVSPost2010Prop52
140
1.0
102
RTVSPost2010PropOp52
 70
     0
102
RTVSPost2010Prop53
 90
        2
102
RTVSPost2010PropOp53
 70
     1
102
RTVSPost2010Prop54
  1
strokes_ogs.tif
102
RTVSPost2010PropOp54
 70
     1
102
RTVSPost2010Prop55
280
     0
102
RTVSPost2010PropOp55
 70
     1
102
RTVSPost2010Prop56
140
1.0
102
RTVSPost2010PropOp56
 70
     1
102
RTVSPost2010Prop57
140
1.0
102
RTVSPost2010PropOp57
 70
     1
  0
XRECORD
  5
1DB
102
{ACAD_REACTORS
330
1DA
102
}
330
1DA
100
AcDbXrecord
280
     1
102
RTVSPropertyOp0
 70
     0
102
RTVSPropertyOp1
 70
     0
102
RTVSPropertyOp2
 70
     0
102
RTVSPropertyOp3
 70
     0
102
RTVSPropertyOp4
 70
     0
102
RTVSPropertyOp5
 70
     0
102
RTVSPropertyOp6
 70
     0
102
RTVSPropertyOp7
 70
     0
102
RTVSPropertyOp8
 70
     0
102
RTVSPropertyOp9
 70
     0
102
RTVSPropertyOp10
 70
     0
102
RTVSPropertyOp11
 70
     0
102
RTVSPropertyOp12
 70
     0
102
RTVSPropertyOp13
 70
     0
102
RTVSPropertyOp14
 70
     2
102
RTVSPropertyOp15
 70
     0
102
RTVSPropertyOp16
 70
     0
102
RTVSPropertyOp17
 70
     0
102
RTVSPropertyOp18
 70
     0
102
RTVSPropertyOp19
 70
     0
102
RTVSPropertyOp20
 70
     0
102
RTVSPropertyOp21
 70
     0
102
RTVSPropertyOp22
 70
     0
102
RTVSPropertyOp23
 70
     0
102
RTVSPropertyOp24
 70
     0
102
RTVSPropertyOp25
 70
     0
102
RTVSPropertyOp26
 70
     0
102
RTVSPropertyOp27
 70
     0
102
RTVSPropertyOp28
 70
     0
102
RTVSPropertyOp29
 70
     0
102
RTVSPropertyOp30
 70
     0
102
RTVSPropertyOp31
 70
     0
102
RTVSPropertyOp32
 70
     0
102
RTVSPropertyOp33
 70
     0
102
RTVSPropertyOp34
 70
     0
102
RTVSPropertyOp35
 70
     0
102
RTVSPropertyOp36
 70
     0
102
RTVSPropertyOp37
 70
     0
102
RTVSPropertyOp38
 70
     0
102
RTVSPropertyOp39
 70
     0
102
RTVSPropertyOp40
 70
     0
102
RTVSPropertyOp41
 70
     0
102
RTVSPropertyOp42
 70
     0
102
RTVSPropertyOp43
 70
     0
102
RTVSPropertyOp44
 70
     0
102
RTVSPropertyOp45
 70
     0
102
RTVSPropertyOp46
 70
     0
102
RTVSPropertyOp47
 70
     0
102
RTVSPropertyOp48
 70
     0
102
RTVSPropertyOp49
 70
     0
102
RTVSPropertyOp50
 70
     0
102
RTVSPropertyOp51
 70
     0
102
RTVSPropertyOp52
 70
     0
102
RTVSPropertyOp53
 70
     0
102
RTVSPropertyOp54
 70
     0
102
RTVSPropertyOp55
 70
     0
102
RTVSPropertyOp56
 70
     0
102
RTVSPropertyOp57
 70
     0
102
RTVSPost2010Prop28
280
     0
102
RTVSPost2010PropOp28
 70
     0
102
RTVSPost2010Prop29
280
     1
102
RTVSPost2010PropOp29
 70
     0
102
RTVSPost2010Prop30
280
     1
102
RTVSPost2010PropOp30
 70
     0
102
RTVSPost2010Prop31
280
     0
102
RTVSPost2010PropOp31
 70
     0
102
RTVSPost2010Prop32
280
     0
102
RTVSPost2010PropOp32
 70
     0
102
RTVSPost2010Prop33
280
     0
102
RTVSPost2010PropOp33
 70
     0
102
RTVSPost2010Prop34
280
     0
102
RTVSPost2010PropOp34
 70
     0
102
RTVSPost2010Prop35
280
     0
102
RTVSPost2010PropOp35
 70
     0
102
RTVSPost2010Prop36
280
     0
102
RTVSPost2010PropOp36
 70
     0
102
RTVSPost2010Prop37
 90
       50
102
RTVSPost2010PropOp37
 70
     0
102
RTVSPost2010Prop38
140
0.0
102
RTVSPost2010PropOp38
 70
     0
102
RTVSPost2010Prop39
140
1.0
102
RTVSPost2010PropOp39
 70
     0
102
RTVSPost2010Prop40
 90
        0
102
RTVSPost2010PropOp40
 70
     0
102
RTVSPost2010Prop41ColorIndex
 90
       18
102
RTVSPost2010Prop41ColorRGB
 90
        0
102
RTVSPost2010PropOp41
 70
     0
102
RTVSPost2010Prop42
 90
       50
102
RTVSPost2010PropOp42
 70
     0
102
RTVSPost2010Prop43
 90
        3
102
RTVSPost2010PropOp43
 70
     0
102
RTVSPost2010Prop44ColorIndex
 90
        5
102
RTVSPost2010Prop44ColorRGB
 90
      255
102
RTVSPost2010PropOp44
 70
     0
102
RTVSPost2010Prop45
280
     0
102
RTVSPost2010PropOp45
 70
     0
102
RTVSPost2010Prop46
 90
       50
102
RTVSPost2010PropOp46
 70
     0
102
RTVSPost2010Prop47
 90
       50
102
RTVSPost2010PropOp47
 70
     0
102
RTVSPost2010Prop48
 90
       50
102
RTVSPost2010PropOp48
 70
     0
102
RTVSPost2010Prop49
280
     0
102
RTVSPost2010PropOp49
 70
     0
102
RTVSPost2010Prop50
 90
       50
102
RTVSPost2010PropOp50
 70
     0
102
RTVSPost2010Prop51ColorIndex
 90
      256
102
RTVSPost2010Prop51ColorRGB
 90
-16777216
102
RTVSPost2010PropOp51
 70
     0
102
RTVSPost2010Prop52
140
1.0
102
RTVSPost2010PropOp52
 70
     0
102
RTVSPost2010Prop53
 90
        2
102
RTVSPost2010PropOp53
 70
     0
102
RTVSPost2010Prop54
  1
strokes_ogs.tif
102
RTVSPost2010PropOp54
 70
     0
102
RTVSPost2010Prop55
280
     0
102
RTVSPost2010PropOp55
 70
     0
102
RTVSPost2010Prop56
140
1.0
102
RTVSPost2010PropOp56
 70
     0
102
RTVSPost2010Prop57
140
1.0
102
RTVSPost2010PropOp57
 70
     0
  0
XRECORD
  5
1C9
102
{ACAD_REACTORS
330
1C8
102
}
330
1C8
100
AcDbXrecord
280
     1
102
RTVSPropertyOp0
 70
     1
102
RTVSPropertyOp1
 70
     1
102
RTVSPropertyOp2
 70
     1
102
RTVSPropertyOp3
 70
     1
102
RTVSPropertyOp4
 70
     1
102
RTVSPropertyOp5
 70
     1
102
RTVSPropertyOp6
 70
     1
102
RTVSPropertyOp7
 70
     1
102
RTVSPropertyOp8
 70
     1
102
RTVSPropertyOp9
 70
     1
102
RTVSPropertyOp10
 70
     1
102
RTVSPropertyOp11
 70
     1
102
RTVSPropertyOp12
 70
     1
102
RTVSPropertyOp13
 70
     1
102
RTVSPropertyOp14
 70
     1
102
RTVSPropertyOp15
 70
     1
102
RTVSPropertyOp16
 70
     1
102
RTVSPropertyOp17
 70
     1
102
RTVSPropertyOp18
 70
     1
102
RTVSPropertyOp19
 70
     1
102
RTVSPropertyOp20
 70
     1
102
RTVSPropertyOp21
 70
     1
102
RTVSPropertyOp22
 70
     1
102
RTVSPropertyOp23
 70
     1
102
RTVSPropertyOp24
 70
     1
102
RTVSPropertyOp25
 70
     1
102
RTVSPropertyOp26
 70
     1
102
RTVSPropertyOp27
 70
     1
102
RTVSPropertyOp28
 70
     1
102
RTVSPropertyOp29
 70
     1
102
RTVSPropertyOp30
 70
     1
102
RTVSPropertyOp31
 70
     1
102
RTVSPropertyOp32
 70
     1
102
RTVSPropertyOp33
 70
     1
102
RTVSPropertyOp34
 70
     1
102
RTVSPropertyOp35
 70
     1
102
RTVSPropertyOp36
 70
     1
102
RTVSPropertyOp37
 70
     1
102
RTVSPropertyOp38
 70
     1
102
RTVSPropertyOp39
 70
     1
102
RTVSPropertyOp40
 70
     1
102
RTVSPropertyOp41
 70
     1
102
RTVSPropertyOp42
 70
     1
102
RTVSPropertyOp43
 70
     1
102
RTVSPropertyOp44
 70
     1
102
RTVSPropertyOp45
 70
     1
102
RTVSPropertyOp46
 70
     1
102
RTVSPropertyOp47
 70
     1
102
RTVSPropertyOp48
 70
     1
102
RTVSPropertyOp49
 70
     1
102
RTVSPropertyOp50
 70
     1
102
RTVSPropertyOp51
 70
     0
102
RTVSPropertyOp52
 70
     0
102
RTVSPropertyOp53
 70
     1
102
RTVSPropertyOp54
 70
     1
102
RTVSPropertyOp55
 70
     1
102
RTVSPropertyOp56
 70
     1
102
RTVSPropertyOp57
 70
     1
102
RTVSPost2010Prop28
280
     0
102
RTVSPost2010PropOp28
 70
     1
102
RTVSPost2010Prop29
280
     1
102
RTVSPost2010PropOp29
 70
     1
102
RTVSPost2010Prop30
280
     1
102
RTVSPost2010PropOp30
 70
     1
102
RTVSPost2010Prop31
280
     0
102
RTVSPost2010PropOp31
 70
     1
102
RTVSPost2010Prop32
280
     0
102
RTVSPost2010PropOp32
 70
     1
102
RTVSPost2010Prop33
280
     0
102
RTVSPost2010PropOp33
 70
     1
102
RTVSPost2010Prop34
280
     0
102
RTVSPost2010PropOp34
 70
     1
102
RTVSPost2010Prop35
280
     0
102
RTVSPost2010PropOp35
 70
     1
102
RTVSPost2010Prop36
280
     0
102
RTVSPost2010PropOp36
 70
     1
102
RTVSPost2010Prop37
 90
       50
102
RTVSPost2010PropOp37
 70
     1
102
RTVSPost2010Prop38
140
0.0
102
RTVSPost2010PropOp38
 70
     1
102
RTVSPost2010Prop39
140
1.0
102
RTVSPost2010PropOp39
 70
     1
102
RTVSPost2010Prop40
 90
        0
102
RTVSPost2010PropOp40
 70
     1
102
RTVSPost2010Prop41ColorIndex
 90
       18
102
RTVSPost2010Prop41ColorRGB
 90
        0
102
RTVSPost2010PropOp41
 70
     1
102
RTVSPost2010Prop42
 90
       50
102
RTVSPost2010PropOp42
 70
     1
102
RTVSPost2010Prop43
 90
        3
102
RTVSPost2010PropOp43
 70
     1
102
RTVSPost2010Prop44ColorIndex
 90
        5
102
RTVSPost2010Prop44ColorRGB
 90
      255
102
RTVSPost2010PropOp44
 70
     1
102
RTVSPost2010Prop45
280
     0
102
RTVSPost2010PropOp45
 70
     1
102
RTVSPost2010Prop46
 90
       50
102
RTVSPost2010PropOp46
 70
     1
102
RTVSPost2010Prop47
 90
       50
102
RTVSPost2010PropOp47
 70
     1
102
RTVSPost2010Prop48
 90
       50
102
RTVSPost2010PropOp48
 70
     1
102
RTVSPost2010Prop49
280
     0
102
RTVSPost2010PropOp49
 70
     1
102
RTVSPost2010Prop50
 90
       50
102
RTVSPost2010PropOp50
 70
     1
102
RTVSPost2010Prop51ColorIndex
 90
      256
102
RTVSPost2010Prop51ColorRGB
 90
-16777216
102
RTVSPost2010PropOp51
 70
     0
102
RTVSPost2010Prop52
140
1.0
102
RTVSPost2010PropOp52
 70
     0
102
RTVSPost2010Prop53
 90
        2
102
RTVSPost2010PropOp53
 70
     1
102
RTVSPost2010Prop54
  1
strokes_ogs.tif
102
RTVSPost2010PropOp54
 70
     1
102
RTVSPost2010Prop55
280
     0
102
RTVSPost2010PropOp55
 70
     1
102
RTVSPost2010Prop56
140
1.0
102
RTVSPost2010PropOp56
 70
     1
102
RTVSPost2010Prop57
140
1.0
102
RTVSPost2010PropOp57
 70
     1
  0
XRECORD
  5
1E7
102
{ACAD_REACTORS
330
1E6
102
}
330
1E6
100
AcDbXrecord
280
     1
102
RTVSPropertyOp0
 70
     1
102
RTVSPropertyOp1
 70
     1
102
RTVSPropertyOp2
 70
     1
102
RTVSPropertyOp3
 70
     1
102
RTVSPropertyOp4
 70
     1
102
RTVSPropertyOp5
 70
     1
102
RTVSPropertyOp6
 70
     1
102
RTVSPropertyOp7
 70
     1
102
RTVSPropertyOp8
 70
     1
102
RTVSPropertyOp9
 70
     1
102
RTVSPropertyOp10
 70
     1
102
RTVSPropertyOp11
 70
     1
102
RTVSPropertyOp12
 70
     1
102
RTVSPropertyOp13
 70
     1
102
RTVSPropertyOp14
 70
     1
102
RTVSPropertyOp15
 70
     1
102
RTVSPropertyOp16
 70
     1
102
RTVSPropertyOp17
 70
     1
102
RTVSPropertyOp18
 70
     1
102
RTVSPropertyOp19
 70
     1
102
RTVSPropertyOp20
 70
     1
102
RTVSPropertyOp21
 70
     1
102
RTVSPropertyOp22
 70
     1
102
RTVSPropertyOp23
 70
     1
102
RTVSPropertyOp24
 70
     1
102
RTVSPropertyOp25
 70
     1
102
RTVSPropertyOp26
 70
     1
102
RTVSPropertyOp27
 70
     1
102
RTVSPropertyOp28
 70
     1
102
RTVSPropertyOp29
 70
     1
102
RTVSPropertyOp30
 70
     1
102
RTVSPropertyOp31
 70
     1
102
RTVSPropertyOp32
 70
     1
102
RTVSPropertyOp33
 70
     1
102
RTVSPropertyOp34
 70
     1
102
RTVSPropertyOp35
 70
     1
102
RTVSPropertyOp36
 70
     1
102
RTVSPropertyOp37
 70
     1
102
RTVSPropertyOp38
 70
     1
102
RTVSPropertyOp39
 70
     1
102
RTVSPropertyOp40
 70
     1
102
RTVSPropertyOp41
 70
     1
102
RTVSPropertyOp42
 70
     1
102
RTVSPropertyOp43
 70
     1
102
RTVSPropertyOp44
 70
     1
102
RTVSPropertyOp45
 70
     1
102
RTVSPropertyOp46
 70
     1
102
RTVSPropertyOp47
 70
     1
102
RTVSPropertyOp48
 70
     1
102
RTVSPropertyOp49
 70
     1
102
RTVSPropertyOp50
 70
     1
102
RTVSPropertyOp51
 70
     0
102
RTVSPropertyOp52
 70
     0
102
RTVSPropertyOp53
 70
     1
102
RTVSPropertyOp54
 70
     1
102
RTVSPropertyOp55
 70
     1
102
RTVSPropertyOp56
 70
     1
102
RTVSPropertyOp57
 70
     1
102
RTVSPost2010Prop28
280
     0
102
RTVSPost2010PropOp28
 70
     1
102
RTVSPost2010Prop29
280
     1
102
RTVSPost2010PropOp29
 70
     1
102
RTVSPost2010Prop30
280
     1
102
RTVSPost2010PropOp30
 70
     1
102
RTVSPost2010Prop31
280
     0
102
RTVSPost2010PropOp31
 70
     1
102
RTVSPost2010Prop32
280
     0
102
RTVSPost2010PropOp32
 70
     1
102
RTVSPost2010Prop33
280
     0
102
RTVSPost2010PropOp33
 70
     1
102
RTVSPost2010Prop34
280
     0
102
RTVSPost2010PropOp34
 70
     1
102
RTVSPost2010Prop35
280
     0
102
RTVSPost2010PropOp35
 70
     1
102
RTVSPost2010Prop36
280
     0
102
RTVSPost2010PropOp36
 70
     1
102
RTVSPost2010Prop37
 90
       50
102
RTVSPost2010PropOp37
 70
     1
102
RTVSPost2010Prop38
140
0.0
102
RTVSPost2010PropOp38
 70
     1
102
RTVSPost2010Prop39
140
1.0
102
RTVSPost2010PropOp39
 70
     1
102
RTVSPost2010Prop40
 90
        0
102
RTVSPost2010PropOp40
 70
     1
102
RTVSPost2010Prop41ColorIndex
 90
       18
102
RTVSPost2010Prop41ColorRGB
 90
        0
102
RTVSPost2010PropOp41
 70
     1
102
RTVSPost2010Prop42
 90
       50
102
RTVSPost2010PropOp42
 70
     1
102
RTVSPost2010Prop43
 90
        3
102
RTVSPost2010PropOp43
 70
     1
102
RTVSPost2010Prop44ColorIndex
 90
        5
102
RTVSPost2010Prop44ColorRGB
 90
      255
102
RTVSPost2010PropOp44
 70
     1
102
RTVSPost2010Prop45
280
     0
102
RTVSPost2010PropOp45
 70
     1
102
RTVSPost2010Prop46
 90
       50
102
RTVSPost2010PropOp46
 70
     1
102
RTVSPost2010Prop47
 90
       50
102
RTVSPost2010PropOp47
 70
     1
102
RTVSPost2010Prop48
 90
       50
102
RTVSPost2010PropOp48
 70
     1
102
RTVSPost2010Prop49
280
     0
102
RTVSPost2010PropOp49
 70
     1
102
RTVSPost2010Prop50
 90
       50
102
RTVSPost2010PropOp50
 70
     1
102
RTVSPost2010Prop51ColorIndex
 90
      256
102
RTVSPost2010Prop51ColorRGB
 90
-16777216
102
RTVSPost2010PropOp51
 70
     0
102
RTVSPost2010Prop52
140
1.0
102
RTVSPost2010PropOp52
 70
     0
102
RTVSPost2010Prop53
 90
        2
102
RTVSPost2010PropOp53
 70
     1
102
RTVSPost2010Prop54
  1
strokes_ogs.tif
102
RTVSPost2010PropOp54
 70
     1
102
RTVSPost2010Prop55
280
     0
102
RTVSPost2010PropOp55
 70
     1
102
RTVSPost2010Prop56
140
1.0
102
RTVSPost2010PropOp56
 70
     1
102
RTVSPost2010Prop57
140
1.0
102
RTVSPost2010PropOp57
 70
     1
  0
XRECORD
  5
1E5
102
{ACAD_REACTORS
330
1E4
102
}
330
1E4
100
AcDbXrecord
280
     1
102
RTVSPropertyOp0
 70
     1
102
RTVSPropertyOp1
 70
     1
102
RTVSPropertyOp2
 70
     1
102
RTVSPropertyOp3
 70
     1
102
RTVSPropertyOp4
 70
     1
102
RTVSPropertyOp5
 70
     1
102
RTVSPropertyOp6
 70
     1
102
RTVSPropertyOp7
 70
     1
102
RTVSPropertyOp8
 70
     1
102
RTVSPropertyOp9
 70
     1
102
RTVSPropertyOp10
 70
     1
102
RTVSPropertyOp11
 70
     1
102
RTVSPropertyOp12
 70
     1
102
RTVSPropertyOp13
 70
     1
102
RTVSPropertyOp14
 70
     1
102
RTVSPropertyOp15
 70
     1
102
RTVSPropertyOp16
 70
     1
102
RTVSPropertyOp17
 70
     1
102
RTVSPropertyOp18
 70
     1
102
RTVSPropertyOp19
 70
     1
102
RTVSPropertyOp20
 70
     1
102
RTVSPropertyOp21
 70
     1
102
RTVSPropertyOp22
 70
     1
102
RTVSPropertyOp23
 70
     1
102
RTVSPropertyOp24
 70
     1
102
RTVSPropertyOp25
 70
     1
102
RTVSPropertyOp26
 70
     1
102
RTVSPropertyOp27
 70
     1
102
RTVSPropertyOp28
 70
     1
102
RTVSPropertyOp29
 70
     1
102
RTVSPropertyOp30
 70
     1
102
RTVSPropertyOp31
 70
     1
102
RTVSPropertyOp32
 70
     1
102
RTVSPropertyOp33
 70
     1
102
RTVSPropertyOp34
 70
     1
102
RTVSPropertyOp35
 70
     1
102
RTVSPropertyOp36
 70
     1
102
RTVSPropertyOp37
 70
     1
102
RTVSPropertyOp38
 70
     1
102
RTVSPropertyOp39
 70
     1
102
RTVSPropertyOp40
 70
     1
102
RTVSPropertyOp41
 70
     1
102
RTVSPropertyOp42
 70
     1
102
RTVSPropertyOp43
 70
     1
102
RTVSPropertyOp44
 70
     1
102
RTVSPropertyOp45
 70
     1
102
RTVSPropertyOp46
 70
     1
102
RTVSPropertyOp47
 70
     1
102
RTVSPropertyOp48
 70
     1
102
RTVSPropertyOp49
 70
     1
102
RTVSPropertyOp50
 70
     1
102
RTVSPropertyOp51
 70
     0
102
RTVSPropertyOp52
 70
     0
102
RTVSPropertyOp53
 70
     1
102
RTVSPropertyOp54
 70
     1
102
RTVSPropertyOp55
 70
     1
102
RTVSPropertyOp56
 70
     1
102
RTVSPropertyOp57
 70
     1
102
RTVSPost2010Prop28
280
     0
102
RTVSPost2010PropOp28
 70
     1
102
RTVSPost2010Prop29
280
     1
102
RTVSPost2010PropOp29
 70
     1
102
RTVSPost2010Prop30
280
     1
102
RTVSPost2010PropOp30
 70
     1
102
RTVSPost2010Prop31
280
     0
102
RTVSPost2010PropOp31
 70
     1
102
RTVSPost2010Prop32
280
     0
102
RTVSPost2010PropOp32
 70
     1
102
RTVSPost2010Prop33
280
     0
102
RTVSPost2010PropOp33
 70
     1
102
RTVSPost2010Prop34
280
     0
102
RTVSPost2010PropOp34
 70
     1
102
RTVSPost2010Prop35
280
     0
102
RTVSPost2010PropOp35
 70
     1
102
RTVSPost2010Prop36
280
     0
102
RTVSPost2010PropOp36
 70
     1
102
RTVSPost2010Prop37
 90
       50
102
RTVSPost2010PropOp37
 70
     1
102
RTVSPost2010Prop38
140
0.0
102
RTVSPost2010PropOp38
 70
     1
102
RTVSPost2010Prop39
140
1.0
102
RTVSPost2010PropOp39
 70
     1
102
RTVSPost2010Prop40
 90
        0
102
RTVSPost2010PropOp40
 70
     1
102
RTVSPost2010Prop41ColorIndex
 90
       18
102
RTVSPost2010Prop41ColorRGB
 90
        0
102
RTVSPost2010PropOp41
 70
     1
102
RTVSPost2010Prop42
 90
       50
102
RTVSPost2010PropOp42
 70
     1
102
RTVSPost2010Prop43
 90
        3
102
RTVSPost2010PropOp43
 70
     1
102
RTVSPost2010Prop44ColorIndex
 90
        5
102
RTVSPost2010Prop44ColorRGB
 90
      255
102
RTVSPost2010PropOp44
 70
     1
102
RTVSPost2010Prop45
280
     0
102
RTVSPost2010PropOp45
 70
     1
102
RTVSPost2010Prop46
 90
       50
102
RTVSPost2010PropOp46
 70
     1
102
RTVSPost2010Prop47
 90
       50
102
RTVSPost2010PropOp47
 70
     1
102
RTVSPost2010Prop48
 90
       50
102
RTVSPost2010PropOp48
 70
     1
102
RTVSPost2010Prop49
280
     0
102
RTVSPost2010PropOp49
 70
     1
102
RTVSPost2010Prop50
 90
       50
102
RTVSPost2010PropOp50
 70
     1
102
RTVSPost2010Prop51ColorIndex
 90
      256
102
RTVSPost2010Prop51ColorRGB
 90
-16777216
102
RTVSPost2010PropOp51
 70
     0
102
RTVSPost2010Prop52
140
1.0
102
RTVSPost2010PropOp52
 70
     0
102
RTVSPost2010Prop53
 90
        2
102
RTVSPost2010PropOp53
 70
     1
102
RTVSPost2010Prop54
  1
strokes_ogs.tif
102
RTVSPost2010PropOp54
 70
     1
102
RTVSPost2010Prop55
280
     0
102
RTVSPost2010PropOp55
 70
     1
102
RTVSPost2010Prop56
140
1.0
102
RTVSPost2010PropOp56
 70
     1
102
RTVSPost2010Prop57
140
1.0
102
RTVSPost2010PropOp57
 70
     1
  0
XRECORD
  5
1DF
102
{ACAD_REACTORS
330
1DE
102
}
330
1DE
100
AcDbXrecord
280
     1
102
RTVSPropertyOp0
 70
     1
102
RTVSPropertyOp1
 70
     1
102
RTVSPropertyOp2
 70
     1
102
RTVSPropertyOp3
 70
     1
102
RTVSPropertyOp4
 70
     1
102
RTVSPropertyOp5
 70
     1
102
RTVSPropertyOp6
 70
     1
102
RTVSPropertyOp7
 70
     1
102
RTVSPropertyOp8
 70
     1
102
RTVSPropertyOp9
 70
     1
102
RTVSPropertyOp10
 70
     1
102
RTVSPropertyOp11
 70
     1
102
RTVSPropertyOp12
 70
     1
102
RTVSPropertyOp13
 70
     1
102
RTVSPropertyOp14
 70
     1
102
RTVSPropertyOp15
 70
     1
102
RTVSPropertyOp16
 70
     1
102
RTVSPropertyOp17
 70
     1
102
RTVSPropertyOp18
 70
     1
102
RTVSPropertyOp19
 70
     1
102
RTVSPropertyOp20
 70
     1
102
RTVSPropertyOp21
 70
     1
102
RTVSPropertyOp22
 70
     1
102
RTVSPropertyOp23
 70
     1
102
RTVSPropertyOp24
 70
     1
102
RTVSPropertyOp25
 70
     1
102
RTVSPropertyOp26
 70
     1
102
RTVSPropertyOp27
 70
     1
102
RTVSPropertyOp28
 70
     1
102
RTVSPropertyOp29
 70
     1
102
RTVSPropertyOp30
 70
     1
102
RTVSPropertyOp31
 70
     1
102
RTVSPropertyOp32
 70
     1
102
RTVSPropertyOp33
 70
     1
102
RTVSPropertyOp34
 70
     1
102
RTVSPropertyOp35
 70
     1
102
RTVSPropertyOp36
 70
     1
102
RTVSPropertyOp37
 70
     1
102
RTVSPropertyOp38
 70
     1
102
RTVSPropertyOp39
 70
     1
102
RTVSPropertyOp40
 70
     1
102
RTVSPropertyOp41
 70
     1
102
RTVSPropertyOp42
 70
     1
102
RTVSPropertyOp43
 70
     1
102
RTVSPropertyOp44
 70
     1
102
RTVSPropertyOp45
 70
     1
102
RTVSPropertyOp46
 70
     1
102
RTVSPropertyOp47
 70
     1
102
RTVSPropertyOp48
 70
     1
102
RTVSPropertyOp49
 70
     1
102
RTVSPropertyOp50
 70
     1
102
RTVSPropertyOp51
 70
     0
102
RTVSPropertyOp52
 70
     0
102
RTVSPropertyOp53
 70
     1
102
RTVSPropertyOp54
 70
     1
102
RTVSPropertyOp55
 70
     1
102
RTVSPropertyOp56
 70
     1
102
RTVSPropertyOp57
 70
     1
102
RTVSPost2010Prop28
280
     0
102
RTVSPost2010PropOp28
 70
     1
102
RTVSPost2010Prop29
280
     1
102
RTVSPost2010PropOp29
 70
     1
102
RTVSPost2010Prop30
280
     1
102
RTVSPost2010PropOp30
 70
     1
102
RTVSPost2010Prop31
280
     0
102
RTVSPost2010PropOp31
 70
     1
102
RTVSPost2010Prop32
280
     0
102
RTVSPost2010PropOp32
 70
     1
102
RTVSPost2010Prop33
280
     0
102
RTVSPost2010PropOp33
 70
     1
102
RTVSPost2010Prop34
280
     0
102
RTVSPost2010PropOp34
 70
     1
102
RTVSPost2010Prop35
280
     0
102
RTVSPost2010PropOp35
 70
     1
102
RTVSPost2010Prop36
280
     0
102
RTVSPost2010PropOp36
 70
     1
102
RTVSPost2010Prop37
 90
       50
102
RTVSPost2010PropOp37
 70
     1
102
RTVSPost2010Prop38
140
0.0
102
RTVSPost2010PropOp38
 70
     1
102
RTVSPost2010Prop39
140
1.0
102
RTVSPost2010PropOp39
 70
     1
102
RTVSPost2010Prop40
 90
        0
102
RTVSPost2010PropOp40
 70
     1
102
RTVSPost2010Prop41ColorIndex
 90
       18
102
RTVSPost2010Prop41ColorRGB
 90
        0
102
RTVSPost2010PropOp41
 70
     1
102
RTVSPost2010Prop42
 90
       50
102
RTVSPost2010PropOp42
 70
     1
102
RTVSPost2010Prop43
 90
        3
102
RTVSPost2010PropOp43
 70
     1
102
RTVSPost2010Prop44ColorIndex
 90
        5
102
RTVSPost2010Prop44ColorRGB
 90
      255
102
RTVSPost2010PropOp44
 70
     1
102
RTVSPost2010Prop45
280
     0
102
RTVSPost2010PropOp45
 70
     1
102
RTVSPost2010Prop46
 90
       50
102
RTVSPost2010PropOp46
 70
     1
102
RTVSPost2010Prop47
 90
       50
102
RTVSPost2010PropOp47
 70
     1
102
RTVSPost2010Prop48
 90
       50
102
RTVSPost2010PropOp48
 70
     1
102
RTVSPost2010Prop49
280
     0
102
RTVSPost2010PropOp49
 70
     1
102
RTVSPost2010Prop50
 90
       50
102
RTVSPost2010PropOp50
 70
     1
102
RTVSPost2010Prop51ColorIndex
 90
      256
102
RTVSPost2010Prop51ColorRGB
 90
-16777216
102
RTVSPost2010PropOp51
 70
     0
102
RTVSPost2010Prop52
140
1.0
102
RTVSPost2010PropOp52
 70
     0
102
RTVSPost2010Prop53
 90
        2
102
RTVSPost2010PropOp53
 70
     1
102
RTVSPost2010Prop54
  1
strokes_ogs.tif
102
RTVSPost2010PropOp54
 70
     1
102
RTVSPost2010Prop55
280
     0
102
RTVSPost2010PropOp55
 70
     1
102
RTVSPost2010Prop56
140
1.0
102
RTVSPost2010PropOp56
 70
     1
102
RTVSPost2010Prop57
140
1.0
102
RTVSPost2010PropOp57
 70
     1
  0
XRECORD
  5
1E1
102
{ACAD_REACTORS
330
1E0
102
}
330
1E0
100
AcDbXrecord
280
     1
102
RTVSPropertyOp0
 70
     1
102
RTVSPropertyOp1
 70
     1
102
RTVSPropertyOp2
 70
     1
102
RTVSPropertyOp3
 70
     1
102
RTVSPropertyOp4
 70
     1
102
RTVSPropertyOp5
 70
     1
102
RTVSPropertyOp6
 70
     1
102
RTVSPropertyOp7
 70
     1
102
RTVSPropertyOp8
 70
     1
102
RTVSPropertyOp9
 70
     1
102
RTVSPropertyOp10
 70
     1
102
RTVSPropertyOp11
 70
     1
102
RTVSPropertyOp12
 70
     1
102
RTVSPropertyOp13
 70
     1
102
RTVSPropertyOp14
 70
     1
102
RTVSPropertyOp15
 70
     1
102
RTVSPropertyOp16
 70
     1
102
RTVSPropertyOp17
 70
     1
102
RTVSPropertyOp18
 70
     1
102
RTVSPropertyOp19
 70
     1
102
RTVSPropertyOp20
 70
     1
102
RTVSPropertyOp21
 70
     1
102
RTVSPropertyOp22
 70
     1
102
RTVSPropertyOp23
 70
     1
102
RTVSPropertyOp24
 70
     1
102
RTVSPropertyOp25
 70
     1
102
RTVSPropertyOp26
 70
     1
102
RTVSPropertyOp27
 70
     1
102
RTVSPropertyOp28
 70
     1
102
RTVSPropertyOp29
 70
     1
102
RTVSPropertyOp30
 70
     1
102
RTVSPropertyOp31
 70
     1
102
RTVSPropertyOp32
 70
     1
102
RTVSPropertyOp33
 70
     1
102
RTVSPropertyOp34
 70
     1
102
RTVSPropertyOp35
 70
     1
102
RTVSPropertyOp36
 70
     1
102
RTVSPropertyOp37
 70
     1
102
RTVSPropertyOp38
 70
     1
102
RTVSPropertyOp39
 70
     1
102
RTVSPropertyOp40
 70
     1
102
RTVSPropertyOp41
 70
     1
102
RTVSPropertyOp42
 70
     1
102
RTVSPropertyOp43
 70
     1
102
RTVSPropertyOp44
 70
     1
102
RTVSPropertyOp45
 70
     1
102
RTVSPropertyOp46
 70
     1
102
RTVSPropertyOp47
 70
     1
102
RTVSPropertyOp48
 70
     1
102
RTVSPropertyOp49
 70
     1
102
RTVSPropertyOp50
 70
     1
102
RTVSPropertyOp51
 70
     0
102
RTVSPropertyOp52
 70
     0
102
RTVSPropertyOp53
 70
     1
102
RTVSPropertyOp54
 70
     1
102
RTVSPropertyOp55
 70
     1
102
RTVSPropertyOp56
 70
     1
102
RTVSPropertyOp57
 70
     1
102
RTVSPost2010Prop28
280
     0
102
RTVSPost2010PropOp28
 70
     1
102
RTVSPost2010Prop29
280
     1
102
RTVSPost2010PropOp29
 70
     1
102
RTVSPost2010Prop30
280
     1
102
RTVSPost2010PropOp30
 70
     1
102
RTVSPost2010Prop31
280
     0
102
RTVSPost2010PropOp31
 70
     1
102
RTVSPost2010Prop32
280
     0
102
RTVSPost2010PropOp32
 70
     1
102
RTVSPost2010Prop33
280
     0
102
RTVSPost2010PropOp33
 70
     1
102
RTVSPost2010Prop34
280
     0
102
RTVSPost2010PropOp34
 70
     1
102
RTVSPost2010Prop35
280
     0
102
RTVSPost2010PropOp35
 70
     1
102
RTVSPost2010Prop36
280
     0
102
RTVSPost2010PropOp36
 70
     1
102
RTVSPost2010Prop37
 90
       50
102
RTVSPost2010PropOp37
 70
     1
102
RTVSPost2010Prop38
140
0.0
102
RTVSPost2010PropOp38
 70
     1
102
RTVSPost2010Prop39
140
1.0
102
RTVSPost2010PropOp39
 70
     1
102
RTVSPost2010Prop40
 90
        0
102
RTVSPost2010PropOp40
 70
     1
102
RTVSPost2010Prop41ColorIndex
 90
       18
102
RTVSPost2010Prop41ColorRGB
 90
        0
102
RTVSPost2010PropOp41
 70
     1
102
RTVSPost2010Prop42
 90
       50
102
RTVSPost2010PropOp42
 70
     1
102
RTVSPost2010Prop43
 90
        3
102
RTVSPost2010PropOp43
 70
     1
102
RTVSPost2010Prop44ColorIndex
 90
        5
102
RTVSPost2010Prop44ColorRGB
 90
      255
102
RTVSPost2010PropOp44
 70
     1
102
RTVSPost2010Prop45
280
     0
102
RTVSPost2010PropOp45
 70
     1
102
RTVSPost2010Prop46
 90
       50
102
RTVSPost2010PropOp46
 70
     1
102
RTVSPost2010Prop47
 90
       50
102
RTVSPost2010PropOp47
 70
     1
102
RTVSPost2010Prop48
 90
       50
102
RTVSPost2010PropOp48
 70
     1
102
RTVSPost2010Prop49
280
     0
102
RTVSPost2010PropOp49
 70
     1
102
RTVSPost2010Prop50
 90
       50
102
RTVSPost2010PropOp50
 70
     1
102
RTVSPost2010Prop51ColorIndex
 90
      256
102
RTVSPost2010Prop51ColorRGB
 90
-16777216
102
RTVSPost2010PropOp51
 70
     0
102
RTVSPost2010Prop52
140
1.0
102
RTVSPost2010PropOp52
 70
     0
102
RTVSPost2010Prop53
 90
        2
102
RTVSPost2010PropOp53
 70
     1
102
RTVSPost2010Prop54
  1
strokes_ogs.tif
102
RTVSPost2010PropOp54
 70
     1
102
RTVSPost2010Prop55
280
     0
102
RTVSPost2010PropOp55
 70
     1
102
RTVSPost2010Prop56
140
1.0
102
RTVSPost2010PropOp56
 70
     1
102
RTVSPost2010Prop57
140
1.0
102
RTVSPost2010PropOp57
 70
     1
  0
XRECORD
  5
1D1
102
{ACAD_REACTORS
330
1D0
102
}
330
1D0
100
AcDbXrecord
280
     1
102
RTVSPropertyOp0
 70
     1
102
RTVSPropertyOp1
 70
     1
102
RTVSPropertyOp2
 70
     1
102
RTVSPropertyOp3
 70
     1
102
RTVSPropertyOp4
 70
     1
102
RTVSPropertyOp5
 70
     1
102
RTVSPropertyOp6
 70
     1
102
RTVSPropertyOp7
 70
     1
102
RTVSPropertyOp8
 70
     1
102
RTVSPropertyOp9
 70
     1
102
RTVSPropertyOp10
 70
     1
102
RTVSPropertyOp11
 70
     1
102
RTVSPropertyOp12
 70
     1
102
RTVSPropertyOp13
 70
     1
102
RTVSPropertyOp14
 70
     1
102
RTVSPropertyOp15
 70
     1
102
RTVSPropertyOp16
 70
     1
102
RTVSPropertyOp17
 70
     1
102
RTVSPropertyOp18
 70
     1
102
RTVSPropertyOp19
 70
     1
102
RTVSPropertyOp20
 70
     1
102
RTVSPropertyOp21
 70
     1
102
RTVSPropertyOp22
 70
     1
102
RTVSPropertyOp23
 70
     1
102
RTVSPropertyOp24
 70
     1
102
RTVSPropertyOp25
 70
     1
102
RTVSPropertyOp26
 70
     1
102
RTVSPropertyOp27
 70
     1
102
RTVSPropertyOp28
 70
     1
102
RTVSPropertyOp29
 70
     1
102
RTVSPropertyOp30
 70
     1
102
RTVSPropertyOp31
 70
     1
102
RTVSPropertyOp32
 70
     1
102
RTVSPropertyOp33
 70
     1
102
RTVSPropertyOp34
 70
     1
102
RTVSPropertyOp35
 70
     1
102
RTVSPropertyOp36
 70
     1
102
RTVSPropertyOp37
 70
     1
102
RTVSPropertyOp38
 70
     1
102
RTVSPropertyOp39
 70
     1
102
RTVSPropertyOp40
 70
     1
102
RTVSPropertyOp41
 70
     1
102
RTVSPropertyOp42
 70
     1
102
RTVSPropertyOp43
 70
     1
102
RTVSPropertyOp44
 70
     1
102
RTVSPropertyOp45
 70
     1
102
RTVSPropertyOp46
 70
     1
102
RTVSPropertyOp47
 70
     1
102
RTVSPropertyOp48
 70
     1
102
RTVSPropertyOp49
 70
     1
102
RTVSPropertyOp50
 70
     1
102
RTVSPropertyOp51
 70
     0
102
RTVSPropertyOp52
 70
     0
102
RTVSPropertyOp53
 70
     1
102
RTVSPropertyOp54
 70
     1
102
RTVSPropertyOp55
 70
     1
102
RTVSPropertyOp56
 70
     1
102
RTVSPropertyOp57
 70
     1
102
RTVSPost2010Prop28
280
     0
102
RTVSPost2010PropOp28
 70
     1
102
RTVSPost2010Prop29
280
     1
102
RTVSPost2010PropOp29
 70
     1
102
RTVSPost2010Prop30
280
     1
102
RTVSPost2010PropOp30
 70
     1
102
RTVSPost2010Prop31
280
     0
102
RTVSPost2010PropOp31
 70
     1
102
RTVSPost2010Prop32
280
     0
102
RTVSPost2010PropOp32
 70
     1
102
RTVSPost2010Prop33
280
     0
102
RTVSPost2010PropOp33
 70
     1
102
RTVSPost2010Prop34
280
     0
102
RTVSPost2010PropOp34
 70
     1
102
RTVSPost2010Prop35
280
     0
102
RTVSPost2010PropOp35
 70
     1
102
RTVSPost2010Prop36
280
     0
102
RTVSPost2010PropOp36
 70
     1
102
RTVSPost2010Prop37
 90
       50
102
RTVSPost2010PropOp37
 70
     1
102
RTVSPost2010Prop38
140
0.0
102
RTVSPost2010PropOp38
 70
     1
102
RTVSPost2010Prop39
140
1.0
102
RTVSPost2010PropOp39
 70
     1
102
RTVSPost2010Prop40
 90
        0
102
RTVSPost2010PropOp40
 70
     1
102
RTVSPost2010Prop41ColorIndex
 90
       18
102
RTVSPost2010Prop41ColorRGB
 90
        0
102
RTVSPost2010PropOp41
 70
     1
102
RTVSPost2010Prop42
 90
       50
102
RTVSPost2010PropOp42
 70
     1
102
RTVSPost2010Prop43
 90
        3
102
RTVSPost2010PropOp43
 70
     1
102
RTVSPost2010Prop44ColorIndex
 90
        5
102
RTVSPost2010Prop44ColorRGB
 90
      255
102
RTVSPost2010PropOp44
 70
     1
102
RTVSPost2010Prop45
280
     0
102
RTVSPost2010PropOp45
 70
     1
102
RTVSPost2010Prop46
 90
       50
102
RTVSPost2010PropOp46
 70
     1
102
RTVSPost2010Prop47
 90
       50
102
RTVSPost2010PropOp47
 70
     1
102
RTVSPost2010Prop48
 90
       50
102
RTVSPost2010PropOp48
 70
     1
102
RTVSPost2010Prop49
280
     0
102
RTVSPost2010PropOp49
 70
     1
102
RTVSPost2010Prop50
 90
       50
102
RTVSPost2010PropOp50
 70
     1
102
RTVSPost2010Prop51ColorIndex
 90
      256
102
RTVSPost2010Prop51ColorRGB
 90
-16777216
102
RTVSPost2010PropOp51
 70
     0
102
RTVSPost2010Prop52
140
1.0
102
RTVSPost2010PropOp52
 70
     0
102
RTVSPost2010Prop53
 90
        2
102
RTVSPost2010PropOp53
 70
     1
102
RTVSPost2010Prop54
  1
strokes_ogs.tif
102
RTVSPost2010PropOp54
 70
     1
102
RTVSPost2010Prop55
280
     0
102
RTVSPost2010PropOp55
 70
     1
102
RTVSPost2010Prop56
140
1.0
102
RTVSPost2010PropOp56
 70
     1
102
RTVSPost2010Prop57
140
1.0
102
RTVSPost2010PropOp57
 70
     1
  0
XRECORD
  5
1C3
102
{ACAD_REACTORS
330
1C2
102
}
330
1C2
100
AcDbXrecord
280
     1
102
RTVSPropertyOp0
 70
     1
102
RTVSPropertyOp1
 70
     1
102
RTVSPropertyOp2
 70
     1
102
RTVSPropertyOp3
 70
     1
102
RTVSPropertyOp4
 70
     1
102
RTVSPropertyOp5
 70
     1
102
RTVSPropertyOp6
 70
     1
102
RTVSPropertyOp7
 70
     1
102
RTVSPropertyOp8
 70
     1
102
RTVSPropertyOp9
 70
     1
102
RTVSPropertyOp10
 70
     1
102
RTVSPropertyOp11
 70
     1
102
RTVSPropertyOp12
 70
     1
102
RTVSPropertyOp13
 70
     1
102
RTVSPropertyOp14
 70
     1
102
RTVSPropertyOp15
 70
     1
102
RTVSPropertyOp16
 70
     1
102
RTVSPropertyOp17
 70
     1
102
RTVSPropertyOp18
 70
     1
102
RTVSPropertyOp19
 70
     1
102
RTVSPropertyOp20
 70
     1
102
RTVSPropertyOp21
 70
     1
102
RTVSPropertyOp22
 70
     1
102
RTVSPropertyOp23
 70
     1
102
RTVSPropertyOp24
 70
     1
102
RTVSPropertyOp25
 70
     1
102
RTVSPropertyOp26
 70
     1
102
RTVSPropertyOp27
 70
     1
102
RTVSPropertyOp28
 70
     1
102
RTVSPropertyOp29
 70
     1
102
RTVSPropertyOp30
 70
     1
102
RTVSPropertyOp31
 70
     1
102
RTVSPropertyOp32
 70
     1
102
RTVSPropertyOp33
 70
     1
102
RTVSPropertyOp34
 70
     1
102
RTVSPropertyOp35
 70
     1
102
RTVSPropertyOp36
 70
     1
102
RTVSPropertyOp37
 70
     1
102
RTVSPropertyOp38
 70
     1
102
RTVSPropertyOp39
 70
     1
102
RTVSPropertyOp40
 70
     1
102
RTVSPropertyOp41
 70
     1
102
RTVSPropertyOp42
 70
     1
102
RTVSPropertyOp43
 70
     1
102
RTVSPropertyOp44
 70
     1
102
RTVSPropertyOp45
 70
     1
102
RTVSPropertyOp46
 70
     1
102
RTVSPropertyOp47
 70
     1
102
RTVSPropertyOp48
 70
     1
102
RTVSPropertyOp49
 70
     1
102
RTVSPropertyOp50
 70
     1
102
RTVSPropertyOp51
 70
     0
102
RTVSPropertyOp52
 70
     0
102
RTVSPropertyOp53
 70
     1
102
RTVSPropertyOp54
 70
     1
102
RTVSPropertyOp55
 70
     1
102
RTVSPropertyOp56
 70
     1
102
RTVSPropertyOp57
 70
     1
102
RTVSPost2010Prop28
280
     0
102
RTVSPost2010PropOp28
 70
     1
102
RTVSPost2010Prop29
280
     1
102
RTVSPost2010PropOp29
 70
     1
102
RTVSPost2010Prop30
280
     1
102
RTVSPost2010PropOp30
 70
     1
102
RTVSPost2010Prop31
280
     0
102
RTVSPost2010PropOp31
 70
     1
102
RTVSPost2010Prop32
280
     0
102
RTVSPost2010PropOp32
 70
     1
102
RTVSPost2010Prop33
280
     0
102
RTVSPost2010PropOp33
 70
     1
102
RTVSPost2010Prop34
280
     0
102
RTVSPost2010PropOp34
 70
     1
102
RTVSPost2010Prop35
280
     0
102
RTVSPost2010PropOp35
 70
     1
102
RTVSPost2010Prop36
280
     0
102
RTVSPost2010PropOp36
 70
     1
102
RTVSPost2010Prop37
 90
       50
102
RTVSPost2010PropOp37
 70
     1
102
RTVSPost2010Prop38
140
0.0
102
RTVSPost2010PropOp38
 70
     1
102
RTVSPost2010Prop39
140
1.0
102
RTVSPost2010PropOp39
 70
     1
102
RTVSPost2010Prop40
 90
        0
102
RTVSPost2010PropOp40
 70
     1
102
RTVSPost2010Prop41ColorIndex
 90
       18
102
RTVSPost2010Prop41ColorRGB
 90
        0
102
RTVSPost2010PropOp41
 70
     1
102
RTVSPost2010Prop42
 90
       50
102
RTVSPost2010PropOp42
 70
     1
102
RTVSPost2010Prop43
 90
        3
102
RTVSPost2010PropOp43
 70
     1
102
RTVSPost2010Prop44ColorIndex
 90
        5
102
RTVSPost2010Prop44ColorRGB
 90
      255
102
RTVSPost2010PropOp44
 70
     1
102
RTVSPost2010Prop45
280
     0
102
RTVSPost2010PropOp45
 70
     1
102
RTVSPost2010Prop46
 90
       50
102
RTVSPost2010PropOp46
 70
     1
102
RTVSPost2010Prop47
 90
       50
102
RTVSPost2010PropOp47
 70
     1
102
RTVSPost2010Prop48
 90
       50
102
RTVSPost2010PropOp48
 70
     1
102
RTVSPost2010Prop49
280
     0
102
RTVSPost2010PropOp49
 70
     1
102
RTVSPost2010Prop50
 90
       50
102
RTVSPost2010PropOp50
 70
     1
102
RTVSPost2010Prop51ColorIndex
 90
      256
102
RTVSPost2010Prop51ColorRGB
 90
-16777216
102
RTVSPost2010PropOp51
 70
     0
102
RTVSPost2010Prop52
140
1.0
102
RTVSPost2010PropOp52
 70
     0
102
RTVSPost2010Prop53
 90
        2
102
RTVSPost2010PropOp53
 70
     1
102
RTVSPost2010Prop54
  1
strokes_ogs.tif
102
RTVSPost2010PropOp54
 70
     1
102
RTVSPost2010Prop55
280
     0
102
RTVSPost2010PropOp55
 70
     1
102
RTVSPost2010Prop56
140
1.0
102
RTVSPost2010PropOp56
 70
     1
102
RTVSPost2010Prop57
140
1.0
102
RTVSPost2010PropOp57
 70
     1
  0
XRECORD
  5
1E3
102
{ACAD_REACTORS
330
1E2
102
}
330
1E2
100
AcDbXrecord
280
     1
102
RTVSPropertyOp0
 70
     1
102
RTVSPropertyOp1
 70
     1
102
RTVSPropertyOp2
 70
     1
102
RTVSPropertyOp3
 70
     1
102
RTVSPropertyOp4
 70
     1
102
RTVSPropertyOp5
 70
     1
102
RTVSPropertyOp6
 70
     1
102
RTVSPropertyOp7
 70
     1
102
RTVSPropertyOp8
 70
     1
102
RTVSPropertyOp9
 70
     1
102
RTVSPropertyOp10
 70
     1
102
RTVSPropertyOp11
 70
     1
102
RTVSPropertyOp12
 70
     1
102
RTVSPropertyOp13
 70
     1
102
RTVSPropertyOp14
 70
     1
102
RTVSPropertyOp15
 70
     1
102
RTVSPropertyOp16
 70
     1
102
RTVSPropertyOp17
 70
     1
102
RTVSPropertyOp18
 70
     1
102
RTVSPropertyOp19
 70
     1
102
RTVSPropertyOp20
 70
     1
102
RTVSPropertyOp21
 70
     1
102
RTVSPropertyOp22
 70
     1
102
RTVSPropertyOp23
 70
     1
102
RTVSPropertyOp24
 70
     1
102
RTVSPropertyOp25
 70
     1
102
RTVSPropertyOp26
 70
     1
102
RTVSPropertyOp27
 70
     1
102
RTVSPropertyOp28
 70
     1
102
RTVSPropertyOp29
 70
     1
102
RTVSPropertyOp30
 70
     1
102
RTVSPropertyOp31
 70
     1
102
RTVSPropertyOp32
 70
     1
102
RTVSPropertyOp33
 70
     1
102
RTVSPropertyOp34
 70
     1
102
RTVSPropertyOp35
 70
     1
102
RTVSPropertyOp36
 70
     1
102
RTVSPropertyOp37
 70
     1
102
RTVSPropertyOp38
 70
     1
102
RTVSPropertyOp39
 70
     1
102
RTVSPropertyOp40
 70
     1
102
RTVSPropertyOp41
 70
     1
102
RTVSPropertyOp42
 70
     1
102
RTVSPropertyOp43
 70
     1
102
RTVSPropertyOp44
 70
     1
102
RTVSPropertyOp45
 70
     1
102
RTVSPropertyOp46
 70
     1
102
RTVSPropertyOp47
 70
     1
102
RTVSPropertyOp48
 70
     1
102
RTVSPropertyOp49
 70
     1
102
RTVSPropertyOp50
 70
     1
102
RTVSPropertyOp51
 70
     0
102
RTVSPropertyOp52
 70
     0
102
RTVSPropertyOp53
 70
     1
102
RTVSPropertyOp54
 70
     1
102
RTVSPropertyOp55
 70
     1
102
RTVSPropertyOp56
 70
     1
102
RTVSPropertyOp57
 70
     1
102
RTVSPost2010Prop28
280
     0
102
RTVSPost2010PropOp28
 70
     1
102
RTVSPost2010Prop29
280
     1
102
RTVSPost2010PropOp29
 70
     1
102
RTVSPost2010Prop30
280
     1
102
RTVSPost2010PropOp30
 70
     1
102
RTVSPost2010Prop31
280
     0
102
RTVSPost2010PropOp31
 70
     1
102
RTVSPost2010Prop32
280
     0
102
RTVSPost2010PropOp32
 70
     1
102
RTVSPost2010Prop33
280
     0
102
RTVSPost2010PropOp33
 70
     1
102
RTVSPost2010Prop34
280
     0
102
RTVSPost2010PropOp34
 70
     1
102
RTVSPost2010Prop35
280
     0
102
RTVSPost2010PropOp35
 70
     1
102
RTVSPost2010Prop36
280
     0
102
RTVSPost2010PropOp36
 70
     1
102
RTVSPost2010Prop37
 90
       50
102
RTVSPost2010PropOp37
 70
     1
102
RTVSPost2010Prop38
140
0.0
102
RTVSPost2010PropOp38
 70
     1
102
RTVSPost2010Prop39
140
1.0
102
RTVSPost2010PropOp39
 70
     1
102
RTVSPost2010Prop40
 90
        0
102
RTVSPost2010PropOp40
 70
     1
102
RTVSPost2010Prop41ColorIndex
 90
       18
102
RTVSPost2010Prop41ColorRGB
 90
        0
102
RTVSPost2010PropOp41
 70
     1
102
RTVSPost2010Prop42
 90
       50
102
RTVSPost2010PropOp42
 70
     1
102
RTVSPost2010Prop43
 90
        3
102
RTVSPost2010PropOp43
 70
     1
102
RTVSPost2010Prop44ColorIndex
 90
        5
102
RTVSPost2010Prop44ColorRGB
 90
      255
102
RTVSPost2010PropOp44
 70
     1
102
RTVSPost2010Prop45
280
     0
102
RTVSPost2010PropOp45
 70
     1
102
RTVSPost2010Prop46
 90
       50
102
RTVSPost2010PropOp46
 70
     1
102
RTVSPost2010Prop47
 90
       50
102
RTVSPost2010PropOp47
 70
     1
102
RTVSPost2010Prop48
 90
       50
102
RTVSPost2010PropOp48
 70
     1
102
RTVSPost2010Prop49
280
     0
102
RTVSPost2010PropOp49
 70
     1
102
RTVSPost2010Prop50
 90
       50
102
RTVSPost2010PropOp50
 70
     1
102
RTVSPost2010Prop51ColorIndex
 90
      256
102
RTVSPost2010Prop51ColorRGB
 90
-16777216
102
RTVSPost2010PropOp51
 70
     0
102
RTVSPost2010Prop52
140
1.0
102
RTVSPost2010PropOp52
 70
     0
102
RTVSPost2010Prop53
 90
        2
102
RTVSPost2010PropOp53
 70
     1
102
RTVSPost2010Prop54
  1
strokes_ogs.tif
102
RTVSPost2010PropOp54
 70
     1
102
RTVSPost2010Prop55
280
     0
102
RTVSPost2010PropOp55
 70
     1
102
RTVSPost2010Prop56
140
1.0
102
RTVSPost2010PropOp56
 70
     1
102
RTVSPost2010Prop57
140
1.0
102
RTVSPost2010PropOp57
 70
     1
  0
ENDSEC
  0
EOF
