  0
SECTION
  2
HEADER
  9
$ACADVER
  1
AC1015
  9
$ACADMAINTVER
 70
     6
  9
$DWGCODEPAGE
  3
ANSI_1252
  9
$INSBASE
 10
0.0
 20
0.0
 30
0.0
  9
$EXTMIN
 10
136.770691
 20
202.505951
 30
0.0
  9
$EXTMAX
 10
530.218506
 20
574.020447
 30
0.0
  9
$LIMMIN
 10
136.770691
 20
202.505951
  9
$LIMMAX
 10
530.218506
 20
574.020447
  9
$ORTHOMODE
 70
     0
  9
$REGENMODE
 70
     1
  9
$FILLMODE
 70
     1
  9
$QTEXTMODE
 70
     0
  9
$MIRRTEXT
 70
     1
  9
$LTSCALE
 40
1.0
  9
$ATTMODE
 70
     1
  9
$TEXTSIZE
 40
2.5
  9
$TRACEWID
 40
1.0
  9
$TEXTSTYLE
  7
Standard
  9
$CLAYER
  8
0
  9
$CELTYPE
  6
ByLayer
  9
$CECOLOR
 62
   256
  9
$CELTSCALE
 40
1.0
  9
$DISPSILH
 70
     0
  9
$DIMSCALE
 40
1.0
  9
$DIMASZ
 40
2.5
  9
$DIMEXO
 40
0.625
  9
$DIMDLI
 40
3.75
  9
$DIMRND
 40
0.0
  9
$DIMDLE
 40
0.0
  9
$DIMEXE
 40
1.25
  9
$DIMTP
 40
0.0
  9
$DIMTM
 40
0.0
  9
$DIMTXT
 40
2.5
  9
$DIMCEN
 40
2.5
  9
$DIMTSZ
 40
0.0
  9
$DIMTOL
 70
     0
  9
$DIMLIM
 70
     0
  9
$DIMTIH
 70
     0
  9
$DIMTOH
 70
     0
  9
$DIMSE1
 70
     0
  9
$DIMSE2
 70
     0
  9
$DIMTAD
 70
     1
  9
$DIMZIN
 70
     8
  9
$DIMBLK
  1

  9
$DIMASO
 70
     1
  9
$DIMSHO
 70
     1
  9
$DIMPOST
  1

  9
$DIMAPOST
  1

  9
$DIMALT
 70
     0
  9
$DIMALTD
 70
     3
  9
$DIMALTF
 40
0.03937
  9
$DIMLFAC
 40
1.0
  9
$DIMTOFL
 70
     1
  9
$DIMTVP
 40
0.0
  9
$DIMTIX
 70
     0
  9
$DIMSOXD
 70
     0
  9
$DIMSAH
 70
     0
  9
$DIMBLK1
  1

  9
$DIMBLK2
  1

  9
$DIMSTYLE
  2
ISO-25
  9
$DIMCLRD
 70
     0
  9
$DIMCLRE
 70
     0
  9
$DIMCLRT
 70
     0
  9
$DIMTFAC
 40
1.0
  9
$DIMGAP
 40
0.625
  9
$DIMJUST
 70
     0
  9
$DIMSD1
 70
     0
  9
$DIMSD2
 70
     0
  9
$DIMTOLJ
 70
     0
  9
$DIMTZIN
 70
     8
  9
$DIMALTZ
 70
     0
  9
$DIMALTTZ
 70
     0
  9
$DIMUPT
 70
     0
  9
$DIMDEC
 70
     2
  9
$DIMTDEC
 70
     2
  9
$DIMALTU
 70
     2
  9
$DIMALTTD
 70
     3
  9
$DIMTXSTY
  7
Standard
  9
$DIMAUNIT
 70
     0
  9
$DIMADEC
 70
     0
  9
$DIMALTRND
 40
0.0
  9
$DIMAZIN
 70
     0
  9
$DIMDSEP
 70
    44
  9
$DIMATFIT
 70
     3
  9
$DIMFRAC
 70
     0
  9
$DIMLDRBLK
  1

  9
$DIMLUNIT
 70
     2
  9
$DIMLWD
 70
    -2
  9
$DIMLWE
 70
    -2
  9
$DIMTMOVE
 70
     0
  9
$LUNITS
 70
     2
  9
$LUPREC
 70
     4
  9
$SKETCHINC
 40
1.0
  9
$FILLETRAD
 40
10.0
  9
$AUNITS
 70
     0
  9
$AUPREC
 70
     0
  9
$MENU
  1
.
  9
$ELEVATION
 40
0.0
  9
$PELEVATION
 40
0.0
  9
$THICKNESS
 40
0.0
  9
$LIMCHECK
 70
     0
  9
$CHAMFERA
 40
0.0
  9
$CHAMFERB
 40
0.0
  9
$CHAMFERC
 40
0.0
  9
$CHAMFERD
 40
0.0
  9
$SKPOLY
 70
     0
  9
$TDCREATE
 40
2460448.691164954
  9
$TDUCREATE
 40
2460448.60783162
  9
$TDUPDATE
 40
2460448.691165347
  9
$TDUUPDATE
 40
2460448.607832014
  9
$TDINDWG
 40
0.0000000116
  9
$TDUSRTIMER
 40
0.0000000116
  9
$USRTIMER
 70
     1
  9
$ANGBASE
 50
0.0
  9
$ANGDIR
 70
     0
  9
$PDMODE
 70
     0
  9
$PDSIZE
 40
0.0
  9
$PLINEWID
 40
0.0
  9
$SPLFRAME
 70
     0
  9
$SPLINETYPE
 70
     6
  9
$SPLINESEGS
 70
     8
  9
$HANDSEED
  5
1CA
  9
$SURFTAB1
 70
     6
  9
$SURFTAB2
 70
     6
  9
$SURFTYPE
 70
     6
  9
$SURFU
 70
     6
  9
$SURFV
 70
     6
  9
$UCSBASE
  2

  9
$UCSNAME
  2

  9
$UCSORG
 10
0.0
 20
0.0
 30
0.0
  9
$UCSXDIR
 10
1.0
 20
0.0
 30
0.0
  9
$UCSYDIR
 10
0.0
 20
1.0
 30
0.0
  9
$UCSORTHOREF
  2

  9
$UCSORTHOVIEW
 70
     0
  9
$UCSORGTOP
 10
0.0
 20
0.0
 30
0.0
  9
$UCSORGBOTTOM
 10
0.0
 20
0.0
 30
0.0
  9
$UCSORGLEFT
 10
0.0
 20
0.0
 30
0.0
  9
$UCSORGRIGHT
 10
0.0
 20
0.0
 30
0.0
  9
$UCSORGFRONT
 10
0.0
 20
0.0
 30
0.0
  9
$UCSORGBACK
 10
0.0
 20
0.0
 30
0.0
  9
$PUCSBASE
  2

  9
$PUCSNAME
  2

  9
$PUCSORG
 10
0.0
 20
0.0
 30
0.0
  9
$PUCSXDIR
 10
1.0
 20
0.0
 30
0.0
  9
$PUCSYDIR
 10
0.0
 20
1.0
 30
0.0
  9
$PUCSORTHOREF
  2

  9
$PUCSORTHOVIEW
 70
     0
  9
$PUCSORGTOP
 10
0.0
 20
0.0
 30
0.0
  9
$PUCSORGBOTTOM
 10
0.0
 20
0.0
 30
0.0
  9
$PUCSORGLEFT
 10
0.0
 20
0.0
 30
0.0
  9
$PUCSORGRIGHT
 10
0.0
 20
0.0
 30
0.0
  9
$PUCSORGFRONT
 10
0.0
 20
0.0
 30
0.0
  9
$PUCSORGBACK
 10
0.0
 20
0.0
 30
0.0
  9
$USERI1
 70
     0
  9
$USERI2
 70
     0
  9
$USERI3
 70
     0
  9
$USERI4
 70
     0
  9
$USERI5
 70
     0
  9
$USERR1
 40
0.0
  9
$USERR2
 40
0.0
  9
$USERR3
 40
0.0
  9
$USERR4
 40
0.0
  9
$USERR5
 40
0.0
  9
$WORLDVIEW
 70
     1
  9
$SHADEDGE
 70
     3
  9
$SHADEDIF
 70
    70
  9
$TILEMODE
 70
     1
  9
$MAXACTVP
 70
    64
  9
$PINSBASE
 10
0.0
 20
0.0
 30
0.0
  9
$PLIMCHECK
 70
     0
  9
$PEXTMIN
 10
1.000000E+20
 20
1.000000E+20
 30
1.000000E+20
  9
$PEXTMAX
 10
-1.000000E+20
 20
-1.000000E+20
 30
-1.000000E+20
  9
$PLIMMIN
 10
0.0
 20
0.0
  9
$PLIMMAX
 10
420.0
 20
297.0
  9
$UNITMODE
 70
     0
  9
$VISRETAIN
 70
     1
  9
$PLINEGEN
 70
     0
  9
$PSLTSCALE
 70
     1
  9
$TREEDEPTH
 70
  3020
  9
$CMLSTYLE
  2
Standard
  9
$CMLJUST
 70
     0
  9
$CMLSCALE
 40
20.0
  9
$PROXYGRAPHICS
 70
     1
  9
$MEASUREMENT
 70
     1
  9
$CELWEIGHT
370
    -1
  9
$ENDCAPS
280
     0
  9
$JOINSTYLE
280
     0
  9
$LWDISPLAY
290
     0
  9
$INSUNITS
 70
     4
  9
$HYPERLINKBASE
  1

  9
$STYLESHEET
  1

  9
$XEDIT
290
     1
  9
$CEPSNTYPE
380
     0
  9
$PSTYLEMODE
290
     1
  9
$FINGERPRINTGUID
  2
{c93608d5-a69c-4b3f-a727-35e13fff9f4b}
  9
$VERSIONGUID
  2
{FAEB1C32-E019-11D5-929B-00C0DF256EC4}
  9
$EXTNAMES
290
     1
  9
$PSVPSCALE
 40
0.0
  9
$OLESTARTUP
290
     0
  0
ENDSEC
  0
SECTION
  2
CLASSES
  0
CLASS
  1
ACDBDICTIONARYWDFLT
  2
AcDbDictionaryWithDefault
  3
ObjectDBX Classes
 90
        0
280
     0
281
     0
  0
CLASS
  1
VISUALSTYLE
  2
AcDbVisualStyle
  3
ObjectDBX Classes
 90
     4095
280
     0
281
     0
  0
CLASS
  1
MATERIAL
  2
AcDbMaterial
  3
ObjectDBX Classes
 90
     1153
280
     0
281
     0
  0
CLASS
  1
SCALE
  2
AcDbScale
  3
ObjectDBX Classes
 90
     1153
280
     0
281
     0
  0
CLASS
  1
TABLESTYLE
  2
AcDbTableStyle
  3
ObjectDBX Classes
 90
     4095
280
     0
281
     0
  0
CLASS
  1
MLEADERSTYLE
  2
AcDbMLeaderStyle
  3
ACDB_MLEADERSTYLE_CLASS
 90
     4095
280
     0
281
     0
  0
CLASS
  1
SUN
  2
AcDbSun
  3
SCENEOE
 90
     1153
280
     0
281
     0
  0
CLASS
  1
DICTIONARYVAR
  2
AcDbDictionaryVar
  3
ObjectDBX Classes
 90
        0
280
     0
281
     0
  0
CLASS
  1
ACDBPLACEHOLDER
  2
AcDbPlaceHolder
  3
ObjectDBX Classes
 90
        0
280
     0
281
     0
  0
CLASS
  1
LAYOUT
  2
AcDbLayout
  3
ObjectDBX Classes
 90
        0
280
     0
281
     0
  0
ENDSEC
  0
SECTION
  2
TABLES
  0
TABLE
  2
VPORT
  5
8
102
{ACAD_XDICTIONARY
360
18D
102
}
330
0
100
AcDbSymbolTable
 70
     1
  0
VPORT
  5
29
330
8
100
AcDbSymbolTableRecord
100
AcDbViewportTableRecord
  2
*Active
 70
     0
 10
0.0
 20
0.0
 11
1.0
 21
1.0
 12
344.186916
 22
148.5
 13
0.0
 23
0.0
 14
10.0
 24
10.0
 15
10.0
 25
10.0
 16
0.0
 26
0.0
 36
1.0
 17
0.0
 27
0.0
 37
0.0
 40
297.0
 41
1.972973
 42
50.0
 43
0.0
 44
0.0
 50
0.0
 51
0.0
 71
     0
 72
   100
 73
     1
 74
     3
 75
     0
 76
     0
 77
     0
 78
     0
281
     0
 65
     1
110
0.0
120
0.0
130
0.0
111
1.0
121
0.0
131
0.0
112
0.0
122
1.0
132
0.0
 79
     0
146
0.0
  0
ENDTAB
  0
TABLE
  2
LTYPE
  5
5
330
0
100
AcDbSymbolTable
 70
     1
  0
LTYPE
  5
14
330
5
100
AcDbSymbolTableRecord
100
AcDbLinetypeTableRecord
  2
ByBlock
 70
     0
  3

 72
    65
 73
     0
 40
0.0
  0
LTYPE
  5
15
330
5
100
AcDbSymbolTableRecord
100
AcDbLinetypeTableRecord
  2
ByLayer
 70
     0
  3

 72
    65
 73
     0
 40
0.0
  0
LTYPE
  5
16
330
5
100
AcDbSymbolTableRecord
100
AcDbLinetypeTableRecord
  2
Continuous
 70
     0
  3
Solid line
 72
    65
 73
     0
 40
0.0
  0
ENDTAB
  0
TABLE
  2
LAYER
  5
2
330
0
100
AcDbSymbolTable
 70
     1
  0
LAYER
  5
10
330
2
100
AcDbSymbolTableRecord
100
AcDbLayerTableRecord
  2
0
 70
     0
 62
   106
  6
Continuous
370
     0
390
F
  0
ENDTAB
  0
TABLE
  2
STYLE
  5
3
330
0
100
AcDbSymbolTable
 70
     4
  0
STYLE
  5
11
330
3
100
AcDbSymbolTableRecord
100
AcDbTextStyleTableRecord
  2
Standard
 70
     0
 40
0.0
 41
1.0
 50
0.0
 71
     0
 42
2.5
  3
txt
  4

  0
STYLE
  5
6E
330
3
100
AcDbSymbolTableRecord
100
AcDbTextStyleTableRecord
  2
Default
 70
     0
 40
0.0
 41
1.0
 50
0.0
 71
     0
 42
2.5
  3

  4

1001
ACAD
1000
txt
1071
        0
  0
STYLE
  5
6F
330
3
100
AcDbSymbolTableRecord
100
AcDbTextStyleTableRecord
  2
ISO
 70
     0
 40
0.0
 41
1.0
 50
0.0
 71
     0
 42
2.5
  3

  4

1001
ACAD
1000
txt
1071
        0
  0
STYLE
  5
70
330
3
100
AcDbSymbolTableRecord
100
AcDbTextStyleTableRecord
  2
zucchetti
 70
     0
 40
0.0
 41
1.0
 50
0.0
 71
     0
 42
2.5
  3

  4

1001
ACAD
1000
Arial
1071
        0
  0
ENDTAB
  0
TABLE
  2
VIEW
  5
6
330
0
100
AcDbSymbolTable
 70
     0
  0
ENDTAB
  0
TABLE
  2
UCS
  5
7
330
0
100
AcDbSymbolTable
 70
     0
  0
ENDTAB
  0
TABLE
  2
APPID
  5
9
330
0
100
AcDbSymbolTable
 70
     2
  0
APPID
  5
12
330
9
100
AcDbSymbolTableRecord
100
AcDbRegAppTableRecord
  2
ACAD
 70
     0
  0
APPID
  5
1C7
330
9
100
AcDbSymbolTableRecord
100
AcDbRegAppTableRecord
  2
ACAD_MLEADERVER
 70
     0
  0
ENDTAB
  0
TABLE
  2
DIMSTYLE
  5
A
330
0
100
AcDbSymbolTable
 70
     4
100
AcDbDimStyleTable
  0
DIMSTYLE
105
27
330
A
100
AcDbSymbolTableRecord
100
AcDbDimStyleTableRecord
  2
ISO-25
 70
     0
 41
2.5
 42
0.625
 43
3.75
 44
1.25
 73
     0
 74
     0
 77
     1
 78
     8
140
2.5
141
2.5
143
0.03937
147
0.625
171
     3
172
     1
178
     0
271
     2
272
     2
274
     3
278
    44
283
     0
284
     8
340
11
  0
DIMSTYLE
105
71
330
A
100
AcDbSymbolTableRecord
100
AcDbDimStyleTableRecord
  2
Default
 70
     0
  3
<>
 41
4.375
 42
1.05
 44
2.1
 73
     0
 74
     0
 77
     1
 78
     8
140
3.5
146
0.4
147
1.75
172
     1
271
     2
178
     3
271
     2
272
     3
284
     8
340
6E
341
72
342
72
  0
DIMSTYLE
105
79
330
A
100
AcDbSymbolTableRecord
100
AcDbDimStyleTableRecord
  2
ISO
 70
     0
  3
<>
 41
4.375
 42
1.05
 44
2.1
 73
     0
 74
     0
 77
     1
 78
     8
140
3.5
146
0.4
147
1.75
172
     1
271
     2
178
     3
271
     2
272
     3
284
     8
340
6F
341
72
342
72
  0
DIMSTYLE
105
7A
330
A
100
AcDbSymbolTableRecord
100
AcDbDimStyleTableRecord
  2
zucchetti
 70
     0
  3
<>
 41
3.0
 42
0.9
 44
1.8
 73
     0
 74
     0
 77
     1
 78
     8
140
3.0
146
0.6
147
1.5
172
     1
176
     3
177
     3
271
     2
178
     3
271
     2
272
     2
284
     8
340
70
  0
ENDTAB
  0
TABLE
  2
BLOCK_RECORD
  5
1
330
0
100
AcDbSymbolTable
 70
     6
  0
BLOCK_RECORD
  5
1F
330
1
100
AcDbSymbolTableRecord
100
AcDbBlockTableRecord
  2
*Model_Space
340
22
  0
BLOCK_RECORD
  5
1B
330
1
100
AcDbSymbolTableRecord
100
AcDbBlockTableRecord
  2
*Paper_Space
340
1E
  0
BLOCK_RECORD
  5
23
330
1
100
AcDbSymbolTableRecord
100
AcDbBlockTableRecord
  2
*Paper_Space0
340
26
  0
BLOCK_RECORD
  5
72
330
1
100
AcDbSymbolTableRecord
100
AcDbBlockTableRecord
  2
_Closed
340
0
  0
BLOCK_RECORD
  5
7B
330
1
100
AcDbSymbolTableRecord
100
AcDbBlockTableRecord
  2
a
340
0
102
{BLKREFS
331
AC
102
}
  0
BLOCK_RECORD
  5
AD
330
1
100
AcDbSymbolTableRecord
100
AcDbBlockTableRecord
  2
b
340
0
102
{BLKREFS
331
D8
102
}
  0
BLOCK_RECORD
  5
D9
330
1
100
AcDbSymbolTableRecord
100
AcDbBlockTableRecord
  2
c
340
0
102
{BLKREFS
331
12D
102
}
  0
BLOCK_RECORD
  5
12E
330
1
100
AcDbSymbolTableRecord
100
AcDbBlockTableRecord
  2
d
340
0
102
{BLKREFS
331
181
102
}
  0
ENDTAB
  0
ENDSEC
  0
SECTION
  2
BLOCKS
  0
BLOCK
  5
20
330
1F
100
AcDbEntity
  8
0
100
AcDbBlockBegin
  2
*Model_Space
 70
     0
 10
0.0
 20
0.0
 30
0.0
  3
*Model_Space
  1

  0
ENDBLK
  5
21
330
1F
100
AcDbEntity
  8
0
100
AcDbBlockEnd
  0
BLOCK
  5
1C
330
1B
100
AcDbEntity
 67
     1
  8
0
100
AcDbBlockBegin
  2
*Paper_Space
 70
     0
 10
0.0
 20
0.0
 30
0.0
  3
*Paper_Space
  1

  0
ENDBLK
  5
1D
330
1B
100
AcDbEntity
 67
     1
  8
0
100
AcDbBlockEnd
  0
BLOCK
  5
24
330
23
100
AcDbEntity
  8
0
100
AcDbBlockBegin
  2
*Paper_Space0
 70
     0
 10
0.0
 20
0.0
 30
0.0
  3
*Paper_Space0
  1

  0
ENDBLK
  5
25
330
23
100
AcDbEntity
  8
0
100
AcDbBlockEnd
  0
BLOCK
  5
73
330
72
100
AcDbEntity
  8
0
100
AcDbBlockBegin
  2
_Closed
 70
     0
 10
0.0
 20
0.0
 30
0.0
  3
_Closed
  1

  0
LINE
  5
75
330
72
100
AcDbEntity
  8
0
  6
ByBlock
 62
     0
370
    -2
100
AcDbLine
 10
-1.0
 20
0.166667
 30
0.0
 11
0.0
 21
0.0
 31
0.0
  0
LINE
  5
76
330
72
100
AcDbEntity
  8
0
  6
ByBlock
 62
     0
370
    -2
100
AcDbLine
 10
0.0
 20
0.0
 30
0.0
 11
-1.0
 21
-0.166667
 31
0.0
  0
LINE
  5
77
330
72
100
AcDbEntity
  8
0
  6
ByBlock
 62
     0
370
    -2
100
AcDbLine
 10
-1.0
 20
0.166667
 30
0.0
 11
-1.0
 21
-0.166667
 31
0.0
  0
LINE
  5
78
330
72
100
AcDbEntity
  8
0
  6
ByBlock
 62
     0
370
    -2
100
AcDbLine
 10
0.0
 20
0.0
 30
0.0
 11
-1.0
 21
0.0
 31
0.0
  0
ENDBLK
  5
74
330
72
100
AcDbEntity
  8
0
100
AcDbBlockEnd
  0
BLOCK
  5
AA
330
7B
100
AcDbEntity
  8
0
100
AcDbBlockBegin
  2
a
 70
     0
 10
271.353516
 20
75.009453
 30
0.0
  3
a
  1

  0
ARC
  5
7C
330
7B
100
AcDbEntity
  8
0
  6
Continuous
 62
     0
370
     0
100
AcDbCircle
 10
338.933719
 20
434.020455
 30
0.0
 40
21.5
100
AcDbArc
 50
90.0
 51
270.0
  0
ARC
  5
7D
330
7B
100
AcDbEntity
  8
0
  6
Continuous
 62
     0
370
     0
100
AcDbCircle
 10
338.933719
 20
434.020455
 30
0.0
 40
21.5
100
AcDbArc
 50
270.0
 51
90.0
  0
ARC
  5
7E
330
7B
100
AcDbEntity
  8
0
  6
Continuous
 62
     0
370
    30
100
AcDbCircle
 10
338.933719
 20
434.020455
 30
0.0
 40
22.0
100
AcDbArc
 50
90.0
 51
270.0
  0
ARC
  5
7F
330
7B
100
AcDbEntity
  8
0
  6
Continuous
 62
     0
370
    30
100
AcDbCircle
 10
338.933719
 20
434.020455
 30
0.0
 40
22.0
100
AcDbArc
 50
270.0
 51
90.0
  0
SPLINE
  5
80
330
7B
100
AcDbEntity
  8
0
  6
Continuous
 62
     0
370
     0
100
AcDbSpline
210
0.0
220
0.0
230
1.0
 70
     8
 71
     3
 72
    22
 73
    18
 74
     0
 42
0.000000001
 43
0.0
 40
17.69202637641095
 40
17.69202637641095
 40
17.69202637641095
 40
17.69202637641095
 40
18.58933171102949
 40
19.66901394905848
 40
20.67976500962695
 40
22.84606260518612
 40
23.87960986232657
 40
24.97309812453311
 40
26.06615217405998
 40
27.16871338401652
 40
28.31273253598228
 40
29.37859724686671
 40
31.19752760448325
 40
32.25987092739348
 40
33.33606908008865
 40
34.30704597003017
 40
35.3840527528219
 40
35.3840527528219
 40
35.3840527528219
 40
35.3840527528219
 10
333.4337320420741
 20
409.8181548273052
 30
0.0
 10
333.4337615040301
 20
409.8180910607418
 30
0.0
 10
333.4860487982174
 20
409.782494360534
 30
0.0
 10
333.7360971520787
 20
409.6167839078905
 30
0.0
 10
334.3313039240801
 20
409.2524122082666
 30
0.0
 10
335.2452467305454
 20
408.778828222995
 30
0.0
 10
336.4234549246074
 20
408.367468753551
 30
0.0
 10
337.4034013773406
 20
408.134295466835
 30
0.0
 10
338.4690652412198
 20
408.0103279649788
 30
0.0
 10
339.5719473467304
 20
408.0203451451627
 30
0.0
 10
340.6376182744821
 20
408.1667475152037
 30
0.0
 10
341.8443344934885
 20
408.4790494972466
 30
0.0
 10
342.8572070848455
 20
408.9002077853956
 30
0.0
 10
343.6338996273658
 20
409.3137790776265
 30
0.0
 10
344.0854975143509
 20
409.5877593055581
 30
0.0
 10
344.3684866792976
 20
409.7734628528742
 30
0.0
 10
344.4337193749665
 20
409.8181820594746
 30
0.0
 10
344.4337193749665
 20
409.8181820594746
 30
0.0
  0
ARC
  5
81
330
7B
100
AcDbEntity
  8
0
  6
Continuous
 62
     0
370
    30
100
AcDbCircle
 10
348.433719
 20
409.818182
 30
0.0
 40
4.0
100
AcDbArc
 50
112.511286
 51
180.0
  0
LINE
  5
82
330
7B
100
AcDbEntity
  8
0
  6
Continuous
 62
     0
370
    30
100
AcDbLine
 10
344.433719
 20
409.818182
 30
0.0
 11
344.433719
 21
354.262045
 31
0.0
  0
LINE
  5
83
330
7B
100
AcDbEntity
  8
0
  6
Continuous
 62
     0
370
     0
100
AcDbLine
 10
344.433719
 20
354.262045
 30
0.0
 11
333.433719
 21
354.262045
 31
0.0
  0
LINE
  5
84
330
7B
100
AcDbEntity
  8
0
  6
Continuous
 62
     0
370
    30
100
AcDbLine
 10
344.183719
 20
354.012045
 30
0.0
 11
333.683719
 21
354.012045
 31
0.0
  0
ARC
  5
85
330
7B
100
AcDbEntity
  8
0
  6
Continuous
 62
     0
370
    30
100
AcDbCircle
 10
344.183719
 20
354.262045
 30
0.0
 40
0.25
100
AcDbArc
 50
270.0
 51
360.0
  0
ARC
  5
86
330
7B
100
AcDbEntity
  8
0
  6
Continuous
 62
     0
370
    30
100
AcDbCircle
 10
333.68373
 20
354.262056
 30
0.0
 40
0.2500105743923934
100
AcDbArc
 50
180.002416
 51
269.997577
  0
LINE
  5
87
330
7B
100
AcDbEntity
  8
0
  6
Continuous
 62
     0
370
    30
100
AcDbLine
 10
333.433719
 20
409.818478
 30
0.0
 11
333.433719
 21
354.262045
 31
0.0
  0
SPLINE
  5
88
330
7B
100
AcDbEntity
  8
0
  6
Continuous
 62
     0
370
    30
100
AcDbSpline
210
0.0
220
0.0
230
1.0
 70
     8
 71
     3
 72
    27
 73
    23
 74
     0
 42
0.000000001
 43
0.0
 40
0.0
 40
0.0
 40
0.0
 40
0.0
 40
0.7169571219686391
 40
1.157182118945826
 40
1.743681417385762
 40
2.183256053806382
 40
2.47624618215715
 40
2.769253114623857
 40
3.355505572030284
 40
3.648846440125175
 40
3.942338366649175
 40
4.089070811698032
 40
4.23574607828083
 40
4.373682017705849
 40
4.511502509827564
 40
4.5803647730664
 40
4.649186851481849
 40
4.683611223445403
 40
4.718024498188186
 40
4.735756133291834
 40
4.753487272059703
 40
4.80271177263208
 40
4.80271177263208
 40
4.80271177263208
 40
4.80271177263208
 10
333.4337320420412
 20
409.8181548271777
 30
0.0
 10
333.4337326577851
 20
410.0568335212419
 30
0.0
 10
333.3987306017158
 20
410.4429356713154
 30
0.0
 10
333.2639882524464
 20
411.0091520675874
 30
0.0
 10
333.0899875880185
 20
411.4673761757499
 30
0.0
 10
332.8824168771943
 20
411.8557520616941
 30
0.0
 10
332.6942520243283
 20
412.1414658439633
 30
0.0
 10
332.4557652151176
 20
412.4513547406705
 30
0.0
 10
332.1842150207331
 20
412.7339741296673
 30
0.0
 10
331.8837034226792
 20
412.9846186438503
 30
0.0
 10
331.6847233167001
 20
413.1270461106247
 30
0.0
 10
331.5196212666602
 20
413.2320705816795
 30
0.0
 10
331.3955457842142
 20
413.3047905958316
 30
0.0
 10
331.2716076313183
 20
413.3716665761703
 30
0.0
 10
331.1686611938314
 20
413.4227349180524
 30
0.0
 10
331.0854010629661
 20
413.4613944410154
 30
0.0
 10
331.0328708302163
 20
413.4846886418774
 30
0.0
 10
330.9908638147645
 20
413.5026719620726
 30
0.0
 10
330.9639247013588
 20
413.5139250298939
 30
0.0
 10
330.943100217102
 20
413.5224664510994
 30
0.0
 10
330.9181906444832
 20
413.5325540344616
 30
0.0
 10
330.8950565337938
 20
413.5417650234941
 30
0.0
 10
330.8952964503374
 20
413.5415782845668
 30
0.0
  0
LINE
  5
89
330
7B
100
AcDbEntity
  8
0
  6
Continuous
 62
     0
370
    30
100
AcDbLine
 10
346.902261
 20
413.51339
 30
0.0
 11
346.83284
 21
413.483823
 31
0.0
  0
ARC
  5
8A
330
7B
100
AcDbEntity
  8
0
  6
Continuous
 62
     0
370
    30
100
AcDbCircle
 10
338.933719
 20
434.020455
 30
0.0
 40
40.0
100
AcDbArc
 50
277.903208
 51
360.0
  0
ARC
  5
8B
330
7B
100
AcDbEntity
  8
0
  6
Continuous
 62
     0
370
    30
100
AcDbCircle
 10
338.933719
 20
434.020455
 30
0.0
 40
40.0
100
AcDbArc
 50
180.0
 51
262.096792
  0
ARC
  5
8C
330
7B
100
AcDbEntity
  8
0
  6
Continuous
 62
     0
370
    30
100
AcDbCircle
 10
338.933719
 20
434.020455
 30
0.0
 40
40.0
100
AcDbArc
 50
0.0
 51
180.0
  0
ARC
  5
8D
330
7B
100
AcDbEntity
  8
0
  6
Continuous
 62
     0
370
    30
100
AcDbCircle
 10
338.933719
 20
434.020455
 30
0.0
 40
22.5
100
AcDbArc
 50
0.0
 51
180.0
  0
ARC
  5
8E
330
7B
100
AcDbEntity
  8
0
  6
Continuous
 62
     0
370
    30
100
AcDbCircle
 10
338.933719
 20
434.020455
 30
0.0
 40
22.5
100
AcDbArc
 50
180.0
 51
253.157088
  0
ARC
  5
8F
330
7B
100
AcDbEntity
  8
0
  6
Continuous
 62
     0
370
    30
100
AcDbCircle
 10
338.933719
 20
434.020455
 30
0.0
 40
22.5
100
AcDbArc
 50
286.842695
 51
0.0
  0
ARC
  5
90
330
7B
100
AcDbEntity
  8
0
  6
Continuous
 62
     0
370
    30
100
AcDbCircle
 10
338.93372
 20
534.020454
 30
0.0
 40
40.0
100
AcDbArc
 50
180.0
 51
360.0
  0
ARC
  5
91
330
7B
100
AcDbEntity
  8
0
  6
Continuous
 62
     0
370
    30
100
AcDbCircle
 10
338.93372
 20
534.020454
 30
0.0
 40
40.0
100
AcDbArc
 50
0.0
 51
180.0
  0
ARC
  5
92
330
7B
100
AcDbEntity
  8
0
  6
Continuous
 62
     0
370
    30
100
AcDbCircle
 10
338.93372
 20
534.020454
 30
0.0
 40
22.5
100
AcDbArc
 50
0.0
 51
80.501044
  0
ARC
  5
93
330
7B
100
AcDbEntity
  8
0
  6
Continuous
 62
     0
370
    30
100
AcDbCircle
 10
338.93372
 20
534.020454
 30
0.0
 40
22.5
100
AcDbArc
 50
99.498656
 51
180.0
  0
ARC
  5
94
330
7B
100
AcDbEntity
  8
0
  6
Continuous
 62
     0
370
    30
100
AcDbCircle
 10
338.93372
 20
534.020454
 30
0.0
 40
22.5
100
AcDbArc
 50
180.0
 51
0.0
  0
ARC
  5
95
330
7B
100
AcDbEntity
  8
0
  6
Continuous
 62
     0
370
    30
100
AcDbCircle
 10
338.933719
 20
434.020455
 30
0.0
 40
22.1
100
AcDbArc
 50
58.852205
 51
238.852205
  0
ARC
  5
96
330
7B
100
AcDbEntity
  8
0
  6
Continuous
 62
     0
370
    30
100
AcDbCircle
 10
338.933719
 20
434.020455
 30
0.0
 40
22.1
100
AcDbArc
 50
238.852205
 51
250.691646
  0
ARC
  5
97
330
7B
100
AcDbEntity
  8
0
  6
Continuous
 62
     0
370
    30
100
AcDbCircle
 10
338.933719
 20
434.020455
 30
0.0
 40
22.1
100
AcDbArc
 50
289.306649
 51
58.852205
  0
ARC
  5
98
330
7B
100
AcDbEntity
  8
0
  6
Continuous
 62
     0
370
    30
100
AcDbCircle
 10
338.93372
 20
534.020454
 30
0.0
 40
22.1
100
AcDbArc
 50
238.852205
 51
58.852205
  0
ARC
  5
99
330
7B
100
AcDbEntity
  8
0
  6
Continuous
 62
     0
370
    30
100
AcDbCircle
 10
338.93372
 20
534.020454
 30
0.0
 40
22.1
100
AcDbArc
 50
58.852205
 51
78.095104
  0
ARC
  5
9A
330
7B
100
AcDbEntity
  8
0
  6
Continuous
 62
     0
370
    30
100
AcDbCircle
 10
338.93372
 20
534.020454
 30
0.0
 40
22.1
100
AcDbArc
 50
101.90502
 51
238.852205
  0
SPLINE
  5
9B
330
7B
100
AcDbEntity
  8
0
  6
Continuous
 62
     0
370
    30
100
AcDbSpline
210
0.0
220
0.0
230
1.0
 70
     8
 71
     3
 72
    36
 73
    32
 74
     0
 42
0.000000001
 43
0.0
 40
0.2083333333333333
 40
0.2083333333333333
 40
0.2083333333333333
 40
0.2083333333333333
 40
0.238235443233649
 40
0.252918929012151
 40
0.267991546180949
 40
0.29689429857149
 40
0.321595729545856
 40
0.340981145333616
 40
0.356077237702073
 40
0.368599351241699
 40
0.381755268723404
 40
0.3976240794390249
 40
0.41375491993186
 40
0.4298423264979371
 40
0.445822434507024
 40
0.4773860105230609
 40
0.508586183352046
 40
0.5400631312404939
 40
0.5718299096422781
 40
0.5879131428653629
 40
0.604070649601544
 40
0.619738624864231
 40
0.632658328759356
 40
0.6453448054521511
 40
0.660798814289755
 40
0.6807490002369689
 40
0.7059289383473599
 40
0.7351829389540311
 40
0.749731625589596
 40
0.7653585318156241
 40
0.7916666666666666
 40
0.7916666666666666
 40
0.7916666666666666
 40
0.7916666666666666
 10
341.9284131570961
 20
559.0618355390502
 30
0.0
 10
341.9279068230297
 20
559.061904693333
 30
0.0
 10
341.9267626575161
 20
559.0621134070119
 30
0.0
 10
341.9212672356835
 20
559.064178414546
 30
0.0
 10
341.9023406935266
 20
559.0703670171179
 30
0.0
 10
341.8694036975619
 20
559.0815507710629
 30
0.0
 10
341.8036265895237
 20
559.1062377345651
 30
0.0
 10
341.7143955529087
 20
559.1494770129791
 30
0.0
 10
341.6031574505879
 20
559.2163381057646
 30
0.0
 10
341.470419137935
 20
559.3200503504207
 30
0.0
 10
341.2961648459511
 20
559.4401311035745
 30
0.0
 10
341.0682874759108
 20
559.5442870590238
 30
0.0
 10
340.797769186102
 20
559.661246982733
 30
0.0
 10
340.4970228719046
 20
559.7697181789076
 30
0.0
 10
340.0665245160754
 20
559.8968170606211
 30
0.0
 10
339.4760973525857
 20
560.0089065230886
 30
0.0
 10
338.7257541728187
 20
560.0350720811559
 30
0.0
 10
337.9912621399558
 20
559.946631207356
 30
0.0
 10
337.4349545491605
 20
559.7947813145183
 30
0.0
 10
337.0399439358007
 20
559.6491609000467
 30
0.0
 10
336.7733133001447
 20
559.5329473020256
 30
0.0
 10
336.5506244786358
 20
559.4286088986933
 30
0.0
 10
336.3817395092734
 20
559.3074450886187
 30
0.0
 10
336.2518557246266
 20
559.2081479306758
 30
0.0
 10
336.1425352556456
 20
559.1438457228288
 30
0.0
 10
336.055901846184
 20
559.1032191998788
 30
0.0
 10
335.9927078906245
 20
559.079682581807
 30
0.0
 10
335.9615327209273
 20
559.0694217111029
 30
0.0
 10
335.9442792103115
 20
559.0634181670537
 30
0.0
 10
335.940970040645
 20
559.0623638271686
 30
0.0
 10
335.939688487136
 20
559.0620284077753
 30
0.0
 10
335.939105481719
 20
559.0618835346613
 30
0.0
  0
SPLINE
  5
9C
330
7B
100
AcDbEntity
  8
0
  6
Continuous
 62
     0
370
    30
100
AcDbSpline
210
0.0
220
0.0
230
1.0
 70
     8
 71
     5
 72
    12
 73
     6
 74
     0
 42
0.000000001
 43
0.0
 40
0.7018400468273034
 40
0.7018400468273034
 40
0.7018400468273034
 40
0.7018400468273034
 40
0.7018400468273034
 40
0.7018400468273034
 40
7.53943830292358
 40
7.53943830292358
 40
7.53943830292358
 40
7.53943830292358
 40
7.53943830292358
 40
7.53943830292358
 10
344.3137054752219
 20
555.3589391952572
 30
0.0
 10
343.2742496040945
 20
555.65773937603
 30
0.0
 10
342.3508399719894
 20
556.0283893472026
 30
0.0
 10
341.9315280923497
 20
556.8587485869878
 30
0.0
 10
341.9315280936331
 20
557.959891982224
 30
0.0
 10
341.9315281145086
 20
559.0610353774603
 30
0.0
  0
LINE
  5
9D
330
7B
100
AcDbEntity
  8
0
  6
Continuous
 62
     0
370
    30
100
AcDbLine
 10
336.4382
 20
561.020455
 30
0.0
 11
341.429258
 21
561.020455
 31
0.0
  0
SPLINE
  5
9E
330
7B
100
AcDbEntity
  8
0
  6
Continuous
 62
     0
370
    30
100
AcDbSpline
210
0.0
220
0.0
230
1.0
 70
    24
 71
     3
 72
    31
 73
    27
 74
     0
 42
0.000000001
 43
0.0
 40
0.2083333333333333
 40
0.2083333333333333
 40
0.2083333333333333
 40
0.2083333333333333
 40
0.21598713517862
 40
0.247398550196506
 40
0.279543151508293
 40
0.312047005628198
 40
0.328830082056526
 40
0.346541117525726
 40
0.366116436332566
 40
0.3866146332293501
 40
0.4053471537866239
 40
0.424024420031918
 40
0.461296590709641
 40
0.498513552212467
 40
0.535720189591865
 40
0.572982202875418
 40
0.591692737631516
 40
0.61037937907927
 40
0.630500819736252
 40
0.6504968130098101
 40
0.6684279448676792
 40
0.6854522210271919
 40
0.7178907548447742
 40
0.7500182476150219
 40
0.7815214908391769
 40
0.7916666666666666
 40
0.7916666666666666
 40
0.7916666666666666
 40
0.7916666666666666
 10
335.9391359485164
 20
560.5204546800364
 30
0.0
 10
335.9392506657181
 20
560.5204546800364
 30
0.0
 10
335.9397480699524
 20
560.5204546800364
 30
0.0
 10
335.939371198781
 20
560.5204546800364
 30
0.0
 10
335.9671859219093
 20
560.5204546800364
 30
0.0
 10
336.0159087995049
 20
560.5204546800364
 30
0.0
 10
336.0885197742591
 20
560.5204546800364
 30
0.0
 10
336.1765559477598
 20
560.5204546800364
 30
0.0
 10
336.3270270049737
 20
560.5204546800364
 30
0.0
 10
336.5869140863849
 20
560.5204546800364
 30
0.0
 10
336.9014300369775
 20
560.5204546800363
 30
0.0
 10
337.3612453996481
 20
560.5204546800364
 30
0.0
 10
338.0272667603556
 20
560.5204546800364
 30
0.0
 10
338.8984224180298
 20
560.5204546800364
 30
0.0
 10
339.7724573015699
 20
560.5204546800364
 30
0.0
 10
340.4453638527034
 20
560.5204546800364
 30
0.0
 10
340.9139003073445
 20
560.5204546800364
 30
0.0
 10
341.2324357199684
 20
560.5204546800363
 30
0.0
 10
341.5065171031409
 20
560.5204546800364
 30
0.0
 10
341.6720873365305
 20
560.5204546800364
 30
0.0
 10
341.7679522724243
 20
560.5204546800364
 30
0.0
 10
341.8453586571079
 20
560.5204546800363
 30
0.0
 10
341.8966625039259
 20
560.5204546800364
 30
0.0
 10
341.9276784173517
 20
560.5204546800364
 30
0.0
 10
341.9273927588521
 20
560.5204546800364
 30
0.0
 10
341.9280661704724
 20
560.5204546800364
 30
0.0
 10
341.9282547974366
 20
560.5204546800364
 30
0.0
  0
LINE
  5
9F
330
7B
100
AcDbEntity
  8
0
  6
Continuous
 62
     0
370
    30
100
AcDbLine
 10
335.93587
 20
559.061024
 30
0.0
 11
335.93587
 21
560.520455
 31
0.0
  0
ARC
  5
A0
330
7B
100
AcDbEntity
  8
0
  6
Continuous
 62
     0
370
     0
100
AcDbCircle
 10
338.93372
 20
534.020455
 30
0.0
 40
21.49999999999989
100
AcDbArc
 50
270.0
 51
90.0
  0
ARC
  5
A1
330
7B
100
AcDbEntity
  8
0
  6
Continuous
 62
     0
370
     0
100
AcDbCircle
 10
338.93372
 20
534.020455
 30
0.0
 40
21.49999999999989
100
AcDbArc
 50
90.0
 51
270.0
  0
LINE
  5
A2
330
7B
100
AcDbEntity
  8
0
  6
Continuous
 62
     0
370
     0
100
AcDbLine
 10
338.93372
 20
556.020455
 30
0.0
 11
338.93372
 21
555.520455
 31
0.0
  0
ARC
  5
A3
330
7B
100
AcDbEntity
  8
0
  6
Continuous
 62
     0
370
    30
100
AcDbCircle
 10
338.93372
 20
534.020455
 30
0.0
 40
21.9999999999999
100
AcDbArc
 50
90.0
 51
270.0
  0
LINE
  5
A4
330
7B
100
AcDbEntity
  8
0
  6
Continuous
 62
     0
370
     0
100
AcDbLine
 10
338.93372
 20
512.520455
 30
0.0
 11
338.93372
 21
512.020455
 31
0.0
  0
ARC
  5
A5
330
7B
100
AcDbEntity
  8
0
  6
Continuous
 62
     0
370
    30
100
AcDbCircle
 10
338.93372
 20
534.020455
 30
0.0
 40
21.9999999999999
100
AcDbArc
 50
270.0
 51
90.0
  0
LINE
  5
A6
330
7B
100
AcDbEntity
  8
0
  6
Continuous
 62
     0
370
    30
100
AcDbLine
 10
341.931575
 20
560.520455
 30
0.0
 11
341.931536
 21
559.061036
 31
0.0
  0
ARC
  5
A7
330
7B
100
AcDbEntity
  8
0
  6
Continuous
 62
     0
370
    30
100
AcDbCircle
 10
336.435869
 20
560.52044
 30
0.0
 40
0.5000147680496737
100
AcDbArc
 50
90.00175
 51
179.998308
  0
ARC
  5
A8
330
7B
100
AcDbEntity
  8
0
  6
Continuous
 62
     0
370
    30
100
AcDbCircle
 10
341.431556
 20
560.52044
 30
0.0
 40
0.5000148444684376
100
AcDbArc
 50
0.001701
 51
89.998259
  0
SPLINE
  5
A9
330
7B
100
AcDbEntity
  8
0
  6
Continuous
 62
     0
370
    30
100
AcDbSpline
210
0.0
220
0.0
230
1.0
 70
     8
 71
     3
 72
    18
 73
    14
 74
     0
 42
0.000000001
 43
0.0
 40
0.0
 40
0.0
 40
0.0
 40
0.0
 40
1.066182698183793
 40
1.861940804630063
 40
2.331115552001747
 40
2.781913427056016
 40
3.307425079954483
 40
3.697410222875937
 40
4.02384762490998
 40
4.364613614837001
 40
4.540165385485035
 40
4.718793957007564
 40
5.053484829225769
 40
5.053484829225769
 40
5.053484829225769
 40
5.053484829225769
 10
335.9358689121111
 20
559.0610232773029
 30
0.0
 10
335.935868909993
 20
558.7057343673587
 30
0.0
 10
335.93605685363
 20
558.0843714073504
 30
0.0
 10
335.8225935496206
 20
557.3119372706357
 30
0.0
 10
335.6265575545932
 20
556.771993885743
 30
0.0
 10
335.3746095475819
 20
556.3579759575184
 30
0.0
 10
335.0500393799137
 20
556.033499693571
 30
0.0
 10
334.7040067184519
 20
555.8040129339358
 30
0.0
 10
334.3885374843787
 20
555.6460156175449
 30
0.0
 10
334.1272566052259
 20
555.5422038170392
 30
0.0
 10
333.9082649513078
 20
555.4667493417992
 30
0.0
 10
333.6891358310894
 20
555.3974204378695
 30
0.0
 10
333.5254220178717
 20
555.3505092238304
 30
0.0
 10
333.4174733382536
 20
555.3203950828994
 30
0.0
  0
ENDBLK
  5
AB
330
7B
100
AcDbEntity
  8
0
100
AcDbBlockEnd
  0
BLOCK
  5
D6
330
AD
100
AcDbEntity
  8
0
100
AcDbBlockBegin
  2
b
 70
     0
 10
271.353516
 20
212.726723
 30
0.0
  3
b
  1

  0
LINE
  5
AE
330
AD
100
AcDbEntity
  8
0
  6
Continuous
 62
     0
370
    30
100
AcDbLine
 10
378.93372
 20
273.637808
 30
0.0
 11
298.93372
 21
273.637808
 31
0.0
  0
LINE
  5
AF
330
AD
100
AcDbEntity
  8
0
  6
Continuous
 62
     0
370
    30
100
AcDbLine
 10
378.93372
 20
273.637808
 30
0.0
 11
378.93372
 21
268.637808
 31
0.0
  0
LINE
  5
B0
330
AD
100
AcDbEntity
  8
0
  6
Continuous
 62
     0
370
    30
100
AcDbLine
 10
378.93372
 20
268.637808
 30
0.0
 11
298.93372
 21
268.637808
 31
0.0
  0
LINE
  5
B1
330
AD
100
AcDbEntity
  8
0
  6
Continuous
 62
     0
370
    30
100
AcDbLine
 10
298.93372
 20
273.637808
 30
0.0
 11
298.93372
 21
268.637808
 31
0.0
  0
ARC
  5
B2
330
AD
100
AcDbEntity
  8
0
  6
Continuous
 62
     0
370
    30
100
AcDbCircle
 10
339.019503
 20
249.258936
 30
0.0
 40
20.49117033982383
100
AcDbArc
 50
183.832026
 51
185.775641
  0
ARC
  5
B3
330
AD
100
AcDbEntity
  8
0
  6
Continuous
 62
     0
370
    30
100
AcDbCircle
 10
339.029077
 20
249.258931
 30
0.0
 40
20.49117033984284
100
AcDbArc
 50
183.832026
 51
185.775641
  0
ARC
  5
B4
330
AD
100
AcDbEntity
  8
0
  6
Continuous
 62
     0
370
    30
100
AcDbCircle
 10
338.837943
 20
249.258957
 30
0.0
 40
20.49159089496423
100
AcDbArc
 50
354.224405
 51
356.16798
  0
LINE
  5
B5
330
AD
100
AcDbEntity
  8
0
  6
Continuous
 62
     0
370
     0
100
AcDbLine
 10
350.364888
 20
248.389473
 30
0.0
 11
361.03372
 21
248.389473
 31
0.0
  0
LINE
  5
B6
330
AD
100
AcDbEntity
  8
0
  6
Continuous
 62
     0
370
     0
100
AcDbLine
 10
316.83372
 20
248.389473
 30
0.0
 11
350.364888
 21
248.389473
 31
0.0
  0
LINE
  5
B7
330
AD
100
AcDbEntity
  8
0
  6
Continuous
 62
     0
370
    30
100
AcDbLine
 10
350.106264
 20
247.889472
 30
0.0
 11
317.333699
 21
247.889473
 31
0.0
  0
LINE
  5
B8
330
AD
100
AcDbEntity
  8
0
  6
Continuous
 62
     0
370
    30
100
AcDbLine
 10
360.533749
 20
247.889473
 30
0.0
 11
350.106264
 21
247.889472
 31
0.0
  0
ARC
  5
B9
330
AD
100
AcDbEntity
  8
0
  6
Continuous
 62
     0
370
    30
100
AcDbCircle
 10
317.333764
 20
248.389475
 30
0.0
 40
0.500002049917737
100
AcDbArc
 50
180.000234
 51
269.995049
  0
ARC
  5
BA
330
AD
100
AcDbEntity
  8
0
  6
Continuous
 62
     0
370
    30
100
AcDbCircle
 10
360.533674
 20
248.389475
 30
0.0
 40
0.5000020130144354
100
AcDbArc
 50
270.006057
 51
359.999771
  0
LINE
  5
BB
330
AD
100
AcDbEntity
  8
0
  6
Continuous
 62
     0
370
    30
100
AcDbLine
 10
361.03372
 20
268.637808
 30
0.0
 11
361.03372
 21
248.389473
 31
0.0
  0
LINE
  5
BC
330
AD
100
AcDbEntity
  8
0
  6
Continuous
 62
     0
370
    30
100
AcDbLine
 10
316.83372
 20
268.637808
 30
0.0
 11
316.83372
 21
248.389473
 31
0.0
  0
SPLINE
  5
BD
330
AD
100
AcDbEntity
  8
0
  6
Continuous
 62
     0
370
     0
100
AcDbSpline
210
0.0
220
0.0
230
1.0
 70
     8
 71
     5
 72
    12
 73
     6
 74
     0
 42
0.000000001
 43
0.0
 40
0.0
 40
0.0
 40
0.0
 40
0.0
 40
0.0
 40
0.0
 40
7.539438302946571
 40
7.539438302946571
 40
7.539438302946571
 40
7.539438302946571
 40
7.539438302946571
 40
7.539438302946571
 10
335.9358698742656
 20
228.1968319890959
 30
0.0
 10
335.9358698742674
 20
228.1968320421688
 30
0.0
 10
335.9358698742742
 20
228.1968320952408
 30
0.0
 10
335.3737325804099
 20
228.1968316054947
 30
0.0
 10
334.1818252607255
 20
228.196831616251
 30
0.0
 10
333.0124621850891
 20
228.1968316305333
 30
0.0
  0
SPLINE
  5
BE
330
AD
100
AcDbEntity
  8
0
  6
Continuous
 62
     0
370
     0
100
AcDbSpline
210
0.0
220
0.0
230
1.0
 70
     8
 71
     3
 72
    25
 73
    21
 74
     0
 42
0.000000001
 43
0.0
 40
0.0
 40
0.0
 40
0.0
 40
0.0
 40
0.009864671292144
 40
0.029594013876431
 40
0.059187884936304
 40
0.0887816600549
 40
0.1035785262931
 40
0.238814611329225
 40
0.306432521967993
 40
0.340240854818736
 40
0.374043012722051
 40
0.441597430515171
 40
0.508934729885832
 40
0.575619355998374
 40
0.641008847974296
 40
0.7046941093740051
 40
0.766702787726461
 40
0.885513493390941
 40
0.9618378311303142
 40
1.0
 40
1.0
 40
1.0
 40
1.0
 10
333.0124621850891
 20
228.1968316305333
 30
0.0
 10
333.0124613767487
 20
228.1403962870396
 30
0.0
 10
333.0124606434349
 20
227.9710902565321
 30
0.0
 10
333.0124695972866
 20
227.632479010324
 30
0.0
 10
333.0125046912038
 20
227.1809984618108
 30
0.0
 10
333.0125682225842
 20
226.7577363266683
 30
0.0
 10
333.0127603212037
 20
225.7301001920688
 30
0.0
 10
333.0135803318007
 20
224.4849199582251
 30
0.0
 10
333.0156613123837
 20
223.1310083319499
 30
0.0
 10
333.0177556722828
 20
222.3573416410701
 30
0.0
 10
333.0378309799499
 20
221.5842990987981
 30
0.0
 10
333.0903829746706
 20
220.6203871634125
 30
0.0
 10
333.230816312144
 20
219.474684729728
 30
0.0
 10
333.5050868129217
 20
218.3654362355202
 30
0.0
 10
333.9471224015311
 20
217.335523283275
 30
0.0
 10
334.5513567403751
 20
216.4276343485186
 30
0.0
 10
335.4942011453583
 20
215.4034132259544
 30
0.0
 10
336.7445960874738
 20
214.5888539372543
 30
0.0
 10
338.0604356531863
 20
214.2400114491913
 30
0.0
 10
338.71539584147
 20
214.1968966537367
 30
0.0
 10
338.9337198950745
 20
214.1968353788664
 30
0.0
  0
SPLINE
  5
BF
330
AD
100
AcDbEntity
  8
0
  6
Continuous
 62
     0
370
     0
100
AcDbSpline
210
0.0
220
0.0
230
1.0
 70
     8
 71
     3
 72
    46
 73
    42
 74
     0
 42
0.000000001
 43
0.0
 40
54.07493132926828
 40
54.07493132926828
 40
54.07493132926828
 40
54.07493132926828
 40
54.64777010274607
 40
55.22060868773226
 40
56.36628585770468
 40
57.14351471725879
 40
57.92074357681278
 40
58.48033458694287
 40
59.03992559707297
 40
59.42115476039949
 40
59.80238392372587
 40
60.13271457229696
 40
60.46304522086808
 40
60.86762939447237
 40
61.27221356807657
 40
61.62429508225927
 40
61.97637659644208
 40
62.29377048294897
 40
62.61116436945589
 40
62.94541347712128
 40
63.27966258478656
 40
63.94816080011735
 40
64.19939559141247
 40
64.45063038270766
 40
64.95309996529798
 40
65.31695571920265
 40
65.68081147310737
 40
65.76264651200675
 40
65.84448155090607
 40
65.92631658980548
 40
66.00815162870478
 40
66.1107321862113
 40
66.21331274371788
 40
66.31589330122436
 40
66.41847385873086
 40
66.75860258350377
 40
67.09873130827657
 40
67.52533594740427
 40
67.95194058653189
 40
70.025915815304
 40
72.09989104407599
 40
72.09989104407599
 40
72.09989104407599
 40
72.09989104407599
 10
338.9337198950745
 20
214.1968353788661
 30
0.0
 10
339.0952891688215
 20
214.196835160429
 30
0.0
 10
339.4184267776072
 20
214.2124917236628
 30
0.0
 10
340.0601047665596
 20
214.3056738107892
 30
0.0
 10
340.7442030943923
 20
214.5066483770409
 30
0.0
 10
341.4493785941847
 20
214.839737543325
 30
0.0
 10
341.9727719294233
 20
215.1700710202037
 30
0.0
 10
342.4155210388338
 20
215.5167090942812
 30
0.0
 10
342.7460627862288
 20
215.8225624675447
 30
0.0
 10
343.0212201613815
 20
216.1141690923925
 30
0.0
 10
343.2372807086526
 20
216.3693287816203
 30
0.0
 10
343.4328508240022
 20
216.6243273049781
 30
0.0
 10
343.6221326494438
 20
216.8960560455895
 30
0.0
 10
343.8106562814756
 20
217.1998979951415
 30
0.0
 10
343.9851062239205
 20
217.5242599451424
 30
0.0
 10
344.1346646386053
 20
217.8462481191108
 30
0.0
 10
344.2574187558392
 20
218.1524594538748
 30
0.0
 10
344.3621431723113
 20
218.4556894769273
 30
0.0
 10
344.4526103553906
 20
218.7593768524767
 30
0.0
 10
344.5320465392466
 20
219.0734373379581
 30
0.0
 10
344.6233795361665
 20
219.5050371250054
 30
0.0
 10
344.6875036881481
 20
219.915893945782
 30
0.0
 10
344.7333835897523
 20
220.3021553721023
 30
0.0
 10
344.7670511674303
 20
220.6346117391535
 30
0.0
 10
344.795561717558
 20
221.0055390895293
 30
0.0
 10
344.8185976561039
 20
221.4146420140754
 30
0.0
 10
344.8300296871354
 20
221.6841346824035
 30
0.0
 10
344.8361580591397
 20
221.8598159346109
 30
0.0
 10
344.8387920380468
 20
221.941587314407
 30
0.0
 10
344.8412125746078
 20
222.0233685051886
 30
0.0
 10
344.8436238780705
 20
222.1120696028809
 30
0.0
 10
344.8456627777205
 20
222.2077032541148
 30
0.0
 10
344.8472077796011
 20
222.3102666723586
 30
0.0
 10
344.848360595636
 20
222.4128377591198
 30
0.0
 10
344.8498387212151
 20
222.5945921828579
 30
0.0
 10
344.8511184066188
 20
222.8555340727055
 30
0.0
 10
344.8521789624858
 20
223.2244857249423
 30
0.0
 10
344.8529951707403
 20
223.6222639728844
 30
0.0
 10
344.8541658542932
 20
224.5979910419976
 30
0.0
 10
344.8549361481919
 20
226.1228427325839
 30
0.0
 10
344.8549357604047
 20
227.50549295387
 30
0.0
 10
344.8549421208839
 20
228.196818060682
 30
0.0
  0
SPLINE
  5
C0
330
AD
100
AcDbEntity
  8
0
  6
Continuous
 62
     0
370
     0
100
AcDbSpline
210
0.0
220
0.0
230
1.0
 70
     8
 71
     5
 72
    12
 73
     6
 74
     0
 42
0.000000001
 43
0.0
 40
0.0
 40
0.0
 40
0.0
 40
0.0
 40
0.0
 40
0.0
 40
7.53943830292358
 40
7.53943830292358
 40
7.53943830292358
 40
7.53943830292358
 40
7.53943830292358
 40
7.53943830292358
 10
344.8549421208839
 20
228.196818060682
 30
0.0
 10
343.6855764953157
 20
228.1967782665185
 30
0.0
 10
342.4936666836634
 20
228.1967384758813
 30
0.0
 10
341.9315280922926
 20
228.1967128342496
 30
0.0
 10
341.9315280914904
 20
228.1967020800246
 30
0.0
 10
341.9315281145086
 20
228.1966913264174
 30
0.0
  0
SPLINE
  5
C1
330
AD
100
AcDbEntity
  8
0
  6
Continuous
 62
     0
370
     0
100
AcDbSpline
210
0.0
220
0.0
230
1.0
 70
     8
 71
     3
 72
   146
 73
   142
 74
     0
 42
0.000000001
 43
0.0
 40
-21.8210546472868
 40
-21.8210546472868
 40
-21.8210546472868
 40
-21.8210546472868
 40
-20.4211285064047
 40
-20.4211285064047
 40
-20.4211285064047
 40
-19.02120031435189
 40
-19.02120031435189
 40
-19.02120031435189
 40
-17.6212733748473
 40
-17.6212733748473
 40
-17.6212733748473
 40
-16.2213429104416
 40
-16.2213429104416
 40
-16.2213429104416
 40
-16.060602223813
 40
-16.060602223813
 40
-16.060602223813
 40
-15.8998599766825
 40
-15.8998599766825
 40
-15.8998599766825
 40
-15.7391198202929
 40
-15.7391198202929
 40
-15.7391198202929
 40
-15.5783779490631
 40
-15.5783779490631
 40
-15.5783779490631
 40
-15.0863850478574
 40
-15.0863850478574
 40
-15.0863850478574
 40
-14.5943622022781
 40
-14.5943622022781
 40
-14.5943622022781
 40
-14.3371266864771
 40
-14.3371266864771
 40
-14.3371266864771
 40
-14.0798816310041
 40
-14.0798816310041
 40
-14.0798816310041
 40
-13.8800673581739
 40
-13.8800673581739
 40
-13.8800673581739
 40
-13.6802288609443
 40
-13.6802288609443
 40
-13.6802288609443
 40
-13.5381294483184
 40
-13.5381294483184
 40
-13.5381294483184
 40
-13.3960148952793
 40
-13.3960148952793
 40
-13.3960148952793
 40
-13.3193084866514
 40
-13.3193084866514
 40
-13.3193084866514
 40
-13.2425963831049
 40
-13.2425963831049
 40
-13.2425963831049
 40
-13.0319148414986
 40
-13.0319148414986
 40
-13.0319148414986
 40
-12.6523941812325
 40
-12.6523941812325
 40
-12.6523941812325
 40
-12.002334639211
 40
-12.002334639211
 40
-12.002334639211
 40
-11.4560812302161
 40
-11.4560812302161
 40
-11.4560812302161
 40
-10.90981143359129
 40
-10.90981143359129
 40
-10.90981143359129
 40
-10.3635478613834
 40
-10.3635478613834
 40
-10.3635478613834
 40
-9.81729060974267
 40
-9.81729060974267
 40
-9.81729060974267
 40
-9.49292490153568
 40
-9.49292490153568
 40
-9.49292490153568
 40
-9.168560391025542
 40
-9.168560391025542
 40
-9.168560391025542
 40
-8.78897588443539
 40
-8.78897588443539
 40
-8.78897588443539
 40
-8.683725296391291
 40
-8.683725296391291
 40
-8.683725296391291
 40
-8.57846471585642
 40
-8.57846471585642
 40
-8.57846471585642
 40
-8.50176651307431
 40
-8.50176651307431
 40
-8.50176651307431
 40
-8.42505931859508
 40
-8.42505931859508
 40
-8.42505931859508
 40
-8.28294308562082
 40
-8.28294308562082
 40
-8.28294308562082
 40
-8.140846114549287
 40
-8.140846114549287
 40
-8.140846114549287
 40
-7.941003358041601
 40
-7.941003358041601
 40
-7.941003358041601
 40
-7.74119460208586
 40
-7.74119460208586
 40
-7.74119460208586
 40
-7.483933983134231
 40
-7.483933983134231
 40
-7.483933983134231
 40
-7.22668498919751
 40
-7.22668498919751
 40
-7.22668498919751
 40
-6.734673634872232
 40
-6.734673634872232
 40
-6.734673634872232
 40
-6.242678167792489
 40
-6.242678167792489
 40
-6.242678167792489
 40
-6.08193759604894
 40
-6.08193759604894
 40
-6.08193759604894
 40
-5.92119701570468
 40
-5.92119701570468
 40
-5.92119701570468
 40
-5.7604545386138
 40
-5.7604545386138
 40
-5.7604545386138
 40
-5.599713742403789
 40
-5.599713742403789
 40
-5.599713742403789
 40
-4.19978367905357
 40
-4.19978367905357
 40
-4.19978367905357
 40
-2.799855737957011
 40
-2.799855737957011
 40
-2.799855737957011
 40
0.0
 40
0.0
 40
0.0
 40
0.0
 10
336.4358698742617
 20
228.1968319034476
 30
0.0
 10
336.4358110944881
 20
227.7301899786854
 30
0.0
 10
336.4359295513747
 20
227.2635483008645
 30
0.0
 10
336.4360141853483
 20
226.7969057889775
 30
0.0
 10
336.4360988193218
 20
226.3302632770914
 30
0.0
 10
336.4361496303823
 20
225.8636199311377
 30
0.0
 10
336.4364151221221
 20
225.3969776828905
 30
0.0
 10
336.436680613862
 20
224.9303354346424
 30
0.0
 10
336.4371607862812
 20
224.4636942840997
 30
0.0
 10
336.4377256666221
 20
223.9970514078576
 30
0.0
 10
336.438290546963
 20
223.5304085316147
 30
0.0
 10
336.4389401352257
 20
223.0637639296723
 30
0.0
 10
336.4422703422371
 20
222.5971336206935
 30
0.0
 10
336.4426527178028
 20
222.5435549609274
 30
0.0
 10
336.443070433882
 20
222.4899764895953
 30
0.0
 10
336.4437344454787
 20
222.4364000414336
 30
0.0
 10
336.4443984570754
 20
222.3828235932714
 30
0.0
 10
336.4453087641894
 20
222.3292491682795
 30
0.0
 10
336.4466449522546
 20
222.2756863058856
 30
0.0
 10
336.4479811403198
 20
222.2221234434925
 30
0.0
 10
336.449743209336
 20
222.1685721436986
 30
0.0
 10
336.4516940635917
 20
222.1150273222523
 30
0.0
 10
336.4536449178475
 20
222.0614825008064
 30
0.0
 10
336.4557845573427
 20
222.0079441577085
 30
0.0
 10
336.4581239889467
 20
221.9544148124165
 30
0.0
 10
336.4652843110908
 20
221.7905769999425
 30
0.0
 10
336.474316275093
 20
221.6268234784468
 30
0.0
 10
336.486069979296
 20
221.4632489361087
 30
0.0
 10
336.4978236834989
 20
221.2996743937723
 30
0.0
 10
336.5122991279026
 20
221.1362788305936
 30
0.0
 10
336.5315570111213
 20
220.9734224533214
 30
0.0
 10
336.5416254507689
 20
220.8882776018776
 30
0.0
 10
336.5530011344468
 20
220.8032801328848
 30
0.0
 10
336.5661010633836
 20
220.7185446595817
 30
0.0
 10
336.5792009923204
 20
220.6338091862789
 30
0.0
 10
336.594025166516
 20
220.5493357086654
 30
0.0
 10
336.6115373731659
 20
220.4654046095694
 30
0.0
 10
336.6251392088163
 20
220.4002148228865
 30
0.0
 10
336.6403626596691
 20
220.3353522380744
 30
0.0
 10
336.657834457955
 20
220.2710895621834
 30
0.0
 10
336.675306256241
 20
220.2068268862926
 30
0.0
 10
336.6950264019602
 20
220.1431641193225
 30
0.0
 10
336.7177881611393
 20
220.0805787767165
 30
0.0
 10
336.7339730219489
 20
220.0360771610536
 30
0.0
 10
336.7516957197761
 20
219.9921202901756
 30
0.0
 10
336.7714641259188
 20
219.9490933798336
 30
0.0
 10
336.7912325320614
 20
219.9060664694905
 30
0.0
 10
336.8130466465195
 20
219.8639695196815
 30
0.0
 10
336.8370459838251
 20
219.8231515970814
 30
0.0
 10
336.8500029085926
 20
219.8011145405757
 30
0.0
 10
336.8635967771497
 20
219.7794502920127
 30
0.0
 10
336.8777499041333
 20
219.7581586637847
 30
0.0
 10
336.891903031117
 20
219.7368670355568
 30
0.0
 10
336.9066154165271
 20
219.7159480276636
 30
0.0
 10
336.9217502854203
 20
219.6953370004752
 30
0.0
 10
336.9632883531386
 20
219.6387694643355
 30
0.0
 10
337.0080087492115
 20
219.5845217721035
 30
0.0
 10
337.0548915622395
 20
219.5322765957654
 30
0.0
 10
337.1393582988055
 20
219.4381487211455
 30
0.0
 10
337.2308441695479
 20
219.3505209471285
 30
0.0
 10
337.3284499019437
 20
219.2702578076395
 30
0.0
 10
337.4952998182662
 20
219.1330537953476
 30
0.0
 10
337.6800328402161
 20
219.0173702919585
 30
0.0
 10
337.8764470599859
 20
218.9273133776614
 30
0.0
 10
338.0416387335839
 20
218.8515721588783
 30
0.0
 10
338.215093028187
 20
218.7939577449474
 30
0.0
 10
338.3926831828242
 20
218.7552811946973
 30
0.0
 10
338.5702733374612
 20
218.7166046444476
 30
0.0
 10
338.7519993521323
 20
218.6968659578785
 30
0.0
 10
338.9337213303468
 20
218.6968691857845
 30
0.0
 10
339.115443308541
 20
218.6968724136915
 30
0.0
 10
339.2971612502787
 20
218.7166175560704
 30
0.0
 10
339.474753214157
 20
218.7552909870896
 30
0.0
 10
339.6523451780353
 20
218.7939644181095
 30
0.0
 10
339.8258111640542
 20
218.8515661377695
 30
0.0
 10
339.9909962781838
 20
218.9273112112553
 30
0.0
 10
340.0891994884496
 20
218.9723419600455
 30
0.0
 10
340.1844759487585
 20
219.0237852050947
 30
0.0
 10
340.2760719054202
 20
219.0811053982236
 30
0.0
 10
340.367667862082
 20
219.1384255913534
 30
0.0
 10
340.4555833150965
 20
219.2016227325605
 30
0.0
 10
340.5389950276939
 20
219.2702876424976
 30
0.0
 10
340.6365852630127
 20
219.3506243783125
 30
0.0
 10
340.7280105136023
 20
219.4384457175006
 30
0.0
 10
340.8124886346728
 20
219.5324811345496
 30
0.0
 10
340.8359332006387
 20
219.5585780636735
 30
0.0
 10
340.8588427080674
 20
219.5851535926855
 30
0.0
 10
340.8810983386796
 20
219.6122727254914
 30
0.0
 10
340.9033539692918
 20
219.6393918582985
 30
0.0
 10
340.9249557230875
 20
219.6670545949007
 30
0.0
 10
340.9457138711079
 20
219.6953342611844
 30
0.0
 10
340.9608408072461
 20
219.7159422993147
 30
0.0
 10
340.9755197575492
 20
219.7368779498985
 30
0.0
 10
340.9896674148201
 20
219.7581717697575
 30
0.0
 10
341.0038150720911
 20
219.7794655896165
 30
0.0
 10
341.0174314363298
 20
219.8011175787495
 30
0.0
 10
341.030398385444
 20
219.8231492057875
 30
0.0
 10
341.0544162902434
 20
219.8639570717004
 30
0.0
 10
341.0762061856162
 20
219.9060673970065
 30
0.0
 10
341.0959686550492
 20
219.9490972464467
 30
0.0
 10
341.1157311244822
 20
219.9921270958878
 30
0.0
 10
341.1334661679755
 20
220.0360764694605
 30
0.0
 10
341.1496564821693
 20
220.0805757827674
 30
0.0
 10
341.1724259107735
 20
220.1431578874225
 30
0.0
 10
341.1921400940073
 20
220.2068276912795
 30
0.0
 10
341.209603605094
 20
220.2710923320365
 30
0.0
 10
341.2270671161807
 20
220.3353569727937
 30
0.0
 10
341.2422799551202
 20
220.4002164504506
 30
0.0
 10
341.2558903371023
 20
220.4654046676524
 30
0.0
 10
341.2734135470319
 20
220.5493337459446
 30
0.0
 10
341.2882804817301
 20
220.6338077516395
 30
0.0
 10
341.3014421051583
 20
220.7185411245487
 30
0.0
 10
341.3146037285866
 20
220.8032744974577
 30
0.0
 10
341.3260600407448
 20
220.8882672375816
 30
0.0
 10
341.3361430239994
 20
220.9734104281556
 30
0.0
 10
341.355428718934
 20
221.1362635796196
 30
0.0
 10
341.3696902123083
 20
221.2996671406663
 30
0.0
 10
341.3813771424283
 20
221.4632456834754
 30
0.0
 10
341.3930640725483
 20
221.6268242262844
 30
0.0
 10
341.4021764394141
 20
221.7905777508544
 30
0.0
 10
341.4093328229529
 20
221.9544146314695
 30
0.0
 10
341.4116709698252
 20
222.0079437202766
 30
0.0
 10
341.4138003210176
 20
222.0614817071054
 30
0.0
 10
341.4157404373809
 20
222.1150266972276
 30
0.0
 10
341.4176805537442
 20
222.1685716873495
 30
0.0
 10
341.4194314352785
 20
222.2221236807655
 30
0.0
 10
341.42077753378
 20
222.2756866138935
 30
0.0
 10
341.4221236322815
 20
222.3292495470215
 30
0.0
 10
341.4230649477504
 20
222.3828234198627
 30
0.0
 10
341.4237370129447
 20
222.4363996950759
 30
0.0
 10
341.4244090781391
 20
222.4899759702897
 30
0.0
 10
341.424811893059
 20
222.5435546478757
 30
0.0
 10
341.4251823535284
 20
222.5971334813088
 30
0.0
 10
341.4284087876502
 20
223.0637651212314
 30
0.0
 10
341.4291811012575
 20
223.5304085823216
 30
0.0
 10
341.4297545680365
 20
223.9970513990395
 30
0.0
 10
341.4303280348155
 20
224.4636942157575
 30
0.0
 10
341.430702654766
 20
224.9303363881036
 30
0.0
 10
341.4309691122572
 20
225.3969787613163
 30
0.0
 10
341.4315020272394
 20
226.3302635077438
 30
0.0
 10
341.431602292384
 20
227.2635490576397
 30
0.0
 10
341.4315639817131
 20
228.1968343409516
 30
0.0
  0
SPLINE
  5
C2
330
AD
100
AcDbEntity
  8
0
  6
Continuous
 62
     0
370
     0
100
AcDbSpline
210
0.0
220
0.0
230
1.0
 70
     8
 71
     3
 72
    52
 73
    48
 74
     0
 42
0.000000001
 43
0.0
 40
-21.8360707087548
 40
-21.8360707087548
 40
-21.8360707087548
 40
-21.8360707087548
 40
-20.4346682093051
 40
-19.0332657098554
 40
-17.6318632104056
 40
-16.2304607109559
 40
-16.0695511775616
 40
-15.9086416441675
 40
-15.7477321107732
 40
-15.586822577379
 40
-15.0943255706097
 40
-14.6018285638405
 40
-14.0868521433346
 40
-13.8868595100487
 40
-13.686866876763
 40
-13.54466113126
 40
-13.402455385757
 40
-13.2489053836998
 40
-13.0381942626823
 40
-12.6585651490943
 40
-12.0096167289416
 40
-11.4638269398038
 40
-10.9180371506661
 40
-10.3722473614682
 40
-9.826457572270371
 40
-9.501983362194169
 40
-9.177509152117981
 40
-8.797880038528287
 40
-8.69252447800817
 40
-8.587168917488059
 40
-8.510393916472388
 40
-8.433618915456723
 40
-8.291413169952643
 40
-8.14920742444856
 40
-7.949214791140159
 40
-7.749222157831778
 40
-7.491733947198139
 40
-7.234245736564501
 40
-6.741748580681249
 40
-6.24925142479801
 40
-6.08834193297992
 40
-5.92743244116182
 40
-5.766522949343719
 40
-5.605613457525631
 40
-4.20421009314422
 40
-2.80280672876282
 40
0.0
 40
0.0
 40
0.0
 40
0.0
 10
341.4315639817131
 20
228.1968343409516
 30
0.0
 10
341.4315448263695
 20
228.6634771792705
 30
0.0
 10
341.4314372277162
 20
229.5967627226145
 30
0.0
 10
341.431223296951
 20
230.9966912188708
 30
0.0
 10
341.4298026129085
 20
232.3966190921245
 30
0.0
 10
341.4284150447882
 20
233.3834840096393
 30
0.0
 10
341.4239636119477
 20
233.9572765618714
 30
0.0
 10
341.421182841181
 20
234.1179850104826
 30
0.0
 10
341.4159910899828
 20
234.278667282528
 30
0.0
 10
341.404997185845
 20
234.5495596857103
 30
0.0
 10
341.3842957681536
 20
234.9306624095987
 30
0.0
 10
341.3396597404707
 20
235.4281419521524
 30
0.0
 10
341.2812019943461
 20
235.8263462716865
 30
0.0
 10
341.2118631952276
 20
236.1231796496788
 30
0.0
 10
341.1584082599984
 20
236.2957919136976
 30
0.0
 10
341.0979877749958
 20
236.4454777266214
 30
0.0
 10
341.03090521666
 20
236.5752154368237
 30
0.0
 10
340.9367709926496
 20
236.7154405871819
 30
0.0
 10
340.7788602378238
 20
236.906884931518
 30
0.0
 10
340.4802071634729
 20
237.1929433561489
 30
0.0
 10
340.032039598895
 20
237.4735948253266
 30
0.0
 10
339.4788924671751
 20
237.6573276516724
 30
0.0
 10
338.9337144238509
 20
237.7165437113991
 30
0.0
 10
338.3885605973931
 20
237.6573082842746
 30
0.0
 10
337.9385024056669
 20
237.5078603924962
 30
0.0
 10
337.5876873790255
 20
237.3184425325555
 30
0.0
 10
337.3089969468173
 20
237.118108707502
 30
0.0
 10
337.1140567208515
 20
236.9308528814965
 30
0.0
 10
336.9856875845054
 20
236.7819418610377
 30
0.0
 10
336.926742352233
 20
236.7064579203236
 30
0.0
 10
336.8772411237775
 20
236.6358573823641
 30
0.0
 10
336.8247874966233
 20
236.5524487183453
 30
0.0
 10
336.7694438488797
 20
236.4454932609156
 30
0.0
 10
336.709031496963
 20
236.2957858215163
 30
0.0
 10
336.6555861058021
 20
236.1231734897295
 30
0.0
 10
336.6055723880208
 20
235.9099486983445
 30
0.0
 10
336.5642942291539
 20
235.6753892314786
 30
0.0
 10
336.5194606663326
 20
235.3428383322823
 30
0.0
 10
336.4834902765537
 20
234.9306001239884
 30
0.0
 10
336.4622849969277
 20
234.5495911460347
 30
0.0
 10
336.4515112355417
 20
234.2786510279407
 30
0.0
 10
336.446254572708
 20
234.1179951028038
 30
0.0
 10
336.4434394019081
 20
233.9572734963639
 30
0.0
 10
336.4391021107787
 20
233.3834854810774
 30
0.0
 10
336.4375214355546
 20
232.3966172339302
 30
0.0
 10
336.4359195807313
 20
230.5300469524026
 30
0.0
 10
336.4359144638257
 20
229.1301167060845
 30
0.0
 10
336.4358698742617
 20
228.1968319034476
 30
0.0
  0
SPLINE
  5
C3
330
AD
100
AcDbEntity
  8
0
  6
Continuous
 62
     0
370
    30
100
AcDbSpline
210
0.0
220
0.0
230
1.0
 70
     8
 71
     3
 72
    41
 73
    37
 74
     0
 42
0.000000001
 43
0.0
 40
0.0
 40
0.0
 40
0.0
 40
0.0
 40
0.005706444201003
 40
0.017119332603009
 40
0.034238920066548
 40
0.051358457791152
 40
0.05991811281111
 40
0.122326939103452
 40
0.184751052934987
 40
0.215987371147896
 40
0.247398728755486
 40
0.279543264141966
 40
0.312047863324082
 40
0.328828134379639
 40
0.346543090575952
 40
0.366115841492014
 40
0.386617906947417
 40
0.405347505797098
 40
0.424024720221015
 40
0.461296850363071
 40
0.4985137714838229
 40
0.5357203686130049
 40
0.572982341902635
 40
0.5916928557656119
 40
0.610379475050146
 40
0.6305009222815959
 40
0.65049674730428
 40
0.6684279801146841
 40
0.685451648456646
 40
0.7178907278239549
 40
0.750018136040799
 40
0.781521504481295
 40
0.812760342714393
 40
0.8751826938855329
 40
0.9583942312951781
 40
1.0
 40
1.0
 40
1.0
 40
1.0
 10
341.9315638280792
 20
228.1968253268593
 30
0.0
 10
341.9315620457814
 20
228.2412706723394
 30
0.0
 10
341.9315557772011
 20
228.3746067087427
 30
0.0
 10
341.9315380097587
 20
228.6412807654364
 30
0.0
 10
341.9315049488445
 20
228.9968471168114
 30
0.0
 10
341.931463707271
 20
229.3301906799815
 30
0.0
 10
341.9313804854017
 20
230.0162751985677
 30
0.0
 10
341.9309874047856
 20
231.0552166230567
 30
0.0
 10
341.9305195991019
 20
232.2707931029441
 30
0.0
 10
341.9275643242274
 20
233.2449044425121
 30
0.0
 10
341.9280518148126
 20
233.9832752990826
 30
0.0
 10
341.9003307847051
 20
234.7311001946822
 30
0.0
 10
341.8513622530355
 20
235.3637976542821
 30
0.0
 10
341.779043091399
 20
235.8809360640446
 30
0.0
 10
341.6908082652968
 20
236.2929592110682
 30
0.0
 10
341.5404274647596
 20
236.7207883573308
 30
0.0
 10
341.2805514304424
 20
237.1033708806268
 30
0.0
 10
340.9659828256599
 20
237.428387536703
 30
0.0
 10
340.506198132121
 20
237.7874624867229
 30
0.0
 10
339.8401702774238
 20
238.102648193493
 30
0.0
 10
338.9690162108135
 20
238.2384720378496
 30
0.0
 10
338.0949804748748
 20
238.1225773988963
 30
0.0
 10
337.422073941928
 20
237.8225966003458
 30
0.0
 10
336.9535376452299
 20
237.4750533425697
 30
0.0
 10
336.6350019160453
 20
237.1584453606225
 30
0.0
 10
336.3609223893901
 20
236.7865084780025
 30
0.0
 10
336.1953500918231
 20
236.3614675521759
 30
0.0
 10
336.0994899780047
 20
235.9439391817899
 30
0.0
 10
336.022073241755
 20
235.4243978703131
 30
0.0
 10
335.9707786164057
 20
234.7905827382664
 30
0.0
 10
335.9397662572028
 20
234.0428089292806
 30
0.0
 10
335.9401179596654
 20
233.3038096771976
 30
0.0
 10
335.9368596402711
 20
232.3289846484915
 30
0.0
 10
335.9365158549197
 20
230.9513722964363
 30
0.0
 10
335.9359168910405
 20
229.4930385992455
 30
0.0
 10
335.935885548113
 20
228.5208835935984
 30
0.0
 10
335.9358698742656
 20
228.1968319253021
 30
0.0
  0
SPLINE
  5
C4
330
AD
100
AcDbEntity
  8
0
  6
Continuous
 62
     0
370
     0
100
AcDbSpline
210
0.0
220
0.0
230
1.0
 70
    12
 71
     2
 72
     6
 73
     3
 74
     0
 42
0.000000001
 43
0.0
 40
-0.0000000000000111
 40
-0.0000000000000111
 40
-0.0000000000000111
 40
1.0
 40
1.0
 40
1.0
 10
335.9358698742656
 20
228.1968319253021
 30
0.0
 41
1.00000000000001
 10
335.9358698742631
 20
228.1968319034464
 30
0.0
 41
0.70710678118155
 10
336.4358698742617
 20
228.1968319034476
 30
0.0
 41
1.0
  0
LINE
  5
C5
330
AD
100
AcDbEntity
  8
0
  6
Continuous
 62
     0
370
     0
100
AcDbLine
 10
341.431564
 20
228.196834
 30
0.0
 11
341.931564
 21
228.196825
 31
0.0
  0
SPLINE
  5
C6
330
AD
100
AcDbEntity
  8
0
  6
Continuous
 62
     0
370
     0
100
AcDbSpline
210
0.0
220
0.0
230
1.0
 70
     8
 71
     3
 72
    43
 73
    39
 74
     0
 42
0.000000001
 43
0.0
 40
0.0
 40
0.0
 40
0.0
 40
0.0
 40
4.147986162496681
 40
5.001195549916987
 40
5.341324193655389
 40
5.681452837393787
 40
5.780553237681194
 40
5.879653637968488
 40
5.93268399533149
 40
5.985714352694592
 40
6.038744710057594
 40
6.09177506742058
 40
6.173610106319785
 40
6.25544514521899
 40
6.419115223017388
 40
6.782970976922293
 40
7.146826730827094
 40
7.649296313417286
 40
7.900531104712388
 40
8.151765896007486
 40
8.820264111338087
 40
9.48876232666869
 40
9.806156213176585
 40
10.12355009968449
 40
10.47563161386478
 40
10.82771312804519
 40
11.23229730165028
 40
11.63688147525549
 40
11.96721212382749
 40
12.29754277239949
 40
12.67877193572559
 40
13.06000109905179
 40
14.17918311931219
 40
14.95641197886638
 40
15.73364083842059
 40
16.87931800839289
 40
17.45215659337909
 40
18.02499498929563
 40
18.02499498929563
 40
18.02499498929563
 40
18.02499498929563
 10
344.8549421208839
 20
228.196818060682
 30
0.0
 10
344.854954841952
 20
229.5794801759583
 30
0.0
 10
344.855001790423
 20
231.2465454144718
 30
0.0
 10
344.852617989178
 20
233.0269852367777
 30
0.0
 10
344.8511056700827
 20
233.5381375043353
 30
0.0
 10
344.8498863626205
 20
233.7979223944343
 30
0.0
 10
344.8483769175991
 20
233.9773533088598
 30
0.0
 10
344.8474674749807
 20
234.0610901653138
 30
0.0
 10
344.846516985416
 20
234.1294670774124
 30
0.0
 10
344.8456452352848
 20
234.1824870999425
 30
0.0
 10
344.8446077648618
 20
234.2355016284432
 30
0.0
 10
344.843177762986
 20
234.2981102361313
 30
0.0
 10
344.8412089170874
 20
234.3703018878323
 30
0.0
 10
344.837990319206
 20
234.4793462350773
 30
0.0
 10
344.8311764196148
 20
234.6822917091632
 30
0.0
 10
344.8186001390709
 20
234.9790324234444
 30
0.0
 10
344.795578369833
 20
235.3881331301484
 30
0.0
 10
344.7670433405641
 20
235.7590583103733
 30
0.0
 10
344.7333811116657
 20
236.0915180778412
 30
0.0
 10
344.6875088180959
 20
236.4777762923556
 30
0.0
 10
344.6062802027398
 20
236.9981479908117
 30
0.0
 10
344.4838070859179
 20
237.5295465411217
 30
0.0
 10
344.3621507203898
 20
237.9379774981683
 30
0.0
 10
344.2573608632125
 20
238.2412382742247
 30
0.0
 10
344.1346591762704
 20
238.5474202310764
 30
0.0
 10
343.9851115655571
 20
238.8694147980493
 30
0.0
 10
343.8106499249442
 20
239.1937692082973
 30
0.0
 10
343.6221385952074
 20
239.4976195595774
 30
0.0
 10
343.432845594544
 20
239.769340777147
 30
0.0
 10
343.2372859636221
 20
240.0243457874181
 30
0.0
 10
343.0212139987628
 20
240.2794987506705
 30
0.0
 10
342.6296078050661
 20
240.6945454760967
 30
0.0
 10
342.1113134382874
 20
241.1361582551708
 30
0.0
 10
341.4493482549321
 20
241.5539083799524
 30
0.0
 10
340.7442089739686
 20
241.8870219874199
 30
0.0
 10
340.0601026698912
 20
242.0880000898352
 30
0.0
 10
339.4184280694478
 20
242.1811783936763
 30
0.0
 10
339.0952890091224
 20
242.1968358199453
 30
0.0
 10
338.9337198950311
 20
242.196836040956
 30
0.0
  0
SPLINE
  5
C7
330
AD
100
AcDbEntity
  8
0
  6
Continuous
 62
     0
370
     0
100
AcDbSpline
210
0.0
220
0.0
230
1.0
 70
     8
 71
     3
 72
    23
 73
    19
 74
     0
 42
0.000000001
 43
0.0
 40
0.0
 40
0.0
 40
0.0
 40
0.0
 40
0.03746340114557
 40
0.112390203436711
 40
0.2288911993415799
 40
0.289632705186389
 40
0.351986345310467
 40
0.415995898084619
 40
0.481328175336727
 40
0.547370995082926
 40
0.61366976676886
 40
0.746407049836837
 40
0.8791672134045629
 40
0.8964289607549389
 40
0.9309524918197761
 40
0.965476142958995
 40
0.9884920476529981
 40
1.0
 40
1.0
 40
1.0
 40
1.0
 10
338.9337198950093
 20
242.1968360409513
 30
0.0
 10
338.7193776149054
 20
242.1968100041157
 30
0.0
 10
338.0763558604665
 20
242.1554705394185
 30
0.0
 10
336.7845310183396
 20
241.8194138244914
 30
0.0
 10
335.5506568522339
 20
241.0335256371632
 30
0.0
 10
334.6134763886056
 20
240.0421657040025
 30
0.0
 10
334.0074844224843
 20
239.1634267979159
 30
0.0
 10
333.552500857629
 20
238.1652363512232
 30
0.0
 10
333.2622472060513
 20
237.0839140452099
 30
0.0
 10
333.1074147078091
 20
235.9625417416468
 30
0.0
 10
333.0097730320639
 20
234.4484495510524
 30
0.0
 10
333.0164338367306
 20
232.5491475395509
 30
0.0
 10
333.0127782580289
 20
230.9316389167461
 30
0.0
 10
333.0126214135629
 20
229.8757765282544
 30
0.0
 10
333.0125203505434
 20
229.3819720239246
 30
0.0
 10
333.0124766757453
 20
228.8552438500018
 30
0.0
 10
333.0124622622266
 20
228.4601970152349
 30
0.0
 10
333.0124617039056
 20
228.2626729767048
 30
0.0
 10
333.0124621850891
 20
228.1968316305333
 30
0.0
  0
SPLINE
  5
C8
330
AD
100
AcDbEntity
  8
0
  6
Continuous
 62
     0
370
    30
100
AcDbSpline
210
0.0
220
0.0
230
1.0
 70
     8
 71
     3
 72
    41
 73
    37
 74
     0
 42
0.000000001
 43
0.0
 40
0.0
 40
0.0
 40
0.0
 40
0.0
 40
0.005706143794748
 40
0.017118431384244
 40
0.034238107691332
 40
0.051358147551226
 40
0.059918028308684
 40
0.122326560693208
 40
0.184750701803078
 40
0.21598713517862
 40
0.247398550196506
 40
0.279543151508293
 40
0.312047005628198
 40
0.328830082056526
 40
0.346541117525726
 40
0.366116436332566
 40
0.3866146332293501
 40
0.4053471537866239
 40
0.424024420031918
 40
0.461296590709641
 40
0.498513552212467
 40
0.535720189591865
 40
0.572982202875418
 40
0.591692737631516
 40
0.61037937907927
 40
0.630500819736252
 40
0.6504968130098101
 40
0.6684279448676792
 40
0.6854522210271919
 40
0.7178907548447742
 40
0.7500182476150219
 40
0.7815214908391769
 40
0.812760742833375
 40
0.87518238915093
 40
0.9583941297169771
 40
1.0
 40
1.0
 40
1.0
 40
1.0
 10
335.9358698742656
 20
228.1968319253021
 30
0.0
 10
335.9358644213761
 20
228.1523889867993
 30
0.0
 10
335.9358527847783
 20
228.0190601707115
 30
0.0
 10
335.9358547128865
 20
227.7523928411927
 30
0.0
 10
335.9358984475202
 20
227.3968271024264
 30
0.0
 10
335.935964292068
 20
227.0634776846574
 30
0.0
 10
335.9360876960761
 20
226.3773908221317
 30
0.0
 10
335.9364344893871
 20
225.3384513822762
 30
0.0
 10
335.9369194392986
 20
224.1228775083567
 30
0.0
 10
335.9398728787806
 20
223.1487669023593
 30
0.0
 10
335.939371198781
 20
222.4103927235566
 30
0.0
 10
335.9671859219093
 20
221.6625839522813
 30
0.0
 10
336.0159087995049
 20
221.0298408488035
 30
0.0
 10
336.0885197742591
 20
220.5127624805995
 30
0.0
 10
336.1765559477598
 20
220.1006884118032
 30
0.0
 10
336.3270270049737
 20
219.6729221159805
 30
0.0
 10
336.5869140863849
 20
219.2903506926726
 30
0.0
 10
336.9014300369775
 20
218.9652897312322
 30
0.0
 10
337.3612453996481
 20
218.6062139956059
 30
0.0
 10
338.0272667603556
 20
218.2910215694968
 30
0.0
 10
338.8984224180298
 20
218.1551994896871
 30
0.0
 10
339.7724573015699
 20
218.2710930073569
 30
0.0
 10
340.4453638527034
 20
218.5710733401651
 30
0.0
 10
340.9139003073445
 20
218.9186160324693
 30
0.0
 10
341.2324357199684
 20
219.2352236521919
 30
0.0
 10
341.5065171031409
 20
219.6071603281616
 30
0.0
 10
341.6720873365305
 20
220.0322017526989
 30
0.0
 10
341.7679522724243
 20
220.4497338271361
 30
0.0
 10
341.8453586571079
 20
220.9692756821459
 30
0.0
 10
341.8966625039259
 20
221.6030897200442
 30
0.0
 10
341.9276784173517
 20
222.3508581148914
 30
0.0
 10
341.9273110831127
 20
223.0898591605025
 30
0.0
 10
341.9306053138916
 20
224.064679416087
 30
0.0
 10
341.9308730997281
 20
225.4422890816022
 30
0.0
 10
341.9315668112097
 20
226.9006174385963
 30
0.0
 10
341.9315768228507
 20
227.8727733552847
 30
0.0
 10
341.9315638280792
 20
228.1968253268592
 30
0.0
  0
LINE
  5
C9
330
AD
100
AcDbEntity
  8
0
  6
Continuous
 62
     0
370
    30
100
AcDbLine
 10
360.43372
 20
210.696837
 30
0.0
 11
338.93372
 21
210.696836
 31
0.0
  0
LINE
  5
CA
330
AD
100
AcDbEntity
  8
0
  6
Continuous
 62
     0
370
    30
100
AcDbLine
 10
338.93372
 20
210.696836
 30
0.0
 11
317.43372
 21
210.696837
 31
0.0
  0
LINE
  5
CB
330
AD
100
AcDbEntity
  8
0
  6
Continuous
 62
     0
370
     0
100
AcDbLine
 10
338.93372
 20
211.196836
 30
0.0
 11
338.93372
 21
210.696836
 31
0.0
  0
LINE
  5
CC
330
AD
100
AcDbEntity
  8
0
  6
Continuous
 62
     0
370
     0
100
AcDbLine
 10
316.93372
 20
211.196837
 30
0.0
 11
338.93372
 21
211.196837
 31
0.0
  0
LINE
  5
CD
330
AD
100
AcDbEntity
  8
0
  6
Continuous
 62
     0
370
     0
100
AcDbLine
 10
338.93372
 20
211.196837
 30
0.0
 11
360.93372
 21
211.196837
 31
0.0
  0
LINE
  5
CE
330
AD
100
AcDbEntity
  8
0
  6
Continuous
 62
     0
370
    30
100
AcDbLine
 10
338.93372
 20
247.196837
 30
0.0
 11
316.93372
 21
247.196837
 31
0.0
  0
LINE
  5
CF
330
AD
100
AcDbEntity
  8
0
  6
Continuous
 62
     0
370
    30
100
AcDbLine
 10
360.93372
 20
247.196837
 30
0.0
 11
338.93372
 21
247.196837
 31
0.0
  0
LINE
  5
D0
330
AD
100
AcDbEntity
  8
0
  6
Continuous
 62
     0
370
     0
100
AcDbLine
 10
338.93372
 20
247.196836
 30
0.0
 11
338.93372
 21
242.196836
 31
0.0
  0
LINE
  5
D1
330
AD
100
AcDbEntity
  8
0
  6
Continuous
 62
     0
370
     0
100
AcDbLine
 10
338.93372
 20
214.196835
 30
0.0
 11
338.93372
 21
211.196836
 31
0.0
  0
LINE
  5
D2
330
AD
100
AcDbEntity
  8
0
  6
Continuous
 62
     0
370
    30
100
AcDbLine
 10
316.93372
 20
211.196837
 30
0.0
 11
316.93372
 21
247.196837
 31
0.0
  0
LINE
  5
D3
330
AD
100
AcDbEntity
  8
0
  6
Continuous
 62
     0
370
    30
100
AcDbLine
 10
360.93372
 20
211.196837
 30
0.0
 11
360.93372
 21
247.196837
 31
0.0
  0
ARC
  5
D4
330
AD
100
AcDbEntity
  8
0
  6
Continuous
 62
     0
370
    30
100
AcDbCircle
 10
360.433717
 20
211.196839
 30
0.0
 40
0.500002757215321
100
AcDbArc
 50
270.004754
 51
359.999684
  0
ARC
  5
D5
330
AD
100
AcDbEntity
  8
0
  6
Continuous
 62
     0
370
    30
100
AcDbCircle
 10
317.433723
 20
211.196839
 30
0.0
 40
0.5000026051395425
100
AcDbArc
 50
180.000299
 51
269.99527
  0
ENDBLK
  5
D7
330
AD
100
AcDbEntity
  8
0
100
AcDbBlockEnd
  0
BLOCK
  5
12B
330
D9
100
AcDbEntity
  8
0
100
AcDbBlockBegin
  2
c
 70
     0
 10
261.052856
 20
75.009453
 30
0.0
  3
c
  1

  0
LINE
  5
DA
330
D9
100
AcDbEntity
  8
0
  6
Continuous
 62
     0
370
    30
100
AcDbLine
 10
529.456137
 20
455.520455
 30
0.0
 11
529.456137
 21
412.520455
 31
0.0
  0
ARC
  5
DB
330
D9
100
AcDbEntity
  8
0
  6
Continuous
 62
     0
370
    30
100
AcDbCircle
 10
528.956137
 20
455.520455
 30
0.0
 40
0.5
100
AcDbArc
 50
6.899502
 51
90.0
  0
LINE
  5
DC
330
D9
100
AcDbEntity
  8
0
  6
Continuous
 62
     0
370
     0
100
AcDbLine
 10
528.956137
 20
412.020455
 30
0.0
 11
528.956137
 21
456.020455
 31
0.0
  0
LINE
  5
DD
330
D9
100
AcDbEntity
  8
0
  6
Continuous
 62
     0
370
    30
100
AcDbLine
 10
528.956137
 20
456.020455
 30
0.0
 11
499.858657
 21
456.020455
 31
0.0
  0
SPLINE
  5
DE
330
D9
100
AcDbEntity
  8
0
  6
Continuous
 62
     0
370
    30
100
AcDbSpline
210
0.0
220
0.0
230
1.0
 70
    12
 71
     2
 72
     8
 73
     5
 74
     0
 42
0.000000001
 43
0.0
 40
0.0
 40
0.0
 40
0.0
 40
0.5
 40
0.5
 40
1.0
 40
1.0
 40
1.0
 10
499.8586572586868
 20
456.0204546800365
 30
0.0
 41
1.0
 10
499.8586582203374
 20
456.0204546800366
 30
0.0
 41
0.707106781186548
 10
497.1573978804735
 20
434.0204546800365
 30
0.0
 41
1.0
 10
494.4561375406096
 20
412.0204546800365
 30
0.0
 41
0.707106781186548
 10
494.4561365789591
 20
412.0204546800365
 30
0.0
 41
1.0
  0
SPLINE
  5
DF
330
D9
100
AcDbEntity
  8
0
  6
Continuous
 62
     0
370
     0
100
AcDbSpline
210
0.0
220
0.0
230
1.0
 70
     8
 71
     3
 72
    15
 73
    11
 74
     0
 42
0.000000001
 43
0.0
 40
0.25
 40
0.25
 40
0.25
 40
0.25
 40
0.282789689375777
 40
0.316209496755877
 40
0.3506926581431061
 40
0.386425306339667
 40
0.4233940444505059
 40
0.4613861680022721
 40
0.4999733030940761
 40
0.5
 40
0.5
 40
0.5
 40
0.5
 10
507.9562080185007
 20
412.0204546953155
 30
0.0
 10
507.9562389220077
 20
412.0204777388046
 30
0.0
 10
508.1233142594707
 20
412.0727707403673
 30
0.0
 10
508.8506868636463
 20
412.2896007245122
 30
0.0
 10
509.9987130375491
 20
412.6005054770629
 30
0.0
 10
511.5062257592936
 20
412.9465472161527
 30
0.0
 10
513.306263010057
 20
413.2633668759194
 30
0.0
 10
515.3223281350377
 20
413.4875491006688
 30
0.0
 10
516.7416666654162
 20
413.5416248628842
 30
0.0
 10
517.457109810437
 20
413.5415993748834
 30
0.0
 10
517.4576044549055
 20
413.5415993442209
 30
0.0
  0
SPLINE
  5
E0
330
D9
100
AcDbEntity
  8
0
  6
Continuous
 62
     0
370
     0
100
AcDbSpline
210
0.0
220
0.0
230
1.0
 70
     8
 71
     3
 72
    15
 73
    11
 74
     0
 42
0.000000001
 43
0.0
 40
0.5
 40
0.5
 40
0.5
 40
0.5
 40
0.538560068778857
 40
0.5765534575257301
 40
0.613517210942881
 40
0.631569433563117
 40
0.649305646488705
 40
0.6837867058533809
 40
0.7172106233166998
 40
0.75
 40
0.75
 40
0.75
 40
0.75
 10
517.4576044549055
 20
413.5415993442209
 30
0.0
 10
518.1720514693097
 20
413.5415550563854
 30
0.0
 10
519.5904538419541
 20
413.4874567883503
 30
0.0
 10
521.6057019651296
 20
413.2634658680861
 30
0.0
 10
523.1190592480824
 20
412.9969571299678
 30
0.0
 10
524.1791340492877
 20
412.7690123493101
 30
0.0
 10
525.1123378244907
 20
412.5466518290112
 30
0.0
 10
526.0622363786412
 20
412.2896102629868
 30
0.0
 10
526.7887362405993
 20
412.0727720324374
 30
0.0
 10
526.9560178726998
 20
412.0204771043009
 30
0.0
 10
526.9560767733338
 20
412.0204546944381
 30
0.0
  0
SPLINE
  5
E1
330
D9
100
AcDbEntity
  8
0
  6
Continuous
 62
     0
370
     0
100
AcDbSpline
210
0.0
220
0.0
230
1.0
 70
     8
 71
     3
 72
    16
 73
    12
 74
     0
 42
0.000000001
 43
0.0
 40
8.846013188205475
 40
8.846013188205475
 40
8.846013188205475
 40
8.846013188205475
 40
9.435780079538787
 40
10.57015564745894
 40
11.53399129984347
 40
12.54990656388874
 40
14.25004103489094
 40
15.29097076347113
 40
16.41387658973553
 40
17.50064925780368
 40
17.69202637641095
 40
17.69202637641095
 40
17.69202637641095
 40
17.69202637641095
 10
511.956173625667
 20
408.0205142803566
 30
0.0
 10
511.9561764616982
 20
408.0205188698757
 30
0.0
 10
511.986022643912
 20
408.0392837961201
 30
0.0
 10
512.1684209556132
 20
408.1537964968844
 30
0.0
 10
512.5595882480739
 20
408.3863128936239
 30
0.0
 10
513.2046467456009
 20
408.7399303745377
 30
0.0
 10
514.0901448767371
 20
409.1533117583188
 30
0.0
 10
515.1802095006019
 20
409.5193232101849
 30
0.0
 10
516.188529499584
 20
409.7423376339759
 30
0.0
 10
516.9734884063128
 20
409.8133702606995
 30
0.0
 10
517.3932734396717
 20
409.8181684274263
 30
0.0
 10
517.4561284585534
 20
409.8181548273052
 30
0.0
  0
SPLINE
  5
E2
330
D9
100
AcDbEntity
  8
0
  6
Continuous
 62
     0
370
     0
100
AcDbSpline
210
0.0
220
0.0
230
1.0
 70
     8
 71
     3
 72
    15
 73
    11
 74
     0
 42
0.000000001
 43
0.0
 40
17.69202637641095
 40
17.69202637641095
 40
17.69202637641095
 40
17.69202637641095
 40
18.58933171102949
 40
19.66901394905848
 40
20.67976500962695
 40
22.84606260518612
 40
23.87960986232657
 40
24.97309812453311
 40
26.06615217405998
 40
26.53803956461643
 40
26.53803956461643
 40
26.53803956461643
 40
26.53803956461643
 10
517.4561284585534
 20
409.8181548273052
 30
0.0
 10
517.75083528746
 20
409.8180910607418
 30
0.0
 10
518.4001812792502
 20
409.782494360534
 30
0.0
 10
519.3494365771106
 20
409.6167839078905
 30
0.0
 10
520.60336207993
 20
409.2524122082666
 30
0.0
 10
521.6380564141346
 20
408.778828222995
 30
0.0
 10
522.3864706054745
 20
408.367468753551
 30
0.0
 10
522.7753581142574
 20
408.134295466835
 30
0.0
 10
522.9344512115692
 20
408.034098289434
 30
0.0
 10
522.956107141814
 20
408.0205015064454
 30
0.0
 10
522.9561019725588
 20
408.0205098084759
 30
0.0
  0
LINE
  5
E3
330
D9
100
AcDbEntity
  8
0
  6
Continuous
 62
     0
370
     0
100
AcDbLine
 10
517.456137
 20
354.262045
 30
0.0
 11
511.956137
 21
354.262045
 31
0.0
  0
LINE
  5
E4
330
D9
100
AcDbEntity
  8
0
  6
Continuous
 62
     0
370
     0
100
AcDbLine
 10
522.956137
 20
354.262045
 30
0.0
 11
517.456137
 21
354.262045
 31
0.0
  0
LINE
  5
E5
330
D9
100
AcDbEntity
  8
0
  6
Continuous
 62
     0
370
    30
100
AcDbLine
 10
522.706137
 20
354.012045
 30
0.0
 11
517.456137
 21
354.012045
 31
0.0
  0
LINE
  5
E6
330
D9
100
AcDbEntity
  8
0
  6
Continuous
 62
     0
370
    30
100
AcDbLine
 10
517.456137
 20
354.012045
 30
0.0
 11
512.206137
 21
354.012045
 31
0.0
  0
ARC
  5
E7
330
D9
100
AcDbEntity
  8
0
  6
Continuous
 62
     0
370
    30
100
AcDbCircle
 10
512.206149
 20
354.262058
 30
0.0
 40
0.2500129109652818
100
AcDbArc
 50
180.00295
 51
269.959222
  0
ARC
  5
E8
330
D9
100
AcDbEntity
  8
0
  6
Continuous
 62
     0
370
    30
100
AcDbCircle
 10
522.706124
 20
354.262058
 30
0.0
 40
0.2500129109521244
100
AcDbArc
 50
270.040778
 51
359.99705
  0
LINE
  5
E9
330
D9
100
AcDbEntity
  8
0
  6
Continuous
 62
     0
370
    30
100
AcDbLine
 10
522.956137
 20
408.020268
 30
0.0
 11
522.956137
 21
354.262045
 31
0.0
  0
LINE
  5
EA
330
D9
100
AcDbEntity
  8
0
  6
Continuous
 62
     0
370
    30
100
AcDbLine
 10
511.956137
 20
408.02027
 30
0.0
 11
511.956137
 21
354.262045
 31
0.0
  0
ARC
  5
EB
330
D9
100
AcDbEntity
  8
0
  6
Continuous
 62
     0
370
    30
100
AcDbCircle
 10
507.95617
 20
408.020513
 30
0.0
 40
4.00000397302396
100
AcDbArc
 50
0.00002
 51
89.999441
  0
ARC
  5
EC
330
D9
100
AcDbEntity
  8
0
  6
Continuous
 62
     0
370
    30
100
AcDbCircle
 10
526.956101
 20
408.020502
 30
0.0
 40
3.99999941081558
100
AcDbArc
 50
90.000361
 51
179.999887
  0
LINE
  5
ED
330
D9
100
AcDbEntity
  8
0
  6
Continuous
 62
     0
370
    30
100
AcDbLine
 10
494.455783
 20
412.020455
 30
0.0
 11
507.956219
 21
412.020455
 31
0.0
  0
LINE
  5
EE
330
D9
100
AcDbEntity
  8
0
  6
Continuous
 62
     0
370
    30
100
AcDbLine
 10
526.956066
 20
412.020455
 30
0.0
 11
528.956137
 21
412.020455
 31
0.0
  0
ARC
  5
EF
330
D9
100
AcDbEntity
  8
0
  6
Continuous
 62
     0
370
    30
100
AcDbCircle
 10
528.956134
 20
412.520457
 30
0.0
 40
0.5000026980512913
100
AcDbArc
 50
270.000308
 51
359.999691
  0
ARC
  5
F0
330
D9
100
AcDbEntity
  8
0
  6
Continuous
 62
     0
370
    30
100
AcDbCircle
 10
528.959724
 20
455.520288
 30
0.0
 40
0.4964123167286261
100
AcDbArc
 50
0.019279
 51
6.968376
  0
LINE
  5
F1
330
D9
100
AcDbEntity
  8
0
  6
Continuous
 62
     0
370
    30
100
AcDbLine
 10
467.277549
 20
474.020455
 30
0.0
 11
467.277549
 21
434.020455
 31
0.0
  0
LINE
  5
F2
330
D9
100
AcDbEntity
  8
0
  6
Continuous
 62
     0
370
    30
100
AcDbLine
 10
467.277549
 20
434.020455
 30
0.0
 11
467.277549
 21
394.020455
 31
0.0
  0
LINE
  5
F3
330
D9
100
AcDbEntity
  8
0
  6
Continuous
 62
     0
370
    30
100
AcDbLine
 10
472.277549
 20
434.020455
 30
0.0
 11
472.277549
 21
394.020455
 31
0.0
  0
LINE
  5
F4
330
D9
100
AcDbEntity
  8
0
  6
Continuous
 62
     0
370
    30
100
AcDbLine
 10
472.277549
 20
474.020455
 30
0.0
 11
472.277549
 21
434.020455
 31
0.0
  0
LINE
  5
F5
330
D9
100
AcDbEntity
  8
0
  6
Continuous
 62
     0
370
    30
100
AcDbLine
 10
467.277549
 20
474.020455
 30
0.0
 11
472.277549
 21
474.020455
 31
0.0
  0
LINE
  5
F6
330
D9
100
AcDbEntity
  8
0
  6
Continuous
 62
     0
370
    30
100
AcDbLine
 10
467.277549
 20
394.020455
 30
0.0
 11
472.277549
 21
394.020455
 31
0.0
  0
LINE
  5
F7
330
D9
100
AcDbEntity
  8
0
  6
Continuous
 62
     0
370
    30
100
AcDbLine
 10
467.277549
 20
574.020454
 30
0.0
 11
467.277549
 21
534.020454
 31
0.0
  0
LINE
  5
F8
330
D9
100
AcDbEntity
  8
0
  6
Continuous
 62
     0
370
    30
100
AcDbLine
 10
467.277549
 20
534.020454
 30
0.0
 11
467.277549
 21
494.020454
 31
0.0
  0
LINE
  5
F9
330
D9
100
AcDbEntity
  8
0
  6
Continuous
 62
     0
370
    30
100
AcDbLine
 10
472.277549
 20
534.020454
 30
0.0
 11
472.277549
 21
494.020454
 31
0.0
  0
LINE
  5
FA
330
D9
100
AcDbEntity
  8
0
  6
Continuous
 62
     0
370
    30
100
AcDbLine
 10
472.277549
 20
574.020454
 30
0.0
 11
472.277549
 21
534.020454
 31
0.0
  0
LINE
  5
FB
330
D9
100
AcDbEntity
  8
0
  6
Continuous
 62
     0
370
    30
100
AcDbLine
 10
467.277549
 20
574.020454
 30
0.0
 11
472.277549
 21
574.020454
 31
0.0
  0
LINE
  5
FC
330
D9
100
AcDbEntity
  8
0
  6
Continuous
 62
     0
370
    30
100
AcDbLine
 10
467.277549
 20
494.020454
 30
0.0
 11
472.277549
 21
494.020454
 31
0.0
  0
ARC
  5
FD
330
D9
100
AcDbEntity
  8
0
  6
Continuous
 62
     0
370
    30
100
AcDbCircle
 10
491.65553
 20
433.910194
 30
0.0
 40
20.50177669367489
100
AcDbArc
 50
67.591166
 51
86.167453
  0
ARC
  5
FE
330
D9
100
AcDbEntity
  8
0
  6
Continuous
 62
     0
370
    30
100
AcDbCircle
 10
491.654907
 20
434.12931
 30
0.0
 40
20.50906262989766
100
AcDbArc
 50
273.832929
 51
278.482412
  0
LINE
  5
FF
330
D9
100
AcDbEntity
  8
0
  6
Continuous
 62
     0
370
     0
100
AcDbLine
 10
492.525883
 20
415.106481
 30
0.0
 11
492.525883
 21
456.120455
 31
0.0
  0
LINE
  5
100
330
D9
100
AcDbEntity
  8
0
  6
Continuous
 62
     0
370
     0
100
AcDbLine
 10
492.525883
 20
411.920455
 30
0.0
 11
492.525883
 21
415.106481
 31
0.0
  0
LINE
  5
101
330
D9
100
AcDbEntity
  8
0
  6
Continuous
 62
     0
370
    30
100
AcDbLine
 10
493.025883
 20
415.534399
 30
0.0
 11
493.025883
 21
412.420675
 31
0.0
  0
SPLINE
  5
102
330
D9
100
AcDbEntity
  8
0
  6
Continuous
 62
     0
370
    30
100
AcDbSpline
210
0.0
220
0.0
230
1.0
 70
     8
 71
     3
 72
    23
 73
    19
 74
     0
 42
0.000000001
 43
0.0
 40
0.1730887241158584
 40
0.1730887241158584
 40
0.1730887241158584
 40
0.1730887241158584
 40
0.214302024203872
 40
0.285698141090041
 40
0.321452536168111
 40
0.357207128660394
 40
0.428603562793482
 40
0.5000000468153919
 40
0.571396521243311
 40
0.6427929605543059
 40
0.6785475673291361
 40
0.7143019228830579
 40
0.7856982945833519
 40
0.8570946810729272
 40
0.892848970613868
 40
0.928603581897924
 40
0.9762011939659748
 40
1.0
 40
1.0
 40
1.0
 40
1.0
 10
493.0258829556228
 20
455.6201916330527
 30
0.0
 10
493.0258829952822
 20
455.6201916410137
 30
0.0
 10
493.0258831036539
 20
455.4556293411502
 30
0.0
 10
493.0258832521781
 20
454.6453335217591
 30
0.0
 10
493.0258833821795
 20
453.356137900632
 30
0.0
 10
493.0258835037561
 20
451.7437275456036
 30
0.0
 10
493.0258836393789
 20
449.1526407582261
 30
0.0
 10
493.0258837714771
 20
445.2870665911169
 30
0.0
 10
493.0258838595602
 20
440.8572180757371
 30
0.0
 10
493.0258838961118
 20
436.8751232166567
 30
0.0
 10
493.0258839019936
 20
433.6445706157036
 30
0.0
 10
493.0258838916387
 20
430.4202102860139
 30
0.0
 10
493.0258838481786
 20
426.4701422088805
 30
0.0
 10
493.0258837693661
 20
422.8367197634748
 30
0.0
 10
493.0258836857341
 20
420.2328409241788
 30
0.0
 10
493.0258836040433
 20
418.2558066076191
 30
0.0
 10
493.0258835217599
 20
416.6979503878078
 30
0.0
 10
493.0258834663265
 20
415.8123664402199
 30
0.0
 10
493.025883446221
 20
415.5343991582944
 30
0.0
  0
ARC
  5
103
330
D9
100
AcDbEntity
  8
0
  6
Continuous
 62
     0
370
    30
100
AcDbCircle
 10
492.525881
 20
412.4205
 30
0.0
 40
0.5000021242803994
100
AcDbArc
 50
270.000242
 51
359.999255
  0
ARC
  5
104
330
D9
100
AcDbEntity
  8
0
  6
Continuous
 62
     0
370
    30
100
AcDbCircle
 10
492.525881
 20
455.620389
 30
0.0
 40
0.5000019195472234
100
AcDbArc
 50
359.999741
 51
89.999781
  0
LINE
  5
105
330
D9
100
AcDbEntity
  8
0
  6
Continuous
 62
     0
370
    30
100
AcDbLine
 10
472.277549
 20
456.120455
 30
0.0
 11
492.525883
 21
456.120455
 31
0.0
  0
LINE
  5
106
330
D9
100
AcDbEntity
  8
0
  6
Continuous
 62
     0
370
    30
100
AcDbLine
 10
472.277549
 20
411.920455
 30
0.0
 11
492.525883
 21
411.920455
 31
0.0
  0
ARC
  5
107
330
D9
100
AcDbEntity
  8
0
  6
Continuous
 62
     0
370
    30
100
AcDbCircle
 10
491.656425
 20
533.925097
 30
0.0
 40
20.49117033995829
100
AcDbArc
 50
84.224359
 51
86.167974
  0
ARC
  5
108
330
D9
100
AcDbEntity
  8
0
  6
Continuous
 62
     0
370
    30
100
AcDbCircle
 10
491.656399
 20
534.116231
 30
0.0
 40
20.49159089497137
100
AcDbArc
 50
273.83202
 51
275.775595
  0
LINE
  5
109
330
D9
100
AcDbEntity
  8
0
  6
Continuous
 62
     0
370
     0
100
AcDbLine
 10
492.525883
 20
511.920454
 30
0.0
 11
492.525883
 21
515.106481
 31
0.0
  0
LINE
  5
10A
330
D9
100
AcDbEntity
  8
0
  6
Continuous
 62
     0
370
     0
100
AcDbLine
 10
492.525883
 20
515.106481
 30
0.0
 11
492.525883
 21
556.120454
 31
0.0
  0
SPLINE
  5
10B
330
D9
100
AcDbEntity
  8
0
  6
Continuous
 62
     0
370
    30
100
AcDbSpline
210
0.0
220
0.0
230
1.0
 70
     8
 71
     3
 72
    23
 73
    19
 74
     0
 42
0.000000001
 43
0.0
 40
0.1730802829015245
 40
0.1730802829015245
 40
0.1730802829015245
 40
0.1730802829015245
 40
0.214301705416648
 40
0.285698077116945
 40
0.321452432670867
 40
0.3572070394456949
 40
0.4286034787566879
 40
0.4999999531846099
 40
0.571396437206519
 40
0.6427928713396059
 40
0.678547463831889
 40
0.71430185890996
 40
0.7856979757961291
 40
0.8570956046866351
 40
0.892846364748452
 40
0.9286006432793311
 40
0.976200214426443
 40
1.0
 40
1.0
 40
1.0
 40
1.0
 10
493.0258829558082
 20
555.6202339510611
 30
0.0
 10
493.0258829964101
 20
555.6202339582795
 30
0.0
 10
493.0258831074175
 20
555.4555912165127
 30
0.0
 10
493.0258832516552
 20
554.6453535090868
 30
0.0
 10
493.0258833812502
 20
553.3561446805521
 30
0.0
 10
493.0258835033107
 20
551.7437310474287
 30
0.0
 10
493.0258836404106
 20
549.152633026305
 30
0.0
 10
493.0258837714771
 20
545.287066554762
 30
0.0
 10
493.0258838585286
 20
540.8572205135386
 30
0.0
 10
493.025883896557
 20
536.8751230115413
 30
0.0
 10
493.0258839029227
 20
533.644568668654
 30
0.0
 10
493.0258838921608
 20
530.4202192077435
 30
0.0
 10
493.0258838435367
 20
526.4700823318798
 30
0.0
 10
493.0258837713833
 20
522.8368242398071
 30
0.0
 10
493.0258836874667
 20
520.2328968653086
 30
0.0
 10
493.0258836051452
 20
518.2558218506558
 30
0.0
 10
493.0258835042559
 20
516.6981047148478
 30
0.0
 10
493.025883466328
 20
515.8123531921135
 30
0.0
 10
493.0258834462209
 20
515.5343986065975
 30
0.0
  0
LINE
  5
10C
330
D9
100
AcDbEntity
  8
0
  6
Continuous
 62
     0
370
    30
100
AcDbLine
 10
493.025883
 20
515.534399
 30
0.0
 11
493.025883
 21
512.420717
 31
0.0
  0
ARC
  5
10D
330
D9
100
AcDbEntity
  8
0
  6
Continuous
 62
     0
370
    30
100
AcDbCircle
 10
492.525881
 20
555.620408
 30
0.0
 40
0.5000021242756956
100
AcDbArc
 50
0.000745
 51
89.999758
  0
ARC
  5
10E
330
D9
100
AcDbEntity
  8
0
  6
Continuous
 62
     0
370
    30
100
AcDbCircle
 10
492.525881
 20
512.42052
 30
0.0
 40
0.5000019195508062
100
AcDbArc
 50
270.000219
 51
0.000259
  0
LINE
  5
10F
330
D9
100
AcDbEntity
  8
0
  6
Continuous
 62
     0
370
    30
100
AcDbLine
 10
472.277549
 20
511.920454
 30
0.0
 11
492.525883
 21
511.920454
 31
0.0
  0
LINE
  5
110
330
D9
100
AcDbEntity
  8
0
  6
Continuous
 62
     0
370
    30
100
AcDbLine
 10
472.277549
 20
556.120454
 30
0.0
 11
492.525883
 21
556.120454
 31
0.0
  0
SPLINE
  5
111
330
D9
100
AcDbEntity
  8
0
  6
Continuous
 62
     0
370
     0
100
AcDbSpline
210
0.0
220
0.0
230
1.0
 70
     8
 71
     3
 72
    30
 73
    26
 74
     0
 42
0.000000001
 43
0.0
 40
0.5
 40
0.5
 40
0.5
 40
0.5
 40
0.508586183352046
 40
0.5400631312404939
 40
0.5718299096422781
 40
0.5879131428653629
 40
0.604070649601544
 40
0.619738624864231
 40
0.632658328759356
 40
0.6453448054521511
 40
0.660798814289755
 40
0.6807490002369689
 40
0.7059289383473599
 40
0.7351829389540311
 40
0.749731625589596
 40
0.7653585318156241
 40
0.8007273198994002
 40
0.836795186303491
 40
0.8658601854158601
 40
0.8807524151289929
 40
0.9105526799850481
 40
0.9403629155927741
 40
0.970179081190379
 40
0.9900596937301259
 40
1.0
 40
1.0
 40
1.0
 40
1.0
 10
522.7183297240929
 20
560.0202932587064
 30
0.0
 10
522.7183778342513
 20
560.0203214907165
 30
0.0
 10
522.7080515494735
 20
560.0138954778168
 30
0.0
 10
522.6002785968382
 20
559.946631207356
 30
0.0
 10
522.3426842274064
 20
559.7947813145183
 30
0.0
 10
522.0642680477602
 20
559.6491609000467
 30
0.0
 10
521.8230582729543
 20
559.5329473020256
 30
0.0
 10
521.5695951216371
 20
559.4286088986933
 30
0.0
 10
521.3185186213573
 20
559.3074450886187
 30
0.0
 10
521.0377264655152
 20
559.2081479306758
 30
0.0
 10
520.6790087691486
 20
559.1438457228288
 30
0.0
 10
520.210970746628
 20
559.1032191998788
 30
0.0
 10
519.628938456173
 20
559.079682581807
 30
0.0
 10
519.086854997087
 20
559.0694217111029
 30
0.0
 10
518.6194202057709
 20
559.0634181670537
 30
0.0
 10
518.1035102370765
 20
559.0621946986696
 30
0.0
 10
517.4182825902983
 20
559.0616989902494
 30
0.0
 10
516.6272558984765
 20
559.0614119607374
 30
0.0
 10
515.9974026858388
 20
559.0612609383095
 30
0.0
 10
515.4168782023
 20
559.0611651176682
 30
0.0
 10
514.8304883953358
 20
559.0611033697452
 30
0.0
 10
514.1266363824938
 20
559.0610540078571
 30
0.0
 10
513.50085916388
 20
559.0610297973246
 30
0.0
 10
513.0314725297162
 20
559.0610232608259
 30
0.0
 10
512.796760507508
 20
559.0610232953939
 30
0.0
 10
512.7185231667943
 20
559.0610236649017
 30
0.0
  0
LINE
  5
112
330
D9
100
AcDbEntity
  8
0
  6
Continuous
 62
     0
370
     0
100
AcDbLine
 10
512.718523
 20
559.061024
 30
0.0
 11
512.718524
 21
555.208628
 31
0.0
  0
SPLINE
  5
113
330
D9
100
AcDbEntity
  8
0
  6
Continuous
 62
     0
370
     0
100
AcDbSpline
210
0.0
220
0.0
230
1.0
 70
     8
 71
     3
 72
    25
 73
    21
 74
     0
 42
0.000000001
 43
0.0
 40
0.0
 40
0.0
 40
0.0
 40
0.0
 40
0.009864671292144
 40
0.029594013876431
 40
0.059187884936304
 40
0.0887816600549
 40
0.1035785262931
 40
0.238814611329225
 40
0.306432521967993
 40
0.340240854818736
 40
0.374043012722051
 40
0.441597430515171
 40
0.508934729885832
 40
0.575619355998374
 40
0.641008847974296
 40
0.7046941093740051
 40
0.766702787726461
 40
0.885513493390941
 40
0.9618378311303142
 40
1.0
 40
1.0
 40
1.0
 40
1.0
 10
512.7185238215366
 20
555.2086284364552
 30
0.0
 10
512.7749591650304
 20
555.2086282110071
 30
0.0
 10
512.9442651955378
 20
555.2086280071449
 30
0.0
 10
513.2828764417454
 20
555.2086305101113
 30
0.0
 10
513.7343569902567
 20
555.2086403155915
 30
0.0
 10
514.1576191253956
 20
555.208658069175
 30
0.0
 10
515.1852552599844
 20
555.2087117397127
 30
0.0
 10
516.4304354937822
 20
555.2089411702706
 30
0.0
 10
517.784347119941
 20
555.2095218985055
 30
0.0
 10
518.5580138107036
 20
555.2101077382752
 30
0.0
 10
519.3310563518535
 20
555.2157071220978
 30
0.0
 10
520.2949682843034
 20
555.2303135977834
 30
0.0
 10
521.4406707101693
 20
555.2687495784801
 30
0.0
 10
522.5499191892226
 20
555.3411758537003
 30
0.0
 10
523.5798321173827
 20
555.4501415205359
 30
0.0
 10
524.4877210199154
 20
555.5830994507958
 30
0.0
 10
525.511942093531
 20
555.7600683998006
 30
0.0
 10
526.3265013200956
 20
555.9311678620264
 30
0.0
 10
526.6753437471668
 20
556.0106587328198
 30
0.0
 10
526.7184585135637
 20
556.0204591734534
 30
0.0
 10
526.7185197788909
 20
556.0204574704997
 30
0.0
  0
LINE
  5
114
330
D9
100
AcDbEntity
  8
0
  6
Continuous
 62
     0
370
    30
100
AcDbLine
 10
512.718523
 20
561.020455
 30
0.0
 11
522.218486
 21
561.020455
 31
0.0
  0
LINE
  5
115
330
D9
100
AcDbEntity
  8
0
  6
Continuous
 62
     0
370
    30
100
AcDbLine
 10
503.218553
 20
561.020455
 30
0.0
 11
512.718523
 21
561.020455
 31
0.0
  0
LINE
  5
116
330
D9
100
AcDbEntity
  8
0
  6
Continuous
 62
     0
370
     0
100
AcDbLine
 10
502.718618
 20
560.520455
 30
0.0
 11
512.718523
 21
560.520455
 31
0.0
  0
LINE
  5
117
330
D9
100
AcDbEntity
  8
0
  6
Continuous
 62
     0
370
     0
100
AcDbLine
 10
512.718523
 20
560.520455
 30
0.0
 11
512.718523
 21
561.020455
 31
0.0
  0
SPLINE
  5
118
330
D9
100
AcDbEntity
  8
0
  6
Continuous
 62
     0
370
     0
100
AcDbSpline
210
0.0
220
0.0
230
1.0
 70
     8
 71
     3
 72
    23
 73
    19
 74
     0
 42
0.000000001
 43
0.0
 40
0.0
 40
0.0
 40
0.0
 40
0.0
 40
0.03746340114557
 40
0.112390203436711
 40
0.2288911993415799
 40
0.289632705186389
 40
0.351986345310467
 40
0.415995898084619
 40
0.481328175336727
 40
0.547370995082926
 40
0.61366976676886
 40
0.746407049836837
 40
0.8791672134045629
 40
0.8964289607549389
 40
0.9309524918197761
 40
0.965476142958995
 40
0.9884920476529981
 40
1.0
 40
1.0
 40
1.0
 40
1.0
 10
498.7185191168061
 20
556.0204574704998
 30
0.0
 10
498.718545163011
 20
556.0204557984828
 30
0.0
 10
498.7598846562288
 20
556.0109996375371
 30
0.0
 10
499.0959414309684
 20
555.934473370189
 30
0.0
 10
499.8818296794747
 20
555.7687577724193
 30
0.0
 10
500.8731896611695
 20
555.5956051255519
 30
0.0
 10
501.7519285994904
 20
555.4641646315297
 30
0.0
 10
502.7501190709177
 20
555.3532839547048
 30
0.0
 10
503.8314413929435
 20
555.277215043141
 30
0.0
 10
504.952813705119
 20
555.2350205932299
 30
0.0
 10
506.466905901166
 20
555.2079193498998
 30
0.0
 10
508.3662079122975
 20
555.20972302164
 30
0.0
 10
509.983716535306
 20
555.2087171848609
 30
0.0
 10
511.0395789238066
 20
555.208672865928
 30
0.0
 10
511.533383428142
 20
555.2086447140832
 30
0.0
 10
512.0601116020673
 20
555.2086324828086
 30
0.0
 10
512.455158436835
 20
555.2086284585788
 30
0.0
 10
512.652682475365
 20
555.2086283021599
 30
0.0
 10
512.7185238215366
 20
555.2086284364552
 30
0.0
  0
SPLINE
  5
119
330
D9
100
AcDbEntity
  8
0
  6
Continuous
 62
     0
370
     0
100
AcDbSpline
210
0.0
220
0.0
230
1.0
 70
     8
 71
     3
 72
    30
 73
    26
 74
     0
 42
0.000000001
 43
0.0
 40
0.0
 40
0.0
 40
0.0
 40
0.0
 40
0.009940906749318
 40
0.029822720247953
 40
0.05963931202399
 40
0.089450625262444
 40
0.119253670116295
 40
0.134147269976105
 40
0.163285079738367
 40
0.199351279596821
 40
0.234796425563928
 40
0.250327231462773
 40
0.2649043001176811
 40
0.294151479193159
 40
0.319306233179485
 40
0.339243128184962
 40
0.3546899037394921
 40
0.3673688513733809
 40
0.38029257409912
 40
0.395969023715485
 40
0.4121234417288649
 40
0.428217880544951
 40
0.4599835522556719
 40
0.4914575411239641
 40
0.5
 40
0.5
 40
0.5
 40
0.5
 10
512.7185231667942
 20
559.0610236649017
 30
0.0
 10
512.6402801589868
 20
559.0610234762341
 30
0.0
 10
512.4055511355343
 20
559.0610238442725
 30
0.0
 10
511.9361413238648
 20
559.0610304946103
 30
0.0
 10
511.3103352910875
 20
559.0610539480131
 30
0.0
 10
510.606441096318
 20
559.0611026394274
 30
0.0
 10
510.0200030917963
 20
559.0611647803901
 30
0.0
 10
509.4388658839175
 20
559.0612616045472
 30
0.0
 10
508.8084343605949
 20
559.0614108164766
 30
0.0
 10
508.0162371622517
 20
559.0617027806082
 30
0.0
 10
507.3311699022111
 20
559.0622007508221
 30
0.0
 10
506.8151857397791
 20
559.0634528288662
 30
0.0
 10
506.3483368553899
 20
559.0694547220381
 30
0.0
 10
505.8062741226265
 20
559.0797351751971
 30
0.0
 10
505.2246009862326
 20
559.103308401903
 30
0.0
 10
504.7569417306495
 20
559.1439913929095
 30
0.0
 10
504.3984648143382
 20
559.2083199827252
 30
0.0
 10
504.1178502216599
 20
559.3077677570673
 30
0.0
 10
503.8667992271096
 20
559.4289401111396
 30
0.0
 10
503.6133537139251
 20
559.5332239383797
 30
0.0
 10
503.3720889598646
 20
559.6495560584495
 30
0.0
 10
503.0939301358749
 20
559.795072049094
 30
0.0
 10
502.8363501082283
 20
559.9468712245189
 30
0.0
 10
502.7289027548346
 20
560.013945041044
 30
0.0
 10
502.7186497585744
 20
560.0203328357989
 30
0.0
 10
502.718699234286
 20
560.0203047074099
 30
0.0
  0
LINE
  5
11A
330
D9
100
AcDbEntity
  8
0
  6
Continuous
 62
     0
370
     0
100
AcDbLine
 10
512.718523
 20
560.520455
 30
0.0
 11
522.718421
 21
560.520455
 31
0.0
  0
LINE
  5
11B
330
D9
100
AcDbEntity
  8
0
  6
Continuous
 62
     0
370
     0
100
AcDbLine
 10
512.718523
 20
559.061024
 30
0.0
 11
512.718523
 21
560.520455
 31
0.0
  0
LINE
  5
11C
330
D9
100
AcDbEntity
  8
0
  6
Continuous
 62
     0
370
    30
100
AcDbLine
 10
530.218519
 20
555.520455
 30
0.0
 11
530.218519
 21
512.520455
 31
0.0
  0
ARC
  5
11D
330
D9
100
AcDbEntity
  8
0
  6
Continuous
 62
     0
370
    30
100
AcDbCircle
 10
529.71854
 20
555.520531
 30
0.0
 40
0.4999240846504678
100
AcDbArc
 50
6.891148
 51
90.002359
  0
LINE
  5
11E
330
D9
100
AcDbEntity
  8
0
  6
Continuous
 62
     0
370
     0
100
AcDbLine
 10
529.718519
 20
512.020455
 30
0.0
 11
529.718519
 21
556.020455
 31
0.0
  0
ARC
  5
11F
330
D9
100
AcDbEntity
  8
0
  6
Continuous
 62
     0
370
    30
100
AcDbCircle
 10
529.718519
 20
512.520455
 30
0.0
 40
0.4999999999997744
100
AcDbArc
 50
270.0
 51
0.0
  0
LINE
  5
120
330
D9
100
AcDbEntity
  8
0
  6
Continuous
 62
     0
370
    30
100
AcDbLine
 10
493.718519
 20
556.020455
 30
0.0
 11
493.718519
 21
512.020455
 31
0.0
  0
LINE
  5
121
330
D9
100
AcDbEntity
  8
0
  6
Continuous
 62
     0
370
    30
100
AcDbLine
 10
493.718519
 20
556.020455
 30
0.0
 11
498.718519
 21
556.020455
 31
0.0
  0
LINE
  5
122
330
D9
100
AcDbEntity
  8
0
  6
Continuous
 62
     0
370
    30
100
AcDbLine
 10
526.71852
 20
556.020455
 30
0.0
 11
529.718519
 21
556.020455
 31
0.0
  0
LINE
  5
123
330
D9
100
AcDbEntity
  8
0
  6
Continuous
 62
     0
370
    30
100
AcDbLine
 10
529.718519
 20
512.020455
 30
0.0
 11
493.718519
 21
512.020455
 31
0.0
  0
ARC
  5
124
330
D9
100
AcDbEntity
  8
0
  6
Continuous
 62
     0
370
    30
100
AcDbCircle
 10
529.722107
 20
555.520288
 30
0.0
 40
0.4964123171364057
100
AcDbArc
 50
0.019279
 51
6.968376
  0
SPLINE
  5
125
330
D9
100
AcDbEntity
  8
0
  6
Continuous
 62
     0
370
    30
100
AcDbSpline
210
0.0
220
0.0
230
1.0
 70
     8
 71
     3
 72
    15
 73
    11
 74
     0
 42
0.000000001
 43
0.0
 40
0.0
 40
0.0
 40
0.0
 40
0.0
 40
0.1504677282005493
 40
0.2126277259178322
 40
0.2416586866306062
 40
0.2592320996359193
 40
0.2957598519796594
 40
0.3408584724359777
 40
0.3893904777319034
 40
0.5000951718331387
 40
0.5000951718331387
 40
0.5000951718331387
 40
0.5000951718331387
 10
522.7184255803969
 20
560.5204546800364
 30
0.0
 10
522.7184255803963
 20
560.4702988790433
 30
0.0
 10
522.7191727856758
 20
560.3993922461527
 30
0.0
 10
522.7192220441946
 20
560.3189073618198
 30
0.0
 10
522.720114200085
 20
560.2825723282465
 30
0.0
 10
522.7164765292296
 20
560.255066078265
 30
0.0
 10
522.7177045782597
 20
560.2219088681298
 30
0.0
 10
522.7176306813353
 20
560.1785598956417
 30
0.0
 10
522.7182928133365
 20
560.1104354971217
 30
0.0
 10
522.7184823591192
 20
560.0573628471964
 30
0.0
 10
522.7184821795464
 20
560.0204613389532
 30
0.0
  0
LINE
  5
126
330
D9
100
AcDbEntity
  8
0
  6
Continuous
 62
     0
370
    30
100
AcDbLine
 10
502.718613
 20
560.520455
 30
0.0
 11
502.718521
 21
560.020471
 31
0.0
  0
ARC
  5
127
330
D9
100
AcDbEntity
  8
0
  6
Continuous
 62
     0
370
    30
100
AcDbCircle
 10
522.218441
 20
560.52047
 30
0.0
 40
0.4999849786922349
100
AcDbArc
 50
359.998278
 51
89.994826
  0
SPLINE
  5
128
330
D9
100
AcDbEntity
  8
0
  6
Continuous
 62
     0
370
    30
100
AcDbSpline
210
0.0
220
0.0
230
1.0
 70
     8
 71
     3
 72
    15
 73
    11
 74
     0
 42
0.000000001
 43
0.0
 40
0.0
 40
0.0
 40
0.0
 40
0.0
 40
1.398774867943872
 40
2.203130872084135
 40
2.775552955967017
 40
3.393328985964645
 40
3.998251848271148
 40
4.568448813316257
 40
5.382794607330316
 40
6.845350926403124
 40
6.845350926403124
 40
6.845350926403124
 40
6.845350926403124
 10
498.7185191168061
 20
556.0204574704998
 30
0.0
 10
499.1846080971288
 20
556.0204568147044
 30
0.0
 10
499.9203818149251
 20
556.0188401180786
 30
0.0
 10
500.8387089257255
 20
556.1559295193506
 30
0.0
 10
501.468558081735
 20
556.3795076845113
 30
0.0
 10
501.968340499445
 20
556.7221508391665
 30
0.0
 10
502.3276050847684
 20
557.209193631813
 30
0.0
 10
502.5673790787049
 20
557.8317151777244
 30
0.0
 10
502.7206666896835
 20
558.7723087855378
 30
0.0
 10
502.7185217849269
 20
559.533044236252
 30
0.0
 10
502.7185206436952
 20
560.0203474197331
 30
0.0
  0
ARC
  5
129
330
D9
100
AcDbEntity
  8
0
  6
Continuous
 62
     0
370
    30
100
AcDbCircle
 10
503.218598
 20
560.52047
 30
0.0
 40
0.4999849797631644
100
AcDbArc
 50
90.005174
 51
180.001721
  0
SPLINE
  5
12A
330
D9
100
AcDbEntity
  8
0
  6
Continuous
 62
     0
370
    30
100
AcDbSpline
210
0.0
220
0.0
230
1.0
 70
     8
 71
     3
 72
    15
 73
    11
 74
     0
 42
0.000000001
 43
0.0
 40
0.0
 40
0.0
 40
0.0
 40
0.0
 40
1.398773168259289
 40
2.203128419630194
 40
2.775550197875934
 40
3.393326112001232
 40
3.998249022068909
 40
4.568446155266089
 40
5.382792600111805
 40
6.845458897484848
 40
6.845458897484848
 40
6.845458897484848
 40
6.845458897484848
 10
522.7185182522743
 20
560.0204554133586
 30
0.0
 10
522.7185171607302
 20
559.554366985279
 30
0.0
 10
522.7169004972643
 20
558.8185940252694
 30
0.0
 10
522.8539902471751
 20
557.9002678939793
 30
0.0
 10
523.0775686774721
 20
557.2704192438111
 30
0.0
 10
523.4202120684597
 20
556.7706371416331
 30
0.0
 10
523.9072551053052
 20
556.4113728306263
 30
0.0
 10
524.5297770552701
 20
556.1715990908625
 30
0.0
 10
525.4704073801786
 20
556.0183060506408
 30
0.0
 10
526.2311799628249
 20
556.0204567849105
 30
0.0
 10
526.7185197788912
 20
556.0204574704997
 30
0.0
  0
ENDBLK
  5
12C
330
D9
100
AcDbEntity
  8
0
100
AcDbBlockEnd
  0
BLOCK
  5
17F
330
12E
100
AcDbEntity
  8
0
100
AcDbBlockBegin
  2
d
 70
     0
 10
231.836655
 20
0.0
 30
0.0
  3
d
  1

  0
LINE
  5
12F
330
12E
100
AcDbEntity
  8
0
  6
Continuous
 62
     0
370
    30
100
AcDbLine
 10
137.533074
 20
412.520462
 30
0.0
 11
137.533074
 21
455.520462
 31
0.0
  0
ARC
  5
130
330
12E
100
AcDbEntity
  8
0
  6
Continuous
 62
     0
370
    30
100
AcDbCircle
 10
138.033074
 20
455.520462
 30
0.0
 40
0.5
100
AcDbArc
 50
90.0
 51
180.0
  0
LINE
  5
131
330
12E
100
AcDbEntity
  8
0
  6
Continuous
 62
     0
370
     0
100
AcDbLine
 10
138.033074
 20
456.020462
 30
0.0
 11
138.033074
 21
412.020462
 31
0.0
  0
LINE
  5
132
330
12E
100
AcDbEntity
  8
0
  6
Continuous
 62
     0
370
    30
100
AcDbLine
 10
138.033074
 20
456.020462
 30
0.0
 11
167.130554
 21
456.020462
 31
0.0
  0
LINE
  5
133
330
12E
100
AcDbEntity
  8
0
  6
Continuous
 62
     0
370
    30
100
AcDbLine
 10
172.533074
 20
412.020462
 30
0.0
 11
167.130554
 21
456.020462
 31
0.0
  0
SPLINE
  5
134
330
12E
100
AcDbEntity
  8
0
  6
Continuous
 62
     0
370
     0
100
AcDbSpline
210
0.0
220
0.0
230
1.0
 70
     8
 71
     3
 72
    16
 73
    12
 74
     0
 42
0.000000001
 43
0.0
 40
0.0
 40
0.0
 40
0.0
 40
0.0
 40
0.012862341856367
 40
0.038587025569102
 40
0.076579377573841
 40
0.113548371670055
 40
0.149281093126866
 40
0.183760906142992
 40
0.217185065915428
 40
0.249986682140313
 40
0.25
 40
0.25
 40
0.25
 40
0.25
 10
149.5330739137086
 20
413.5416162458786
 30
0.0
 10
149.7709689954529
 20
413.5416162458786
 30
0.0
 10
150.4846542416839
 20
413.5326539009827
 30
0.0
 10
151.8961116582511
 20
413.4621007873163
 30
0.0
 10
153.6826407313138
 20
413.2633872345083
 30
0.0
 10
155.483170704882
 20
412.9465719604742
 30
0.0
 10
156.9900057875238
 20
412.6004393647689
 30
0.0
 10
158.1391374150333
 20
412.2896757965398
 30
0.0
 10
158.8657730708104
 20
412.0727375845362
 30
0.0
 10
159.0330000921499
 20
412.0204497714467
 30
0.0
 10
159.0330028381327
 20
412.0204623153506
 30
0.0
 10
159.0330028256026
 20
412.0204623247099
 30
0.0
  0
SPLINE
  5
135
330
12E
100
AcDbEntity
  8
0
  6
Continuous
 62
     0
370
     0
100
AcDbSpline
210
0.0
220
0.0
230
1.0
 70
     8
 71
     3
 72
    16
 73
    12
 74
     0
 42
0.000000001
 43
0.0
 40
0.75
 40
0.75
 40
0.75
 40
0.75
 40
0.7500127339505892
 40
0.782814582987236
 40
0.816238661295926
 40
0.8507190442502409
 40
0.8864514980383691
 40
0.9234209400555681
 40
0.9614128873550503
 40
0.98713762911835
 40
1.0
 40
1.0
 40
1.0
 40
1.0
 10
140.0331340707681
 20
412.0204623238326
 30
0.0
 10
140.033134047873
 20
412.0204623151296
 30
0.0
 10
140.0331072217017
 20
412.0204499442717
 30
0.0
 10
140.2004135786328
 20
412.0727377768943
 30
0.0
 10
140.9270472744395
 20
412.2896689778083
 30
0.0
 10
142.076009023562
 20
412.6004679274434
 30
0.0
 10
143.5830179653491
 20
412.9465635662859
 30
0.0
 10
145.3835072597728
 20
413.2633823157367
 30
0.0
 10
147.1700394603567
 20
413.4621051020778
 30
0.0
 10
148.5814914403843
 20
413.532652285464
 30
0.0
 10
149.295178295128
 20
413.5416162458786
 30
0.0
 10
149.5330739137086
 20
413.5416162458786
 30
0.0
  0
SPLINE
  5
136
330
12E
100
AcDbEntity
  8
0
  6
Continuous
 62
     0
370
     0
100
AcDbSpline
210
0.0
220
0.0
230
1.0
 70
     8
 71
     3
 72
    16
 73
    12
 74
     0
 42
0.000000001
 43
0.0
 40
0.0
 40
0.0
 40
0.0
 40
0.0
 40
1.068560193507516
 40
2.072351073921696
 40
3.130089840269385
 40
4.130364675578837
 40
5.079504708163297
 40
6.237762921822862
 40
7.238456935165599
 40
8.326331444126666
 40
8.846013188205475
 40
8.846013188205475
 40
8.846013188205475
 40
8.846013188205475
 10
149.5330740246683
 20
409.8181896888691
 30
0.0
 10
149.8840294764547
 20
409.8181896888691
 30
0.0
 10
150.5646161102308
 20
409.7733115715313
 30
0.0
 10
151.5511574920024
 20
409.5862200063355
 30
0.0
 10
152.4433961935488
 20
409.3155638744248
 30
0.0
 10
153.2218157798049
 20
409.0026936585819
 30
0.0
 10
153.910288944427
 20
408.6720517066366
 30
0.0
 10
154.4545888650153
 20
408.3724187809813
 30
0.0
 10
154.8456367124994
 20
408.1383721570824
 30
0.0
 10
155.0085331580113
 20
408.0359112293306
 30
0.0
 10
155.0330397024611
 20
408.020517865629
 30
0.0
 10
155.0330372183728
 20
408.0205219097511
 30
0.0
  0
SPLINE
  5
137
330
12E
100
AcDbEntity
  8
0
  6
Continuous
 62
     0
370
     0
100
AcDbSpline
210
0.0
220
0.0
230
1.0
 70
     8
 71
     3
 72
    15
 73
    11
 74
     0
 42
0.000000001
 43
0.0
 40
26.53803956461643
 40
26.53803956461643
 40
26.53803956461643
 40
26.53803956461643
 40
27.16871338401652
 40
28.31273253598228
 40
29.37859724686671
 40
31.19752760448325
 40
32.25987092739348
 40
33.33606908008865
 40
34.30704597003017
 40
35.3840527528219
 40
35.3840527528219
 40
35.3840527528219
 40
35.3840527528219
 10
144.0331088714811
 20
408.0205174378705
 30
0.0
 10
144.0331157620411
 20
408.0205285334697
 30
0.0
 10
144.0659833890181
 20
408.0412090999758
 30
0.0
 10
144.2662033670125
 20
408.1667551445983
 30
0.0
 10
144.7942368716094
 20
408.4790571266411
 30
0.0
 10
145.5929441575893
 20
408.9002154147901
 30
0.0
 10
146.6143198367909
 20
409.313786707021
 30
0.0
 10
147.5218928879408
 20
409.5877669349526
 30
0.0
 10
148.5067679425771
 20
409.7734704822687
 30
0.0
 10
149.1793443945282
 20
409.8181896888691
 30
0.0
 10
149.5330740246683
 20
409.8181896888691
 30
0.0
  0
LINE
  5
138
330
12E
100
AcDbEntity
  8
0
  6
Continuous
 62
     0
370
     0
100
AcDbLine
 10
155.033074
 20
354.262053
 30
0.0
 11
149.533074
 21
354.262053
 31
0.0
  0
LINE
  5
139
330
12E
100
AcDbEntity
  8
0
  6
Continuous
 62
     0
370
     0
100
AcDbLine
 10
149.533074
 20
354.262053
 30
0.0
 11
144.033074
 21
354.262053
 31
0.0
  0
LINE
  5
13A
330
12E
100
AcDbEntity
  8
0
  6
Continuous
 62
     0
370
    30
100
AcDbLine
 10
149.533074
 20
354.012053
 30
0.0
 11
144.283074
 21
354.012053
 31
0.0
  0
LINE
  5
13B
330
12E
100
AcDbEntity
  8
0
  6
Continuous
 62
     0
370
    30
100
AcDbLine
 10
154.783074
 20
354.012053
 30
0.0
 11
149.533074
 21
354.012053
 31
0.0
  0
ARC
  5
13C
330
12E
100
AcDbEntity
  8
0
  6
Continuous
 62
     0
370
    30
100
AcDbCircle
 10
154.783061
 20
354.262066
 30
0.0
 40
0.2500129109495598
100
AcDbArc
 50
270.040778
 51
359.99705
  0
ARC
  5
13D
330
12E
100
AcDbEntity
  8
0
  6
Continuous
 62
     0
370
    30
100
AcDbCircle
 10
144.283087
 20
354.262066
 30
0.0
 40
0.250012910961008
100
AcDbArc
 50
180.00295
 51
269.959222
  0
LINE
  5
13E
330
12E
100
AcDbEntity
  8
0
  6
Continuous
 62
     0
370
    30
100
AcDbLine
 10
144.033074
 20
408.020276
 30
0.0
 11
144.033074
 21
354.262053
 31
0.0
  0
LINE
  5
13F
330
12E
100
AcDbEntity
  8
0
  6
Continuous
 62
     0
370
    30
100
AcDbLine
 10
155.033074
 20
408.020278
 30
0.0
 11
155.033074
 21
354.262053
 31
0.0
  0
ARC
  5
140
330
12E
100
AcDbEntity
  8
0
  6
Continuous
 62
     0
370
    30
100
AcDbCircle
 10
159.033041
 20
408.020521
 30
0.0
 40
4.000003973037787
100
AcDbArc
 50
90.000559
 51
179.99998
  0
ARC
  5
141
330
12E
100
AcDbEntity
  8
0
  6
Continuous
 62
     0
370
    30
100
AcDbCircle
 10
140.033109
 20
408.02051
 30
0.0
 40
3.999999410802442
100
AcDbArc
 50
0.000113
 51
89.999639
  0
LINE
  5
142
330
12E
100
AcDbEntity
  8
0
  6
Continuous
 62
     0
370
    30
100
AcDbLine
 10
172.533427
 20
412.020462
 30
0.0
 11
159.032992
 21
412.020462
 31
0.0
  0
LINE
  5
143
330
12E
100
AcDbEntity
  8
0
  6
Continuous
 62
     0
370
    30
100
AcDbLine
 10
140.033145
 20
412.020462
 30
0.0
 11
138.033074
 21
412.020462
 31
0.0
  0
ARC
  5
144
330
12E
100
AcDbEntity
  8
0
  6
Continuous
 62
     0
370
    30
100
AcDbCircle
 10
138.033077
 20
412.520465
 30
0.0
 40
0.5000026980525063
100
AcDbArc
 50
180.000309
 51
269.999692
  0
LINE
  5
145
330
12E
100
AcDbEntity
  8
0
  6
Continuous
 62
     0
370
    30
100
AcDbLine
 10
199.711662
 20
434.020462
 30
0.0
 11
199.711662
 21
474.020462
 31
0.0
  0
LINE
  5
146
330
12E
100
AcDbEntity
  8
0
  6
Continuous
 62
     0
370
    30
100
AcDbLine
 10
199.711662
 20
394.020462
 30
0.0
 11
199.711662
 21
434.020462
 31
0.0
  0
LINE
  5
147
330
12E
100
AcDbEntity
  8
0
  6
Continuous
 62
     0
370
    30
100
AcDbLine
 10
194.711662
 20
394.020462
 30
0.0
 11
194.711662
 21
434.020462
 31
0.0
  0
LINE
  5
148
330
12E
100
AcDbEntity
  8
0
  6
Continuous
 62
     0
370
    30
100
AcDbLine
 10
194.711662
 20
434.020462
 30
0.0
 11
194.711662
 21
474.020462
 31
0.0
  0
LINE
  5
149
330
12E
100
AcDbEntity
  8
0
  6
Continuous
 62
     0
370
    30
100
AcDbLine
 10
199.711662
 20
474.020462
 30
0.0
 11
194.711662
 21
474.020462
 31
0.0
  0
LINE
  5
14A
330
12E
100
AcDbEntity
  8
0
  6
Continuous
 62
     0
370
    30
100
AcDbLine
 10
199.711662
 20
394.020462
 30
0.0
 11
194.711662
 21
394.020462
 31
0.0
  0
LINE
  5
14B
330
12E
100
AcDbEntity
  8
0
  6
Continuous
 62
     0
370
    30
100
AcDbLine
 10
199.711662
 20
534.020462
 30
0.0
 11
199.711662
 21
574.020462
 31
0.0
  0
LINE
  5
14C
330
12E
100
AcDbEntity
  8
0
  6
Continuous
 62
     0
370
    30
100
AcDbLine
 10
199.711662
 20
494.020462
 30
0.0
 11
199.711662
 21
534.020462
 31
0.0
  0
LINE
  5
14D
330
12E
100
AcDbEntity
  8
0
  6
Continuous
 62
     0
370
    30
100
AcDbLine
 10
194.711662
 20
494.020462
 30
0.0
 11
194.711662
 21
534.020462
 31
0.0
  0
LINE
  5
14E
330
12E
100
AcDbEntity
  8
0
  6
Continuous
 62
     0
370
    30
100
AcDbLine
 10
194.711662
 20
534.020462
 30
0.0
 11
194.711662
 21
574.020462
 31
0.0
  0
LINE
  5
14F
330
12E
100
AcDbEntity
  8
0
  6
Continuous
 62
     0
370
    30
100
AcDbLine
 10
199.711662
 20
574.020462
 30
0.0
 11
194.711662
 21
574.020462
 31
0.0
  0
LINE
  5
150
330
12E
100
AcDbEntity
  8
0
  6
Continuous
 62
     0
370
    30
100
AcDbLine
 10
199.711662
 20
494.020462
 30
0.0
 11
194.711662
 21
494.020462
 31
0.0
  0
ARC
  5
151
330
12E
100
AcDbEntity
  8
0
  6
Continuous
 62
     0
370
    30
100
AcDbCircle
 10
175.333681
 20
433.910202
 30
0.0
 40
20.5017766936744
100
AcDbArc
 50
93.832547
 51
112.408834
  0
ARC
  5
152
330
12E
100
AcDbEntity
  8
0
  6
Continuous
 62
     0
370
    30
100
AcDbCircle
 10
175.334304
 20
434.129318
 30
0.0
 40
20.50906262989307
100
AcDbArc
 50
261.517588
 51
266.167071
  0
LINE
  5
153
330
12E
100
AcDbEntity
  8
0
  6
Continuous
 62
     0
370
     0
100
AcDbLine
 10
174.463328
 20
456.120462
 30
0.0
 11
174.463328
 21
452.934436
 31
0.0
  0
LINE
  5
154
330
12E
100
AcDbEntity
  8
0
  6
Continuous
 62
     0
370
     0
100
AcDbLine
 10
174.463328
 20
452.934436
 30
0.0
 11
174.463328
 21
411.920462
 31
0.0
  0
SPLINE
  5
155
330
12E
100
AcDbEntity
  8
0
  6
Continuous
 62
     0
370
    30
100
AcDbSpline
210
0.0
220
0.0
230
1.0
 70
     8
 71
     3
 72
    23
 73
    19
 74
     0
 42
0.000000001
 43
0.0
 40
0.1730802829015259
 40
0.1730802829015259
 40
0.1730802829015259
 40
0.1730802829015259
 40
0.214301705416648
 40
0.285698077116945
 40
0.321452432670866
 40
0.357207039445694
 40
0.4286034787566879
 40
0.4999999531846109
 40
0.571396437206516
 40
0.6427928713396059
 40
0.6785474638318919
 40
0.714301858909962
 40
0.785697975796127
 40
0.8570956046866351
 40
0.892846364748453
 40
0.9286006432793311
 40
0.9762002144264439
 40
1.0
 40
1.0
 40
1.0
 40
1.0
 10
173.9633278882316
 20
412.4206824918101
 30
0.0
 10
173.9633278476298
 20
412.4206824845916
 30
0.0
 10
173.9633277366224
 20
412.5853252263583
 30
0.0
 10
173.9633275923848
 20
413.3955629337843
 30
0.0
 10
173.9633274627897
 20
414.684771762319
 30
0.0
 10
173.9633273407292
 20
416.2971853954425
 30
0.0
 10
173.9633272036293
 20
418.8882834165661
 30
0.0
 10
173.9633270725628
 20
422.7538498881091
 30
0.0
 10
173.9633269855114
 20
427.1836959293326
 30
0.0
 10
173.9633269474829
 20
431.1657934313297
 30
0.0
 10
173.9633269411173
 20
434.3963477742172
 30
0.0
 10
173.9633269518791
 20
437.6206972351277
 30
0.0
 10
173.9633270005033
 20
441.5708341109913
 30
0.0
 10
173.9633270726566
 20
445.204092203064
 30
0.0
 10
173.9633271565733
 20
447.8080195775626
 30
0.0
 10
173.9633272388947
 20
449.7850945922153
 30
0.0
 10
173.963327339784
 20
451.3428117280233
 30
0.0
 10
173.963327377712
 20
452.2285632507576
 30
0.0
 10
173.963327397819
 20
452.5065178362737
 30
0.0
  0
LINE
  5
156
330
12E
100
AcDbEntity
  8
0
  6
Continuous
 62
     0
370
    30
100
AcDbLine
 10
173.963327
 20
452.506518
 30
0.0
 11
173.963328
 21
455.620199
 31
0.0
  0
ARC
  5
157
330
12E
100
AcDbEntity
  8
0
  6
Continuous
 62
     0
370
    30
100
AcDbCircle
 10
174.46333
 20
412.420508
 30
0.0
 40
0.5000021242750223
100
AcDbArc
 50
180.000745
 51
269.999758
  0
ARC
  5
158
330
12E
100
AcDbEntity
  8
0
  6
Continuous
 62
     0
370
    30
100
AcDbCircle
 10
174.46333
 20
455.620397
 30
0.0
 40
0.5000019195507511
100
AcDbArc
 50
90.000219
 51
180.000259
  0
LINE
  5
159
330
12E
100
AcDbEntity
  8
0
  6
Continuous
 62
     0
370
    30
100
AcDbLine
 10
194.711662
 20
456.120462
 30
0.0
 11
174.463328
 21
456.120462
 31
0.0
  0
LINE
  5
15A
330
12E
100
AcDbEntity
  8
0
  6
Continuous
 62
     0
370
    30
100
AcDbLine
 10
194.711662
 20
411.920462
 30
0.0
 11
174.463328
 21
411.920462
 31
0.0
  0
ARC
  5
15B
330
12E
100
AcDbEntity
  8
0
  6
Continuous
 62
     0
370
    30
100
AcDbCircle
 10
175.332786
 20
533.925104
 30
0.0
 40
20.49117033988111
100
AcDbArc
 50
93.832026
 51
95.775641
  0
ARC
  5
15C
330
12E
100
AcDbEntity
  8
0
  6
Continuous
 62
     0
370
    30
100
AcDbCircle
 10
175.332812
 20
534.116239
 30
0.0
 40
20.49159089499068
100
AcDbArc
 50
264.224405
 51
266.16798
  0
LINE
  5
15D
330
12E
100
AcDbEntity
  8
0
  6
Continuous
 62
     0
370
     0
100
AcDbLine
 10
174.463328
 20
552.934435
 30
0.0
 11
174.463328
 21
511.920462
 31
0.0
  0
LINE
  5
15E
330
12E
100
AcDbEntity
  8
0
  6
Continuous
 62
     0
370
     0
100
AcDbLine
 10
174.463328
 20
556.120462
 30
0.0
 11
174.463328
 21
552.934435
 31
0.0
  0
LINE
  5
15F
330
12E
100
AcDbEntity
  8
0
  6
Continuous
 62
     0
370
    30
100
AcDbLine
 10
173.963327
 20
552.506517
 30
0.0
 11
173.963328
 21
555.620242
 31
0.0
  0
SPLINE
  5
160
330
12E
100
AcDbEntity
  8
0
  6
Continuous
 62
     0
370
    30
100
AcDbSpline
210
0.0
220
0.0
230
1.0
 70
     8
 71
     3
 72
    23
 73
    19
 74
     0
 42
0.000000001
 43
0.0
 40
0.1730887241158597
 40
0.1730887241158597
 40
0.1730887241158597
 40
0.1730887241158597
 40
0.214302024203872
 40
0.28569814109004
 40
0.32145253616811
 40
0.3572071286603951
 40
0.4286035627934829
 40
0.500000046815391
 40
0.571396521243311
 40
0.6427929605543059
 40
0.678547567329135
 40
0.7143019228830579
 40
0.7856982945833519
 40
0.8570946810729272
 40
0.8928489706138691
 40
0.928603581897924
 40
0.9762011939659748
 40
1.0
 40
1.0
 40
1.0
 40
1.0
 10
173.9633278884171
 20
512.4207248098184
 30
0.0
 10
173.9633278487576
 20
512.4207248018574
 30
0.0
 10
173.963327740386
 20
512.5852871017208
 30
0.0
 10
173.9633275918619
 20
513.395582921112
 30
0.0
 10
173.9633274618604
 20
514.6847785422391
 30
0.0
 10
173.9633273402839
 20
516.2971888972675
 30
0.0
 10
173.963327204661
 20
518.8882756846449
 30
0.0
 10
173.9633270725628
 20
522.7538498517542
 30
0.0
 10
173.9633269844797
 20
527.183698367134
 30
0.0
 10
173.963326947928
 20
531.1657932262143
 30
0.0
 10
173.9633269420463
 20
534.3963458271675
 30
0.0
 10
173.9633269524012
 20
537.6207061568572
 30
0.0
 10
173.9633269958613
 20
541.5707742339905
 30
0.0
 10
173.9633270746738
 20
545.2041966793963
 30
0.0
 10
173.9633271583058
 20
547.8080755186922
 30
0.0
 10
173.9633272399966
 20
549.785109835252
 30
0.0
 10
173.9633273222801
 20
551.3429660550634
 30
0.0
 10
173.9633273777134
 20
552.2285500026511
 30
0.0
 10
173.963327397819
 20
552.5065172845767
 30
0.0
  0
ARC
  5
161
330
12E
100
AcDbEntity
  8
0
  6
Continuous
 62
     0
370
    30
100
AcDbCircle
 10
174.46333
 20
555.620416
 30
0.0
 40
0.500002124279767
100
AcDbArc
 50
90.000242
 51
179.999255
  0
ARC
  5
162
330
12E
100
AcDbEntity
  8
0
  6
Continuous
 62
     0
370
    30
100
AcDbCircle
 10
174.46333
 20
512.420527
 30
0.0
 40
0.5000019195469942
100
AcDbArc
 50
179.999741
 51
269.999781
  0
LINE
  5
163
330
12E
100
AcDbEntity
  8
0
  6
Continuous
 62
     0
370
    30
100
AcDbLine
 10
194.711662
 20
511.920462
 30
0.0
 11
174.463328
 21
511.920462
 31
0.0
  0
LINE
  5
164
330
12E
100
AcDbEntity
  8
0
  6
Continuous
 62
     0
370
    30
100
AcDbLine
 10
194.711662
 20
556.120462
 30
0.0
 11
174.463328
 21
556.120462
 31
0.0
  0
SPLINE
  5
165
330
12E
100
AcDbEntity
  8
0
  6
Continuous
 62
     0
370
     0
100
AcDbSpline
210
0.0
220
0.0
230
1.0
 70
     8
 71
     3
 72
    27
 73
    23
 74
     0
 42
0.000000001
 43
0.0
 40
0.0
 40
0.0
 40
0.0
 40
0.0
 40
0.00489101898383
 40
0.01467305695149
 40
0.029344522516592
 40
0.130804868978777
 40
0.20300416362224
 40
0.238235443233649
 40
0.252918929012151
 40
0.267991546180949
 40
0.29689429857149
 40
0.321595729545856
 40
0.340981145333616
 40
0.356077237702073
 40
0.368599351241699
 40
0.381755268723404
 40
0.3976240794390249
 40
0.41375491993186
 40
0.4298423264979371
 40
0.445822434507024
 40
0.4773860105230609
 40
0.5
 40
0.5
 40
0.5
 40
0.5
 10
154.2705470145695
 20
559.0610430068555
 30
0.0
 10
154.2320511867431
 20
559.061043113311
 30
0.0
 10
154.1165637032632
 20
559.0610434126463
 30
0.0
 10
153.8856012677182
 20
559.0610438444089
 30
0.0
 10
152.8945688114343
 20
559.0610550793872
 30
0.0
 10
151.4122714042355
 20
559.060980585147
 30
0.0
 10
149.7681404874477
 20
559.0618018290868
 30
0.0
 10
148.8070334041068
 20
559.0619365726909
 30
0.0
 10
148.2955327006459
 20
559.0641860439405
 30
0.0
 10
147.8342371254688
 20
559.0703746465124
 30
0.0
 10
147.2946881397636
 20
559.0815584004574
 30
0.0
 10
146.7239705825783
 20
559.1062453639596
 30
0.0
 10
146.2679069086196
 20
559.1494846423736
 30
0.0
 10
145.919226378452
 20
559.2163457351592
 30
0.0
 10
145.6441181642093
 20
559.3200579798153
 30
0.0
 10
145.3935095119287
 20
559.440138732969
 30
0.0
 10
145.1400597121893
 20
559.5442946884183
 30
0.0
 10
144.901410891269
 20
559.6612546121275
 30
0.0
 10
144.6953726431601
 20
559.7697258083023
 30
0.0
 10
144.4710707090793
 20
559.8968246900157
 30
0.0
 10
144.3088895175581
 20
559.9966919841131
 30
0.0
 10
144.271007815166
 20
560.02022653162
 30
0.0
 10
144.2708811199234
 20
560.0203008881009
 30
0.0
  0
SPLINE
  5
166
330
12E
100
AcDbEntity
  8
0
  6
Continuous
 62
     0
370
     0
100
AcDbSpline
210
0.0
220
0.0
230
1.0
 70
     8
 71
     3
 72
    46
 73
    42
 74
     0
 42
0.000000001
 43
0.0
 40
54.07493132926828
 40
54.07493132926828
 40
54.07493132926828
 40
54.07493132926828
 40
54.64777010274607
 40
55.22060868773226
 40
56.36628585770468
 40
57.14351471725879
 40
57.92074357681278
 40
58.48033458694287
 40
59.03992559707297
 40
59.42115476039949
 40
59.80238392372587
 40
60.13271457229696
 40
60.46304522086808
 40
60.86762939447237
 40
61.27221356807657
 40
61.62429508225927
 40
61.97637659644208
 40
62.29377048294897
 40
62.61116436945589
 40
62.94541347712128
 40
63.27966258478656
 40
63.94816080011735
 40
64.19939559141247
 40
64.45063038270766
 40
64.95309996529798
 40
65.31695571920265
 40
65.68081147310737
 40
65.76264651200675
 40
65.84448155090607
 40
65.92631658980548
 40
66.00815162870478
 40
66.1107321862113
 40
66.21331274371788
 40
66.31589330122436
 40
66.41847385873086
 40
66.75860258350377
 40
67.09873130827657
 40
67.52533594740427
 40
67.95194058653189
 40
70.025915815304
 40
72.09989104407599
 40
72.09989104407599
 40
72.09989104407599
 40
72.09989104407599
 10
140.2706910651487
 20
556.0204650998942
 30
0.0
 10
140.2706908396491
 20
556.020463838982
 30
0.0
 10
140.2863473886015
 20
556.0168812211524
 30
0.0
 10
140.3795294467539
 20
555.9957115151631
 30
0.0
 10
140.5805039811231
 20
555.9504231975769
 30
0.0
 10
140.9135931134559
 20
555.8788818238384
 30
0.0
 10
141.2439265645046
 20
555.8113543335937
 30
0.0
 10
141.5905646162995
 20
555.7443365184488
 30
0.0
 10
141.8964179726673
 20
555.6883495943936
 30
0.0
 10
142.1880245832796
 20
555.6378379990763
 30
0.0
 10
142.4431842612243
 20
555.5957717472116
 30
0.0
 10
142.6981827742847
 20
555.5557643518824
 30
0.0
 10
142.9699115048571
 20
555.5153802232808
 30
0.0
 10
143.2737534443333
 20
555.4733964677846
 30
0.0
 10
143.5981153849388
 20
555.4329028235895
 30
0.0
 10
143.9201035508005
 20
555.3970048929839
 30
0.0
 10
144.2263148788747
 20
555.366713902275
 30
0.0
 10
144.529544896195
 20
555.3402998558363
 30
0.0
 10
144.8332322667734
 20
555.3170435313473
 30
0.0
 10
145.1472927478753
 20
555.2962882983632
 30
0.0
 10
145.578892529872
 20
555.272075502115
 30
0.0
 10
145.9897493470883
 20
555.2547529883695
 30
0.0
 10
146.3760107708565
 20
555.2422479564364
 30
0.0
 10
146.7084671360329
 20
555.2330220401159
 30
0.0
 10
147.0793944848186
 20
555.2251568810027
 30
0.0
 10
147.4884974080787
 20
555.2187717898395
 30
0.0
 10
147.7579900757681
 20
555.2155927753603
 30
0.0
 10
147.933671327633
 20
555.213886445497
 30
0.0
 10
148.015442707282
 20
555.2131526805125
 30
0.0
 10
148.0972238979282
 20
555.2124780755915
 30
0.0
 10
148.1859249954857
 20
555.2118057502331
 30
0.0
 10
148.2815586466056
 20
555.2112370127377
 30
0.0
 10
148.3841220647631
 20
555.2108059031777
 30
0.0
 10
148.4866931514598
 20
555.210484154252
 30
0.0
 10
148.6684475751153
 20
555.2100715307633
 30
0.0
 10
148.9293894648914
 20
555.2097141921179
 30
0.0
 10
149.2983411170688
 20
555.2094179828869
 30
0.0
 10
149.6961193649653
 20
555.2091899848853
 30
0.0
 10
150.671846434013
 20
555.208862909127
 30
0.0
 10
152.1966981245562
 20
555.2086476630658
 30
0.0
 10
153.5793483458424
 20
555.2086477527631
 30
0.0
 10
154.270673452654
 20
555.2086459764821
 30
0.0
  0
LINE
  5
167
330
12E
100
AcDbEntity
  8
0
  6
Continuous
 62
     0
370
     0
100
AcDbLine
 10
154.270673
 20
555.208646
 30
0.0
 11
154.270547
 21
559.061043
 31
0.0
  0
LINE
  5
168
330
12E
100
AcDbEntity
  8
0
  6
Continuous
 62
     0
370
    30
100
AcDbLine
 10
144.770725
 20
561.020462
 30
0.0
 11
154.27069
 21
561.020462
 31
0.0
  0
LINE
  5
169
330
12E
100
AcDbEntity
  8
0
  6
Continuous
 62
     0
370
    30
100
AcDbLine
 10
154.27069
 20
561.020462
 30
0.0
 11
163.770658
 21
561.020462
 31
0.0
  0
LINE
  5
16A
330
12E
100
AcDbEntity
  8
0
  6
Continuous
 62
     0
370
     0
100
AcDbLine
 10
154.270681
 20
560.520462
 30
0.0
 11
164.270593
 21
560.520462
 31
0.0
  0
LINE
  5
16B
330
12E
100
AcDbEntity
  8
0
  6
Continuous
 62
     0
370
     0
100
AcDbLine
 10
154.27069
 20
561.020462
 30
0.0
 11
154.270681
 21
560.520462
 31
0.0
  0
SPLINE
  5
16C
330
12E
100
AcDbEntity
  8
0
  6
Continuous
 62
     0
370
     0
100
AcDbSpline
210
0.0
220
0.0
230
1.0
 70
     8
 71
     3
 72
    43
 73
    39
 74
     0
 42
0.000000001
 43
0.0
 40
0.0
 40
0.0
 40
0.0
 40
0.0
 40
4.147986162496681
 40
5.001195549916987
 40
5.341324193655389
 40
5.681452837393787
 40
5.780553237681194
 40
5.879653637968488
 40
5.93268399533149
 40
5.985714352694592
 40
6.038744710057594
 40
6.09177506742058
 40
6.173610106319785
 40
6.25544514521899
 40
6.419115223017388
 40
6.782970976922293
 40
7.146826730827094
 40
7.649296313417286
 40
7.900531104712388
 40
8.151765896007486
 40
8.820264111338087
 40
9.48876232666869
 40
9.806156213176585
 40
10.12355009968449
 40
10.47563161386478
 40
10.82771312804519
 40
11.23229730165028
 40
11.63688147525549
 40
11.96721212382749
 40
12.29754277239949
 40
12.67877193572559
 40
13.06000109905179
 40
14.17918311931219
 40
14.95641197886638
 40
15.73364083842059
 40
16.87931800839289
 40
17.45215659337909
 40
18.02499498929563
 40
18.02499498929563
 40
18.02499498929563
 40
18.02499498929563
 10
154.270673452654
 20
555.2086459764821
 30
0.0
 10
155.6533355679296
 20
555.2086424238896
 30
0.0
 10
157.3204008064404
 20
555.2086293575157
 30
0.0
 10
159.1008406288797
 20
555.2092953640988
 30
0.0
 10
159.6119928965218
 20
555.2097177501615
 30
0.0
 10
159.871777786689
 20
555.2100584706321
 30
0.0
 10
160.051208701199
 20
555.2104795702702
 30
0.0
 10
160.1349455577038
 20
555.210733437539
 30
0.0
 10
160.2033224698555
 20
555.2109986454369
 30
0.0
 10
160.2563424924343
 20
555.2112419128902
 30
0.0
 10
160.309357020993
 20
555.2115312560144
 30
0.0
 10
160.3719656287611
 20
555.2119302153958
 30
0.0
 10
160.4441572805721
 20
555.2124789814842
 30
0.0
 10
160.5532016279971
 20
555.2133762944172
 30
0.0
 10
160.7561471024637
 20
555.2152736058028
 30
0.0
 10
161.0528878174476
 20
555.2187714893695
 30
0.0
 10
161.4619885254368
 20
555.2251521502102
 30
0.0
 10
161.8329137072531
 20
555.2330241617426
 30
0.0
 10
162.1653734765957
 20
555.2422488364758
 30
0.0
 10
162.5516316936617
 20
555.2547518121369
 30
0.0
 10
163.0720033966275
 20
555.2766935177704
 30
0.0
 10
163.6034019537042
 20
555.3090234768106
 30
0.0
 10
164.0118329174356
 20
555.3402972590884
 30
0.0
 10
164.3150936992281
 20
555.3667349272886
 30
0.0
 10
164.6212756627664
 20
555.3970058960363
 30
0.0
 10
164.9432702378454
 20
555.432901866515
 30
0.0
 10
165.2676246574894
 20
555.4733974802817
 30
0.0
 10
165.5714750188447
 20
555.5153796081534
 30
0.0
 10
165.8431962464538
 20
555.5557643164084
 30
0.0
 10
166.098201267022
 20
555.5957727486879
 30
0.0
 10
166.3533542415578
 20
555.6378356057678
 30
0.0
 10
166.7684009872446
 20
555.7097371190363
 30
0.0
 10
167.2100137926348
 20
555.7934868746204
 30
0.0
 10
167.6277639500781
 20
555.8787337469385
 30
0.0
 10
167.9608775915039
 20
555.950470881075
 30
0.0
 10
168.1618557257992
 20
555.9956911746962
 30
0.0
 10
168.2550340586153
 20
556.0168887884167
 30
0.0
 10
168.2706914991655
 20
556.0204663602162
 30
0.0
 10
168.2706917272386
 20
556.0204650998943
 30
0.0
  0
SPLINE
  5
16D
330
12E
100
AcDbEntity
  8
0
  6
Continuous
 62
     0
370
     0
100
AcDbSpline
210
0.0
220
0.0
230
1.0
 70
     8
 71
     3
 72
    27
 73
    23
 74
     0
 42
0.000000001
 43
0.0
 40
0.5
 40
0.5
 40
0.5
 40
0.5
 40
0.522658865151603
 40
0.5542270357463001
 40
0.570210677260406
 40
0.5862912117241981
 40
0.602427963391874
 40
0.618285654954649
 40
0.631434124258046
 40
0.643966786016107
 40
0.65907431259761
 40
0.678479493641287
 40
0.7032125903828121
 40
0.73214264331097
 40
0.7471864848647332
 40
0.7619551278740679
 40
0.7971308537190192
 40
0.8693365627497821
 40
0.9706493059773752
 40
0.9853250808622439
 40
0.9951083602874151
 40
1.0
 40
1.0
 40
1.0
 40
1.0
 10
164.2705116097181
 20
560.0203123368044
 30
0.0
 10
164.2703803597918
 20
560.020237726276
 30
0.0
 10
164.2323792912319
 20
559.996624929173
 30
0.0
 10
164.069748005504
 20
559.896362460253
 30
0.0
 10
163.8454613257524
 20
559.7693891072173
 30
0.0
 10
163.6391305313451
 20
559.6607972613963
 30
0.0
 10
163.4004931121515
 20
559.5439511594334
 30
0.0
 10
163.1470099827196
 20
559.4397067850906
 30
0.0
 10
162.8963976390793
 20
559.3195730350036
 30
0.0
 10
162.6210001014886
 20
559.216073038465
 30
0.0
 10
162.2719774910544
 20
559.1492524881836
 30
0.0
 10
161.8153640984931
 20
559.106116401515
 30
0.0
 10
161.2440093389431
 20
559.081483875035
 30
0.0
 10
160.7042140209963
 20
559.0703483642571
 30
0.0
 10
160.2422481549632
 20
559.0641464770906
 30
0.0
 10
159.7307336629655
 20
559.0619500964856
 30
0.0
 10
158.7693320910146
 20
559.0617922246774
 30
0.0
 10
157.126729570669
 20
559.0609871212076
 30
0.0
 10
155.6454918186899
 20
559.0610464745528
 30
0.0
 10
154.6555655075735
 20
559.0610415355943
 30
0.0
 10
154.4245517201211
 20
559.0610424694112
 30
0.0
 10
154.3090481909576
 20
559.0610428775381
 30
0.0
 10
154.2705470145695
 20
559.061043006902
 30
0.0
  0
LINE
  5
16E
330
12E
100
AcDbEntity
  8
0
  6
Continuous
 62
     0
370
     0
100
AcDbLine
 10
144.27079
 20
560.520462
 30
0.0
 11
154.270681
 21
560.520462
 31
0.0
  0
LINE
  5
16F
330
12E
100
AcDbEntity
  8
0
  6
Continuous
 62
     0
370
     0
100
AcDbLine
 10
154.270681
 20
560.520462
 30
0.0
 11
154.270691
 21
559.061043
 31
0.0
  0
LINE
  5
170
330
12E
100
AcDbEntity
  8
0
  6
Continuous
 62
     0
370
    30
100
AcDbLine
 10
136.770691
 20
512.520462
 30
0.0
 11
136.770691
 21
555.520462
 31
0.0
  0
ARC
  5
171
330
12E
100
AcDbEntity
  8
0
  6
Continuous
 62
     0
370
    30
100
AcDbCircle
 10
137.270691
 20
555.520462
 30
0.0
 40
0.5000000000018829
100
AcDbArc
 50
90.0
 51
180.0
  0
ARC
  5
172
330
12E
100
AcDbEntity
  8
0
  6
Continuous
 62
     0
370
    30
100
AcDbCircle
 10
137.270671
 20
512.520386
 30
0.0
 40
0.4999240846509218
100
AcDbArc
 50
186.891148
 51
270.002359
  0
LINE
  5
173
330
12E
100
AcDbEntity
  8
0
  6
Continuous
 62
     0
370
     0
100
AcDbLine
 10
137.270691
 20
556.020462
 30
0.0
 11
137.270691
 21
512.020462
 31
0.0
  0
LINE
  5
174
330
12E
100
AcDbEntity
  8
0
  6
Continuous
 62
     0
370
    30
100
AcDbLine
 10
173.270691
 20
512.020462
 30
0.0
 11
173.270691
 21
556.020462
 31
0.0
  0
LINE
  5
175
330
12E
100
AcDbEntity
  8
0
  6
Continuous
 62
     0
370
    30
100
AcDbLine
 10
173.270691
 20
556.020462
 30
0.0
 11
168.270692
 21
556.020462
 31
0.0
  0
LINE
  5
176
330
12E
100
AcDbEntity
  8
0
  6
Continuous
 62
     0
370
    30
100
AcDbLine
 10
140.270691
 20
556.020462
 30
0.0
 11
137.270691
 21
556.020462
 31
0.0
  0
LINE
  5
177
330
12E
100
AcDbEntity
  8
0
  6
Continuous
 62
     0
370
    30
100
AcDbLine
 10
137.270691
 20
512.020462
 30
0.0
 11
173.270691
 21
512.020462
 31
0.0
  0
ARC
  5
178
330
12E
100
AcDbEntity
  8
0
  6
Continuous
 62
     0
370
    30
100
AcDbCircle
 10
137.267104
 20
512.520629
 30
0.0
 40
0.4964123177212635
100
AcDbArc
 50
180.019279
 51
186.968376
  0
SPLINE
  5
179
330
12E
100
AcDbEntity
  8
0
  6
Continuous
 62
     0
370
    30
100
AcDbSpline
210
0.0
220
0.0
230
1.0
 70
     8
 71
     3
 72
    15
 73
    11
 74
     0
 42
0.000000001
 43
0.0
 40
0.0
 40
0.0
 40
0.0
 40
0.0
 40
0.1504677282005493
 40
0.2126277259178322
 40
0.2416586866306062
 40
0.2592320996359193
 40
0.2957598519796594
 40
0.3408584724359777
 40
0.3893904777319034
 40
0.5000951718331387
 40
0.5000951718331387
 40
0.5000951718331387
 40
0.5000951718331387
 10
144.2707852636541
 20
560.5204623094309
 30
0.0
 10
144.2707852636547
 20
560.4703065084378
 30
0.0
 10
144.2700380583754
 20
560.3993998755473
 30
0.0
 10
144.2699887998567
 20
560.3189149912143
 30
0.0
 10
144.2690966439652
 20
560.282579957641
 30
0.0
 10
144.2727343148219
 20
560.2550737076596
 30
0.0
 10
144.2715062657923
 20
560.2219164975244
 30
0.0
 10
144.2715801627168
 20
560.1785675250362
 30
0.0
 10
144.2709180307159
 20
560.1104431265162
 30
0.0
 10
144.2707284849332
 20
560.0573704765909
 30
0.0
 10
144.2707286645062
 20
560.0204689683477
 30
0.0
  0
LINE
  5
17A
330
12E
100
AcDbEntity
  8
0
  6
Continuous
 62
     0
370
    30
100
AcDbLine
 10
164.270598
 20
560.520462
 30
0.0
 11
164.27069
 21
560.020479
 31
0.0
  0
ARC
  5
17B
330
12E
100
AcDbEntity
  8
0
  6
Continuous
 62
     0
370
    30
100
AcDbCircle
 10
144.77077
 20
560.520477
 30
0.0
 40
0.4999849786999654
100
AcDbArc
 50
90.005174
 51
180.001722
  0
SPLINE
  5
17C
330
12E
100
AcDbEntity
  8
0
  6
Continuous
 62
     0
370
    30
100
AcDbSpline
210
0.0
220
0.0
230
1.0
 70
     8
 71
     3
 72
    15
 73
    11
 74
     0
 42
0.000000001
 43
0.0
 40
0.0
 40
0.0
 40
0.0
 40
0.0
 40
1.398774867943872
 40
2.203130872084135
 40
2.775552955967017
 40
3.393328985964645
 40
3.998251848271148
 40
4.568448813316257
 40
5.382794607330316
 40
6.845350926403124
 40
6.845350926403124
 40
6.845350926403124
 40
6.845350926403124
 10
168.2706917272338
 20
556.0204650998943
 30
0.0
 10
167.8046027469148
 20
556.0204644440989
 30
0.0
 10
167.0688290291046
 20
556.0188477474732
 30
0.0
 10
166.1505019183177
 20
556.1559371487451
 30
0.0
 10
165.5206527623134
 20
556.3795153139058
 30
0.0
 10
165.0208703446063
 20
556.722158468561
 30
0.0
 10
164.6616057592844
 20
557.2092012612076
 30
0.0
 10
164.4218317653451
 20
557.8317228071189
 30
0.0
 10
164.2685441543659
 20
558.7723164149323
 30
0.0
 10
164.2706890591222
 20
559.5330518656465
 30
0.0
 10
164.2706902003519
 20
560.0203550491276
 30
0.0
  0
ARC
  5
17D
330
12E
100
AcDbEntity
  8
0
  6
Continuous
 62
     0
370
    30
100
AcDbCircle
 10
163.770613
 20
560.520477
 30
0.0
 40
0.4999849797699321
100
AcDbArc
 50
359.998279
 51
89.994826
  0
SPLINE
  5
17E
330
12E
100
AcDbEntity
  8
0
  6
Continuous
 62
     0
370
    30
100
AcDbSpline
210
0.0
220
0.0
230
1.0
 70
     8
 71
     3
 72
    15
 73
    11
 74
     0
 42
0.000000001
 43
0.0
 40
0.0
 40
0.0
 40
0.0
 40
0.0
 40
1.398773168259289
 40
2.203128419630194
 40
2.775550197875934
 40
3.393326112001232
 40
3.998249022068909
 40
4.568446155266089
 40
5.382792600111805
 40
6.845458897484848
 40
6.845458897484848
 40
6.845458897484848
 40
6.845458897484848
 10
144.2706925917594
 20
560.0204630427531
 30
0.0
 10
144.2706936833017
 20
559.5543746146735
 30
0.0
 10
144.2723103467661
 20
558.8186016546639
 30
0.0
 10
144.1352205968535
 20
557.9002755233738
 30
0.0
 10
143.9116421665572
 20
557.2704268732056
 30
0.0
 10
143.5689987755679
 20
556.7706447710276
 30
0.0
 10
143.0819557387227
 20
556.4113804600208
 30
0.0
 10
142.4594337887602
 20
556.171606720257
 30
0.0
 10
141.5188034638625
 20
556.0183136800354
 30
0.0
 10
140.7580308812123
 20
556.020464414305
 30
0.0
 10
140.2706910651487
 20
556.0204650998942
 30
0.0
  0
ENDBLK
  5
180
330
12E
100
AcDbEntity
  8
0
100
AcDbBlockEnd
  0
ENDSEC
  0
SECTION
  2
ENTITIES
  0
INSERT
  5
AC
330
1F
100
AcDbEntity
  8
0
  6
Continuous
 62
     7
370
     0
100
AcDbBlockReference
  2
a
 10
271.353516
 20
75.009453
 30
0.0
  0
INSERT
  5
D8
330
1F
100
AcDbEntity
  8
0
  6
Continuous
 62
     7
370
     0
100
AcDbBlockReference
  2
b
 10
271.353516
 20
212.726723
 30
0.0
  0
INSERT
  5
12D
330
1F
100
AcDbEntity
  8
0
  6
Continuous
 62
     7
370
     0
100
AcDbBlockReference
  2
c
 10
261.052856
 20
75.009453
 30
0.0
  0
INSERT
  5
181
330
1F
100
AcDbEntity
  8
0
  6
Continuous
 62
     7
370
     0
100
AcDbBlockReference
  2
d
 10
231.836655
 20
0.0
 30
0.0
  0
ENDSEC
  0
SECTION
  2
OBJECTS
  0
DICTIONARY
  5
C
330
0
100
AcDbDictionary
281
     1
  3
ACAD_GROUP
350
D
  3
ACAD_LAYOUT
350
1A
  3
ACAD_MATERIAL
350
43
  3
ACAD_MLEADERSTYLE
350
6B
  3
ACAD_MLINESTYLE
350
17
  3
ACAD_PLOTSETTINGS
350
19
  3
ACAD_PLOTSTYLENAME
350
E
  3
ACAD_SCALELIST
350
47
  3
ACAD_TABLESTYLE
350
69
  3
ACAD_VISUALSTYLE
350
2A
  3
AcDbVariableDictionary
350
182
  0
DICTIONARY
  5
18D
330
8
100
AcDbDictionary
280
     1
281
     1
  3
ACAD_XREC_ROUNDTRIP
360
18E
  0
DICTIONARY
  5
D
102
{ACAD_REACTORS
330
C
102
}
330
C
100
AcDbDictionary
281
     1
  0
DICTIONARY
  5
1A
102
{ACAD_REACTORS
330
C
102
}
330
C
100
AcDbDictionary
281
     1
  3
Layout1
350
1E
  3
Layout2
350
26
  3
Model
350
22
  0
DICTIONARY
  5
43
102
{ACAD_REACTORS
330
C
102
}
330
C
100
AcDbDictionary
281
     1
  3
ByBlock
350
45
  3
ByLayer
350
44
  3
Global
350
46
  0
DICTIONARY
  5
6B
102
{ACAD_REACTORS
330
C
102
}
330
C
100
AcDbDictionary
281
     1
  3
Standard
350
6C
  0
DICTIONARY
  5
17
102
{ACAD_REACTORS
330
C
102
}
330
C
100
AcDbDictionary
281
     1
  3
Standard
350
18
  0
DICTIONARY
  5
19
102
{ACAD_REACTORS
330
C
102
}
330
C
100
AcDbDictionary
281
     1
  0
ACDBDICTIONARYWDFLT
  5
E
102
{ACAD_REACTORS
330
C
102
}
330
C
100
AcDbDictionary
281
     1
  3
Normal
350
F
100
AcDbDictionaryWithDefault
340
F
  0
DICTIONARY
  5
47
102
{ACAD_REACTORS
330
C
102
}
330
C
100
AcDbDictionary
281
     1
  3
A0
350
48
  3
A1
350
49
  3
A2
350
4A
  3
A3
350
4B
  3
A4
350
4C
  3
A5
350
4D
  3
A6
350
4E
  3
A7
350
4F
  3
A8
350
50
  3
A9
350
51
  3
B0
350
52
  3
B1
350
53
  3
B2
350
54
  3
B3
350
55
  3
B4
350
56
  3
B5
350
57
  3
B6
350
58
  3
B7
350
59
  3
B8
350
5A
  3
B9
350
5B
  3
C0
350
5C
  3
C1
350
5D
  3
C2
350
5E
  3
C3
350
5F
  3
C4
350
60
  3
C5
350
61
  3
C6
350
62
  3
C7
350
63
  3
C8
350
64
  3
C9
350
65
  3
D0
350
66
  3
D1
350
67
  3
D2
350
68
  0
DICTIONARY
  5
69
102
{ACAD_REACTORS
330
C
102
}
330
C
100
AcDbDictionary
281
     1
  3
Standard
350
6A
  0
DICTIONARY
  5
2A
102
{ACAD_REACTORS
330
C
102
}
330
C
100
AcDbDictionary
281
     1
  3
2dWireframe
350
2F
  3
Basic
350
32
  3
Brighten
350
36
  3
ColorChange
350
3A
  3
Conceptual
350
34
  3
Dim
350
35
  3
EdgeColorOff
350
3D
  3
Facepattern
350
39
  3
Flat
350
2B
  3
FlatWithEdges
350
2C
  3
Gouraud
350
2D
  3
GouraudWithEdges
350
2E
  3
Hidden
350
31
  3
JitterOff
350
3B
  3
Linepattern
350
38
  3
OverhangOff
350
3C
  3
Realistic
350
33
  3
Shaded
350
42
  3
Shaded with edges
350
41
  3
Shades of Gray
350
3E
  3
Sketchy
350
3F
  3
Thicken
350
37
  3
Wireframe
350
30
  3
X-Ray
350
40
  0
DICTIONARY
  5
182
102
{ACAD_REACTORS
330
C
102
}
330
C
100
AcDbDictionary
281
     1
  3
CANNOSCALE
350
18F
  3
CENTEREXE
350
189
  3
CENTERLTYPEFILE
350
18A
  3
CMLEADERSTYLE
350
184
  3
CTABLESTYLE
350
183
  3
DIMASSOC
350
18B
  3
HIDETEXT
350
18C
  3
MSLTSCALE
350
190
  3
PSOLHEIGHT
350
186
  3
PSOLWIDTH
350
185
  0
XRECORD
  5
18E
102
{ACAD_REACTORS
330
18D
102
}
330
18D
100
AcDbXrecord
280
     1
102
VTR_0.000_0.000_1.000_1.000_VISUALSTYLE
340
2F
102
VTR_0.000_0.000_1.000_1.000_GRIDDISPLAY
 70
     3
102
VTR_0.000_0.000_1.000_1.000_GRIDMAJOR
 70
     5
102
VTR_0.000_0.000_1.000_1.000_DEFAULTLIGHTING
280
     1
102
VTR_0.000_0.000_1.000_1.000_DEFAULTLIGHTINGTYPE
 70
     1
102
VTR_0.000_0.000_1.000_1.000_BRIGHTNESS
141
0.0
102
VTR_0.000_0.000_1.000_1.000_CONTRAST
142
0.0
  0
LAYOUT
  5
1E
102
{ACAD_REACTORS
330
1A
102
}
330
1A
100
AcDbPlotSettings
  1

  2
none_device
  4

  6

 40
0.0
 41
0.0
 42
0.0
 43
0.0
 44
0.0
 45
0.0
 46
0.0
 47
0.0
 48
0.0
 49
0.0
140
0.0
141
0.0
142
1.0
143
1.0
 70
   688
 72
     1
 73
     0
 74
     5
  7

 75
    16
147
1.0
148
0.0
149
0.0
100
AcDbLayout
  1
Layout1
 70
     1
 71
     1
 10
0.0
 20
0.0
 11
420.0
 21
297.0
 12
0.0
 22
0.0
 32
0.0
 14
1.000000E+20
 24
1.000000E+20
 34
1.000000E+20
 15
-1.000000E+20
 25
-1.000000E+20
 35
-1.000000E+20
146
0.0
 13
0.0
 23
0.0
 33
0.0
 16
1.0
 26
0.0
 36
0.0
 17
0.0
 27
1.0
 37
0.0
 76
     0
330
1B
  0
LAYOUT
  5
26
102
{ACAD_REACTORS
330
1A
102
}
330
1A
100
AcDbPlotSettings
  1

  2
none_device
  4

  6

 40
0.0
 41
0.0
 42
0.0
 43
0.0
 44
0.0
 45
0.0
 46
0.0
 47
0.0
 48
0.0
 49
0.0
140
0.0
141
0.0
142
1.0
143
1.0
 70
   688
 72
     1
 73
     0
 74
     5
  7

 75
    16
147
1.0
148
0.0
149
0.0
100
AcDbLayout
  1
Layout2
 70
     1
 71
     2
 10
0.0
 20
0.0
 11
0.0
 21
0.0
 12
0.0
 22
0.0
 32
0.0
 14
0.0
 24
0.0
 34
0.0
 15
0.0
 25
0.0
 35
0.0
146
0.0
 13
0.0
 23
0.0
 33
0.0
 16
1.0
 26
0.0
 36
0.0
 17
0.0
 27
1.0
 37
0.0
 76
     0
330
23
  0
LAYOUT
  5
22
102
{ACAD_REACTORS
330
1A
102
}
330
1A
100
AcDbPlotSettings
  1

  2
none_device
  4
Letter_(8.50_x_11.00_Inches)
  6

 40
6.35
 41
6.35
 42
6.350005
 43
6.350005
 44
215.9
 45
279.4
 46
0.0
 47
0.0
 48
0.0
 49
0.0
140
0.0
141
0.0
142
1.0
143
1.0
 70
  1712
 72
     1
 73
     0
 74
     0
  7

 75
     0
147
1.0
148
0.0
149
0.0
100
AcDbLayout
  1
Model
 70
     1
 71
     0
 10
136.770691
 20
202.505951
 11
530.218506
 21
574.020447
 12
0.0
 22
0.0
 32
0.0
 14
136.770691
 24
202.505951
 34
0.0
 15
530.218506
 25
574.020447
 35
0.0
146
0.0
 13
0.0
 23
0.0
 33
0.0
 16
1.0
 26
0.0
 36
0.0
 17
0.0
 27
1.0
 37
0.0
 76
     0
330
1F
331
29
  0
MATERIAL
  5
45
102
{ACAD_REACTORS
330
43
102
}
102
{ACAD_XDICTIONARY
360
1C3
102
}
330
43
100
AcDbMaterial
  1
ByBlock
  0
MATERIAL
  5
44
102
{ACAD_REACTORS
330
43
102
}
102
{ACAD_XDICTIONARY
360
1C1
102
}
330
43
100
AcDbMaterial
  1
ByLayer
  0
MATERIAL
  5
46
102
{ACAD_REACTORS
330
43
102
}
102
{ACAD_XDICTIONARY
360
1C5
102
}
330
43
100
AcDbMaterial
  1
Global
  0
MLEADERSTYLE
  5
6C
102
{ACAD_REACTORS
330
6B
102
}
102
{ACAD_XDICTIONARY
360
1C8
102
}
330
6B
100
AcDbMLeaderStyle
170
     2
171
     1
172
     0
 90
        2
 40
0.0
 41
0.0
173
     1
 91
-1056964608
340
14
 92
       -2
290
     1
 42
2.0
291
     1
 43
8.0
  3
Standard
341
0
 44
4.0
300

342
11
174
     1
178
     6
175
     1
176
     0
 93
-1056964608
 45
4.0
292
     0
297
     0
 46
4.0
343
0
 94
-1056964608
 47
1.0
 49
1.0
140
1.0
293
     1
141
0.0
294
     1
177
     0
142
1.0
295
     0
296
     0
143
3.75
1001
ACAD_MLEADERVER
1070
     2
  0
MLINESTYLE
  5
18
102
{ACAD_REACTORS
330
17
102
}
330
17
100
AcDbMlineStyle
  2
Standard
 70
     0
  3

 62
   256
 51
90.0
 52
90.0
 71
     2
 49
0.5
 62
   256
  6
BYLAYER
 49
-0.5
 62
   256
  6
BYLAYER
  0
ACDBPLACEHOLDER
  5
F
102
{ACAD_REACTORS
330
E
102
}
330
E
  0
SCALE
  5
48
102
{ACAD_REACTORS
330
47
102
}
330
47
100
AcDbScale
 70
     0
300
1:1
140
1.0
141
1.0
290
     1
  0
SCALE
  5
49
102
{ACAD_REACTORS
330
47
102
}
330
47
100
AcDbScale
 70
     0
300
1:2
140
1.0
141
2.0
290
     0
  0
SCALE
  5
4A
102
{ACAD_REACTORS
330
47
102
}
330
47
100
AcDbScale
 70
     0
300
1:4
140
1.0
141
4.0
290
     0
  0
SCALE
  5
4B
102
{ACAD_REACTORS
330
47
102
}
330
47
100
AcDbScale
 70
     0
300
1:5
140
1.0
141
5.0
290
     0
  0
SCALE
  5
4C
102
{ACAD_REACTORS
330
47
102
}
330
47
100
AcDbScale
 70
     0
300
1:8
140
1.0
141
8.0
290
     0
  0
SCALE
  5
4D
102
{ACAD_REACTORS
330
47
102
}
330
47
100
AcDbScale
 70
     0
300
1:10
140
1.0
141
10.0
290
     0
  0
SCALE
  5
4E
102
{ACAD_REACTORS
330
47
102
}
330
47
100
AcDbScale
 70
     0
300
1:16
140
1.0
141
16.0
290
     0
  0
SCALE
  5
4F
102
{ACAD_REACTORS
330
47
102
}
330
47
100
AcDbScale
 70
     0
300
1:20
140
1.0
141
20.0
290
     0
  0
SCALE
  5
50
102
{ACAD_REACTORS
330
47
102
}
330
47
100
AcDbScale
 70
     0
300
1:30
140
1.0
141
30.0
290
     0
  0
SCALE
  5
51
102
{ACAD_REACTORS
330
47
102
}
330
47
100
AcDbScale
 70
     0
300
1:40
140
1.0
141
40.0
290
     0
  0
SCALE
  5
52
102
{ACAD_REACTORS
330
47
102
}
330
47
100
AcDbScale
 70
     0
300
1:50
140
1.0
141
50.0
290
     0
  0
SCALE
  5
53
102
{ACAD_REACTORS
330
47
102
}
330
47
100
AcDbScale
 70
     0
300
1:100
140
1.0
141
100.0
290
     0
  0
SCALE
  5
54
102
{ACAD_REACTORS
330
47
102
}
330
47
100
AcDbScale
 70
     0
300
2:1
140
2.0
141
1.0
290
     0
  0
SCALE
  5
55
102
{ACAD_REACTORS
330
47
102
}
330
47
100
AcDbScale
 70
     0
300
4:1
140
4.0
141
1.0
290
     0
  0
SCALE
  5
56
102
{ACAD_REACTORS
330
47
102
}
330
47
100
AcDbScale
 70
     0
300
8:1
140
8.0
141
1.0
290
     0
  0
SCALE
  5
57
102
{ACAD_REACTORS
330
47
102
}
330
47
100
AcDbScale
 70
     0
300
10:1
140
10.0
141
1.0
290
     0
  0
SCALE
  5
58
102
{ACAD_REACTORS
330
47
102
}
330
47
100
AcDbScale
 70
     0
300
100:1
140
100.0
141
1.0
290
     0
  0
SCALE
  5
59
102
{ACAD_REACTORS
330
47
102
}
330
47
100
AcDbScale
 70
     0
300
1/128" = 1'-0"
140
0.007812
141
12.0
290
     0
  0
SCALE
  5
5A
102
{ACAD_REACTORS
330
47
102
}
330
47
100
AcDbScale
 70
     0
300
1/64" = 1'-0"
140
0.015625
141
12.0
290
     0
  0
SCALE
  5
5B
102
{ACAD_REACTORS
330
47
102
}
330
47
100
AcDbScale
 70
     0
300
1/32" = 1'-0"
140
0.03125
141
12.0
290
     0
  0
SCALE
  5
5C
102
{ACAD_REACTORS
330
47
102
}
330
47
100
AcDbScale
 70
     0
300
1/16" = 1'-0"
140
0.0625
141
12.0
290
     0
  0
SCALE
  5
5D
102
{ACAD_REACTORS
330
47
102
}
330
47
100
AcDbScale
 70
     0
300
3/32" = 1'-0"
140
0.09375
141
12.0
290
     0
  0
SCALE
  5
5E
102
{ACAD_REACTORS
330
47
102
}
330
47
100
AcDbScale
 70
     0
300
1/8" = 1'-0"
140
0.125
141
12.0
290
     0
  0
SCALE
  5
5F
102
{ACAD_REACTORS
330
47
102
}
330
47
100
AcDbScale
 70
     0
300
3/16" = 1'-0"
140
0.1875
141
12.0
290
     0
  0
SCALE
  5
60
102
{ACAD_REACTORS
330
47
102
}
330
47
100
AcDbScale
 70
     0
300
1/4" = 1'-0"
140
0.25
141
12.0
290
     0
  0
SCALE
  5
61
102
{ACAD_REACTORS
330
47
102
}
330
47
100
AcDbScale
 70
     0
300
3/8" = 1'-0"
140
0.375
141
12.0
290
     0
  0
SCALE
  5
62
102
{ACAD_REACTORS
330
47
102
}
330
47
100
AcDbScale
 70
     0
300
1/2" = 1'-0"
140
0.5
141
12.0
290
     0
  0
SCALE
  5
63
102
{ACAD_REACTORS
330
47
102
}
330
47
100
AcDbScale
 70
     0
300
3/4" = 1'-0"
140
0.75
141
12.0
290
     0
  0
SCALE
  5
64
102
{ACAD_REACTORS
330
47
102
}
330
47
100
AcDbScale
 70
     0
300
1" = 1'-0"
140
1.0
141
12.0
290
     0
  0
SCALE
  5
65
102
{ACAD_REACTORS
330
47
102
}
330
47
100
AcDbScale
 70
     0
300
1-1/2" = 1'-0"
140
1.5
141
12.0
290
     0
  0
SCALE
  5
66
102
{ACAD_REACTORS
330
47
102
}
330
47
100
AcDbScale
 70
     0
300
3" = 1'-0"
140
3.0
141
12.0
290
     0
  0
SCALE
  5
67
102
{ACAD_REACTORS
330
47
102
}
330
47
100
AcDbScale
 70
     0
300
6" = 1'-0"
140
6.0
141
12.0
290
     0
  0
SCALE
  5
68
102
{ACAD_REACTORS
330
47
102
}
330
47
100
AcDbScale
 70
     0
300
1'-0" = 1'-0"
140
12.0
141
12.0
290
     0
  0
TABLESTYLE
  5
6A
102
{ACAD_REACTORS
330
69
102
}
330
69
100
AcDbTableStyle
  3
Standard
 70
     0
 71
     0
 40
1.5
 41
1.5
280
     0
281
     0
  7
Standard
140
4.5
170
     2
 62
     0
 63
   257
283
     0
274
    -2
284
     1
 64
     0
275
    -2
285
     1
 65
     0
276
    -2
286
     1
 66
     0
277
    -2
287
     1
 67
     0
278
    -2
288
     1
 68
     0
279
    -2
289
     1
 69
     0
  7
Standard
140
6.0
170
     5
 62
     0
 63
   257
283
     0
274
    -2
284
     1
 64
     0
275
    -2
285
     1
 65
     0
276
    -2
286
     1
 66
     0
277
    -2
287
     1
 67
     0
278
    -2
288
     1
 68
     0
279
    -2
289
     1
 69
     0
  7
Standard
140
4.5
170
     5
 62
     0
 63
   257
283
     0
274
    -2
284
     1
 64
     0
275
    -2
285
     1
 65
     0
276
    -2
286
     1
 66
     0
277
    -2
287
     1
 67
     0
278
    -2
288
     1
 68
     0
279
    -2
289
     1
 69
     0
  0
VISUALSTYLE
  5
2F
102
{ACAD_REACTORS
330
2A
102
}
102
{ACAD_XDICTIONARY
360
199
102
}
330
2A
100
AcDbVisualStyle
  2
2dWireframe
 70
     4
 71
     0
 72
     2
 73
     0
 90
        0
 40
0.6
 41
30.0
 62
     5
 63
     7
 74
     1
 91
        4
 64
     7
 65
   257
 75
     1
175
     1
 42
1.0
 92
        0
 66
   257
 43
1.0
 76
     1
 77
     6
 78
     2
 67
     7
 79
     5
170
     0
171
     0
290
     0
174
     0
 93
        1
 44
0.0
173
     0
291
     0
 45
0.0
1001
ACAD
1000
AcDbSavedByObjectVersion
1070
     0
  0
VISUALSTYLE
  5
32
102
{ACAD_REACTORS
330
2A
102
}
102
{ACAD_XDICTIONARY
360
19F
102
}
330
2A
100
AcDbVisualStyle
  2
Basic
 70
     7
 71
     1
 72
     0
 73
     1
 90
        0
 40
0.6
 41
30.0
 62
     5
 63
     7
 74
     0
 91
        4
 64
     7
 65
   257
 75
     1
175
     1
 42
1.0
 92
        8
 66
     7
 43
1.0
 76
     1
 77
     6
 78
     2
 67
     7
 79
     5
170
     0
171
     0
290
     0
174
     0
 93
        1
 44
0.0
173
     0
291
     1
 45
0.0
1001
ACAD
1000
AcDbSavedByObjectVersion
1070
     0
  0
VISUALSTYLE
  5
36
102
{ACAD_REACTORS
330
2A
102
}
102
{ACAD_XDICTIONARY
360
1A7
102
}
330
2A
100
AcDbVisualStyle
  2
Brighten
 70
    12
 71
     2
 72
     2
 73
     0
 90
        0
 40
0.6
 41
30.0
 62
     5
 63
     7
 74
     1
 91
        4
 64
     7
 65
   257
 75
     1
175
     1
 42
1.0
 92
        8
 66
     7
 43
1.0
 76
     1
 77
     6
 78
     2
 67
     7
 79
     5
170
     0
171
     0
290
     0
174
     0
 93
        1
 44
50.0
173
     0
291
     1
 45
0.0
1001
ACAD
1000
AcDbSavedByObjectVersion
1070
     0
  0
VISUALSTYLE
  5
3A
102
{ACAD_REACTORS
330
2A
102
}
102
{ACAD_XDICTIONARY
360
1AF
102
}
330
2A
100
AcDbVisualStyle
  2
ColorChange
 70
    16
 71
     2
 72
     2
 73
     3
 90
        0
 40
0.6
 41
30.0
 62
     5
 63
     8
 74
     1
 91
        4
 64
     7
 65
   257
 75
     1
175
     1
 42
1.0
 92
        8
 66
     8
 43
1.0
 76
     1
 77
     6
 78
     2
 67
     7
 79
     5
170
     0
171
     0
290
     0
174
     0
 93
        1
 44
0.0
173
     0
291
     1
 45
0.0
1001
ACAD
1000
AcDbSavedByObjectVersion
1070
     0
  0
VISUALSTYLE
  5
34
102
{ACAD_REACTORS
330
2A
102
}
102
{ACAD_XDICTIONARY
360
1A3
102
}
330
2A
100
AcDbVisualStyle
  2
Conceptual
 70
     9
 71
     3
 72
     2
 73
     0
 90
        0
 40
0.6
 41
30.0
 62
     5
 63
     7
 74
     2
 91
        2
 64
     7
 65
   257
 75
     1
175
     1
 42
179.0
 92
        8
 66
     7
 43
1.0
 76
     1
 77
     6
 78
     2
 67
     7
 79
     3
170
     0
171
     0
290
     0
174
     0
 93
        1
 44
0.0
173
     0
291
     0
 45
0.0
1001
ACAD
1000
AcDbSavedByObjectVersion
1070
     0
  0
VISUALSTYLE
  5
35
102
{ACAD_REACTORS
330
2A
102
}
102
{ACAD_XDICTIONARY
360
1A5
102
}
330
2A
100
AcDbVisualStyle
  2
Dim
 70
    11
 71
     2
 72
     2
 73
     0
 90
        0
 40
0.6
 41
30.0
 62
     5
 63
     7
 74
     1
 91
        4
 64
     7
 65
   257
 75
     1
175
     1
 42
1.0
 92
        8
 66
     7
 43
1.0
 76
     1
 77
     6
 78
     2
 67
     7
 79
     5
170
     0
171
     0
290
     0
174
     0
 93
        1
 44
-50.0
173
     0
291
     1
 45
0.0
1001
ACAD
1000
AcDbSavedByObjectVersion
1070
     0
  0
VISUALSTYLE
  5
3D
102
{ACAD_REACTORS
330
2A
102
}
102
{ACAD_XDICTIONARY
360
1B5
102
}
330
2A
100
AcDbVisualStyle
  2
EdgeColorOff
 70
    22
 71
     2
 72
     2
 73
     0
 90
        0
 40
0.6
 41
30.0
 62
     5
 63
     7
 74
     1
 91
        4
 64
     7
 65
   257
 75
     1
175
     1
 42
1.0
 92
        8
 66
     7
 43
1.0
 76
     1
 77
     6
 78
     2
 67
     7
 79
     5
170
     0
171
     0
290
     0
174
     0
 93
        1
 44
0.0
173
     0
291
     1
 45
0.0
1001
ACAD
1000
AcDbSavedByObjectVersion
1070
     0
  0
VISUALSTYLE
  5
39
102
{ACAD_REACTORS
330
2A
102
}
102
{ACAD_XDICTIONARY
360
1AD
102
}
330
2A
100
AcDbVisualStyle
  2
Facepattern
 70
    15
 71
     2
 72
     2
 73
     0
 90
        0
 40
0.6
 41
30.0
 62
     5
 63
     7
 74
     1
 91
        4
 64
     7
 65
   257
 75
     1
175
     1
 42
1.0
 92
        8
 66
     7
 43
1.0
 76
     1
 77
     6
 78
     2
 67
     7
 79
     5
170
     0
171
     0
290
     0
174
     0
 93
        1
 44
0.0
173
     0
291
     1
 45
0.0
1001
ACAD
1000
AcDbSavedByObjectVersion
1070
     0
  0
VISUALSTYLE
  5
2B
102
{ACAD_REACTORS
330
2A
102
}
102
{ACAD_XDICTIONARY
360
191
102
}
330
2A
100
AcDbVisualStyle
  2
Flat
 70
     0
 71
     2
 72
     1
 73
     1
 90
        2
 40
0.6
 41
30.0
 62
     5
 63
     7
 74
     0
 91
        0
 64
     7
 65
   257
 75
     1
175
     1
 42
1.0
 92
        8
 66
     7
 43
1.0
 76
     1
 77
     6
 78
     2
 67
     7
 79
     5
170
     0
171
     0
290
     0
174
     0
 93
       13
 44
0.0
173
     0
291
     1
 45
0.0
1001
ACAD
1000
AcDbSavedByObjectVersion
1070
     0
  0
VISUALSTYLE
  5
2C
102
{ACAD_REACTORS
330
2A
102
}
102
{ACAD_XDICTIONARY
360
193
102
}
330
2A
100
AcDbVisualStyle
  2
FlatWithEdges
 70
     1
 71
     2
 72
     1
 73
     1
 90
        2
 40
0.6
 41
30.0
 62
     5
 63
     7
 74
     1
 91
        0
 64
     7
 65
   257
 75
     1
175
     1
 42
1.0
 92
        0
 66
   257
 43
1.0
 76
     1
 77
     6
 78
     2
 67
     7
 79
     5
170
     0
171
     0
290
     0
174
     0
 93
       13
 44
0.0
173
     0
291
     1
 45
0.0
1001
ACAD
1000
AcDbSavedByObjectVersion
1070
     0
  0
VISUALSTYLE
  5
2D
102
{ACAD_REACTORS
330
2A
102
}
102
{ACAD_XDICTIONARY
360
195
102
}
330
2A
100
AcDbVisualStyle
  2
Gouraud
 70
     2
 71
     2
 72
     2
 73
     1
 90
        2
 40
0.6
 41
30.0
 62
     5
 63
     7
 74
     0
 91
        0
 64
     7
 65
   257
 75
     1
175
     1
 42
1.0
 92
        0
 66
     7
 43
1.0
 76
     1
 77
     6
 78
     2
 67
     7
 79
     5
170
     0
171
     0
290
     0
174
     0
 93
       13
 44
0.0
173
     0
291
     1
 45
0.0
1001
ACAD
1000
AcDbSavedByObjectVersion
1070
     0
  0
VISUALSTYLE
  5
2E
102
{ACAD_REACTORS
330
2A
102
}
102
{ACAD_XDICTIONARY
360
197
102
}
330
2A
100
AcDbVisualStyle
  2
GouraudWithEdges
 70
     3
 71
     2
 72
     2
 73
     1
 90
        2
 40
0.6
 41
30.0
 62
     5
 63
     7
 74
     1
 91
        0
 64
     7
 65
   257
 75
     1
175
     1
 42
1.0
 92
        0
 66
   257
 43
1.0
 76
     1
 77
     6
 78
     2
 67
     7
 79
     5
170
     0
171
     0
290
     0
174
     0
 93
       13
 44
0.0
173
     0
291
     1
 45
0.0
1001
ACAD
1000
AcDbSavedByObjectVersion
1070
     0
  0
VISUALSTYLE
  5
31
102
{ACAD_REACTORS
330
2A
102
}
102
{ACAD_XDICTIONARY
360
19D
102
}
330
2A
100
AcDbVisualStyle
  2
Hidden
 70
     6
 71
     1
 72
     2
 73
     2
 90
        0
 40
0.6
 41
30.0
 62
     5
 63
     7
 74
     2
 91
        2
 64
     7
 65
   257
 75
     2
175
     1
 42
40.0
 92
        0
 66
   257
 43
1.0
 76
     1
 77
     6
 78
     2
 67
     7
 79
     3
170
     0
171
     0
290
     0
174
     0
 93
        1
 44
0.0
173
     0
291
     0
 45
0.0
1001
ACAD
1000
AcDbSavedByObjectVersion
1070
     0
  0
VISUALSTYLE
  5
3B
102
{ACAD_REACTORS
330
2A
102
}
102
{ACAD_XDICTIONARY
360
1B1
102
}
330
2A
100
AcDbVisualStyle
  2
JitterOff
 70
    20
 71
     2
 72
     2
 73
     0
 90
        0
 40
0.6
 41
30.0
 62
     5
 63
     7
 74
     1
 91
        4
 64
     7
 65
   257
 75
     1
175
     1
 42
1.0
 92
       10
 66
     7
 43
1.0
 76
     1
 77
     6
 78
     2
 67
     7
 79
     5
170
     0
171
     0
290
     0
174
     0
 93
        1
 44
0.0
173
     0
291
     1
 45
0.0
1001
ACAD
1000
AcDbSavedByObjectVersion
1070
     0
  0
VISUALSTYLE
  5
38
102
{ACAD_REACTORS
330
2A
102
}
102
{ACAD_XDICTIONARY
360
1AB
102
}
330
2A
100
AcDbVisualStyle
  2
Linepattern
 70
    14
 71
     2
 72
     2
 73
     0
 90
        0
 40
0.6
 41
30.0
 62
     5
 63
     7
 74
     1
 91
        4
 64
     7
 65
   257
 75
     7
175
     7
 42
1.0
 92
        8
 66
     7
 43
1.0
 76
     1
 77
     6
 78
     2
 67
     7
 79
     5
170
     0
171
     0
290
     0
174
     0
 93
        1
 44
0.0
173
     0
291
     1
 45
0.0
1001
ACAD
1000
AcDbSavedByObjectVersion
1070
     0
  0
VISUALSTYLE
  5
3C
102
{ACAD_REACTORS
330
2A
102
}
102
{ACAD_XDICTIONARY
360
1B3
102
}
330
2A
100
AcDbVisualStyle
  2
OverhangOff
 70
    21
 71
     2
 72
     2
 73
     0
 90
        0
 40
0.6
 41
30.0
 62
     5
 63
     7
 74
     1
 91
        4
 64
     7
 65
   257
 75
     1
175
     1
 42
1.0
 92
        9
 66
     7
 43
1.0
 76
     1
 77
     6
 78
     2
 67
     7
 79
     5
170
     0
171
     0
290
     0
174
     0
 93
        1
 44
0.0
173
     0
291
     1
 45
0.0
1001
ACAD
1000
AcDbSavedByObjectVersion
1070
     0
  0
VISUALSTYLE
  5
33
102
{ACAD_REACTORS
330
2A
102
}
102
{ACAD_XDICTIONARY
360
1A1
102
}
330
2A
100
AcDbVisualStyle
  2
Realistic
 70
     8
 71
     2
 72
     3
 73
     0
 90
        2
 40
0.6
 41
30.0
 62
     5
 63
     7
 74
     0
 91
        0
 64
     7
 65
   257
 75
     1
175
     1
 42
1.0
 92
        8
 66
   257
 43
1.0
 76
     1
 77
     6
 78
     2
 67
     7
 79
     3
170
     0
171
     0
290
     0
174
     0
 93
       13
 44
0.0
173
     0
291
     0
 45
0.0
1001
ACAD
1000
AcDbSavedByObjectVersion
1070
     0
  0
VISUALSTYLE
  5
42
102
{ACAD_REACTORS
330
2A
102
}
102
{ACAD_XDICTIONARY
360
1BF
102
}
330
2A
100
AcDbVisualStyle
  2
Shaded
 70
    27
 71
     2
 72
     2
 73
     1
 90
        2
 40
0.6
 41
30.0
 62
     5
 63
     7
 74
     0
 91
        4
 64
     7
 65
   257
 75
     1
175
     1
 42
1.0
 92
        8
 66
   257
 43
1.0
 76
     1
 77
     6
 78
     2
 67
     8
 79
     3
170
     0
171
     0
290
     0
174
     0
 93
        5
 44
0.0
173
     0
291
     0
 45
0.0
1001
ACAD
1000
AcDbSavedByObjectVersion
1070
     0
  0
VISUALSTYLE
  5
41
102
{ACAD_REACTORS
330
2A
102
}
102
{ACAD_XDICTIONARY
360
1BD
102
}
330
2A
100
AcDbVisualStyle
  2
Shaded with edges
 70
    26
 71
     2
 72
     2
 73
     1
 90
        2
 40
0.6
 41
30.0
 62
     5
 63
     7
 74
     1
 91
       10
 64
     7
 65
   257
 75
     2
175
     1
 42
1.0
 92
        8
 66
   257
 43
1.0
 76
     1
 77
     6
 78
     2
 67
     7
 79
     3
170
     0
171
     0
290
     0
174
     0
 93
        5
 44
0.0
173
     0
291
     0
 45
0.0
1001
ACAD
1000
AcDbSavedByObjectVersion
1070
     0
  0
VISUALSTYLE
  5
3E
102
{ACAD_REACTORS
330
2A
102
}
102
{ACAD_XDICTIONARY
360
1B7
102
}
330
2A
100
AcDbVisualStyle
  2
Shades of Gray
 70
    23
 71
     2
 72
     2
 73
     3
 90
        0
 40
0.6
 41
30.0
 62
     5
 63
     7
 74
     2
 91
        2
 64
     7
 65
     7
 75
     1
175
     1
 42
40.0
 92
        8
 66
     7
 43
1.0
 76
     1
 77
     6
 78
     2
 67
     7
 79
     3
170
     0
171
     0
290
     0
174
     0
 93
        1
 44
0.0
173
     0
291
     0
 45
0.0
1001
ACAD
1000
AcDbSavedByObjectVersion
1070
     0
  0
VISUALSTYLE
  5
3F
102
{ACAD_REACTORS
330
2A
102
}
102
{ACAD_XDICTIONARY
360
1B9
102
}
330
2A
100
AcDbVisualStyle
  2
Sketchy
 70
    24
 71
     1
 72
     2
 73
     2
 90
        0
 40
0.6
 41
30.0
 62
     5
 63
     7
 74
     2
 91
        2
 64
     7
 65
     7
 75
     1
175
     1
 42
40.0
 92
       11
 66
     7
 43
1.0
 76
     1
 77
     6
 78
     2
 67
     7
 79
     6
170
     0
171
     0
290
     0
174
     0
 93
        1
 44
0.0
173
     0
291
     0
 45
0.0
1001
ACAD
1000
AcDbSavedByObjectVersion
1070
     0
  0
VISUALSTYLE
  5
37
102
{ACAD_REACTORS
330
2A
102
}
102
{ACAD_XDICTIONARY
360
1A9
102
}
330
2A
100
AcDbVisualStyle
  2
Thicken
 70
    13
 71
     2
 72
     2
 73
     0
 90
        0
 40
0.6
 41
30.0
 62
     5
 63
     7
 74
     1
 91
        4
 64
     7
 65
   257
 75
     1
175
     1
 42
1.0
 92
       12
 66
     7
 43
1.0
 76
     1
 77
     6
 78
     2
 67
     7
 79
     5
170
     0
171
     0
290
     0
174
     0
 93
        1
 44
0.0
173
     0
291
     1
 45
0.0
1001
ACAD
1000
AcDbSavedByObjectVersion
1070
     0
  0
VISUALSTYLE
  5
30
102
{ACAD_REACTORS
330
2A
102
}
102
{ACAD_XDICTIONARY
360
19B
102
}
330
2A
100
AcDbVisualStyle
  2
Wireframe
 70
     5
 71
     0
 72
     2
 73
     0
 90
        0
 40
0.6
 41
30.0
 62
     5
 63
     7
 74
     1
 91
        4
 64
     7
 65
   257
 75
     1
175
     1
 42
1.0
 92
        0
 66
   257
 43
1.0
 76
     1
 77
     6
 78
     2
 67
     7
 79
     3
170
     0
171
     0
290
     0
174
     0
 93
        1
 44
0.0
173
     0
291
     0
 45
0.0
1001
ACAD
1000
AcDbSavedByObjectVersion
1070
     0
  0
VISUALSTYLE
  5
40
102
{ACAD_REACTORS
330
2A
102
}
102
{ACAD_XDICTIONARY
360
1BB
102
}
330
2A
100
AcDbVisualStyle
  2
X-Ray
 70
    25
 71
     2
 72
     2
 73
     1
 90
        1
 40
0.5
 41
30.0
 62
     5
 63
     7
 74
     1
 91
        0
 64
     7
 65
   257
 75
     1
175
     1
 42
1.0
 92
        8
 66
     7
 43
1.0
 76
     1
 77
     6
 78
     2
 67
     7
 79
     3
170
     0
171
     0
290
     0
174
     0
 93
       13
 44
0.0
173
     0
291
     0
 45
0.0
1001
ACAD
1000
AcDbSavedByObjectVersion
1070
     0
  0
DICTIONARYVAR
  5
18F
102
{ACAD_REACTORS
330
182
102
}
330
182
100
DictionaryVariables
280
     0
  1
1:1
  0
DICTIONARYVAR
  5
189
102
{ACAD_REACTORS
330
182
102
}
330
182
100
DictionaryVariables
280
     0
  1
3.500000
  0
DICTIONARYVAR
  5
18A
102
{ACAD_REACTORS
330
182
102
}
330
182
100
DictionaryVariables
280
     0
  1
acadiso.lin
  0
DICTIONARYVAR
  5
184
102
{ACAD_REACTORS
330
182
102
}
330
182
100
DictionaryVariables
280
     0
  1
Standard
  0
DICTIONARYVAR
  5
183
102
{ACAD_REACTORS
330
182
102
}
330
182
100
DictionaryVariables
280
     0
  1
Standard
  0
DICTIONARYVAR
  5
18B
102
{ACAD_REACTORS
330
182
102
}
330
182
100
DictionaryVariables
280
     0
  1
2
  0
DICTIONARYVAR
  5
18C
102
{ACAD_REACTORS
330
182
102
}
330
182
100
DictionaryVariables
280
     0
  1
1
  0
DICTIONARYVAR
  5
190
102
{ACAD_REACTORS
330
182
102
}
330
182
100
DictionaryVariables
280
     0
  1
1
  0
DICTIONARYVAR
  5
186
102
{ACAD_REACTORS
330
182
102
}
330
182
100
DictionaryVariables
280
     0
  1
80.000000
  0
DICTIONARYVAR
  5
185
102
{ACAD_REACTORS
330
182
102
}
330
182
100
DictionaryVariables
280
     0
  1
5.000000
  0
DICTIONARY
  5
1C3
330
45
100
AcDbDictionary
280
     1
281
     1
  3
ACAD_XREC_ROUNDTRIP
360
1C4
  0
DICTIONARY
  5
1C1
330
44
100
AcDbDictionary
280
     1
281
     1
  3
ACAD_XREC_ROUNDTRIP
360
1C2
  0
DICTIONARY
  5
1C5
330
46
100
AcDbDictionary
280
     1
281
     1
  3
ACAD_XREC_ROUNDTRIP
360
1C6
  0
DICTIONARY
  5
1C8
330
6C
100
AcDbDictionary
280
     1
281
     1
  3
ACAD_XREC_ROUNDTRIP
360
1C9
  0
DICTIONARY
  5
199
330
2F
100
AcDbDictionary
280
     1
281
     1
  3
ACAD_XREC_ROUNDTRIP
360
19A
  0
DICTIONARY
  5
19F
330
32
100
AcDbDictionary
280
     1
281
     1
  3
ACAD_XREC_ROUNDTRIP
360
1A0
  0
DICTIONARY
  5
1A7
330
36
100
AcDbDictionary
280
     1
281
     1
  3
ACAD_XREC_ROUNDTRIP
360
1A8
  0
DICTIONARY
  5
1AF
330
3A
100
AcDbDictionary
280
     1
281
     1
  3
ACAD_XREC_ROUNDTRIP
360
1B0
  0
DICTIONARY
  5
1A3
330
34
100
AcDbDictionary
280
     1
281
     1
  3
ACAD_XREC_ROUNDTRIP
360
1A4
  0
DICTIONARY
  5
1A5
330
35
100
AcDbDictionary
280
     1
281
     1
  3
ACAD_XREC_ROUNDTRIP
360
1A6
  0
DICTIONARY
  5
1B5
330
3D
100
AcDbDictionary
280
     1
281
     1
  3
ACAD_XREC_ROUNDTRIP
360
1B6
  0
DICTIONARY
  5
1AD
330
39
100
AcDbDictionary
280
     1
281
     1
  3
ACAD_XREC_ROUNDTRIP
360
1AE
  0
DICTIONARY
  5
191
330
2B
100
AcDbDictionary
280
     1
281
     1
  3
ACAD_XREC_ROUNDTRIP
360
192
  0
DICTIONARY
  5
193
330
2C
100
AcDbDictionary
280
     1
281
     1
  3
ACAD_XREC_ROUNDTRIP
360
194
  0
DICTIONARY
  5
195
330
2D
100
AcDbDictionary
280
     1
281
     1
  3
ACAD_XREC_ROUNDTRIP
360
196
  0
DICTIONARY
  5
197
330
2E
100
AcDbDictionary
280
     1
281
     1
  3
ACAD_XREC_ROUNDTRIP
360
198
  0
DICTIONARY
  5
19D
330
31
100
AcDbDictionary
280
     1
281
     1
  3
ACAD_XREC_ROUNDTRIP
360
19E
  0
DICTIONARY
  5
1B1
330
3B
100
AcDbDictionary
280
     1
281
     1
  3
ACAD_XREC_ROUNDTRIP
360
1B2
  0
DICTIONARY
  5
1AB
330
38
100
AcDbDictionary
280
     1
281
     1
  3
ACAD_XREC_ROUNDTRIP
360
1AC
  0
DICTIONARY
  5
1B3
330
3C
100
AcDbDictionary
280
     1
281
     1
  3
ACAD_XREC_ROUNDTRIP
360
1B4
  0
DICTIONARY
  5
1A1
330
33
100
AcDbDictionary
280
     1
281
     1
  3
ACAD_XREC_ROUNDTRIP
360
1A2
  0
DICTIONARY
  5
1BF
330
42
100
AcDbDictionary
280
     1
281
     1
  3
ACAD_XREC_ROUNDTRIP
360
1C0
  0
DICTIONARY
  5
1BD
330
41
100
AcDbDictionary
280
     1
281
     1
  3
ACAD_XREC_ROUNDTRIP
360
1BE
  0
DICTIONARY
  5
1B7
330
3E
100
AcDbDictionary
280
     1
281
     1
  3
ACAD_XREC_ROUNDTRIP
360
1B8
  0
DICTIONARY
  5
1B9
330
3F
100
AcDbDictionary
280
     1
281
     1
  3
ACAD_XREC_ROUNDTRIP
360
1BA
  0
DICTIONARY
  5
1A9
330
37
100
AcDbDictionary
280
     1
281
     1
  3
ACAD_XREC_ROUNDTRIP
360
1AA
  0
DICTIONARY
  5
19B
330
30
100
AcDbDictionary
280
     1
281
     1
  3
ACAD_XREC_ROUNDTRIP
360
19C
  0
DICTIONARY
  5
1BB
330
40
100
AcDbDictionary
280
     1
281
     1
  3
ACAD_XREC_ROUNDTRIP
360
1BC
  0
XRECORD
  5
1C4
102
{ACAD_REACTORS
330
1C3
102
}
330
1C3
100
AcDbXrecord
280
     1
102
MATERIAL
148
0.0
149
0.0
149
0.0
 93
        0
 94
      127
282
     0
 72
     1
 77
     1
171
     1
175
     1
179
     1
273
     0
  0
XRECORD
  5
1C2
102
{ACAD_REACTORS
330
1C1
102
}
330
1C1
100
AcDbXrecord
280
     1
102
MATERIAL
148
0.0
149
0.0
149
0.0
 93
        0
 94
      127
282
     0
 72
     1
 77
     1
171
     1
175
     1
179
     1
273
     0
  0
XRECORD
  5
1C6
102
{ACAD_REACTORS
330
1C5
102
}
330
1C5
100
AcDbXrecord
280
     1
102
MATERIAL
148
0.0
149
0.0
149
0.0
 93
        0
 94
      127
282
     0
 72
     1
 77
     1
171
     1
175
     1
179
     1
273
     0
  0
XRECORD
  5
1C9
102
{ACAD_REACTORS
330
1C8
102
}
330
1C8
100
AcDbXrecord
280
     1
102
ACAD_ROUNDTRIP_2010_MLEADER_STYLE
  0
XRECORD
  5
19A
102
{ACAD_REACTORS
330
199
102
}
330
199
100
AcDbXrecord
280
     1
102
RTVSPropertyOp0
 70
     1
102
RTVSPropertyOp1
 70
     1
102
RTVSPropertyOp2
 70
     1
102
RTVSPropertyOp3
 70
     1
102
RTVSPropertyOp4
 70
     1
102
RTVSPropertyOp5
 70
     1
102
RTVSPropertyOp6
 70
     1
102
RTVSPropertyOp7
 70
     1
102
RTVSPropertyOp8
 70
     1
102
RTVSPropertyOp9
 70
     1
102
RTVSPropertyOp10
 70
     1
102
RTVSPropertyOp11
 70
     1
102
RTVSPropertyOp12
 70
     1
102
RTVSPropertyOp13
 70
     1
102
RTVSPropertyOp14
 70
     1
102
RTVSPropertyOp15
 70
     1
102
RTVSPropertyOp16
 70
     1
102
RTVSPropertyOp17
 70
     1
102
RTVSPropertyOp18
 70
     1
102
RTVSPropertyOp19
 70
     1
102
RTVSPropertyOp20
 70
     1
102
RTVSPropertyOp21
 70
     1
102
RTVSPropertyOp22
 70
     1
102
RTVSPropertyOp23
 70
     1
102
RTVSPropertyOp24
 70
     1
102
RTVSPropertyOp25
 70
     1
102
RTVSPropertyOp26
 70
     1
102
RTVSPropertyOp27
 70
     1
102
RTVSPropertyOp28
 70
     1
102
RTVSPropertyOp29
 70
     1
102
RTVSPropertyOp30
 70
     1
102
RTVSPropertyOp31
 70
     1
102
RTVSPropertyOp32
 70
     1
102
RTVSPropertyOp33
 70
     1
102
RTVSPropertyOp34
 70
     1
102
RTVSPropertyOp35
 70
     1
102
RTVSPropertyOp36
 70
     1
102
RTVSPropertyOp37
 70
     1
102
RTVSPropertyOp38
 70
     1
102
RTVSPropertyOp39
 70
     1
102
RTVSPropertyOp40
 70
     1
102
RTVSPropertyOp41
 70
     1
102
RTVSPropertyOp42
 70
     1
102
RTVSPropertyOp43
 70
     1
102
RTVSPropertyOp44
 70
     1
102
RTVSPropertyOp45
 70
     1
102
RTVSPropertyOp46
 70
     1
102
RTVSPropertyOp47
 70
     1
102
RTVSPropertyOp48
 70
     1
102
RTVSPropertyOp49
 70
     1
102
RTVSPropertyOp50
 70
     1
102
RTVSPropertyOp51
 70
     0
102
RTVSPropertyOp52
 70
     0
102
RTVSPropertyOp53
 70
     1
102
RTVSPropertyOp54
 70
     1
102
RTVSPropertyOp55
 70
     1
102
RTVSPropertyOp56
 70
     1
102
RTVSPropertyOp57
 70
     1
102
RTVSPost2010Prop28
280
     1
102
RTVSPost2010PropOp28
 70
     1
102
RTVSPost2010Prop29
280
     1
102
RTVSPost2010PropOp29
 70
     1
102
RTVSPost2010Prop30
280
     0
102
RTVSPost2010PropOp30
 70
     1
102
RTVSPost2010Prop31
280
     0
102
RTVSPost2010PropOp31
 70
     1
102
RTVSPost2010Prop32
280
     0
102
RTVSPost2010PropOp32
 70
     1
102
RTVSPost2010Prop33
280
     0
102
RTVSPost2010PropOp33
 70
     1
102
RTVSPost2010Prop34
280
     0
102
RTVSPost2010PropOp34
 70
     1
102
RTVSPost2010Prop35
280
     0
102
RTVSPost2010PropOp35
 70
     1
102
RTVSPost2010Prop36
280
     0
102
RTVSPost2010PropOp36
 70
     1
102
RTVSPost2010Prop37
 90
       50
102
RTVSPost2010PropOp37
 70
     1
102
RTVSPost2010Prop38
140
0.0
102
RTVSPost2010PropOp38
 70
     1
102
RTVSPost2010Prop39
140
1.0
102
RTVSPost2010PropOp39
 70
     1
102
RTVSPost2010Prop40
 90
        0
102
RTVSPost2010PropOp40
 70
     1
102
RTVSPost2010Prop41ColorIndex
 90
       18
102
RTVSPost2010Prop41ColorRGB
 90
        0
102
RTVSPost2010PropOp41
 70
     1
102
RTVSPost2010Prop42
 90
       50
102
RTVSPost2010PropOp42
 70
     1
102
RTVSPost2010Prop43
 90
        3
102
RTVSPost2010PropOp43
 70
     1
102
RTVSPost2010Prop44ColorIndex
 90
        5
102
RTVSPost2010Prop44ColorRGB
 90
      255
102
RTVSPost2010PropOp44
 70
     1
102
RTVSPost2010Prop45
280
     0
102
RTVSPost2010PropOp45
 70
     1
102
RTVSPost2010Prop46
 90
       50
102
RTVSPost2010PropOp46
 70
     1
102
RTVSPost2010Prop47
 90
       50
102
RTVSPost2010PropOp47
 70
     1
102
RTVSPost2010Prop48
 90
       50
102
RTVSPost2010PropOp48
 70
     1
102
RTVSPost2010Prop49
280
     0
102
RTVSPost2010PropOp49
 70
     1
102
RTVSPost2010Prop50
 90
       50
102
RTVSPost2010PropOp50
 70
     1
102
RTVSPost2010Prop51ColorIndex
 90
      256
102
RTVSPost2010Prop51ColorRGB
 90
-16777216
102
RTVSPost2010PropOp51
 70
     0
102
RTVSPost2010Prop52
140
1.0
102
RTVSPost2010PropOp52
 70
     0
102
RTVSPost2010Prop53
 90
        2
102
RTVSPost2010PropOp53
 70
     1
102
RTVSPost2010Prop54
  1
strokes_ogs.tif
102
RTVSPost2010PropOp54
 70
     1
102
RTVSPost2010Prop55
280
     0
102
RTVSPost2010PropOp55
 70
     1
102
RTVSPost2010Prop56
140
1.0
102
RTVSPost2010PropOp56
 70
     1
102
RTVSPost2010Prop57
140
1.0
102
RTVSPost2010PropOp57
 70
     1
  0
XRECORD
  5
1A0
102
{ACAD_REACTORS
330
19F
102
}
330
19F
100
AcDbXrecord
280
     1
102
RTVSPropertyOp0
 70
     1
102
RTVSPropertyOp1
 70
     1
102
RTVSPropertyOp2
 70
     1
102
RTVSPropertyOp3
 70
     1
102
RTVSPropertyOp4
 70
     1
102
RTVSPropertyOp5
 70
     1
102
RTVSPropertyOp6
 70
     1
102
RTVSPropertyOp7
 70
     1
102
RTVSPropertyOp8
 70
     1
102
RTVSPropertyOp9
 70
     1
102
RTVSPropertyOp10
 70
     1
102
RTVSPropertyOp11
 70
     1
102
RTVSPropertyOp12
 70
     1
102
RTVSPropertyOp13
 70
     1
102
RTVSPropertyOp14
 70
     1
102
RTVSPropertyOp15
 70
     1
102
RTVSPropertyOp16
 70
     1
102
RTVSPropertyOp17
 70
     1
102
RTVSPropertyOp18
 70
     1
102
RTVSPropertyOp19
 70
     1
102
RTVSPropertyOp20
 70
     1
102
RTVSPropertyOp21
 70
     1
102
RTVSPropertyOp22
 70
     1
102
RTVSPropertyOp23
 70
     1
102
RTVSPropertyOp24
 70
     1
102
RTVSPropertyOp25
 70
     1
102
RTVSPropertyOp26
 70
     1
102
RTVSPropertyOp27
 70
     1
102
RTVSPropertyOp28
 70
     1
102
RTVSPropertyOp29
 70
     1
102
RTVSPropertyOp30
 70
     1
102
RTVSPropertyOp31
 70
     1
102
RTVSPropertyOp32
 70
     1
102
RTVSPropertyOp33
 70
     1
102
RTVSPropertyOp34
 70
     1
102
RTVSPropertyOp35
 70
     1
102
RTVSPropertyOp36
 70
     1
102
RTVSPropertyOp37
 70
     1
102
RTVSPropertyOp38
 70
     1
102
RTVSPropertyOp39
 70
     1
102
RTVSPropertyOp40
 70
     1
102
RTVSPropertyOp41
 70
     1
102
RTVSPropertyOp42
 70
     1
102
RTVSPropertyOp43
 70
     1
102
RTVSPropertyOp44
 70
     1
102
RTVSPropertyOp45
 70
     1
102
RTVSPropertyOp46
 70
     1
102
RTVSPropertyOp47
 70
     1
102
RTVSPropertyOp48
 70
     1
102
RTVSPropertyOp49
 70
     1
102
RTVSPropertyOp50
 70
     1
102
RTVSPropertyOp51
 70
     0
102
RTVSPropertyOp52
 70
     0
102
RTVSPropertyOp53
 70
     1
102
RTVSPropertyOp54
 70
     1
102
RTVSPropertyOp55
 70
     1
102
RTVSPropertyOp56
 70
     1
102
RTVSPropertyOp57
 70
     1
102
RTVSPost2010Prop28
280
     0
102
RTVSPost2010PropOp28
 70
     1
102
RTVSPost2010Prop29
280
     1
102
RTVSPost2010PropOp29
 70
     1
102
RTVSPost2010Prop30
280
     1
102
RTVSPost2010PropOp30
 70
     1
102
RTVSPost2010Prop31
280
     0
102
RTVSPost2010PropOp31
 70
     1
102
RTVSPost2010Prop32
280
     0
102
RTVSPost2010PropOp32
 70
     1
102
RTVSPost2010Prop33
280
     0
102
RTVSPost2010PropOp33
 70
     1
102
RTVSPost2010Prop34
280
     0
102
RTVSPost2010PropOp34
 70
     1
102
RTVSPost2010Prop35
280
     0
102
RTVSPost2010PropOp35
 70
     1
102
RTVSPost2010Prop36
280
     0
102
RTVSPost2010PropOp36
 70
     1
102
RTVSPost2010Prop37
 90
       50
102
RTVSPost2010PropOp37
 70
     1
102
RTVSPost2010Prop38
140
0.0
102
RTVSPost2010PropOp38
 70
     1
102
RTVSPost2010Prop39
140
1.0
102
RTVSPost2010PropOp39
 70
     1
102
RTVSPost2010Prop40
 90
        0
102
RTVSPost2010PropOp40
 70
     1
102
RTVSPost2010Prop41ColorIndex
 90
       18
102
RTVSPost2010Prop41ColorRGB
 90
        0
102
RTVSPost2010PropOp41
 70
     1
102
RTVSPost2010Prop42
 90
       50
102
RTVSPost2010PropOp42
 70
     1
102
RTVSPost2010Prop43
 90
        3
102
RTVSPost2010PropOp43
 70
     1
102
RTVSPost2010Prop44ColorIndex
 90
        5
102
RTVSPost2010Prop44ColorRGB
 90
      255
102
RTVSPost2010PropOp44
 70
     1
102
RTVSPost2010Prop45
280
     0
102
RTVSPost2010PropOp45
 70
     1
102
RTVSPost2010Prop46
 90
       50
102
RTVSPost2010PropOp46
 70
     1
102
RTVSPost2010Prop47
 90
       50
102
RTVSPost2010PropOp47
 70
     1
102
RTVSPost2010Prop48
 90
       50
102
RTVSPost2010PropOp48
 70
     1
102
RTVSPost2010Prop49
280
     0
102
RTVSPost2010PropOp49
 70
     1
102
RTVSPost2010Prop50
 90
       50
102
RTVSPost2010PropOp50
 70
     1
102
RTVSPost2010Prop51ColorIndex
 90
      256
102
RTVSPost2010Prop51ColorRGB
 90
-16777216
102
RTVSPost2010PropOp51
 70
     0
102
RTVSPost2010Prop52
140
1.0
102
RTVSPost2010PropOp52
 70
     0
102
RTVSPost2010Prop53
 90
        2
102
RTVSPost2010PropOp53
 70
     1
102
RTVSPost2010Prop54
  1
strokes_ogs.tif
102
RTVSPost2010PropOp54
 70
     1
102
RTVSPost2010Prop55
280
     0
102
RTVSPost2010PropOp55
 70
     1
102
RTVSPost2010Prop56
140
1.0
102
RTVSPost2010PropOp56
 70
     1
102
RTVSPost2010Prop57
140
1.0
102
RTVSPost2010PropOp57
 70
     1
  0
XRECORD
  5
1A8
102
{ACAD_REACTORS
330
1A7
102
}
330
1A7
100
AcDbXrecord
280
     1
102
RTVSPropertyOp0
 70
     1
102
RTVSPropertyOp1
 70
     1
102
RTVSPropertyOp2
 70
     1
102
RTVSPropertyOp3
 70
     1
102
RTVSPropertyOp4
 70
     1
102
RTVSPropertyOp5
 70
     1
102
RTVSPropertyOp6
 70
     1
102
RTVSPropertyOp7
 70
     1
102
RTVSPropertyOp8
 70
     1
102
RTVSPropertyOp9
 70
     1
102
RTVSPropertyOp10
 70
     1
102
RTVSPropertyOp11
 70
     1
102
RTVSPropertyOp12
 70
     1
102
RTVSPropertyOp13
 70
     1
102
RTVSPropertyOp14
 70
     1
102
RTVSPropertyOp15
 70
     1
102
RTVSPropertyOp16
 70
     1
102
RTVSPropertyOp17
 70
     1
102
RTVSPropertyOp18
 70
     1
102
RTVSPropertyOp19
 70
     1
102
RTVSPropertyOp20
 70
     1
102
RTVSPropertyOp21
 70
     1
102
RTVSPropertyOp22
 70
     1
102
RTVSPropertyOp23
 70
     1
102
RTVSPropertyOp24
 70
     1
102
RTVSPropertyOp25
 70
     1
102
RTVSPropertyOp26
 70
     1
102
RTVSPropertyOp27
 70
     1
102
RTVSPropertyOp28
 70
     1
102
RTVSPropertyOp29
 70
     1
102
RTVSPropertyOp30
 70
     1
102
RTVSPropertyOp31
 70
     1
102
RTVSPropertyOp32
 70
     1
102
RTVSPropertyOp33
 70
     1
102
RTVSPropertyOp34
 70
     1
102
RTVSPropertyOp35
 70
     1
102
RTVSPropertyOp36
 70
     1
102
RTVSPropertyOp37
 70
     1
102
RTVSPropertyOp38
 70
     1
102
RTVSPropertyOp39
 70
     1
102
RTVSPropertyOp40
 70
     1
102
RTVSPropertyOp41
 70
     1
102
RTVSPropertyOp42
 70
     1
102
RTVSPropertyOp43
 70
     1
102
RTVSPropertyOp44
 70
     1
102
RTVSPropertyOp45
 70
     1
102
RTVSPropertyOp46
 70
     1
102
RTVSPropertyOp47
 70
     1
102
RTVSPropertyOp48
 70
     1
102
RTVSPropertyOp49
 70
     1
102
RTVSPropertyOp50
 70
     1
102
RTVSPropertyOp51
 70
     0
102
RTVSPropertyOp52
 70
     0
102
RTVSPropertyOp53
 70
     1
102
RTVSPropertyOp54
 70
     1
102
RTVSPropertyOp55
 70
     1
102
RTVSPropertyOp56
 70
     1
102
RTVSPropertyOp57
 70
     1
102
RTVSPost2010Prop28
280
     0
102
RTVSPost2010PropOp28
 70
     1
102
RTVSPost2010Prop29
280
     1
102
RTVSPost2010PropOp29
 70
     1
102
RTVSPost2010Prop30
280
     1
102
RTVSPost2010PropOp30
 70
     1
102
RTVSPost2010Prop31
280
     0
102
RTVSPost2010PropOp31
 70
     1
102
RTVSPost2010Prop32
280
     0
102
RTVSPost2010PropOp32
 70
     1
102
RTVSPost2010Prop33
280
     0
102
RTVSPost2010PropOp33
 70
     1
102
RTVSPost2010Prop34
280
     0
102
RTVSPost2010PropOp34
 70
     1
102
RTVSPost2010Prop35
280
     0
102
RTVSPost2010PropOp35
 70
     1
102
RTVSPost2010Prop36
280
     0
102
RTVSPost2010PropOp36
 70
     1
102
RTVSPost2010Prop37
 90
       50
102
RTVSPost2010PropOp37
 70
     1
102
RTVSPost2010Prop38
140
0.0
102
RTVSPost2010PropOp38
 70
     1
102
RTVSPost2010Prop39
140
1.0
102
RTVSPost2010PropOp39
 70
     1
102
RTVSPost2010Prop40
 90
        0
102
RTVSPost2010PropOp40
 70
     1
102
RTVSPost2010Prop41ColorIndex
 90
       18
102
RTVSPost2010Prop41ColorRGB
 90
        0
102
RTVSPost2010PropOp41
 70
     1
102
RTVSPost2010Prop42
 90
       50
102
RTVSPost2010PropOp42
 70
     1
102
RTVSPost2010Prop43
 90
        3
102
RTVSPost2010PropOp43
 70
     1
102
RTVSPost2010Prop44ColorIndex
 90
        5
102
RTVSPost2010Prop44ColorRGB
 90
      255
102
RTVSPost2010PropOp44
 70
     1
102
RTVSPost2010Prop45
280
     0
102
RTVSPost2010PropOp45
 70
     1
102
RTVSPost2010Prop46
 90
       50
102
RTVSPost2010PropOp46
 70
     1
102
RTVSPost2010Prop47
 90
       50
102
RTVSPost2010PropOp47
 70
     1
102
RTVSPost2010Prop48
 90
       50
102
RTVSPost2010PropOp48
 70
     1
102
RTVSPost2010Prop49
280
     0
102
RTVSPost2010PropOp49
 70
     1
102
RTVSPost2010Prop50
 90
       50
102
RTVSPost2010PropOp50
 70
     1
102
RTVSPost2010Prop51ColorIndex
 90
      256
102
RTVSPost2010Prop51ColorRGB
 90
-16777216
102
RTVSPost2010PropOp51
 70
     0
102
RTVSPost2010Prop52
140
1.0
102
RTVSPost2010PropOp52
 70
     0
102
RTVSPost2010Prop53
 90
        2
102
RTVSPost2010PropOp53
 70
     1
102
RTVSPost2010Prop54
  1
strokes_ogs.tif
102
RTVSPost2010PropOp54
 70
     1
102
RTVSPost2010Prop55
280
     0
102
RTVSPost2010PropOp55
 70
     1
102
RTVSPost2010Prop56
140
1.0
102
RTVSPost2010PropOp56
 70
     1
102
RTVSPost2010Prop57
140
1.0
102
RTVSPost2010PropOp57
 70
     1
  0
XRECORD
  5
1B0
102
{ACAD_REACTORS
330
1AF
102
}
330
1AF
100
AcDbXrecord
280
     1
102
RTVSPropertyOp0
 70
     1
102
RTVSPropertyOp1
 70
     1
102
RTVSPropertyOp2
 70
     1
102
RTVSPropertyOp3
 70
     1
102
RTVSPropertyOp4
 70
     1
102
RTVSPropertyOp5
 70
     1
102
RTVSPropertyOp6
 70
     1
102
RTVSPropertyOp7
 70
     1
102
RTVSPropertyOp8
 70
     1
102
RTVSPropertyOp9
 70
     1
102
RTVSPropertyOp10
 70
     1
102
RTVSPropertyOp11
 70
     1
102
RTVSPropertyOp12
 70
     1
102
RTVSPropertyOp13
 70
     1
102
RTVSPropertyOp14
 70
     1
102
RTVSPropertyOp15
 70
     1
102
RTVSPropertyOp16
 70
     1
102
RTVSPropertyOp17
 70
     1
102
RTVSPropertyOp18
 70
     1
102
RTVSPropertyOp19
 70
     1
102
RTVSPropertyOp20
 70
     1
102
RTVSPropertyOp21
 70
     1
102
RTVSPropertyOp22
 70
     1
102
RTVSPropertyOp23
 70
     1
102
RTVSPropertyOp24
 70
     1
102
RTVSPropertyOp25
 70
     1
102
RTVSPropertyOp26
 70
     1
102
RTVSPropertyOp27
 70
     1
102
RTVSPropertyOp28
 70
     1
102
RTVSPropertyOp29
 70
     1
102
RTVSPropertyOp30
 70
     1
102
RTVSPropertyOp31
 70
     1
102
RTVSPropertyOp32
 70
     1
102
RTVSPropertyOp33
 70
     1
102
RTVSPropertyOp34
 70
     1
102
RTVSPropertyOp35
 70
     1
102
RTVSPropertyOp36
 70
     1
102
RTVSPropertyOp37
 70
     1
102
RTVSPropertyOp38
 70
     1
102
RTVSPropertyOp39
 70
     1
102
RTVSPropertyOp40
 70
     1
102
RTVSPropertyOp41
 70
     1
102
RTVSPropertyOp42
 70
     1
102
RTVSPropertyOp43
 70
     1
102
RTVSPropertyOp44
 70
     1
102
RTVSPropertyOp45
 70
     1
102
RTVSPropertyOp46
 70
     1
102
RTVSPropertyOp47
 70
     1
102
RTVSPropertyOp48
 70
     1
102
RTVSPropertyOp49
 70
     1
102
RTVSPropertyOp50
 70
     1
102
RTVSPropertyOp51
 70
     0
102
RTVSPropertyOp52
 70
     0
102
RTVSPropertyOp53
 70
     1
102
RTVSPropertyOp54
 70
     1
102
RTVSPropertyOp55
 70
     1
102
RTVSPropertyOp56
 70
     1
102
RTVSPropertyOp57
 70
     1
102
RTVSPost2010Prop28
280
     0
102
RTVSPost2010PropOp28
 70
     1
102
RTVSPost2010Prop29
280
     1
102
RTVSPost2010PropOp29
 70
     1
102
RTVSPost2010Prop30
280
     1
102
RTVSPost2010PropOp30
 70
     1
102
RTVSPost2010Prop31
280
     0
102
RTVSPost2010PropOp31
 70
     1
102
RTVSPost2010Prop32
280
     0
102
RTVSPost2010PropOp32
 70
     1
102
RTVSPost2010Prop33
280
     0
102
RTVSPost2010PropOp33
 70
     1
102
RTVSPost2010Prop34
280
     0
102
RTVSPost2010PropOp34
 70
     1
102
RTVSPost2010Prop35
280
     0
102
RTVSPost2010PropOp35
 70
     1
102
RTVSPost2010Prop36
280
     0
102
RTVSPost2010PropOp36
 70
     1
102
RTVSPost2010Prop37
 90
       50
102
RTVSPost2010PropOp37
 70
     1
102
RTVSPost2010Prop38
140
0.0
102
RTVSPost2010PropOp38
 70
     1
102
RTVSPost2010Prop39
140
1.0
102
RTVSPost2010PropOp39
 70
     1
102
RTVSPost2010Prop40
 90
        0
102
RTVSPost2010PropOp40
 70
     1
102
RTVSPost2010Prop41ColorIndex
 90
       18
102
RTVSPost2010Prop41ColorRGB
 90
        0
102
RTVSPost2010PropOp41
 70
     1
102
RTVSPost2010Prop42
 90
       50
102
RTVSPost2010PropOp42
 70
     1
102
RTVSPost2010Prop43
 90
        3
102
RTVSPost2010PropOp43
 70
     1
102
RTVSPost2010Prop44ColorIndex
 90
        5
102
RTVSPost2010Prop44ColorRGB
 90
      255
102
RTVSPost2010PropOp44
 70
     1
102
RTVSPost2010Prop45
280
     0
102
RTVSPost2010PropOp45
 70
     1
102
RTVSPost2010Prop46
 90
       50
102
RTVSPost2010PropOp46
 70
     1
102
RTVSPost2010Prop47
 90
       50
102
RTVSPost2010PropOp47
 70
     1
102
RTVSPost2010Prop48
 90
       50
102
RTVSPost2010PropOp48
 70
     1
102
RTVSPost2010Prop49
280
     0
102
RTVSPost2010PropOp49
 70
     1
102
RTVSPost2010Prop50
 90
       50
102
RTVSPost2010PropOp50
 70
     1
102
RTVSPost2010Prop51ColorIndex
 90
      256
102
RTVSPost2010Prop51ColorRGB
 90
-16777216
102
RTVSPost2010PropOp51
 70
     0
102
RTVSPost2010Prop52
140
1.0
102
RTVSPost2010PropOp52
 70
     0
102
RTVSPost2010Prop53
 90
        2
102
RTVSPost2010PropOp53
 70
     1
102
RTVSPost2010Prop54
  1
strokes_ogs.tif
102
RTVSPost2010PropOp54
 70
     1
102
RTVSPost2010Prop55
280
     0
102
RTVSPost2010PropOp55
 70
     1
102
RTVSPost2010Prop56
140
1.0
102
RTVSPost2010PropOp56
 70
     1
102
RTVSPost2010Prop57
140
1.0
102
RTVSPost2010PropOp57
 70
     1
  0
XRECORD
  5
1A4
102
{ACAD_REACTORS
330
1A3
102
}
330
1A3
100
AcDbXrecord
280
     1
102
RTVSPropertyOp0
 70
     1
102
RTVSPropertyOp1
 70
     1
102
RTVSPropertyOp2
 70
     1
102
RTVSPropertyOp3
 70
     1
102
RTVSPropertyOp4
 70
     1
102
RTVSPropertyOp5
 70
     1
102
RTVSPropertyOp6
 70
     1
102
RTVSPropertyOp7
 70
     1
102
RTVSPropertyOp8
 70
     1
102
RTVSPropertyOp9
 70
     1
102
RTVSPropertyOp10
 70
     1
102
RTVSPropertyOp11
 70
     1
102
RTVSPropertyOp12
 70
     1
102
RTVSPropertyOp13
 70
     1
102
RTVSPropertyOp14
 70
     1
102
RTVSPropertyOp15
 70
     1
102
RTVSPropertyOp16
 70
     1
102
RTVSPropertyOp17
 70
     1
102
RTVSPropertyOp18
 70
     1
102
RTVSPropertyOp19
 70
     1
102
RTVSPropertyOp20
 70
     1
102
RTVSPropertyOp21
 70
     1
102
RTVSPropertyOp22
 70
     1
102
RTVSPropertyOp23
 70
     1
102
RTVSPropertyOp24
 70
     1
102
RTVSPropertyOp25
 70
     1
102
RTVSPropertyOp26
 70
     1
102
RTVSPropertyOp27
 70
     1
102
RTVSPropertyOp28
 70
     1
102
RTVSPropertyOp29
 70
     1
102
RTVSPropertyOp30
 70
     1
102
RTVSPropertyOp31
 70
     1
102
RTVSPropertyOp32
 70
     1
102
RTVSPropertyOp33
 70
     1
102
RTVSPropertyOp34
 70
     1
102
RTVSPropertyOp35
 70
     1
102
RTVSPropertyOp36
 70
     1
102
RTVSPropertyOp37
 70
     1
102
RTVSPropertyOp38
 70
     1
102
RTVSPropertyOp39
 70
     1
102
RTVSPropertyOp40
 70
     1
102
RTVSPropertyOp41
 70
     1
102
RTVSPropertyOp42
 70
     1
102
RTVSPropertyOp43
 70
     1
102
RTVSPropertyOp44
 70
     1
102
RTVSPropertyOp45
 70
     1
102
RTVSPropertyOp46
 70
     1
102
RTVSPropertyOp47
 70
     1
102
RTVSPropertyOp48
 70
     1
102
RTVSPropertyOp49
 70
     1
102
RTVSPropertyOp50
 70
     1
102
RTVSPropertyOp51
 70
     0
102
RTVSPropertyOp52
 70
     0
102
RTVSPropertyOp53
 70
     1
102
RTVSPropertyOp54
 70
     1
102
RTVSPropertyOp55
 70
     1
102
RTVSPropertyOp56
 70
     1
102
RTVSPropertyOp57
 70
     1
102
RTVSPost2010Prop28
280
     0
102
RTVSPost2010PropOp28
 70
     1
102
RTVSPost2010Prop29
280
     1
102
RTVSPost2010PropOp29
 70
     1
102
RTVSPost2010Prop30
280
     1
102
RTVSPost2010PropOp30
 70
     1
102
RTVSPost2010Prop31
280
     0
102
RTVSPost2010PropOp31
 70
     1
102
RTVSPost2010Prop32
280
     0
102
RTVSPost2010PropOp32
 70
     1
102
RTVSPost2010Prop33
280
     0
102
RTVSPost2010PropOp33
 70
     1
102
RTVSPost2010Prop34
280
     0
102
RTVSPost2010PropOp34
 70
     1
102
RTVSPost2010Prop35
280
     0
102
RTVSPost2010PropOp35
 70
     1
102
RTVSPost2010Prop36
280
     0
102
RTVSPost2010PropOp36
 70
     1
102
RTVSPost2010Prop37
 90
       50
102
RTVSPost2010PropOp37
 70
     1
102
RTVSPost2010Prop38
140
0.0
102
RTVSPost2010PropOp38
 70
     1
102
RTVSPost2010Prop39
140
1.0
102
RTVSPost2010PropOp39
 70
     1
102
RTVSPost2010Prop40
 90
        0
102
RTVSPost2010PropOp40
 70
     1
102
RTVSPost2010Prop41ColorIndex
 90
       18
102
RTVSPost2010Prop41ColorRGB
 90
        0
102
RTVSPost2010PropOp41
 70
     1
102
RTVSPost2010Prop42
 90
       50
102
RTVSPost2010PropOp42
 70
     1
102
RTVSPost2010Prop43
 90
        3
102
RTVSPost2010PropOp43
 70
     1
102
RTVSPost2010Prop44ColorIndex
 90
        5
102
RTVSPost2010Prop44ColorRGB
 90
      255
102
RTVSPost2010PropOp44
 70
     1
102
RTVSPost2010Prop45
280
     0
102
RTVSPost2010PropOp45
 70
     1
102
RTVSPost2010Prop46
 90
       50
102
RTVSPost2010PropOp46
 70
     1
102
RTVSPost2010Prop47
 90
       50
102
RTVSPost2010PropOp47
 70
     1
102
RTVSPost2010Prop48
 90
       50
102
RTVSPost2010PropOp48
 70
     1
102
RTVSPost2010Prop49
280
     0
102
RTVSPost2010PropOp49
 70
     1
102
RTVSPost2010Prop50
 90
       50
102
RTVSPost2010PropOp50
 70
     1
102
RTVSPost2010Prop51ColorIndex
 90
      256
102
RTVSPost2010Prop51ColorRGB
 90
-16777216
102
RTVSPost2010PropOp51
 70
     0
102
RTVSPost2010Prop52
140
1.0
102
RTVSPost2010PropOp52
 70
     0
102
RTVSPost2010Prop53
 90
        2
102
RTVSPost2010PropOp53
 70
     1
102
RTVSPost2010Prop54
  1
strokes_ogs.tif
102
RTVSPost2010PropOp54
 70
     1
102
RTVSPost2010Prop55
280
     0
102
RTVSPost2010PropOp55
 70
     1
102
RTVSPost2010Prop56
140
1.0
102
RTVSPost2010PropOp56
 70
     1
102
RTVSPost2010Prop57
140
1.0
102
RTVSPost2010PropOp57
 70
     1
  0
XRECORD
  5
1A6
102
{ACAD_REACTORS
330
1A5
102
}
330
1A5
100
AcDbXrecord
280
     1
102
RTVSPropertyOp0
 70
     1
102
RTVSPropertyOp1
 70
     1
102
RTVSPropertyOp2
 70
     1
102
RTVSPropertyOp3
 70
     1
102
RTVSPropertyOp4
 70
     1
102
RTVSPropertyOp5
 70
     1
102
RTVSPropertyOp6
 70
     1
102
RTVSPropertyOp7
 70
     1
102
RTVSPropertyOp8
 70
     1
102
RTVSPropertyOp9
 70
     1
102
RTVSPropertyOp10
 70
     1
102
RTVSPropertyOp11
 70
     1
102
RTVSPropertyOp12
 70
     1
102
RTVSPropertyOp13
 70
     1
102
RTVSPropertyOp14
 70
     1
102
RTVSPropertyOp15
 70
     1
102
RTVSPropertyOp16
 70
     1
102
RTVSPropertyOp17
 70
     1
102
RTVSPropertyOp18
 70
     1
102
RTVSPropertyOp19
 70
     1
102
RTVSPropertyOp20
 70
     1
102
RTVSPropertyOp21
 70
     1
102
RTVSPropertyOp22
 70
     1
102
RTVSPropertyOp23
 70
     1
102
RTVSPropertyOp24
 70
     1
102
RTVSPropertyOp25
 70
     1
102
RTVSPropertyOp26
 70
     1
102
RTVSPropertyOp27
 70
     1
102
RTVSPropertyOp28
 70
     1
102
RTVSPropertyOp29
 70
     1
102
RTVSPropertyOp30
 70
     1
102
RTVSPropertyOp31
 70
     1
102
RTVSPropertyOp32
 70
     1
102
RTVSPropertyOp33
 70
     1
102
RTVSPropertyOp34
 70
     1
102
RTVSPropertyOp35
 70
     1
102
RTVSPropertyOp36
 70
     1
102
RTVSPropertyOp37
 70
     1
102
RTVSPropertyOp38
 70
     1
102
RTVSPropertyOp39
 70
     1
102
RTVSPropertyOp40
 70
     1
102
RTVSPropertyOp41
 70
     1
102
RTVSPropertyOp42
 70
     1
102
RTVSPropertyOp43
 70
     1
102
RTVSPropertyOp44
 70
     1
102
RTVSPropertyOp45
 70
     1
102
RTVSPropertyOp46
 70
     1
102
RTVSPropertyOp47
 70
     1
102
RTVSPropertyOp48
 70
     1
102
RTVSPropertyOp49
 70
     1
102
RTVSPropertyOp50
 70
     1
102
RTVSPropertyOp51
 70
     0
102
RTVSPropertyOp52
 70
     0
102
RTVSPropertyOp53
 70
     1
102
RTVSPropertyOp54
 70
     1
102
RTVSPropertyOp55
 70
     1
102
RTVSPropertyOp56
 70
     1
102
RTVSPropertyOp57
 70
     1
102
RTVSPost2010Prop28
280
     0
102
RTVSPost2010PropOp28
 70
     1
102
RTVSPost2010Prop29
280
     1
102
RTVSPost2010PropOp29
 70
     1
102
RTVSPost2010Prop30
280
     1
102
RTVSPost2010PropOp30
 70
     1
102
RTVSPost2010Prop31
280
     0
102
RTVSPost2010PropOp31
 70
     1
102
RTVSPost2010Prop32
280
     0
102
RTVSPost2010PropOp32
 70
     1
102
RTVSPost2010Prop33
280
     0
102
RTVSPost2010PropOp33
 70
     1
102
RTVSPost2010Prop34
280
     0
102
RTVSPost2010PropOp34
 70
     1
102
RTVSPost2010Prop35
280
     0
102
RTVSPost2010PropOp35
 70
     1
102
RTVSPost2010Prop36
280
     0
102
RTVSPost2010PropOp36
 70
     1
102
RTVSPost2010Prop37
 90
       50
102
RTVSPost2010PropOp37
 70
     1
102
RTVSPost2010Prop38
140
0.0
102
RTVSPost2010PropOp38
 70
     1
102
RTVSPost2010Prop39
140
1.0
102
RTVSPost2010PropOp39
 70
     1
102
RTVSPost2010Prop40
 90
        0
102
RTVSPost2010PropOp40
 70
     1
102
RTVSPost2010Prop41ColorIndex
 90
       18
102
RTVSPost2010Prop41ColorRGB
 90
        0
102
RTVSPost2010PropOp41
 70
     1
102
RTVSPost2010Prop42
 90
       50
102
RTVSPost2010PropOp42
 70
     1
102
RTVSPost2010Prop43
 90
        3
102
RTVSPost2010PropOp43
 70
     1
102
RTVSPost2010Prop44ColorIndex
 90
        5
102
RTVSPost2010Prop44ColorRGB
 90
      255
102
RTVSPost2010PropOp44
 70
     1
102
RTVSPost2010Prop45
280
     0
102
RTVSPost2010PropOp45
 70
     1
102
RTVSPost2010Prop46
 90
       50
102
RTVSPost2010PropOp46
 70
     1
102
RTVSPost2010Prop47
 90
       50
102
RTVSPost2010PropOp47
 70
     1
102
RTVSPost2010Prop48
 90
       50
102
RTVSPost2010PropOp48
 70
     1
102
RTVSPost2010Prop49
280
     0
102
RTVSPost2010PropOp49
 70
     1
102
RTVSPost2010Prop50
 90
       50
102
RTVSPost2010PropOp50
 70
     1
102
RTVSPost2010Prop51ColorIndex
 90
      256
102
RTVSPost2010Prop51ColorRGB
 90
-16777216
102
RTVSPost2010PropOp51
 70
     0
102
RTVSPost2010Prop52
140
1.0
102
RTVSPost2010PropOp52
 70
     0
102
RTVSPost2010Prop53
 90
        2
102
RTVSPost2010PropOp53
 70
     1
102
RTVSPost2010Prop54
  1
strokes_ogs.tif
102
RTVSPost2010PropOp54
 70
     1
102
RTVSPost2010Prop55
280
     0
102
RTVSPost2010PropOp55
 70
     1
102
RTVSPost2010Prop56
140
1.0
102
RTVSPost2010PropOp56
 70
     1
102
RTVSPost2010Prop57
140
1.0
102
RTVSPost2010PropOp57
 70
     1
  0
XRECORD
  5
1B6
102
{ACAD_REACTORS
330
1B5
102
}
330
1B5
100
AcDbXrecord
280
     1
102
RTVSPropertyOp0
 70
     0
102
RTVSPropertyOp1
 70
     0
102
RTVSPropertyOp2
 70
     0
102
RTVSPropertyOp3
 70
     0
102
RTVSPropertyOp4
 70
     0
102
RTVSPropertyOp5
 70
     0
102
RTVSPropertyOp6
 70
     0
102
RTVSPropertyOp7
 70
     0
102
RTVSPropertyOp8
 70
     0
102
RTVSPropertyOp9
 70
     0
102
RTVSPropertyOp10
 70
     0
102
RTVSPropertyOp11
 70
     0
102
RTVSPropertyOp12
 70
     0
102
RTVSPropertyOp13
 70
     0
102
RTVSPropertyOp14
 70
     2
102
RTVSPropertyOp15
 70
     0
102
RTVSPropertyOp16
 70
     0
102
RTVSPropertyOp17
 70
     0
102
RTVSPropertyOp18
 70
     0
102
RTVSPropertyOp19
 70
     0
102
RTVSPropertyOp20
 70
     0
102
RTVSPropertyOp21
 70
     0
102
RTVSPropertyOp22
 70
     0
102
RTVSPropertyOp23
 70
     0
102
RTVSPropertyOp24
 70
     0
102
RTVSPropertyOp25
 70
     0
102
RTVSPropertyOp26
 70
     0
102
RTVSPropertyOp27
 70
     0
102
RTVSPropertyOp28
 70
     0
102
RTVSPropertyOp29
 70
     0
102
RTVSPropertyOp30
 70
     0
102
RTVSPropertyOp31
 70
     0
102
RTVSPropertyOp32
 70
     0
102
RTVSPropertyOp33
 70
     0
102
RTVSPropertyOp34
 70
     0
102
RTVSPropertyOp35
 70
     0
102
RTVSPropertyOp36
 70
     0
102
RTVSPropertyOp37
 70
     0
102
RTVSPropertyOp38
 70
     0
102
RTVSPropertyOp39
 70
     0
102
RTVSPropertyOp40
 70
     0
102
RTVSPropertyOp41
 70
     0
102
RTVSPropertyOp42
 70
     0
102
RTVSPropertyOp43
 70
     0
102
RTVSPropertyOp44
 70
     0
102
RTVSPropertyOp45
 70
     0
102
RTVSPropertyOp46
 70
     0
102
RTVSPropertyOp47
 70
     0
102
RTVSPropertyOp48
 70
     0
102
RTVSPropertyOp49
 70
     0
102
RTVSPropertyOp50
 70
     0
102
RTVSPropertyOp51
 70
     0
102
RTVSPropertyOp52
 70
     0
102
RTVSPropertyOp53
 70
     0
102
RTVSPropertyOp54
 70
     0
102
RTVSPropertyOp55
 70
     0
102
RTVSPropertyOp56
 70
     0
102
RTVSPropertyOp57
 70
     0
102
RTVSPost2010Prop28
280
     0
102
RTVSPost2010PropOp28
 70
     0
102
RTVSPost2010Prop29
280
     1
102
RTVSPost2010PropOp29
 70
     0
102
RTVSPost2010Prop30
280
     1
102
RTVSPost2010PropOp30
 70
     0
102
RTVSPost2010Prop31
280
     0
102
RTVSPost2010PropOp31
 70
     0
102
RTVSPost2010Prop32
280
     0
102
RTVSPost2010PropOp32
 70
     0
102
RTVSPost2010Prop33
280
     0
102
RTVSPost2010PropOp33
 70
     0
102
RTVSPost2010Prop34
280
     0
102
RTVSPost2010PropOp34
 70
     0
102
RTVSPost2010Prop35
280
     0
102
RTVSPost2010PropOp35
 70
     0
102
RTVSPost2010Prop36
280
     0
102
RTVSPost2010PropOp36
 70
     0
102
RTVSPost2010Prop37
 90
       50
102
RTVSPost2010PropOp37
 70
     0
102
RTVSPost2010Prop38
140
0.0
102
RTVSPost2010PropOp38
 70
     0
102
RTVSPost2010Prop39
140
1.0
102
RTVSPost2010PropOp39
 70
     0
102
RTVSPost2010Prop40
 90
        0
102
RTVSPost2010PropOp40
 70
     0
102
RTVSPost2010Prop41ColorIndex
 90
       18
102
RTVSPost2010Prop41ColorRGB
 90
        0
102
RTVSPost2010PropOp41
 70
     0
102
RTVSPost2010Prop42
 90
       50
102
RTVSPost2010PropOp42
 70
     0
102
RTVSPost2010Prop43
 90
        3
102
RTVSPost2010PropOp43
 70
     0
102
RTVSPost2010Prop44ColorIndex
 90
        5
102
RTVSPost2010Prop44ColorRGB
 90
      255
102
RTVSPost2010PropOp44
 70
     0
102
RTVSPost2010Prop45
280
     0
102
RTVSPost2010PropOp45
 70
     0
102
RTVSPost2010Prop46
 90
       50
102
RTVSPost2010PropOp46
 70
     0
102
RTVSPost2010Prop47
 90
       50
102
RTVSPost2010PropOp47
 70
     0
102
RTVSPost2010Prop48
 90
       50
102
RTVSPost2010PropOp48
 70
     0
102
RTVSPost2010Prop49
280
     0
102
RTVSPost2010PropOp49
 70
     0
102
RTVSPost2010Prop50
 90
       50
102
RTVSPost2010PropOp50
 70
     0
102
RTVSPost2010Prop51ColorIndex
 90
      256
102
RTVSPost2010Prop51ColorRGB
 90
-16777216
102
RTVSPost2010PropOp51
 70
     0
102
RTVSPost2010Prop52
140
1.0
102
RTVSPost2010PropOp52
 70
     0
102
RTVSPost2010Prop53
 90
        2
102
RTVSPost2010PropOp53
 70
     0
102
RTVSPost2010Prop54
  1
strokes_ogs.tif
102
RTVSPost2010PropOp54
 70
     0
102
RTVSPost2010Prop55
280
     0
102
RTVSPost2010PropOp55
 70
     0
102
RTVSPost2010Prop56
140
1.0
102
RTVSPost2010PropOp56
 70
     0
102
RTVSPost2010Prop57
140
1.0
102
RTVSPost2010PropOp57
 70
     0
  0
XRECORD
  5
1AE
102
{ACAD_REACTORS
330
1AD
102
}
330
1AD
100
AcDbXrecord
280
     1
102
RTVSPropertyOp0
 70
     1
102
RTVSPropertyOp1
 70
     1
102
RTVSPropertyOp2
 70
     1
102
RTVSPropertyOp3
 70
     1
102
RTVSPropertyOp4
 70
     1
102
RTVSPropertyOp5
 70
     1
102
RTVSPropertyOp6
 70
     1
102
RTVSPropertyOp7
 70
     1
102
RTVSPropertyOp8
 70
     1
102
RTVSPropertyOp9
 70
     1
102
RTVSPropertyOp10
 70
     1
102
RTVSPropertyOp11
 70
     1
102
RTVSPropertyOp12
 70
     1
102
RTVSPropertyOp13
 70
     1
102
RTVSPropertyOp14
 70
     1
102
RTVSPropertyOp15
 70
     1
102
RTVSPropertyOp16
 70
     1
102
RTVSPropertyOp17
 70
     1
102
RTVSPropertyOp18
 70
     1
102
RTVSPropertyOp19
 70
     1
102
RTVSPropertyOp20
 70
     1
102
RTVSPropertyOp21
 70
     1
102
RTVSPropertyOp22
 70
     1
102
RTVSPropertyOp23
 70
     1
102
RTVSPropertyOp24
 70
     1
102
RTVSPropertyOp25
 70
     1
102
RTVSPropertyOp26
 70
     1
102
RTVSPropertyOp27
 70
     1
102
RTVSPropertyOp28
 70
     1
102
RTVSPropertyOp29
 70
     1
102
RTVSPropertyOp30
 70
     1
102
RTVSPropertyOp31
 70
     1
102
RTVSPropertyOp32
 70
     1
102
RTVSPropertyOp33
 70
     1
102
RTVSPropertyOp34
 70
     1
102
RTVSPropertyOp35
 70
     1
102
RTVSPropertyOp36
 70
     1
102
RTVSPropertyOp37
 70
     1
102
RTVSPropertyOp38
 70
     1
102
RTVSPropertyOp39
 70
     1
102
RTVSPropertyOp40
 70
     1
102
RTVSPropertyOp41
 70
     1
102
RTVSPropertyOp42
 70
     1
102
RTVSPropertyOp43
 70
     1
102
RTVSPropertyOp44
 70
     1
102
RTVSPropertyOp45
 70
     1
102
RTVSPropertyOp46
 70
     1
102
RTVSPropertyOp47
 70
     1
102
RTVSPropertyOp48
 70
     1
102
RTVSPropertyOp49
 70
     1
102
RTVSPropertyOp50
 70
     1
102
RTVSPropertyOp51
 70
     0
102
RTVSPropertyOp52
 70
     0
102
RTVSPropertyOp53
 70
     1
102
RTVSPropertyOp54
 70
     1
102
RTVSPropertyOp55
 70
     1
102
RTVSPropertyOp56
 70
     1
102
RTVSPropertyOp57
 70
     1
102
RTVSPost2010Prop28
280
     0
102
RTVSPost2010PropOp28
 70
     1
102
RTVSPost2010Prop29
280
     1
102
RTVSPost2010PropOp29
 70
     1
102
RTVSPost2010Prop30
280
     1
102
RTVSPost2010PropOp30
 70
     1
102
RTVSPost2010Prop31
280
     0
102
RTVSPost2010PropOp31
 70
     1
102
RTVSPost2010Prop32
280
     0
102
RTVSPost2010PropOp32
 70
     1
102
RTVSPost2010Prop33
280
     0
102
RTVSPost2010PropOp33
 70
     1
102
RTVSPost2010Prop34
280
     0
102
RTVSPost2010PropOp34
 70
     1
102
RTVSPost2010Prop35
280
     0
102
RTVSPost2010PropOp35
 70
     1
102
RTVSPost2010Prop36
280
     0
102
RTVSPost2010PropOp36
 70
     1
102
RTVSPost2010Prop37
 90
       50
102
RTVSPost2010PropOp37
 70
     1
102
RTVSPost2010Prop38
140
0.0
102
RTVSPost2010PropOp38
 70
     1
102
RTVSPost2010Prop39
140
1.0
102
RTVSPost2010PropOp39
 70
     1
102
RTVSPost2010Prop40
 90
        0
102
RTVSPost2010PropOp40
 70
     1
102
RTVSPost2010Prop41ColorIndex
 90
       18
102
RTVSPost2010Prop41ColorRGB
 90
        0
102
RTVSPost2010PropOp41
 70
     1
102
RTVSPost2010Prop42
 90
       50
102
RTVSPost2010PropOp42
 70
     1
102
RTVSPost2010Prop43
 90
        3
102
RTVSPost2010PropOp43
 70
     1
102
RTVSPost2010Prop44ColorIndex
 90
        5
102
RTVSPost2010Prop44ColorRGB
 90
      255
102
RTVSPost2010PropOp44
 70
     1
102
RTVSPost2010Prop45
280
     0
102
RTVSPost2010PropOp45
 70
     1
102
RTVSPost2010Prop46
 90
       50
102
RTVSPost2010PropOp46
 70
     1
102
RTVSPost2010Prop47
 90
       50
102
RTVSPost2010PropOp47
 70
     1
102
RTVSPost2010Prop48
 90
       50
102
RTVSPost2010PropOp48
 70
     1
102
RTVSPost2010Prop49
280
     0
102
RTVSPost2010PropOp49
 70
     1
102
RTVSPost2010Prop50
 90
       50
102
RTVSPost2010PropOp50
 70
     1
102
RTVSPost2010Prop51ColorIndex
 90
      256
102
RTVSPost2010Prop51ColorRGB
 90
-16777216
102
RTVSPost2010PropOp51
 70
     0
102
RTVSPost2010Prop52
140
1.0
102
RTVSPost2010PropOp52
 70
     0
102
RTVSPost2010Prop53
 90
        2
102
RTVSPost2010PropOp53
 70
     1
102
RTVSPost2010Prop54
  1
strokes_ogs.tif
102
RTVSPost2010PropOp54
 70
     1
102
RTVSPost2010Prop55
280
     0
102
RTVSPost2010PropOp55
 70
     1
102
RTVSPost2010Prop56
140
1.0
102
RTVSPost2010PropOp56
 70
     1
102
RTVSPost2010Prop57
140
1.0
102
RTVSPost2010PropOp57
 70
     1
  0
XRECORD
  5
192
102
{ACAD_REACTORS
330
191
102
}
330
191
100
AcDbXrecord
280
     1
102
RTVSPropertyOp0
 70
     1
102
RTVSPropertyOp1
 70
     1
102
RTVSPropertyOp2
 70
     1
102
RTVSPropertyOp3
 70
     1
102
RTVSPropertyOp4
 70
     1
102
RTVSPropertyOp5
 70
     1
102
RTVSPropertyOp6
 70
     1
102
RTVSPropertyOp7
 70
     1
102
RTVSPropertyOp8
 70
     1
102
RTVSPropertyOp9
 70
     1
102
RTVSPropertyOp10
 70
     1
102
RTVSPropertyOp11
 70
     1
102
RTVSPropertyOp12
 70
     1
102
RTVSPropertyOp13
 70
     1
102
RTVSPropertyOp14
 70
     1
102
RTVSPropertyOp15
 70
     1
102
RTVSPropertyOp16
 70
     1
102
RTVSPropertyOp17
 70
     1
102
RTVSPropertyOp18
 70
     1
102
RTVSPropertyOp19
 70
     1
102
RTVSPropertyOp20
 70
     1
102
RTVSPropertyOp21
 70
     1
102
RTVSPropertyOp22
 70
     1
102
RTVSPropertyOp23
 70
     1
102
RTVSPropertyOp24
 70
     1
102
RTVSPropertyOp25
 70
     1
102
RTVSPropertyOp26
 70
     1
102
RTVSPropertyOp27
 70
     1
102
RTVSPropertyOp28
 70
     1
102
RTVSPropertyOp29
 70
     1
102
RTVSPropertyOp30
 70
     1
102
RTVSPropertyOp31
 70
     1
102
RTVSPropertyOp32
 70
     1
102
RTVSPropertyOp33
 70
     1
102
RTVSPropertyOp34
 70
     1
102
RTVSPropertyOp35
 70
     1
102
RTVSPropertyOp36
 70
     1
102
RTVSPropertyOp37
 70
     1
102
RTVSPropertyOp38
 70
     1
102
RTVSPropertyOp39
 70
     1
102
RTVSPropertyOp40
 70
     1
102
RTVSPropertyOp41
 70
     1
102
RTVSPropertyOp42
 70
     1
102
RTVSPropertyOp43
 70
     1
102
RTVSPropertyOp44
 70
     1
102
RTVSPropertyOp45
 70
     1
102
RTVSPropertyOp46
 70
     1
102
RTVSPropertyOp47
 70
     1
102
RTVSPropertyOp48
 70
     1
102
RTVSPropertyOp49
 70
     1
102
RTVSPropertyOp50
 70
     1
102
RTVSPropertyOp51
 70
     0
102
RTVSPropertyOp52
 70
     0
102
RTVSPropertyOp53
 70
     1
102
RTVSPropertyOp54
 70
     1
102
RTVSPropertyOp55
 70
     1
102
RTVSPropertyOp56
 70
     1
102
RTVSPropertyOp57
 70
     1
102
RTVSPost2010Prop28
280
     0
102
RTVSPost2010PropOp28
 70
     1
102
RTVSPost2010Prop29
280
     1
102
RTVSPost2010PropOp29
 70
     1
102
RTVSPost2010Prop30
280
     1
102
RTVSPost2010PropOp30
 70
     1
102
RTVSPost2010Prop31
280
     0
102
RTVSPost2010PropOp31
 70
     1
102
RTVSPost2010Prop32
280
     0
102
RTVSPost2010PropOp32
 70
     1
102
RTVSPost2010Prop33
280
     0
102
RTVSPost2010PropOp33
 70
     1
102
RTVSPost2010Prop34
280
     0
102
RTVSPost2010PropOp34
 70
     1
102
RTVSPost2010Prop35
280
     0
102
RTVSPost2010PropOp35
 70
     1
102
RTVSPost2010Prop36
280
     0
102
RTVSPost2010PropOp36
 70
     1
102
RTVSPost2010Prop37
 90
       50
102
RTVSPost2010PropOp37
 70
     1
102
RTVSPost2010Prop38
140
0.0
102
RTVSPost2010PropOp38
 70
     1
102
RTVSPost2010Prop39
140
1.0
102
RTVSPost2010PropOp39
 70
     1
102
RTVSPost2010Prop40
 90
        0
102
RTVSPost2010PropOp40
 70
     1
102
RTVSPost2010Prop41ColorIndex
 90
       18
102
RTVSPost2010Prop41ColorRGB
 90
        0
102
RTVSPost2010PropOp41
 70
     1
102
RTVSPost2010Prop42
 90
       50
102
RTVSPost2010PropOp42
 70
     1
102
RTVSPost2010Prop43
 90
        3
102
RTVSPost2010PropOp43
 70
     1
102
RTVSPost2010Prop44ColorIndex
 90
        5
102
RTVSPost2010Prop44ColorRGB
 90
      255
102
RTVSPost2010PropOp44
 70
     1
102
RTVSPost2010Prop45
280
     0
102
RTVSPost2010PropOp45
 70
     1
102
RTVSPost2010Prop46
 90
       50
102
RTVSPost2010PropOp46
 70
     1
102
RTVSPost2010Prop47
 90
       50
102
RTVSPost2010PropOp47
 70
     1
102
RTVSPost2010Prop48
 90
       50
102
RTVSPost2010PropOp48
 70
     1
102
RTVSPost2010Prop49
280
     0
102
RTVSPost2010PropOp49
 70
     1
102
RTVSPost2010Prop50
 90
       50
102
RTVSPost2010PropOp50
 70
     1
102
RTVSPost2010Prop51ColorIndex
 90
      256
102
RTVSPost2010Prop51ColorRGB
 90
-16777216
102
RTVSPost2010PropOp51
 70
     0
102
RTVSPost2010Prop52
140
1.0
102
RTVSPost2010PropOp52
 70
     0
102
RTVSPost2010Prop53
 90
        2
102
RTVSPost2010PropOp53
 70
     1
102
RTVSPost2010Prop54
  1
strokes_ogs.tif
102
RTVSPost2010PropOp54
 70
     1
102
RTVSPost2010Prop55
280
     0
102
RTVSPost2010PropOp55
 70
     1
102
RTVSPost2010Prop56
140
1.0
102
RTVSPost2010PropOp56
 70
     1
102
RTVSPost2010Prop57
140
1.0
102
RTVSPost2010PropOp57
 70
     1
  0
XRECORD
  5
194
102
{ACAD_REACTORS
330
193
102
}
330
193
100
AcDbXrecord
280
     1
102
RTVSPropertyOp0
 70
     1
102
RTVSPropertyOp1
 70
     1
102
RTVSPropertyOp2
 70
     1
102
RTVSPropertyOp3
 70
     1
102
RTVSPropertyOp4
 70
     1
102
RTVSPropertyOp5
 70
     1
102
RTVSPropertyOp6
 70
     1
102
RTVSPropertyOp7
 70
     1
102
RTVSPropertyOp8
 70
     1
102
RTVSPropertyOp9
 70
     1
102
RTVSPropertyOp10
 70
     1
102
RTVSPropertyOp11
 70
     1
102
RTVSPropertyOp12
 70
     1
102
RTVSPropertyOp13
 70
     1
102
RTVSPropertyOp14
 70
     1
102
RTVSPropertyOp15
 70
     1
102
RTVSPropertyOp16
 70
     1
102
RTVSPropertyOp17
 70
     1
102
RTVSPropertyOp18
 70
     1
102
RTVSPropertyOp19
 70
     1
102
RTVSPropertyOp20
 70
     1
102
RTVSPropertyOp21
 70
     1
102
RTVSPropertyOp22
 70
     1
102
RTVSPropertyOp23
 70
     1
102
RTVSPropertyOp24
 70
     1
102
RTVSPropertyOp25
 70
     1
102
RTVSPropertyOp26
 70
     1
102
RTVSPropertyOp27
 70
     1
102
RTVSPropertyOp28
 70
     1
102
RTVSPropertyOp29
 70
     1
102
RTVSPropertyOp30
 70
     1
102
RTVSPropertyOp31
 70
     1
102
RTVSPropertyOp32
 70
     1
102
RTVSPropertyOp33
 70
     1
102
RTVSPropertyOp34
 70
     1
102
RTVSPropertyOp35
 70
     1
102
RTVSPropertyOp36
 70
     1
102
RTVSPropertyOp37
 70
     1
102
RTVSPropertyOp38
 70
     1
102
RTVSPropertyOp39
 70
     1
102
RTVSPropertyOp40
 70
     1
102
RTVSPropertyOp41
 70
     1
102
RTVSPropertyOp42
 70
     1
102
RTVSPropertyOp43
 70
     1
102
RTVSPropertyOp44
 70
     1
102
RTVSPropertyOp45
 70
     1
102
RTVSPropertyOp46
 70
     1
102
RTVSPropertyOp47
 70
     1
102
RTVSPropertyOp48
 70
     1
102
RTVSPropertyOp49
 70
     1
102
RTVSPropertyOp50
 70
     1
102
RTVSPropertyOp51
 70
     0
102
RTVSPropertyOp52
 70
     0
102
RTVSPropertyOp53
 70
     1
102
RTVSPropertyOp54
 70
     1
102
RTVSPropertyOp55
 70
     1
102
RTVSPropertyOp56
 70
     1
102
RTVSPropertyOp57
 70
     1
102
RTVSPost2010Prop28
280
     0
102
RTVSPost2010PropOp28
 70
     1
102
RTVSPost2010Prop29
280
     1
102
RTVSPost2010PropOp29
 70
     1
102
RTVSPost2010Prop30
280
     1
102
RTVSPost2010PropOp30
 70
     1
102
RTVSPost2010Prop31
280
     0
102
RTVSPost2010PropOp31
 70
     1
102
RTVSPost2010Prop32
280
     0
102
RTVSPost2010PropOp32
 70
     1
102
RTVSPost2010Prop33
280
     0
102
RTVSPost2010PropOp33
 70
     1
102
RTVSPost2010Prop34
280
     0
102
RTVSPost2010PropOp34
 70
     1
102
RTVSPost2010Prop35
280
     0
102
RTVSPost2010PropOp35
 70
     1
102
RTVSPost2010Prop36
280
     0
102
RTVSPost2010PropOp36
 70
     1
102
RTVSPost2010Prop37
 90
       50
102
RTVSPost2010PropOp37
 70
     1
102
RTVSPost2010Prop38
140
0.0
102
RTVSPost2010PropOp38
 70
     1
102
RTVSPost2010Prop39
140
1.0
102
RTVSPost2010PropOp39
 70
     1
102
RTVSPost2010Prop40
 90
        0
102
RTVSPost2010PropOp40
 70
     1
102
RTVSPost2010Prop41ColorIndex
 90
       18
102
RTVSPost2010Prop41ColorRGB
 90
        0
102
RTVSPost2010PropOp41
 70
     1
102
RTVSPost2010Prop42
 90
       50
102
RTVSPost2010PropOp42
 70
     1
102
RTVSPost2010Prop43
 90
        3
102
RTVSPost2010PropOp43
 70
     1
102
RTVSPost2010Prop44ColorIndex
 90
        5
102
RTVSPost2010Prop44ColorRGB
 90
      255
102
RTVSPost2010PropOp44
 70
     1
102
RTVSPost2010Prop45
280
     0
102
RTVSPost2010PropOp45
 70
     1
102
RTVSPost2010Prop46
 90
       50
102
RTVSPost2010PropOp46
 70
     1
102
RTVSPost2010Prop47
 90
       50
102
RTVSPost2010PropOp47
 70
     1
102
RTVSPost2010Prop48
 90
       50
102
RTVSPost2010PropOp48
 70
     1
102
RTVSPost2010Prop49
280
     0
102
RTVSPost2010PropOp49
 70
     1
102
RTVSPost2010Prop50
 90
       50
102
RTVSPost2010PropOp50
 70
     1
102
RTVSPost2010Prop51ColorIndex
 90
      256
102
RTVSPost2010Prop51ColorRGB
 90
-16777216
102
RTVSPost2010PropOp51
 70
     0
102
RTVSPost2010Prop52
140
1.0
102
RTVSPost2010PropOp52
 70
     0
102
RTVSPost2010Prop53
 90
        2
102
RTVSPost2010PropOp53
 70
     1
102
RTVSPost2010Prop54
  1
strokes_ogs.tif
102
RTVSPost2010PropOp54
 70
     1
102
RTVSPost2010Prop55
280
     0
102
RTVSPost2010PropOp55
 70
     1
102
RTVSPost2010Prop56
140
1.0
102
RTVSPost2010PropOp56
 70
     1
102
RTVSPost2010Prop57
140
1.0
102
RTVSPost2010PropOp57
 70
     1
  0
XRECORD
  5
196
102
{ACAD_REACTORS
330
195
102
}
330
195
100
AcDbXrecord
280
     1
102
RTVSPropertyOp0
 70
     1
102
RTVSPropertyOp1
 70
     1
102
RTVSPropertyOp2
 70
     1
102
RTVSPropertyOp3
 70
     1
102
RTVSPropertyOp4
 70
     1
102
RTVSPropertyOp5
 70
     1
102
RTVSPropertyOp6
 70
     1
102
RTVSPropertyOp7
 70
     1
102
RTVSPropertyOp8
 70
     1
102
RTVSPropertyOp9
 70
     1
102
RTVSPropertyOp10
 70
     1
102
RTVSPropertyOp11
 70
     1
102
RTVSPropertyOp12
 70
     1
102
RTVSPropertyOp13
 70
     1
102
RTVSPropertyOp14
 70
     1
102
RTVSPropertyOp15
 70
     1
102
RTVSPropertyOp16
 70
     1
102
RTVSPropertyOp17
 70
     1
102
RTVSPropertyOp18
 70
     1
102
RTVSPropertyOp19
 70
     1
102
RTVSPropertyOp20
 70
     1
102
RTVSPropertyOp21
 70
     1
102
RTVSPropertyOp22
 70
     1
102
RTVSPropertyOp23
 70
     1
102
RTVSPropertyOp24
 70
     1
102
RTVSPropertyOp25
 70
     1
102
RTVSPropertyOp26
 70
     1
102
RTVSPropertyOp27
 70
     1
102
RTVSPropertyOp28
 70
     1
102
RTVSPropertyOp29
 70
     1
102
RTVSPropertyOp30
 70
     1
102
RTVSPropertyOp31
 70
     1
102
RTVSPropertyOp32
 70
     1
102
RTVSPropertyOp33
 70
     1
102
RTVSPropertyOp34
 70
     1
102
RTVSPropertyOp35
 70
     1
102
RTVSPropertyOp36
 70
     1
102
RTVSPropertyOp37
 70
     1
102
RTVSPropertyOp38
 70
     1
102
RTVSPropertyOp39
 70
     1
102
RTVSPropertyOp40
 70
     1
102
RTVSPropertyOp41
 70
     1
102
RTVSPropertyOp42
 70
     1
102
RTVSPropertyOp43
 70
     1
102
RTVSPropertyOp44
 70
     1
102
RTVSPropertyOp45
 70
     1
102
RTVSPropertyOp46
 70
     1
102
RTVSPropertyOp47
 70
     1
102
RTVSPropertyOp48
 70
     1
102
RTVSPropertyOp49
 70
     1
102
RTVSPropertyOp50
 70
     1
102
RTVSPropertyOp51
 70
     0
102
RTVSPropertyOp52
 70
     0
102
RTVSPropertyOp53
 70
     1
102
RTVSPropertyOp54
 70
     1
102
RTVSPropertyOp55
 70
     1
102
RTVSPropertyOp56
 70
     1
102
RTVSPropertyOp57
 70
     1
102
RTVSPost2010Prop28
280
     0
102
RTVSPost2010PropOp28
 70
     1
102
RTVSPost2010Prop29
280
     1
102
RTVSPost2010PropOp29
 70
     1
102
RTVSPost2010Prop30
280
     1
102
RTVSPost2010PropOp30
 70
     1
102
RTVSPost2010Prop31
280
     0
102
RTVSPost2010PropOp31
 70
     1
102
RTVSPost2010Prop32
280
     0
102
RTVSPost2010PropOp32
 70
     1
102
RTVSPost2010Prop33
280
     0
102
RTVSPost2010PropOp33
 70
     1
102
RTVSPost2010Prop34
280
     0
102
RTVSPost2010PropOp34
 70
     1
102
RTVSPost2010Prop35
280
     0
102
RTVSPost2010PropOp35
 70
     1
102
RTVSPost2010Prop36
280
     0
102
RTVSPost2010PropOp36
 70
     1
102
RTVSPost2010Prop37
 90
       50
102
RTVSPost2010PropOp37
 70
     1
102
RTVSPost2010Prop38
140
0.0
102
RTVSPost2010PropOp38
 70
     1
102
RTVSPost2010Prop39
140
1.0
102
RTVSPost2010PropOp39
 70
     1
102
RTVSPost2010Prop40
 90
        0
102
RTVSPost2010PropOp40
 70
     1
102
RTVSPost2010Prop41ColorIndex
 90
       18
102
RTVSPost2010Prop41ColorRGB
 90
        0
102
RTVSPost2010PropOp41
 70
     1
102
RTVSPost2010Prop42
 90
       50
102
RTVSPost2010PropOp42
 70
     1
102
RTVSPost2010Prop43
 90
        3
102
RTVSPost2010PropOp43
 70
     1
102
RTVSPost2010Prop44ColorIndex
 90
        5
102
RTVSPost2010Prop44ColorRGB
 90
      255
102
RTVSPost2010PropOp44
 70
     1
102
RTVSPost2010Prop45
280
     0
102
RTVSPost2010PropOp45
 70
     1
102
RTVSPost2010Prop46
 90
       50
102
RTVSPost2010PropOp46
 70
     1
102
RTVSPost2010Prop47
 90
       50
102
RTVSPost2010PropOp47
 70
     1
102
RTVSPost2010Prop48
 90
       50
102
RTVSPost2010PropOp48
 70
     1
102
RTVSPost2010Prop49
280
     0
102
RTVSPost2010PropOp49
 70
     1
102
RTVSPost2010Prop50
 90
       50
102
RTVSPost2010PropOp50
 70
     1
102
RTVSPost2010Prop51ColorIndex
 90
      256
102
RTVSPost2010Prop51ColorRGB
 90
-16777216
102
RTVSPost2010PropOp51
 70
     0
102
RTVSPost2010Prop52
140
1.0
102
RTVSPost2010PropOp52
 70
     0
102
RTVSPost2010Prop53
 90
        2
102
RTVSPost2010PropOp53
 70
     1
102
RTVSPost2010Prop54
  1
strokes_ogs.tif
102
RTVSPost2010PropOp54
 70
     1
102
RTVSPost2010Prop55
280
     0
102
RTVSPost2010PropOp55
 70
     1
102
RTVSPost2010Prop56
140
1.0
102
RTVSPost2010PropOp56
 70
     1
102
RTVSPost2010Prop57
140
1.0
102
RTVSPost2010PropOp57
 70
     1
  0
XRECORD
  5
198
102
{ACAD_REACTORS
330
197
102
}
330
197
100
AcDbXrecord
280
     1
102
RTVSPropertyOp0
 70
     1
102
RTVSPropertyOp1
 70
     1
102
RTVSPropertyOp2
 70
     1
102
RTVSPropertyOp3
 70
     1
102
RTVSPropertyOp4
 70
     1
102
RTVSPropertyOp5
 70
     1
102
RTVSPropertyOp6
 70
     1
102
RTVSPropertyOp7
 70
     1
102
RTVSPropertyOp8
 70
     1
102
RTVSPropertyOp9
 70
     1
102
RTVSPropertyOp10
 70
     1
102
RTVSPropertyOp11
 70
     1
102
RTVSPropertyOp12
 70
     1
102
RTVSPropertyOp13
 70
     1
102
RTVSPropertyOp14
 70
     1
102
RTVSPropertyOp15
 70
     1
102
RTVSPropertyOp16
 70
     1
102
RTVSPropertyOp17
 70
     1
102
RTVSPropertyOp18
 70
     1
102
RTVSPropertyOp19
 70
     1
102
RTVSPropertyOp20
 70
     1
102
RTVSPropertyOp21
 70
     1
102
RTVSPropertyOp22
 70
     1
102
RTVSPropertyOp23
 70
     1
102
RTVSPropertyOp24
 70
     1
102
RTVSPropertyOp25
 70
     1
102
RTVSPropertyOp26
 70
     1
102
RTVSPropertyOp27
 70
     1
102
RTVSPropertyOp28
 70
     1
102
RTVSPropertyOp29
 70
     1
102
RTVSPropertyOp30
 70
     1
102
RTVSPropertyOp31
 70
     1
102
RTVSPropertyOp32
 70
     1
102
RTVSPropertyOp33
 70
     1
102
RTVSPropertyOp34
 70
     1
102
RTVSPropertyOp35
 70
     1
102
RTVSPropertyOp36
 70
     1
102
RTVSPropertyOp37
 70
     1
102
RTVSPropertyOp38
 70
     1
102
RTVSPropertyOp39
 70
     1
102
RTVSPropertyOp40
 70
     1
102
RTVSPropertyOp41
 70
     1
102
RTVSPropertyOp42
 70
     1
102
RTVSPropertyOp43
 70
     1
102
RTVSPropertyOp44
 70
     1
102
RTVSPropertyOp45
 70
     1
102
RTVSPropertyOp46
 70
     1
102
RTVSPropertyOp47
 70
     1
102
RTVSPropertyOp48
 70
     1
102
RTVSPropertyOp49
 70
     1
102
RTVSPropertyOp50
 70
     1
102
RTVSPropertyOp51
 70
     0
102
RTVSPropertyOp52
 70
     0
102
RTVSPropertyOp53
 70
     1
102
RTVSPropertyOp54
 70
     1
102
RTVSPropertyOp55
 70
     1
102
RTVSPropertyOp56
 70
     1
102
RTVSPropertyOp57
 70
     1
102
RTVSPost2010Prop28
280
     0
102
RTVSPost2010PropOp28
 70
     1
102
RTVSPost2010Prop29
280
     1
102
RTVSPost2010PropOp29
 70
     1
102
RTVSPost2010Prop30
280
     1
102
RTVSPost2010PropOp30
 70
     1
102
RTVSPost2010Prop31
280
     0
102
RTVSPost2010PropOp31
 70
     1
102
RTVSPost2010Prop32
280
     0
102
RTVSPost2010PropOp32
 70
     1
102
RTVSPost2010Prop33
280
     0
102
RTVSPost2010PropOp33
 70
     1
102
RTVSPost2010Prop34
280
     0
102
RTVSPost2010PropOp34
 70
     1
102
RTVSPost2010Prop35
280
     0
102
RTVSPost2010PropOp35
 70
     1
102
RTVSPost2010Prop36
280
     0
102
RTVSPost2010PropOp36
 70
     1
102
RTVSPost2010Prop37
 90
       50
102
RTVSPost2010PropOp37
 70
     1
102
RTVSPost2010Prop38
140
0.0
102
RTVSPost2010PropOp38
 70
     1
102
RTVSPost2010Prop39
140
1.0
102
RTVSPost2010PropOp39
 70
     1
102
RTVSPost2010Prop40
 90
        0
102
RTVSPost2010PropOp40
 70
     1
102
RTVSPost2010Prop41ColorIndex
 90
       18
102
RTVSPost2010Prop41ColorRGB
 90
        0
102
RTVSPost2010PropOp41
 70
     1
102
RTVSPost2010Prop42
 90
       50
102
RTVSPost2010PropOp42
 70
     1
102
RTVSPost2010Prop43
 90
        3
102
RTVSPost2010PropOp43
 70
     1
102
RTVSPost2010Prop44ColorIndex
 90
        5
102
RTVSPost2010Prop44ColorRGB
 90
      255
102
RTVSPost2010PropOp44
 70
     1
102
RTVSPost2010Prop45
280
     0
102
RTVSPost2010PropOp45
 70
     1
102
RTVSPost2010Prop46
 90
       50
102
RTVSPost2010PropOp46
 70
     1
102
RTVSPost2010Prop47
 90
       50
102
RTVSPost2010PropOp47
 70
     1
102
RTVSPost2010Prop48
 90
       50
102
RTVSPost2010PropOp48
 70
     1
102
RTVSPost2010Prop49
280
     0
102
RTVSPost2010PropOp49
 70
     1
102
RTVSPost2010Prop50
 90
       50
102
RTVSPost2010PropOp50
 70
     1
102
RTVSPost2010Prop51ColorIndex
 90
      256
102
RTVSPost2010Prop51ColorRGB
 90
-16777216
102
RTVSPost2010PropOp51
 70
     0
102
RTVSPost2010Prop52
140
1.0
102
RTVSPost2010PropOp52
 70
     0
102
RTVSPost2010Prop53
 90
        2
102
RTVSPost2010PropOp53
 70
     1
102
RTVSPost2010Prop54
  1
strokes_ogs.tif
102
RTVSPost2010PropOp54
 70
     1
102
RTVSPost2010Prop55
280
     0
102
RTVSPost2010PropOp55
 70
     1
102
RTVSPost2010Prop56
140
1.0
102
RTVSPost2010PropOp56
 70
     1
102
RTVSPost2010Prop57
140
1.0
102
RTVSPost2010PropOp57
 70
     1
  0
XRECORD
  5
19E
102
{ACAD_REACTORS
330
19D
102
}
330
19D
100
AcDbXrecord
280
     1
102
RTVSPropertyOp0
 70
     1
102
RTVSPropertyOp1
 70
     1
102
RTVSPropertyOp2
 70
     1
102
RTVSPropertyOp3
 70
     1
102
RTVSPropertyOp4
 70
     1
102
RTVSPropertyOp5
 70
     1
102
RTVSPropertyOp6
 70
     1
102
RTVSPropertyOp7
 70
     1
102
RTVSPropertyOp8
 70
     1
102
RTVSPropertyOp9
 70
     1
102
RTVSPropertyOp10
 70
     1
102
RTVSPropertyOp11
 70
     1
102
RTVSPropertyOp12
 70
     1
102
RTVSPropertyOp13
 70
     1
102
RTVSPropertyOp14
 70
     1
102
RTVSPropertyOp15
 70
     1
102
RTVSPropertyOp16
 70
     1
102
RTVSPropertyOp17
 70
     1
102
RTVSPropertyOp18
 70
     1
102
RTVSPropertyOp19
 70
     1
102
RTVSPropertyOp20
 70
     1
102
RTVSPropertyOp21
 70
     1
102
RTVSPropertyOp22
 70
     1
102
RTVSPropertyOp23
 70
     1
102
RTVSPropertyOp24
 70
     1
102
RTVSPropertyOp25
 70
     1
102
RTVSPropertyOp26
 70
     1
102
RTVSPropertyOp27
 70
     1
102
RTVSPropertyOp28
 70
     1
102
RTVSPropertyOp29
 70
     1
102
RTVSPropertyOp30
 70
     1
102
RTVSPropertyOp31
 70
     1
102
RTVSPropertyOp32
 70
     1
102
RTVSPropertyOp33
 70
     1
102
RTVSPropertyOp34
 70
     1
102
RTVSPropertyOp35
 70
     1
102
RTVSPropertyOp36
 70
     1
102
RTVSPropertyOp37
 70
     1
102
RTVSPropertyOp38
 70
     1
102
RTVSPropertyOp39
 70
     1
102
RTVSPropertyOp40
 70
     1
102
RTVSPropertyOp41
 70
     1
102
RTVSPropertyOp42
 70
     1
102
RTVSPropertyOp43
 70
     1
102
RTVSPropertyOp44
 70
     1
102
RTVSPropertyOp45
 70
     1
102
RTVSPropertyOp46
 70
     1
102
RTVSPropertyOp47
 70
     1
102
RTVSPropertyOp48
 70
     1
102
RTVSPropertyOp49
 70
     1
102
RTVSPropertyOp50
 70
     1
102
RTVSPropertyOp51
 70
     0
102
RTVSPropertyOp52
 70
     0
102
RTVSPropertyOp53
 70
     1
102
RTVSPropertyOp54
 70
     1
102
RTVSPropertyOp55
 70
     1
102
RTVSPropertyOp56
 70
     1
102
RTVSPropertyOp57
 70
     1
102
RTVSPost2010Prop28
280
     0
102
RTVSPost2010PropOp28
 70
     1
102
RTVSPost2010Prop29
280
     1
102
RTVSPost2010PropOp29
 70
     1
102
RTVSPost2010Prop30
280
     1
102
RTVSPost2010PropOp30
 70
     1
102
RTVSPost2010Prop31
280
     0
102
RTVSPost2010PropOp31
 70
     1
102
RTVSPost2010Prop32
280
     0
102
RTVSPost2010PropOp32
 70
     1
102
RTVSPost2010Prop33
280
     0
102
RTVSPost2010PropOp33
 70
     1
102
RTVSPost2010Prop34
280
     0
102
RTVSPost2010PropOp34
 70
     1
102
RTVSPost2010Prop35
280
     0
102
RTVSPost2010PropOp35
 70
     1
102
RTVSPost2010Prop36
280
     0
102
RTVSPost2010PropOp36
 70
     1
102
RTVSPost2010Prop37
 90
       50
102
RTVSPost2010PropOp37
 70
     1
102
RTVSPost2010Prop38
140
0.0
102
RTVSPost2010PropOp38
 70
     1
102
RTVSPost2010Prop39
140
1.0
102
RTVSPost2010PropOp39
 70
     1
102
RTVSPost2010Prop40
 90
        0
102
RTVSPost2010PropOp40
 70
     1
102
RTVSPost2010Prop41ColorIndex
 90
       18
102
RTVSPost2010Prop41ColorRGB
 90
        0
102
RTVSPost2010PropOp41
 70
     1
102
RTVSPost2010Prop42
 90
       50
102
RTVSPost2010PropOp42
 70
     1
102
RTVSPost2010Prop43
 90
        3
102
RTVSPost2010PropOp43
 70
     1
102
RTVSPost2010Prop44ColorIndex
 90
        5
102
RTVSPost2010Prop44ColorRGB
 90
      255
102
RTVSPost2010PropOp44
 70
     1
102
RTVSPost2010Prop45
280
     0
102
RTVSPost2010PropOp45
 70
     1
102
RTVSPost2010Prop46
 90
       50
102
RTVSPost2010PropOp46
 70
     1
102
RTVSPost2010Prop47
 90
       50
102
RTVSPost2010PropOp47
 70
     1
102
RTVSPost2010Prop48
 90
       50
102
RTVSPost2010PropOp48
 70
     1
102
RTVSPost2010Prop49
280
     0
102
RTVSPost2010PropOp49
 70
     1
102
RTVSPost2010Prop50
 90
       50
102
RTVSPost2010PropOp50
 70
     1
102
RTVSPost2010Prop51ColorIndex
 90
      256
102
RTVSPost2010Prop51ColorRGB
 90
-16777216
102
RTVSPost2010PropOp51
 70
     0
102
RTVSPost2010Prop52
140
1.0
102
RTVSPost2010PropOp52
 70
     0
102
RTVSPost2010Prop53
 90
        2
102
RTVSPost2010PropOp53
 70
     1
102
RTVSPost2010Prop54
  1
strokes_ogs.tif
102
RTVSPost2010PropOp54
 70
     1
102
RTVSPost2010Prop55
280
     0
102
RTVSPost2010PropOp55
 70
     1
102
RTVSPost2010Prop56
140
1.0
102
RTVSPost2010PropOp56
 70
     1
102
RTVSPost2010Prop57
140
1.0
102
RTVSPost2010PropOp57
 70
     1
  0
XRECORD
  5
1B2
102
{ACAD_REACTORS
330
1B1
102
}
330
1B1
100
AcDbXrecord
280
     1
102
RTVSPropertyOp0
 70
     0
102
RTVSPropertyOp1
 70
     0
102
RTVSPropertyOp2
 70
     0
102
RTVSPropertyOp3
 70
     0
102
RTVSPropertyOp4
 70
     0
102
RTVSPropertyOp5
 70
     0
102
RTVSPropertyOp6
 70
     0
102
RTVSPropertyOp7
 70
     0
102
RTVSPropertyOp8
 70
     0
102
RTVSPropertyOp9
 70
     0
102
RTVSPropertyOp10
 70
     0
102
RTVSPropertyOp11
 70
     0
102
RTVSPropertyOp12
 70
     0
102
RTVSPropertyOp13
 70
     0
102
RTVSPropertyOp14
 70
     2
102
RTVSPropertyOp15
 70
     0
102
RTVSPropertyOp16
 70
     0
102
RTVSPropertyOp17
 70
     0
102
RTVSPropertyOp18
 70
     0
102
RTVSPropertyOp19
 70
     0
102
RTVSPropertyOp20
 70
     0
102
RTVSPropertyOp21
 70
     0
102
RTVSPropertyOp22
 70
     0
102
RTVSPropertyOp23
 70
     0
102
RTVSPropertyOp24
 70
     0
102
RTVSPropertyOp25
 70
     0
102
RTVSPropertyOp26
 70
     0
102
RTVSPropertyOp27
 70
     0
102
RTVSPropertyOp28
 70
     0
102
RTVSPropertyOp29
 70
     0
102
RTVSPropertyOp30
 70
     0
102
RTVSPropertyOp31
 70
     0
102
RTVSPropertyOp32
 70
     0
102
RTVSPropertyOp33
 70
     0
102
RTVSPropertyOp34
 70
     0
102
RTVSPropertyOp35
 70
     0
102
RTVSPropertyOp36
 70
     0
102
RTVSPropertyOp37
 70
     0
102
RTVSPropertyOp38
 70
     0
102
RTVSPropertyOp39
 70
     0
102
RTVSPropertyOp40
 70
     0
102
RTVSPropertyOp41
 70
     0
102
RTVSPropertyOp42
 70
     0
102
RTVSPropertyOp43
 70
     0
102
RTVSPropertyOp44
 70
     0
102
RTVSPropertyOp45
 70
     0
102
RTVSPropertyOp46
 70
     0
102
RTVSPropertyOp47
 70
     0
102
RTVSPropertyOp48
 70
     0
102
RTVSPropertyOp49
 70
     0
102
RTVSPropertyOp50
 70
     0
102
RTVSPropertyOp51
 70
     0
102
RTVSPropertyOp52
 70
     0
102
RTVSPropertyOp53
 70
     0
102
RTVSPropertyOp54
 70
     0
102
RTVSPropertyOp55
 70
     0
102
RTVSPropertyOp56
 70
     0
102
RTVSPropertyOp57
 70
     0
102
RTVSPost2010Prop28
280
     0
102
RTVSPost2010PropOp28
 70
     0
102
RTVSPost2010Prop29
280
     1
102
RTVSPost2010PropOp29
 70
     0
102
RTVSPost2010Prop30
280
     1
102
RTVSPost2010PropOp30
 70
     0
102
RTVSPost2010Prop31
280
     0
102
RTVSPost2010PropOp31
 70
     0
102
RTVSPost2010Prop32
280
     0
102
RTVSPost2010PropOp32
 70
     0
102
RTVSPost2010Prop33
280
     0
102
RTVSPost2010PropOp33
 70
     0
102
RTVSPost2010Prop34
280
     0
102
RTVSPost2010PropOp34
 70
     0
102
RTVSPost2010Prop35
280
     0
102
RTVSPost2010PropOp35
 70
     0
102
RTVSPost2010Prop36
280
     0
102
RTVSPost2010PropOp36
 70
     0
102
RTVSPost2010Prop37
 90
       50
102
RTVSPost2010PropOp37
 70
     0
102
RTVSPost2010Prop38
140
0.0
102
RTVSPost2010PropOp38
 70
     0
102
RTVSPost2010Prop39
140
1.0
102
RTVSPost2010PropOp39
 70
     0
102
RTVSPost2010Prop40
 90
        0
102
RTVSPost2010PropOp40
 70
     0
102
RTVSPost2010Prop41ColorIndex
 90
       18
102
RTVSPost2010Prop41ColorRGB
 90
        0
102
RTVSPost2010PropOp41
 70
     0
102
RTVSPost2010Prop42
 90
       50
102
RTVSPost2010PropOp42
 70
     0
102
RTVSPost2010Prop43
 90
        3
102
RTVSPost2010PropOp43
 70
     0
102
RTVSPost2010Prop44ColorIndex
 90
        5
102
RTVSPost2010Prop44ColorRGB
 90
      255
102
RTVSPost2010PropOp44
 70
     0
102
RTVSPost2010Prop45
280
     0
102
RTVSPost2010PropOp45
 70
     0
102
RTVSPost2010Prop46
 90
       50
102
RTVSPost2010PropOp46
 70
     0
102
RTVSPost2010Prop47
 90
       50
102
RTVSPost2010PropOp47
 70
     0
102
RTVSPost2010Prop48
 90
       50
102
RTVSPost2010PropOp48
 70
     0
102
RTVSPost2010Prop49
280
     0
102
RTVSPost2010PropOp49
 70
     0
102
RTVSPost2010Prop50
 90
       50
102
RTVSPost2010PropOp50
 70
     0
102
RTVSPost2010Prop51ColorIndex
 90
      256
102
RTVSPost2010Prop51ColorRGB
 90
-16777216
102
RTVSPost2010PropOp51
 70
     0
102
RTVSPost2010Prop52
140
1.0
102
RTVSPost2010PropOp52
 70
     0
102
RTVSPost2010Prop53
 90
        2
102
RTVSPost2010PropOp53
 70
     0
102
RTVSPost2010Prop54
  1
strokes_ogs.tif
102
RTVSPost2010PropOp54
 70
     0
102
RTVSPost2010Prop55
280
     0
102
RTVSPost2010PropOp55
 70
     0
102
RTVSPost2010Prop56
140
1.0
102
RTVSPost2010PropOp56
 70
     0
102
RTVSPost2010Prop57
140
1.0
102
RTVSPost2010PropOp57
 70
     0
  0
XRECORD
  5
1AC
102
{ACAD_REACTORS
330
1AB
102
}
330
1AB
100
AcDbXrecord
280
     1
102
RTVSPropertyOp0
 70
     1
102
RTVSPropertyOp1
 70
     1
102
RTVSPropertyOp2
 70
     1
102
RTVSPropertyOp3
 70
     1
102
RTVSPropertyOp4
 70
     1
102
RTVSPropertyOp5
 70
     1
102
RTVSPropertyOp6
 70
     1
102
RTVSPropertyOp7
 70
     1
102
RTVSPropertyOp8
 70
     1
102
RTVSPropertyOp9
 70
     1
102
RTVSPropertyOp10
 70
     1
102
RTVSPropertyOp11
 70
     1
102
RTVSPropertyOp12
 70
     1
102
RTVSPropertyOp13
 70
     1
102
RTVSPropertyOp14
 70
     1
102
RTVSPropertyOp15
 70
     1
102
RTVSPropertyOp16
 70
     1
102
RTVSPropertyOp17
 70
     1
102
RTVSPropertyOp18
 70
     1
102
RTVSPropertyOp19
 70
     1
102
RTVSPropertyOp20
 70
     1
102
RTVSPropertyOp21
 70
     1
102
RTVSPropertyOp22
 70
     1
102
RTVSPropertyOp23
 70
     1
102
RTVSPropertyOp24
 70
     1
102
RTVSPropertyOp25
 70
     1
102
RTVSPropertyOp26
 70
     1
102
RTVSPropertyOp27
 70
     1
102
RTVSPropertyOp28
 70
     1
102
RTVSPropertyOp29
 70
     1
102
RTVSPropertyOp30
 70
     1
102
RTVSPropertyOp31
 70
     1
102
RTVSPropertyOp32
 70
     1
102
RTVSPropertyOp33
 70
     1
102
RTVSPropertyOp34
 70
     1
102
RTVSPropertyOp35
 70
     1
102
RTVSPropertyOp36
 70
     1
102
RTVSPropertyOp37
 70
     1
102
RTVSPropertyOp38
 70
     1
102
RTVSPropertyOp39
 70
     1
102
RTVSPropertyOp40
 70
     1
102
RTVSPropertyOp41
 70
     1
102
RTVSPropertyOp42
 70
     1
102
RTVSPropertyOp43
 70
     1
102
RTVSPropertyOp44
 70
     1
102
RTVSPropertyOp45
 70
     1
102
RTVSPropertyOp46
 70
     1
102
RTVSPropertyOp47
 70
     1
102
RTVSPropertyOp48
 70
     1
102
RTVSPropertyOp49
 70
     1
102
RTVSPropertyOp50
 70
     1
102
RTVSPropertyOp51
 70
     0
102
RTVSPropertyOp52
 70
     0
102
RTVSPropertyOp53
 70
     1
102
RTVSPropertyOp54
 70
     1
102
RTVSPropertyOp55
 70
     1
102
RTVSPropertyOp56
 70
     1
102
RTVSPropertyOp57
 70
     1
102
RTVSPost2010Prop28
280
     0
102
RTVSPost2010PropOp28
 70
     1
102
RTVSPost2010Prop29
280
     1
102
RTVSPost2010PropOp29
 70
     1
102
RTVSPost2010Prop30
280
     1
102
RTVSPost2010PropOp30
 70
     1
102
RTVSPost2010Prop31
280
     0
102
RTVSPost2010PropOp31
 70
     1
102
RTVSPost2010Prop32
280
     0
102
RTVSPost2010PropOp32
 70
     1
102
RTVSPost2010Prop33
280
     0
102
RTVSPost2010PropOp33
 70
     1
102
RTVSPost2010Prop34
280
     0
102
RTVSPost2010PropOp34
 70
     1
102
RTVSPost2010Prop35
280
     0
102
RTVSPost2010PropOp35
 70
     1
102
RTVSPost2010Prop36
280
     0
102
RTVSPost2010PropOp36
 70
     1
102
RTVSPost2010Prop37
 90
       50
102
RTVSPost2010PropOp37
 70
     1
102
RTVSPost2010Prop38
140
0.0
102
RTVSPost2010PropOp38
 70
     1
102
RTVSPost2010Prop39
140
1.0
102
RTVSPost2010PropOp39
 70
     1
102
RTVSPost2010Prop40
 90
        0
102
RTVSPost2010PropOp40
 70
     1
102
RTVSPost2010Prop41ColorIndex
 90
       18
102
RTVSPost2010Prop41ColorRGB
 90
        0
102
RTVSPost2010PropOp41
 70
     1
102
RTVSPost2010Prop42
 90
       50
102
RTVSPost2010PropOp42
 70
     1
102
RTVSPost2010Prop43
 90
        3
102
RTVSPost2010PropOp43
 70
     1
102
RTVSPost2010Prop44ColorIndex
 90
        5
102
RTVSPost2010Prop44ColorRGB
 90
      255
102
RTVSPost2010PropOp44
 70
     1
102
RTVSPost2010Prop45
280
     0
102
RTVSPost2010PropOp45
 70
     1
102
RTVSPost2010Prop46
 90
       50
102
RTVSPost2010PropOp46
 70
     1
102
RTVSPost2010Prop47
 90
       50
102
RTVSPost2010PropOp47
 70
     1
102
RTVSPost2010Prop48
 90
       50
102
RTVSPost2010PropOp48
 70
     1
102
RTVSPost2010Prop49
280
     0
102
RTVSPost2010PropOp49
 70
     1
102
RTVSPost2010Prop50
 90
       50
102
RTVSPost2010PropOp50
 70
     1
102
RTVSPost2010Prop51ColorIndex
 90
      256
102
RTVSPost2010Prop51ColorRGB
 90
-16777216
102
RTVSPost2010PropOp51
 70
     0
102
RTVSPost2010Prop52
140
1.0
102
RTVSPost2010PropOp52
 70
     0
102
RTVSPost2010Prop53
 90
        2
102
RTVSPost2010PropOp53
 70
     1
102
RTVSPost2010Prop54
  1
strokes_ogs.tif
102
RTVSPost2010PropOp54
 70
     1
102
RTVSPost2010Prop55
280
     0
102
RTVSPost2010PropOp55
 70
     1
102
RTVSPost2010Prop56
140
1.0
102
RTVSPost2010PropOp56
 70
     1
102
RTVSPost2010Prop57
140
1.0
102
RTVSPost2010PropOp57
 70
     1
  0
XRECORD
  5
1B4
102
{ACAD_REACTORS
330
1B3
102
}
330
1B3
100
AcDbXrecord
280
     1
102
RTVSPropertyOp0
 70
     0
102
RTVSPropertyOp1
 70
     0
102
RTVSPropertyOp2
 70
     0
102
RTVSPropertyOp3
 70
     0
102
RTVSPropertyOp4
 70
     0
102
RTVSPropertyOp5
 70
     0
102
RTVSPropertyOp6
 70
     0
102
RTVSPropertyOp7
 70
     0
102
RTVSPropertyOp8
 70
     0
102
RTVSPropertyOp9
 70
     0
102
RTVSPropertyOp10
 70
     0
102
RTVSPropertyOp11
 70
     0
102
RTVSPropertyOp12
 70
     0
102
RTVSPropertyOp13
 70
     0
102
RTVSPropertyOp14
 70
     2
102
RTVSPropertyOp15
 70
     0
102
RTVSPropertyOp16
 70
     0
102
RTVSPropertyOp17
 70
     0
102
RTVSPropertyOp18
 70
     0
102
RTVSPropertyOp19
 70
     0
102
RTVSPropertyOp20
 70
     0
102
RTVSPropertyOp21
 70
     0
102
RTVSPropertyOp22
 70
     0
102
RTVSPropertyOp23
 70
     0
102
RTVSPropertyOp24
 70
     0
102
RTVSPropertyOp25
 70
     0
102
RTVSPropertyOp26
 70
     0
102
RTVSPropertyOp27
 70
     0
102
RTVSPropertyOp28
 70
     0
102
RTVSPropertyOp29
 70
     0
102
RTVSPropertyOp30
 70
     0
102
RTVSPropertyOp31
 70
     0
102
RTVSPropertyOp32
 70
     0
102
RTVSPropertyOp33
 70
     0
102
RTVSPropertyOp34
 70
     0
102
RTVSPropertyOp35
 70
     0
102
RTVSPropertyOp36
 70
     0
102
RTVSPropertyOp37
 70
     0
102
RTVSPropertyOp38
 70
     0
102
RTVSPropertyOp39
 70
     0
102
RTVSPropertyOp40
 70
     0
102
RTVSPropertyOp41
 70
     0
102
RTVSPropertyOp42
 70
     0
102
RTVSPropertyOp43
 70
     0
102
RTVSPropertyOp44
 70
     0
102
RTVSPropertyOp45
 70
     0
102
RTVSPropertyOp46
 70
     0
102
RTVSPropertyOp47
 70
     0
102
RTVSPropertyOp48
 70
     0
102
RTVSPropertyOp49
 70
     0
102
RTVSPropertyOp50
 70
     0
102
RTVSPropertyOp51
 70
     0
102
RTVSPropertyOp52
 70
     0
102
RTVSPropertyOp53
 70
     0
102
RTVSPropertyOp54
 70
     0
102
RTVSPropertyOp55
 70
     0
102
RTVSPropertyOp56
 70
     0
102
RTVSPropertyOp57
 70
     0
102
RTVSPost2010Prop28
280
     0
102
RTVSPost2010PropOp28
 70
     0
102
RTVSPost2010Prop29
280
     1
102
RTVSPost2010PropOp29
 70
     0
102
RTVSPost2010Prop30
280
     1
102
RTVSPost2010PropOp30
 70
     0
102
RTVSPost2010Prop31
280
     0
102
RTVSPost2010PropOp31
 70
     0
102
RTVSPost2010Prop32
280
     0
102
RTVSPost2010PropOp32
 70
     0
102
RTVSPost2010Prop33
280
     0
102
RTVSPost2010PropOp33
 70
     0
102
RTVSPost2010Prop34
280
     0
102
RTVSPost2010PropOp34
 70
     0
102
RTVSPost2010Prop35
280
     0
102
RTVSPost2010PropOp35
 70
     0
102
RTVSPost2010Prop36
280
     0
102
RTVSPost2010PropOp36
 70
     0
102
RTVSPost2010Prop37
 90
       50
102
RTVSPost2010PropOp37
 70
     0
102
RTVSPost2010Prop38
140
0.0
102
RTVSPost2010PropOp38
 70
     0
102
RTVSPost2010Prop39
140
1.0
102
RTVSPost2010PropOp39
 70
     0
102
RTVSPost2010Prop40
 90
        0
102
RTVSPost2010PropOp40
 70
     0
102
RTVSPost2010Prop41ColorIndex
 90
       18
102
RTVSPost2010Prop41ColorRGB
 90
        0
102
RTVSPost2010PropOp41
 70
     0
102
RTVSPost2010Prop42
 90
       50
102
RTVSPost2010PropOp42
 70
     0
102
RTVSPost2010Prop43
 90
        3
102
RTVSPost2010PropOp43
 70
     0
102
RTVSPost2010Prop44ColorIndex
 90
        5
102
RTVSPost2010Prop44ColorRGB
 90
      255
102
RTVSPost2010PropOp44
 70
     0
102
RTVSPost2010Prop45
280
     0
102
RTVSPost2010PropOp45
 70
     0
102
RTVSPost2010Prop46
 90
       50
102
RTVSPost2010PropOp46
 70
     0
102
RTVSPost2010Prop47
 90
       50
102
RTVSPost2010PropOp47
 70
     0
102
RTVSPost2010Prop48
 90
       50
102
RTVSPost2010PropOp48
 70
     0
102
RTVSPost2010Prop49
280
     0
102
RTVSPost2010PropOp49
 70
     0
102
RTVSPost2010Prop50
 90
       50
102
RTVSPost2010PropOp50
 70
     0
102
RTVSPost2010Prop51ColorIndex
 90
      256
102
RTVSPost2010Prop51ColorRGB
 90
-16777216
102
RTVSPost2010PropOp51
 70
     0
102
RTVSPost2010Prop52
140
1.0
102
RTVSPost2010PropOp52
 70
     0
102
RTVSPost2010Prop53
 90
        2
102
RTVSPost2010PropOp53
 70
     0
102
RTVSPost2010Prop54
  1
strokes_ogs.tif
102
RTVSPost2010PropOp54
 70
     0
102
RTVSPost2010Prop55
280
     0
102
RTVSPost2010PropOp55
 70
     0
102
RTVSPost2010Prop56
140
1.0
102
RTVSPost2010PropOp56
 70
     0
102
RTVSPost2010Prop57
140
1.0
102
RTVSPost2010PropOp57
 70
     0
  0
XRECORD
  5
1A2
102
{ACAD_REACTORS
330
1A1
102
}
330
1A1
100
AcDbXrecord
280
     1
102
RTVSPropertyOp0
 70
     1
102
RTVSPropertyOp1
 70
     1
102
RTVSPropertyOp2
 70
     1
102
RTVSPropertyOp3
 70
     1
102
RTVSPropertyOp4
 70
     1
102
RTVSPropertyOp5
 70
     1
102
RTVSPropertyOp6
 70
     1
102
RTVSPropertyOp7
 70
     1
102
RTVSPropertyOp8
 70
     1
102
RTVSPropertyOp9
 70
     1
102
RTVSPropertyOp10
 70
     1
102
RTVSPropertyOp11
 70
     1
102
RTVSPropertyOp12
 70
     1
102
RTVSPropertyOp13
 70
     1
102
RTVSPropertyOp14
 70
     1
102
RTVSPropertyOp15
 70
     1
102
RTVSPropertyOp16
 70
     1
102
RTVSPropertyOp17
 70
     1
102
RTVSPropertyOp18
 70
     1
102
RTVSPropertyOp19
 70
     1
102
RTVSPropertyOp20
 70
     1
102
RTVSPropertyOp21
 70
     1
102
RTVSPropertyOp22
 70
     1
102
RTVSPropertyOp23
 70
     1
102
RTVSPropertyOp24
 70
     1
102
RTVSPropertyOp25
 70
     1
102
RTVSPropertyOp26
 70
     1
102
RTVSPropertyOp27
 70
     1
102
RTVSPropertyOp28
 70
     1
102
RTVSPropertyOp29
 70
     1
102
RTVSPropertyOp30
 70
     1
102
RTVSPropertyOp31
 70
     1
102
RTVSPropertyOp32
 70
     1
102
RTVSPropertyOp33
 70
     1
102
RTVSPropertyOp34
 70
     1
102
RTVSPropertyOp35
 70
     1
102
RTVSPropertyOp36
 70
     1
102
RTVSPropertyOp37
 70
     1
102
RTVSPropertyOp38
 70
     1
102
RTVSPropertyOp39
 70
     1
102
RTVSPropertyOp40
 70
     1
102
RTVSPropertyOp41
 70
     1
102
RTVSPropertyOp42
 70
     1
102
RTVSPropertyOp43
 70
     1
102
RTVSPropertyOp44
 70
     1
102
RTVSPropertyOp45
 70
     1
102
RTVSPropertyOp46
 70
     1
102
RTVSPropertyOp47
 70
     1
102
RTVSPropertyOp48
 70
     1
102
RTVSPropertyOp49
 70
     1
102
RTVSPropertyOp50
 70
     1
102
RTVSPropertyOp51
 70
     0
102
RTVSPropertyOp52
 70
     0
102
RTVSPropertyOp53
 70
     1
102
RTVSPropertyOp54
 70
     1
102
RTVSPropertyOp55
 70
     1
102
RTVSPropertyOp56
 70
     1
102
RTVSPropertyOp57
 70
     1
102
RTVSPost2010Prop28
280
     0
102
RTVSPost2010PropOp28
 70
     1
102
RTVSPost2010Prop29
280
     1
102
RTVSPost2010PropOp29
 70
     1
102
RTVSPost2010Prop30
280
     1
102
RTVSPost2010PropOp30
 70
     1
102
RTVSPost2010Prop31
280
     0
102
RTVSPost2010PropOp31
 70
     1
102
RTVSPost2010Prop32
280
     0
102
RTVSPost2010PropOp32
 70
     1
102
RTVSPost2010Prop33
280
     0
102
RTVSPost2010PropOp33
 70
     1
102
RTVSPost2010Prop34
280
     0
102
RTVSPost2010PropOp34
 70
     1
102
RTVSPost2010Prop35
280
     0
102
RTVSPost2010PropOp35
 70
     1
102
RTVSPost2010Prop36
280
     0
102
RTVSPost2010PropOp36
 70
     1
102
RTVSPost2010Prop37
 90
       50
102
RTVSPost2010PropOp37
 70
     1
102
RTVSPost2010Prop38
140
0.0
102
RTVSPost2010PropOp38
 70
     1
102
RTVSPost2010Prop39
140
1.0
102
RTVSPost2010PropOp39
 70
     1
102
RTVSPost2010Prop40
 90
        0
102
RTVSPost2010PropOp40
 70
     1
102
RTVSPost2010Prop41ColorIndex
 90
       18
102
RTVSPost2010Prop41ColorRGB
 90
        0
102
RTVSPost2010PropOp41
 70
     1
102
RTVSPost2010Prop42
 90
       50
102
RTVSPost2010PropOp42
 70
     1
102
RTVSPost2010Prop43
 90
        3
102
RTVSPost2010PropOp43
 70
     1
102
RTVSPost2010Prop44ColorIndex
 90
        5
102
RTVSPost2010Prop44ColorRGB
 90
      255
102
RTVSPost2010PropOp44
 70
     1
102
RTVSPost2010Prop45
280
     0
102
RTVSPost2010PropOp45
 70
     1
102
RTVSPost2010Prop46
 90
       50
102
RTVSPost2010PropOp46
 70
     1
102
RTVSPost2010Prop47
 90
       50
102
RTVSPost2010PropOp47
 70
     1
102
RTVSPost2010Prop48
 90
       50
102
RTVSPost2010PropOp48
 70
     1
102
RTVSPost2010Prop49
280
     0
102
RTVSPost2010PropOp49
 70
     1
102
RTVSPost2010Prop50
 90
       50
102
RTVSPost2010PropOp50
 70
     1
102
RTVSPost2010Prop51ColorIndex
 90
      256
102
RTVSPost2010Prop51ColorRGB
 90
-16777216
102
RTVSPost2010PropOp51
 70
     0
102
RTVSPost2010Prop52
140
1.0
102
RTVSPost2010PropOp52
 70
     0
102
RTVSPost2010Prop53
 90
        2
102
RTVSPost2010PropOp53
 70
     1
102
RTVSPost2010Prop54
  1
strokes_ogs.tif
102
RTVSPost2010PropOp54
 70
     1
102
RTVSPost2010Prop55
280
     0
102
RTVSPost2010PropOp55
 70
     1
102
RTVSPost2010Prop56
140
1.0
102
RTVSPost2010PropOp56
 70
     1
102
RTVSPost2010Prop57
140
1.0
102
RTVSPost2010PropOp57
 70
     1
  0
XRECORD
  5
1C0
102
{ACAD_REACTORS
330
1BF
102
}
330
1BF
100
AcDbXrecord
280
     1
102
RTVSPropertyOp0
 70
     1
102
RTVSPropertyOp1
 70
     1
102
RTVSPropertyOp2
 70
     1
102
RTVSPropertyOp3
 70
     1
102
RTVSPropertyOp4
 70
     1
102
RTVSPropertyOp5
 70
     1
102
RTVSPropertyOp6
 70
     1
102
RTVSPropertyOp7
 70
     1
102
RTVSPropertyOp8
 70
     1
102
RTVSPropertyOp9
 70
     1
102
RTVSPropertyOp10
 70
     1
102
RTVSPropertyOp11
 70
     1
102
RTVSPropertyOp12
 70
     1
102
RTVSPropertyOp13
 70
     1
102
RTVSPropertyOp14
 70
     1
102
RTVSPropertyOp15
 70
     1
102
RTVSPropertyOp16
 70
     1
102
RTVSPropertyOp17
 70
     1
102
RTVSPropertyOp18
 70
     1
102
RTVSPropertyOp19
 70
     1
102
RTVSPropertyOp20
 70
     1
102
RTVSPropertyOp21
 70
     1
102
RTVSPropertyOp22
 70
     1
102
RTVSPropertyOp23
 70
     1
102
RTVSPropertyOp24
 70
     1
102
RTVSPropertyOp25
 70
     1
102
RTVSPropertyOp26
 70
     1
102
RTVSPropertyOp27
 70
     1
102
RTVSPropertyOp28
 70
     1
102
RTVSPropertyOp29
 70
     1
102
RTVSPropertyOp30
 70
     1
102
RTVSPropertyOp31
 70
     1
102
RTVSPropertyOp32
 70
     1
102
RTVSPropertyOp33
 70
     1
102
RTVSPropertyOp34
 70
     1
102
RTVSPropertyOp35
 70
     1
102
RTVSPropertyOp36
 70
     1
102
RTVSPropertyOp37
 70
     1
102
RTVSPropertyOp38
 70
     1
102
RTVSPropertyOp39
 70
     1
102
RTVSPropertyOp40
 70
     1
102
RTVSPropertyOp41
 70
     1
102
RTVSPropertyOp42
 70
     1
102
RTVSPropertyOp43
 70
     1
102
RTVSPropertyOp44
 70
     1
102
RTVSPropertyOp45
 70
     1
102
RTVSPropertyOp46
 70
     1
102
RTVSPropertyOp47
 70
     1
102
RTVSPropertyOp48
 70
     1
102
RTVSPropertyOp49
 70
     1
102
RTVSPropertyOp50
 70
     1
102
RTVSPropertyOp51
 70
     0
102
RTVSPropertyOp52
 70
     0
102
RTVSPropertyOp53
 70
     1
102
RTVSPropertyOp54
 70
     1
102
RTVSPropertyOp55
 70
     1
102
RTVSPropertyOp56
 70
     1
102
RTVSPropertyOp57
 70
     1
102
RTVSPost2010Prop28
280
     0
102
RTVSPost2010PropOp28
 70
     1
102
RTVSPost2010Prop29
280
     1
102
RTVSPost2010PropOp29
 70
     1
102
RTVSPost2010Prop30
280
     1
102
RTVSPost2010PropOp30
 70
     1
102
RTVSPost2010Prop31
280
     0
102
RTVSPost2010PropOp31
 70
     1
102
RTVSPost2010Prop32
280
     0
102
RTVSPost2010PropOp32
 70
     1
102
RTVSPost2010Prop33
280
     0
102
RTVSPost2010PropOp33
 70
     1
102
RTVSPost2010Prop34
280
     0
102
RTVSPost2010PropOp34
 70
     1
102
RTVSPost2010Prop35
280
     0
102
RTVSPost2010PropOp35
 70
     1
102
RTVSPost2010Prop36
280
     0
102
RTVSPost2010PropOp36
 70
     1
102
RTVSPost2010Prop37
 90
       50
102
RTVSPost2010PropOp37
 70
     1
102
RTVSPost2010Prop38
140
0.0
102
RTVSPost2010PropOp38
 70
     1
102
RTVSPost2010Prop39
140
1.0
102
RTVSPost2010PropOp39
 70
     1
102
RTVSPost2010Prop40
 90
        0
102
RTVSPost2010PropOp40
 70
     1
102
RTVSPost2010Prop41ColorIndex
 90
       18
102
RTVSPost2010Prop41ColorRGB
 90
        0
102
RTVSPost2010PropOp41
 70
     1
102
RTVSPost2010Prop42
 90
       50
102
RTVSPost2010PropOp42
 70
     1
102
RTVSPost2010Prop43
 90
        3
102
RTVSPost2010PropOp43
 70
     1
102
RTVSPost2010Prop44ColorIndex
 90
        5
102
RTVSPost2010Prop44ColorRGB
 90
      255
102
RTVSPost2010PropOp44
 70
     1
102
RTVSPost2010Prop45
280
     0
102
RTVSPost2010PropOp45
 70
     1
102
RTVSPost2010Prop46
 90
       50
102
RTVSPost2010PropOp46
 70
     1
102
RTVSPost2010Prop47
 90
       50
102
RTVSPost2010PropOp47
 70
     1
102
RTVSPost2010Prop48
 90
       50
102
RTVSPost2010PropOp48
 70
     1
102
RTVSPost2010Prop49
280
     0
102
RTVSPost2010PropOp49
 70
     1
102
RTVSPost2010Prop50
 90
       50
102
RTVSPost2010PropOp50
 70
     1
102
RTVSPost2010Prop51ColorIndex
 90
      256
102
RTVSPost2010Prop51ColorRGB
 90
-16777216
102
RTVSPost2010PropOp51
 70
     0
102
RTVSPost2010Prop52
140
1.0
102
RTVSPost2010PropOp52
 70
     0
102
RTVSPost2010Prop53
 90
        2
102
RTVSPost2010PropOp53
 70
     1
102
RTVSPost2010Prop54
  1
strokes_ogs.tif
102
RTVSPost2010PropOp54
 70
     1
102
RTVSPost2010Prop55
280
     0
102
RTVSPost2010PropOp55
 70
     1
102
RTVSPost2010Prop56
140
1.0
102
RTVSPost2010PropOp56
 70
     1
102
RTVSPost2010Prop57
140
1.0
102
RTVSPost2010PropOp57
 70
     1
  0
XRECORD
  5
1BE
102
{ACAD_REACTORS
330
1BD
102
}
330
1BD
100
AcDbXrecord
280
     1
102
RTVSPropertyOp0
 70
     1
102
RTVSPropertyOp1
 70
     1
102
RTVSPropertyOp2
 70
     1
102
RTVSPropertyOp3
 70
     1
102
RTVSPropertyOp4
 70
     1
102
RTVSPropertyOp5
 70
     1
102
RTVSPropertyOp6
 70
     1
102
RTVSPropertyOp7
 70
     1
102
RTVSPropertyOp8
 70
     1
102
RTVSPropertyOp9
 70
     1
102
RTVSPropertyOp10
 70
     1
102
RTVSPropertyOp11
 70
     1
102
RTVSPropertyOp12
 70
     1
102
RTVSPropertyOp13
 70
     1
102
RTVSPropertyOp14
 70
     1
102
RTVSPropertyOp15
 70
     1
102
RTVSPropertyOp16
 70
     1
102
RTVSPropertyOp17
 70
     1
102
RTVSPropertyOp18
 70
     1
102
RTVSPropertyOp19
 70
     1
102
RTVSPropertyOp20
 70
     1
102
RTVSPropertyOp21
 70
     1
102
RTVSPropertyOp22
 70
     1
102
RTVSPropertyOp23
 70
     1
102
RTVSPropertyOp24
 70
     1
102
RTVSPropertyOp25
 70
     1
102
RTVSPropertyOp26
 70
     1
102
RTVSPropertyOp27
 70
     1
102
RTVSPropertyOp28
 70
     1
102
RTVSPropertyOp29
 70
     1
102
RTVSPropertyOp30
 70
     1
102
RTVSPropertyOp31
 70
     1
102
RTVSPropertyOp32
 70
     1
102
RTVSPropertyOp33
 70
     1
102
RTVSPropertyOp34
 70
     1
102
RTVSPropertyOp35
 70
     1
102
RTVSPropertyOp36
 70
     1
102
RTVSPropertyOp37
 70
     1
102
RTVSPropertyOp38
 70
     1
102
RTVSPropertyOp39
 70
     1
102
RTVSPropertyOp40
 70
     1
102
RTVSPropertyOp41
 70
     1
102
RTVSPropertyOp42
 70
     1
102
RTVSPropertyOp43
 70
     1
102
RTVSPropertyOp44
 70
     1
102
RTVSPropertyOp45
 70
     1
102
RTVSPropertyOp46
 70
     1
102
RTVSPropertyOp47
 70
     1
102
RTVSPropertyOp48
 70
     1
102
RTVSPropertyOp49
 70
     1
102
RTVSPropertyOp50
 70
     1
102
RTVSPropertyOp51
 70
     0
102
RTVSPropertyOp52
 70
     0
102
RTVSPropertyOp53
 70
     1
102
RTVSPropertyOp54
 70
     1
102
RTVSPropertyOp55
 70
     1
102
RTVSPropertyOp56
 70
     1
102
RTVSPropertyOp57
 70
     1
102
RTVSPost2010Prop28
280
     0
102
RTVSPost2010PropOp28
 70
     1
102
RTVSPost2010Prop29
280
     1
102
RTVSPost2010PropOp29
 70
     1
102
RTVSPost2010Prop30
280
     1
102
RTVSPost2010PropOp30
 70
     1
102
RTVSPost2010Prop31
280
     0
102
RTVSPost2010PropOp31
 70
     1
102
RTVSPost2010Prop32
280
     0
102
RTVSPost2010PropOp32
 70
     1
102
RTVSPost2010Prop33
280
     0
102
RTVSPost2010PropOp33
 70
     1
102
RTVSPost2010Prop34
280
     0
102
RTVSPost2010PropOp34
 70
     1
102
RTVSPost2010Prop35
280
     0
102
RTVSPost2010PropOp35
 70
     1
102
RTVSPost2010Prop36
280
     0
102
RTVSPost2010PropOp36
 70
     1
102
RTVSPost2010Prop37
 90
       50
102
RTVSPost2010PropOp37
 70
     1
102
RTVSPost2010Prop38
140
0.0
102
RTVSPost2010PropOp38
 70
     1
102
RTVSPost2010Prop39
140
1.0
102
RTVSPost2010PropOp39
 70
     1
102
RTVSPost2010Prop40
 90
        0
102
RTVSPost2010PropOp40
 70
     1
102
RTVSPost2010Prop41ColorIndex
 90
       18
102
RTVSPost2010Prop41ColorRGB
 90
        0
102
RTVSPost2010PropOp41
 70
     1
102
RTVSPost2010Prop42
 90
       50
102
RTVSPost2010PropOp42
 70
     1
102
RTVSPost2010Prop43
 90
        3
102
RTVSPost2010PropOp43
 70
     1
102
RTVSPost2010Prop44ColorIndex
 90
        5
102
RTVSPost2010Prop44ColorRGB
 90
      255
102
RTVSPost2010PropOp44
 70
     1
102
RTVSPost2010Prop45
280
     0
102
RTVSPost2010PropOp45
 70
     1
102
RTVSPost2010Prop46
 90
       50
102
RTVSPost2010PropOp46
 70
     1
102
RTVSPost2010Prop47
 90
       50
102
RTVSPost2010PropOp47
 70
     1
102
RTVSPost2010Prop48
 90
       50
102
RTVSPost2010PropOp48
 70
     1
102
RTVSPost2010Prop49
280
     0
102
RTVSPost2010PropOp49
 70
     1
102
RTVSPost2010Prop50
 90
       50
102
RTVSPost2010PropOp50
 70
     1
102
RTVSPost2010Prop51ColorIndex
 90
      256
102
RTVSPost2010Prop51ColorRGB
 90
-16777216
102
RTVSPost2010PropOp51
 70
     0
102
RTVSPost2010Prop52
140
1.0
102
RTVSPost2010PropOp52
 70
     0
102
RTVSPost2010Prop53
 90
        2
102
RTVSPost2010PropOp53
 70
     1
102
RTVSPost2010Prop54
  1
strokes_ogs.tif
102
RTVSPost2010PropOp54
 70
     1
102
RTVSPost2010Prop55
280
     0
102
RTVSPost2010PropOp55
 70
     1
102
RTVSPost2010Prop56
140
1.0
102
RTVSPost2010PropOp56
 70
     1
102
RTVSPost2010Prop57
140
1.0
102
RTVSPost2010PropOp57
 70
     1
  0
XRECORD
  5
1B8
102
{ACAD_REACTORS
330
1B7
102
}
330
1B7
100
AcDbXrecord
280
     1
102
RTVSPropertyOp0
 70
     1
102
RTVSPropertyOp1
 70
     1
102
RTVSPropertyOp2
 70
     1
102
RTVSPropertyOp3
 70
     1
102
RTVSPropertyOp4
 70
     1
102
RTVSPropertyOp5
 70
     1
102
RTVSPropertyOp6
 70
     1
102
RTVSPropertyOp7
 70
     1
102
RTVSPropertyOp8
 70
     1
102
RTVSPropertyOp9
 70
     1
102
RTVSPropertyOp10
 70
     1
102
RTVSPropertyOp11
 70
     1
102
RTVSPropertyOp12
 70
     1
102
RTVSPropertyOp13
 70
     1
102
RTVSPropertyOp14
 70
     1
102
RTVSPropertyOp15
 70
     1
102
RTVSPropertyOp16
 70
     1
102
RTVSPropertyOp17
 70
     1
102
RTVSPropertyOp18
 70
     1
102
RTVSPropertyOp19
 70
     1
102
RTVSPropertyOp20
 70
     1
102
RTVSPropertyOp21
 70
     1
102
RTVSPropertyOp22
 70
     1
102
RTVSPropertyOp23
 70
     1
102
RTVSPropertyOp24
 70
     1
102
RTVSPropertyOp25
 70
     1
102
RTVSPropertyOp26
 70
     1
102
RTVSPropertyOp27
 70
     1
102
RTVSPropertyOp28
 70
     1
102
RTVSPropertyOp29
 70
     1
102
RTVSPropertyOp30
 70
     1
102
RTVSPropertyOp31
 70
     1
102
RTVSPropertyOp32
 70
     1
102
RTVSPropertyOp33
 70
     1
102
RTVSPropertyOp34
 70
     1
102
RTVSPropertyOp35
 70
     1
102
RTVSPropertyOp36
 70
     1
102
RTVSPropertyOp37
 70
     1
102
RTVSPropertyOp38
 70
     1
102
RTVSPropertyOp39
 70
     1
102
RTVSPropertyOp40
 70
     1
102
RTVSPropertyOp41
 70
     1
102
RTVSPropertyOp42
 70
     1
102
RTVSPropertyOp43
 70
     1
102
RTVSPropertyOp44
 70
     1
102
RTVSPropertyOp45
 70
     1
102
RTVSPropertyOp46
 70
     1
102
RTVSPropertyOp47
 70
     1
102
RTVSPropertyOp48
 70
     1
102
RTVSPropertyOp49
 70
     1
102
RTVSPropertyOp50
 70
     1
102
RTVSPropertyOp51
 70
     0
102
RTVSPropertyOp52
 70
     0
102
RTVSPropertyOp53
 70
     1
102
RTVSPropertyOp54
 70
     1
102
RTVSPropertyOp55
 70
     1
102
RTVSPropertyOp56
 70
     1
102
RTVSPropertyOp57
 70
     1
102
RTVSPost2010Prop28
280
     0
102
RTVSPost2010PropOp28
 70
     1
102
RTVSPost2010Prop29
280
     1
102
RTVSPost2010PropOp29
 70
     1
102
RTVSPost2010Prop30
280
     1
102
RTVSPost2010PropOp30
 70
     1
102
RTVSPost2010Prop31
280
     0
102
RTVSPost2010PropOp31
 70
     1
102
RTVSPost2010Prop32
280
     0
102
RTVSPost2010PropOp32
 70
     1
102
RTVSPost2010Prop33
280
     0
102
RTVSPost2010PropOp33
 70
     1
102
RTVSPost2010Prop34
280
     0
102
RTVSPost2010PropOp34
 70
     1
102
RTVSPost2010Prop35
280
     0
102
RTVSPost2010PropOp35
 70
     1
102
RTVSPost2010Prop36
280
     0
102
RTVSPost2010PropOp36
 70
     1
102
RTVSPost2010Prop37
 90
       50
102
RTVSPost2010PropOp37
 70
     1
102
RTVSPost2010Prop38
140
0.0
102
RTVSPost2010PropOp38
 70
     1
102
RTVSPost2010Prop39
140
1.0
102
RTVSPost2010PropOp39
 70
     1
102
RTVSPost2010Prop40
 90
        0
102
RTVSPost2010PropOp40
 70
     1
102
RTVSPost2010Prop41ColorIndex
 90
       18
102
RTVSPost2010Prop41ColorRGB
 90
        0
102
RTVSPost2010PropOp41
 70
     1
102
RTVSPost2010Prop42
 90
       50
102
RTVSPost2010PropOp42
 70
     1
102
RTVSPost2010Prop43
 90
        3
102
RTVSPost2010PropOp43
 70
     1
102
RTVSPost2010Prop44ColorIndex
 90
        5
102
RTVSPost2010Prop44ColorRGB
 90
      255
102
RTVSPost2010PropOp44
 70
     1
102
RTVSPost2010Prop45
280
     0
102
RTVSPost2010PropOp45
 70
     1
102
RTVSPost2010Prop46
 90
       50
102
RTVSPost2010PropOp46
 70
     1
102
RTVSPost2010Prop47
 90
       50
102
RTVSPost2010PropOp47
 70
     1
102
RTVSPost2010Prop48
 90
       50
102
RTVSPost2010PropOp48
 70
     1
102
RTVSPost2010Prop49
280
     0
102
RTVSPost2010PropOp49
 70
     1
102
RTVSPost2010Prop50
 90
       50
102
RTVSPost2010PropOp50
 70
     1
102
RTVSPost2010Prop51ColorIndex
 90
      256
102
RTVSPost2010Prop51ColorRGB
 90
-16777216
102
RTVSPost2010PropOp51
 70
     0
102
RTVSPost2010Prop52
140
1.0
102
RTVSPost2010PropOp52
 70
     0
102
RTVSPost2010Prop53
 90
        2
102
RTVSPost2010PropOp53
 70
     1
102
RTVSPost2010Prop54
  1
strokes_ogs.tif
102
RTVSPost2010PropOp54
 70
     1
102
RTVSPost2010Prop55
280
     0
102
RTVSPost2010PropOp55
 70
     1
102
RTVSPost2010Prop56
140
1.0
102
RTVSPost2010PropOp56
 70
     1
102
RTVSPost2010Prop57
140
1.0
102
RTVSPost2010PropOp57
 70
     1
  0
XRECORD
  5
1BA
102
{ACAD_REACTORS
330
1B9
102
}
330
1B9
100
AcDbXrecord
280
     1
102
RTVSPropertyOp0
 70
     1
102
RTVSPropertyOp1
 70
     1
102
RTVSPropertyOp2
 70
     1
102
RTVSPropertyOp3
 70
     1
102
RTVSPropertyOp4
 70
     1
102
RTVSPropertyOp5
 70
     1
102
RTVSPropertyOp6
 70
     1
102
RTVSPropertyOp7
 70
     1
102
RTVSPropertyOp8
 70
     1
102
RTVSPropertyOp9
 70
     1
102
RTVSPropertyOp10
 70
     1
102
RTVSPropertyOp11
 70
     1
102
RTVSPropertyOp12
 70
     1
102
RTVSPropertyOp13
 70
     1
102
RTVSPropertyOp14
 70
     1
102
RTVSPropertyOp15
 70
     1
102
RTVSPropertyOp16
 70
     1
102
RTVSPropertyOp17
 70
     1
102
RTVSPropertyOp18
 70
     1
102
RTVSPropertyOp19
 70
     1
102
RTVSPropertyOp20
 70
     1
102
RTVSPropertyOp21
 70
     1
102
RTVSPropertyOp22
 70
     1
102
RTVSPropertyOp23
 70
     1
102
RTVSPropertyOp24
 70
     1
102
RTVSPropertyOp25
 70
     1
102
RTVSPropertyOp26
 70
     1
102
RTVSPropertyOp27
 70
     1
102
RTVSPropertyOp28
 70
     1
102
RTVSPropertyOp29
 70
     1
102
RTVSPropertyOp30
 70
     1
102
RTVSPropertyOp31
 70
     1
102
RTVSPropertyOp32
 70
     1
102
RTVSPropertyOp33
 70
     1
102
RTVSPropertyOp34
 70
     1
102
RTVSPropertyOp35
 70
     1
102
RTVSPropertyOp36
 70
     1
102
RTVSPropertyOp37
 70
     1
102
RTVSPropertyOp38
 70
     1
102
RTVSPropertyOp39
 70
     1
102
RTVSPropertyOp40
 70
     1
102
RTVSPropertyOp41
 70
     1
102
RTVSPropertyOp42
 70
     1
102
RTVSPropertyOp43
 70
     1
102
RTVSPropertyOp44
 70
     1
102
RTVSPropertyOp45
 70
     1
102
RTVSPropertyOp46
 70
     1
102
RTVSPropertyOp47
 70
     1
102
RTVSPropertyOp48
 70
     1
102
RTVSPropertyOp49
 70
     1
102
RTVSPropertyOp50
 70
     1
102
RTVSPropertyOp51
 70
     0
102
RTVSPropertyOp52
 70
     0
102
RTVSPropertyOp53
 70
     1
102
RTVSPropertyOp54
 70
     1
102
RTVSPropertyOp55
 70
     1
102
RTVSPropertyOp56
 70
     1
102
RTVSPropertyOp57
 70
     1
102
RTVSPost2010Prop28
280
     0
102
RTVSPost2010PropOp28
 70
     1
102
RTVSPost2010Prop29
280
     1
102
RTVSPost2010PropOp29
 70
     1
102
RTVSPost2010Prop30
280
     1
102
RTVSPost2010PropOp30
 70
     1
102
RTVSPost2010Prop31
280
     0
102
RTVSPost2010PropOp31
 70
     1
102
RTVSPost2010Prop32
280
     0
102
RTVSPost2010PropOp32
 70
     1
102
RTVSPost2010Prop33
280
     0
102
RTVSPost2010PropOp33
 70
     1
102
RTVSPost2010Prop34
280
     0
102
RTVSPost2010PropOp34
 70
     1
102
RTVSPost2010Prop35
280
     0
102
RTVSPost2010PropOp35
 70
     1
102
RTVSPost2010Prop36
280
     0
102
RTVSPost2010PropOp36
 70
     1
102
RTVSPost2010Prop37
 90
       50
102
RTVSPost2010PropOp37
 70
     1
102
RTVSPost2010Prop38
140
0.0
102
RTVSPost2010PropOp38
 70
     1
102
RTVSPost2010Prop39
140
1.0
102
RTVSPost2010PropOp39
 70
     1
102
RTVSPost2010Prop40
 90
        0
102
RTVSPost2010PropOp40
 70
     1
102
RTVSPost2010Prop41ColorIndex
 90
       18
102
RTVSPost2010Prop41ColorRGB
 90
        0
102
RTVSPost2010PropOp41
 70
     1
102
RTVSPost2010Prop42
 90
       50
102
RTVSPost2010PropOp42
 70
     1
102
RTVSPost2010Prop43
 90
        3
102
RTVSPost2010PropOp43
 70
     1
102
RTVSPost2010Prop44ColorIndex
 90
        5
102
RTVSPost2010Prop44ColorRGB
 90
      255
102
RTVSPost2010PropOp44
 70
     1
102
RTVSPost2010Prop45
280
     0
102
RTVSPost2010PropOp45
 70
     1
102
RTVSPost2010Prop46
 90
       50
102
RTVSPost2010PropOp46
 70
     1
102
RTVSPost2010Prop47
 90
       50
102
RTVSPost2010PropOp47
 70
     1
102
RTVSPost2010Prop48
 90
       50
102
RTVSPost2010PropOp48
 70
     1
102
RTVSPost2010Prop49
280
     0
102
RTVSPost2010PropOp49
 70
     1
102
RTVSPost2010Prop50
 90
       50
102
RTVSPost2010PropOp50
 70
     1
102
RTVSPost2010Prop51ColorIndex
 90
      256
102
RTVSPost2010Prop51ColorRGB
 90
-16777216
102
RTVSPost2010PropOp51
 70
     0
102
RTVSPost2010Prop52
140
1.0
102
RTVSPost2010PropOp52
 70
     0
102
RTVSPost2010Prop53
 90
        2
102
RTVSPost2010PropOp53
 70
     1
102
RTVSPost2010Prop54
  1
strokes_ogs.tif
102
RTVSPost2010PropOp54
 70
     1
102
RTVSPost2010Prop55
280
     0
102
RTVSPost2010PropOp55
 70
     1
102
RTVSPost2010Prop56
140
1.0
102
RTVSPost2010PropOp56
 70
     1
102
RTVSPost2010Prop57
140
1.0
102
RTVSPost2010PropOp57
 70
     1
  0
XRECORD
  5
1AA
102
{ACAD_REACTORS
330
1A9
102
}
330
1A9
100
AcDbXrecord
280
     1
102
RTVSPropertyOp0
 70
     1
102
RTVSPropertyOp1
 70
     1
102
RTVSPropertyOp2
 70
     1
102
RTVSPropertyOp3
 70
     1
102
RTVSPropertyOp4
 70
     1
102
RTVSPropertyOp5
 70
     1
102
RTVSPropertyOp6
 70
     1
102
RTVSPropertyOp7
 70
     1
102
RTVSPropertyOp8
 70
     1
102
RTVSPropertyOp9
 70
     1
102
RTVSPropertyOp10
 70
     1
102
RTVSPropertyOp11
 70
     1
102
RTVSPropertyOp12
 70
     1
102
RTVSPropertyOp13
 70
     1
102
RTVSPropertyOp14
 70
     1
102
RTVSPropertyOp15
 70
     1
102
RTVSPropertyOp16
 70
     1
102
RTVSPropertyOp17
 70
     1
102
RTVSPropertyOp18
 70
     1
102
RTVSPropertyOp19
 70
     1
102
RTVSPropertyOp20
 70
     1
102
RTVSPropertyOp21
 70
     1
102
RTVSPropertyOp22
 70
     1
102
RTVSPropertyOp23
 70
     1
102
RTVSPropertyOp24
 70
     1
102
RTVSPropertyOp25
 70
     1
102
RTVSPropertyOp26
 70
     1
102
RTVSPropertyOp27
 70
     1
102
RTVSPropertyOp28
 70
     1
102
RTVSPropertyOp29
 70
     1
102
RTVSPropertyOp30
 70
     1
102
RTVSPropertyOp31
 70
     1
102
RTVSPropertyOp32
 70
     1
102
RTVSPropertyOp33
 70
     1
102
RTVSPropertyOp34
 70
     1
102
RTVSPropertyOp35
 70
     1
102
RTVSPropertyOp36
 70
     1
102
RTVSPropertyOp37
 70
     1
102
RTVSPropertyOp38
 70
     1
102
RTVSPropertyOp39
 70
     1
102
RTVSPropertyOp40
 70
     1
102
RTVSPropertyOp41
 70
     1
102
RTVSPropertyOp42
 70
     1
102
RTVSPropertyOp43
 70
     1
102
RTVSPropertyOp44
 70
     1
102
RTVSPropertyOp45
 70
     1
102
RTVSPropertyOp46
 70
     1
102
RTVSPropertyOp47
 70
     1
102
RTVSPropertyOp48
 70
     1
102
RTVSPropertyOp49
 70
     1
102
RTVSPropertyOp50
 70
     1
102
RTVSPropertyOp51
 70
     0
102
RTVSPropertyOp52
 70
     0
102
RTVSPropertyOp53
 70
     1
102
RTVSPropertyOp54
 70
     1
102
RTVSPropertyOp55
 70
     1
102
RTVSPropertyOp56
 70
     1
102
RTVSPropertyOp57
 70
     1
102
RTVSPost2010Prop28
280
     0
102
RTVSPost2010PropOp28
 70
     1
102
RTVSPost2010Prop29
280
     1
102
RTVSPost2010PropOp29
 70
     1
102
RTVSPost2010Prop30
280
     1
102
RTVSPost2010PropOp30
 70
     1
102
RTVSPost2010Prop31
280
     0
102
RTVSPost2010PropOp31
 70
     1
102
RTVSPost2010Prop32
280
     0
102
RTVSPost2010PropOp32
 70
     1
102
RTVSPost2010Prop33
280
     0
102
RTVSPost2010PropOp33
 70
     1
102
RTVSPost2010Prop34
280
     0
102
RTVSPost2010PropOp34
 70
     1
102
RTVSPost2010Prop35
280
     0
102
RTVSPost2010PropOp35
 70
     1
102
RTVSPost2010Prop36
280
     0
102
RTVSPost2010PropOp36
 70
     1
102
RTVSPost2010Prop37
 90
       50
102
RTVSPost2010PropOp37
 70
     1
102
RTVSPost2010Prop38
140
0.0
102
RTVSPost2010PropOp38
 70
     1
102
RTVSPost2010Prop39
140
1.0
102
RTVSPost2010PropOp39
 70
     1
102
RTVSPost2010Prop40
 90
        0
102
RTVSPost2010PropOp40
 70
     1
102
RTVSPost2010Prop41ColorIndex
 90
       18
102
RTVSPost2010Prop41ColorRGB
 90
        0
102
RTVSPost2010PropOp41
 70
     1
102
RTVSPost2010Prop42
 90
       50
102
RTVSPost2010PropOp42
 70
     1
102
RTVSPost2010Prop43
 90
        3
102
RTVSPost2010PropOp43
 70
     1
102
RTVSPost2010Prop44ColorIndex
 90
        5
102
RTVSPost2010Prop44ColorRGB
 90
      255
102
RTVSPost2010PropOp44
 70
     1
102
RTVSPost2010Prop45
280
     0
102
RTVSPost2010PropOp45
 70
     1
102
RTVSPost2010Prop46
 90
       50
102
RTVSPost2010PropOp46
 70
     1
102
RTVSPost2010Prop47
 90
       50
102
RTVSPost2010PropOp47
 70
     1
102
RTVSPost2010Prop48
 90
       50
102
RTVSPost2010PropOp48
 70
     1
102
RTVSPost2010Prop49
280
     0
102
RTVSPost2010PropOp49
 70
     1
102
RTVSPost2010Prop50
 90
       50
102
RTVSPost2010PropOp50
 70
     1
102
RTVSPost2010Prop51ColorIndex
 90
      256
102
RTVSPost2010Prop51ColorRGB
 90
-16777216
102
RTVSPost2010PropOp51
 70
     0
102
RTVSPost2010Prop52
140
1.0
102
RTVSPost2010PropOp52
 70
     0
102
RTVSPost2010Prop53
 90
        2
102
RTVSPost2010PropOp53
 70
     1
102
RTVSPost2010Prop54
  1
strokes_ogs.tif
102
RTVSPost2010PropOp54
 70
     1
102
RTVSPost2010Prop55
280
     0
102
RTVSPost2010PropOp55
 70
     1
102
RTVSPost2010Prop56
140
1.0
102
RTVSPost2010PropOp56
 70
     1
102
RTVSPost2010Prop57
140
1.0
102
RTVSPost2010PropOp57
 70
     1
  0
XRECORD
  5
19C
102
{ACAD_REACTORS
330
19B
102
}
330
19B
100
AcDbXrecord
280
     1
102
RTVSPropertyOp0
 70
     1
102
RTVSPropertyOp1
 70
     1
102
RTVSPropertyOp2
 70
     1
102
RTVSPropertyOp3
 70
     1
102
RTVSPropertyOp4
 70
     1
102
RTVSPropertyOp5
 70
     1
102
RTVSPropertyOp6
 70
     1
102
RTVSPropertyOp7
 70
     1
102
RTVSPropertyOp8
 70
     1
102
RTVSPropertyOp9
 70
     1
102
RTVSPropertyOp10
 70
     1
102
RTVSPropertyOp11
 70
     1
102
RTVSPropertyOp12
 70
     1
102
RTVSPropertyOp13
 70
     1
102
RTVSPropertyOp14
 70
     1
102
RTVSPropertyOp15
 70
     1
102
RTVSPropertyOp16
 70
     1
102
RTVSPropertyOp17
 70
     1
102
RTVSPropertyOp18
 70
     1
102
RTVSPropertyOp19
 70
     1
102
RTVSPropertyOp20
 70
     1
102
RTVSPropertyOp21
 70
     1
102
RTVSPropertyOp22
 70
     1
102
RTVSPropertyOp23
 70
     1
102
RTVSPropertyOp24
 70
     1
102
RTVSPropertyOp25
 70
     1
102
RTVSPropertyOp26
 70
     1
102
RTVSPropertyOp27
 70
     1
102
RTVSPropertyOp28
 70
     1
102
RTVSPropertyOp29
 70
     1
102
RTVSPropertyOp30
 70
     1
102
RTVSPropertyOp31
 70
     1
102
RTVSPropertyOp32
 70
     1
102
RTVSPropertyOp33
 70
     1
102
RTVSPropertyOp34
 70
     1
102
RTVSPropertyOp35
 70
     1
102
RTVSPropertyOp36
 70
     1
102
RTVSPropertyOp37
 70
     1
102
RTVSPropertyOp38
 70
     1
102
RTVSPropertyOp39
 70
     1
102
RTVSPropertyOp40
 70
     1
102
RTVSPropertyOp41
 70
     1
102
RTVSPropertyOp42
 70
     1
102
RTVSPropertyOp43
 70
     1
102
RTVSPropertyOp44
 70
     1
102
RTVSPropertyOp45
 70
     1
102
RTVSPropertyOp46
 70
     1
102
RTVSPropertyOp47
 70
     1
102
RTVSPropertyOp48
 70
     1
102
RTVSPropertyOp49
 70
     1
102
RTVSPropertyOp50
 70
     1
102
RTVSPropertyOp51
 70
     0
102
RTVSPropertyOp52
 70
     0
102
RTVSPropertyOp53
 70
     1
102
RTVSPropertyOp54
 70
     1
102
RTVSPropertyOp55
 70
     1
102
RTVSPropertyOp56
 70
     1
102
RTVSPropertyOp57
 70
     1
102
RTVSPost2010Prop28
280
     0
102
RTVSPost2010PropOp28
 70
     1
102
RTVSPost2010Prop29
280
     1
102
RTVSPost2010PropOp29
 70
     1
102
RTVSPost2010Prop30
280
     1
102
RTVSPost2010PropOp30
 70
     1
102
RTVSPost2010Prop31
280
     0
102
RTVSPost2010PropOp31
 70
     1
102
RTVSPost2010Prop32
280
     0
102
RTVSPost2010PropOp32
 70
     1
102
RTVSPost2010Prop33
280
     0
102
RTVSPost2010PropOp33
 70
     1
102
RTVSPost2010Prop34
280
     0
102
RTVSPost2010PropOp34
 70
     1
102
RTVSPost2010Prop35
280
     0
102
RTVSPost2010PropOp35
 70
     1
102
RTVSPost2010Prop36
280
     0
102
RTVSPost2010PropOp36
 70
     1
102
RTVSPost2010Prop37
 90
       50
102
RTVSPost2010PropOp37
 70
     1
102
RTVSPost2010Prop38
140
0.0
102
RTVSPost2010PropOp38
 70
     1
102
RTVSPost2010Prop39
140
1.0
102
RTVSPost2010PropOp39
 70
     1
102
RTVSPost2010Prop40
 90
        0
102
RTVSPost2010PropOp40
 70
     1
102
RTVSPost2010Prop41ColorIndex
 90
       18
102
RTVSPost2010Prop41ColorRGB
 90
        0
102
RTVSPost2010PropOp41
 70
     1
102
RTVSPost2010Prop42
 90
       50
102
RTVSPost2010PropOp42
 70
     1
102
RTVSPost2010Prop43
 90
        3
102
RTVSPost2010PropOp43
 70
     1
102
RTVSPost2010Prop44ColorIndex
 90
        5
102
RTVSPost2010Prop44ColorRGB
 90
      255
102
RTVSPost2010PropOp44
 70
     1
102
RTVSPost2010Prop45
280
     0
102
RTVSPost2010PropOp45
 70
     1
102
RTVSPost2010Prop46
 90
       50
102
RTVSPost2010PropOp46
 70
     1
102
RTVSPost2010Prop47
 90
       50
102
RTVSPost2010PropOp47
 70
     1
102
RTVSPost2010Prop48
 90
       50
102
RTVSPost2010PropOp48
 70
     1
102
RTVSPost2010Prop49
280
     0
102
RTVSPost2010PropOp49
 70
     1
102
RTVSPost2010Prop50
 90
       50
102
RTVSPost2010PropOp50
 70
     1
102
RTVSPost2010Prop51ColorIndex
 90
      256
102
RTVSPost2010Prop51ColorRGB
 90
-16777216
102
RTVSPost2010PropOp51
 70
     0
102
RTVSPost2010Prop52
140
1.0
102
RTVSPost2010PropOp52
 70
     0
102
RTVSPost2010Prop53
 90
        2
102
RTVSPost2010PropOp53
 70
     1
102
RTVSPost2010Prop54
  1
strokes_ogs.tif
102
RTVSPost2010PropOp54
 70
     1
102
RTVSPost2010Prop55
280
     0
102
RTVSPost2010PropOp55
 70
     1
102
RTVSPost2010Prop56
140
1.0
102
RTVSPost2010PropOp56
 70
     1
102
RTVSPost2010Prop57
140
1.0
102
RTVSPost2010PropOp57
 70
     1
  0
XRECORD
  5
1BC
102
{ACAD_REACTORS
330
1BB
102
}
330
1BB
100
AcDbXrecord
280
     1
102
RTVSPropertyOp0
 70
     1
102
RTVSPropertyOp1
 70
     1
102
RTVSPropertyOp2
 70
     1
102
RTVSPropertyOp3
 70
     1
102
RTVSPropertyOp4
 70
     1
102
RTVSPropertyOp5
 70
     1
102
RTVSPropertyOp6
 70
     1
102
RTVSPropertyOp7
 70
     1
102
RTVSPropertyOp8
 70
     1
102
RTVSPropertyOp9
 70
     1
102
RTVSPropertyOp10
 70
     1
102
RTVSPropertyOp11
 70
     1
102
RTVSPropertyOp12
 70
     1
102
RTVSPropertyOp13
 70
     1
102
RTVSPropertyOp14
 70
     1
102
RTVSPropertyOp15
 70
     1
102
RTVSPropertyOp16
 70
     1
102
RTVSPropertyOp17
 70
     1
102
RTVSPropertyOp18
 70
     1
102
RTVSPropertyOp19
 70
     1
102
RTVSPropertyOp20
 70
     1
102
RTVSPropertyOp21
 70
     1
102
RTVSPropertyOp22
 70
     1
102
RTVSPropertyOp23
 70
     1
102
RTVSPropertyOp24
 70
     1
102
RTVSPropertyOp25
 70
     1
102
RTVSPropertyOp26
 70
     1
102
RTVSPropertyOp27
 70
     1
102
RTVSPropertyOp28
 70
     1
102
RTVSPropertyOp29
 70
     1
102
RTVSPropertyOp30
 70
     1
102
RTVSPropertyOp31
 70
     1
102
RTVSPropertyOp32
 70
     1
102
RTVSPropertyOp33
 70
     1
102
RTVSPropertyOp34
 70
     1
102
RTVSPropertyOp35
 70
     1
102
RTVSPropertyOp36
 70
     1
102
RTVSPropertyOp37
 70
     1
102
RTVSPropertyOp38
 70
     1
102
RTVSPropertyOp39
 70
     1
102
RTVSPropertyOp40
 70
     1
102
RTVSPropertyOp41
 70
     1
102
RTVSPropertyOp42
 70
     1
102
RTVSPropertyOp43
 70
     1
102
RTVSPropertyOp44
 70
     1
102
RTVSPropertyOp45
 70
     1
102
RTVSPropertyOp46
 70
     1
102
RTVSPropertyOp47
 70
     1
102
RTVSPropertyOp48
 70
     1
102
RTVSPropertyOp49
 70
     1
102
RTVSPropertyOp50
 70
     1
102
RTVSPropertyOp51
 70
     0
102
RTVSPropertyOp52
 70
     0
102
RTVSPropertyOp53
 70
     1
102
RTVSPropertyOp54
 70
     1
102
RTVSPropertyOp55
 70
     1
102
RTVSPropertyOp56
 70
     1
102
RTVSPropertyOp57
 70
     1
102
RTVSPost2010Prop28
280
     0
102
RTVSPost2010PropOp28
 70
     1
102
RTVSPost2010Prop29
280
     1
102
RTVSPost2010PropOp29
 70
     1
102
RTVSPost2010Prop30
280
     1
102
RTVSPost2010PropOp30
 70
     1
102
RTVSPost2010Prop31
280
     0
102
RTVSPost2010PropOp31
 70
     1
102
RTVSPost2010Prop32
280
     0
102
RTVSPost2010PropOp32
 70
     1
102
RTVSPost2010Prop33
280
     0
102
RTVSPost2010PropOp33
 70
     1
102
RTVSPost2010Prop34
280
     0
102
RTVSPost2010PropOp34
 70
     1
102
RTVSPost2010Prop35
280
     0
102
RTVSPost2010PropOp35
 70
     1
102
RTVSPost2010Prop36
280
     0
102
RTVSPost2010PropOp36
 70
     1
102
RTVSPost2010Prop37
 90
       50
102
RTVSPost2010PropOp37
 70
     1
102
RTVSPost2010Prop38
140
0.0
102
RTVSPost2010PropOp38
 70
     1
102
RTVSPost2010Prop39
140
1.0
102
RTVSPost2010PropOp39
 70
     1
102
RTVSPost2010Prop40
 90
        0
102
RTVSPost2010PropOp40
 70
     1
102
RTVSPost2010Prop41ColorIndex
 90
       18
102
RTVSPost2010Prop41ColorRGB
 90
        0
102
RTVSPost2010PropOp41
 70
     1
102
RTVSPost2010Prop42
 90
       50
102
RTVSPost2010PropOp42
 70
     1
102
RTVSPost2010Prop43
 90
        3
102
RTVSPost2010PropOp43
 70
     1
102
RTVSPost2010Prop44ColorIndex
 90
        5
102
RTVSPost2010Prop44ColorRGB
 90
      255
102
RTVSPost2010PropOp44
 70
     1
102
RTVSPost2010Prop45
280
     0
102
RTVSPost2010PropOp45
 70
     1
102
RTVSPost2010Prop46
 90
       50
102
RTVSPost2010PropOp46
 70
     1
102
RTVSPost2010Prop47
 90
       50
102
RTVSPost2010PropOp47
 70
     1
102
RTVSPost2010Prop48
 90
       50
102
RTVSPost2010PropOp48
 70
     1
102
RTVSPost2010Prop49
280
     0
102
RTVSPost2010PropOp49
 70
     1
102
RTVSPost2010Prop50
 90
       50
102
RTVSPost2010PropOp50
 70
     1
102
RTVSPost2010Prop51ColorIndex
 90
      256
102
RTVSPost2010Prop51ColorRGB
 90
-16777216
102
RTVSPost2010PropOp51
 70
     0
102
RTVSPost2010Prop52
140
1.0
102
RTVSPost2010PropOp52
 70
     0
102
RTVSPost2010Prop53
 90
        2
102
RTVSPost2010PropOp53
 70
     1
102
RTVSPost2010Prop54
  1
strokes_ogs.tif
102
RTVSPost2010PropOp54
 70
     1
102
RTVSPost2010Prop55
280
     0
102
RTVSPost2010PropOp55
 70
     1
102
RTVSPost2010Prop56
140
1.0
102
RTVSPost2010PropOp56
 70
     1
102
RTVSPost2010Prop57
140
1.0
102
RTVSPost2010PropOp57
 70
     1
  0
ENDSEC
  0
EOF
