  0
SECTION
  2
HEADER
  9
$ACADVER
  1
AC1015
  9
$ACADMAINTVER
 70
     6
  9
$DWGCODEPAGE
  3
ANSI_1252
  9
$INSBASE
 10
0.0
 20
0.0
 30
0.0
  9
$EXTMIN
 10
-9.77702
 20
119.363022
 30
0.0
  9
$EXTMAX
 10
568.421997
 20
515.806458
 30
0.0
  9
$LIMMIN
 10
-9.77702
 20
119.363022
  9
$LIMMAX
 10
568.421997
 20
515.806458
  9
$ORTHOMODE
 70
     0
  9
$REGENMODE
 70
     1
  9
$FILLMODE
 70
     1
  9
$QTEXTMODE
 70
     0
  9
$MIRRTEXT
 70
     1
  9
$LTSCALE
 40
1.0
  9
$ATTMODE
 70
     1
  9
$TEXTSIZE
 40
2.5
  9
$TRACEWID
 40
1.0
  9
$TEXTSTYLE
  7
Standard
  9
$CLAYER
  8
0
  9
$CELTYPE
  6
ByLayer
  9
$CECOLOR
 62
   256
  9
$CELTSCALE
 40
1.0
  9
$DISPSILH
 70
     0
  9
$DIMSCALE
 40
1.0
  9
$DIMASZ
 40
2.5
  9
$DIMEXO
 40
0.625
  9
$DIMDLI
 40
3.75
  9
$DIMRND
 40
0.0
  9
$DIMDLE
 40
0.0
  9
$DIMEXE
 40
1.25
  9
$DIMTP
 40
0.0
  9
$DIMTM
 40
0.0
  9
$DIMTXT
 40
2.5
  9
$DIMCEN
 40
2.5
  9
$DIMTSZ
 40
0.0
  9
$DIMTOL
 70
     0
  9
$DIMLIM
 70
     0
  9
$DIMTIH
 70
     0
  9
$DIMTOH
 70
     0
  9
$DIMSE1
 70
     0
  9
$DIMSE2
 70
     0
  9
$DIMTAD
 70
     1
  9
$DIMZIN
 70
     8
  9
$DIMBLK
  1

  9
$DIMASO
 70
     1
  9
$DIMSHO
 70
     1
  9
$DIMPOST
  1

  9
$DIMAPOST
  1

  9
$DIMALT
 70
     0
  9
$DIMALTD
 70
     3
  9
$DIMALTF
 40
0.03937
  9
$DIMLFAC
 40
1.0
  9
$DIMTOFL
 70
     1
  9
$DIMTVP
 40
0.0
  9
$DIMTIX
 70
     0
  9
$DIMSOXD
 70
     0
  9
$DIMSAH
 70
     0
  9
$DIMBLK1
  1

  9
$DIMBLK2
  1

  9
$DIMSTYLE
  2
ISO-25
  9
$DIMCLRD
 70
     0
  9
$DIMCLRE
 70
     0
  9
$DIMCLRT
 70
     0
  9
$DIMTFAC
 40
1.0
  9
$DIMGAP
 40
0.625
  9
$DIMJUST
 70
     0
  9
$DIMSD1
 70
     0
  9
$DIMSD2
 70
     0
  9
$DIMTOLJ
 70
     0
  9
$DIMTZIN
 70
     8
  9
$DIMALTZ
 70
     0
  9
$DIMALTTZ
 70
     0
  9
$DIMUPT
 70
     0
  9
$DIMDEC
 70
     2
  9
$DIMTDEC
 70
     2
  9
$DIMALTU
 70
     2
  9
$DIMALTTD
 70
     3
  9
$DIMTXSTY
  7
Standard
  9
$DIMAUNIT
 70
     0
  9
$DIMADEC
 70
     0
  9
$DIMALTRND
 40
0.0
  9
$DIMAZIN
 70
     0
  9
$DIMDSEP
 70
    44
  9
$DIMATFIT
 70
     3
  9
$DIMFRAC
 70
     0
  9
$DIMLDRBLK
  1

  9
$DIMLUNIT
 70
     2
  9
$DIMLWD
 70
    -2
  9
$DIMLWE
 70
    -2
  9
$DIMTMOVE
 70
     0
  9
$LUNITS
 70
     2
  9
$LUPREC
 70
     4
  9
$SKETCHINC
 40
1.0
  9
$FILLETRAD
 40
10.0
  9
$AUNITS
 70
     0
  9
$AUPREC
 70
     0
  9
$MENU
  1
.
  9
$ELEVATION
 40
0.0
  9
$PELEVATION
 40
0.0
  9
$THICKNESS
 40
0.0
  9
$LIMCHECK
 70
     0
  9
$CHAMFERA
 40
0.0
  9
$CHAMFERB
 40
0.0
  9
$CHAMFERC
 40
0.0
  9
$CHAMFERD
 40
0.0
  9
$SKPOLY
 70
     0
  9
$TDCREATE
 40
2460448.599317014
  9
$TDUCREATE
 40
2460448.515983681
  9
$TDUPDATE
 40
2460448.599317581
  9
$TDUUPDATE
 40
2460448.515984248
  9
$TDINDWG
 40
0.0000000116
  9
$TDUSRTIMER
 40
0.0000000116
  9
$USRTIMER
 70
     1
  9
$ANGBASE
 50
0.0
  9
$ANGDIR
 70
     0
  9
$PDMODE
 70
     0
  9
$PDSIZE
 40
0.0
  9
$PLINEWID
 40
0.0
  9
$SPLFRAME
 70
     0
  9
$SPLINETYPE
 70
     6
  9
$SPLINESEGS
 70
     8
  9
$HANDSEED
  5
2D9
  9
$SURFTAB1
 70
     6
  9
$SURFTAB2
 70
     6
  9
$SURFTYPE
 70
     6
  9
$SURFU
 70
     6
  9
$SURFV
 70
     6
  9
$UCSBASE
  2

  9
$UCSNAME
  2

  9
$UCSORG
 10
0.0
 20
0.0
 30
0.0
  9
$UCSXDIR
 10
1.0
 20
0.0
 30
0.0
  9
$UCSYDIR
 10
0.0
 20
1.0
 30
0.0
  9
$UCSORTHOREF
  2

  9
$UCSORTHOVIEW
 70
     0
  9
$UCSORGTOP
 10
0.0
 20
0.0
 30
0.0
  9
$UCSORGBOTTOM
 10
0.0
 20
0.0
 30
0.0
  9
$UCSORGLEFT
 10
0.0
 20
0.0
 30
0.0
  9
$UCSORGRIGHT
 10
0.0
 20
0.0
 30
0.0
  9
$UCSORGFRONT
 10
0.0
 20
0.0
 30
0.0
  9
$UCSORGBACK
 10
0.0
 20
0.0
 30
0.0
  9
$PUCSBASE
  2

  9
$PUCSNAME
  2

  9
$PUCSORG
 10
0.0
 20
0.0
 30
0.0
  9
$PUCSXDIR
 10
1.0
 20
0.0
 30
0.0
  9
$PUCSYDIR
 10
0.0
 20
1.0
 30
0.0
  9
$PUCSORTHOREF
  2

  9
$PUCSORTHOVIEW
 70
     0
  9
$PUCSORGTOP
 10
0.0
 20
0.0
 30
0.0
  9
$PUCSORGBOTTOM
 10
0.0
 20
0.0
 30
0.0
  9
$PUCSORGLEFT
 10
0.0
 20
0.0
 30
0.0
  9
$PUCSORGRIGHT
 10
0.0
 20
0.0
 30
0.0
  9
$PUCSORGFRONT
 10
0.0
 20
0.0
 30
0.0
  9
$PUCSORGBACK
 10
0.0
 20
0.0
 30
0.0
  9
$USERI1
 70
     0
  9
$USERI2
 70
     0
  9
$USERI3
 70
     0
  9
$USERI4
 70
     0
  9
$USERI5
 70
     0
  9
$USERR1
 40
0.0
  9
$USERR2
 40
0.0
  9
$USERR3
 40
0.0
  9
$USERR4
 40
0.0
  9
$USERR5
 40
0.0
  9
$WORLDVIEW
 70
     1
  9
$SHADEDGE
 70
     3
  9
$SHADEDIF
 70
    70
  9
$TILEMODE
 70
     1
  9
$MAXACTVP
 70
    64
  9
$PINSBASE
 10
0.0
 20
0.0
 30
0.0
  9
$PLIMCHECK
 70
     0
  9
$PEXTMIN
 10
1.000000E+20
 20
1.000000E+20
 30
1.000000E+20
  9
$PEXTMAX
 10
-1.000000E+20
 20
-1.000000E+20
 30
-1.000000E+20
  9
$PLIMMIN
 10
0.0
 20
0.0
  9
$PLIMMAX
 10
420.0
 20
297.0
  9
$UNITMODE
 70
     0
  9
$VISRETAIN
 70
     1
  9
$PLINEGEN
 70
     0
  9
$PSLTSCALE
 70
     1
  9
$TREEDEPTH
 70
  3020
  9
$CMLSTYLE
  2
Standard
  9
$CMLJUST
 70
     0
  9
$CMLSCALE
 40
20.0
  9
$PROXYGRAPHICS
 70
     1
  9
$MEASUREMENT
 70
     1
  9
$CELWEIGHT
370
    -1
  9
$ENDCAPS
280
     0
  9
$JOINSTYLE
280
     0
  9
$LWDISPLAY
290
     0
  9
$INSUNITS
 70
     4
  9
$HYPERLINKBASE
  1

  9
$STYLESHEET
  1

  9
$XEDIT
290
     1
  9
$CEPSNTYPE
380
     0
  9
$PSTYLEMODE
290
     1
  9
$FINGERPRINTGUID
  2
{26e2c09e-ac39-44f0-99c0-522d9912125b}
  9
$VERSIONGUID
  2
{FAEB1C32-E019-11D5-929B-00C0DF256EC4}
  9
$EXTNAMES
290
     1
  9
$PSVPSCALE
 40
0.0
  9
$OLESTARTUP
290
     0
  0
ENDSEC
  0
SECTION
  2
CLASSES
  0
CLASS
  1
ACDBDICTIONARYWDFLT
  2
AcDbDictionaryWithDefault
  3
ObjectDBX Classes
 90
        0
280
     0
281
     0
  0
CLASS
  1
VISUALSTYLE
  2
AcDbVisualStyle
  3
ObjectDBX Classes
 90
     4095
280
     0
281
     0
  0
CLASS
  1
MATERIAL
  2
AcDbMaterial
  3
ObjectDBX Classes
 90
     1153
280
     0
281
     0
  0
CLASS
  1
SCALE
  2
AcDbScale
  3
ObjectDBX Classes
 90
     1153
280
     0
281
     0
  0
CLASS
  1
TABLESTYLE
  2
AcDbTableStyle
  3
ObjectDBX Classes
 90
     4095
280
     0
281
     0
  0
CLASS
  1
MLEADERSTYLE
  2
AcDbMLeaderStyle
  3
ACDB_MLEADERSTYLE_CLASS
 90
     4095
280
     0
281
     0
  0
CLASS
  1
SUN
  2
AcDbSun
  3
SCENEOE
 90
     1153
280
     0
281
     0
  0
CLASS
  1
DICTIONARYVAR
  2
AcDbDictionaryVar
  3
ObjectDBX Classes
 90
        0
280
     0
281
     0
  0
CLASS
  1
ACDBPLACEHOLDER
  2
AcDbPlaceHolder
  3
ObjectDBX Classes
 90
        0
280
     0
281
     0
  0
CLASS
  1
LAYOUT
  2
AcDbLayout
  3
ObjectDBX Classes
 90
        0
280
     0
281
     0
  0
ENDSEC
  0
SECTION
  2
TABLES
  0
TABLE
  2
VPORT
  5
8
102
{ACAD_XDICTIONARY
360
29C
102
}
330
0
100
AcDbSymbolTable
 70
     1
  0
VPORT
  5
29
330
8
100
AcDbSymbolTableRecord
100
AcDbViewportTableRecord
  2
*Active
 70
     0
 10
0.0
 20
0.0
 11
1.0
 21
1.0
 12
344.186916
 22
148.5
 13
0.0
 23
0.0
 14
10.0
 24
10.0
 15
10.0
 25
10.0
 16
0.0
 26
0.0
 36
1.0
 17
0.0
 27
0.0
 37
0.0
 40
297.0
 41
1.972973
 42
50.0
 43
0.0
 44
0.0
 50
0.0
 51
0.0
 71
     0
 72
   100
 73
     1
 74
     3
 75
     0
 76
     0
 77
     0
 78
     0
281
     0
 65
     1
110
0.0
120
0.0
130
0.0
111
1.0
121
0.0
131
0.0
112
0.0
122
1.0
132
0.0
 79
     0
146
0.0
  0
ENDTAB
  0
TABLE
  2
LTYPE
  5
5
330
0
100
AcDbSymbolTable
 70
     1
  0
LTYPE
  5
14
330
5
100
AcDbSymbolTableRecord
100
AcDbLinetypeTableRecord
  2
ByBlock
 70
     0
  3

 72
    65
 73
     0
 40
0.0
  0
LTYPE
  5
15
330
5
100
AcDbSymbolTableRecord
100
AcDbLinetypeTableRecord
  2
ByLayer
 70
     0
  3

 72
    65
 73
     0
 40
0.0
  0
LTYPE
  5
16
330
5
100
AcDbSymbolTableRecord
100
AcDbLinetypeTableRecord
  2
Continuous
 70
     0
  3
Solid line
 72
    65
 73
     0
 40
0.0
  0
ENDTAB
  0
TABLE
  2
LAYER
  5
2
330
0
100
AcDbSymbolTable
 70
     1
  0
LAYER
  5
10
330
2
100
AcDbSymbolTableRecord
100
AcDbLayerTableRecord
  2
0
 70
     0
 62
   106
  6
Continuous
370
     0
390
F
  0
ENDTAB
  0
TABLE
  2
STYLE
  5
3
330
0
100
AcDbSymbolTable
 70
     4
  0
STYLE
  5
11
330
3
100
AcDbSymbolTableRecord
100
AcDbTextStyleTableRecord
  2
Standard
 70
     0
 40
0.0
 41
1.0
 50
0.0
 71
     0
 42
2.5
  3
txt
  4

  0
STYLE
  5
6E
330
3
100
AcDbSymbolTableRecord
100
AcDbTextStyleTableRecord
  2
Default
 70
     0
 40
0.0
 41
1.0
 50
0.0
 71
     0
 42
2.5
  3

  4

1001
ACAD
1000
txt
1071
        0
  0
STYLE
  5
6F
330
3
100
AcDbSymbolTableRecord
100
AcDbTextStyleTableRecord
  2
ISO
 70
     0
 40
0.0
 41
1.0
 50
0.0
 71
     0
 42
2.5
  3

  4

1001
ACAD
1000
txt
1071
        0
  0
STYLE
  5
70
330
3
100
AcDbSymbolTableRecord
100
AcDbTextStyleTableRecord
  2
zucchetti
 70
     0
 40
0.0
 41
1.0
 50
0.0
 71
     0
 42
2.5
  3

  4

1001
ACAD
1000
Arial
1071
        0
  0
ENDTAB
  0
TABLE
  2
VIEW
  5
6
330
0
100
AcDbSymbolTable
 70
     0
  0
ENDTAB
  0
TABLE
  2
UCS
  5
7
330
0
100
AcDbSymbolTable
 70
     0
  0
ENDTAB
  0
TABLE
  2
APPID
  5
9
330
0
100
AcDbSymbolTable
 70
     2
  0
APPID
  5
12
330
9
100
AcDbSymbolTableRecord
100
AcDbRegAppTableRecord
  2
ACAD
 70
     0
  0
APPID
  5
2D6
330
9
100
AcDbSymbolTableRecord
100
AcDbRegAppTableRecord
  2
ACAD_MLEADERVER
 70
     0
  0
ENDTAB
  0
TABLE
  2
DIMSTYLE
  5
A
330
0
100
AcDbSymbolTable
 70
     4
100
AcDbDimStyleTable
  0
DIMSTYLE
105
27
330
A
100
AcDbSymbolTableRecord
100
AcDbDimStyleTableRecord
  2
ISO-25
 70
     0
 41
2.5
 42
0.625
 43
3.75
 44
1.25
 73
     0
 74
     0
 77
     1
 78
     8
140
2.5
141
2.5
143
0.03937
147
0.625
171
     3
172
     1
178
     0
271
     2
272
     2
274
     3
278
    44
283
     0
284
     8
340
11
  0
DIMSTYLE
105
71
330
A
100
AcDbSymbolTableRecord
100
AcDbDimStyleTableRecord
  2
Default
 70
     0
  3
<>
 41
4.375
 42
1.05
 44
2.1
 73
     0
 74
     0
 77
     1
 78
     8
140
3.5
146
0.4
147
1.75
172
     1
271
     2
178
     3
271
     2
272
     3
284
     8
340
6E
341
72
342
72
  0
DIMSTYLE
105
79
330
A
100
AcDbSymbolTableRecord
100
AcDbDimStyleTableRecord
  2
ISO
 70
     0
  3
<>
 41
4.375
 42
1.05
 44
2.1
 73
     0
 74
     0
 77
     1
 78
     8
140
3.5
146
0.4
147
1.75
172
     1
271
     2
178
     3
271
     2
272
     3
284
     8
340
6F
341
72
342
72
  0
DIMSTYLE
105
7A
330
A
100
AcDbSymbolTableRecord
100
AcDbDimStyleTableRecord
  2
zucchetti
 70
     0
  3
<>
 41
3.0
 42
0.9
 44
1.8
 73
     0
 74
     0
 77
     1
 78
     8
140
3.0
146
0.6
147
1.5
172
     1
176
     3
177
     3
271
     2
178
     3
271
     2
272
     2
284
     8
340
70
  0
ENDTAB
  0
TABLE
  2
BLOCK_RECORD
  5
1
330
0
100
AcDbSymbolTable
 70
     6
  0
BLOCK_RECORD
  5
1F
330
1
100
AcDbSymbolTableRecord
100
AcDbBlockTableRecord
  2
*Model_Space
340
22
  0
BLOCK_RECORD
  5
1B
330
1
100
AcDbSymbolTableRecord
100
AcDbBlockTableRecord
  2
*Paper_Space
340
1E
  0
BLOCK_RECORD
  5
23
330
1
100
AcDbSymbolTableRecord
100
AcDbBlockTableRecord
  2
*Paper_Space0
340
26
  0
BLOCK_RECORD
  5
72
330
1
100
AcDbSymbolTableRecord
100
AcDbBlockTableRecord
  2
_Closed
340
0
  0
BLOCK_RECORD
  5
7B
330
1
100
AcDbSymbolTableRecord
100
AcDbBlockTableRecord
  2
a
340
0
102
{BLKREFS
331
182
102
}
  0
BLOCK_RECORD
  5
183
330
1
100
AcDbSymbolTableRecord
100
AcDbBlockTableRecord
  2
b
340
0
102
{BLKREFS
331
1C8
102
}
  0
BLOCK_RECORD
  5
1C9
330
1
100
AcDbSymbolTableRecord
100
AcDbBlockTableRecord
  2
c
340
0
102
{BLKREFS
331
22B
102
}
  0
BLOCK_RECORD
  5
22C
330
1
100
AcDbSymbolTableRecord
100
AcDbBlockTableRecord
  2
d
340
0
102
{BLKREFS
331
290
102
}
  0
ENDTAB
  0
ENDSEC
  0
SECTION
  2
BLOCKS
  0
BLOCK
  5
20
330
1F
100
AcDbEntity
  8
0
100
AcDbBlockBegin
  2
*Model_Space
 70
     0
 10
0.0
 20
0.0
 30
0.0
  3
*Model_Space
  1

  0
ENDBLK
  5
21
330
1F
100
AcDbEntity
  8
0
100
AcDbBlockEnd
  0
BLOCK
  5
1C
330
1B
100
AcDbEntity
 67
     1
  8
0
100
AcDbBlockBegin
  2
*Paper_Space
 70
     0
 10
0.0
 20
0.0
 30
0.0
  3
*Paper_Space
  1

  0
ENDBLK
  5
1D
330
1B
100
AcDbEntity
 67
     1
  8
0
100
AcDbBlockEnd
  0
BLOCK
  5
24
330
23
100
AcDbEntity
  8
0
100
AcDbBlockBegin
  2
*Paper_Space0
 70
     0
 10
0.0
 20
0.0
 30
0.0
  3
*Paper_Space0
  1

  0
ENDBLK
  5
25
330
23
100
AcDbEntity
  8
0
100
AcDbBlockEnd
  0
BLOCK
  5
73
330
72
100
AcDbEntity
  8
0
100
AcDbBlockBegin
  2
_Closed
 70
     0
 10
0.0
 20
0.0
 30
0.0
  3
_Closed
  1

  0
LINE
  5
75
330
72
100
AcDbEntity
  8
0
  6
ByBlock
 62
     0
370
    -2
100
AcDbLine
 10
-1.0
 20
0.166667
 30
0.0
 11
0.0
 21
0.0
 31
0.0
  0
LINE
  5
76
330
72
100
AcDbEntity
  8
0
  6
ByBlock
 62
     0
370
    -2
100
AcDbLine
 10
0.0
 20
0.0
 30
0.0
 11
-1.0
 21
-0.166667
 31
0.0
  0
LINE
  5
77
330
72
100
AcDbEntity
  8
0
  6
ByBlock
 62
     0
370
    -2
100
AcDbLine
 10
-1.0
 20
0.166667
 30
0.0
 11
-1.0
 21
-0.166667
 31
0.0
  0
LINE
  5
78
330
72
100
AcDbEntity
  8
0
  6
ByBlock
 62
     0
370
    -2
100
AcDbLine
 10
0.0
 20
0.0
 30
0.0
 11
-1.0
 21
0.0
 31
0.0
  0
ENDBLK
  5
74
330
72
100
AcDbEntity
  8
0
100
AcDbBlockEnd
  0
BLOCK
  5
180
330
7B
100
AcDbEntity
  8
0
100
AcDbBlockBegin
  2
a
 70
     0
 10
220.833328
 20
128.689468
 30
0.0
  3
a
  1

  0
ARC
  5
7C
330
7B
100
AcDbEntity
  8
0
  6
Continuous
 62
     0
370
     0
100
AcDbCircle
 10
275.678502
 20
503.806454
 30
0.0
 40
4.5
100
AcDbArc
 50
180.0
 51
360.0
  0
ARC
  5
7D
330
7B
100
AcDbEntity
  8
0
  6
Continuous
 62
     0
370
     0
100
AcDbCircle
 10
275.678502
 20
503.806454
 30
0.0
 40
4.5
100
AcDbArc
 50
360.0
 51
180.0
  0
ARC
  5
7E
330
7B
100
AcDbEntity
  8
0
  6
Continuous
 62
     0
370
    30
100
AcDbCircle
 10
275.678543
 20
503.806454
 30
0.0
 40
5.0
100
AcDbArc
 50
180.0
 51
360.0
  0
ARC
  5
7F
330
7B
100
AcDbEntity
  8
0
  6
Continuous
 62
     0
370
    30
100
AcDbCircle
 10
275.678543
 20
503.806454
 30
0.0
 40
5.0
100
AcDbArc
 50
360.0
 51
180.0
  0
ARC
  5
80
330
7B
100
AcDbEntity
  8
0
  6
Continuous
 62
     0
370
    30
100
AcDbCircle
 10
275.68285
 20
503.806469
 30
0.0
 40
5.000000000028453
100
AcDbArc
 50
270.200651
 51
89.999902
  0
LINE
  5
81
330
7B
100
AcDbEntity
  8
0
  6
Continuous
 62
     0
370
     0
100
AcDbLine
 10
275.683159
 20
512.406122
 30
0.0
 11
275.682845
 21
508.806469
 31
0.0
  0
SPLINE
  5
82
330
7B
100
AcDbEntity
  8
0
  6
Continuous
 62
     0
370
     0
100
AcDbSpline
210
0.0
220
0.0
230
1.0
 70
     8
 71
     7
 72
    41
 73
    33
 74
     0
 42
0.000000001
 43
0.0
 40
0.0
 40
0.0
 40
0.0
 40
0.0
 40
0.0
 40
0.0
 40
0.0
 40
0.0
 40
0.24
 40
0.24
 40
0.24
 40
0.24
 40
0.24
 40
0.4072
 40
0.4072
 40
0.4072
 40
0.4072
 40
0.4072
 40
0.49149616
 40
0.49149616
 40
0.49149616
 40
0.49149616
 40
0.49149616
 40
0.500000409248974
 40
0.500000409248974
 40
0.500000409248974
 40
0.500000409248974
 40
0.500000409248974
 40
0.875512
 40
0.875512
 40
0.875512
 40
0.875512
 40
0.875512
 40
1.0
 40
1.0
 40
1.0
 40
1.0
 40
1.0
 40
1.0
 40
1.0
 40
1.0
 10
275.68315825307
 20
494.4061332616736
 30
0.0
 10
274.7020580094907
 20
494.4064050252918
 30
0.0
 10
273.7209962597202
 20
494.5294430163616
 30
0.0
 10
272.7619667187479
 20
494.7769221103767
 30
0.0
 10
271.850290556011
 20
495.1449031783077
 30
0.0
 10
270.9963550708193
 20
495.6127347214517
 30
0.0
 10
269.6740245021533
 20
496.5757505406008
 30
0.0
 10
268.5892869338466
 20
497.7861742231889
 30
0.0
 10
268.1870225970284
 20
498.3210308229008
 30
0.0
 10
267.8308903357168
 20
498.8907438217133
 30
0.0
 10
267.5254821984914
 20
499.4925897822588
 30
0.0
 10
267.1488444019735
 20
500.4384424445392
 30
0.0
 10
266.8999558398642
 20
501.4299905524888
 30
0.0
 10
266.8311081409725
 20
501.7666402292026
 30
0.0
 10
266.7772493216953
 20
502.1066748321364
 30
0.0
 10
266.7381305479944
 20
502.4492148831733
 30
0.0
 10
266.7124119816921
 20
502.8279765299384
 30
0.0
 10
266.7056788445648
 20
503.2072670656891
 30
0.0
 10
266.7052210186582
 20
503.2420286929603
 30
0.0
 10
266.7049221549195
 20
503.2767926044034
 30
0.0
 10
266.7047820150641
 20
503.3115577247475
 30
0.0
 10
266.7056104092458
 20
504.8814093254247
 30
0.0
 10
267.0291084194765
 20
506.4493589922778
 30
0.0
 10
267.6333619991775
 20
507.8887155408504
 30
0.0
 10
268.5022291196486
 20
509.1543696029792
 30
0.0
 10
269.5720240982016
 20
510.2425064425225
 30
0.0
 10
271.2547450535508
 20
511.3934562386129
 30
0.0
 10
273.1719393972486
 20
512.0591059292954
 30
0.0
 10
273.662153167286
 20
512.1915832151599
 30
0.0
 10
274.1604272266953
 20
512.2945144650846
 30
0.0
 10
274.6655174497273
 20
512.3664416812346
 30
0.0
 10
275.174266663664
 20
512.4040965483489
 30
0.0
 10
275.68315851124
 20
512.406122031301
 30
0.0
  0
SPLINE
  5
83
330
7B
100
AcDbEntity
  8
0
  6
Continuous
 62
     0
370
     0
100
AcDbSpline
210
0.0
220
0.0
230
1.0
 70
     8
 71
     7
 72
    21
 73
    13
 74
     0
 42
0.000000001
 43
0.0
 40
0.0000000287205835
 40
0.0000000287205835
 40
0.0000000287205835
 40
0.0000000287205835
 40
0.0000000287205835
 40
0.0000000287205835
 40
0.0000000287205835
 40
0.0000000287205835
 40
0.34
 40
0.34
 40
0.34
 40
0.34
 40
0.34
 40
1.0
 40
1.0
 40
1.0
 40
1.0
 40
1.0
 40
1.0
 40
1.0
 40
1.0
 10
275.6828449183126
 20
498.8064692805679
 30
0.0
 10
275.6828712419013
 20
498.8064693658989
 30
0.0
 10
275.6828976297303
 20
498.7899577729233
 30
0.0
 10
275.6829240195615
 20
498.7536178503204
 30
0.0
 10
275.6829501895418
 20
498.693534905466
 30
0.0
 10
275.682976090219
 20
498.60386761497
 30
0.0
 10
275.6830493961706
 20
498.2322260241028
 30
0.0
 10
275.6831081072602
 20
497.5371616340034
 30
0.0
 10
275.6831345548262
 20
496.9193207751135
 30
0.0
 10
275.683146365697
 20
496.3020594406983
 30
0.0
 10
275.6831549149257
 20
495.672142885107
 30
0.0
 10
275.6831582485569
 20
495.0391380791928
 30
0.0
 10
275.68315825307
 20
494.4061332616736
 30
0.0
  0
LINE
  5
84
330
7B
100
AcDbEntity
  8
0
  6
Continuous
 62
     0
370
     0
100
AcDbLine
 10
275.683158
 20
512.406122
 30
0.0
 11
275.683158
 21
515.30647
 31
0.0
  0
LINE
  5
85
330
7B
100
AcDbEntity
  8
0
  6
Continuous
 62
     0
370
     0
100
AcDbLine
 10
275.683158
 20
515.306476
 30
0.0
 11
255.484789
 21
515.306476
 31
0.0
  0
LINE
  5
86
330
7B
100
AcDbEntity
  8
0
  6
Continuous
 62
     0
370
    30
100
AcDbLine
 10
255.484789
 20
485.306476
 30
0.0
 11
275.683158
 21
485.306476
 31
0.0
  0
LINE
  5
87
330
7B
100
AcDbEntity
  8
0
  6
Continuous
 62
     0
370
     0
100
AcDbLine
 10
275.683158
 20
485.30647
 30
0.0
 11
275.683158
 21
494.406133
 31
0.0
  0
SPLINE
  5
88
330
7B
100
AcDbEntity
  8
0
  6
Continuous
 62
     0
370
     0
100
AcDbSpline
210
0.0
220
0.0
230
1.0
 70
     8
 71
     7
 72
    41
 73
    33
 74
     0
 42
0.000000001
 43
0.0
 40
0.0
 40
0.0
 40
0.0
 40
0.0
 40
0.0
 40
0.0
 40
0.0
 40
0.0
 40
0.24
 40
0.24
 40
0.24
 40
0.24
 40
0.24
 40
0.4072
 40
0.4072
 40
0.4072
 40
0.4072
 40
0.4072
 40
0.49149616
 40
0.49149616
 40
0.49149616
 40
0.49149616
 40
0.49149616
 40
0.500000409248974
 40
0.500000409248974
 40
0.500000409248974
 40
0.500000409248974
 40
0.500000409248974
 40
0.875512
 40
0.875512
 40
0.875512
 40
0.875512
 40
0.875512
 40
0.999999986493276
 40
0.999999986493276
 40
0.999999986493276
 40
0.999999986493276
 40
0.999999986493276
 40
0.999999986493276
 40
0.999999986493276
 40
0.999999986493276
 10
275.6831583828521
 20
494.4061332616736
 30
0.0
 10
276.6642586264314
 20
494.4064050252401
 30
0.0
 10
277.6453293516336
 20
494.5294430162584
 30
0.0
 10
278.6043768674724
 20
494.776922110223
 30
0.0
 10
279.516078786708
 20
495.144903178106
 30
0.0
 10
280.3700459488251
 20
495.6127347212051
 30
0.0
 10
281.69243602082
 20
496.5757505402846
 30
0.0
 10
282.7772358954151
 20
497.7861742228157
 30
0.0
 10
283.1795254568431
 20
498.3210308225064
 30
0.0
 10
283.5356817245745
 20
498.8907438213001
 30
0.0
 10
283.8411116372755
 20
499.4925897818296
 30
0.0
 10
284.2177773422388
 20
500.4384424440902
 30
0.0
 10
284.466685176467
 20
501.4299905520267
 30
0.0
 10
284.5355382856501
 20
501.7666402287368
 30
0.0
 10
284.5894013816334
 20
502.1066748316679
 30
0.0
 10
284.6285232811015
 20
502.4492148827027
 30
0.0
 10
284.654243906282
 20
502.8279765294664
 30
0.0
 10
284.6609775827324
 20
503.2072670652168
 30
0.0
 10
284.6614354453123
 20
503.242028692488
 30
0.0
 10
284.6617343329871
 20
503.276792603931
 30
0.0
 10
284.6618744840563
 20
503.3115577242751
 30
0.0
 10
284.661046022537
 20
504.8814093249522
 30
0.0
 10
284.3375220783075
 20
506.4493589918225
 30
0.0
 10
283.7332200685913
 20
507.8887155404269
 30
0.0
 10
282.8642910639671
 20
509.1543696026014
 30
0.0
 10
281.7944339588236
 20
510.242506442201
 30
0.0
 10
280.1116406402092
 20
511.3934562072889
 30
0.0
 10
278.1944010650709
 20
512.0591058932001
 30
0.0
 10
277.7041780068784
 20
512.1915831719328
 30
0.0
 10
277.2058968708027
 20
512.294514420333
 30
0.0
 10
276.7008018750501
 20
512.3664416421612
 30
0.0
 10
276.1920503035049
 20
512.4040965238091
 30
0.0
 10
275.683158511234
 20
512.4061220297626
 30
0.0
  0
LINE
  5
89
330
7B
100
AcDbEntity
  8
0
  6
Continuous
 62
     0
370
    30
100
AcDbLine
 10
295.884789
 20
485.306476
 30
0.0
 11
275.683158
 21
485.306476
 31
0.0
  0
LINE
  5
8A
330
7B
100
AcDbEntity
  8
0
  6
Continuous
 62
     0
370
     0
100
AcDbLine
 10
275.683158
 20
515.306476
 30
0.0
 11
295.884789
 21
515.306476
 31
0.0
  0
LINE
  5
8B
330
7B
100
AcDbEntity
  8
0
  6
Continuous
 62
     0
370
    30
100
AcDbLine
 10
255.984789
 20
515.806476
 30
0.0
 11
295.384789
 21
515.806476
 31
0.0
  0
ARC
  5
8C
330
7B
100
AcDbEntity
  8
0
  6
Continuous
 62
     0
370
    30
100
AcDbCircle
 10
295.384786
 20
515.306473
 30
0.0
 40
0.5000034471262742
100
AcDbArc
 50
0.000395
 51
89.999598
  0
SPLINE
  5
8D
330
7B
100
AcDbEntity
  8
0
  6
Continuous
 62
     0
370
    30
100
AcDbSpline
210
0.0
220
0.0
230
1.0
 70
     8
 71
     3
 72
    18
 73
    14
 74
     0
 42
0.000000001
 43
0.0
 40
0.0
 40
0.0
 40
0.0
 40
0.0
 40
0.0244588460635731
 40
0.0489747509693994
 40
0.0970518311069216
 40
0.1452184510923024
 40
0.1933895939739637
 40
0.2415123407629894
 40
0.3857048524309569
 40
0.4337482194784533
 40
0.5298855546747487
 40
0.6261618528150483
 40
0.7832604765541779
 40
0.7832604765541779
 40
0.7832604765541779
 40
0.7832604765541779
 10
255.9829358100477
 20
515.8064727966794
 30
0.0
 10
255.9767324039703
 20
515.8064492318183
 30
0.0
 10
255.9575850100756
 20
515.8059678084563
 30
0.0
 10
255.9267242037518
 20
515.8034473655129
 30
0.0
 10
255.8861825844552
 20
515.7973989175827
 30
0.0
 10
255.8396360958385
 20
515.7856853432633
 30
0.0
 10
255.7941271610743
 20
515.7695514107722
 30
0.0
 10
255.7214723352188
 20
515.7354311171234
 30
0.0
 10
255.6560629919936
 20
515.6876631097512
 30
0.0
 10
255.5906535221605
 20
515.6170257518168
 30
0.0
 10
255.5449312374317
 20
515.5506876916472
 30
0.0
 10
255.4982550933682
 20
515.4433752248716
 30
0.0
 10
255.4847891581923
 20
515.3586451370971
 30
0.0
 10
255.4847891588906
 20
515.3064763207954
 30
0.0
  0
LINE
  5
8E
330
7B
100
AcDbEntity
  8
0
  6
Continuous
 62
     0
370
    30
100
AcDbLine
 10
295.884789
 20
515.306476
 30
0.0
 11
295.884789
 21
485.306476
 31
0.0
  0
LINE
  5
8F
330
7B
100
AcDbEntity
  8
0
  6
Continuous
 62
     0
370
    30
100
AcDbLine
 10
255.484789
 20
485.306476
 30
0.0
 11
255.484789
 21
515.306476
 31
0.0
  0
LINE
  5
90
330
7B
100
AcDbEntity
  8
0
  6
Continuous
 62
     0
370
     0
100
AcDbLine
 10
264.573306
 20
484.628212
 30
0.0
 11
286.796273
 21
484.628212
 31
0.0
  0
ARC
  5
91
330
7B
100
AcDbEntity
  8
0
  6
Continuous
 62
     0
370
    30
100
AcDbCircle
 10
275.686985
 20
475.704371
 30
0.0
 40
14.25302802011579
100
AcDbArc
 50
137.647592
 51
141.236926
  0
ARC
  5
92
330
7B
100
AcDbEntity
  8
0
  6
Continuous
 62
     0
370
    30
100
AcDbCircle
 10
275.682596
 20
475.704372
 30
0.0
 40
14.25302610703526
100
AcDbArc
 50
38.763075
 51
42.352409
  0
ARC
  5
93
330
7B
100
AcDbEntity
  8
0
  6
Continuous
 62
     0
370
    30
100
AcDbCircle
 10
262.233641
 20
486.507144
 30
0.0
 40
3.000736016967087
100
AcDbArc
 50
280.972174
 51
321.23285
  0
ARC
  5
94
330
7B
100
AcDbEntity
  8
0
  6
Continuous
 62
     0
370
    30
100
AcDbCircle
 10
289.135939
 20
486.507144
 30
0.0
 40
3.000736016966433
100
AcDbArc
 50
218.76715
 51
259.027826
  0
ELLIPSE
  5
95
330
7B
100
AcDbEntity
  8
0
  6
Continuous
 62
     0
370
     0
100
AcDbEllipse
 10
275.678868
 20
461.051627
 30
0.0
 11
9.999993212341991
 21
-0.001404691757130966
 31
0.0
210
0.0
220
0.0
230
1.0
 40
0.866025
 41
1.570953619888972
 42
3.141594866009896
  0
ELLIPSE
  5
96
330
7B
100
AcDbEntity
  8
0
  6
Continuous
 62
     0
370
    30
100
AcDbEllipse
 10
275.677794
 20
453.401616
 30
0.0
 11
-9.999993212341991
 21
0.001404691757130966
 31
0.0
210
0.0
220
0.0
230
-1.0
 40
0.866025
 41
6.167933436895165
 42
7.85381952547741
  0
LINE
  5
97
330
7B
100
AcDbEntity
  8
0
  6
Continuous
 62
     0
370
     0
100
AcDbLine
 10
275.677437
 20
462.061861
 30
0.0
 11
275.678512
 21
469.711872
 31
0.0
  0
LINE
  5
98
330
7B
100
AcDbEntity
  8
0
  6
Continuous
 62
     0
370
     0
100
AcDbLine
 10
275.678462
 20
469.712076
 30
0.0
 11
275.679475
 21
473.061476
 31
0.0
  0
ARC
  5
99
330
7B
100
AcDbEntity
  8
0
  6
Continuous
 62
     0
370
    30
100
AcDbCircle
 10
275.679598
 20
463.061118
 30
0.0
 40
10.00035819425329
100
AcDbArc
 50
90.000707
 51
179.847063
  0
LINE
  5
9A
330
7B
100
AcDbEntity
  8
0
  6
Continuous
 62
     0
370
     0
100
AcDbLine
 10
275.682672
 20
473.061253
 30
0.0
 11
275.683153
 21
475.233508
 31
0.0
  0
LINE
  5
9B
330
7B
100
AcDbEntity
  8
0
  6
Continuous
 62
     0
370
     0
100
AcDbLine
 10
275.683153
 20
475.233508
 30
0.0
 11
275.683216
 21
479.061254
 31
0.0
  0
LINE
  5
9C
330
7B
100
AcDbEntity
  8
0
  6
Continuous
 62
     0
370
     0
100
AcDbLine
 10
275.683216
 20
479.061254
 30
0.0
 11
275.168673
 21
479.052548
 31
0.0
  0
SPLINE
  5
9D
330
7B
100
AcDbEntity
  8
0
  6
Continuous
 62
     0
370
     0
100
AcDbSpline
210
0.0
220
0.0
230
1.0
 70
     8
 71
     3
 72
    24
 73
    20
 74
     0
 42
0.000000001
 43
0.0
 40
0.0
 40
0.0
 40
0.0
 40
0.0
 40
0.022974722925368
 40
0.068924168776103
 40
0.138383050440772
 40
0.208259309146492
 40
0.278522310787637
 40
0.349845994210091
 40
0.3862749898838241
 40
0.4234712484003679
 40
0.461647463797892
 40
0.5006445978749949
 40
0.539485567932475
 40
0.5773717009127141
 40
0.614342053033454
 40
0.65060679774727
 40
0.6863921895539858
 40
0.7218151075249959
 40
0.7880677744673825
 40
0.7880677744673825
 40
0.7880677744673825
 40
0.7880677744673825
 10
275.1686727972337
 20
479.0525478883792
 30
0.0
 10
274.7657557326629
 20
479.0392125655756
 30
0.0
 10
273.5594752920236
 20
478.9531987584948
 30
0.0
 10
271.1699342549885
 20
478.5073307101425
 30
0.0
 10
268.2283155998255
 20
477.3605931756613
 30
0.0
 10
265.3815188556105
 20
475.4572676695275
 30
0.0
 10
263.0469661712078
 20
473.0606401206697
 30
0.0
 10
261.5358167401841
 20
470.6891797588458
 30
0.0
 10
260.6141728654368
 20
468.536087823324
 30
0.0
 10
260.078688213404
 20
466.7544486336041
 30
0.0
 10
259.7378151184587
 20
464.8150351150143
 30
0.0
 10
259.640188233512
 20
462.7688042854597
 30
0.0
 10
259.8127535431763
 20
460.7429180969514
 30
0.0
 10
260.2127979827175
 20
458.8455864973979
 30
0.0
 10
260.7967966176154
 20
457.109091350982
 30
0.0
 10
261.5356021921927
 20
455.5220148281932
 30
0.0
 10
262.4142131365541
 20
454.0697891555037
 30
0.0
 10
263.7171853290868
 20
452.3487230722984
 30
0.0
 10
264.8702697877509
 20
451.2202130040454
 30
0.0
 10
265.700856673073
 20
450.5575564940643
 30
0.0
  0
LINE
  5
9E
330
7B
100
AcDbEntity
  8
0
  6
Continuous
 62
     0
370
     0
100
AcDbLine
 10
275.683169
 20
357.840166
 30
0.0
 11
275.683169
 21
431.052662
 31
0.0
  0
LINE
  5
9F
330
7B
100
AcDbEntity
  8
0
  6
Continuous
 62
     0
370
     0
100
AcDbLine
 10
275.683169
 20
479.061254
 30
0.0
 11
275.683169
 21
483.561255
 31
0.0
  0
LINE
  5
A0
330
7B
100
AcDbEntity
  8
0
  6
Continuous
 62
     0
370
    30
100
AcDbLine
 10
275.683169
 20
483.561262
 30
0.0
 11
255.68479
 21
483.561262
 31
0.0
  0
ELLIPSE
  5
A1
330
7B
100
AcDbEntity
  8
0
  6
Continuous
 62
     0
370
    30
100
AcDbEllipse
 10
275.677793
 20
453.401616
 30
0.0
 11
-9.999993212678826
 21
0.001402291761703099
 31
0.0
210
0.0
220
0.0
230
-1.0
 40
0.866025
 41
1.570634484543574
 42
3.258446145689573
  0
ELLIPSE
  5
A2
330
7B
100
AcDbEntity
  8
0
  6
Continuous
 62
     0
370
     0
100
AcDbEllipse
 10
275.678866
 20
461.051627
 30
0.0
 11
9.999993212678826
 21
-0.001402291761703099
 31
0.0
210
0.0
220
0.0
230
1.0
 40
0.866025
 41
0.0
 42
1.570953170043051
  0
ARC
  5
A3
330
7B
100
AcDbEntity
  8
0
  6
Continuous
 62
     0
370
    30
100
AcDbCircle
 10
275.679351
 20
463.061119
 30
0.0
 40
10.00035728237125
100
AcDbArc
 50
359.820436
 51
89.999294
  0
ARC
  5
A4
330
7B
100
AcDbEntity
  8
0
  6
Continuous
 62
     0
370
    30
100
AcDbCircle
 10
275.682674
 20
463.061253
 30
0.0
 40
10.000235609
100
AcDbArc
 50
358.500393
 51
90.0
  0
SPLINE
  5
A5
330
7B
100
AcDbEntity
  8
0
  6
Continuous
 62
     0
370
     0
100
AcDbSpline
210
0.0
220
0.0
230
1.0
 70
     8
 71
     3
 72
    24
 73
    20
 74
     0
 42
0.000000001
 43
0.0
 40
0.0
 40
0.0
 40
0.0
 40
0.0
 40
0.022974722924393
 40
0.06892416877318
 40
0.13838305043648
 40
0.208259309142019
 40
0.278522310781651
 40
0.349845994199493
 40
0.386274989869694
 40
0.423471248381592
 40
0.4616474637745431
 40
0.500644597852081
 40
0.5394855679175451
 40
0.5773717009057471
 40
0.614342053032342
 40
0.650606797749563
 40
0.686392189558228
 40
0.721815107530156
 40
0.7884678747220055
 40
0.7884678747220055
 40
0.7884678747220055
 40
0.7884678747220055
 10
276.1976663381728
 20
479.0525478904297
 30
0.0
 10
276.6005850889404
 20
479.0392125682164
 30
0.0
 10
277.8068765201436
 20
478.9531987628776
 30
0.0
 10
280.1964751520494
 20
478.5073307175116
 30
0.0
 10
283.13824008802
 20
477.3605931859996
 30
0.0
 10
285.9852678030845
 20
475.4572676817482
 30
0.0
 10
288.3200884555589
 20
473.0606401338231
 30
0.0
 10
289.8314665322781
 20
470.6891797724764
 30
0.0
 10
290.7532735717724
 20
468.5360878372904
 30
0.0
 10
291.2888627603244
 20
466.7544486477821
 30
0.0
 10
291.6298075748263
 20
464.8150351290956
 30
0.0
 10
291.727455863906
 20
462.7688042986641
 30
0.0
 10
291.5548529904584
 20
460.7429181083954
 30
0.0
 10
291.1547259591268
 20
458.8455865068551
 30
0.0
 10
290.5706161737155
 20
457.1090913586688
 30
0.0
 10
289.8316838355555
 20
455.522014834402
 30
0.0
 10
288.9529383106993
 20
454.0697891604812
 30
0.0
 10
287.6459974794849
 20
452.3437136617285
 30
0.0
 10
286.4874995378468
 20
451.2113337188225
 30
0.0
 10
285.6508561498538
 20
450.5455590919876
 30
0.0
  0
LINE
  5
A6
330
7B
100
AcDbEntity
  8
0
  6
Continuous
 62
     0
370
     0
100
AcDbLine
 10
275.683216
 20
479.061252
 30
0.0
 11
276.197666
 21
479.052548
 31
0.0
  0
LINE
  5
A7
330
7B
100
AcDbEntity
  8
0
  6
Continuous
 62
     0
370
    30
100
AcDbLine
 10
295.68479
 20
483.561262
 30
0.0
 11
275.683169
 21
483.561262
 31
0.0
  0
LINE
  5
A8
330
7B
100
AcDbEntity
  8
0
  6
Continuous
 62
     0
370
    30
100
AcDbLine
 10
295.68479
 20
357.840173
 30
0.0
 11
295.68479
 21
483.561262
 31
0.0
  0
LINE
  5
A9
330
7B
100
AcDbEntity
  8
0
  6
Continuous
 62
     0
370
    30
100
AcDbLine
 10
285.679101
 20
461.050226
 30
0.0
 11
285.679642
 21
463.029778
 31
0.0
  0
LINE
  5
AA
330
7B
100
AcDbEntity
  8
0
  6
Continuous
 62
     0
370
    30
100
AcDbLine
 10
285.678859
 20
461.050225
 30
0.0
 11
285.677786
 21
453.400213
 31
0.0
  0
LINE
  5
AB
330
7B
100
AcDbEntity
  8
0
  6
Continuous
 62
     0
370
    30
100
AcDbLine
 10
255.68479
 20
483.561262
 30
0.0
 11
255.68479
 21
357.840173
 31
0.0
  0
SPLINE
  5
AC
330
7B
100
AcDbEntity
  8
0
  6
Continuous
 62
     0
370
    30
100
AcDbSpline
210
0.0
220
0.0
230
1.0
 70
     8
 71
     3
 72
    61
 73
    57
 74
     0
 42
0.000000001
 43
0.0
 40
0.0
 40
0.0
 40
0.0
 40
0.0
 40
1.179206413966845
 40
2.498034100919331
 40
3.219569518638846
 40
3.700570419421006
 40
4.422083740756761
 40
4.903126511580463
 40
5.384228973064906
 40
5.624811921330419
 40
6.106055810465997
 40
6.346716573548697
 40
6.587403049768334
 40
6.828106121097782
 40
7.068847021549789
 40
7.309716305917452
 40
7.43027796089328
 40
7.551289528547167
 40
7.612290663512256
 40
7.674703404540518
 40
7.69940133729614
 40
7.724112632798301
 40
7.754138172435622
 40
7.784185456382162
 40
7.818043535257633
 40
7.851915565908056
 40
7.89968824787434
 40
7.947469078596001
 40
7.994214593809495
 40
8.040962130327111
 40
8.226993963896827
 40
8.412775695481539
 40
8.598090190272677
 40
8.783405292537326
 40
9.154001000663948
 40
9.519433647001451
 40
9.884865486487167
 40
10.43301318035741
 40
11.48490155053616
 40
13.04940967994379
 40
14.14722176092861
 40
15.27244377544432
 40
16.78150183759833
 40
17.74113469196957
 40
18.89270461649894
 40
19.46843941320782
 40
20.23602992348972
 40
20.61985159119728
 40
21.19568774318355
 40
21.38767434253016
 40
21.57968625559211
 40
21.77171542228432
 40
21.96374941953781
 40
22.15577543898583
 40
22.34778040116684
 40
22.53975106204463
 40
22.53975106204463
 40
22.53975106204463
 40
22.53975106204463
 10
265.6786323867553
 20
461.0530238404241
 30
0.0
 10
265.6786599723721
 20
461.249573100488
 30
0.0
 10
265.6787197678238
 20
461.6377453688326
 30
0.0
 10
265.6787999477486
 20
462.0573780096375
 30
0.0
 10
265.6788644034416
 20
462.3325364676991
 30
0.0
 10
265.6789142861404
 20
462.5182631890934
 30
0.0
 10
265.6789585041195
 20
462.6592259003425
 30
0.0
 10
265.6790029814636
 20
462.7778901199617
 30
0.0
 10
265.6790354442095
 20
462.8511514151042
 30
0.0
 10
265.6790679451477
 20
462.9145246707995
 30
0.0
 10
265.6790944872056
 20
462.9581589038139
 30
0.0
 10
265.6791209373408
 20
462.9938124263313
 30
0.0
 10
265.6791423788889
 20
463.0183312405507
 30
0.0
 10
265.6791633550666
 20
463.0381433562781
 30
0.0
 10
265.6791868995468
 20
463.0559887140805
 30
0.0
 10
265.6792127456388
 20
463.0707137150074
 30
0.0
 10
265.6792431427464
 20
463.0828531336256
 30
0.0
 10
265.6792761140614
 20
463.0940456892995
 30
0.0
 10
265.6793389104861
 20
463.1080046552091
 30
0.0
 10
265.6793906114628
 20
463.1187331376688
 30
0.0
 10
265.6795154543648
 20
463.1363660986297
 30
0.0
 10
265.6795826878453
 20
463.1451191471646
 30
0.0
 10
265.6797946031008
 20
463.1674654653845
 30
0.0
 10
265.6799941200792
 20
463.1850031352959
 30
0.0
 10
265.6804422167561
 20
463.2173964229127
 30
0.0
 10
265.680997509487
 20
463.2497772850715
 30
0.0
 10
265.681907748805
 20
463.2936811617401
 30
0.0
 10
265.6830669291933
 20
463.3388550425093
 30
0.0
 10
265.6844920544103
 20
463.3861174397161
 30
0.0
 10
265.6877098170566
 20
463.478309201584
 30
0.0
 10
265.6941947242843
 20
463.6179699227064
 30
0.0
 10
265.7062542713907
 20
463.8030753179028
 30
0.0
 10
265.7217346560585
 20
463.9879448525691
 30
0.0
 10
265.7469031312691
 20
464.2336987004708
 30
0.0
 10
265.7866632865559
 20
464.5382964187771
 30
0.0
 10
265.8475521608867
 20
464.9004269327115
 30
0.0
 10
265.9336127245086
 20
465.3180644059807
 30
0.0
 10
266.095101022502
 20
465.9532678418149
 30
0.0
 10
266.4361583644812
 20
466.9530149043406
 30
0.0
 10
266.9872057428844
 20
468.0659488571063
 30
0.0
 10
267.6936618345423
 20
469.1146134578293
 30
0.0
 10
268.5000893945416
 20
470.0644864226675
 30
0.0
 10
269.3912668453244
 20
470.8701877996756
 30
0.0
 10
270.3803388759834
 20
471.5640175089413
 30
0.0
 10
271.1650497263168
 20
471.9988694552119
 30
0.0
 10
271.9247696533319
 20
472.3380310375354
 30
0.0
 10
272.4654828760459
 20
472.5369735979583
 30
0.0
 10
273.0164648512876
 20
472.7044181107536
 30
0.0
 10
273.3888446871978
 20
472.7983607281914
 30
0.0
 10
273.7018776220595
 20
472.8646048235224
 30
0.0
 10
273.8904525377516
 20
472.900804400938
 30
0.0
 10
274.0797715899814
 20
472.9330946914666
 30
0.0
 10
274.269428066507
 20
472.9627899646986
 30
0.0
 10
274.4605509644828
 20
472.9849522058154
 30
0.0
 10
274.6485332309578
 20
473.0179755335355
 30
0.0
 10
274.7829732879843
 20
473.0014535681639
 30
0.0
 10
274.8419590057115
 20
473.0262614968346
 30
0.0
  0
LINE
  5
AD
330
7B
100
AcDbEntity
  8
0
  6
Continuous
 62
     0
370
    30
100
AcDbLine
 10
265.6778
 20
453.40302
 30
0.0
 11
265.678875
 21
461.053032
 31
0.0
  0
LINE
  5
AE
330
7B
100
AcDbEntity
  8
0
  6
Continuous
 62
     0
370
    30
100
AcDbLine
 10
248.910977
 20
357.840182
 30
0.0
 11
275.68479
 21
357.840182
 31
0.0
  0
LINE
  5
AF
330
7B
100
AcDbEntity
  8
0
  6
Continuous
 62
     0
370
    30
100
AcDbLine
 10
275.68479
 20
357.840182
 30
0.0
 11
302.458602
 21
357.840182
 31
0.0
  0
LINE
  5
B0
330
7B
100
AcDbEntity
  8
0
  6
Continuous
 62
     0
370
     0
100
AcDbLine
 10
248.710985
 20
357.641927
 30
0.0
 11
275.68479
 21
357.641927
 31
0.0
  0
LINE
  5
B1
330
7B
100
AcDbEntity
  8
0
  6
Continuous
 62
     0
370
     0
100
AcDbLine
 10
275.68479
 20
357.641927
 30
0.0
 11
302.658595
 21
357.641927
 31
0.0
  0
LINE
  5
B2
330
7B
100
AcDbEntity
  8
0
  6
Continuous
 62
     0
370
    30
100
AcDbLine
 10
248.684788
 20
354.640182
 30
0.0
 11
275.68479
 21
354.640182
 31
0.0
  0
LINE
  5
B3
330
7B
100
AcDbEntity
  8
0
  6
Continuous
 62
     0
370
    30
100
AcDbLine
 10
275.68479
 20
354.640182
 30
0.0
 11
302.684791
 21
354.640182
 31
0.0
  0
LINE
  5
B4
330
7B
100
AcDbEntity
  8
0
  6
Continuous
 62
     0
370
    30
100
AcDbLine
 10
248.710985
 20
357.641927
 30
0.0
 11
248.684788
 21
354.640182
 31
0.0
  0
LINE
  5
B5
330
7B
100
AcDbEntity
  8
0
  6
Continuous
 62
     0
370
    30
100
AcDbLine
 10
302.658595
 20
357.641927
 30
0.0
 11
302.684791
 21
354.640182
 31
0.0
  0
ARC
  5
B6
330
7B
100
AcDbEntity
  8
0
  6
Continuous
 62
     0
370
    30
100
AcDbCircle
 10
248.911091
 20
357.640067
 30
0.0
 40
0.2001151484182228
100
AcDbArc
 50
90.061215
 51
179.467325
  0
ARC
  5
B7
330
7B
100
AcDbEntity
  8
0
  6
Continuous
 62
     0
370
    30
100
AcDbCircle
 10
302.458488
 20
357.640067
 30
0.0
 40
0.2001151484178184
100
AcDbArc
 50
0.532675
 51
89.938785
  0
LINE
  5
B8
330
7B
100
AcDbEntity
  8
0
  6
Continuous
 62
     0
370
     0
100
AcDbLine
 10
270.299106
 20
444.721357
 30
0.0
 11
270.299106
 21
445.250702
 31
0.0
  0
SPLINE
  5
B9
330
7B
100
AcDbEntity
  8
0
  6
Continuous
 62
     0
370
    30
100
AcDbSpline
210
0.0
220
0.0
230
1.0
 70
    12
 71
     2
 72
     6
 73
     3
 74
     0
 42
0.000000001
 43
0.0
 40
12.5663706143592
 40
12.5663706143592
 40
12.5663706143592
 40
25.13274122871839
 40
25.13274122871839
 40
25.13274122871839
 10
270.2991055216867
 20
444.7213566734453
 30
0.0
 41
1.0
 10
276.2228344984663
 20
449.3777565542657
 30
0.0
 41
0.7071067811865471
 10
281.5995839820906
 20
444.2476586888535
 30
0.0
 41
1.0
  0
SPLINE
  5
BA
330
7B
100
AcDbEntity
  8
0
  6
Continuous
 62
     0
370
    30
100
AcDbSpline
210
0.0
220
0.0
230
1.0
 70
    12
 71
     2
 72
     8
 73
     5
 74
     0
 42
0.000000001
 43
0.0
 40
0.0
 40
0.0
 40
0.0
 40
12.5663706143592
 40
12.5663706143592
 40
25.13274122871839
 40
25.13274122871839
 40
25.13274122871839
 10
281.5995839820906
 20
444.2476586888535
 30
0.0
 41
1.0
 10
286.9763334657159
 20
439.1175608234414
 30
0.0
 41
0.707106781186548
 10
281.0526044889361
 20
434.461160942621
 30
0.0
 41
1.0
 10
275.1288755121564
 20
429.8047610618005
 30
0.0
 41
0.707106781186548
 10
269.7521260285313
 20
434.9348589272126
 30
0.0
 41
1.0
  0
SPLINE
  5
BB
330
7B
100
AcDbEntity
  8
0
  6
Continuous
 62
     0
370
    30
100
AcDbSpline
210
0.0
220
0.0
230
1.0
 70
    12
 71
     2
 72
     6
 73
     3
 74
     0
 42
0.000000001
 43
0.0
 40
0.0
 40
0.0
 40
0.0
 40
12.5663706143592
 40
12.5663706143592
 40
12.5663706143592
 10
269.7521260285313
 20
434.9348589272126
 30
0.0
 41
1.0
 10
264.3753765449068
 20
440.0649567926249
 30
0.0
 41
0.7071067811865471
 10
270.2991055216867
 20
444.7213566734453
 30
0.0
 41
1.0
  0
SPLINE
  5
BC
330
7B
100
AcDbEntity
  8
0
  6
Continuous
 62
     0
370
    30
100
AcDbSpline
210
0.0
220
0.0
230
1.0
 70
    12
 71
     2
 72
     8
 73
     5
 74
     0
 42
0.000000001
 43
0.0
 40
0.0
 40
0.0
 40
0.0
 40
11.7809724509617
 40
11.7809724509617
 40
23.5619449019234
 40
23.5619449019234
 40
23.5619449019234
 10
281.2293017563908
 20
443.9566441135555
 30
0.0
 41
1.0
 10
276.1885991154925
 20
448.7661108623795
 30
0.0
 41
0.707106781186548
 10
270.6351031997617
 20
444.4007359741104
 30
0.0
 41
1.0
 10
265.0816072840302
 20
440.0353610858411
 30
0.0
 41
0.707106781186548
 10
270.1223099249285
 20
435.2258943370171
 30
0.0
 41
1.0
  0
SPLINE
  5
BD
330
7B
100
AcDbEntity
  8
0
  6
Continuous
 62
     0
370
    30
100
AcDbSpline
210
0.0
220
0.0
230
1.0
 70
    12
 71
     2
 72
     6
 73
     3
 74
     0
 42
0.000000001
 43
0.0
 40
-23.5619449019234
 40
-23.5619449019234
 40
-23.5619449019234
 40
-11.7809724509617
 40
-11.7809724509617
 40
-11.7809724509617
 10
281.2293017563908
 20
443.9566441135555
 30
0.0
 41
1.0
 10
286.2700043972891
 20
439.1471773647316
 30
0.0
 41
0.707106781186548
 10
280.7165084815584
 20
434.7818024764625
 30
0.0
 41
1.0
  0
SPLINE
  5
BE
330
7B
100
AcDbEntity
  8
0
  6
Continuous
 62
     0
370
    30
100
AcDbSpline
210
0.0
220
0.0
230
1.0
 70
    12
 71
     2
 72
     6
 73
     3
 74
     0
 42
0.000000001
 43
0.0
 40
-11.7809724509617
 40
-11.7809724509617
 40
-11.7809724509617
 40
0.0
 40
0.0
 40
0.0
 10
280.7165084815584
 20
434.7818024764625
 30
0.0
 41
1.0
 10
275.1630125658268
 20
430.4164275881934
 30
0.0
 41
0.707106781186548
 10
270.1223099249285
 20
435.2258943370171
 30
0.0
 41
1.0
  0
ARC
  5
BF
330
7B
100
AcDbEntity
  8
0
  6
Continuous
 62
     0
370
    30
100
AcDbCircle
 10
279.707969
 20
437.129808
 30
0.0
 40
0.5691823786822066
100
AcDbArc
 50
253.287339
 51
296.104595
  0
LINE
  5
C0
330
7B
100
AcDbEntity
  8
0
  6
Continuous
 62
     0
370
     0
100
AcDbLine
 10
279.544288
 20
435.834667
 30
0.0
 11
279.544288
 21
436.584668
 31
0.0
  0
SPLINE
  5
C1
330
7B
100
AcDbEntity
  8
0
  6
Continuous
 62
     0
370
    30
100
AcDbSpline
210
0.0
220
0.0
230
1.0
 70
    12
 71
     2
 72
     8
 73
     5
 74
     0
 42
0.000000001
 43
0.0
 40
-1.57079632679489
 40
-1.57079632679489
 40
-1.57079632679489
 40
-0.7853981633974441
 40
-0.7853981633974441
 40
0.0
 40
0.0
 40
0.0
 10
279.8725458790682
 20
436.6527045383932
 30
0.0
 41
1.0
 10
280.3448400155037
 20
436.5105649181053
 30
0.0
 41
0.7071067811865471
 10
280.180711259068
 20
436.1015463518291
 30
0.0
 41
1.0
 10
280.0165825026331
 20
435.6925277855531
 30
0.0
 41
0.7071067811865471
 10
279.5442883661984
 20
435.8346674058412
 30
0.0
 41
1.0
  0
SPLINE
  5
C2
330
7B
100
AcDbEntity
  8
0
  6
Continuous
 62
     0
370
    30
100
AcDbSpline
210
0.0
220
0.0
230
1.0
 70
    12
 71
     2
 72
     6
 73
     3
 74
     0
 42
0.000000001
 43
0.0
 40
-0.7853981633974418
 40
-0.7853981633974418
 40
-0.7853981633974418
 40
0.0
 40
0.0
 40
0.0
 10
279.2361229861978
 20
436.3858255924052
 30
0.0
 41
1.0
 10
279.4002517426326
 20
436.7948441586813
 30
0.0
 41
0.707106781186549
 10
279.8725458790682
 20
436.6527045383932
 30
0.0
 41
1.0
  0
SPLINE
  5
C3
330
7B
100
AcDbEntity
  8
0
  6
Continuous
 62
     0
370
    30
100
AcDbSpline
210
0.0
220
0.0
230
1.0
 70
    12
 71
     2
 72
     6
 73
     3
 74
     0
 42
0.000000001
 43
0.0
 40
-1.57079632679488
 40
-1.57079632679488
 40
-1.57079632679488
 40
-0.7853981633974418
 40
-0.7853981633974418
 40
-0.7853981633974418
 10
279.5442883661984
 20
435.8346674058412
 30
0.0
 41
1.0
 10
279.0719942297628
 20
435.9768070261293
 30
0.0
 41
0.707106781186548
 10
279.2361229861978
 20
436.3858255924052
 30
0.0
 41
1.0
  0
ARC
  5
C4
330
7B
100
AcDbEntity
  8
0
  6
Continuous
 62
     0
370
    30
100
AcDbCircle
 10
279.699567
 20
437.102017
 30
0.0
 40
0.5401491735580436
100
AcDbArc
 50
243.483962
 51
253.293243
  0
LINE
  5
C5
330
7B
100
AcDbEntity
  8
0
  6
Continuous
 62
     0
370
     0
100
AcDbLine
 10
280.668613
 20
438.033284
 30
0.0
 11
280.668613
 21
437.960261
 31
0.0
  0
ARC
  5
C6
330
7B
100
AcDbEntity
  8
0
  6
Continuous
 62
     0
370
    30
100
AcDbCircle
 10
281.169661
 20
438.870775
 30
0.0
 40
0.556862563656267
100
AcDbArc
 50
274.050215
 51
296.350564
  0
LINE
  5
C7
330
7B
100
AcDbEntity
  8
0
  6
Continuous
 62
     0
370
     0
100
AcDbLine
 10
281.208992
 20
437.565302
 30
0.0
 11
281.208992
 21
438.315303
 31
0.0
  0
SPLINE
  5
C8
330
7B
100
AcDbEntity
  8
0
  6
Continuous
 62
     0
370
    30
100
AcDbSpline
210
0.0
220
0.0
230
1.0
 70
    12
 71
     2
 72
     8
 73
     5
 74
     0
 42
0.000000001
 43
0.0
 40
-1.57079632679489
 40
-1.57079632679489
 40
-1.57079632679489
 40
-0.7853981633974471
 40
-0.7853981633974471
 40
0.0
 40
0.0
 40
0.0
 10
281.124671787842
 20
438.428242957094
 30
0.0
 41
1.0
 10
281.6228911302778
 20
438.4647547912315
 30
0.0
 41
0.7071067811865459
 10
281.6650513819666
 20
438.0332843459146
 30
0.0
 41
1.0
 10
281.7072116336545
 20
437.6018139005977
 30
0.0
 41
0.7071067811865459
 10
281.2089922912178
 20
437.5653020664599
 30
0.0
 41
1.0
  0
SPLINE
  5
C9
330
7B
100
AcDbEntity
  8
0
  6
Continuous
 62
     0
370
    30
100
AcDbSpline
210
0.0
220
0.0
230
1.0
 70
    12
 71
     2
 72
     6
 73
     3
 74
     0
 42
0.000000001
 43
0.0
 40
-0.785398163397441
 40
-0.785398163397441
 40
-0.785398163397441
 40
0.0
 40
0.0
 40
0.0
 10
280.6686126970941
 20
437.9602606776394
 30
0.0
 41
1.0
 10
280.6264524454053
 20
438.3917311229563
 30
0.0
 41
0.7071067811865501
 10
281.124671787842
 20
438.428242957094
 30
0.0
 41
1.0
  0
SPLINE
  5
CA
330
7B
100
AcDbEntity
  8
0
  6
Continuous
 62
     0
370
    30
100
AcDbSpline
210
0.0
220
0.0
230
1.0
 70
    12
 71
     2
 72
     6
 73
     3
 74
     0
 42
0.000000001
 43
0.0
 40
-1.57079632679488
 40
-1.57079632679488
 40
-1.57079632679488
 40
-0.785398163397441
 40
-0.785398163397441
 40
-0.785398163397441
 10
281.2089922912178
 20
437.5653020664599
 30
0.0
 41
1.0
 10
280.710772948782
 20
437.5287902323225
 30
0.0
 41
0.7071067811865501
 10
280.6686126970941
 20
437.9602606776394
 30
0.0
 41
1.0
  0
ARC
  5
CB
330
7B
100
AcDbEntity
  8
0
  6
Continuous
 62
     0
370
    30
100
AcDbCircle
 10
281.16623
 20
438.878072
 30
0.0
 40
0.5643914194323014
100
AcDbArc
 50
243.775676
 51
274.345274
  0
LINE
  5
CC
330
7B
100
AcDbEntity
  8
0
  6
Continuous
 62
     0
370
     0
100
AcDbLine
 10
281.237809
 20
440.320865
 30
0.0
 11
281.237809
 21
439.903165
 31
0.0
  0
LINE
  5
CD
330
7B
100
AcDbEntity
  8
0
  6
Continuous
 62
     0
370
    30
100
AcDbLine
 10
281.916967
 20
440.482699
 30
0.0
 11
281.925806
 21
440.487015
 31
0.0
  0
LINE
  5
CE
330
7B
100
AcDbEntity
  8
0
  6
Continuous
 62
     0
370
     0
100
AcDbLine
 10
281.916967
 20
439.732698
 30
0.0
 11
281.916967
 21
440.482699
 31
0.0
  0
SPLINE
  5
CF
330
7B
100
AcDbEntity
  8
0
  6
Continuous
 62
     0
370
    30
100
AcDbSpline
210
0.0
220
0.0
230
1.0
 70
    12
 71
     2
 72
     8
 73
     5
 74
     0
 42
0.000000001
 43
0.0
 40
-1.57079632679489
 40
-1.57079632679489
 40
-1.57079632679489
 40
-0.7853981633974431
 40
-0.7853981633974431
 40
0.0
 40
0.0
 40
0.0
 10
281.434647774765
 20
440.4913320218193
 30
0.0
 41
1.0
 10
281.8726456727149
 20
440.7001820825606
 30
0.0
 41
0.7071067811865459
 10
282.113805041995
 20
440.3208649179839
 30
0.0
 41
1.0
 10
282.3549644112759
 20
439.9415477534072
 30
0.0
 41
0.7071067811865459
 10
281.9169665133269
 20
439.732697692666
 30
0.0
 41
1.0
  0
SPLINE
  5
D0
330
7B
100
AcDbEntity
  8
0
  6
Continuous
 62
     0
370
    30
100
AcDbSpline
210
0.0
220
0.0
230
1.0
 70
    12
 71
     2
 72
     6
 73
     3
 74
     0
 42
0.000000001
 43
0.0
 40
-0.78539816339744
 40
-0.78539816339744
 40
-0.78539816339744
 40
0.0
 40
0.0
 40
0.0
 10
281.237809246097
 20
439.9031647965015
 30
0.0
 41
1.0
 10
280.996649876816
 20
440.2824819610781
 30
0.0
 41
0.707106781186549
 10
281.434647774765
 20
440.4913320218193
 30
0.0
 41
1.0
  0
SPLINE
  5
D1
330
7B
100
AcDbEntity
  8
0
  6
Continuous
 62
     0
370
    30
100
AcDbSpline
210
0.0
220
0.0
230
1.0
 70
    12
 71
     2
 72
     6
 73
     3
 74
     0
 42
0.000000001
 43
0.0
 40
-1.57079632679488
 40
-1.57079632679488
 40
-1.57079632679488
 40
-0.78539816339744
 40
-0.78539816339744
 40
-0.78539816339744
 10
281.916966513327
 20
439.7326976926661
 30
0.0
 41
1.0
 10
281.4789686153771
 20
439.5238476319247
 30
0.0
 41
0.707106781186549
 10
281.237809246097
 20
439.9031647965015
 30
0.0
 41
1.0
  0
ARC
  5
D2
330
7B
100
AcDbEntity
  8
0
  6
Continuous
 62
     0
370
    30
100
AcDbCircle
 10
281.675889
 20
440.997041
 30
0.0
 40
0.5680373573663973
100
AcDbArc
 50
243.879918
 51
295.112973
  0
LINE
  5
D3
330
7B
100
AcDbEntity
  8
0
  6
Continuous
 62
     0
370
     0
100
AcDbLine
 10
280.845293
 20
442.568745
 30
0.0
 11
280.845293
 21
441.878592
 31
0.0
  0
LINE
  5
D4
330
7B
100
AcDbEntity
  8
0
  6
Continuous
 62
     0
370
     0
100
AcDbLine
 10
281.545796
 20
441.962092
 30
0.0
 11
281.545796
 21
442.485245
 31
0.0
  0
SPLINE
  5
D5
330
7B
100
AcDbEntity
  8
0
  6
Continuous
 62
     0
370
    30
100
AcDbSpline
210
0.0
220
0.0
230
1.0
 70
    12
 71
     2
 72
     8
 73
     5
 74
     0
 42
0.000000001
 43
0.0
 40
-1.5707963267949
 40
-1.5707963267949
 40
-1.5707963267949
 40
-0.785398163397448
 40
-0.785398163397448
 40
0.0
 40
0.0
 40
0.0
 10
280.7488761756562
 20
442.4852448907026
 30
0.0
 41
1.0
 10
281.0509188134769
 20
442.8303211052021
 30
0.0
 41
0.7071067811865459
 10
281.4493786545376
 20
442.5687446051093
 30
0.0
 41
1.0
 10
281.8478384955983
 20
442.3071681050164
 30
0.0
 41
0.7071067811865459
 10
281.5457958577775
 20
441.9620918905169
 30
0.0
 41
1.0
  0
SPLINE
  5
D6
330
7B
100
AcDbEntity
  8
0
  6
Continuous
 62
     0
370
    30
100
AcDbSpline
210
0.0
220
0.0
230
1.0
 70
    12
 71
     2
 72
     6
 73
     3
 74
     0
 42
0.000000001
 43
0.0
 40
-0.78539816339744
 40
-0.78539816339744
 40
-0.78539816339744
 40
0.0
 40
0.0
 40
0.0
 10
280.8452933788959
 20
441.8785921761104
 30
0.0
 41
1.0
 10
280.4468335378352
 20
442.1401686762032
 30
0.0
 41
0.7071067811865501
 10
280.7488761756562
 20
442.4852448907026
 30
0.0
 41
1.0
  0
SPLINE
  5
D7
330
7B
100
AcDbEntity
  8
0
  6
Continuous
 62
     0
370
    30
100
AcDbSpline
210
0.0
220
0.0
230
1.0
 70
    12
 71
     2
 72
     6
 73
     3
 74
     0
 42
0.000000001
 43
0.0
 40
-1.57079632679488
 40
-1.57079632679488
 40
-1.57079632679488
 40
-0.78539816339744
 40
-0.78539816339744
 40
-0.78539816339744
 10
281.5457958577775
 20
441.9620918905169
 30
0.0
 41
1.0
 10
281.2437532199559
 20
441.6170156760175
 30
0.0
 41
0.7071067811865501
 10
280.8452933788959
 20
441.8785921761104
 30
0.0
 41
1.0
  0
ARC
  5
D8
330
7B
100
AcDbEntity
  8
0
  6
Continuous
 62
     0
370
    30
100
AcDbCircle
 10
281.147336
 20
443.108335
 30
0.0
 40
0.5676786367390385
100
AcDbArc
 50
243.871358
 51
296.128641
  0
LINE
  5
D9
330
7B
100
AcDbEntity
  8
0
  6
Continuous
 62
     0
370
     0
100
AcDbLine
 10
279.558935
 20
444.294974
 30
0.0
 11
279.558935
 21
443.544973
 31
0.0
  0
ARC
  5
DA
330
7B
100
AcDbEntity
  8
0
  6
Continuous
 62
     0
370
    30
100
AcDbCircle
 10
279.666879
 20
444.832111
 30
0.0
 40
0.5478758187880929
100
AcDbArc
 50
243.544253
 51
258.637003
  0
LINE
  5
DB
330
7B
100
AcDbEntity
  8
0
  6
Continuous
 62
     0
370
     0
100
AcDbLine
 10
280.159659
 20
443.868002
 30
0.0
 11
280.159659
 21
444.065216
 31
0.0
  0
SPLINE
  5
DC
330
7B
100
AcDbEntity
  8
0
  6
Continuous
 62
     0
370
    30
100
AcDbSpline
210
0.0
220
0.0
230
1.0
 70
    12
 71
     2
 72
     8
 73
     5
 74
     0
 42
0.000000001
 43
0.0
 40
-1.57079632679489
 40
-1.57079632679489
 40
-1.57079632679489
 40
-0.7853981633974451
 40
-0.7853981633974451
 40
0.0
 40
0.0
 40
0.0
 10
279.18593313004
 20
444.0652159145842
 30
0.0
 41
1.0
 10
279.2997945916826
 20
444.4868514704359
 30
0.0
 41
0.7071067811865459
 10
279.786657578109
 20
444.3882445880408
 30
0.0
 41
1.0
 10
280.2735205645364
 20
444.289637705646
 30
0.0
 41
0.7071067811865459
 10
280.1596591028944
 20
443.8680021497941
 30
0.0
 41
1.0
  0
SPLINE
  5
DD
330
7B
100
AcDbEntity
  8
0
  6
Continuous
 62
     0
370
    30
100
AcDbSpline
210
0.0
220
0.0
230
1.0
 70
    12
 71
     2
 72
     6
 73
     3
 74
     0
 42
0.000000001
 43
0.0
 40
-0.7853981633974418
 40
-0.7853981633974418
 40
-0.7853981633974418
 40
0.0
 40
0.0
 40
0.0
 10
279.5589346548243
 20
443.5449734763372
 30
0.0
 41
1.0
 10
279.0720716683978
 20
443.6435803587325
 30
0.0
 41
0.707106781186549
 10
279.1859331300399
 20
444.065215914584
 30
0.0
 41
1.0
  0
SPLINE
  5
DE
330
7B
100
AcDbEntity
  8
0
  6
Continuous
 62
     0
370
    30
100
AcDbSpline
210
0.0
220
0.0
230
1.0
 70
    12
 71
     2
 72
     6
 73
     3
 74
     0
 42
0.000000001
 43
0.0
 40
-1.57079632679488
 40
-1.57079632679488
 40
-1.57079632679488
 40
-0.7853981633974418
 40
-0.7853981633974418
 40
-0.7853981633974418
 10
280.1596591028944
 20
443.8680021497941
 30
0.0
 41
1.0
 10
280.0457976412515
 20
443.4463665939423
 30
0.0
 41
0.707106781186548
 10
279.5589346548243
 20
443.5449734763372
 30
0.0
 41
1.0
  0
ARC
  5
DF
330
7B
100
AcDbEntity
  8
0
  6
Continuous
 62
     0
370
    30
100
AcDbCircle
 10
279.672508
 20
444.851631
 30
0.0
 40
0.5681246939049611
100
AcDbArc
 50
258.468354
 51
296.138942
  0
LINE
  5
E0
330
7B
100
AcDbEntity
  8
0
  6
Continuous
 62
     0
370
     0
100
AcDbLine
 10
277.601156
 20
445.364177
 30
0.0
 11
277.601156
 21
444.614176
 31
0.0
  0
ARC
  5
E1
330
7B
100
AcDbEntity
  8
0
  6
Continuous
 62
     0
370
    30
100
AcDbCircle
 10
277.507273
 20
445.923701
 30
0.0
 40
0.5673454991488496
100
AcDbArc
 50
243.840852
 51
279.524977
  0
SPLINE
  5
E2
330
7B
100
AcDbEntity
  8
0
  6
Continuous
 62
     0
370
    30
100
AcDbSpline
210
0.0
220
0.0
230
1.0
 70
    12
 71
     2
 72
     8
 73
     5
 74
     0
 42
0.000000001
 43
0.0
 40
-1.57079632679489
 40
-1.57079632679489
 40
-1.57079632679489
 40
-0.7853981633974461
 40
-0.7853981633974461
 40
0.0
 40
0.0
 40
0.0
 10
277.0160656893951
 20
444.9580537498485
 30
0.0
 41
1.0
 10
276.9220582937422
 20
445.3833440290072
 30
0.0
 41
0.7071067811865471
 10
277.413141392171
 20
445.4647567900915
 30
0.0
 41
1.0
 10
277.9042244906
 20
445.5461695511759
 30
0.0
 41
0.7071067811865471
 10
277.9982318862529
 20
445.1208792720172
 30
0.0
 41
1.0
  0
SPLINE
  5
E3
330
7B
100
AcDbEntity
  8
0
  6
Continuous
 62
     0
370
    30
100
AcDbSpline
210
0.0
220
0.0
230
1.0
 70
    12
 71
     2
 72
     6
 73
     3
 74
     0
 42
0.000000001
 43
0.0
 40
-0.7853981633974431
 40
-0.7853981633974431
 40
-0.7853981633974431
 40
0.0
 40
0.0
 40
0.0
 10
277.6011561834777
 20
444.6141762317745
 30
0.0
 41
1.0
 10
277.1100730850486
 20
444.5327634706902
 30
0.0
 41
0.707106781186548
 10
277.0160656893951
 20
444.9580537498485
 30
0.0
 41
1.0
  0
SPLINE
  5
E4
330
7B
100
AcDbEntity
  8
0
  6
Continuous
 62
     0
370
    30
100
AcDbSpline
210
0.0
220
0.0
230
1.0
 70
    12
 71
     2
 72
     6
 73
     3
 74
     0
 42
0.000000001
 43
0.0
 40
-1.57079632679489
 40
-1.57079632679489
 40
-1.57079632679489
 40
-0.7853981633974431
 40
-0.7853981633974431
 40
-0.7853981633974431
 10
277.9982318862529
 20
445.1208792720172
 30
0.0
 41
1.0
 10
278.0922392819065
 20
444.6955889928587
 30
0.0
 41
0.707106781186548
 10
277.6011561834777
 20
444.6141762317745
 30
0.0
 41
1.0
  0
ARC
  5
E5
330
7B
100
AcDbEntity
  8
0
  6
Continuous
 62
     0
370
    30
100
AcDbCircle
 10
277.512089
 20
445.907527
 30
0.0
 40
0.5506016267413096
100
AcDbArc
 50
279.309306
 51
296.428141
  0
LINE
  5
E6
330
7B
100
AcDbEntity
  8
0
  6
Continuous
 62
     0
370
     0
100
AcDbLine
 10
275.310476
 20
445.612142
 30
0.0
 11
275.310476
 21
444.901326
 31
0.0
  0
ARC
  5
E7
330
7B
100
AcDbEntity
  8
0
  6
Continuous
 62
     0
370
    30
100
AcDbCircle
 10
275.024854
 20
446.141398
 30
0.0
 40
0.567676489085114
100
AcDbArc
 50
243.871252
 51
296.128747
  0
SPLINE
  5
E8
330
7B
100
AcDbEntity
  8
0
  6
Continuous
 62
     0
370
    30
100
AcDbSpline
210
0.0
220
0.0
230
1.0
 70
    12
 71
     2
 72
     8
 73
     5
 74
     0
 42
0.000000001
 43
0.0
 40
-1.57079632679489
 40
-1.57079632679489
 40
-1.57079632679489
 40
-0.7853981633974451
 40
-0.7853981633974451
 40
0.0
 40
0.0
 40
0.0
 10
274.6144636468368
 20
445.0093786236018
 30
0.0
 41
1.0
 10
274.3288421266268
 20
445.3647870731597
 30
0.0
 41
0.707106781186548
 10
274.7392326079888
 20
445.6121424717201
 30
0.0
 41
1.0
 10
275.1496230893518
 20
445.8594978702805
 30
0.0
 41
0.707106781186548
 10
275.4352446095619
 20
445.5040894207226
 30
0.0
 41
1.0
  0
SPLINE
  5
E9
330
7B
100
AcDbEntity
  8
0
  6
Continuous
 62
     0
370
    30
100
AcDbSpline
210
0.0
220
0.0
230
1.0
 70
    12
 71
     2
 72
     6
 73
     3
 74
     0
 42
0.000000001
 43
0.0
 40
-0.7853981633974431
 40
-0.7853981633974431
 40
-0.7853981633974431
 40
0.0
 40
0.0
 40
0.0
 10
275.310475648409
 20
444.9013255726043
 30
0.0
 41
1.0
 10
274.9000851670468
 20
444.6539701740439
 30
0.0
 41
0.707106781186548
 10
274.6144636468368
 20
445.0093786236018
 30
0.0
 41
1.0
  0
SPLINE
  5
EA
330
7B
100
AcDbEntity
  8
0
  6
Continuous
 62
     0
370
    30
100
AcDbSpline
210
0.0
220
0.0
230
1.0
 70
    12
 71
     2
 72
     6
 73
     3
 74
     0
 42
0.000000001
 43
0.0
 40
-1.57079632679489
 40
-1.57079632679489
 40
-1.57079632679489
 40
-0.7853981633974431
 40
-0.7853981633974431
 40
-0.7853981633974431
 10
275.4352446095619
 20
445.5040894207226
 30
0.0
 41
1.0
 10
275.7208661297719
 20
445.1486809711648
 30
0.0
 41
0.707106781186549
 10
275.310475648409
 20
444.9013255726043
 30
0.0
 41
1.0
  0
LINE
  5
EB
330
7B
100
AcDbEntity
  8
0
  6
Continuous
 62
     0
370
     0
100
AcDbLine
 10
273.082973
 20
444.804917
 30
0.0
 11
273.082973
 21
444.356771
 31
0.0
  0
ARC
  5
EC
330
7B
100
AcDbEntity
  8
0
  6
Continuous
 62
     0
370
    30
100
AcDbCircle
 10
272.655123
 20
445.465503
 30
0.0
 40
0.5676719364612163
100
AcDbArc
 50
243.871026
 51
296.128972
  0
SPLINE
  5
ED
330
7B
100
AcDbEntity
  8
0
  6
Continuous
 62
     0
370
    30
100
AcDbSpline
210
0.0
220
0.0
230
1.0
 70
    12
 71
     2
 72
     8
 73
     5
 74
     0
 42
0.000000001
 43
0.0
 40
-1.57079632679489
 40
-1.57079632679489
 40
-1.57079632679489
 40
-0.7853981633974431
 40
-0.7853981633974431
 40
0.0
 40
0.0
 40
0.0
 10
272.3963858133924
 20
444.2103159988999
 30
0.0
 41
1.0
 10
271.9685367242593
 20
444.434389269144
 30
0.0
 41
0.7071067811865471
 10
272.2272743460476
 20
444.8049173096163
 30
0.0
 41
1.0
 10
272.4860119678359
 20
445.1754453500884
 30
0.0
 41
0.7071067811865471
 10
272.9138610569682
 20
444.9513720798441
 30
0.0
 41
1.0
  0
SPLINE
  5
EE
330
7B
100
AcDbEntity
  8
0
  6
Continuous
 62
     0
370
    30
100
AcDbSpline
210
0.0
220
0.0
230
1.0
 70
    12
 71
     2
 72
     6
 73
     3
 74
     0
 42
0.000000001
 43
0.0
 40
-0.785398163397438
 40
-0.785398163397438
 40
-0.785398163397438
 40
0.0
 40
0.0
 40
0.0
 10
273.0829725243123
 20
444.3567707691276
 30
0.0
 41
1.0
 10
272.8242349025248
 20
443.9862427286556
 30
0.0
 41
0.707106781186552
 10
272.3963858133924
 20
444.2103159988999
 30
0.0
 41
1.0
  0
SPLINE
  5
EF
330
7B
100
AcDbEntity
  8
0
  6
Continuous
 62
     0
370
    30
100
AcDbSpline
210
0.0
220
0.0
230
1.0
 70
    12
 71
     2
 72
     6
 73
     3
 74
     0
 42
0.000000001
 43
0.0
 40
-1.57079632679489
 40
-1.57079632679489
 40
-1.57079632679489
 40
-0.785398163397438
 40
-0.785398163397438
 40
-0.785398163397438
 10
272.9138610569682
 20
444.9513720798441
 30
0.0
 41
1.0
 10
273.3417101461006
 20
444.7272988095997
 30
0.0
 41
0.707106781186543
 10
273.0829725243123
 20
444.3567707691276
 30
0.0
 41
1.0
  0
LINE
  5
F0
330
7B
100
AcDbEntity
  8
0
  6
Continuous
 62
     0
370
     0
100
AcDbLine
 10
271.303802
 20
443.182658
 30
0.0
 11
271.303802
 21
443.07467
 31
0.0
  0
ARC
  5
F1
330
7B
100
AcDbEntity
  8
0
  6
Continuous
 62
     0
370
    30
100
AcDbCircle
 10
270.80797
 20
444.011253
 30
0.0
 40
0.5656969521682446
100
AcDbArc
 50
263.645402
 51
296.197165
  0
ARC
  5
F2
330
7B
100
AcDbEntity
  8
0
  6
Continuous
 62
     0
370
    30
100
AcDbCircle
 10
270.804127
 20
444.000481
 30
0.0
 40
0.5545718863077153
100
AcDbArc
 50
243.618605
 51
263.916875
  0
SPLINE
  5
F3
330
7B
100
AcDbEntity
  8
0
  6
Continuous
 62
     0
370
    30
100
AcDbSpline
210
0.0
220
0.0
230
1.0
 70
    12
 71
     2
 72
     8
 73
     5
 74
     0
 42
0.000000001
 43
0.0
 40
-1.57079632679489
 40
-1.57079632679489
 40
-1.57079632679489
 40
-0.7853981633974461
 40
-0.7853981633974461
 40
0.0
 40
0.0
 40
0.0
 10
270.7453579970687
 20
442.6990310628098
 30
0.0
 41
1.0
 10
270.2492603334116
 20
442.7530248496734
 30
0.0
 41
0.707106781186545
 10
270.3116070102604
 20
443.1826578677181
 30
0.0
 41
1.0
 10
270.3739536871091
 20
443.6122908857628
 30
0.0
 41
0.707106781186545
 10
270.8700513507663
 20
443.5582970988992
 30
0.0
 41
1.0
  0
SPLINE
  5
F4
330
7B
100
AcDbEntity
  8
0
  6
Continuous
 62
     0
370
    30
100
AcDbSpline
210
0.0
220
0.0
230
1.0
 70
    12
 71
     2
 72
     6
 73
     3
 74
     0
 42
0.000000001
 43
0.0
 40
-0.7853981633974431
 40
-0.7853981633974431
 40
-0.7853981633974431
 40
0.0
 40
0.0
 40
0.0
 10
271.3038023375748
 20
443.0746702939908
 30
0.0
 41
1.0
 10
271.2414556607259
 20
442.6450372759462
 30
0.0
 41
0.707106781186549
 10
270.7453579970687
 20
442.6990310628098
 30
0.0
 41
1.0
  0
SPLINE
  5
F5
330
7B
100
AcDbEntity
  8
0
  6
Continuous
 62
     0
370
    30
100
AcDbSpline
210
0.0
220
0.0
230
1.0
 70
    12
 71
     2
 72
     6
 73
     3
 74
     0
 42
0.000000001
 43
0.0
 40
-1.57079632679489
 40
-1.57079632679489
 40
-1.57079632679489
 40
-0.7853981633974431
 40
-0.7853981633974431
 40
-0.7853981633974431
 10
270.8700513507662
 20
443.5582970988991
 30
0.0
 41
1.0
 10
271.3661490144235
 20
443.5043033120355
 30
0.0
 41
0.707106781186548
 10
271.3038023375748
 20
443.0746702939908
 30
0.0
 41
1.0
  0
ARC
  5
F6
330
7B
100
AcDbEntity
  8
0
  6
Continuous
 62
     0
370
    30
100
AcDbCircle
 10
269.809676
 20
442.012492
 30
0.0
 40
0.5432578464997082
100
AcDbArc
 50
284.626568
 51
296.494844
  0
ARC
  5
F7
330
7B
100
AcDbEntity
  8
0
  6
Continuous
 62
     0
370
    30
100
AcDbCircle
 10
269.802461
 20
442.037146
 30
0.0
 40
0.5689351313947659
100
AcDbArc
 50
243.885457
 51
284.702616
  0
SPLINE
  5
F8
330
7B
100
AcDbEntity
  8
0
  6
Continuous
 62
     0
370
    30
100
AcDbSpline
210
0.0
220
0.0
230
1.0
 70
    12
 71
     2
 72
     8
 73
     5
 74
     0
 42
0.000000001
 43
0.0
 40
-1.57079632679489
 40
-1.57079632679489
 40
-1.57079632679489
 40
-0.7853981633974451
 40
-0.7853981633974451
 40
0.0
 40
0.0
 40
0.0
 10
269.9468579064257
 20
440.7368387103742
 30
0.0
 41
1.0
 10
269.468291461196
 20
440.6114169975904
 30
0.0
 41
0.7071067811865471
 10
269.3234668862765
 20
441.0258675412942
 30
0.0
 41
1.0
 10
269.1786423113579
 20
441.4403180849984
 30
0.0
 41
0.7071067811865471
 10
269.6572087565867
 20
441.5657397977819
 30
0.0
 41
1.0
  0
SPLINE
  5
F9
330
7B
100
AcDbEntity
  8
0
  6
Continuous
 62
     0
370
    30
100
AcDbSpline
210
0.0
220
0.0
230
1.0
 70
    12
 71
     2
 72
     6
 73
     3
 74
     0
 42
0.000000001
 43
0.0
 40
-0.7853981633974451
 40
-0.7853981633974451
 40
-0.7853981633974451
 40
0.0
 40
0.0
 40
0.0
 10
270.2805997767358
 20
441.276710966862
 30
0.0
 41
1.0
 10
270.4254243516544
 20
440.862260423158
 30
0.0
 41
0.7071067811865471
 10
269.9468579064257
 20
440.7368387103742
 30
0.0
 41
1.0
  0
SPLINE
  5
FA
330
7B
100
AcDbEntity
  8
0
  6
Continuous
 62
     0
370
    30
100
AcDbSpline
210
0.0
220
0.0
230
1.0
 70
    12
 71
     2
 72
     6
 73
     3
 74
     0
 42
0.000000001
 43
0.0
 40
-1.57079632679489
 40
-1.57079632679489
 40
-1.57079632679489
 40
-0.7853981633974451
 40
-0.7853981633974451
 40
-0.7853981633974451
 10
269.6572087565867
 20
441.5657397977819
 30
0.0
 41
1.0
 10
270.1357752018162
 20
441.6911615105658
 30
0.0
 41
0.7071067811865471
 10
270.2805997767358
 20
441.276710966862
 30
0.0
 41
1.0
  0
ARC
  5
FB
330
7B
100
AcDbEntity
  8
0
  6
Continuous
 62
     0
370
    30
100
AcDbCircle
 10
269.811999
 20
439.875295
 30
0.0
 40
0.5676808883599332
100
AcDbArc
 50
243.87147
 51
296.128529
  0
SPLINE
  5
FC
330
7B
100
AcDbEntity
  8
0
  6
Continuous
 62
     0
370
    30
100
AcDbSpline
210
0.0
220
0.0
230
1.0
 70
    12
 71
     2
 72
     8
 73
     5
 74
     0
 42
0.000000001
 43
0.0
 40
-1.57079632679489
 40
-1.57079632679489
 40
-1.57079632679489
 40
-0.7853981633974441
 40
-0.7853981633974441
 40
0.0
 40
0.0
 40
0.0
 10
270.1389534612798
 20
438.6630198252871
 30
0.0
 41
1.0
 10
269.760666720498
 20
438.3798691664165
 30
0.0
 41
0.7071067811865471
 10
269.4337123785048
 20
438.7074749716085
 30
0.0
 41
1.0
 10
269.1067580365108
 20
439.0350807768
 30
0.0
 41
0.7071067811865471
 10
269.4850447772927
 20
439.3182314356706
 30
0.0
 41
1.0
  0
SPLINE
  5
FD
330
7B
100
AcDbEntity
  8
0
  6
Continuous
 62
     0
370
    30
100
AcDbSpline
210
0.0
220
0.0
230
1.0
 70
    12
 71
     2
 72
     6
 73
     3
 74
     0
 42
0.000000001
 43
0.0
 40
-0.7853981633974431
 40
-0.7853981633974431
 40
-0.7853981633974431
 40
0.0
 40
0.0
 40
0.0
 10
270.1902858600685
 20
439.2737762893494
 30
0.0
 41
1.0
 10
270.5172402020625
 20
438.9461704841577
 30
0.0
 41
0.707106781186549
 10
270.1389534612798
 20
438.6630198252871
 30
0.0
 41
1.0
  0
SPLINE
  5
FE
330
7B
100
AcDbEntity
  8
0
  6
Continuous
 62
     0
370
    30
100
AcDbSpline
210
0.0
220
0.0
230
1.0
 70
    12
 71
     2
 72
     6
 73
     3
 74
     0
 42
0.000000001
 43
0.0
 40
-1.57079632679489
 40
-1.57079632679489
 40
-1.57079632679489
 40
-0.7853981633974431
 40
-0.7853981633974431
 40
-0.7853981633974431
 10
269.4850447772927
 20
439.3182314356706
 30
0.0
 41
1.0
 10
269.8633315180745
 20
439.6013820945411
 30
0.0
 41
0.707106781186548
 10
270.1902858600685
 20
439.2737762893494
 30
0.0
 41
1.0
  0
ARC
  5
FF
330
7B
100
AcDbEntity
  8
0
  6
Continuous
 62
     0
370
    30
100
AcDbCircle
 10
270.835879
 20
437.904922
 30
0.0
 40
0.567663980409218
100
AcDbArc
 50
243.870633
 51
296.129366
  0
SPLINE
  5
100
330
7B
100
AcDbEntity
  8
0
  6
Continuous
 62
     0
370
    30
100
AcDbSpline
210
0.0
220
0.0
230
1.0
 70
    12
 71
     2
 72
     8
 73
     5
 74
     0
 42
0.000000001
 43
0.0
 40
-1.57079632679489
 40
-1.57079632679489
 40
-1.57079632679489
 40
-0.7853981633974441
 40
-0.7853981633974441
 40
0.0
 40
0.0
 40
0.0
 10
271.2884295950649
 20
436.8361565328333
 30
0.0
 41
1.0
 10
271.0758317728392
 20
436.4442362491379
 30
0.0
 41
0.707106781186548
 10
270.6232810397883
 20
436.6283512958944
 30
0.0
 41
1.0
 10
270.1707303067374
 20
436.8124663426509
 30
0.0
 41
0.707106781186548
 10
270.383328128964
 20
437.2043866263465
 30
0.0
 41
1.0
  0
SPLINE
  5
101
330
7B
100
AcDbEntity
  8
0
  6
Continuous
 62
     0
370
    30
100
AcDbSpline
210
0.0
220
0.0
230
1.0
 70
    12
 71
     2
 72
     6
 73
     3
 74
     0
 42
0.000000001
 43
0.0
 40
-0.7853981633974431
 40
-0.7853981633974431
 40
-0.7853981633974431
 40
0.0
 40
0.0
 40
0.0
 10
271.0484766842407
 20
437.4121918632853
 30
0.0
 41
1.0
 10
271.5010274172916
 20
437.2280768165288
 30
0.0
 41
0.707106781186548
 10
271.2884295950649
 20
436.8361565328333
 30
0.0
 41
1.0
  0
SPLINE
  5
102
330
7B
100
AcDbEntity
  8
0
  6
Continuous
 62
     0
370
    30
100
AcDbSpline
210
0.0
220
0.0
230
1.0
 70
    12
 71
     2
 72
     6
 73
     3
 74
     0
 42
0.000000001
 43
0.0
 40
-1.57079632679489
 40
-1.57079632679489
 40
-1.57079632679489
 40
-0.7853981633974431
 40
-0.7853981633974431
 40
-0.7853981633974431
 10
270.3833281289641
 20
437.2043866263464
 30
0.0
 41
1.0
 10
270.5959259511898
 20
437.5963069100418
 30
0.0
 41
0.707106781186548
 10
271.0484766842407
 20
437.4121918632853
 30
0.0
 41
1.0
  0
ARC
  5
103
330
7B
100
AcDbEntity
  8
0
  6
Continuous
 62
     0
370
    30
100
AcDbCircle
 10
272.696634
 20
436.465589
 30
0.0
 40
0.5676815504467712
100
AcDbArc
 50
243.871502
 51
296.128497
  0
SPLINE
  5
104
330
7B
100
AcDbEntity
  8
0
  6
Continuous
 62
     0
370
    30
100
AcDbSpline
210
0.0
220
0.0
230
1.0
 70
    12
 71
     2
 72
     8
 73
     5
 74
     0
 42
0.000000001
 43
0.0
 40
-1.57079632679489
 40
-1.57079632679489
 40
-1.57079632679489
 40
-0.7853981633974471
 40
-0.7853981633974471
 40
0.0
 40
0.0
 40
0.0
 10
273.1965314415863
 20
435.5721300928099
 30
0.0
 41
1.0
 10
273.1863826327697
 20
435.1392067618245
 30
0.0
 41
0.707106781186545
 10
272.6864856417004
 20
435.1479958859288
 30
0.0
 41
1.0
 10
272.186588650632
 20
435.1567850100335
 30
0.0
 41
0.707106781186545
 10
272.1967374594486
 20
435.5897083410189
 30
0.0
 41
1.0
  0
SPLINE
  5
105
330
7B
100
AcDbEntity
  8
0
  6
Continuous
 62
     0
370
    30
100
AcDbSpline
210
0.0
220
0.0
230
1.0
 70
    12
 71
     2
 72
     6
 73
     3
 74
     0
 42
0.000000001
 43
0.0
 40
-0.7853981633974431
 40
-0.7853981633974431
 40
-0.7853981633974431
 40
0.0
 40
0.0
 40
0.0
 10
272.7067832593345
 20
436.0138425478999
 30
0.0
 41
1.0
 10
273.2066802504029
 20
436.0050534237953
 30
0.0
 41
0.707106781186549
 10
273.1965314415863
 20
435.5721300928099
 30
0.0
 41
1.0
  0
SPLINE
  5
106
330
7B
100
AcDbEntity
  8
0
  6
Continuous
 62
     0
370
    30
100
AcDbSpline
210
0.0
220
0.0
230
1.0
 70
    12
 71
     2
 72
     6
 73
     3
 74
     0
 42
0.000000001
 43
0.0
 40
-1.57079632679489
 40
-1.57079632679489
 40
-1.57079632679489
 40
-0.7853981633974431
 40
-0.7853981633974431
 40
-0.7853981633974431
 10
272.1967374594486
 20
435.5897083410189
 30
0.0
 41
1.0
 10
272.2068862682654
 20
436.0226316720044
 30
0.0
 41
0.707106781186549
 10
272.7067832593345
 20
436.0138425478999
 30
0.0
 41
1.0
  0
ARC
  5
107
330
7B
100
AcDbEntity
  8
0
  6
Continuous
 62
     0
370
    30
100
AcDbCircle
 10
275.072524
 20
435.806094
 30
0.0
 40
0.5676623619379483
100
AcDbArc
 50
243.870552
 51
296.129447
  0
LINE
  5
108
330
7B
100
AcDbEntity
  8
0
  6
Continuous
 62
     0
370
     0
100
AcDbLine
 10
274.611718
 20
434.753389
 30
0.0
 11
274.611718
 21
435.089502
 31
0.0
  0
SPLINE
  5
109
330
7B
100
AcDbEntity
  8
0
  6
Continuous
 62
     0
370
    30
100
AcDbSpline
210
0.0
220
0.0
230
1.0
 70
    12
 71
     2
 72
     8
 73
     5
 74
     0
 42
0.000000001
 43
0.0
 40
-1.57079632679488
 40
-1.57079632679488
 40
-1.57079632679488
 40
-0.7853981633974418
 40
-0.7853981633974418
 40
0.0
 40
0.0
 40
0.0
 10
275.5333308570189
 20
435.0895021600167
 30
0.0
 41
1.0
 10
275.7273858828545
 20
434.6904321586534
 30
0.0
 41
0.7071067811865471
 10
275.266579364945
 20
434.5223756407015
 30
0.0
 41
1.0
 10
274.8057728470355
 20
434.3543191227498
 30
0.0
 41
0.7071067811865471
 10
274.6117178212
 20
434.7533891241129
 30
0.0
 41
1.0
  0
SPLINE
  5
10A
330
7B
100
AcDbEntity
  8
0
  6
Continuous
 62
     0
370
    30
100
AcDbSpline
210
0.0
220
0.0
230
1.0
 70
    12
 71
     2
 72
     6
 73
     3
 74
     0
 42
0.000000001
 43
0.0
 40
-0.7853981633974431
 40
-0.7853981633974431
 40
-0.7853981633974431
 40
0.0
 40
0.0
 40
0.0
 10
274.8784693132739
 20
435.3205156434279
 30
0.0
 41
1.0
 10
275.3392758311833
 20
435.4885721613799
 30
0.0
 41
0.707106781186549
 10
275.5333308570189
 20
435.0895021600167
 30
0.0
 41
1.0
  0
SPLINE
  5
10B
330
7B
100
AcDbEntity
  8
0
  6
Continuous
 62
     0
370
    30
100
AcDbSpline
210
0.0
220
0.0
230
1.0
 70
    12
 71
     2
 72
     6
 73
     3
 74
     0
 42
0.000000001
 43
0.0
 40
-1.57079632679489
 40
-1.57079632679489
 40
-1.57079632679489
 40
-0.7853981633974431
 40
-0.7853981633974431
 40
-0.7853981633974431
 10
274.6117178212
 20
434.7533891241129
 30
0.0
 41
1.0
 10
274.4176627953645
 20
435.1524591254761
 30
0.0
 41
0.707106781186548
 10
274.8784693132739
 20
435.3205156434279
 30
0.0
 41
1.0
  0
ARC
  5
10C
330
7B
100
AcDbEntity
  8
0
  6
Continuous
 62
     0
370
    30
100
AcDbCircle
 10
277.552736
 20
436.04055
 30
0.0
 40
0.567681599060061
100
AcDbArc
 50
243.871505
 51
296.128494
  0
LINE
  5
10D
330
7B
100
AcDbEntity
  8
0
  6
Continuous
 62
     0
370
     0
100
AcDbLine
 10
277.210697
 20
434.840036
 30
0.0
 11
277.210697
 21
435.471723
 31
0.0
  0
SPLINE
  5
10E
330
7B
100
AcDbEntity
  8
0
  6
Continuous
 62
     0
370
    30
100
AcDbSpline
210
0.0
220
0.0
230
1.0
 70
    12
 71
     2
 72
     8
 73
     5
 74
     0
 42
0.000000001
 43
0.0
 40
-1.57079632679489
 40
-1.57079632679489
 40
-1.57079632679489
 40
-0.7853981633974451
 40
-0.7853981633974451
 40
0.0
 40
0.0
 40
0.0
 10
277.8947739932784
 20
435.4717234885707
 30
0.0
 41
1.0
 10
278.2594789768652
 20
435.1755096455027
 30
0.0
 41
0.7071067811865471
 10
277.9174405653574
 20
434.8596659841937
 30
0.0
 41
1.0
 10
277.5754021538497
 20
434.5438223228849
 30
0.0
 41
0.7071067811865471
 10
277.2106971702629
 20
434.8400361659529
 30
0.0
 41
1.0
  0
SPLINE
  5
10F
330
7B
100
AcDbEntity
  8
0
  6
Continuous
 62
     0
370
    30
100
AcDbSpline
210
0.0
220
0.0
230
1.0
 70
    12
 71
     2
 72
     6
 73
     3
 74
     0
 42
0.000000001
 43
0.0
 40
-0.785398163397441
 40
-0.785398163397441
 40
-0.785398163397441
 40
0.0
 40
0.0
 40
0.0
 10
277.1880305981838
 20
435.4520936703298
 30
0.0
 41
1.0
 10
277.5300690096916
 20
435.7679373316386
 30
0.0
 41
0.7071067811865501
 10
277.8947739932784
 20
435.4717234885707
 30
0.0
 41
1.0
  0
SPLINE
  5
110
330
7B
100
AcDbEntity
  8
0
  6
Continuous
 62
     0
370
    30
100
AcDbSpline
210
0.0
220
0.0
230
1.0
 70
    12
 71
     2
 72
     6
 73
     3
 74
     0
 42
0.000000001
 43
0.0
 40
-1.57079632679489
 40
-1.57079632679489
 40
-1.57079632679489
 40
-0.785398163397441
 40
-0.785398163397441
 40
-0.785398163397441
 10
277.2106971702629
 20
434.8400361659529
 30
0.0
 41
1.0
 10
276.8459921866761
 20
435.136250009021
 30
0.0
 41
0.7071067811865471
 10
277.1880305981838
 20
435.4520936703298
 30
0.0
 41
1.0
  0
ARC
  5
111
330
7B
100
AcDbEntity
  8
0
  6
Continuous
 62
     0
370
    30
100
AcDbCircle
 10
278.36423
 20
438.410878
 30
0.0
 40
0.5676796378475741
100
AcDbArc
 50
243.871408
 51
296.128591
  0
LINE
  5
112
330
7B
100
AcDbEntity
  8
0
  6
Continuous
 62
     0
370
     0
100
AcDbLine
 10
278.052757
 20
437.18748
 30
0.0
 11
278.052757
 21
437.864941
 31
0.0
  0
SPLINE
  5
113
330
7B
100
AcDbEntity
  8
0
  6
Continuous
 62
     0
370
    30
100
AcDbSpline
210
0.0
220
0.0
230
1.0
 70
    12
 71
     2
 72
     8
 73
     5
 74
     0
 42
0.000000001
 43
0.0
 40
-1.57079632679489
 40
-1.57079632679489
 40
-1.57079632679489
 40
-0.7853981633974431
 40
-0.7853981633974431
 40
0.0
 40
0.0
 40
0.0
 10
278.6757028099531
 20
437.8649408827197
 30
0.0
 41
1.0
 10
279.066835183964
 20
437.5951974020705
 30
0.0
 41
0.7071067811865459
 10
278.7553621257377
 20
437.2564669578212
 30
0.0
 41
1.0
 10
278.4438890675113
 20
436.9177365135718
 30
0.0
 41
0.7071067811865459
 10
278.0527566935004
 20
437.187479994221
 30
0.0
 41
1.0
  0
SPLINE
  5
114
330
7B
100
AcDbEntity
  8
0
  6
Continuous
 62
     0
370
    30
100
AcDbSpline
210
0.0
220
0.0
230
1.0
 70
    12
 71
     2
 72
     6
 73
     3
 74
     0
 42
0.000000001
 43
0.0
 40
-0.7853981633974391
 40
-0.7853981633974391
 40
-0.7853981633974391
 40
0.0
 40
0.0
 40
0.0
 10
277.9730973777167
 20
437.7959539191195
 30
0.0
 41
1.0
 10
278.284570435943
 20
438.134684363369
 30
0.0
 41
0.707106781186549
 10
278.6757028099531
 20
437.8649408827197
 30
0.0
 41
1.0
  0
SPLINE
  5
115
330
7B
100
AcDbEntity
  8
0
  6
Continuous
 62
     0
370
    30
100
AcDbSpline
210
0.0
220
0.0
230
1.0
 70
    12
 71
     2
 72
     6
 73
     3
 74
     0
 42
0.000000001
 43
0.0
 40
-1.57079632679488
 40
-1.57079632679488
 40
-1.57079632679488
 40
-0.7853981633974391
 40
-0.7853981633974391
 40
-0.7853981633974391
 10
278.0527566935004
 20
437.187479994221
 30
0.0
 41
1.0
 10
277.6616243194904
 20
437.45722347487
 30
0.0
 41
0.707106781186549
 10
277.9730973777167
 20
437.7959539191195
 30
0.0
 41
1.0
  0
ARC
  5
116
330
7B
100
AcDbEntity
  8
0
  6
Continuous
 62
     0
370
    30
100
AcDbCircle
 10
279.592744
 20
440.26441
 30
0.0
 40
0.5629003916423623
100
AcDbArc
 50
267.648766
 51
296.252998
  0
LINE
  5
117
330
7B
100
AcDbEntity
  8
0
  6
Continuous
 62
     0
370
     0
100
AcDbLine
 10
279.569651
 20
438.951983
 30
0.0
 11
279.569651
 21
439.701984
 31
0.0
  0
SPLINE
  5
118
330
7B
100
AcDbEntity
  8
0
  6
Continuous
 62
     0
370
    30
100
AcDbSpline
210
0.0
220
0.0
230
1.0
 70
    12
 71
     2
 72
     8
 73
     5
 74
     0
 42
0.000000001
 43
0.0
 40
-1.57079632679488
 40
-1.57079632679488
 40
-1.57079632679488
 40
-0.785398163397441
 40
-0.785398163397441
 40
0.0
 40
0.0
 40
0.0
 10
279.6138212851109
 20
439.8171627083126
 30
0.0
 41
1.0
 10
280.1133332928475
 20
439.798036407978
 30
0.0
 41
0.7071067811865471
 10
280.0912481365903
 20
439.3654464822405
 30
0.0
 41
1.0
 10
280.0691629803329
 20
438.9328565565031
 30
0.0
 41
0.7071067811865471
 10
279.5696509725963
 20
438.9519828568377
 30
0.0
 41
1.0
  0
SPLINE
  5
119
330
7B
100
AcDbEntity
  8
0
  6
Continuous
 62
     0
370
    30
100
AcDbSpline
210
0.0
220
0.0
230
1.0
 70
    12
 71
     2
 72
     6
 73
     3
 74
     0
 42
0.000000001
 43
0.0
 40
-0.7853981633974361
 40
-0.7853981633974361
 40
-0.7853981633974361
 40
0.0
 40
0.0
 40
0.0
 10
279.092224121117
 20
439.40369908291
 30
0.0
 41
1.0
 10
279.1143092773742
 20
439.8362890086473
 30
0.0
 41
0.7071067811865509
 10
279.6138212851109
 20
439.8171627083126
 30
0.0
 41
1.0
  0
SPLINE
  5
11A
330
7B
100
AcDbEntity
  8
0
  6
Continuous
 62
     0
370
    30
100
AcDbSpline
210
0.0
220
0.0
230
1.0
 70
    12
 71
     2
 72
     6
 73
     3
 74
     0
 42
0.000000001
 43
0.0
 40
-1.57079632679488
 40
-1.57079632679488
 40
-1.57079632679488
 40
-0.7853981633974361
 40
-0.7853981633974361
 40
-0.7853981633974361
 10
279.5696509725963
 20
438.9519828568377
 30
0.0
 41
1.0
 10
279.0701389648598
 20
438.9711091571724
 30
0.0
 41
0.707106781186545
 10
279.092224121117
 20
439.40369908291
 30
0.0
 41
1.0
  0
ARC
  5
11B
330
7B
100
AcDbEntity
  8
0
  6
Continuous
 62
     0
370
    30
100
AcDbCircle
 10
279.589566
 20
440.260583
 30
0.0
 40
0.5589546278285169
100
AcDbArc
 50
243.680342
 51
267.958188
  0
LINE
  5
11C
330
7B
100
AcDbEntity
  8
0
  6
Continuous
 62
     0
370
     0
100
AcDbLine
 10
278.906414
 20
441.751662
 30
0.0
 11
278.906414
 21
441.274069
 31
0.0
  0
LINE
  5
11D
330
7B
100
AcDbEntity
  8
0
  6
Continuous
 62
     0
370
     0
100
AcDbLine
 10
279.599248
 20
441.151651
 30
0.0
 11
279.599248
 21
441.87408
 31
0.0
  0
SPLINE
  5
11E
330
7B
100
AcDbEntity
  8
0
  6
Continuous
 62
     0
370
    30
100
AcDbSpline
210
0.0
220
0.0
230
1.0
 70
    12
 71
     2
 72
     8
 73
     5
 74
     0
 42
0.000000001
 43
0.0
 40
-1.57079632679489
 40
-1.57079632679489
 40
-1.57079632679489
 40
-0.7853981633974431
 40
-0.7853981633974431
 40
0.0
 40
0.0
 40
0.0
 10
279.0477704896942
 20
441.8740801429168
 30
0.0
 41
1.0
 10
279.4648655219904
 20
442.1128766195453
 30
0.0
 41
0.7071067811865459
 10
279.7406040467453
 20
441.7516618607605
 30
0.0
 41
1.0
 10
280.0163425715002
 20
441.3904471019759
 30
0.0
 41
0.7071067811865459
 10
279.599247539204
 20
441.1516506253472
 30
0.0
 41
1.0
  0
SPLINE
  5
11F
330
7B
100
AcDbEntity
  8
0
  6
Continuous
 62
     0
370
    30
100
AcDbSpline
210
0.0
220
0.0
230
1.0
 70
    12
 71
     2
 72
     6
 73
     3
 74
     0
 42
0.000000001
 43
0.0
 40
-0.7853981633974361
 40
-0.7853981633974361
 40
-0.7853981633974361
 40
0.0
 40
0.0
 40
0.0
 10
278.906413982153
 20
441.2740689075035
 30
0.0
 41
1.0
 10
278.6306754573981
 20
441.6352836662882
 30
0.0
 41
0.7071067811865509
 10
279.0477704896942
 20
441.8740801429168
 30
0.0
 41
1.0
  0
SPLINE
  5
120
330
7B
100
AcDbEntity
  8
0
  6
Continuous
 62
     0
370
    30
100
AcDbSpline
210
0.0
220
0.0
230
1.0
 70
    12
 71
     2
 72
     6
 73
     3
 74
     0
 42
0.000000001
 43
0.0
 40
-1.57079632679488
 40
-1.57079632679488
 40
-1.57079632679488
 40
-0.7853981633974361
 40
-0.7853981633974361
 40
-0.7853981633974361
 10
279.599247539204
 20
441.1516506253472
 30
0.0
 41
1.0
 10
279.1821525069079
 20
440.9128541487188
 30
0.0
 41
0.707106781186545
 10
278.906413982153
 20
441.2740689075035
 30
0.0
 41
1.0
  0
ARC
  5
121
330
7B
100
AcDbEntity
  8
0
  6
Continuous
 62
     0
370
    30
100
AcDbCircle
 10
279.323509
 20
442.397528
 30
0.0
 40
0.5676749606335594
100
AcDbArc
 50
243.871176
 51
296.128823
  0
LINE
  5
122
330
7B
100
AcDbEntity
  8
0
  6
Continuous
 62
     0
370
     0
100
AcDbLine
 10
277.48664
 20
443.442647
 30
0.0
 11
277.48664
 21
442.692646
 31
0.0
  0
ARC
  5
123
330
7B
100
AcDbEntity
  8
0
  6
Continuous
 62
     0
370
    30
100
AcDbCircle
 10
277.6524
 20
443.954745
 30
0.0
 40
0.5382576982983245
100
AcDbArc
 50
243.473003
 51
252.063939
  0
LINE
  5
124
330
7B
100
AcDbEntity
  8
0
  6
Continuous
 62
     0
370
     0
100
AcDbLine
 10
278.130242
 20
442.946285
 30
0.0
 11
278.130242
 21
443.250021
 31
0.0
  0
SPLINE
  5
125
330
7B
100
AcDbEntity
  8
0
  6
Continuous
 62
     0
370
    30
100
AcDbSpline
210
0.0
220
0.0
230
1.0
 70
    12
 71
     2
 72
     8
 73
     5
 74
     0
 42
0.000000001
 43
0.0
 40
-1.57079632679488
 40
-1.57079632679488
 40
-1.57079632679488
 40
-0.7853981633974418
 40
-0.7853981633974418
 40
0.0
 40
0.0
 40
0.0
 10
277.1937625881943
 20
443.2500206385653
 30
0.0
 41
1.0
 10
277.3691245192508
 20
443.6555277544784
 30
0.0
 41
0.7071067811865471
 10
277.8373639805693
 20
443.5036599232644
 30
0.0
 41
1.0
 10
278.3056034418886
 20
443.3517920920502
 30
0.0
 41
0.7071067811865471
 10
278.1302415108311
 20
442.9462849761368
 30
0.0
 41
1.0
  0
SPLINE
  5
126
330
7B
100
AcDbEntity
  8
0
  6
Continuous
 62
     0
370
    30
100
AcDbSpline
210
0.0
220
0.0
230
1.0
 70
    12
 71
     2
 72
     6
 73
     3
 74
     0
 42
0.000000001
 43
0.0
 40
-0.7853981633974361
 40
-0.7853981633974361
 40
-0.7853981633974361
 40
0.0
 40
0.0
 40
0.0
 10
277.4866401184552
 20
442.6926456914376
 30
0.0
 41
1.0
 10
277.0184006571368
 20
442.8445135226519
 30
0.0
 41
0.707106781186552
 10
277.1937625881943
 20
443.2500206385653
 30
0.0
 41
1.0
  0
SPLINE
  5
127
330
7B
100
AcDbEntity
  8
0
  6
Continuous
 62
     0
370
    30
100
AcDbSpline
210
0.0
220
0.0
230
1.0
 70
    12
 71
     2
 72
     6
 73
     3
 74
     0
 42
0.000000001
 43
0.0
 40
-1.57079632679488
 40
-1.57079632679488
 40
-1.57079632679488
 40
-0.7853981633974361
 40
-0.7853981633974361
 40
-0.7853981633974361
 10
278.1302415108311
 20
442.9462849761368
 30
0.0
 41
1.0
 10
277.9548795797737
 20
442.5407778602233
 30
0.0
 41
0.707106781186545
 10
277.4866401184552
 20
442.6926456914376
 30
0.0
 41
1.0
  0
ARC
  5
128
330
7B
100
AcDbEntity
  8
0
  6
Continuous
 62
     0
370
    30
100
AcDbCircle
 10
277.661565
 20
443.984335
 30
0.0
 40
0.5692319763223981
100
AcDbArc
 50
252.103439
 51
296.10097
  0
LINE
  5
129
330
7B
100
AcDbEntity
  8
0
  6
Continuous
 62
     0
370
     0
100
AcDbLine
 10
275.375208
 20
443.867582
 30
0.0
 11
275.375208
 21
443.117581
 31
0.0
  0
ARC
  5
12A
330
7B
100
AcDbEntity
  8
0
  6
Continuous
 62
     0
370
    30
100
AcDbCircle
 10
275.242246
 20
444.420514
 30
0.0
 40
0.5686934203743788
100
AcDbArc
 50
243.877538
 51
283.521013
  0
SPLINE
  5
12B
330
7B
100
AcDbEntity
  8
0
  6
Continuous
 62
     0
370
    30
100
AcDbSpline
210
0.0
220
0.0
230
1.0
 70
    12
 71
     2
 72
     8
 73
     5
 74
     0
 42
0.000000001
 43
0.0
 40
-1.57079632679488
 40
-1.57079632679488
 40
-1.57079632679488
 40
-0.7853981633974418
 40
-0.7853981633974418
 40
0.0
 40
0.0
 40
0.0
 10
274.7599655835716
 20
443.4194216924179
 30
0.0
 41
1.0
 10
274.6266121160586
 20
443.836749512017
 30
0.0
 41
0.7071067811865471
 10
275.1085009545911
 20
443.9522369580994
 30
0.0
 41
1.0
 10
275.5903897931238
 20
444.0677244041817
 30
0.0
 41
0.7071067811865471
 10
275.7237432606368
 20
443.6503965845826
 30
0.0
 41
1.0
  0
SPLINE
  5
12C
330
7B
100
AcDbEntity
  8
0
  6
Continuous
 62
     0
370
    30
100
AcDbSpline
210
0.0
220
0.0
230
1.0
 70
    12
 71
     2
 72
     6
 73
     3
 74
     0
 42
0.000000001
 43
0.0
 40
-0.7853981633974352
 40
-0.7853981633974352
 40
-0.7853981633974352
 40
0.0
 40
0.0
 40
0.0
 10
275.3752078896171
 20
443.117581318901
 30
0.0
 41
1.0
 10
274.8933190510845
 20
443.0020938728185
 30
0.0
 41
0.7071067811865509
 10
274.7599655835716
 20
443.4194216924179
 30
0.0
 41
1.0
  0
SPLINE
  5
12D
330
7B
100
AcDbEntity
  8
0
  6
Continuous
 62
     0
370
    30
100
AcDbSpline
210
0.0
220
0.0
230
1.0
 70
    12
 71
     2
 72
     6
 73
     3
 74
     0
 42
0.000000001
 43
0.0
 40
-1.57079632679488
 40
-1.57079632679488
 40
-1.57079632679488
 40
-0.7853981633974352
 40
-0.7853981633974352
 40
-0.7853981633974352
 10
275.7237432606368
 20
443.6503965845826
 30
0.0
 41
1.0
 10
275.8570967281497
 20
443.2330687649833
 30
0.0
 41
0.7071067811865438
 10
275.3752078896171
 20
443.117581318901
 30
0.0
 41
1.0
  0
ARC
  5
12E
330
7B
100
AcDbEntity
  8
0
  6
Continuous
 62
     0
370
    30
100
AcDbCircle
 10
275.248828
 20
444.397748
 30
0.0
 40
0.5450212109330498
100
AcDbArc
 50
283.407858
 51
296.481015
  0
LINE
  5
12F
330
7B
100
AcDbEntity
  8
0
  6
Continuous
 62
     0
370
     0
100
AcDbLine
 10
273.378613
 20
442.926052
 30
0.0
 11
273.378613
 21
442.386565
 31
0.0
  0
ARC
  5
130
330
7B
100
AcDbEntity
  8
0
  6
Continuous
 62
     0
370
    30
100
AcDbCircle
 10
272.98748
 20
443.540976
 30
0.0
 40
0.5676796378410263
100
AcDbArc
 50
243.871408
 51
296.128591
  0
SPLINE
  5
131
330
7B
100
AcDbEntity
  8
0
  6
Continuous
 62
     0
370
    30
100
AcDbSpline
210
0.0
220
0.0
230
1.0
 70
    12
 71
     2
 72
     8
 73
     5
 74
     0
 42
0.000000001
 43
0.0
 40
-1.57079632679488
 40
-1.57079632679488
 40
-1.57079632679488
 40
-0.7853981633974418
 40
-0.7853981633974418
 40
0.0
 40
0.0
 40
0.0
 10
272.676007209876
 20
442.3175778596329
 30
0.0
 41
1.0
 10
272.2848748358653
 20
442.587321340282
 30
0.0
 41
0.7071067811865471
 10
272.5963478940915
 20
442.9260517845314
 30
0.0
 41
1.0
 10
272.9078209523179
 20
443.264782228781
 30
0.0
 41
0.7071067811865471
 10
273.2989533263288
 20
442.9950387481318
 30
0.0
 41
1.0
  0
SPLINE
  5
132
330
7B
100
AcDbEntity
  8
0
  6
Continuous
 62
     0
370
    30
100
AcDbSpline
210
0.0
220
0.0
230
1.0
 70
    12
 71
     2
 72
     6
 73
     3
 74
     0
 42
0.000000001
 43
0.0
 40
-0.7853981633974361
 40
-0.7853981633974361
 40
-0.7853981633974361
 40
0.0
 40
0.0
 40
0.0
 10
273.3786126421126
 20
442.3865648232331
 30
0.0
 41
1.0
 10
273.0671395838862
 20
442.0478343789839
 30
0.0
 41
0.7071067811865509
 10
272.676007209876
 20
442.3175778596329
 30
0.0
 41
1.0
  0
SPLINE
  5
133
330
7B
100
AcDbEntity
  8
0
  6
Continuous
 62
     0
370
    30
100
AcDbSpline
210
0.0
220
0.0
230
1.0
 70
    12
 71
     2
 72
     6
 73
     3
 74
     0
 42
0.000000001
 43
0.0
 40
-1.57079632679488
 40
-1.57079632679488
 40
-1.57079632679488
 40
-0.7853981633974361
 40
-0.7853981633974361
 40
-0.7853981633974361
 10
273.2989533263288
 20
442.9950387481318
 30
0.0
 41
1.0
 10
273.6900857003387
 20
442.7252952674826
 30
0.0
 41
0.707106781186545
 10
273.3786126421126
 20
442.3865648232331
 30
0.0
 41
1.0
  0
ARC
  5
134
330
7B
100
AcDbEntity
  8
0
  6
Continuous
 62
     0
370
    30
100
AcDbCircle
 10
271.760982
 20
441.677783
 30
0.0
 40
0.5629003916480326
100
AcDbArc
 50
267.648766
 51
296.252998
  0
ARC
  5
135
330
7B
100
AcDbEntity
  8
0
  6
Continuous
 62
     0
370
    30
100
AcDbCircle
 10
271.757804
 20
441.673957
 30
0.0
 40
0.5589546277932194
100
AcDbArc
 50
243.680342
 51
267.958188
  0
SPLINE
  5
136
330
7B
100
AcDbEntity
  8
0
  6
Continuous
 62
     0
370
    30
100
AcDbSpline
210
0.0
220
0.0
230
1.0
 70
    12
 71
     2
 72
     8
 73
     5
 74
     0
 42
0.000000001
 43
0.0
 40
-1.57079632679488
 40
-1.57079632679488
 40
-1.57079632679488
 40
-0.7853981633974418
 40
-0.7853981633974418
 40
0.0
 40
0.0
 40
0.0
 10
271.7378887347184
 20
440.36535603404
 30
0.0
 41
1.0
 10
271.2383767269818
 20
440.3844823343745
 30
0.0
 41
0.7071067811865471
 10
271.260461883239
 20
440.8170722601122
 30
0.0
 41
1.0
 10
271.2825470394964
 20
441.2496621858496
 30
0.0
 41
0.7071067811865471
 10
271.7820590472329
 20
441.2305358855149
 30
0.0
 41
1.0
  0
SPLINE
  5
137
330
7B
100
AcDbEntity
  8
0
  6
Continuous
 62
     0
370
    30
100
AcDbSpline
210
0.0
220
0.0
230
1.0
 70
    12
 71
     2
 72
     6
 73
     3
 74
     0
 42
0.000000001
 43
0.0
 40
-0.785398163397437
 40
-0.785398163397437
 40
-0.785398163397437
 40
0.0
 40
0.0
 40
0.0
 10
272.2594858987123
 20
440.7788196594427
 30
0.0
 41
1.0
 10
272.2374007424549
 20
440.3462297337052
 30
0.0
 41
0.7071067811865501
 10
271.7378887347184
 20
440.36535603404
 30
0.0
 41
1.0
  0
SPLINE
  5
138
330
7B
100
AcDbEntity
  8
0
  6
Continuous
 62
     0
370
    30
100
AcDbSpline
210
0.0
220
0.0
230
1.0
 70
    12
 71
     2
 72
     6
 73
     3
 74
     0
 42
0.000000001
 43
0.0
 40
-1.57079632679488
 40
-1.57079632679488
 40
-1.57079632679488
 40
-0.785398163397437
 40
-0.785398163397437
 40
-0.785398163397437
 10
271.7820590472329
 20
441.2305358855149
 30
0.0
 41
1.0
 10
272.2815710549695
 20
441.2114095851801
 30
0.0
 41
0.707106781186545
 10
272.2594858987123
 20
440.7788196594427
 30
0.0
 41
1.0
  0
ARC
  5
139
330
7B
100
AcDbEntity
  8
0
  6
Continuous
 62
     0
370
    30
100
AcDbCircle
 10
272.028201
 20
439.554316
 30
0.0
 40
0.5676749606329943
100
AcDbArc
 50
243.871176
 51
296.128823
  0
SPLINE
  5
13A
330
7B
100
AcDbEntity
  8
0
  6
Continuous
 62
     0
370
    30
100
AcDbSpline
210
0.0
220
0.0
230
1.0
 70
    12
 71
     2
 72
     8
 73
     5
 74
     0
 42
0.000000001
 43
0.0
 40
-1.57079632679488
 40
-1.57079632679488
 40
-1.57079632679488
 40
-0.7853981633974418
 40
-0.7853981633974418
 40
0.0
 40
0.0
 40
0.0
 10
272.3039395301349
 20
438.308438599436
 30
0.0
 41
1.0
 10
271.8868444978388
 20
438.0696421228075
 30
0.0
 41
0.7071067811865471
 10
271.611105973084
 20
438.4308568815921
 30
0.0
 41
1.0
 10
271.335367448329
 20
438.7920716403769
 30
0.0
 41
0.7071067811865471
 10
271.7524624806252
 20
439.0308681170054
 30
0.0
 41
1.0
  0
SPLINE
  5
13B
330
7B
100
AcDbEntity
  8
0
  6
Continuous
 62
     0
370
    30
100
AcDbSpline
210
0.0
220
0.0
230
1.0
 70
    12
 71
     2
 72
     6
 73
     3
 74
     0
 42
0.000000001
 43
0.0
 40
-0.785398163397434
 40
-0.785398163397434
 40
-0.785398163397434
 40
0.0
 40
0.0
 40
0.0
 10
272.4452960376754
 20
438.9084498348491
 30
0.0
 41
1.0
 10
272.7210345624303
 20
438.5472350760642
 30
0.0
 41
0.7071067811865509
 10
272.3039395301349
 20
438.308438599436
 30
0.0
 41
1.0
  0
SPLINE
  5
13C
330
7B
100
AcDbEntity
  8
0
  6
Continuous
 62
     0
370
    30
100
AcDbSpline
210
0.0
220
0.0
230
1.0
 70
    12
 71
     2
 72
     6
 73
     3
 74
     0
 42
0.000000001
 43
0.0
 40
-1.57079632679488
 40
-1.57079632679488
 40
-1.57079632679488
 40
-0.785398163397434
 40
-0.785398163397434
 40
-0.785398163397434
 10
271.7524624806252
 20
439.0308681170054
 30
0.0
 41
1.0
 10
272.1695575129214
 20
439.2696645936339
 30
0.0
 41
0.7071067811865459
 10
272.4452960376754
 20
438.9084498348491
 30
0.0
 41
1.0
  0
ARC
  5
13D
330
7B
100
AcDbEntity
  8
0
  6
Continuous
 62
     0
370
    30
100
AcDbCircle
 10
273.689708
 20
437.969014
 30
0.0
 40
0.5676618339696026
100
AcDbArc
 50
243.870526
 51
296.129473
  0
SPLINE
  5
13E
330
7B
100
AcDbEntity
  8
0
  6
Continuous
 62
     0
370
    30
100
AcDbSpline
210
0.0
220
0.0
230
1.0
 70
    12
 71
     2
 72
     8
 73
     5
 74
     0
 42
0.000000001
 43
0.0
 40
-1.57079632679488
 40
-1.57079632679488
 40
-1.57079632679488
 40
-0.7853981633974418
 40
-0.7853981633974418
 40
0.0
 40
0.0
 40
0.0
 10
274.1579474316351
 20
436.9324981037874
 30
0.0
 41
1.0
 10
273.9825855005784
 20
436.5269909878741
 30
0.0
 41
0.7071067811865471
 10
273.5143460392591
 20
436.6788588190882
 30
0.0
 41
1.0
 10
273.0461065779406
 20
436.8307266503026
 30
0.0
 41
0.7071067811865471
 10
273.2214685089981
 20
437.2362337662159
 30
0.0
 41
1.0
  0
SPLINE
  5
13F
330
7B
100
AcDbEntity
  8
0
  6
Continuous
 62
     0
370
    30
100
AcDbSpline
210
0.0
220
0.0
230
1.0
 70
    12
 71
     2
 72
     6
 73
     3
 74
     0
 42
0.000000001
 43
0.0
 40
-0.78539816339744
 40
-0.78539816339744
 40
-0.78539816339744
 40
0.0
 40
0.0
 40
0.0
 10
273.8650699013739
 20
437.4898730509151
 30
0.0
 41
1.0
 10
274.3333093626924
 20
437.3380052197008
 30
0.0
 41
0.707106781186548
 10
274.1579474316351
 20
436.9324981037874
 30
0.0
 41
1.0
  0
SPLINE
  5
140
330
7B
100
AcDbEntity
  8
0
  6
Continuous
 62
     0
370
    30
100
AcDbSpline
210
0.0
220
0.0
230
1.0
 70
    12
 71
     2
 72
     6
 73
     3
 74
     0
 42
0.000000001
 43
0.0
 40
-1.57079632679488
 40
-1.57079632679488
 40
-1.57079632679488
 40
-0.78539816339744
 40
-0.78539816339744
 40
-0.78539816339744
 10
273.2214685089981
 20
437.2362337662159
 30
0.0
 41
1.0
 10
273.3968304400547
 20
437.6417408821292
 30
0.0
 41
0.707106781186548
 10
273.8650699013739
 20
437.4898730509151
 30
0.0
 41
1.0
  0
ARC
  5
141
330
7B
100
AcDbEntity
  8
0
  6
Continuous
 62
     0
370
    30
100
AcDbCircle
 10
276.109856
 20
437.53226
 30
0.0
 40
0.5676643766643394
100
AcDbArc
 50
243.870652
 51
296.129347
  0
LINE
  5
142
330
7B
100
AcDbEntity
  8
0
  6
Continuous
 62
     0
370
     0
100
AcDbLine
 10
275.627967
 20
436.532122
 30
0.0
 11
275.627967
 21
436.763097
 31
0.0
  0
SPLINE
  5
143
330
7B
100
AcDbEntity
  8
0
  6
Continuous
 62
     0
370
    30
100
AcDbSpline
210
0.0
220
0.0
230
1.0
 70
    12
 71
     2
 72
     8
 73
     5
 74
     0
 42
0.000000001
 43
0.0
 40
-1.57079632679488
 40
-1.57079632679488
 40
-1.57079632679488
 40
-0.785398163397441
 40
-0.785398163397441
 40
0.0
 40
0.0
 40
0.0
 10
276.5917444362576
 20
436.7630970499349
 30
0.0
 41
1.0
 10
276.7250979037706
 20
436.3457692303355
 30
0.0
 41
0.7071067811865471
 10
276.243209065238
 20
436.2302817842533
 30
0.0
 41
1.0
 10
275.7613202267054
 20
436.1147943381709
 30
0.0
 41
0.7071067811865471
 10
275.6279667591925
 20
436.5321221577701
 30
0.0
 41
1.0
  0
SPLINE
  5
144
330
7B
100
AcDbEntity
  8
0
  6
Continuous
 62
     0
370
    30
100
AcDbSpline
210
0.0
220
0.0
230
1.0
 70
    12
 71
     2
 72
     6
 73
     3
 74
     0
 42
0.000000001
 43
0.0
 40
-0.7853981633974391
 40
-0.7853981633974391
 40
-0.7853981633974391
 40
0.0
 40
0.0
 40
0.0
 10
275.9765021302121
 20
437.0649374234517
 30
0.0
 41
1.0
 10
276.4583909687447
 20
437.1804248695341
 30
0.0
 41
0.707106781186548
 10
276.5917444362576
 20
436.7630970499349
 30
0.0
 41
1.0
  0
SPLINE
  5
145
330
7B
100
AcDbEntity
  8
0
  6
Continuous
 62
     0
370
    30
100
AcDbSpline
210
0.0
220
0.0
230
1.0
 70
    12
 71
     2
 72
     6
 73
     3
 74
     0
 42
0.000000001
 43
0.0
 40
-1.57079632679488
 40
-1.57079632679488
 40
-1.57079632679488
 40
-0.7853981633974391
 40
-0.7853981633974391
 40
-0.7853981633974391
 10
275.6279667591925
 20
436.5321221577701
 30
0.0
 41
1.0
 10
275.4946132916795
 20
436.9494499773695
 30
0.0
 41
0.707106781186549
 10
275.9765021302121
 20
437.0649374234517
 30
0.0
 41
1.0
  0
ARC
  5
146
330
7B
100
AcDbEntity
  8
0
  6
Continuous
 62
     0
370
    30
100
AcDbCircle
 10
277.020042
 20
439.693405
 30
0.0
 40
0.5676813799539111
100
AcDbArc
 50
243.871494
 51
296.128505
  0
LINE
  5
147
330
7B
100
AcDbEntity
  8
0
  6
Continuous
 62
     0
370
     0
100
AcDbLine
 10
276.649809
 20
438.51771
 30
0.0
 11
276.649809
 21
439.09976
 31
0.0
  0
SPLINE
  5
148
330
7B
100
AcDbEntity
  8
0
  6
Continuous
 62
     0
370
    30
100
AcDbSpline
210
0.0
220
0.0
230
1.0
 70
    12
 71
     2
 72
     8
 73
     5
 74
     0
 42
0.000000001
 43
0.0
 40
-1.57079632679489
 40
-1.57079632679489
 40
-1.57079632679489
 40
-0.7853981633974451
 40
-0.7853981633974451
 40
0.0
 40
0.0
 40
0.0
 10
277.3902754418693
 20
439.0997598973746
 30
0.0
 41
1.0
 10
277.7263222845961
 20
438.7791287807865
 30
0.0
 41
0.707106781186548
 10
277.3560892235471
 20
438.488103788235
 30
0.0
 41
1.0
 10
276.985856162499
 20
438.1970787956839
 30
0.0
 41
0.707106781186548
 10
276.6498093197721
 20
438.5177099122721
 30
0.0
 41
1.0
  0
SPLINE
  5
149
330
7B
100
AcDbEntity
  8
0
  6
Continuous
 62
     0
370
    30
100
AcDbSpline
210
0.0
220
0.0
230
1.0
 70
    12
 71
     2
 72
     6
 73
     3
 74
     0
 42
0.000000001
 43
0.0
 40
-0.7853981633974441
 40
-0.7853981633974441
 40
-0.7853981633974441
 40
0.0
 40
0.0
 40
0.0
 10
276.6839955380942
 20
439.1293660214116
 30
0.0
 41
1.0
 10
277.0542285991432
 20
439.420391013963
 30
0.0
 41
0.707106781186548
 10
277.3902754418693
 20
439.0997598973746
 30
0.0
 41
1.0
  0
SPLINE
  5
14A
330
7B
100
AcDbEntity
  8
0
  6
Continuous
 62
     0
370
    30
100
AcDbSpline
210
0.0
220
0.0
230
1.0
 70
    12
 71
     2
 72
     6
 73
     3
 74
     0
 42
0.000000001
 43
0.0
 40
-1.57079632679489
 40
-1.57079632679489
 40
-1.57079632679489
 40
-0.7853981633974441
 40
-0.7853981633974441
 40
-0.7853981633974441
 10
276.6498093197721
 20
438.5177099122721
 30
0.0
 41
1.0
 10
276.3137624770453
 20
438.8383410288602
 30
0.0
 41
0.707106781186548
 10
276.6839955380942
 20
439.1293660214116
 30
0.0
 41
1.0
  0
LINE
  5
14B
330
7B
100
AcDbEntity
  8
0
  6
Continuous
 62
     0
370
     0
100
AcDbLine
 10
277.043725
 20
440.979763
 30
0.0
 11
277.043725
 21
440.624362
 31
0.0
  0
ARC
  5
14C
330
7B
100
AcDbEntity
  8
0
  6
Continuous
 62
     0
370
    30
100
AcDbCircle
 10
277.511469
 20
441.653795
 30
0.0
 40
0.5329337548022952
100
AcDbArc
 50
291.278711
 51
296.550238
  0
LINE
  5
14D
330
7B
100
AcDbEntity
  8
0
  6
Continuous
 62
     0
370
     0
100
AcDbLine
 10
277.704873
 20
440.407192
 30
0.0
 11
277.704873
 21
441.157193
 31
0.0
  0
SPLINE
  5
14E
330
7B
100
AcDbEntity
  8
0
  6
Continuous
 62
     0
370
    30
100
AcDbSpline
210
0.0
220
0.0
230
1.0
 70
    12
 71
     2
 72
     8
 73
     5
 74
     0
 42
0.000000001
 43
0.0
 40
-1.57079632679489
 40
-1.57079632679489
 40
-1.57079632679489
 40
-0.7853981633974441
 40
-0.7853981633974441
 40
0.0
 40
0.0
 40
0.0
 10
277.2944907803699
 20
441.1969323588985
 30
0.0
 41
1.0
 10
277.7504475309368
 20
441.3746331105181
 30
0.0
 41
0.707106781186548
 10
277.9556387627484
 20
440.9797631292736
 30
0.0
 41
1.0
 10
278.1608299945607
 20
440.5848931480292
 30
0.0
 41
0.707106781186548
 10
277.7048732439938
 20
440.4071923964097
 30
0.0
 41
1.0
  0
SPLINE
  5
14F
330
7B
100
AcDbEntity
  8
0
  6
Continuous
 62
     0
370
    30
100
AcDbSpline
210
0.0
220
0.0
230
1.0
 70
    12
 71
     2
 72
     6
 73
     3
 74
     0
 42
0.000000001
 43
0.0
 40
-0.7853981633974441
 40
-0.7853981633974441
 40
-0.7853981633974441
 40
0.0
 40
0.0
 40
0.0
 10
277.0437252616154
 20
440.6243616260347
 30
0.0
 41
1.0
 10
276.838534029803
 20
441.0192316072791
 30
0.0
 41
0.7071067811865471
 10
277.2944907803699
 20
441.1969323588985
 30
0.0
 41
1.0
  0
SPLINE
  5
150
330
7B
100
AcDbEntity
  8
0
  6
Continuous
 62
     0
370
    30
100
AcDbSpline
210
0.0
220
0.0
230
1.0
 70
    12
 71
     2
 72
     6
 73
     3
 74
     0
 42
0.000000001
 43
0.0
 40
-1.57079632679489
 40
-1.57079632679489
 40
-1.57079632679489
 40
-0.7853981633974441
 40
-0.7853981633974441
 40
-0.7853981633974441
 10
277.7048732439938
 20
440.4071923964097
 30
0.0
 41
1.0
 10
277.2489164934268
 20
440.2294916447904
 30
0.0
 41
0.7071067811865471
 10
277.0437252616154
 20
440.6243616260349
 30
0.0
 41
1.0
  0
ARC
  5
151
330
7B
100
AcDbEntity
  8
0
  6
Continuous
 62
     0
370
    30
100
AcDbCircle
 10
277.500017
 20
441.688052
 30
0.0
 40
0.569014165639702
100
AcDbArc
 50
243.899736
 51
291.101387
  0
SPLINE
  5
152
330
7B
100
AcDbEntity
  8
0
  6
Continuous
 62
     0
370
    30
100
AcDbSpline
210
0.0
220
0.0
230
1.0
 70
    12
 71
     2
 72
     6
 73
     3
 74
     0
 42
0.000000001
 43
0.0
 40
-0.7853981633974471
 40
-0.7853981633974471
 40
-0.7853981633974471
 40
0.0
 40
0.0
 40
0.0
 10
275.4046046425333
 20
442.2435404757537
 30
0.0
 41
1.0
 10
275.9016528590354
 20
442.290522398759
 30
0.0
 41
0.707106781186545
 10
275.9559029325115
 20
441.8600661778435
 30
0.0
 41
1.0
  0
SPLINE
  5
153
330
7B
100
AcDbEntity
  8
0
  6
Continuous
 62
     0
370
    30
100
AcDbSpline
210
0.0
220
0.0
230
1.0
 70
    12
 71
     2
 72
     6
 73
     3
 74
     0
 42
0.000000001
 43
0.0
 40
-1.57079632679489
 40
-1.57079632679489
 40
-1.57079632679489
 40
-0.7853981633974471
 40
-0.7853981633974471
 40
-0.7853981633974471
 10
274.9618064995072
 20
441.766102331833
 30
0.0
 41
1.0
 10
274.9075564260311
 20
442.1965585527485
 30
0.0
 41
0.707106781186549
 10
275.4046046425333
 20
442.2435404757537
 30
0.0
 41
1.0
  0
SPLINE
  5
154
330
7B
100
AcDbEntity
  8
0
  6
Continuous
 62
     0
370
    30
100
AcDbSpline
210
0.0
220
0.0
230
1.0
 70
    12
 71
     2
 72
     8
 73
     5
 74
     0
 42
0.000000001
 43
0.0
 40
-1.57079632679489
 40
-1.57079632679489
 40
-1.57079632679489
 40
-0.7853981633974431
 40
-0.7853981633974431
 40
0.0
 40
0.0
 40
0.0
 10
275.9559029325115
 20
441.8600661778435
 30
0.0
 41
1.0
 10
276.0101530059876
 20
441.429609956928
 30
0.0
 41
0.707106781186548
 10
275.5131047894855
 20
441.3826280339227
 30
0.0
 41
1.0
 10
275.0160565729832
 20
441.3356461109175
 30
0.0
 41
0.707106781186548
 10
274.9618064995072
 20
441.766102331833
 30
0.0
 41
1.0
  0
ARC
  5
155
330
7B
100
AcDbEntity
  8
0
  6
Continuous
 62
     0
370
    30
100
AcDbCircle
 10
275.458855
 20
442.697749
 30
0.0
 40
0.5676767873504764
100
AcDbArc
 50
243.871267
 51
296.128732
  0
LINE
  5
156
330
7B
100
AcDbEntity
  8
0
  6
Continuous
 62
     0
370
     0
100
AcDbLine
 10
274.2074
 20
440.532938
 30
0.0
 11
274.2074
 21
440.356267
 31
0.0
  0
ARC
  5
157
330
7B
100
AcDbEntity
  8
0
  6
Continuous
 62
     0
370
    30
100
AcDbCircle
 10
273.717717
 20
441.329177
 30
0.0
 40
0.5676831805023839
100
AcDbArc
 50
259.669137
 51
296.150633
  0
ARC
  5
158
330
7B
100
AcDbEntity
  8
0
  6
Continuous
 62
     0
370
    30
100
AcDbCircle
 10
273.712593
 20
441.311652
 30
0.0
 40
0.5495260722404818
100
AcDbArc
 50
243.560547
 51
259.86701
  0
SPLINE
  5
159
330
7B
100
AcDbEntity
  8
0
  6
Continuous
 62
     0
370
    30
100
AcDbSpline
210
0.0
220
0.0
230
1.0
 70
    12
 71
     2
 72
     8
 73
     5
 74
     0
 42
0.000000001
 43
0.0
 40
-1.57079632679489
 40
-1.57079632679489
 40
-1.57079632679489
 40
-0.7853981633974451
 40
-0.7853981633974451
 40
0.0
 40
0.0
 40
0.0
 10
273.6159129904115
 20
440.0206962589585
 30
0.0
 41
1.0
 10
273.126427850544
 20
440.1090320825335
 30
0.0
 41
0.7071067811865471
 10
273.2284293105776
 20
440.532938489052
 30
0.0
 41
1.0
 10
273.3304307706118
 20
440.9568448955707
 30
0.0
 41
0.7071067811865471
 10
273.8199159104786
 20
440.8685090719952
 30
0.0
 41
1.0
  0
SPLINE
  5
15A
330
7B
100
AcDbEntity
  8
0
  6
Continuous
 62
     0
370
    30
100
AcDbSpline
210
0.0
220
0.0
230
1.0
 70
    12
 71
     2
 72
     6
 73
     3
 74
     0
 42
0.000000001
 43
0.0
 40
-0.7853981633974441
 40
-0.7853981633974441
 40
-0.7853981633974441
 40
0.0
 40
0.0
 40
0.0
 10
274.2073995903127
 20
440.3562668419017
 30
0.0
 41
1.0
 10
274.1053981302783
 20
439.9323604353831
 30
0.0
 41
0.707106781186548
 10
273.6159129904115
 20
440.0206962589585
 30
0.0
 41
1.0
  0
SPLINE
  5
15B
330
7B
100
AcDbEntity
  8
0
  6
Continuous
 62
     0
370
    30
100
AcDbSpline
210
0.0
220
0.0
230
1.0
 70
    12
 71
     2
 72
     6
 73
     3
 74
     0
 42
0.000000001
 43
0.0
 40
-1.57079632679489
 40
-1.57079632679489
 40
-1.57079632679489
 40
-0.7853981633974441
 40
-0.7853981633974441
 40
-0.7853981633974441
 10
273.8199159104786
 20
440.8685090719952
 30
0.0
 41
1.0
 10
274.3094010503463
 20
440.7801732484202
 30
0.0
 41
0.7071067811865471
 10
274.2073995903127
 20
440.3562668419017
 30
0.0
 41
1.0
  0
LINE
  5
15C
330
7B
100
AcDbEntity
  8
0
  6
Continuous
 62
     0
370
     0
100
AcDbLine
 10
274.434513
 20
438.961952
 30
0.0
 11
274.434513
 21
438.211951
 31
0.0
  0
SPLINE
  5
15D
330
7B
100
AcDbEntity
  8
0
  6
Continuous
 62
     0
370
    30
100
AcDbSpline
210
0.0
220
0.0
230
1.0
 70
    12
 71
     2
 72
     6
 73
     3
 74
     0
 42
0.000000001
 43
0.0
 40
-0.7853981633974461
 40
-0.7853981633974461
 40
-0.7853981633974461
 40
0.0
 40
0.0
 40
0.0
 10
274.4345131101659
 20
438.2119509735672
 30
0.0
 41
1.0
 10
274.0005052628669
 20
438.4269576178393
 30
0.0
 41
0.7071067811865471
 10
274.2487736428169
 20
438.8028192973612
 30
0.0
 41
1.0
  0
ARC
  5
15E
330
7B
100
AcDbEntity
  8
0
  6
Continuous
 62
     0
370
    30
100
AcDbCircle
 10
274.682765
 20
439.472546
 30
0.0
 40
0.567746180094192
100
AcDbArc
 50
244.070911
 51
296.12716
  0
SPLINE
  5
15F
330
7B
100
AcDbEntity
  8
0
  6
Continuous
 62
     0
370
    30
100
AcDbSpline
210
0.0
220
0.0
230
1.0
 70
    12
 71
     2
 72
     6
 73
     3
 74
     0
 42
0.000000001
 43
0.0
 40
-1.57079632679489
 40
-1.57079632679489
 40
-1.57079632679489
 40
-0.7853981633974461
 40
-0.7853981633974461
 40
-0.7853981633974461
 10
275.1167893374143
 20
438.372806008817
 30
0.0
 41
1.0
 10
274.868520957465
 20
437.996944329295
 30
0.0
 41
0.7071067811865471
 10
274.4345131101659
 20
438.2119509735672
 30
0.0
 41
1.0
  0
SPLINE
  5
160
330
7B
100
AcDbEntity
  8
0
  6
Continuous
 62
     0
370
    30
100
AcDbSpline
210
0.0
220
0.0
230
1.0
 70
    12
 71
     2
 72
     8
 73
     5
 74
     0
 42
0.000000001
 43
0.0
 40
-1.57079632679489
 40
-1.57079632679489
 40
-1.57079632679489
 40
-0.7853981633974441
 40
-0.7853981633974441
 40
0.0
 40
0.0
 40
0.0
 10
274.2487736428169
 20
438.8028192973612
 30
0.0
 41
1.0
 10
274.4970420227662
 20
439.178680976883
 30
0.0
 41
0.707106781186548
 10
274.9310498700653
 20
438.9636743326109
 30
0.0
 41
1.0
 10
275.3650577173643
 20
438.7486676883387
 30
0.0
 41
0.707106781186548
 10
275.1167893374143
 20
438.372806008817
 30
0.0
 41
1.0
  0
LINE
  5
161
330
7B
100
AcDbEntity
  8
0
  6
Continuous
 62
     0
370
     0
100
AcDbLine
 10
280.716508
 20
435.281803
 30
0.0
 11
280.716508
 21
434.781802
 31
0.0
  0
SPLINE
  5
162
330
7B
100
AcDbEntity
  8
0
  6
Continuous
 62
     0
370
    30
100
AcDbSpline
210
0.0
220
0.0
230
1.0
 70
    12
 71
     2
 72
     6
 73
     3
 74
     0
 42
0.000000001
 43
0.0
 40
-23.5619449019234
 40
-23.5619449019234
 40
-23.5619449019234
 40
-11.7809724509617
 40
-11.7809724509617
 40
-11.7809724509617
 10
270.1223099295322
 20
435.7258949001605
 30
0.0
 41
1.0
 10
275.1630125704305
 20
430.9164281513365
 30
0.0
 41
0.707106781186548
 10
280.7165084861612
 20
435.2818030396057
 30
0.0
 41
1.0
  0
LINE
  5
163
330
7B
100
AcDbEntity
  8
0
  6
Continuous
 62
     0
370
     0
100
AcDbLine
 10
270.12231
 20
435.225894
 30
0.0
 11
270.12231
 21
435.725895
 31
0.0
  0
SPLINE
  5
164
330
7B
100
AcDbEntity
  8
0
  6
Continuous
 62
     0
370
    30
100
AcDbSpline
210
0.0
220
0.0
230
1.0
 70
    12
 71
     2
 72
     6
 73
     3
 74
     0
 42
0.000000001
 43
0.0
 40
-11.7809724509617
 40
-11.7809724509617
 40
-11.7809724509617
 40
-5.820334894789934
 40
-5.820334894789934
 40
-5.820334894789934
 10
280.7165084861612
 20
435.2818030396057
 30
0.0
 41
1.0
 10
283.0490030802769
 20
437.1152811735021
 30
0.0
 41
0.8518093198779204
 10
283.1702482115692
 20
439.8412694378582
 30
0.0
 41
0.853574161184498
  0
SPLINE
  5
165
330
7B
100
AcDbEntity
  8
0
  6
Continuous
 62
     0
370
    30
100
AcDbSpline
210
0.0
220
0.0
230
1.0
 70
    12
 71
     2
 72
     6
 73
     3
 74
     0
 42
0.000000001
 43
0.0
 40
-5.272448353958851
 40
-5.272448353958851
 40
-5.272448353958851
 40
0.0
 40
0.0
 40
0.0
 10
268.1813634743539
 20
439.8412695758601
 30
0.0
 41
0.8551655471280896
 10
268.2864983867071
 20
437.4774908980451
 30
0.0
 41
0.8689187691553737
 10
270.1223099295322
 20
435.7258949001605
 30
0.0
 41
1.0
  0
LINE
  5
166
330
7B
100
AcDbEntity
  8
0
  6
Continuous
 62
     0
370
    30
100
AcDbLine
 10
267.675855
 20
439.591259
 30
0.0
 11
267.675855
 21
441.742462
 31
0.0
  0
LINE
  5
167
330
7B
100
AcDbEntity
  8
0
  6
Continuous
 62
     0
370
    30
100
AcDbLine
 10
283.675855
 20
439.592741
 30
0.0
 11
283.675855
 21
441.742472
 31
0.0
  0
ELLIPSE
  5
168
330
7B
100
AcDbEntity
  8
0
  6
Continuous
 62
     0
370
    30
100
AcDbEllipse
 10
275.675856
 20
439.996938
 30
0.0
 11
8.374998962328922
 21
0.0
 31
0.0
210
0.0
220
0.0
230
1.0
 40
0.866025
 41
3.161005026914597
 42
4.086723370701854
  0
ELLIPSE
  5
169
330
7B
100
AcDbEntity
  8
0
  6
Continuous
 62
     0
370
    30
100
AcDbEllipse
 10
275.675856
 20
439.996938
 30
0.0
 11
8.374998962328922
 21
0.0
 31
0.0
210
0.0
220
0.0
230
1.0
 40
0.866025
 41
5.338048656311249
 42
6.263772933854781
  0
ELLIPSE
  5
16A
330
7B
100
AcDbEntity
  8
0
  6
Continuous
 62
     0
370
    30
100
AcDbEllipse
 10
275.675856
 20
439.996938
 30
0.0
 11
8.25
 21
0.0
 31
0.0
210
0.0
220
0.0
230
1.0
 40
0.866025
 41
2.785212691965109
 42
3.141592653589794
  0
ELLIPSE
  5
16B
330
7B
100
AcDbEntity
  8
0
  6
Continuous
 62
     0
370
    30
100
AcDbEllipse
 10
275.675856
 20
439.996938
 30
0.0
 11
8.25
 21
0.0
 31
0.0
210
0.0
220
0.0
230
1.0
 40
0.866025
 41
0.0
 42
0.3563799616248309
  0
ELLIPSE
  5
16C
330
7B
100
AcDbEntity
  8
0
  6
Continuous
 62
     0
370
    30
100
AcDbEllipse
 10
275.675856
 20
439.996938
 30
0.0
 11
8.25
 21
0.0
 31
0.0
210
0.0
220
0.0
230
1.0
 40
0.866025
 41
5.696029754774209
 42
6.283185307179586
  0
ELLIPSE
  5
16D
330
7B
100
AcDbEntity
  8
0
  6
Continuous
 62
     0
370
    30
100
AcDbEllipse
 10
275.675856
 20
439.996938
 30
0.0
 11
8.25
 21
0.0
 31
0.0
210
0.0
220
0.0
230
1.0
 40
0.866025
 41
3.141592653589793
 42
3.728742247070399
  0
ELLIPSE
  5
16E
330
7B
100
AcDbEntity
  8
0
  6
Continuous
 62
     0
370
     0
100
AcDbEllipse
 10
275.675856
 20
439.716259
 30
0.0
 11
8.374998938426604
 21
0.0
 31
0.0
210
0.0
220
0.0
230
1.0
 40
0.866025
 41
3.141592698617064
 42
4.71238898038469
  0
ELLIPSE
  5
16F
330
7B
100
AcDbEntity
  8
0
  6
Continuous
 62
     0
370
     0
100
AcDbEllipse
 10
275.675856
 20
439.716259
 30
0.0
 11
8.374998938426604
 21
0.0
 31
0.0
210
0.0
220
0.0
230
1.0
 40
0.866025
 41
4.71238898038469
 42
6.283185233429609
  0
ELLIPSE
  5
170
330
7B
100
AcDbEntity
  8
0
  6
Continuous
 62
     0
370
     0
100
AcDbEllipse
 10
275.675856
 20
439.591259
 30
0.0
 11
8.624998927722157
 21
0.0
 31
0.0
210
0.0
220
0.0
230
1.0
 40
0.866025
 41
1.570796326794897
 42
4.712388980384691
  0
ELLIPSE
  5
171
330
7B
100
AcDbEntity
  8
0
  6
Continuous
 62
     0
370
     0
100
AcDbEllipse
 10
275.675856
 20
439.591259
 30
0.0
 11
8.624998927722157
 21
0.0
 31
0.0
210
0.0
220
0.0
230
1.0
 40
0.866025
 41
4.712388980384691
 42
7.853981633974483
  0
ELLIPSE
  5
172
330
7B
100
AcDbEntity
  8
0
  6
Continuous
 62
     0
370
    30
100
AcDbEllipse
 10
275.675856
 20
439.591259
 30
0.0
 11
9.77499892772215
 21
0.0
 31
0.0
210
0.0
220
0.0
230
1.0
 40
0.866025
 41
1.570796326794897
 42
4.71238898038469
  0
ELLIPSE
  5
173
330
7B
100
AcDbEntity
  8
0
  6
Continuous
 62
     0
370
    30
100
AcDbEllipse
 10
275.675856
 20
439.591259
 30
0.0
 11
9.77499892772215
 21
0.0
 31
0.0
210
0.0
220
0.0
230
1.0
 40
0.866025
 41
4.71238898038469
 42
7.853981633974483
  0
ELLIPSE
  5
174
330
7B
100
AcDbEntity
  8
0
  6
Continuous
 62
     0
370
    30
100
AcDbEllipse
 10
275.675856
 20
439.691259
 30
0.0
 11
9.974998936290483
 21
0.0
 31
0.0
210
0.0
220
0.0
230
1.0
 40
0.866025
 41
1.570796326794897
 42
4.71238898038469
  0
ELLIPSE
  5
175
330
7B
100
AcDbEntity
  8
0
  6
Continuous
 62
     0
370
    30
100
AcDbEllipse
 10
275.675856
 20
439.691259
 30
0.0
 11
9.974998936290483
 21
0.0
 31
0.0
210
0.0
220
0.0
230
1.0
 40
0.866025
 41
4.71238898038469
 42
7.853981633974483
  0
ELLIPSE
  5
176
330
7B
100
AcDbEntity
  8
0
  6
Continuous
 62
     0
370
     0
100
AcDbEllipse
 10
275.675856
 20
451.591272
 30
0.0
 11
9.974999815179796
 21
0.0
 31
0.0
210
0.0
220
0.0
230
1.0
 40
0.866025
 41
1.570796326794897
 42
3.141592717551077
  0
ELLIPSE
  5
177
330
7B
100
AcDbEntity
  8
0
  6
Continuous
 62
     0
370
     0
100
AcDbEllipse
 10
275.675856
 20
451.591272
 30
0.0
 11
9.974999815179796
 21
0.0
 31
0.0
210
0.0
220
0.0
230
1.0
 40
0.866025
 41
-0.0000000639612843
 42
1.570796326794897
  0
ELLIPSE
  5
178
330
7B
100
AcDbEntity
  8
0
  6
Continuous
 62
     0
370
     0
100
AcDbEllipse
 10
275.675856
 20
453.401616
 30
0.0
 11
8.049999879469036
 21
0.0
 31
0.0
210
0.0
220
0.0
230
1.0
 40
0.866025
 41
1.570796326794897
 42
1.692435028079246
  0
ELLIPSE
  5
179
330
7B
100
AcDbEntity
  8
0
  6
Continuous
 62
     0
370
     0
100
AcDbEllipse
 10
275.675856
 20
453.401616
 30
0.0
 11
8.049999879469036
 21
0.0
 31
0.0
210
0.0
220
0.0
230
1.0
 40
0.866025
 41
1.449157625510306
 42
1.570796326794897
  0
SPLINE
  5
17A
330
7B
100
AcDbEntity
  8
0
  6
Continuous
 62
     0
370
    30
100
AcDbSpline
210
0.0
220
0.0
230
1.0
 70
     8
 71
     3
 72
    15
 73
    11
 74
     0
 42
0.000000001
 43
0.0
 40
0.0
 40
0.0
 40
0.0
 40
0.0
 40
1.128295630727903
 40
3.06963223489561
 40
5.4405295768538
 40
7.726834049365082
 40
10.25122991026115
 40
12.65702370737112
 40
14.42966475309139
 40
15.56889845875778
 40
15.56889845875778
 40
15.56889845875778
 40
15.56889845875778
 10
265.7008565967267
 20
451.5912719845638
 30
0.0
 10
265.7008565758654
 20
451.9270519558793
 30
0.0
 10
265.7604854982588
 20
452.8416001270103
 30
0.0
 10
266.1522174867935
 20
454.4314032028305
 30
0.0
 10
267.0911128721948
 20
456.2201546307889
 30
0.0
 10
268.5948485128378
 20
457.8951661744051
 30
0.0
 10
270.5173830195676
 20
459.2066590042232
 30
0.0
 10
272.582008662425
 20
459.9999650957191
 30
0.0
 10
274.3253253901013
 20
460.3149995487058
 30
0.0
 10
275.2963107356982
 20
460.3636914550522
 30
0.0
 10
275.6758564119064
 20
460.3636914550522
 30
0.0
  0
SPLINE
  5
17B
330
7B
100
AcDbEntity
  8
0
  6
Continuous
 62
     0
370
    30
100
AcDbSpline
210
0.0
220
0.0
230
1.0
 70
     8
 71
     3
 72
    15
 73
    11
 74
     0
 42
0.000000001
 43
0.0
 40
0.0
 40
0.0
 40
0.0
 40
0.0
 40
1.128295630727733
 40
3.069632234895294
 40
5.440529576853588
 40
7.726834049364957
 40
10.25122991026105
 40
12.65702370737102
 40
14.42966475309114
 40
15.56889845875744
 40
15.56889845875744
 40
15.56889845875744
 40
15.56889845875744
 10
285.6508562270862
 20
451.5912719845641
 30
0.0
 10
285.6508562479474
 20
451.9270519558796
 30
0.0
 10
285.5912273255541
 20
452.8416001270105
 30
0.0
 10
285.1994953370194
 20
454.4314032028306
 30
0.0
 10
284.260599951618
 20
456.2201546307891
 30
0.0
 10
282.7568643109749
 20
457.8951661744053
 30
0.0
 10
280.834329804245
 20
459.2066590042233
 30
0.0
 10
278.7697041613877
 20
459.9999650957192
 30
0.0
 10
277.0263874337114
 20
460.3149995487057
 30
0.0
 10
276.0554020881146
 20
460.3636914550522
 30
0.0
 10
275.6758564119064
 20
460.3636914550522
 30
0.0
  0
LINE
  5
17C
330
7B
100
AcDbEntity
  8
0
  6
Continuous
 62
     0
370
    30
100
AcDbLine
 10
265.700857
 20
439.691258
 30
0.0
 11
265.700857
 21
451.591272
 31
0.0
  0
LINE
  5
17D
330
7B
100
AcDbEntity
  8
0
  6
Continuous
 62
     0
370
    30
100
AcDbLine
 10
285.650855
 20
439.691258
 30
0.0
 11
285.650856
 21
451.591272
 31
0.0
  0
SPLINE
  5
17E
330
7B
100
AcDbEntity
  8
0
  6
Continuous
 62
     0
370
    30
100
AcDbSpline
210
0.0
220
0.0
230
1.0
 70
     8
 71
     3
 72
    14
 73
    10
 74
     0
 42
0.000000001
 43
0.0
 40
0.0
 40
0.0
 40
0.0
 40
0.0
 40
1.644683549888081
 40
4.46395021597932
 40
5.60817095334855
 40
7.193154857607112
 40
8.918901482910822
 40
11.52608162054358
 40
13.18374557571457
 40
13.18374557571457
 40
13.18374557571457
 40
13.18374557571457
 10
267.3008574734798
 20
439.7162585471567
 30
0.0
 10
267.3008574333576
 20
440.1855823458394
 30
0.0
 10
267.4455798367171
 20
441.4626310990252
 30
0.0
 10
268.1153961469653
 20
442.9827975472515
 30
0.0
 10
269.157718650496
 20
444.2994148882167
 30
0.0
 10
270.1847070822334
 20
445.2287337227388
 30
0.0
 10
271.8062196149655
 20
446.2106721195442
 30
0.0
 10
273.7008885126646
 20
446.8142010451548
 30
0.0
 10
275.1241973161017
 20
446.935754924931
 30
0.0
 10
275.6758564119064
 20
446.935754924931
 30
0.0
  0
SPLINE
  5
17F
330
7B
100
AcDbEntity
  8
0
  6
Continuous
 62
     0
370
    30
100
AcDbSpline
210
0.0
220
0.0
230
1.0
 70
     8
 71
     3
 72
    14
 73
    10
 74
     0
 42
0.000000001
 43
0.0
 40
0.0
 40
0.0
 40
0.0
 40
0.0
 40
1.644683549888276
 40
4.463950215979644
 40
5.608170953348895
 40
7.193154857607462
 40
8.91890148291118
 40
11.52608162054396
 40
13.18374557571453
 40
13.18374557571453
 40
13.18374557571453
 40
13.18374557571453
 10
284.050855350333
 20
439.7162585471567
 30
0.0
 10
284.0508553904553
 20
440.1855823458394
 30
0.0
 10
283.9061329870958
 20
441.4626310990254
 30
0.0
 10
283.2363166768474
 20
442.9827975472516
 30
0.0
 10
282.1939941733167
 20
444.299414888217
 30
0.0
 10
281.1670057415791
 20
445.228733722739
 30
0.0
 10
279.5454932088469
 20
446.2106721195444
 30
0.0
 10
277.650824311148
 20
446.814201045155
 30
0.0
 10
276.227515507711
 20
446.935754924931
 30
0.0
 10
275.6758564119064
 20
446.935754924931
 30
0.0
  0
ENDBLK
  5
181
330
7B
100
AcDbEntity
  8
0
100
AcDbBlockEnd
  0
BLOCK
  5
1C6
330
183
100
AcDbEntity
  8
0
100
AcDbBlockBegin
  2
b
 70
     0
 10
220.833328
 20
128.689468
 30
0.0
  3
b
  1

  0
LINE
  5
184
330
183
100
AcDbEntity
  8
0
  6
Continuous
 62
     0
370
    30
100
AcDbLine
 10
271.178502
 20
168.544457
 30
0.0
 11
280.178502
 21
168.54373
 31
0.0
  0
ARC
  5
185
330
183
100
AcDbEntity
  8
0
  6
Continuous
 62
     0
370
    30
100
AcDbCircle
 10
271.178543
 20
169.044457
 30
0.0
 40
0.499999999999955
100
AcDbArc
 50
179.99537
 51
269.99537
  0
LINE
  5
186
330
183
100
AcDbEntity
  8
0
  6
Continuous
 62
     0
370
     0
100
AcDbLine
 10
270.678543
 20
169.044497
 30
0.0
 11
280.678543
 21
169.043689
 31
0.0
  0
LINE
  5
187
330
183
100
AcDbEntity
  8
0
  6
Continuous
 62
     0
370
     0
100
AcDbLine
 10
270.68285
 20
222.344497
 30
0.0
 11
275.682858
 21
222.344092
 31
0.0
  0
LINE
  5
188
330
183
100
AcDbEntity
  8
0
  6
Continuous
 62
     0
370
    30
100
AcDbLine
 10
270.68285
 20
222.344497
 30
0.0
 11
270.678543
 21
169.044497
 31
0.0
  0
LINE
  5
189
330
183
100
AcDbEntity
  8
0
  6
Continuous
 62
     0
370
     0
100
AcDbLine
 10
275.682858
 20
222.344092
 30
0.0
 11
280.68285
 21
222.34369
 31
0.0
  0
SPLINE
  5
18A
330
183
100
AcDbEntity
  8
0
  6
Continuous
 62
     0
370
     0
100
AcDbSpline
210
0.0
220
0.0
230
1.0
 70
     8
 71
     7
 72
    21
 73
    13
 74
     0
 42
0.000000001
 43
0.0
 40
0.0
 40
0.0
 40
0.0
 40
0.0
 40
0.0
 40
0.0
 40
0.0
 40
0.0
 40
0.6599999999999999
 40
0.6599999999999999
 40
0.6599999999999999
 40
0.6599999999999999
 40
0.6599999999999999
 40
1.0
 40
1.0
 40
1.0
 40
1.0
 40
1.0
 40
1.0
 40
1.0
 40
1.0
 10
275.68315851124
 20
226.1440903175683
 30
0.0
 10
275.6831585072076
 20
226.1440905157631
 30
0.0
 10
275.6831536539053
 20
226.0875364695944
 30
0.0
 10
275.6831424240479
 20
225.9557206274034
 30
0.0
 10
275.6831233228144
 20
225.7315201394644
 30
0.0
 10
275.6830896494112
 20
225.330497800628
 30
0.0
 10
275.6830298753183
 20
224.6112705183991
 30
0.0
 10
275.6829625234695
 20
223.791313387494
 30
0.0
 10
275.6829391663043
 20
223.5058836652049
 30
0.0
 10
275.6829156264892
 20
223.2171763140421
 30
0.0
 10
275.6828920145883
 20
222.9265798500053
 30
0.0
 10
275.6828684287311
 20
222.6353358888464
 30
0.0
 10
275.6828449183281
 20
222.3440919234462
 30
0.0
  0
ARC
  5
18B
330
183
100
AcDbEntity
  8
0
  6
Continuous
 62
     0
370
    30
100
AcDbCircle
 10
275.684789
 20
246.344089
 30
0.0
 40
20.2
100
AcDbArc
 50
179.99537
 51
269.995375
  0
ARC
  5
18C
330
183
100
AcDbEntity
  8
0
  6
Continuous
 62
     0
370
    30
100
AcDbCircle
 10
275.684789
 20
246.344089
 30
0.0
 40
20.2
100
AcDbArc
 50
89.995375
 51
179.99537
  0
ARC
  5
18D
330
183
100
AcDbEntity
  8
0
  6
Continuous
 62
     0
370
    30
100
AcDbCircle
 10
275.684789
 20
246.344089
 30
0.0
 40
20.2
100
AcDbArc
 50
269.995374
 51
89.995376
  0
ARC
  5
18E
330
183
100
AcDbEntity
  8
0
  6
Continuous
 62
     0
370
     0
100
AcDbCircle
 10
275.684789
 20
246.344089
 30
0.0
 40
19.70000000000001
100
AcDbArc
 50
359.99537
 51
179.99537
  0
ARC
  5
18F
330
183
100
AcDbEntity
  8
0
  6
Continuous
 62
     0
370
     0
100
AcDbCircle
 10
275.684789
 20
246.344089
 30
0.0
 40
19.70000000000001
100
AcDbArc
 50
179.99537
 51
359.99537
  0
SPLINE
  5
190
330
183
100
AcDbEntity
  8
0
  6
Continuous
 62
     0
370
    30
100
AcDbSpline
210
0.0
220
0.0
230
1.0
 70
     8
 71
     3
 72
    17
 73
    13
 74
     0
 42
0.000000001
 43
0.0
 40
0.0
 40
0.0
 40
0.0
 40
0.0
 40
0.4654875640367376
 40
2.093144073693272
 40
3.021576684097603
 40
3.601942728026998
 40
4.881621431696335
 40
6.048510872999344
 40
6.515607816844493
 40
6.982639316529428
 40
7.216117059469003
 40
7.603758276496345
 40
7.603758276496345
 40
7.603758276496345
 40
7.603758276496345
 10
280.6828496734866
 20
222.3436896369454
 30
0.0
 10
280.6828622126981
 20
222.4988382105134
 30
0.0
 10
280.7000860314205
 20
223.1964220901583
 30
0.0
 10
280.8528620735506
 20
224.1995943178877
 30
0.0
 10
281.2401376629377
 20
225.1742997272225
 30
0.0
 10
281.7065316029838
 20
225.9781844508132
 30
0.0
 10
282.3634782011082
 20
226.7479110732978
 30
0.0
 10
283.1244318090735
 20
227.3487804176438
 30
0.0
 10
283.7098485919992
 20
227.7281637961475
 30
0.0
 10
284.0448183414073
 20
227.9238382033292
 30
0.0
 10
284.362322138243
 20
228.0966995248402
 30
0.0
 10
284.5461479688053
 20
228.1911927808202
 30
0.0
 10
284.6617920712316
 20
228.2484191582877
 30
0.0
  0
SPLINE
  5
191
330
183
100
AcDbEntity
  8
0
  6
Continuous
 62
     0
370
    30
100
AcDbSpline
210
0.0
220
0.0
230
1.0
 70
     8
 71
     3
 72
    17
 73
    13
 74
     0
 42
0.000000001
 43
0.0
 40
0.0
 40
0.0
 40
0.0
 40
0.0
 40
0.4654875640008911
 40
2.093144072974703
 40
3.021576683147813
 40
3.601942727346742
 40
4.881621432207368
 40
6.048510874145031
 40
6.515607818026052
 40
6.982639317738484
 40
7.216117060747687
 40
7.603757956075014
 40
7.603757956075014
 40
7.603757956075014
 40
7.603757956075014
 10
270.6828534594221
 20
222.3444971984444
 30
0.0
 10
270.6828659633759
 20
222.4996457720009
 30
0.0
 10
270.6657547432753
 20
223.1972324224692
 30
0.0
 10
270.5131406151171
 20
224.2004292958347
 30
0.0
 10
270.1260223355621
 20
225.1751971935728
 30
0.0
 10
269.6597581369122
 20
225.9791571758052
 30
0.0
 10
269.0029357734991
 20
226.7489898121161
 30
0.0
 10
268.2420791582713
 20
227.349981969794
 30
0.0
 10
267.6567236203969
 20
227.7294598379283
 30
0.0
 10
267.3217854606741
 20
227.9251883129526
 30
0.0
 10
267.0043096655171
 20
228.0981008330537
 30
0.0
 10
266.820499187089
 20
228.1926237149395
 30
0.0
 10
266.7048644212598
 20
228.2498687148668
 30
0.0
  0
LINE
  5
192
330
183
100
AcDbEntity
  8
0
  6
Continuous
 62
     0
370
    30
100
AcDbLine
 10
280.678543
 20
169.043689
 30
0.0
 11
280.68285
 21
222.34369
 31
0.0
  0
ARC
  5
193
330
183
100
AcDbEntity
  8
0
  6
Continuous
 62
     0
370
    30
100
AcDbCircle
 10
280.17854
 20
169.043732
 30
0.0
 40
0.5000024761398414
100
AcDbArc
 50
269.995655
 51
359.995086
  0
ELLIPSE
  5
194
330
183
100
AcDbEntity
  8
0
  6
Continuous
 62
     0
370
     0
100
AcDbEllipse
 10
275.678868
 20
173.25139
 30
0.0
 11
9.999993278113889
 21
-0.0008110004883130998
 31
0.0
210
0.0
220
0.0
230
-1.0
 40
0.500001
 41
2.092482851071802
 42
3.1415926535857
  0
ELLIPSE
  5
195
330
183
100
AcDbEntity
  8
0
  6
Continuous
 62
     0
370
     0
100
AcDbEllipse
 10
275.678868
 20
173.25139
 30
0.0
 11
9.999993278113889
 21
-0.0008110004883130998
 31
0.0
210
0.0
220
0.0
230
-1.0
 40
0.500001
 41
1.570791419878063
 42
1.914661379881877
  0
ELLIPSE
  5
196
330
183
100
AcDbEntity
  8
0
  6
Continuous
 62
     0
370
    30
100
AcDbEllipse
 10
275.677794
 20
160.001204
 30
0.0
 11
-9.999993278113889
 21
0.0008110004883130998
 31
0.0
210
0.0
220
0.0
230
1.0
 40
0.500001
 41
0.0000000000040927
 42
1.570796418308732
  0
LINE
  5
197
330
183
100
AcDbEntity
  8
0
  6
Continuous
 62
     0
370
     0
100
AcDbLine
 10
275.677437
 20
155.001201
 30
0.0
 11
275.678512
 21
168.251387
 31
0.0
  0
LINE
  5
198
330
183
100
AcDbEntity
  8
0
  6
Continuous
 62
     0
370
     0
100
AcDbLine
 10
275.678462
 20
168.251269
 30
0.0
 11
275.678485
 21
168.544095
 31
0.0
  0
LINE
  5
199
330
183
100
AcDbEntity
  8
0
  6
Continuous
 62
     0
370
     0
100
AcDbLine
 10
270.679489
 20
180.751789
 30
0.0
 11
265.67924
 21
180.752199
 31
0.0
  0
LINE
  5
19A
330
183
100
AcDbEntity
  8
0
  6
Continuous
 62
     0
370
     0
100
AcDbLine
 10
270.682679
 20
220.229057
 30
0.0
 11
265.682438
 21
220.229462
 31
0.0
  0
ELLIPSE
  5
19B
330
183
100
AcDbEntity
  8
0
  6
Continuous
 62
     0
370
    30
100
AcDbEllipse
 10
275.677793
 20
160.001204
 30
0.0
 11
-9.999993278226171
 21
0.0008096148480170162
 31
0.0
210
0.0
220
0.0
230
1.0
 40
0.500001
 41
1.570796407426575
 42
3.141592653593879
  0
ELLIPSE
  5
19C
330
183
100
AcDbEntity
  8
0
  6
Continuous
 62
     0
370
     0
100
AcDbEllipse
 10
275.678866
 20
173.25139
 30
0.0
 11
9.999993278226171
 21
-0.0008096148480170162
 31
0.0
210
0.0
220
0.0
230
-1.0
 40
0.500001
 41
1.22693038751713
 42
1.57079124716005
  0
ELLIPSE
  5
19D
330
183
100
AcDbEntity
  8
0
  6
Continuous
 62
     0
370
     0
100
AcDbEllipse
 10
275.678866
 20
173.25139
 30
0.0
 11
9.999993278226171
 21
-0.0008096148480170162
 31
0.0
210
0.0
220
0.0
230
-1.0
 40
0.500001
 41
6.283183484402076
 42
7.332302031337268
  0
LINE
  5
19E
330
183
100
AcDbEntity
  8
0
  6
Continuous
 62
     0
370
     0
100
AcDbLine
 10
280.679489
 20
180.750979
 30
0.0
 11
285.679709
 21
180.750578
 31
0.0
  0
LINE
  5
19F
330
183
100
AcDbEntity
  8
0
  6
Continuous
 62
     0
370
     0
100
AcDbLine
 10
285.682909
 20
220.227842
 30
0.0
 11
280.682679
 21
220.228247
 31
0.0
  0
SPLINE
  5
1A0
330
183
100
AcDbEntity
  8
0
  6
Continuous
 62
     0
370
    30
100
AcDbSpline
210
0.0
220
0.0
230
1.0
 70
     8
 71
     3
 72
    16
 73
    12
 74
     0
 42
0.000000001
 43
0.0
 40
0.0
 40
0.0
 40
0.0
 40
0.0
 40
2.259759896306662
 40
4.108944906614255
 40
5.530866093185915
 40
6.489109289931172
 40
8.432353261358012
 40
10.15880924813711
 40
11.15245887467456
 40
12.14758439688175
 40
12.90168662667099
 40
12.90168662667099
 40
12.90168662667099
 40
12.90168662667099
 10
285.6829090374777
 20
220.2278416525482
 30
0.0
 10
285.6829700509722
 20
220.9808083213103
 30
0.0
 10
285.7350974225332
 20
222.351497127767
 30
0.0
 10
286.0003454944294
 20
224.1787749845188
 30
0.0
 10
286.3550996984922
 20
225.5450834315328
 30
0.0
 10
286.8335014338353
 20
226.9054371398801
 30
0.0
 10
287.4883542675041
 20
228.3053762534639
 30
0.0
 10
288.2869860352567
 20
229.6404028100106
 30
0.0
 10
288.9757235340282
 20
230.6697749019748
 30
0.0
 10
289.5039589684366
 20
231.4161075605329
 30
0.0
 10
289.8478935445105
 20
231.8869463455781
 30
0.0
 10
289.9970401241998
 20
232.0892862834725
 30
0.0
  0
LINE
  5
1A1
330
183
100
AcDbEntity
  8
0
  6
Continuous
 62
     0
370
    30
100
AcDbLine
 10
285.682909
 20
220.227842
 30
0.0
 11
285.67971
 21
180.750578
 31
0.0
  0
LINE
  5
1A2
330
183
100
AcDbEntity
  8
0
  6
Continuous
 62
     0
370
    30
100
AcDbLine
 10
285.679101
 20
173.25059
 30
0.0
 11
285.679709
 21
180.750578
 31
0.0
  0
LINE
  5
1A3
330
183
100
AcDbEntity
  8
0
  6
Continuous
 62
     0
370
    30
100
AcDbLine
 10
285.678859
 20
173.250581
 30
0.0
 11
285.677786
 21
160.000394
 31
0.0
  0
SPLINE
  5
1A4
330
183
100
AcDbEntity
  8
0
  6
Continuous
 62
     0
370
    30
100
AcDbSpline
210
0.0
220
0.0
230
1.0
 70
     8
 71
     3
 72
    16
 73
    12
 74
     0
 42
0.000000001
 43
0.0
 40
0.0
 40
0.0
 40
0.0
 40
0.0
 40
2.259759896306659
 40
4.108944906614266
 40
5.530866093185897
 40
6.489109289931083
 40
8.432353261357658
 40
10.15880924813648
 40
11.15245887467375
 40
12.1475843968807
 40
12.9016798051796
 40
12.9016798051796
 40
12.9016798051796
 40
12.9016798051796
 10
265.6824379628397
 20
220.2294623067995
 30
0.0
 10
265.6824989763342
 20
220.9824289755616
 30
0.0
 10
265.6305937414884
 20
222.3531262118641
 30
0.0
 10
265.3656418046612
 20
224.1804470311489
 30
0.0
 10
265.0111090313996
 20
225.5468129522569
 30
0.0
 10
264.5329277634469
 20
226.9072441732939
 30
0.0
 10
263.8783018147593
 20
228.3072893949969
 30
0.0
 10
263.0798864140456
 20
229.6424453615562
 30
0.0
 10
262.3913157460095
 20
230.6719290579143
 30
0.0
 10
261.8632025838344
 20
231.4183454570056
 30
0.0
 10
261.5193456856254
 20
231.8892381581163
 30
0.0
 10
261.3702332641169
 20
232.0916004453274
 30
0.0
  0
LINE
  5
1A5
330
183
100
AcDbEntity
  8
0
  6
Continuous
 62
     0
370
    30
100
AcDbLine
 10
265.679239
 20
180.752198
 30
0.0
 11
265.682438
 21
220.229462
 31
0.0
  0
LINE
  5
1A6
330
183
100
AcDbEntity
  8
0
  6
Continuous
 62
     0
370
    30
100
AcDbLine
 10
265.678632
 20
173.25221
 30
0.0
 11
265.67924
 21
180.752199
 31
0.0
  0
LINE
  5
1A7
330
183
100
AcDbEntity
  8
0
  6
Continuous
 62
     0
370
    30
100
AcDbLine
 10
265.6778
 20
160.002015
 30
0.0
 11
265.678875
 21
173.252201
 31
0.0
  0
ARC
  5
1A8
330
183
100
AcDbEntity
  8
0
  6
Continuous
 62
     0
370
     0
100
AcDbCircle
 10
275.68479
 20
246.344147
 30
0.0
 40
26.77381252757334
100
AcDbArc
 50
94.279334
 51
247.991874
  0
ARC
  5
1A9
330
183
100
AcDbEntity
  8
0
  6
Continuous
 62
     0
370
     0
100
AcDbCircle
 10
275.68479
 20
246.344147
 30
0.0
 40
26.77381252757334
100
AcDbArc
 50
291.998841
 51
85.71138
  0
ARC
  5
1AA
330
183
100
AcDbEntity
  8
0
  6
Continuous
 62
     0
370
     0
100
AcDbCircle
 10
275.68479
 20
246.344147
 30
0.0
 40
26.97380497977826
100
AcDbArc
 50
94.247512
 51
248.186213
  0
ARC
  5
1AB
330
183
100
AcDbEntity
  8
0
  6
Continuous
 62
     0
370
     0
100
AcDbCircle
 10
275.68479
 20
246.344147
 30
0.0
 40
26.97380497977826
100
AcDbArc
 50
291.804502
 51
85.743201
  0
ARC
  5
1AC
330
183
100
AcDbEntity
  8
0
  6
Continuous
 62
     0
370
    30
100
AcDbCircle
 10
275.68479
 20
246.344147
 30
0.0
 40
27.00000179246894
100
AcDbArc
 50
94.243379
 51
248.21108
  0
ARC
  5
1AD
330
183
100
AcDbEntity
  8
0
  6
Continuous
 62
     0
370
    30
100
AcDbCircle
 10
275.68479
 20
246.344147
 30
0.0
 40
27.00000179246894
100
AcDbArc
 50
291.779635
 51
85.747334
  0
LINE
  5
1AE
330
183
100
AcDbEntity
  8
0
  6
Continuous
 62
     0
370
    30
100
AcDbLine
 10
273.687341
 20
277.829568
 30
0.0
 11
273.687745
 21
282.814259
 31
0.0
  0
LINE
  5
1AF
330
183
100
AcDbEntity
  8
0
  6
Continuous
 62
     0
370
     0
100
AcDbLine
 10
277.687746
 20
282.813935
 30
0.0
 11
273.687746
 21
282.814259
 31
0.0
  0
ELLIPSE
  5
1B0
330
183
100
AcDbEntity
  8
0
  6
Continuous
 62
     0
370
     0
100
AcDbEllipse
 10
275.687342
 20
277.829406
 30
0.0
 11
-1.999999993422565
 21
0.0001622027726255371
 31
0.0
210
0.0
220
0.0
230
1.0
 40
0.906308
 41
0.0000000696726232
 42
3.14159272326241
  0
LINE
  5
1B1
330
183
100
AcDbEntity
  8
0
  6
Continuous
 62
     0
370
    30
100
AcDbLine
 10
277.188677
 20
294.309226
 30
0.0
 11
274.188677
 21
294.309469
 31
0.0
  0
LINE
  5
1B2
330
183
100
AcDbEntity
  8
0
  6
Continuous
 62
     0
370
    30
100
AcDbLine
 10
273.687746
 20
282.814259
 30
0.0
 11
273.688637
 21
293.80951
 31
0.0
  0
LINE
  5
1B3
330
183
100
AcDbEntity
  8
0
  6
Continuous
 62
     0
370
    30
100
AcDbLine
 10
273.688637
 20
293.80951
 30
0.0
 11
277.688637
 21
293.809185
 31
0.0
  0
LINE
  5
1B4
330
183
100
AcDbEntity
  8
0
  6
Continuous
 62
     0
370
    30
100
AcDbLine
 10
273.688637
 20
293.80951
 30
0.0
 11
274.188677
 21
294.309469
 31
0.0
  0
LINE
  5
1B5
330
183
100
AcDbEntity
  8
0
  6
Continuous
 62
     0
370
    30
100
AcDbLine
 10
273.686418
 20
266.445003
 30
0.0
 11
273.687342
 21
277.829568
 31
0.0
  0
LINE
  5
1B6
330
183
100
AcDbEntity
  8
0
  6
Continuous
 62
     0
370
    30
100
AcDbLine
 10
277.687342
 20
277.829243
 30
0.0
 11
277.686418
 21
266.444679
 31
0.0
  0
LINE
  5
1B7
330
183
100
AcDbEntity
  8
0
  6
Continuous
 62
     0
370
    30
100
AcDbLine
 10
277.688637
 20
293.809185
 30
0.0
 11
277.188677
 21
294.309226
 31
0.0
  0
LINE
  5
1B8
330
183
100
AcDbEntity
  8
0
  6
Continuous
 62
     0
370
    30
100
AcDbLine
 10
277.688637
 20
293.809185
 30
0.0
 11
277.687746
 21
282.813935
 31
0.0
  0
LINE
  5
1B9
330
183
100
AcDbEntity
  8
0
  6
Continuous
 62
     0
370
    30
100
AcDbLine
 10
277.687746
 20
282.813935
 30
0.0
 11
277.687342
 21
277.829244
 31
0.0
  0
ELLIPSE
  5
1BA
330
183
100
AcDbEntity
  8
0
  6
Continuous
 62
     0
370
    30
100
AcDbEllipse
 10
275.675856
 20
136.081001
 30
0.0
 11
9.77499892772215
 21
0.0
 31
0.0
210
0.0
220
0.0
230
-1.0
 40
0.500001
 41
1.570796326794897
 42
2.540506687955808
  0
ELLIPSE
  5
1BB
330
183
100
AcDbEntity
  8
0
  6
Continuous
 62
     0
370
    30
100
AcDbEllipse
 10
275.675856
 20
136.081001
 30
0.0
 11
9.77499892772215
 21
0.0
 31
0.0
210
0.0
220
0.0
230
-1.0
 40
0.500001
 41
0.6010859656340005
 42
1.570796326794896
  0
ELLIPSE
  5
1BC
330
183
100
AcDbEntity
  8
0
  6
Continuous
 62
     0
370
    30
100
AcDbEllipse
 10
275.675856
 20
136.254206
 30
0.0
 11
9.974998936290483
 21
0.0
 31
0.0
210
0.0
220
0.0
230
-1.0
 40
0.500001
 41
1.570796326794897
 42
3.141592632269301
  0
ELLIPSE
  5
1BD
330
183
100
AcDbEntity
  8
0
  6
Continuous
 62
     0
370
    30
100
AcDbEllipse
 10
275.675856
 20
136.254206
 30
0.0
 11
9.974998936290483
 21
0.0
 31
0.0
210
0.0
220
0.0
230
-1.0
 40
0.500001
 41
0.0000000213204928
 42
1.570796326794896
  0
ELLIPSE
  5
1BE
330
183
100
AcDbEntity
  8
0
  6
Continuous
 62
     0
370
     0
100
AcDbEllipse
 10
275.675856
 20
156.865602
 30
0.0
 11
9.974999815179796
 21
0.0
 31
0.0
210
0.0
220
0.0
230
-1.0
 40
0.500001
 41
1.570796326794897
 42
3.141592673913243
  0
ELLIPSE
  5
1BF
330
183
100
AcDbEntity
  8
0
  6
Continuous
 62
     0
370
     0
100
AcDbEllipse
 10
275.675856
 20
156.865602
 30
0.0
 11
9.974999815179796
 21
0.0
 31
0.0
210
0.0
220
0.0
230
-1.0
 40
0.500001
 41
-0.0000000843058112
 42
1.570796326794896
  0
ELLIPSE
  5
1C0
330
183
100
AcDbEntity
  8
0
  6
Continuous
 62
     0
370
     0
100
AcDbEllipse
 10
275.675856
 20
157.731627
 30
0.0
 11
8.974999828838016
 21
0.0
 31
0.0
210
0.0
220
0.0
230
-1.0
 40
0.500001
 41
1.570796326794896
 42
3.15630902598222
  0
ELLIPSE
  5
1C1
330
183
100
AcDbEntity
  8
0
  6
Continuous
 62
     0
370
     0
100
AcDbEllipse
 10
275.675856
 20
157.731627
 30
0.0
 11
8.974999828838016
 21
0.0
 31
0.0
210
0.0
220
0.0
230
-1.0
 40
0.500001
 41
6.269558595490754
 42
7.853981633974482
  0
SPLINE
  5
1C2
330
183
100
AcDbEntity
  8
0
  6
Continuous
 62
     0
370
    30
100
AcDbSpline
210
0.0
220
0.0
230
1.0
 70
     8
 71
     3
 72
    10
 73
     6
 74
     0
 42
0.000000001
 43
0.0
 40
27.81754510335462
 40
27.81754510335462
 40
27.81754510335462
 40
27.81754510335462
 40
28.4944773964374
 40
29.39655732825334
 40
30.47037006632448
 40
30.47037006632448
 40
30.47037006632448
 40
30.47037006632448
 10
285.2217242587611
 20
158.5078700871207
 30
0.0
 10
285.2924457787049
 20
158.3766947809012
 30
0.0
 10
285.4387735610536
 20
158.0640869027544
 30
0.0
 10
285.6055947954053
 20
157.5177280658442
 30
0.0
 10
285.650856210914
 20
157.0944708307013
 30
0.0
 10
285.6508562270862
 20
156.8656024367657
 30
0.0
  0
SPLINE
  5
1C3
330
183
100
AcDbEntity
  8
0
  6
Continuous
 62
     0
370
    30
100
AcDbSpline
210
0.0
220
0.0
230
1.0
 70
     8
 71
     3
 72
    10
 73
     6
 74
     0
 42
0.000000001
 43
0.0
 40
0.0
 40
0.0
 40
0.0
 40
0.0
 40
1.123367926241464
 40
2.190756091202906
 40
2.659742205090077
 40
2.659742205090077
 40
2.659742205090077
 40
2.659742205090077
 10
265.7008565967266
 20
156.8656020917622
 30
0.0
 10
265.7008565881389
 20
157.1050195696324
 30
0.0
 10
265.7533656335921
 20
157.5742488885335
 30
0.0
 10
265.9347249211385
 20
158.1191101480445
 30
0.0
 10
266.0830235956326
 20
158.4209859697704
 30
0.0
 10
266.1321328685756
 20
158.5117971381742
 30
0.0
  0
LINE
  5
1C4
330
183
100
AcDbEntity
  8
0
  6
Continuous
 62
     0
370
    30
100
AcDbLine
 10
265.700857
 20
136.254206
 30
0.0
 11
265.700857
 21
156.865602
 31
0.0
  0
LINE
  5
1C5
330
183
100
AcDbEntity
  8
0
  6
Continuous
 62
     0
370
    30
100
AcDbLine
 10
285.650855
 20
136.254206
 30
0.0
 11
285.650856
 21
156.865602
 31
0.0
  0
ENDBLK
  5
1C7
330
183
100
AcDbEntity
  8
0
100
AcDbBlockEnd
  0
BLOCK
  5
229
330
1C9
100
AcDbEntity
  8
0
100
AcDbBlockBegin
  2
c
 70
     0
 10
197.940079
 20
128.689468
 30
0.0
  3
c
  1

  0
LINE
  5
1CA
330
1C9
100
AcDbEntity
  8
0
  6
Continuous
 62
     0
370
     0
100
AcDbLine
 10
531.071389
 20
499.306454
 30
0.0
 11
531.07139
 21
503.806454
 31
0.0
  0
LINE
  5
1CB
330
1C9
100
AcDbEntity
  8
0
  6
Continuous
 62
     0
370
     0
100
AcDbLine
 10
531.07139
 20
503.806454
 30
0.0
 11
531.071391
 21
508.306454
 31
0.0
  0
LINE
  5
1CC
330
1C9
100
AcDbEntity
  8
0
  6
Continuous
 62
     0
370
     0
100
AcDbLine
 10
530.571389
 20
498.806454
 30
0.0
 11
530.57139
 21
503.806454
 31
0.0
  0
LINE
  5
1CD
330
1C9
100
AcDbEntity
  8
0
  6
Continuous
 62
     0
370
     0
100
AcDbLine
 10
530.57139
 20
503.806454
 30
0.0
 11
530.571391
 21
508.806454
 31
0.0
  0
LINE
  5
1CE
330
1C9
100
AcDbEntity
  8
0
  6
Continuous
 62
     0
370
     0
100
AcDbLine
 10
477.270986
 20
503.806469
 30
0.0
 11
477.271391
 21
508.806469
 31
0.0
  0
SPLINE
  5
1CF
330
1C9
100
AcDbEntity
  8
0
  6
Continuous
 62
     0
370
     0
100
AcDbSpline
210
0.0
220
0.0
230
1.0
 70
    12
 71
     2
 72
     8
 73
     5
 74
     0
 42
0.000000001
 43
0.0
 40
0.0
 40
0.0
 40
0.0
 40
0.5
 40
0.5
 40
1.0
 40
1.0
 40
1.0
 10
477.2713882323885
 20
498.8064692805729
 30
0.0
 41
1.0
 10
477.2712211376581
 20
498.8064657491034
 30
0.0
 41
0.9238793686940128
 10
477.2711034610167
 20
500.2709323729927
 30
0.0
 41
1.0
 10
477.2709857843753
 20
501.7353989968819
 30
0.0
 41
0.9238793686940128
 10
477.270986459346
 20
503.8064693163526
 30
0.0
 41
1.0
  0
SPLINE
  5
1D0
330
1C9
100
AcDbEntity
  8
0
  6
Continuous
 62
     0
370
    30
100
AcDbSpline
210
0.0
220
0.0
230
1.0
 70
     8
 71
     7
 72
    21
 73
    13
 74
     0
 42
0.000000001
 43
0.0
 40
0.0
 40
0.0
 40
0.0
 40
0.0
 40
0.0
 40
0.0
 40
0.0
 40
0.0
 40
0.6599999999999999
 40
0.6599999999999999
 40
0.6599999999999999
 40
0.6599999999999999
 40
0.6599999999999999
 40
1.0
 40
1.0
 40
1.0
 40
1.0
 40
1.0
 40
1.0
 40
1.0
 40
1.0
 10
473.4713927460515
 20
512.406122031301
 30
0.0
 10
473.4713925725692
 20
511.8407660966233
 30
0.0
 10
473.5279466434506
 20
511.2754101445918
 30
0.0
 10
473.6597625097618
 20
510.7236164107546
 30
0.0
 10
473.883963022193
 20
510.1633174169722
 30
0.0
 10
474.2849853806892
 20
509.7135868218992
 30
0.0
 10
475.0042126845315
 20
509.2191910982444
 30
0.0
 10
475.8241698269156
 20
508.9566476840342
 30
0.0
 10
476.1095995520478
 20
508.8916300788505
 30
0.0
 10
476.3983069051702
 20
508.84682443129
 30
0.0
 10
476.6889033704128
 20
508.8192625870499
 30
0.0
 10
476.9801473321319
 20
508.8064693642489
 30
0.0
 10
477.2713912975331
 20
508.806469280563
 30
0.0
  0
SPLINE
  5
1D1
330
1C9
100
AcDbEntity
  8
0
  6
Continuous
 62
     0
370
     0
100
AcDbSpline
210
0.0
220
0.0
230
1.0
 70
     8
 71
     7
 72
    41
 73
    33
 74
     0
 42
0.000000001
 43
0.0
 40
0.0
 40
0.0
 40
0.0
 40
0.0
 40
0.0
 40
0.0
 40
0.0
 40
0.0
 40
0.24
 40
0.24
 40
0.24
 40
0.24
 40
0.24
 40
0.4072
 40
0.4072
 40
0.4072
 40
0.4072
 40
0.4072
 40
0.49149616
 40
0.49149616
 40
0.49149616
 40
0.49149616
 40
0.49149616
 40
0.500000409248974
 40
0.500000409248974
 40
0.500000409248974
 40
0.500000409248974
 40
0.500000409248974
 40
0.875512
 40
0.875512
 40
0.875512
 40
0.875512
 40
0.875512
 40
1.0
 40
1.0
 40
1.0
 40
1.0
 40
1.0
 40
1.0
 40
1.0
 40
1.0
 10
473.4713872205756
 20
494.4061332616736
 30
0.0
 10
473.4713080651235
 20
494.4064050252918
 30
0.0
 10
473.4156356841138
 20
494.5294430163616
 30
0.0
 10
473.3042231768059
 20
494.7769221103767
 30
0.0
 10
473.1446155802914
 20
495.1449031783077
 30
0.0
 10
472.9483419177603
 20
495.6127347214517
 30
0.0
 10
472.5796756022889
 20
496.5757505406008
 30
0.0
 10
472.1936671794557
 20
497.7861742231889
 30
0.0
 10
472.0373952233211
 20
498.3210308229008
 30
0.0
 10
471.8886723945172
 20
498.8907438217133
 30
0.0
 10
471.7537719998356
 20
499.4925897822588
 30
0.0
 10
471.580878734877
 20
500.4384424445392
 30
0.0
 10
471.4614886634791
 20
501.4299905524888
 30
0.0
 10
471.4279722079492
 20
501.7666402292026
 30
0.0
 10
471.4014783201331
 20
502.1066748321364
 30
0.0
 10
471.3821144661842
 20
502.4492148831733
 30
0.0
 10
471.3693599506701
 20
502.8279765299384
 30
0.0
 10
471.3660189970762
 20
503.2072670656891
 30
0.0
 10
471.3657918188907
 20
503.2420286929603
 30
0.0
 10
471.3656435478808
 20
503.2767926044034
 30
0.0
 10
471.3655740904336
 20
503.3115577247475
 30
0.0
 10
471.3659917533742
 20
504.8814093254247
 30
0.0
 10
471.5266519503167
 20
506.4493589922778
 30
0.0
 10
471.8266736931254
 20
507.8887155408504
 30
0.0
 10
472.2100508275522
 20
509.1543696029792
 30
0.0
 10
472.5949457569294
 20
510.2425064425225
 30
0.0
 10
473.0435770532412
 20
511.3934562386129
 30
0.0
 10
473.3242527180851
 20
512.0591059292954
 30
0.0
 10
473.3821693223197
 20
512.1915832151599
 30
0.0
 10
473.4263930971425
 20
512.2945144650846
 30
0.0
 10
473.4563535642188
 20
512.3664416812346
 30
0.0
 10
473.4713516878449
 20
512.4040965483489
 30
0.0
 10
473.4713927460515
 20
512.406122031301
 30
0.0
  0
SPLINE
  5
1D2
330
1C9
100
AcDbEntity
  8
0
  6
Continuous
 62
     0
370
    30
100
AcDbSpline
210
0.0
220
0.0
230
1.0
 70
     8
 71
     7
 72
    21
 73
    13
 74
     0
 42
0.000000001
 43
0.0
 40
0.0000000287205835
 40
0.0000000287205835
 40
0.0000000287205835
 40
0.0000000287205835
 40
0.0000000287205835
 40
0.0000000287205835
 40
0.0000000287205835
 40
0.0000000287205835
 40
0.34
 40
0.34
 40
0.34
 40
0.34
 40
0.34
 40
1.0
 40
1.0
 40
1.0
 40
1.0
 40
1.0
 40
1.0
 40
1.0
 40
1.0
 10
477.2713882313157
 20
498.8064692805679
 30
0.0
 10
476.9452948690796
 20
498.8064693658989
 30
0.0
 10
476.6192015024698
 20
498.7899577729233
 30
0.0
 10
476.2939732129451
 20
498.7536178503204
 30
0.0
 10
475.9724361811844
 20
498.693534905466
 30
0.0
 10
475.6553456439539
 20
498.60386761497
 30
0.0
 10
474.7616037950933
 20
498.2322260241028
 30
0.0
 10
474.0560590795453
 20
497.5371616340034
 30
0.0
 10
473.7443721785897
 20
496.9193207751135
 30
0.0
 10
473.6078847496371
 20
496.3020594406983
 30
0.0
 10
473.5091922254572
 20
495.672142885107
 30
0.0
 10
473.4713874148896
 20
495.0391380791928
 30
0.0
 10
473.4713872205756
 20
494.4061332616736
 30
0.0
  0
LINE
  5
1D3
330
1C9
100
AcDbEntity
  8
0
  6
Continuous
 62
     0
370
    30
100
AcDbLine
 10
473.471393
 20
512.406122
 30
0.0
 11
473.471394
 21
515.30647
 31
0.0
  0
LINE
  5
1D4
330
1C9
100
AcDbEntity
  8
0
  6
Continuous
 62
     0
370
     0
100
AcDbLine
 10
473.471394
 20
515.30647
 30
0.0
 11
453.269762
 21
515.306476
 31
0.0
  0
LINE
  5
1D5
330
1C9
100
AcDbEntity
  8
0
  6
Continuous
 62
     0
370
     0
100
AcDbLine
 10
453.269762
 20
515.306476
 30
0.0
 11
433.071394
 21
515.306482
 31
0.0
  0
LINE
  5
1D6
330
1C9
100
AcDbEntity
  8
0
  6
Continuous
 62
     0
370
    30
100
AcDbLine
 10
433.071384
 20
485.306482
 30
0.0
 11
473.471384
 21
485.30647
 31
0.0
  0
LINE
  5
1D7
330
1C9
100
AcDbEntity
  8
0
  6
Continuous
 62
     0
370
    30
100
AcDbLine
 10
473.471384
 20
485.30647
 30
0.0
 11
473.471387
 21
494.406133
 31
0.0
  0
LINE
  5
1D8
330
1C9
100
AcDbEntity
  8
0
  6
Continuous
 62
     0
370
    30
100
AcDbLine
 10
433.571394
 20
515.806482
 30
0.0
 11
453.269803
 21
515.806476
 31
0.0
  0
LINE
  5
1D9
330
1C9
100
AcDbEntity
  8
0
  6
Continuous
 62
     0
370
    30
100
AcDbLine
 10
453.269803
 20
515.806476
 30
0.0
 11
472.971394
 21
515.80647
 31
0.0
  0
ARC
  5
1DA
330
1C9
100
AcDbEntity
  8
0
  6
Continuous
 62
     0
370
    30
100
AcDbCircle
 10
433.571414
 20
515.306462
 30
0.0
 40
0.5000199794239872
100
AcDbArc
 50
90.006624
 51
179.997693
  0
ARC
  5
1DB
330
1C9
100
AcDbEntity
  8
0
  6
Continuous
 62
     0
370
    30
100
AcDbCircle
 10
472.971374
 20
515.30645
 30
0.0
 40
0.5000199794310043
100
AcDbArc
 50
0.002272
 51
89.993342
  0
LINE
  5
1DC
330
1C9
100
AcDbEntity
  8
0
  6
Continuous
 62
     0
370
    30
100
AcDbLine
 10
433.071384
 20
485.306482
 30
0.0
 11
433.071394
 21
515.306482
 31
0.0
  0
LINE
  5
1DD
330
1C9
100
AcDbEntity
  8
0
  6
Continuous
 62
     0
370
    30
100
AcDbLine
 10
530.571392
 20
508.806454
 30
0.0
 11
477.271391
 21
508.806469
 31
0.0
  0
LINE
  5
1DE
330
1C9
100
AcDbEntity
  8
0
  6
Continuous
 62
     0
370
    30
100
AcDbLine
 10
530.571389
 20
498.806454
 30
0.0
 11
477.271388
 21
498.806469
 31
0.0
  0
ARC
  5
1DF
330
1C9
100
AcDbEntity
  8
0
  6
Continuous
 62
     0
370
    30
100
AcDbCircle
 10
530.571364
 20
508.306436
 30
0.0
 40
0.5000177355452933
100
AcDbArc
 50
2.652553
 51
89.996846
  0
ARC
  5
1E0
330
1C9
100
AcDbEntity
  8
0
  6
Continuous
 62
     0
370
    30
100
AcDbCircle
 10
530.571361
 20
499.306472
 30
0.0
 40
0.5000177355474931
100
AcDbArc
 50
270.003121
 51
357.347414
  0
SPLINE
  5
1E1
330
1C9
100
AcDbEntity
  8
0
  6
Continuous
 62
     0
370
    30
100
AcDbSpline
210
0.0
220
0.0
230
1.0
 70
     8
 71
     3
 72
    12
 73
     8
 74
     0
 42
0.000000001
 43
0.0
 40
0.0
 40
0.0
 40
0.0
 40
0.0
 40
0.111099996301738
 40
0.333299988905213
 40
0.666630540312696
 40
0.8888768467708988
 40
1.0
 40
1.0
 40
1.0
 40
1.0
 10
442.0406215219967
 20
484.2291766153647
 30
0.0
 10
442.0397004385657
 20
484.2142167692145
 30
0.0
 10
442.0504286002132
 20
484.1793949716654
 30
0.0
 10
442.1568605407906
 20
484.1666510564532
 30
0.0
 10
442.4367505248831
 20
484.2615465389234
 30
0.0
 10
442.7596600247433
 20
484.4538790554066
 30
0.0
 10
442.9229430819307
 20
484.5819180989902
 30
0.0
 10
442.9768073935095
 20
484.6282155321031
 30
0.0
  0
SPLINE
  5
1E2
330
1C9
100
AcDbEntity
  8
0
  6
Continuous
 62
     0
370
    30
100
AcDbSpline
210
0.0
220
0.0
230
1.0
 70
     8
 71
     3
 72
    10
 73
     6
 74
     0
 42
0.000000001
 43
0.0
 40
0.0
 40
0.0
 40
0.0
 40
0.0
 40
0.333333333333333
 40
0.666666666666667
 40
1.0
 40
1.0
 40
1.0
 40
1.0
 10
442.0722106599389
 20
484.5230065518071
 30
0.0
 10
442.0686779140858
 20
484.5230065529585
 30
0.0
 10
442.0611926425162
 20
484.4968394346084
 30
0.0
 10
442.0510735299491
 20
484.3877529926964
 30
0.0
 10
442.0440953051362
 20
484.284527915351
 30
0.0
 10
442.0406194951952
 20
484.2291749807609
 30
0.0
  0
LINE
  5
1E3
330
1C9
100
AcDbEntity
  8
0
  6
Continuous
 62
     0
370
     0
100
AcDbLine
 10
442.976807
 20
484.628216
 30
0.0
 11
464.382868
 21
484.628209
 31
0.0
  0
ARC
  5
1E4
330
1C9
100
AcDbEntity
  8
0
  6
Continuous
 62
     0
370
     0
100
AcDbCircle
 10
422.481521
 20
508.251949
 30
0.0
 40
31.27519133628962
100
AcDbArc
 50
310.943986
 51
312.805587
  0
SPLINE
  5
1E5
330
1C9
100
AcDbEntity
  8
0
  6
Continuous
 62
     0
370
    30
100
AcDbSpline
210
0.0
220
0.0
230
1.0
 70
     8
 71
     3
 72
    10
 73
     6
 74
     0
 42
0.000000001
 43
0.0
 40
18.75838921056838
 40
18.75838921056838
 40
18.75838921056838
 40
18.75838921056838
 40
18.99741885493324
 40
19.41302141447939
 40
19.82833813574984
 40
19.82833813574984
 40
19.82833813574984
 40
19.82833813574984
 10
442.7981906087027
 20
485.3064793916731
 30
0.0
 10
442.7425740564558
 20
485.2494557621098
 30
0.0
 10
442.5912025821816
 20
485.0923814355987
 30
0.0
 10
442.3482945941818
 20
484.8314706095599
 30
0.0
 10
442.1606602591198
 20
484.6275724959298
 30
0.0
 10
442.0708442384611
 20
484.5222521674226
 30
0.0
  0
ARC
  5
1E6
330
1C9
100
AcDbEntity
  8
0
  6
Continuous
 62
     0
370
    30
100
AcDbCircle
 10
453.268408
 20
475.703835
 30
0.0
 40
14.25396954855596
100
AcDbArc
 50
38.762779
 51
42.351856
  0
ARC
  5
1E7
330
1C9
100
AcDbEntity
  8
0
  6
Continuous
 62
     0
370
    30
100
AcDbCircle
 10
466.722533
 20
486.507139
 30
0.0
 40
3.000736019631104
100
AcDbArc
 50
218.767132
 51
259.027807
  0
ARC
  5
1E8
330
1C9
100
AcDbEntity
  8
0
  6
Continuous
 62
     0
370
    30
100
AcDbCircle
 10
439.820814
 20
486.506205
 30
0.0
 40
2.999690241546616
100
AcDbArc
 50
280.96375
 51
318.587985
  0
LINE
  5
1E9
330
1C9
100
AcDbEntity
  8
0
  6
Continuous
 62
     0
370
     0
100
AcDbLine
 10
531.364098
 20
469.711872
 30
0.0
 11
521.364092
 21
452.391382
 31
0.0
  0
LINE
  5
1EA
330
1C9
100
AcDbEntity
  8
0
  6
Continuous
 62
     0
370
    30
100
AcDbLine
 10
521.364093
 20
452.391382
 30
0.0
 11
534.614279
 21
444.741371
 31
0.0
  0
LINE
  5
1EB
330
1C9
100
AcDbEntity
  8
0
  6
Continuous
 62
     0
370
    30
100
AcDbLine
 10
534.614279
 20
444.741371
 30
0.0
 11
544.614285
 21
462.061861
 31
0.0
  0
LINE
  5
1EC
330
1C9
100
AcDbEntity
  8
0
  6
Continuous
 62
     0
370
    30
100
AcDbLine
 10
544.614285
 20
462.061861
 30
0.0
 11
531.364098
 21
469.711872
 31
0.0
  0
ARC
  5
1ED
330
1C9
100
AcDbEntity
  8
0
  6
Continuous
 62
     0
370
    30
100
AcDbCircle
 10
518.864208
 20
448.061678
 30
0.0
 40
4.999327139405754
100
AcDbArc
 50
59.998738
 51
90.001323
  0
ARC
  5
1EE
330
1C9
100
AcDbEntity
  8
0
  6
Continuous
 62
     0
370
    30
100
AcDbCircle
 10
518.864678
 20
448.06343
 30
0.0
 40
24.99804606046858
100
AcDbArc
 50
59.998639
 51
90.001323
  0
LINE
  5
1EF
330
1C9
100
AcDbEntity
  8
0
  6
Continuous
 62
     0
370
     0
100
AcDbLine
 10
518.864101
 20
473.061476
 30
0.0
 11
518.864093
 21
453.061005
 31
0.0
  0
LINE
  5
1F0
330
1C9
100
AcDbEntity
  8
0
  6
Continuous
 62
     0
370
    30
100
AcDbLine
 10
518.864101
 20
473.061476
 30
0.0
 11
479.386836
 21
473.061489
 31
0.0
  0
LINE
  5
1F1
330
1C9
100
AcDbEntity
  8
0
  6
Continuous
 62
     0
370
     0
100
AcDbLine
 10
479.386836
 20
473.061489
 30
0.0
 11
479.38683
 21
453.302505
 31
0.0
  0
LINE
  5
1F2
330
1C9
100
AcDbEntity
  8
0
  6
Continuous
 62
     0
370
     0
100
AcDbLine
 10
479.38683
 20
453.302505
 30
0.0
 11
479.38683
 21
453.061018
 31
0.0
  0
LINE
  5
1F3
330
1C9
100
AcDbEntity
  8
0
  6
Continuous
 62
     0
370
    30
100
AcDbLine
 10
479.38683
 20
453.061018
 30
0.0
 11
518.864093
 21
453.061005
 31
0.0
  0
SPLINE
  5
1F4
330
1C9
100
AcDbEntity
  8
0
  6
Continuous
 62
     0
370
    30
100
AcDbSpline
210
0.0
220
0.0
230
1.0
 70
     8
 71
     3
 72
    12
 73
     8
 74
     0
 42
0.000000001
 43
0.0
 40
0.0
 40
0.0
 40
0.0
 40
0.0
 40
0.108060844156476
 40
0.324182532469428
 40
0.657504398314074
 40
0.8858347994380249
 40
1.0
 40
1.0
 40
1.0
 40
1.0
 10
479.3868364996662
 20
473.0612534217331
 30
0.0
 10
479.1997787905852
 20
473.0612534826954
 30
0.0
 10
478.6386056592237
 20
473.0914729661964
 30
0.0
 10
477.510775084688
 20
473.3333641165658
 30
0.0
 10
476.2874593683063
 20
473.9269303184287
 30
0.0
 10
475.3612299486805
 20
474.6600792003339
 30
0.0
 10
474.9477914231238
 20
475.085813514418
 30
0.0
 10
474.8164832571176
 20
475.2335079534354
 30
0.0
  0
SPLINE
  5
1F5
330
1C9
100
AcDbEntity
  8
0
  6
Continuous
 62
     0
370
    30
100
AcDbSpline
210
0.0
220
0.0
230
1.0
 70
     8
 71
     3
 72
    12
 73
     8
 74
     0
 42
0.000000001
 43
0.0
 40
0.0
 40
0.0
 40
0.0
 40
0.0
 40
0.111878207983159
 40
0.3356346239494771
 40
0.6716088709211739
 40
0.8905362903070578
 40
1.0
 40
1.0
 40
1.0
 40
1.0
 10
474.8164832571176
 20
475.2335079534354
 30
0.0
 10
474.71218478349
 20
475.3508220933045
 30
0.0
 10
474.4116011001244
 20
475.7137102989784
 30
0.0
 10
473.8878458998973
 20
476.5046191309686
 30
0.0
 10
473.4635734183402
 20
477.5208374889464
 30
0.0
 10
473.2923762529546
 20
478.4469092603032
 30
0.0
 10
473.2713818792006
 20
478.9076675328652
 30
0.0
 10
473.2713819282569
 20
479.0612536207798
 30
0.0
  0
LINE
  5
1F6
330
1C9
100
AcDbEntity
  8
0
  6
Continuous
 62
     0
370
    30
100
AcDbLine
 10
473.271382
 20
479.061254
 30
0.0
 11
473.264682
 21
479.052548
 31
0.0
  0
SPLINE
  5
1F7
330
1C9
100
AcDbEntity
  8
0
  6
Continuous
 62
     0
370
     0
100
AcDbSpline
210
0.0
220
0.0
230
1.0
 70
     8
 71
     3
 72
    28
 73
    24
 74
     0
 42
0.000000001
 43
0.0
 40
0.0
 40
0.0
 40
0.0
 40
0.0
 40
0.022974722925368
 40
0.068924168776103
 40
0.138383050440772
 40
0.208259309146492
 40
0.278522310787637
 40
0.349845994210091
 40
0.3862749898838241
 40
0.4234712484003679
 40
0.461647463797892
 40
0.5006445978749949
 40
0.539485567932475
 40
0.5773717009127141
 40
0.614342053033454
 40
0.65060679774727
 40
0.6863921895539858
 40
0.7218151075249959
 40
0.7920069693519259
 40
0.8618295664809
 40
0.931192272650755
 40
0.9770640908835851
 40
1.0
 40
1.0
 40
1.0
 40
1.0
 10
473.2646817678282
 20
479.0525478883792
 30
0.0
 10
473.2542458547177
 20
479.0392125655756
 30
0.0
 10
473.1863358029861
 20
478.9531987584948
 30
0.0
 10
472.8307672431732
 20
478.5073307101425
 30
0.0
 10
471.9279274128733
 20
477.3605931756613
 30
0.0
 10
470.5025191419362
 20
475.4572676695275
 30
0.0
 10
468.8488579860218
 20
473.0606401206697
 30
0.0
 10
467.4378955810864
 20
470.6891797588458
 30
0.0
 10
466.4310267758385
 20
468.536087823324
 30
0.0
 10
465.7859513369602
 20
466.7544486336041
 30
0.0
 10
465.3433891627586
 20
464.8150351150143
 30
0.0
 10
465.2113184248098
 20
462.7688042854597
 30
0.0
 10
465.4431282002048
 20
460.7429180969514
 30
0.0
 10
465.9527980447704
 20
458.8455864973979
 30
0.0
 10
466.6387017813785
 20
457.109091350982
 30
0.0
 10
467.4209568251711
 20
455.5220148281932
 30
0.0
 10
468.2514562600655
 20
454.0697891555037
 30
0.0
 10
469.3663857658725
 20
452.2994027861147
 30
0.0
 10
470.7243605468692
 20
450.3618616278803
 30
0.0
 10
472.1021123431559
 20
448.5394672294224
 30
0.0
 10
472.9393941011311
 20
447.482672729549
 30
0.0
 10
473.2346992884349
 20
447.1091835797674
 30
0.0
 10
473.271291931798
 20
447.0618600484466
 30
0.0
 10
473.2713715015163
 20
447.0613439707816
 30
0.0
  0
SPLINE
  5
1F8
330
1C9
100
AcDbEntity
  8
0
  6
Continuous
 62
     0
370
    30
100
AcDbSpline
210
0.0
220
0.0
230
1.0
 70
     8
 71
     3
 72
    16
 73
    12
 74
     0
 42
0.000000001
 43
0.0
 40
0.0
 40
0.0
 40
0.0
 40
0.0
 40
0.047816995161528
 40
0.143450985484584
 40
0.29023355597465
 40
0.436964789611444
 40
0.5820147577438199
 40
0.724381825707848
 40
0.8635464089569771
 40
0.9545154696523259
 40
1.0
 40
1.0
 40
1.0
 40
1.0
 10
473.2713715015163
 20
447.0613439707816
 30
0.0
 10
473.2713715520703
 20
447.21133299691
 30
0.0
 10
473.2930992407647
 20
447.6613000711583
 30
0.0
 10
473.4652103242876
 20
448.5647379289008
 30
0.0
 10
473.934325736275
 20
449.7014082091227
 30
0.0
 10
474.7202276123136
 20
450.8424913451513
 30
0.0
 10
475.7069394519837
 20
451.7941006574252
 30
0.0
 10
476.8475275774853
 20
452.5130501396036
 30
0.0
 10
477.9554143838845
 20
452.9115329046682
 30
0.0
 10
478.8161391186055
 20
453.0449227171864
 30
0.0
 10
479.2441572691856
 20
453.0612534682264
 30
0.0
 10
479.3868299815926
 20
453.0612534217285
 30
0.0
  0
LINE
  5
1F9
330
1C9
100
AcDbEntity
  8
0
  6
Continuous
 62
     0
370
    30
100
AcDbLine
 10
473.271342
 20
357.840166
 30
0.0
 11
473.271371
 21
447.061344
 31
0.0
  0
LINE
  5
1FA
330
1C9
100
AcDbEntity
  8
0
  6
Continuous
 62
     0
370
    30
100
AcDbLine
 10
473.271382
 20
479.061254
 30
0.0
 11
473.271383
 21
483.561255
 31
0.0
  0
LINE
  5
1FB
330
1C9
100
AcDbEntity
  8
0
  6
Continuous
 62
     0
370
    30
100
AcDbLine
 10
473.271383
 20
483.561255
 30
0.0
 11
433.271383
 21
483.561268
 31
0.0
  0
SPLINE
  5
1FC
330
1C9
100
AcDbEntity
  8
0
  6
Continuous
 62
     0
370
    30
100
AcDbSpline
210
0.0
220
0.0
230
1.0
 70
     8
 71
     3
 72
    27
 73
    23
 74
     0
 42
0.000000001
 43
0.0
 40
0.0
 40
0.0
 40
0.0
 40
0.0
 40
0.011812003196603
 40
0.035436009589809
 40
0.071072480395518
 40
0.106786912357427
 40
0.142528512546648
 40
0.213981828553013
 40
0.285469300108582
 40
0.356974273050076
 40
0.428481109480641
 40
0.499989412535864
 40
0.5714991619010901
 40
0.6430013585122311
 40
0.714499261529768
 40
0.7859723295106871
 40
0.8573925472616031
 40
0.8931274153665729
 40
0.9288301007862041
 40
0.964469078581501
 40
0.9881563595271668
 40
1.0
 40
1.0
 40
1.0
 40
1.0
 10
433.2713554838034
 20
397.5351715161936
 30
0.0
 10
433.2713515352758
 20
397.5351715198731
 30
0.0
 10
433.271874522252
 20
397.5222113183143
 30
0.0
 10
433.2761344429962
 20
397.4237061984965
 30
0.0
 10
433.2862644345659
 20
397.1809234357072
 30
0.0
 10
433.2998152436901
 20
396.8396308591166
 30
0.0
 10
433.3185425041888
 20
396.3361708821984
 30
0.0
 10
433.3411265023593
 20
395.655439680678
 30
0.0
 10
433.3641301607807
 20
394.805564162441
 30
0.0
 10
433.3819055504459
 20
393.9364876877117
 30
0.0
 10
433.3937318950411
 20
393.0570120242558
 30
0.0
 10
433.3990810350612
 20
392.1721056412841
 30
0.0
 10
433.3974099700383
 20
391.2860205863628
 30
0.0
 10
433.3884915922913
 20
390.4033793563086
 30
0.0
 10
433.372118055102
 20
389.5303803833131
 30
0.0
 10
433.3484942706277
 20
388.6786809128031
 30
0.0
 10
433.323523432792
 20
388.0026021247771
 30
0.0
 10
433.3023470417698
 20
387.5145912981307
 30
0.0
 10
433.2870921156759
 20
387.1934741465893
 30
0.0
 10
433.2761626593349
 20
386.9789704675981
 30
0.0
 10
433.2718738862233
 20
386.8976722632638
 30
0.0
 10
433.2713480545076
 20
386.8872642583022
 30
0.0
 10
433.271352013611
 20
386.8872642767747
 30
0.0
  0
LINE
  5
1FD
330
1C9
100
AcDbEntity
  8
0
  6
Continuous
 62
     0
370
    30
100
AcDbLine
 10
473.271371
 20
447.061344
 30
0.0
 11
473.2717
 21
447.116436
 31
0.0
  0
LINE
  5
1FE
330
1C9
100
AcDbEntity
  8
0
  6
Continuous
 62
     0
370
    30
100
AcDbLine
 10
433.271383
 20
483.561268
 30
0.0
 11
433.271355
 21
397.5351
 31
0.0
  0
LINE
  5
1FF
330
1C9
100
AcDbEntity
  8
0
  6
Continuous
 62
     0
370
    30
100
AcDbLine
 10
433.271352
 20
386.887325
 30
0.0
 11
433.271342
 21
357.840179
 31
0.0
  0
LINE
  5
200
330
1C9
100
AcDbEntity
  8
0
  6
Continuous
 62
     0
370
    30
100
AcDbLine
 10
426.497531
 20
357.840182
 30
0.0
 11
480.045156
 21
357.840182
 31
0.0
  0
ARC
  5
201
330
1C9
100
AcDbEntity
  8
0
  6
Continuous
 62
     0
370
    30
100
AcDbCircle
 10
426.497564
 20
357.640148
 30
0.0
 40
0.2000335698566602
100
AcDbArc
 50
90.009512
 51
179.490451
  0
LINE
  5
202
330
1C9
100
AcDbEntity
  8
0
  6
Continuous
 62
     0
370
     0
100
AcDbLine
 10
426.297538
 20
357.641927
 30
0.0
 11
480.245148
 21
357.641927
 31
0.0
  0
LINE
  5
203
330
1C9
100
AcDbEntity
  8
0
  6
Continuous
 62
     0
370
    30
100
AcDbLine
 10
426.297538
 20
357.641927
 30
0.0
 11
426.271341
 21
354.640182
 31
0.0
  0
LINE
  5
204
330
1C9
100
AcDbEntity
  8
0
  6
Continuous
 62
     0
370
    30
100
AcDbLine
 10
426.271341
 20
354.640182
 30
0.0
 11
480.271345
 21
354.640182
 31
0.0
  0
LINE
  5
205
330
1C9
100
AcDbEntity
  8
0
  6
Continuous
 62
     0
370
    30
100
AcDbLine
 10
480.245148
 20
357.641927
 30
0.0
 11
480.271345
 21
354.640182
 31
0.0
  0
ARC
  5
206
330
1C9
100
AcDbEntity
  8
0
  6
Continuous
 62
     0
370
    30
100
AcDbCircle
 10
480.045042
 20
357.640067
 30
0.0
 40
0.2001151484181354
100
AcDbArc
 50
0.532675
 51
89.938785
  0
LINE
  5
207
330
1C9
100
AcDbEntity
  8
0
  6
Continuous
 62
     0
370
     0
100
AcDbLine
 10
416.80139
 20
420.017085
 30
0.0
 11
416.801389
 21
418.017085
 31
0.0
  0
LINE
  5
208
330
1C9
100
AcDbEntity
  8
0
  6
Continuous
 62
     0
370
     0
100
AcDbLine
 10
416.801391
 20
422.017085
 30
0.0
 11
416.80139
 21
420.017085
 31
0.0
  0
LINE
  5
209
330
1C9
100
AcDbEntity
  8
0
  6
Continuous
 62
     0
370
     0
100
AcDbLine
 10
421.785949
 20
416.841422
 30
0.0
 11
423.598697
 21
417.68672
 31
0.0
  0
LINE
  5
20A
330
1C9
100
AcDbEntity
  8
0
  6
Continuous
 62
     0
370
     0
100
AcDbLine
 10
419.973466
 20
415.996248
 30
0.0
 11
421.785949
 21
416.841422
 31
0.0
  0
LINE
  5
20B
330
1C9
100
AcDbEntity
  8
0
  6
Continuous
 62
     0
370
    30
100
AcDbLine
 10
405.30614
 20
421.517089
 30
0.0
 11
405.30614
 21
420.017089
 31
0.0
  0
LINE
  5
20C
330
1C9
100
AcDbEntity
  8
0
  6
Continuous
 62
     0
370
    30
100
AcDbLine
 10
405.30614
 20
420.017089
 30
0.0
 11
405.306139
 21
418.517089
 31
0.0
  0
LINE
  5
20D
330
1C9
100
AcDbEntity
  8
0
  6
Continuous
 62
     0
370
    30
100
AcDbLine
 10
405.806139
 20
418.017089
 30
0.0
 11
405.80614
 21
420.017089
 31
0.0
  0
LINE
  5
20E
330
1C9
100
AcDbEntity
  8
0
  6
Continuous
 62
     0
370
    30
100
AcDbLine
 10
405.80614
 20
420.017089
 30
0.0
 11
405.80614
 21
422.017089
 31
0.0
  0
LINE
  5
20F
330
1C9
100
AcDbEntity
  8
0
  6
Continuous
 62
     0
370
    30
100
AcDbLine
 10
419.973466
 20
415.996248
 30
0.0
 11
433.297856
 21
387.421975
 31
0.0
  0
LINE
  5
210
330
1C9
100
AcDbEntity
  8
0
  6
Continuous
 62
     0
370
    30
100
AcDbLine
 10
423.598697
 20
417.68672
 30
0.0
 11
433.297844
 21
396.886814
 31
0.0
  0
LINE
  5
211
330
1C9
100
AcDbEntity
  8
0
  6
Continuous
 62
     0
370
    30
100
AcDbLine
 10
405.80614
 20
422.017089
 30
0.0
 11
405.306167
 21
421.517116
 31
0.0
  0
LINE
  5
212
330
1C9
100
AcDbEntity
  8
0
  6
Continuous
 62
     0
370
    30
100
AcDbLine
 10
405.806139
 20
418.017089
 30
0.0
 11
405.306166
 21
418.517062
 31
0.0
  0
LINE
  5
213
330
1C9
100
AcDbEntity
  8
0
  6
Continuous
 62
     0
370
    30
100
AcDbLine
 10
405.806139
 20
418.017089
 30
0.0
 11
416.801389
 21
418.017085
 31
0.0
  0
LINE
  5
214
330
1C9
100
AcDbEntity
  8
0
  6
Continuous
 62
     0
370
    30
100
AcDbLine
 10
405.80614
 20
422.017089
 30
0.0
 11
416.801391
 21
422.017085
 31
0.0
  0
ARC
  5
215
330
1C9
100
AcDbEntity
  8
0
  6
Continuous
 62
     0
370
    30
100
AcDbCircle
 10
416.801333
 20
414.516999
 30
0.0
 40
3.500086023670759
100
AcDbArc
 50
25.000878
 51
89.999082
  0
ARC
  5
216
330
1C9
100
AcDbEntity
  8
0
  6
Continuous
 62
     0
370
    30
100
AcDbCircle
 10
416.801481
 20
414.517231
 30
0.0
 40
7.499853759908939
100
AcDbArc
 50
24.999269
 51
90.000691
  0
LINE
  5
217
330
1C9
100
AcDbEntity
  8
0
  6
Continuous
 62
     0
370
    30
100
AcDbLine
 10
568.42199
 20
448.056653
 30
0.0
 11
558.646981
 21
431.125865
 31
0.0
  0
LINE
  5
218
330
1C9
100
AcDbEntity
  8
0
  6
Continuous
 62
     0
370
    30
100
AcDbLine
 10
568.42199
 20
448.056653
 30
0.0
 11
568.348786
 21
448.329858
 31
0.0
  0
LINE
  5
219
330
1C9
100
AcDbEntity
  8
0
  6
Continuous
 62
     0
370
    30
100
AcDbLine
 10
568.348786
 20
448.329858
 30
0.0
 11
558.373775
 21
431.05266
 31
0.0
  0
LINE
  5
21A
330
1C9
100
AcDbEntity
  8
0
  6
Continuous
 62
     0
370
    30
100
AcDbLine
 10
568.348786
 20
448.329858
 30
0.0
 11
547.737389
 21
460.229872
 31
0.0
  0
LINE
  5
21B
330
1C9
100
AcDbEntity
  8
0
  6
Continuous
 62
     0
370
     0
100
AcDbLine
 10
547.737389
 20
460.229872
 30
0.0
 11
537.762378
 21
442.952672
 31
0.0
  0
ARC
  5
21C
330
1C9
100
AcDbEntity
  8
0
  6
Continuous
 62
     0
370
    30
100
AcDbCircle
 10
547.237403
 20
459.363794
 30
0.0
 40
1.000039444376429
100
AcDbArc
 50
60.00222
 51
149.997702
  0
LINE
  5
21D
330
1C9
100
AcDbEntity
  8
0
  6
Continuous
 62
     0
370
    30
100
AcDbLine
 10
546.371363
 20
459.863848
 30
0.0
 11
537.396353
 21
444.318698
 31
0.0
  0
ARC
  5
21E
330
1C9
100
AcDbEntity
  8
0
  6
Continuous
 62
     0
370
    30
100
AcDbCircle
 10
544.246204
 20
450.732127
 30
0.0
 40
5.994755795907968
100
AcDbArc
 50
87.0414
 51
101.771769
  0
LINE
  5
21F
330
1C9
100
AcDbEntity
  8
0
  6
Continuous
 62
     0
370
    30
100
AcDbLine
 10
543.0232
 20
456.600759
 30
0.0
 11
538.548196
 21
448.849835
 31
0.0
  0
LINE
  5
220
330
1C9
100
AcDbEntity
  8
0
  6
Continuous
 62
     0
370
    30
100
AcDbLine
 10
543.0232
 20
456.600759
 30
0.0
 11
542.111592
 21
457.127077
 31
0.0
  0
LINE
  5
221
330
1C9
100
AcDbEntity
  8
0
  6
Continuous
 62
     0
370
     0
100
AcDbLine
 10
542.111592
 20
457.127077
 30
0.0
 11
537.636587
 21
449.376154
 31
0.0
  0
ARC
  5
222
330
1C9
100
AcDbEntity
  8
0
  6
Continuous
 62
     0
370
    30
100
AcDbCircle
 10
542.261593
 20
457.386885
 30
0.0
 40
0.3000004551788225
100
AcDbArc
 50
150.000044
 51
239.999874
  0
ARC
  5
223
330
1C9
100
AcDbEntity
  8
0
  6
Continuous
 62
     0
370
    30
100
AcDbCircle
 10
537.486599
 20
449.116301
 30
0.0
 40
0.3000328313634909
100
AcDbArc
 50
60.006234
 51
149.993699
  0
LINE
  5
224
330
1C9
100
AcDbEntity
  8
0
  6
Continuous
 62
     0
370
    30
100
AcDbLine
 10
538.548196
 20
448.849835
 30
0.0
 11
537.636587
 21
449.376154
 31
0.0
  0
ARC
  5
225
330
1C9
100
AcDbEntity
  8
0
  6
Continuous
 62
     0
370
    30
100
AcDbCircle
 10
544.241461
 20
450.724693
 30
0.0
 40
5.994069697015341
100
AcDbArc
 50
198.227308
 51
212.959373
  0
ARC
  5
226
330
1C9
100
AcDbEntity
  8
0
  6
Continuous
 62
     0
370
    30
100
AcDbCircle
 10
538.262418
 20
443.818708
 30
0.0
 40
1.000029018002646
100
AcDbArc
 50
150.001626
 51
239.998303
  0
LINE
  5
227
330
1C9
100
AcDbEntity
  8
0
  6
Continuous
 62
     0
370
    30
100
AcDbLine
 10
558.373775
 20
431.05266
 30
0.0
 11
537.762378
 21
442.952672
 31
0.0
  0
LINE
  5
228
330
1C9
100
AcDbEntity
  8
0
  6
Continuous
 62
     0
370
    30
100
AcDbLine
 10
558.646981
 20
431.125865
 30
0.0
 11
558.373775
 21
431.05266
 31
0.0
  0
ENDBLK
  5
22A
330
1C9
100
AcDbEntity
  8
0
100
AcDbBlockEnd
  0
BLOCK
  5
28E
330
22C
100
AcDbEntity
  8
0
100
AcDbBlockBegin
  2
d
 70
     0
 10
187.499542
 20
0.0
 30
0.0
  3
d
  1

  0
LINE
  5
22D
330
22C
100
AcDbEntity
  8
0
  6
Continuous
 62
     0
370
     0
100
AcDbLine
 10
27.57358
 20
503.806439
 30
0.0
 11
27.573581
 21
499.306439
 31
0.0
  0
LINE
  5
22E
330
22C
100
AcDbEntity
  8
0
  6
Continuous
 62
     0
370
     0
100
AcDbLine
 10
27.573579
 20
508.306439
 30
0.0
 11
27.57358
 21
503.806439
 31
0.0
  0
LINE
  5
22F
330
22C
100
AcDbEntity
  8
0
  6
Continuous
 62
     0
370
     0
100
AcDbLine
 10
28.07358
 20
503.806439
 30
0.0
 11
28.073581
 21
498.806439
 31
0.0
  0
LINE
  5
230
330
22C
100
AcDbEntity
  8
0
  6
Continuous
 62
     0
370
     0
100
AcDbLine
 10
28.073578
 20
508.806439
 30
0.0
 11
28.07358
 21
503.806439
 31
0.0
  0
LINE
  5
231
330
22C
100
AcDbEntity
  8
0
  6
Continuous
 62
     0
370
     0
100
AcDbLine
 10
81.373578
 20
508.806454
 30
0.0
 11
81.373582
 21
498.806454
 31
0.0
  0
SPLINE
  5
232
330
22C
100
AcDbEntity
  8
0
  6
Continuous
 62
     0
370
    30
100
AcDbSpline
210
0.0
220
0.0
230
1.0
 70
     8
 71
     7
 72
    21
 73
    13
 74
     0
 42
0.000000001
 43
0.0
 40
0.0
 40
0.0
 40
0.0
 40
0.0
 40
0.0
 40
0.0
 40
0.0
 40
0.0
 40
0.6599999999999999
 40
0.6599999999999999
 40
0.6599999999999999
 40
0.6599999999999999
 40
0.6599999999999999
 40
1.0
 40
1.0
 40
1.0
 40
1.0
 40
1.0
 40
1.0
 40
1.0
 40
1.0
 10
85.17357719427666
 20
512.406106772512
 30
0.0
 10
85.17357736775894
 20
511.8407508378343
 30
0.0
 10
85.11702329687796
 20
511.2753948858027
 30
0.0
 10
84.9852074305678
 20
510.7236011519655
 30
0.0
 10
84.76100691813821
 20
510.1633021581831
 30
0.0
 10
84.3599845596449
 20
509.7135715631101
 30
0.0
 10
83.64075725580784
 20
509.2191758394554
 30
0.0
 10
82.82080011342961
 20
508.9566324252452
 30
0.0
 10
82.53537038829953
 20
508.8916148200614
 30
0.0
 10
82.24666303517922
 20
508.8468091725009
 30
0.0
 10
81.95606656993864
 20
508.8192473282609
 30
0.0
 10
81.66482260822158
 20
508.8064541054598
 30
0.0
 10
81.37357864282242
 20
508.8064540217739
 30
0.0
  0
SPLINE
  5
233
330
22C
100
AcDbEntity
  8
0
  6
Continuous
 62
     0
370
    30
100
AcDbSpline
210
0.0
220
0.0
230
1.0
 70
     8
 71
     7
 72
    21
 73
    13
 74
     0
 42
0.000000001
 43
0.0
 40
0.0000000287205835
 40
0.0000000287205835
 40
0.0000000287205835
 40
0.0000000287205835
 40
0.0000000287205835
 40
0.0000000287205835
 40
0.0000000287205835
 40
0.0000000287205835
 40
0.34
 40
0.34
 40
0.34
 40
0.34
 40
0.34
 40
1.0
 40
1.0
 40
1.0
 40
1.0
 40
1.0
 40
1.0
 40
1.0
 40
1.0
 10
81.37358170903985
 20
498.8064540217788
 30
0.0
 10
81.69967507127359
 20
498.8064541071099
 30
0.0
 10
82.0257684378812
 20
498.7899425141342
 30
0.0
 10
82.35099672740353
 20
498.7536025915314
 30
0.0
 10
82.67253375916195
 20
498.6935196466769
 30
0.0
 10
82.98962429639023
 20
498.6038523561809
 30
0.0
 10
83.88336614524434
 20
498.2322107653138
 30
0.0
 10
84.58891086078725
 20
497.5371463752143
 30
0.0
 10
84.90059776174057
 20
496.9193055163244
 30
0.0
 10
85.03708519069212
 20
496.3020441819093
 30
0.0
 10
85.1357777148713
 20
495.6721276263179
 30
0.0
 10
85.1735825254386
 20
495.0391228204037
 30
0.0
 10
85.1735827197526
 20
494.4061180028845
 30
0.0
  0
LINE
  5
234
330
22C
100
AcDbEntity
  8
0
  6
Continuous
 62
     0
370
    30
100
AcDbLine
 10
125.573576
 20
515.306467
 30
0.0
 11
125.573585
 21
485.306467
 31
0.0
  0
SPLINE
  5
235
330
22C
100
AcDbEntity
  8
0
  6
Continuous
 62
     0
370
     0
100
AcDbSpline
210
0.0
220
0.0
230
1.0
 70
     8
 71
     7
 72
    41
 73
    33
 74
     0
 42
0.000000001
 43
0.0
 40
0.0
 40
0.0
 40
0.0
 40
0.0
 40
0.0
 40
0.0
 40
0.0
 40
0.0
 40
0.24
 40
0.24
 40
0.24
 40
0.24
 40
0.24
 40
0.4072
 40
0.4072
 40
0.4072
 40
0.4072
 40
0.4072
 40
0.49149616
 40
0.49149616
 40
0.49149616
 40
0.49149616
 40
0.49149616
 40
0.500000409248974
 40
0.500000409248974
 40
0.500000409248974
 40
0.500000409248974
 40
0.500000409248974
 40
0.875512
 40
0.875512
 40
0.875512
 40
0.875512
 40
0.875512
 40
0.999999986493276
 40
0.999999986493276
 40
0.999999986493276
 40
0.999999986493276
 40
0.999999986493276
 40
0.999999986493276
 40
0.999999986493276
 40
0.999999986493276
 10
85.17358271974214
 20
494.4061180028845
 30
0.0
 10
85.17350347835273
 20
494.4063897664511
 30
0.0
 10
85.22901746801092
 20
494.5294277574693
 30
0.0
 10
85.34027514030024
 20
494.776906851434
 30
0.0
 10
85.49973554628403
 20
495.1448879193169
 30
0.0
 10
85.6958713399331
 20
495.612719462416
 30
0.0
 10
86.06432416274465
 20
496.5757352814956
 30
0.0
 10
86.45015745164747
 20
497.7861589640266
 30
0.0
 10
86.60636446090274
 20
498.3210155637173
 30
0.0
 10
86.75502979086488
 20
498.8907285625111
 30
0.0
 10
86.88988087620211
 20
499.4925745230405
 30
0.0
 10
87.06271333142267
 20
500.4384271853012
 30
0.0
 10
87.18206321866043
 20
501.4299752932376
 30
0.0
 10
87.21556855841816
 20
501.7666249699477
 30
0.0
 10
87.24205375048093
 20
502.1066595728788
 30
0.0
 10
87.26141128852284
 20
502.4491996239136
 30
0.0
 10
87.27416165165516
 20
502.8279612706773
 30
0.0
 10
87.27750151815275
 20
503.2072518064277
 30
0.0
 10
87.27772862242014
 20
503.2420134336989
 30
0.0
 10
87.27787684517708
 20
503.276777345142
 30
0.0
 10
87.2779462799981
 20
503.311542465486
 30
0.0
 10
87.27752875080563
 20
504.8813940661632
 30
0.0
 10
87.11692078412034
 20
506.4493437330334
 30
0.0
 10
86.8169966008594
 20
507.8887002816378
 30
0.0
 10
86.43375974843963
 20
509.1543543438123
 30
0.0
 10
86.04903754052457
 20
510.2424911834119
 30
0.0
 10
85.60067793439596
 20
511.3934409484998
 30
0.0
 10
85.32031180376876
 20
512.0590906344111
 30
0.0
 10
85.26247434808467
 20
512.1915679131438
 30
0.0
 10
85.21833101960644
 20
512.294499161544
 30
0.0
 10
85.18845209586489
 20
512.3664263833722
 30
0.0
 10
85.17353610256576
 20
512.4040812650201
 30
0.0
 10
85.17357719427665
 20
512.4061067709736
 30
0.0
  0
LINE
  5
236
330
22C
100
AcDbEntity
  8
0
  6
Continuous
 62
     0
370
    30
100
AcDbLine
 10
125.573585
 20
485.306467
 30
0.0
 11
85.173585
 21
485.306455
 31
0.0
  0
LINE
  5
237
330
22C
100
AcDbEntity
  8
0
  6
Continuous
 62
     0
370
     0
100
AcDbLine
 10
85.173576
 20
515.306455
 30
0.0
 11
125.573576
 21
515.306467
 31
0.0
  0
LINE
  5
238
330
22C
100
AcDbEntity
  8
0
  6
Continuous
 62
     0
370
    30
100
AcDbLine
 10
105.371983
 20
515.806461
 30
0.0
 11
125.073576
 21
515.806467
 31
0.0
  0
LINE
  5
239
330
22C
100
AcDbEntity
  8
0
  6
Continuous
 62
     0
370
    30
100
AcDbLine
 10
85.673576
 20
515.806455
 30
0.0
 11
105.371983
 21
515.806461
 31
0.0
  0
LINE
  5
23A
330
22C
100
AcDbEntity
  8
0
  6
Continuous
 62
     0
370
    30
100
AcDbLine
 10
85.672759
 20
515.806455
 30
0.0
 11
85.705354
 21
515.806455
 31
0.0
  0
LINE
  5
23B
330
22C
100
AcDbEntity
  8
0
  6
Continuous
 62
     0
370
    30
100
AcDbLine
 10
125.074394
 20
515.806467
 30
0.0
 11
125.041806
 21
515.806467
 31
0.0
  0
ARC
  5
23C
330
22C
100
AcDbEntity
  8
0
  6
Continuous
 62
     0
370
    30
100
AcDbCircle
 10
125.073556
 20
515.306447
 30
0.0
 40
0.5000199794256927
100
AcDbArc
 50
0.002307
 51
89.993376
  0
ARC
  5
23D
330
22C
100
AcDbEntity
  8
0
  6
Continuous
 62
     0
370
    30
100
AcDbCircle
 10
85.673596
 20
515.306435
 30
0.0
 40
0.500019979424307
100
AcDbArc
 50
90.006658
 51
179.997728
  0
LINE
  5
23E
330
22C
100
AcDbEntity
  8
0
  6
Continuous
 62
     0
370
    30
100
AcDbLine
 10
85.173576
 20
515.306455
 30
0.0
 11
85.173577
 21
512.406097
 31
0.0
  0
LINE
  5
23F
330
22C
100
AcDbEntity
  8
0
  6
Continuous
 62
     0
370
    30
100
AcDbLine
 10
85.173583
 20
494.406129
 30
0.0
 11
85.173585
 21
485.306455
 31
0.0
  0
LINE
  5
240
330
22C
100
AcDbEntity
  8
0
  6
Continuous
 62
     0
370
    30
100
AcDbLine
 10
28.073578
 20
508.806439
 30
0.0
 11
81.373578
 21
508.806454
 31
0.0
  0
LINE
  5
241
330
22C
100
AcDbEntity
  8
0
  6
Continuous
 62
     0
370
    30
100
AcDbLine
 10
28.073581
 20
498.806439
 30
0.0
 11
81.373582
 21
498.806454
 31
0.0
  0
ARC
  5
242
330
22C
100
AcDbEntity
  8
0
  6
Continuous
 62
     0
370
    30
100
AcDbCircle
 10
28.073606
 20
508.306421
 30
0.0
 40
0.5000177367113507
100
AcDbArc
 50
90.003154
 51
177.347447
  0
ARC
  5
243
330
22C
100
AcDbEntity
  8
0
  6
Continuous
 62
     0
370
    30
100
AcDbCircle
 10
28.073609
 20
499.306456
 30
0.0
 40
0.5000177367049539
100
AcDbArc
 50
182.652586
 51
269.996879
  0
SPLINE
  5
244
330
22C
100
AcDbEntity
  8
0
  6
Continuous
 62
     0
370
    30
100
AcDbSpline
210
0.0
220
0.0
230
1.0
 70
     8
 71
     3
 72
    10
 73
     6
 74
     0
 42
0.000000001
 43
0.0
 40
0.0
 40
0.0
 40
0.0
 40
0.0
 40
0.333333333333333
 40
0.666666666666667
 40
1.0
 40
1.0
 40
1.0
 40
1.0
 10
116.5410305405378
 20
484.229266156653
 30
0.0
 10
116.5445027584933
 20
484.2846167074258
 30
0.0
 10
116.5516446756995
 20
484.3876812890555
 30
0.0
 10
116.5625542947969
 20
484.4968539659235
 30
0.0
 10
116.5692264855181
 20
484.5229912918667
 30
0.0
 10
116.5727592683487
 20
484.522991293018
 30
0.0
  0
SPLINE
  5
245
330
22C
100
AcDbEntity
  8
0
  6
Continuous
 62
     0
370
    30
100
AcDbSpline
210
0.0
220
0.0
230
1.0
 70
     8
 71
     3
 72
    12
 73
     8
 74
     0
 42
0.000000001
 43
0.0
 40
0.0
 40
0.0
 40
0.0
 40
0.0
 40
0.111123153363708
 40
0.333369460091125
 40
0.666700010624003
 40
0.8889000035413341
 40
1.0
 40
1.0
 40
1.0
 40
1.0
 10
115.5635022101873
 20
484.6282002392048
 30
0.0
 10
115.6181726547931
 20
484.581902806381
 30
0.0
 10
115.7841691846266
 20
484.4538637658791
 30
0.0
 10
116.1143990684797
 20
484.2615312478172
 30
0.0
 10
116.4059229793941
 20
484.166635767016
 30
0.0
 10
116.5238000672587
 20
484.1793796928417
 30
0.0
 10
116.5402054166287
 20
484.2142014914889
 30
0.0
 10
116.541160969904
 20
484.2291613369717
 30
0.0
  0
LINE
  5
246
330
22C
100
AcDbEntity
  8
0
  6
Continuous
 62
     0
370
     0
100
AcDbLine
 10
94.262102
 20
484.628193
 30
0.0
 11
115.563502
 21
484.6282
 31
0.0
  0
ARC
  5
247
330
22C
100
AcDbEntity
  8
0
  6
Continuous
 62
     0
370
     0
100
AcDbCircle
 10
133.037831
 20
505.060543
 30
0.0
 40
26.8855507692344
100
AcDbArc
 50
227.285847
 51
229.461986
  0
SPLINE
  5
248
330
22C
100
AcDbEntity
  8
0
  6
Continuous
 62
     0
370
    30
100
AcDbSpline
210
0.0
220
0.0
230
1.0
 70
     8
 71
     3
 72
    10
 73
     6
 74
     0
 42
0.000000001
 43
0.0
 40
18.75838921056845
 40
18.75838921056845
 40
18.75838921056845
 40
18.75838921056845
 40
18.99741885493324
 40
19.41302141447939
 40
19.82833813574984
 40
19.82833813574984
 40
19.82833813574984
 40
19.82833813574984
 10
115.8467793316918
 20
485.3064641328839
 30
0.0
 10
115.9023958837723
 20
485.2494405033208
 30
0.0
 10
116.0537673575731
 20
485.0923661768096
 30
0.0
 10
116.2966753448208
 20
484.8314553507709
 30
0.0
 10
116.4843096791558
 20
484.6275572371407
 30
0.0
 10
116.5741257000294
 20
484.5222369086335
 30
0.0
  0
ARC
  5
249
330
22C
100
AcDbEntity
  8
0
  6
Continuous
 62
     0
370
    30
100
AcDbCircle
 10
105.376562
 20
475.70382
 30
0.0
 40
14.25396954854268
100
AcDbArc
 50
137.648144
 51
141.237221
  0
ARC
  5
24A
330
22C
100
AcDbEntity
  8
0
  6
Continuous
 62
     0
370
    30
100
AcDbCircle
 10
91.922437
 20
486.507124
 30
0.0
 40
3.000736019632083
100
AcDbArc
 50
280.972193
 51
321.232868
  0
ARC
  5
24B
330
22C
100
AcDbEntity
  8
0
  6
Continuous
 62
     0
370
    30
100
AcDbCircle
 10
118.824156
 20
486.50619
 30
0.0
 40
2.999690241551149
100
AcDbArc
 50
221.412015
 51
259.03625
  0
LINE
  5
24C
330
22C
100
AcDbEntity
  8
0
  6
Continuous
 62
     0
370
    30
100
AcDbLine
 10
37.280877
 20
452.391367
 30
0.0
 11
24.030691
 21
444.741356
 31
0.0
  0
LINE
  5
24D
330
22C
100
AcDbEntity
  8
0
  6
Continuous
 62
     0
370
    30
100
AcDbLine
 10
14.030685
 20
462.061845
 30
0.0
 11
27.280872
 21
469.711856
 31
0.0
  0
ARC
  5
24E
330
22C
100
AcDbEntity
  8
0
  6
Continuous
 62
     0
370
    30
100
AcDbCircle
 10
39.780762
 20
448.061662
 30
0.0
 40
4.999327139344231
100
AcDbArc
 50
89.998677
 51
120.001262
  0
ARC
  5
24F
330
22C
100
AcDbEntity
  8
0
  6
Continuous
 62
     0
370
    30
100
AcDbCircle
 10
39.780292
 20
448.063414
 30
0.0
 40
24.99804606015422
100
AcDbArc
 50
89.998677
 51
120.001361
  0
LINE
  5
250
330
22C
100
AcDbEntity
  8
0
  6
Continuous
 62
     0
370
    30
100
AcDbLine
 10
39.780869
 20
473.061461
 30
0.0
 11
79.258133
 21
473.061474
 31
0.0
  0
LINE
  5
251
330
22C
100
AcDbEntity
  8
0
  6
Continuous
 62
     0
370
    30
100
AcDbLine
 10
79.25814
 20
453.061003
 30
0.0
 11
39.780877
 21
453.06099
 31
0.0
  0
SPLINE
  5
252
330
22C
100
AcDbEntity
  8
0
  6
Continuous
 62
     0
370
    30
100
AcDbSpline
210
0.0
220
0.0
230
1.0
 70
     8
 71
     3
 72
    12
 73
     8
 74
     0
 42
0.000000001
 43
0.0
 40
0.0
 40
0.0
 40
0.0
 40
0.0
 40
0.108060844156476
 40
0.324182532469428
 40
0.657504398314074
 40
0.8858347994380249
 40
1.0
 40
1.0
 40
1.0
 40
1.0
 10
79.2581334407045
 20
473.0612381629441
 30
0.0
 10
79.44519114978411
 20
473.0612382239063
 30
0.0
 10
80.00636428115658
 20
473.0914577074073
 30
0.0
 10
81.1341948556589
 20
473.3333488577767
 30
0.0
 10
82.35751057203753
 20
473.9269150596397
 30
0.0
 10
83.28373999165339
 20
474.6600639415448
 30
0.0
 10
83.69717851720597
 20
475.085798255629
 30
0.0
 10
83.82848668321103
 20
475.2334926946464
 30
0.0
  0
SPLINE
  5
253
330
22C
100
AcDbEntity
  8
0
  6
Continuous
 62
     0
370
    30
100
AcDbSpline
210
0.0
220
0.0
230
1.0
 70
     8
 71
     3
 72
    12
 73
     8
 74
     0
 42
0.000000001
 43
0.0
 40
0.0
 40
0.0
 40
0.0
 40
0.0
 40
0.111878207983159
 40
0.3356346239494771
 40
0.6716088709211739
 40
0.8905362903070578
 40
1.0
 40
1.0
 40
1.0
 40
1.0
 10
83.82848668321103
 20
475.2334926946464
 30
0.0
 10
83.93278515683775
 20
475.3508068345154
 30
0.0
 10
84.23336884020105
 20
475.7136950401893
 30
0.0
 10
84.75712404042267
 20
476.5046038721796
 30
0.0
 10
85.18139652197611
 20
477.5208222301574
 30
0.0
 10
85.35259368737154
 20
478.4468940015141
 30
0.0
 10
85.37358806112204
 20
478.9076522740762
 30
0.0
 10
85.3735880120663
 20
479.0612383619908
 30
0.0
  0
SPLINE
  5
254
330
22C
100
AcDbEntity
  8
0
  6
Continuous
 62
     0
370
    30
100
AcDbSpline
210
0.0
220
0.0
230
1.0
 70
     8
 71
     3
 72
    16
 73
    12
 74
     0
 42
0.000000001
 43
0.0
 40
0.0
 40
0.0
 40
0.0
 40
0.0
 40
0.047816995161528
 40
0.143450985484584
 40
0.29023355597465
 40
0.436964789611444
 40
0.5820147577438199
 40
0.724381825707848
 40
0.8635464089569771
 40
0.9545154696523259
 40
1.0
 40
1.0
 40
1.0
 40
1.0
 10
85.37359843880577
 20
447.0613287119925
 30
0.0
 10
85.37359838825107
 20
447.211317738121
 30
0.0
 10
85.35187069955938
 20
447.6612848123692
 30
0.0
 10
85.1797596160257
 20
448.5647226701117
 30
0.0
 10
84.7106442040421
 20
449.7013929503337
 30
0.0
 10
83.92474232801028
 20
450.8424760863622
 30
0.0
 10
82.93803048835015
 20
451.7940853986362
 30
0.0
 10
81.79744236286109
 20
452.5130348808146
 30
0.0
 10
80.68955555646936
 20
452.9115176458791
 30
0.0
 10
79.82883082176969
 20
453.0449074583973
 30
0.0
 10
79.40081267118407
 20
453.0612382094374
 30
0.0
 10
79.25813995877809
 20
453.0612381629394
 30
0.0
  0
LINE
  5
255
330
22C
100
AcDbEntity
  8
0
  6
Continuous
 62
     0
370
    30
100
AcDbLine
 10
125.373618
 20
386.887249
 30
0.0
 11
125.373627
 21
357.840164
 31
0.0
  0
LINE
  5
256
330
22C
100
AcDbEntity
  8
0
  6
Continuous
 62
     0
370
    30
100
AcDbLine
 10
125.373586
 20
483.561253
 30
0.0
 11
125.373587
 21
482.502642
 31
0.0
  0
LINE
  5
257
330
22C
100
AcDbEntity
  8
0
  6
Continuous
 62
     0
370
    30
100
AcDbLine
 10
125.373587
 20
482.502642
 30
0.0
 11
125.373614
 21
397.535156
 31
0.0
  0
LINE
  5
258
330
22C
100
AcDbEntity
  8
0
  6
Continuous
 62
     0
370
    30
100
AcDbLine
 10
14.030685
 20
462.061845
 30
0.0
 11
24.030691
 21
444.741356
 31
0.0
  0
LINE
  5
259
330
22C
100
AcDbEntity
  8
0
  6
Continuous
 62
     0
370
     0
100
AcDbLine
 10
37.280877
 20
452.391367
 30
0.0
 11
27.280872
 21
469.711856
 31
0.0
  0
LINE
  5
25A
330
22C
100
AcDbEntity
  8
0
  6
Continuous
 62
     0
370
     0
100
AcDbLine
 10
39.780869
 20
473.061461
 30
0.0
 11
39.780877
 21
453.06099
 31
0.0
  0
LINE
  5
25B
330
22C
100
AcDbEntity
  8
0
  6
Continuous
 62
     0
370
     0
100
AcDbLine
 10
79.25814
 20
453.061003
 30
0.0
 11
79.25814
 21
453.30249
 31
0.0
  0
LINE
  5
25C
330
22C
100
AcDbEntity
  8
0
  6
Continuous
 62
     0
370
     0
100
AcDbLine
 10
79.25814
 20
453.30249
 30
0.0
 11
79.258133
 21
473.061474
 31
0.0
  0
SPLINE
  5
25D
330
22C
100
AcDbEntity
  8
0
  6
Continuous
 62
     0
370
     0
100
AcDbSpline
210
0.0
220
0.0
230
1.0
 70
     8
 71
     3
 72
    28
 73
    24
 74
     0
 42
0.000000001
 43
0.0
 40
0.0
 40
0.0
 40
0.0
 40
0.0
 40
0.022974722924393
 40
0.06892416877318
 40
0.13838305043648
 40
0.208259309142019
 40
0.278522310781651
 40
0.349845994199493
 40
0.386274989869694
 40
0.423471248381592
 40
0.4616474637745431
 40
0.500644597852081
 40
0.5394855679175451
 40
0.5773717009057471
 40
0.614342053032342
 40
0.650606797749563
 40
0.686392189558228
 40
0.721815107530156
 40
0.7920069693568
 40
0.8618295664845169
 40
0.931192272652774
 40
0.9770640908842582
 40
0.9999977846526742
 40
0.9999977846526742
 40
0.9999977846526742
 40
0.9999977846526742
 10
85.38020479168704
 20
479.0525326316406
 30
0.0
 10
85.39057540677945
 20
479.0391973094274
 30
0.0
 10
85.45828996442297
 20
478.9531835040885
 30
0.0
 10
85.81347126420458
 20
478.5073154587225
 30
0.0
 10
86.71583435702206
 20
477.3605779272106
 30
0.0
 10
88.1407812518764
 20
475.4572524229592
 30
0.0
 10
89.79406404500327
 20
473.0606248750341
 30
0.0
 10
91.20478153324355
 20
470.6891645136873
 30
0.0
 10
92.2115009637402
 20
468.5360725785013
 30
0.0
 10
92.85648961428934
 20
466.754433388993
 30
0.0
 10
93.29899654241554
 20
464.8150198703066
 30
0.0
 10
93.43105145966774
 20
462.7687890398751
 30
0.0
 10
93.19926965549614
 20
460.7429028496063
 30
0.0
 10
92.68966465044254
 20
458.845571248066
 30
0.0
 10
92.00385556686474
 20
457.1090760998798
 30
0.0
 10
91.22172026520923
 20
455.5219995756129
 30
0.0
 10
90.39136322994312
 20
454.0697739016921
 30
0.0
 10
89.27665095110677
 20
452.2993875309295
 30
0.0
 10
87.9190006763112
 20
450.3618463712727
 30
0.0
 10
86.54172184035335
 20
448.5394519714747
 30
0.0
 10
85.70492481831661
 20
447.4826574708544
 30
0.0
 10
85.41001442183212
 20
447.1091743092144
 30
0.0
 10
85.37361511721932
 20
447.0618478370461
 30
0.0
 10
85.37359845275381
 20
447.0613288619612
 30
0.0
  0
ARC
  5
25E
330
22C
100
AcDbEntity
  8
0
  6
Continuous
 62
     0
370
    30
100
AcDbCircle
 10
85.384359
 20
479.062558
 30
0.0
 40
0.0108515947065886
100
AcDbArc
 50
186.992143
 51
247.492035
  0
SPLINE
  5
25F
330
22C
100
AcDbEntity
  8
0
  6
Continuous
 62
     0
370
    30
100
AcDbSpline
210
0.0
220
0.0
230
1.0
 70
     8
 71
     3
 72
    18
 73
    14
 74
     0
 42
0.000000001
 43
0.0
 40
0.0
 40
0.0
 40
0.0
 40
0.0
 40
0.023695227980981
 40
0.071085683942942
 40
0.142319993809197
 40
0.213776654478505
 40
0.285230190632543
 40
0.428062764551992
 40
0.571009108161291
 40
0.713988910933768
 40
0.85699119766198
 40
0.95233039922066
 40
1.0
 40
1.0
 40
1.0
 40
1.0
 10
125.3736179264329
 20
386.8872490179849
 30
0.0
 10
125.3736141104846
 20
386.8872490357703
 30
0.0
 10
125.3731042127807
 20
386.896849347664
 30
0.0
 10
125.3690866839844
 20
386.9723259463203
 30
0.0
 10
125.3587807812624
 20
387.1726936400032
 30
0.0
 10
125.3442241798748
 20
387.4761505151851
 30
0.0
 10
125.3237972530779
 20
387.9396998816015
 30
0.0
 10
125.2993571388854
 20
388.5851361575585
 30
0.0
 10
125.2757315231132
 20
389.4008410516475
 30
0.0
 10
125.2587237135528
 20
390.2384896350752
 30
0.0
 10
125.2497626329473
 20
390.9922583261892
 30
0.0
 10
125.2468259929347
 20
391.5601689294189
 30
0.0
 10
125.2464684134228
 20
391.844235412988
 30
0.0
 10
125.2464683822736
 20
391.9389242409119
 30
0.0
  0
SPLINE
  5
260
330
22C
100
AcDbEntity
  8
0
  6
Continuous
 62
     0
370
    30
100
AcDbSpline
210
0.0
220
0.0
230
1.0
 70
     8
 71
     3
 72
    19
 73
    15
 74
     0
 42
0.000000001
 43
0.0
 40
0.0
 40
0.0
 40
0.0
 40
0.0
 40
0.047669359539616
 40
0.143008078618847
 40
0.286016810782849
 40
0.4290168267779119
 40
0.57199205458514
 40
0.6435141509449639
 40
0.7149990047117181
 40
0.7864792880787979
 40
0.8579058229116769
 40
0.9291628024671169
 40
0.9763876008223722
 40
1.0
 40
1.0
 40
1.0
 40
1.0
 10
125.2464683822736
 20
391.9389242409119
 30
0.0
 10
125.2464683486927
 20
392.0410050438962
 30
0.0
 10
125.2468829695297
 20
392.3472474530842
 30
0.0
 10
125.2502045360853
 20
392.9594639017741
 30
0.0
 10
125.2599497939145
 20
393.7719684294514
 30
0.0
 10
125.2774196771106
 20
394.6759354553532
 30
0.0
 10
125.2968445387563
 20
395.4143088986402
 30
0.0
 10
125.3145758775514
 20
395.9872698441071
 30
0.0
 10
125.3287973511881
 20
396.4033637352695
 30
0.0
 10
125.3433971613952
 20
396.7988720930708
 30
0.0
 10
125.3576209748492
 20
397.1577134423319
 30
0.0
 10
125.3683952100502
 20
397.4153900513
 30
0.0
 10
125.3730227921662
 20
397.521089179553
 30
0.0
 10
125.3736103567561
 20
397.5351562535878
 30
0.0
 10
125.3736144562405
 20
397.5351562574039
 30
0.0
  0
LINE
  5
261
330
22C
100
AcDbEntity
  8
0
  6
Continuous
 62
     0
370
    30
100
AcDbLine
 10
125.373586
 20
483.561253
 30
0.0
 11
85.373586
 21
483.56124
 31
0.0
  0
LINE
  5
262
330
22C
100
AcDbEntity
  8
0
  6
Continuous
 62
     0
370
    30
100
AcDbLine
 10
85.373627
 20
357.840151
 30
0.0
 11
85.373598
 21
447.061333
 31
0.0
  0
LINE
  5
263
330
22C
100
AcDbEntity
  8
0
  6
Continuous
 62
     0
370
    30
100
AcDbLine
 10
85.373588
 20
479.06121
 30
0.0
 11
85.373586
 21
483.56124
 31
0.0
  0
LINE
  5
264
330
22C
100
AcDbEntity
  8
0
  6
Continuous
 62
     0
370
    30
100
AcDbLine
 10
85.373598
 20
447.061329
 30
0.0
 11
85.37327
 21
447.116421
 31
0.0
  0
LINE
  5
265
330
22C
100
AcDbEntity
  8
0
  6
Continuous
 62
     0
370
    30
100
AcDbLine
 10
78.599814
 20
357.840166
 30
0.0
 11
132.147439
 21
357.840166
 31
0.0
  0
ARC
  5
266
330
22C
100
AcDbEntity
  8
0
  6
Continuous
 62
     0
370
    30
100
AcDbCircle
 10
132.147406
 20
357.640133
 30
0.0
 40
0.2000335698566602
100
AcDbArc
 50
0.509549
 51
89.990488
  0
LINE
  5
267
330
22C
100
AcDbEntity
  8
0
  6
Continuous
 62
     0
370
     0
100
AcDbLine
 10
78.399822
 20
357.641912
 30
0.0
 11
132.347432
 21
357.641912
 31
0.0
  0
LINE
  5
268
330
22C
100
AcDbEntity
  8
0
  6
Continuous
 62
     0
370
    30
100
AcDbLine
 10
132.347432
 20
357.641912
 30
0.0
 11
132.373629
 21
354.640167
 31
0.0
  0
LINE
  5
269
330
22C
100
AcDbEntity
  8
0
  6
Continuous
 62
     0
370
    30
100
AcDbLine
 10
78.373625
 20
354.640167
 30
0.0
 11
132.373629
 21
354.640167
 31
0.0
  0
LINE
  5
26A
330
22C
100
AcDbEntity
  8
0
  6
Continuous
 62
     0
370
    30
100
AcDbLine
 10
78.399822
 20
357.641912
 30
0.0
 11
78.373625
 21
354.640167
 31
0.0
  0
ARC
  5
26B
330
22C
100
AcDbEntity
  8
0
  6
Continuous
 62
     0
370
    30
100
AcDbCircle
 10
78.599928
 20
357.640051
 30
0.0
 40
0.2001151484181354
100
AcDbArc
 50
90.061215
 51
179.467325
  0
LINE
  5
26C
330
22C
100
AcDbEntity
  8
0
  6
Continuous
 62
     0
370
     0
100
AcDbLine
 10
141.843581
 20
418.01707
 30
0.0
 11
141.84358
 21
420.017069
 31
0.0
  0
LINE
  5
26D
330
22C
100
AcDbEntity
  8
0
  6
Continuous
 62
     0
370
     0
100
AcDbLine
 10
141.84358
 20
420.017069
 30
0.0
 11
141.843579
 21
422.01707
 31
0.0
  0
LINE
  5
26E
330
22C
100
AcDbEntity
  8
0
  6
Continuous
 62
     0
370
     0
100
AcDbLine
 10
135.046272
 20
417.686704
 30
0.0
 11
136.858755
 21
416.84153
 31
0.0
  0
LINE
  5
26F
330
22C
100
AcDbEntity
  8
0
  6
Continuous
 62
     0
370
     0
100
AcDbLine
 10
136.858755
 20
416.84153
 30
0.0
 11
138.671504
 21
415.996232
 31
0.0
  0
LINE
  5
270
330
22C
100
AcDbEntity
  8
0
  6
Continuous
 62
     0
370
    30
100
AcDbLine
 10
153.33883
 20
420.017074
 30
0.0
 11
153.33883
 21
421.517074
 31
0.0
  0
LINE
  5
271
330
22C
100
AcDbEntity
  8
0
  6
Continuous
 62
     0
370
    30
100
AcDbLine
 10
153.338831
 20
418.517074
 30
0.0
 11
153.33883
 21
420.017074
 31
0.0
  0
LINE
  5
272
330
22C
100
AcDbEntity
  8
0
  6
Continuous
 62
     0
370
    30
100
AcDbLine
 10
152.83883
 20
420.017073
 30
0.0
 11
152.838831
 21
418.017073
 31
0.0
  0
LINE
  5
273
330
22C
100
AcDbEntity
  8
0
  6
Continuous
 62
     0
370
    30
100
AcDbLine
 10
152.83883
 20
422.017073
 30
0.0
 11
152.83883
 21
420.017073
 31
0.0
  0
LINE
  5
274
330
22C
100
AcDbEntity
  8
0
  6
Continuous
 62
     0
370
    30
100
AcDbLine
 10
138.671504
 20
415.996232
 30
0.0
 11
125.34696
 21
387.42163
 31
0.0
  0
LINE
  5
275
330
22C
100
AcDbEntity
  8
0
  6
Continuous
 62
     0
370
    30
100
AcDbLine
 10
135.046272
 20
417.686704
 30
0.0
 11
125.346944
 21
396.886409
 31
0.0
  0
LINE
  5
276
330
22C
100
AcDbEntity
  8
0
  6
Continuous
 62
     0
370
    30
100
AcDbLine
 10
152.83883
 20
422.017073
 30
0.0
 11
153.338803
 21
421.517101
 31
0.0
  0
LINE
  5
277
330
22C
100
AcDbEntity
  8
0
  6
Continuous
 62
     0
370
    30
100
AcDbLine
 10
152.838831
 20
418.017074
 30
0.0
 11
153.338804
 21
418.517047
 31
0.0
  0
LINE
  5
278
330
22C
100
AcDbEntity
  8
0
  6
Continuous
 62
     0
370
    30
100
AcDbLine
 10
152.838831
 20
418.017073
 30
0.0
 11
141.843581
 21
418.01707
 31
0.0
  0
LINE
  5
279
330
22C
100
AcDbEntity
  8
0
  6
Continuous
 62
     0
370
    30
100
AcDbLine
 10
152.83883
 20
422.017073
 30
0.0
 11
141.843579
 21
422.01707
 31
0.0
  0
ARC
  5
27A
330
22C
100
AcDbEntity
  8
0
  6
Continuous
 62
     0
370
    30
100
AcDbCircle
 10
141.843637
 20
414.516984
 30
0.0
 40
3.500086023627439
100
AcDbArc
 50
90.000918
 51
154.999122
  0
ARC
  5
27B
330
22C
100
AcDbEntity
  8
0
  6
Continuous
 62
     0
370
    30
100
AcDbCircle
 10
141.843489
 20
414.517216
 30
0.0
 40
7.499853759868836
100
AcDbArc
 50
89.999309
 51
155.000731
  0
LINE
  5
27C
330
22C
100
AcDbEntity
  8
0
  6
Continuous
 62
     0
370
    30
100
AcDbLine
 10
-0.002011
 20
431.125849
 30
0.0
 11
-9.777021
 21
448.056638
 31
0.0
  0
LINE
  5
27D
330
22C
100
AcDbEntity
  8
0
  6
Continuous
 62
     0
370
    30
100
AcDbLine
 10
-9.777021
 20
448.056638
 30
0.0
 11
-9.703816
 21
448.329843
 31
0.0
  0
LINE
  5
27E
330
22C
100
AcDbEntity
  8
0
  6
Continuous
 62
     0
370
    30
100
AcDbLine
 10
0.271195
 20
431.052645
 30
0.0
 11
-9.703816
 21
448.329843
 31
0.0
  0
LINE
  5
27F
330
22C
100
AcDbEntity
  8
0
  6
Continuous
 62
     0
370
    30
100
AcDbLine
 10
-9.703816
 20
448.329843
 30
0.0
 11
10.907581
 21
460.229857
 31
0.0
  0
LINE
  5
280
330
22C
100
AcDbEntity
  8
0
  6
Continuous
 62
     0
370
     0
100
AcDbLine
 10
20.882592
 20
442.952657
 30
0.0
 11
10.907581
 21
460.229857
 31
0.0
  0
ARC
  5
281
330
22C
100
AcDbEntity
  8
0
  6
Continuous
 62
     0
370
    30
100
AcDbCircle
 10
11.407567
 20
459.363778
 30
0.0
 40
1.00003944437492
100
AcDbArc
 50
30.002298
 51
119.99778
  0
LINE
  5
282
330
22C
100
AcDbEntity
  8
0
  6
Continuous
 62
     0
370
    30
100
AcDbLine
 10
21.248617
 20
444.318683
 30
0.0
 11
12.273607
 21
459.863833
 31
0.0
  0
ARC
  5
283
330
22C
100
AcDbEntity
  8
0
  6
Continuous
 62
     0
370
    30
100
AcDbCircle
 10
14.398766
 20
450.732112
 30
0.0
 40
5.994755795933321
100
AcDbArc
 50
78.228231
 51
92.9586
  0
LINE
  5
284
330
22C
100
AcDbEntity
  8
0
  6
Continuous
 62
     0
370
    30
100
AcDbLine
 10
20.096774
 20
448.84982
 30
0.0
 11
15.62177
 21
456.600744
 31
0.0
  0
LINE
  5
285
330
22C
100
AcDbEntity
  8
0
  6
Continuous
 62
     0
370
    30
100
AcDbLine
 10
15.62177
 20
456.600744
 30
0.0
 11
16.533378
 21
457.127062
 31
0.0
  0
LINE
  5
286
330
22C
100
AcDbEntity
  8
0
  6
Continuous
 62
     0
370
     0
100
AcDbLine
 10
21.008383
 20
449.376138
 30
0.0
 11
16.533378
 21
457.127062
 31
0.0
  0
ARC
  5
287
330
22C
100
AcDbEntity
  8
0
  6
Continuous
 62
     0
370
    30
100
AcDbCircle
 10
16.383377
 20
457.38687
 30
0.0
 40
0.3000004551824105
100
AcDbArc
 50
300.000126
 51
29.999956
  0
ARC
  5
288
330
22C
100
AcDbEntity
  8
0
  6
Continuous
 62
     0
370
    30
100
AcDbCircle
 10
21.158371
 20
449.116286
 30
0.0
 40
0.300032831361323
100
AcDbArc
 50
30.006301
 51
119.993766
  0
LINE
  5
289
330
22C
100
AcDbEntity
  8
0
  6
Continuous
 62
     0
370
    30
100
AcDbLine
 10
20.096774
 20
448.84982
 30
0.0
 11
21.008383
 21
449.376138
 31
0.0
  0
ARC
  5
28A
330
22C
100
AcDbEntity
  8
0
  6
Continuous
 62
     0
370
    30
100
AcDbCircle
 10
14.403509
 20
450.724678
 30
0.0
 40
5.994069697025104
100
AcDbArc
 50
327.040627
 51
341.772692
  0
ARC
  5
28B
330
22C
100
AcDbEntity
  8
0
  6
Continuous
 62
     0
370
    30
100
AcDbCircle
 10
20.382552
 20
443.818693
 30
0.0
 40
1.000029018000595
100
AcDbArc
 50
300.001697
 51
29.998374
  0
LINE
  5
28C
330
22C
100
AcDbEntity
  8
0
  6
Continuous
 62
     0
370
    30
100
AcDbLine
 10
0.271195
 20
431.052645
 30
0.0
 11
20.882592
 21
442.952657
 31
0.0
  0
LINE
  5
28D
330
22C
100
AcDbEntity
  8
0
  6
Continuous
 62
     0
370
    30
100
AcDbLine
 10
-0.002011
 20
431.125849
 30
0.0
 11
0.271195
 21
431.052645
 31
0.0
  0
ENDBLK
  5
28F
330
22C
100
AcDbEntity
  8
0
100
AcDbBlockEnd
  0
ENDSEC
  0
SECTION
  2
ENTITIES
  0
INSERT
  5
182
330
1F
100
AcDbEntity
  8
0
  6
Continuous
 62
     7
370
     0
100
AcDbBlockReference
  2
a
 10
220.833328
 20
128.689468
 30
0.0
  0
INSERT
  5
1C8
330
1F
100
AcDbEntity
  8
0
  6
Continuous
 62
     7
370
     0
100
AcDbBlockReference
  2
b
 10
220.833328
 20
128.689468
 30
0.0
  0
INSERT
  5
22B
330
1F
100
AcDbEntity
  8
0
  6
Continuous
 62
     7
370
     0
100
AcDbBlockReference
  2
c
 10
197.940079
 20
128.689468
 30
0.0
  0
INSERT
  5
290
330
1F
100
AcDbEntity
  8
0
  6
Continuous
 62
     7
370
     0
100
AcDbBlockReference
  2
d
 10
187.499542
 20
0.0
 30
0.0
  0
ENDSEC
  0
SECTION
  2
OBJECTS
  0
DICTIONARY
  5
C
330
0
100
AcDbDictionary
281
     1
  3
ACAD_GROUP
350
D
  3
ACAD_LAYOUT
350
1A
  3
ACAD_MATERIAL
350
43
  3
ACAD_MLEADERSTYLE
350
6B
  3
ACAD_MLINESTYLE
350
17
  3
ACAD_PLOTSETTINGS
350
19
  3
ACAD_PLOTSTYLENAME
350
E
  3
ACAD_SCALELIST
350
47
  3
ACAD_TABLESTYLE
350
69
  3
ACAD_VISUALSTYLE
350
2A
  3
AcDbVariableDictionary
350
291
  0
DICTIONARY
  5
29C
330
8
100
AcDbDictionary
280
     1
281
     1
  3
ACAD_XREC_ROUNDTRIP
360
29D
  0
DICTIONARY
  5
D
102
{ACAD_REACTORS
330
C
102
}
330
C
100
AcDbDictionary
281
     1
  0
DICTIONARY
  5
1A
102
{ACAD_REACTORS
330
C
102
}
330
C
100
AcDbDictionary
281
     1
  3
Layout1
350
1E
  3
Layout2
350
26
  3
Model
350
22
  0
DICTIONARY
  5
43
102
{ACAD_REACTORS
330
C
102
}
330
C
100
AcDbDictionary
281
     1
  3
ByBlock
350
45
  3
ByLayer
350
44
  3
Global
350
46
  0
DICTIONARY
  5
6B
102
{ACAD_REACTORS
330
C
102
}
330
C
100
AcDbDictionary
281
     1
  3
Standard
350
6C
  0
DICTIONARY
  5
17
102
{ACAD_REACTORS
330
C
102
}
330
C
100
AcDbDictionary
281
     1
  3
Standard
350
18
  0
DICTIONARY
  5
19
102
{ACAD_REACTORS
330
C
102
}
330
C
100
AcDbDictionary
281
     1
  0
ACDBDICTIONARYWDFLT
  5
E
102
{ACAD_REACTORS
330
C
102
}
330
C
100
AcDbDictionary
281
     1
  3
Normal
350
F
100
AcDbDictionaryWithDefault
340
F
  0
DICTIONARY
  5
47
102
{ACAD_REACTORS
330
C
102
}
330
C
100
AcDbDictionary
281
     1
  3
A0
350
48
  3
A1
350
49
  3
A2
350
4A
  3
A3
350
4B
  3
A4
350
4C
  3
A5
350
4D
  3
A6
350
4E
  3
A7
350
4F
  3
A8
350
50
  3
A9
350
51
  3
B0
350
52
  3
B1
350
53
  3
B2
350
54
  3
B3
350
55
  3
B4
350
56
  3
B5
350
57
  3
B6
350
58
  3
B7
350
59
  3
B8
350
5A
  3
B9
350
5B
  3
C0
350
5C
  3
C1
350
5D
  3
C2
350
5E
  3
C3
350
5F
  3
C4
350
60
  3
C5
350
61
  3
C6
350
62
  3
C7
350
63
  3
C8
350
64
  3
C9
350
65
  3
D0
350
66
  3
D1
350
67
  3
D2
350
68
  0
DICTIONARY
  5
69
102
{ACAD_REACTORS
330
C
102
}
330
C
100
AcDbDictionary
281
     1
  3
Standard
350
6A
  0
DICTIONARY
  5
2A
102
{ACAD_REACTORS
330
C
102
}
330
C
100
AcDbDictionary
281
     1
  3
2dWireframe
350
2F
  3
Basic
350
32
  3
Brighten
350
36
  3
ColorChange
350
3A
  3
Conceptual
350
34
  3
Dim
350
35
  3
EdgeColorOff
350
3D
  3
Facepattern
350
39
  3
Flat
350
2B
  3
FlatWithEdges
350
2C
  3
Gouraud
350
2D
  3
GouraudWithEdges
350
2E
  3
Hidden
350
31
  3
JitterOff
350
3B
  3
Linepattern
350
38
  3
OverhangOff
350
3C
  3
Realistic
350
33
  3
Shaded
350
42
  3
Shaded with edges
350
41
  3
Shades of Gray
350
3E
  3
Sketchy
350
3F
  3
Thicken
350
37
  3
Wireframe
350
30
  3
X-Ray
350
40
  0
DICTIONARY
  5
291
102
{ACAD_REACTORS
330
C
102
}
330
C
100
AcDbDictionary
281
     1
  3
CANNOSCALE
350
29E
  3
CENTEREXE
350
298
  3
CENTERLTYPEFILE
350
299
  3
CMLEADERSTYLE
350
293
  3
CTABLESTYLE
350
292
  3
DIMASSOC
350
29A
  3
HIDETEXT
350
29B
  3
MSLTSCALE
350
29F
  3
PSOLHEIGHT
350
295
  3
PSOLWIDTH
350
294
  0
XRECORD
  5
29D
102
{ACAD_REACTORS
330
29C
102
}
330
29C
100
AcDbXrecord
280
     1
102
VTR_0.000_0.000_1.000_1.000_VISUALSTYLE
340
2F
102
VTR_0.000_0.000_1.000_1.000_GRIDDISPLAY
 70
     3
102
VTR_0.000_0.000_1.000_1.000_GRIDMAJOR
 70
     5
102
VTR_0.000_0.000_1.000_1.000_DEFAULTLIGHTING
280
     1
102
VTR_0.000_0.000_1.000_1.000_DEFAULTLIGHTINGTYPE
 70
     1
102
VTR_0.000_0.000_1.000_1.000_BRIGHTNESS
141
0.0
102
VTR_0.000_0.000_1.000_1.000_CONTRAST
142
0.0
  0
LAYOUT
  5
1E
102
{ACAD_REACTORS
330
1A
102
}
330
1A
100
AcDbPlotSettings
  1

  2
none_device
  4

  6

 40
0.0
 41
0.0
 42
0.0
 43
0.0
 44
0.0
 45
0.0
 46
0.0
 47
0.0
 48
0.0
 49
0.0
140
0.0
141
0.0
142
1.0
143
1.0
 70
   688
 72
     1
 73
     0
 74
     5
  7

 75
    16
147
1.0
148
0.0
149
0.0
100
AcDbLayout
  1
Layout1
 70
     1
 71
     1
 10
0.0
 20
0.0
 11
420.0
 21
297.0
 12
0.0
 22
0.0
 32
0.0
 14
1.000000E+20
 24
1.000000E+20
 34
1.000000E+20
 15
-1.000000E+20
 25
-1.000000E+20
 35
-1.000000E+20
146
0.0
 13
0.0
 23
0.0
 33
0.0
 16
1.0
 26
0.0
 36
0.0
 17
0.0
 27
1.0
 37
0.0
 76
     0
330
1B
  0
LAYOUT
  5
26
102
{ACAD_REACTORS
330
1A
102
}
330
1A
100
AcDbPlotSettings
  1

  2
none_device
  4

  6

 40
0.0
 41
0.0
 42
0.0
 43
0.0
 44
0.0
 45
0.0
 46
0.0
 47
0.0
 48
0.0
 49
0.0
140
0.0
141
0.0
142
1.0
143
1.0
 70
   688
 72
     1
 73
     0
 74
     5
  7

 75
    16
147
1.0
148
0.0
149
0.0
100
AcDbLayout
  1
Layout2
 70
     1
 71
     2
 10
0.0
 20
0.0
 11
0.0
 21
0.0
 12
0.0
 22
0.0
 32
0.0
 14
0.0
 24
0.0
 34
0.0
 15
0.0
 25
0.0
 35
0.0
146
0.0
 13
0.0
 23
0.0
 33
0.0
 16
1.0
 26
0.0
 36
0.0
 17
0.0
 27
1.0
 37
0.0
 76
     0
330
23
  0
LAYOUT
  5
22
102
{ACAD_REACTORS
330
1A
102
}
330
1A
100
AcDbPlotSettings
  1

  2
none_device
  4
Letter_(8.50_x_11.00_Inches)
  6

 40
6.35
 41
6.35
 42
6.350005
 43
6.350005
 44
215.9
 45
279.4
 46
0.0
 47
0.0
 48
0.0
 49
0.0
140
0.0
141
0.0
142
1.0
143
1.0
 70
  1712
 72
     1
 73
     0
 74
     0
  7

 75
     0
147
1.0
148
0.0
149
0.0
100
AcDbLayout
  1
Model
 70
     1
 71
     0
 10
-9.77702
 20
119.363022
 11
568.421997
 21
515.806458
 12
0.0
 22
0.0
 32
0.0
 14
-9.77702
 24
119.363022
 34
0.0
 15
568.421997
 25
515.806458
 35
0.0
146
0.0
 13
0.0
 23
0.0
 33
0.0
 16
1.0
 26
0.0
 36
0.0
 17
0.0
 27
1.0
 37
0.0
 76
     0
330
1F
331
29
  0
MATERIAL
  5
45
102
{ACAD_REACTORS
330
43
102
}
102
{ACAD_XDICTIONARY
360
2D2
102
}
330
43
100
AcDbMaterial
  1
ByBlock
  0
MATERIAL
  5
44
102
{ACAD_REACTORS
330
43
102
}
102
{ACAD_XDICTIONARY
360
2D0
102
}
330
43
100
AcDbMaterial
  1
ByLayer
  0
MATERIAL
  5
46
102
{ACAD_REACTORS
330
43
102
}
102
{ACAD_XDICTIONARY
360
2D4
102
}
330
43
100
AcDbMaterial
  1
Global
  0
MLEADERSTYLE
  5
6C
102
{ACAD_REACTORS
330
6B
102
}
102
{ACAD_XDICTIONARY
360
2D7
102
}
330
6B
100
AcDbMLeaderStyle
170
     2
171
     1
172
     0
 90
        2
 40
0.0
 41
0.0
173
     1
 91
-1056964608
340
14
 92
       -2
290
     1
 42
2.0
291
     1
 43
8.0
  3
Standard
341
0
 44
4.0
300

342
11
174
     1
178
     6
175
     1
176
     0
 93
-1056964608
 45
4.0
292
     0
297
     0
 46
4.0
343
0
 94
-1056964608
 47
1.0
 49
1.0
140
1.0
293
     1
141
0.0
294
     1
177
     0
142
1.0
295
     0
296
     0
143
3.75
1001
ACAD_MLEADERVER
1070
     2
  0
MLINESTYLE
  5
18
102
{ACAD_REACTORS
330
17
102
}
330
17
100
AcDbMlineStyle
  2
Standard
 70
     0
  3

 62
   256
 51
90.0
 52
90.0
 71
     2
 49
0.5
 62
   256
  6
BYLAYER
 49
-0.5
 62
   256
  6
BYLAYER
  0
ACDBPLACEHOLDER
  5
F
102
{ACAD_REACTORS
330
E
102
}
330
E
  0
SCALE
  5
48
102
{ACAD_REACTORS
330
47
102
}
330
47
100
AcDbScale
 70
     0
300
1:1
140
1.0
141
1.0
290
     1
  0
SCALE
  5
49
102
{ACAD_REACTORS
330
47
102
}
330
47
100
AcDbScale
 70
     0
300
1:2
140
1.0
141
2.0
290
     0
  0
SCALE
  5
4A
102
{ACAD_REACTORS
330
47
102
}
330
47
100
AcDbScale
 70
     0
300
1:4
140
1.0
141
4.0
290
     0
  0
SCALE
  5
4B
102
{ACAD_REACTORS
330
47
102
}
330
47
100
AcDbScale
 70
     0
300
1:5
140
1.0
141
5.0
290
     0
  0
SCALE
  5
4C
102
{ACAD_REACTORS
330
47
102
}
330
47
100
AcDbScale
 70
     0
300
1:8
140
1.0
141
8.0
290
     0
  0
SCALE
  5
4D
102
{ACAD_REACTORS
330
47
102
}
330
47
100
AcDbScale
 70
     0
300
1:10
140
1.0
141
10.0
290
     0
  0
SCALE
  5
4E
102
{ACAD_REACTORS
330
47
102
}
330
47
100
AcDbScale
 70
     0
300
1:16
140
1.0
141
16.0
290
     0
  0
SCALE
  5
4F
102
{ACAD_REACTORS
330
47
102
}
330
47
100
AcDbScale
 70
     0
300
1:20
140
1.0
141
20.0
290
     0
  0
SCALE
  5
50
102
{ACAD_REACTORS
330
47
102
}
330
47
100
AcDbScale
 70
     0
300
1:30
140
1.0
141
30.0
290
     0
  0
SCALE
  5
51
102
{ACAD_REACTORS
330
47
102
}
330
47
100
AcDbScale
 70
     0
300
1:40
140
1.0
141
40.0
290
     0
  0
SCALE
  5
52
102
{ACAD_REACTORS
330
47
102
}
330
47
100
AcDbScale
 70
     0
300
1:50
140
1.0
141
50.0
290
     0
  0
SCALE
  5
53
102
{ACAD_REACTORS
330
47
102
}
330
47
100
AcDbScale
 70
     0
300
1:100
140
1.0
141
100.0
290
     0
  0
SCALE
  5
54
102
{ACAD_REACTORS
330
47
102
}
330
47
100
AcDbScale
 70
     0
300
2:1
140
2.0
141
1.0
290
     0
  0
SCALE
  5
55
102
{ACAD_REACTORS
330
47
102
}
330
47
100
AcDbScale
 70
     0
300
4:1
140
4.0
141
1.0
290
     0
  0
SCALE
  5
56
102
{ACAD_REACTORS
330
47
102
}
330
47
100
AcDbScale
 70
     0
300
8:1
140
8.0
141
1.0
290
     0
  0
SCALE
  5
57
102
{ACAD_REACTORS
330
47
102
}
330
47
100
AcDbScale
 70
     0
300
10:1
140
10.0
141
1.0
290
     0
  0
SCALE
  5
58
102
{ACAD_REACTORS
330
47
102
}
330
47
100
AcDbScale
 70
     0
300
100:1
140
100.0
141
1.0
290
     0
  0
SCALE
  5
59
102
{ACAD_REACTORS
330
47
102
}
330
47
100
AcDbScale
 70
     0
300
1/128" = 1'-0"
140
0.007812
141
12.0
290
     0
  0
SCALE
  5
5A
102
{ACAD_REACTORS
330
47
102
}
330
47
100
AcDbScale
 70
     0
300
1/64" = 1'-0"
140
0.015625
141
12.0
290
     0
  0
SCALE
  5
5B
102
{ACAD_REACTORS
330
47
102
}
330
47
100
AcDbScale
 70
     0
300
1/32" = 1'-0"
140
0.03125
141
12.0
290
     0
  0
SCALE
  5
5C
102
{ACAD_REACTORS
330
47
102
}
330
47
100
AcDbScale
 70
     0
300
1/16" = 1'-0"
140
0.0625
141
12.0
290
     0
  0
SCALE
  5
5D
102
{ACAD_REACTORS
330
47
102
}
330
47
100
AcDbScale
 70
     0
300
3/32" = 1'-0"
140
0.09375
141
12.0
290
     0
  0
SCALE
  5
5E
102
{ACAD_REACTORS
330
47
102
}
330
47
100
AcDbScale
 70
     0
300
1/8" = 1'-0"
140
0.125
141
12.0
290
     0
  0
SCALE
  5
5F
102
{ACAD_REACTORS
330
47
102
}
330
47
100
AcDbScale
 70
     0
300
3/16" = 1'-0"
140
0.1875
141
12.0
290
     0
  0
SCALE
  5
60
102
{ACAD_REACTORS
330
47
102
}
330
47
100
AcDbScale
 70
     0
300
1/4" = 1'-0"
140
0.25
141
12.0
290
     0
  0
SCALE
  5
61
102
{ACAD_REACTORS
330
47
102
}
330
47
100
AcDbScale
 70
     0
300
3/8" = 1'-0"
140
0.375
141
12.0
290
     0
  0
SCALE
  5
62
102
{ACAD_REACTORS
330
47
102
}
330
47
100
AcDbScale
 70
     0
300
1/2" = 1'-0"
140
0.5
141
12.0
290
     0
  0
SCALE
  5
63
102
{ACAD_REACTORS
330
47
102
}
330
47
100
AcDbScale
 70
     0
300
3/4" = 1'-0"
140
0.75
141
12.0
290
     0
  0
SCALE
  5
64
102
{ACAD_REACTORS
330
47
102
}
330
47
100
AcDbScale
 70
     0
300
1" = 1'-0"
140
1.0
141
12.0
290
     0
  0
SCALE
  5
65
102
{ACAD_REACTORS
330
47
102
}
330
47
100
AcDbScale
 70
     0
300
1-1/2" = 1'-0"
140
1.5
141
12.0
290
     0
  0
SCALE
  5
66
102
{ACAD_REACTORS
330
47
102
}
330
47
100
AcDbScale
 70
     0
300
3" = 1'-0"
140
3.0
141
12.0
290
     0
  0
SCALE
  5
67
102
{ACAD_REACTORS
330
47
102
}
330
47
100
AcDbScale
 70
     0
300
6" = 1'-0"
140
6.0
141
12.0
290
     0
  0
SCALE
  5
68
102
{ACAD_REACTORS
330
47
102
}
330
47
100
AcDbScale
 70
     0
300
1'-0" = 1'-0"
140
12.0
141
12.0
290
     0
  0
TABLESTYLE
  5
6A
102
{ACAD_REACTORS
330
69
102
}
330
69
100
AcDbTableStyle
  3
Standard
 70
     0
 71
     0
 40
1.5
 41
1.5
280
     0
281
     0
  7
Standard
140
4.5
170
     2
 62
     0
 63
   257
283
     0
274
    -2
284
     1
 64
     0
275
    -2
285
     1
 65
     0
276
    -2
286
     1
 66
     0
277
    -2
287
     1
 67
     0
278
    -2
288
     1
 68
     0
279
    -2
289
     1
 69
     0
  7
Standard
140
6.0
170
     5
 62
     0
 63
   257
283
     0
274
    -2
284
     1
 64
     0
275
    -2
285
     1
 65
     0
276
    -2
286
     1
 66
     0
277
    -2
287
     1
 67
     0
278
    -2
288
     1
 68
     0
279
    -2
289
     1
 69
     0
  7
Standard
140
4.5
170
     5
 62
     0
 63
   257
283
     0
274
    -2
284
     1
 64
     0
275
    -2
285
     1
 65
     0
276
    -2
286
     1
 66
     0
277
    -2
287
     1
 67
     0
278
    -2
288
     1
 68
     0
279
    -2
289
     1
 69
     0
  0
VISUALSTYLE
  5
2F
102
{ACAD_REACTORS
330
2A
102
}
102
{ACAD_XDICTIONARY
360
2A8
102
}
330
2A
100
AcDbVisualStyle
  2
2dWireframe
 70
     4
 71
     0
 72
     2
 73
     0
 90
        0
 40
0.6
 41
30.0
 62
     5
 63
     7
 74
     1
 91
        4
 64
     7
 65
   257
 75
     1
175
     1
 42
1.0
 92
        0
 66
   257
 43
1.0
 76
     1
 77
     6
 78
     2
 67
     7
 79
     5
170
     0
171
     0
290
     0
174
     0
 93
        1
 44
0.0
173
     0
291
     0
 45
0.0
1001
ACAD
1000
AcDbSavedByObjectVersion
1070
     0
  0
VISUALSTYLE
  5
32
102
{ACAD_REACTORS
330
2A
102
}
102
{ACAD_XDICTIONARY
360
2AE
102
}
330
2A
100
AcDbVisualStyle
  2
Basic
 70
     7
 71
     1
 72
     0
 73
     1
 90
        0
 40
0.6
 41
30.0
 62
     5
 63
     7
 74
     0
 91
        4
 64
     7
 65
   257
 75
     1
175
     1
 42
1.0
 92
        8
 66
     7
 43
1.0
 76
     1
 77
     6
 78
     2
 67
     7
 79
     5
170
     0
171
     0
290
     0
174
     0
 93
        1
 44
0.0
173
     0
291
     1
 45
0.0
1001
ACAD
1000
AcDbSavedByObjectVersion
1070
     0
  0
VISUALSTYLE
  5
36
102
{ACAD_REACTORS
330
2A
102
}
102
{ACAD_XDICTIONARY
360
2B6
102
}
330
2A
100
AcDbVisualStyle
  2
Brighten
 70
    12
 71
     2
 72
     2
 73
     0
 90
        0
 40
0.6
 41
30.0
 62
     5
 63
     7
 74
     1
 91
        4
 64
     7
 65
   257
 75
     1
175
     1
 42
1.0
 92
        8
 66
     7
 43
1.0
 76
     1
 77
     6
 78
     2
 67
     7
 79
     5
170
     0
171
     0
290
     0
174
     0
 93
        1
 44
50.0
173
     0
291
     1
 45
0.0
1001
ACAD
1000
AcDbSavedByObjectVersion
1070
     0
  0
VISUALSTYLE
  5
3A
102
{ACAD_REACTORS
330
2A
102
}
102
{ACAD_XDICTIONARY
360
2BE
102
}
330
2A
100
AcDbVisualStyle
  2
ColorChange
 70
    16
 71
     2
 72
     2
 73
     3
 90
        0
 40
0.6
 41
30.0
 62
     5
 63
     8
 74
     1
 91
        4
 64
     7
 65
   257
 75
     1
175
     1
 42
1.0
 92
        8
 66
     8
 43
1.0
 76
     1
 77
     6
 78
     2
 67
     7
 79
     5
170
     0
171
     0
290
     0
174
     0
 93
        1
 44
0.0
173
     0
291
     1
 45
0.0
1001
ACAD
1000
AcDbSavedByObjectVersion
1070
     0
  0
VISUALSTYLE
  5
34
102
{ACAD_REACTORS
330
2A
102
}
102
{ACAD_XDICTIONARY
360
2B2
102
}
330
2A
100
AcDbVisualStyle
  2
Conceptual
 70
     9
 71
     3
 72
     2
 73
     0
 90
        0
 40
0.6
 41
30.0
 62
     5
 63
     7
 74
     2
 91
        2
 64
     7
 65
   257
 75
     1
175
     1
 42
179.0
 92
        8
 66
     7
 43
1.0
 76
     1
 77
     6
 78
     2
 67
     7
 79
     3
170
     0
171
     0
290
     0
174
     0
 93
        1
 44
0.0
173
     0
291
     0
 45
0.0
1001
ACAD
1000
AcDbSavedByObjectVersion
1070
     0
  0
VISUALSTYLE
  5
35
102
{ACAD_REACTORS
330
2A
102
}
102
{ACAD_XDICTIONARY
360
2B4
102
}
330
2A
100
AcDbVisualStyle
  2
Dim
 70
    11
 71
     2
 72
     2
 73
     0
 90
        0
 40
0.6
 41
30.0
 62
     5
 63
     7
 74
     1
 91
        4
 64
     7
 65
   257
 75
     1
175
     1
 42
1.0
 92
        8
 66
     7
 43
1.0
 76
     1
 77
     6
 78
     2
 67
     7
 79
     5
170
     0
171
     0
290
     0
174
     0
 93
        1
 44
-50.0
173
     0
291
     1
 45
0.0
1001
ACAD
1000
AcDbSavedByObjectVersion
1070
     0
  0
VISUALSTYLE
  5
3D
102
{ACAD_REACTORS
330
2A
102
}
102
{ACAD_XDICTIONARY
360
2C4
102
}
330
2A
100
AcDbVisualStyle
  2
EdgeColorOff
 70
    22
 71
     2
 72
     2
 73
     0
 90
        0
 40
0.6
 41
30.0
 62
     5
 63
     7
 74
     1
 91
        4
 64
     7
 65
   257
 75
     1
175
     1
 42
1.0
 92
        8
 66
     7
 43
1.0
 76
     1
 77
     6
 78
     2
 67
     7
 79
     5
170
     0
171
     0
290
     0
174
     0
 93
        1
 44
0.0
173
     0
291
     1
 45
0.0
1001
ACAD
1000
AcDbSavedByObjectVersion
1070
     0
  0
VISUALSTYLE
  5
39
102
{ACAD_REACTORS
330
2A
102
}
102
{ACAD_XDICTIONARY
360
2BC
102
}
330
2A
100
AcDbVisualStyle
  2
Facepattern
 70
    15
 71
     2
 72
     2
 73
     0
 90
        0
 40
0.6
 41
30.0
 62
     5
 63
     7
 74
     1
 91
        4
 64
     7
 65
   257
 75
     1
175
     1
 42
1.0
 92
        8
 66
     7
 43
1.0
 76
     1
 77
     6
 78
     2
 67
     7
 79
     5
170
     0
171
     0
290
     0
174
     0
 93
        1
 44
0.0
173
     0
291
     1
 45
0.0
1001
ACAD
1000
AcDbSavedByObjectVersion
1070
     0
  0
VISUALSTYLE
  5
2B
102
{ACAD_REACTORS
330
2A
102
}
102
{ACAD_XDICTIONARY
360
2A0
102
}
330
2A
100
AcDbVisualStyle
  2
Flat
 70
     0
 71
     2
 72
     1
 73
     1
 90
        2
 40
0.6
 41
30.0
 62
     5
 63
     7
 74
     0
 91
        0
 64
     7
 65
   257
 75
     1
175
     1
 42
1.0
 92
        8
 66
     7
 43
1.0
 76
     1
 77
     6
 78
     2
 67
     7
 79
     5
170
     0
171
     0
290
     0
174
     0
 93
       13
 44
0.0
173
     0
291
     1
 45
0.0
1001
ACAD
1000
AcDbSavedByObjectVersion
1070
     0
  0
VISUALSTYLE
  5
2C
102
{ACAD_REACTORS
330
2A
102
}
102
{ACAD_XDICTIONARY
360
2A2
102
}
330
2A
100
AcDbVisualStyle
  2
FlatWithEdges
 70
     1
 71
     2
 72
     1
 73
     1
 90
        2
 40
0.6
 41
30.0
 62
     5
 63
     7
 74
     1
 91
        0
 64
     7
 65
   257
 75
     1
175
     1
 42
1.0
 92
        0
 66
   257
 43
1.0
 76
     1
 77
     6
 78
     2
 67
     7
 79
     5
170
     0
171
     0
290
     0
174
     0
 93
       13
 44
0.0
173
     0
291
     1
 45
0.0
1001
ACAD
1000
AcDbSavedByObjectVersion
1070
     0
  0
VISUALSTYLE
  5
2D
102
{ACAD_REACTORS
330
2A
102
}
102
{ACAD_XDICTIONARY
360
2A4
102
}
330
2A
100
AcDbVisualStyle
  2
Gouraud
 70
     2
 71
     2
 72
     2
 73
     1
 90
        2
 40
0.6
 41
30.0
 62
     5
 63
     7
 74
     0
 91
        0
 64
     7
 65
   257
 75
     1
175
     1
 42
1.0
 92
        0
 66
     7
 43
1.0
 76
     1
 77
     6
 78
     2
 67
     7
 79
     5
170
     0
171
     0
290
     0
174
     0
 93
       13
 44
0.0
173
     0
291
     1
 45
0.0
1001
ACAD
1000
AcDbSavedByObjectVersion
1070
     0
  0
VISUALSTYLE
  5
2E
102
{ACAD_REACTORS
330
2A
102
}
102
{ACAD_XDICTIONARY
360
2A6
102
}
330
2A
100
AcDbVisualStyle
  2
GouraudWithEdges
 70
     3
 71
     2
 72
     2
 73
     1
 90
        2
 40
0.6
 41
30.0
 62
     5
 63
     7
 74
     1
 91
        0
 64
     7
 65
   257
 75
     1
175
     1
 42
1.0
 92
        0
 66
   257
 43
1.0
 76
     1
 77
     6
 78
     2
 67
     7
 79
     5
170
     0
171
     0
290
     0
174
     0
 93
       13
 44
0.0
173
     0
291
     1
 45
0.0
1001
ACAD
1000
AcDbSavedByObjectVersion
1070
     0
  0
VISUALSTYLE
  5
31
102
{ACAD_REACTORS
330
2A
102
}
102
{ACAD_XDICTIONARY
360
2AC
102
}
330
2A
100
AcDbVisualStyle
  2
Hidden
 70
     6
 71
     1
 72
     2
 73
     2
 90
        0
 40
0.6
 41
30.0
 62
     5
 63
     7
 74
     2
 91
        2
 64
     7
 65
   257
 75
     2
175
     1
 42
40.0
 92
        0
 66
   257
 43
1.0
 76
     1
 77
     6
 78
     2
 67
     7
 79
     3
170
     0
171
     0
290
     0
174
     0
 93
        1
 44
0.0
173
     0
291
     0
 45
0.0
1001
ACAD
1000
AcDbSavedByObjectVersion
1070
     0
  0
VISUALSTYLE
  5
3B
102
{ACAD_REACTORS
330
2A
102
}
102
{ACAD_XDICTIONARY
360
2C0
102
}
330
2A
100
AcDbVisualStyle
  2
JitterOff
 70
    20
 71
     2
 72
     2
 73
     0
 90
        0
 40
0.6
 41
30.0
 62
     5
 63
     7
 74
     1
 91
        4
 64
     7
 65
   257
 75
     1
175
     1
 42
1.0
 92
       10
 66
     7
 43
1.0
 76
     1
 77
     6
 78
     2
 67
     7
 79
     5
170
     0
171
     0
290
     0
174
     0
 93
        1
 44
0.0
173
     0
291
     1
 45
0.0
1001
ACAD
1000
AcDbSavedByObjectVersion
1070
     0
  0
VISUALSTYLE
  5
38
102
{ACAD_REACTORS
330
2A
102
}
102
{ACAD_XDICTIONARY
360
2BA
102
}
330
2A
100
AcDbVisualStyle
  2
Linepattern
 70
    14
 71
     2
 72
     2
 73
     0
 90
        0
 40
0.6
 41
30.0
 62
     5
 63
     7
 74
     1
 91
        4
 64
     7
 65
   257
 75
     7
175
     7
 42
1.0
 92
        8
 66
     7
 43
1.0
 76
     1
 77
     6
 78
     2
 67
     7
 79
     5
170
     0
171
     0
290
     0
174
     0
 93
        1
 44
0.0
173
     0
291
     1
 45
0.0
1001
ACAD
1000
AcDbSavedByObjectVersion
1070
     0
  0
VISUALSTYLE
  5
3C
102
{ACAD_REACTORS
330
2A
102
}
102
{ACAD_XDICTIONARY
360
2C2
102
}
330
2A
100
AcDbVisualStyle
  2
OverhangOff
 70
    21
 71
     2
 72
     2
 73
     0
 90
        0
 40
0.6
 41
30.0
 62
     5
 63
     7
 74
     1
 91
        4
 64
     7
 65
   257
 75
     1
175
     1
 42
1.0
 92
        9
 66
     7
 43
1.0
 76
     1
 77
     6
 78
     2
 67
     7
 79
     5
170
     0
171
     0
290
     0
174
     0
 93
        1
 44
0.0
173
     0
291
     1
 45
0.0
1001
ACAD
1000
AcDbSavedByObjectVersion
1070
     0
  0
VISUALSTYLE
  5
33
102
{ACAD_REACTORS
330
2A
102
}
102
{ACAD_XDICTIONARY
360
2B0
102
}
330
2A
100
AcDbVisualStyle
  2
Realistic
 70
     8
 71
     2
 72
     3
 73
     0
 90
        2
 40
0.6
 41
30.0
 62
     5
 63
     7
 74
     0
 91
        0
 64
     7
 65
   257
 75
     1
175
     1
 42
1.0
 92
        8
 66
   257
 43
1.0
 76
     1
 77
     6
 78
     2
 67
     7
 79
     3
170
     0
171
     0
290
     0
174
     0
 93
       13
 44
0.0
173
     0
291
     0
 45
0.0
1001
ACAD
1000
AcDbSavedByObjectVersion
1070
     0
  0
VISUALSTYLE
  5
42
102
{ACAD_REACTORS
330
2A
102
}
102
{ACAD_XDICTIONARY
360
2CE
102
}
330
2A
100
AcDbVisualStyle
  2
Shaded
 70
    27
 71
     2
 72
     2
 73
     1
 90
        2
 40
0.6
 41
30.0
 62
     5
 63
     7
 74
     0
 91
        4
 64
     7
 65
   257
 75
     1
175
     1
 42
1.0
 92
        8
 66
   257
 43
1.0
 76
     1
 77
     6
 78
     2
 67
     8
 79
     3
170
     0
171
     0
290
     0
174
     0
 93
        5
 44
0.0
173
     0
291
     0
 45
0.0
1001
ACAD
1000
AcDbSavedByObjectVersion
1070
     0
  0
VISUALSTYLE
  5
41
102
{ACAD_REACTORS
330
2A
102
}
102
{ACAD_XDICTIONARY
360
2CC
102
}
330
2A
100
AcDbVisualStyle
  2
Shaded with edges
 70
    26
 71
     2
 72
     2
 73
     1
 90
        2
 40
0.6
 41
30.0
 62
     5
 63
     7
 74
     1
 91
       10
 64
     7
 65
   257
 75
     2
175
     1
 42
1.0
 92
        8
 66
   257
 43
1.0
 76
     1
 77
     6
 78
     2
 67
     7
 79
     3
170
     0
171
     0
290
     0
174
     0
 93
        5
 44
0.0
173
     0
291
     0
 45
0.0
1001
ACAD
1000
AcDbSavedByObjectVersion
1070
     0
  0
VISUALSTYLE
  5
3E
102
{ACAD_REACTORS
330
2A
102
}
102
{ACAD_XDICTIONARY
360
2C6
102
}
330
2A
100
AcDbVisualStyle
  2
Shades of Gray
 70
    23
 71
     2
 72
     2
 73
     3
 90
        0
 40
0.6
 41
30.0
 62
     5
 63
     7
 74
     2
 91
        2
 64
     7
 65
     7
 75
     1
175
     1
 42
40.0
 92
        8
 66
     7
 43
1.0
 76
     1
 77
     6
 78
     2
 67
     7
 79
     3
170
     0
171
     0
290
     0
174
     0
 93
        1
 44
0.0
173
     0
291
     0
 45
0.0
1001
ACAD
1000
AcDbSavedByObjectVersion
1070
     0
  0
VISUALSTYLE
  5
3F
102
{ACAD_REACTORS
330
2A
102
}
102
{ACAD_XDICTIONARY
360
2C8
102
}
330
2A
100
AcDbVisualStyle
  2
Sketchy
 70
    24
 71
     1
 72
     2
 73
     2
 90
        0
 40
0.6
 41
30.0
 62
     5
 63
     7
 74
     2
 91
        2
 64
     7
 65
     7
 75
     1
175
     1
 42
40.0
 92
       11
 66
     7
 43
1.0
 76
     1
 77
     6
 78
     2
 67
     7
 79
     6
170
     0
171
     0
290
     0
174
     0
 93
        1
 44
0.0
173
     0
291
     0
 45
0.0
1001
ACAD
1000
AcDbSavedByObjectVersion
1070
     0
  0
VISUALSTYLE
  5
37
102
{ACAD_REACTORS
330
2A
102
}
102
{ACAD_XDICTIONARY
360
2B8
102
}
330
2A
100
AcDbVisualStyle
  2
Thicken
 70
    13
 71
     2
 72
     2
 73
     0
 90
        0
 40
0.6
 41
30.0
 62
     5
 63
     7
 74
     1
 91
        4
 64
     7
 65
   257
 75
     1
175
     1
 42
1.0
 92
       12
 66
     7
 43
1.0
 76
     1
 77
     6
 78
     2
 67
     7
 79
     5
170
     0
171
     0
290
     0
174
     0
 93
        1
 44
0.0
173
     0
291
     1
 45
0.0
1001
ACAD
1000
AcDbSavedByObjectVersion
1070
     0
  0
VISUALSTYLE
  5
30
102
{ACAD_REACTORS
330
2A
102
}
102
{ACAD_XDICTIONARY
360
2AA
102
}
330
2A
100
AcDbVisualStyle
  2
Wireframe
 70
     5
 71
     0
 72
     2
 73
     0
 90
        0
 40
0.6
 41
30.0
 62
     5
 63
     7
 74
     1
 91
        4
 64
     7
 65
   257
 75
     1
175
     1
 42
1.0
 92
        0
 66
   257
 43
1.0
 76
     1
 77
     6
 78
     2
 67
     7
 79
     3
170
     0
171
     0
290
     0
174
     0
 93
        1
 44
0.0
173
     0
291
     0
 45
0.0
1001
ACAD
1000
AcDbSavedByObjectVersion
1070
     0
  0
VISUALSTYLE
  5
40
102
{ACAD_REACTORS
330
2A
102
}
102
{ACAD_XDICTIONARY
360
2CA
102
}
330
2A
100
AcDbVisualStyle
  2
X-Ray
 70
    25
 71
     2
 72
     2
 73
     1
 90
        1
 40
0.5
 41
30.0
 62
     5
 63
     7
 74
     1
 91
        0
 64
     7
 65
   257
 75
     1
175
     1
 42
1.0
 92
        8
 66
     7
 43
1.0
 76
     1
 77
     6
 78
     2
 67
     7
 79
     3
170
     0
171
     0
290
     0
174
     0
 93
       13
 44
0.0
173
     0
291
     0
 45
0.0
1001
ACAD
1000
AcDbSavedByObjectVersion
1070
     0
  0
DICTIONARYVAR
  5
29E
102
{ACAD_REACTORS
330
291
102
}
330
291
100
DictionaryVariables
280
     0
  1
1:1
  0
DICTIONARYVAR
  5
298
102
{ACAD_REACTORS
330
291
102
}
330
291
100
DictionaryVariables
280
     0
  1
3.500000
  0
DICTIONARYVAR
  5
299
102
{ACAD_REACTORS
330
291
102
}
330
291
100
DictionaryVariables
280
     0
  1
acadiso.lin
  0
DICTIONARYVAR
  5
293
102
{ACAD_REACTORS
330
291
102
}
330
291
100
DictionaryVariables
280
     0
  1
Standard
  0
DICTIONARYVAR
  5
292
102
{ACAD_REACTORS
330
291
102
}
330
291
100
DictionaryVariables
280
     0
  1
Standard
  0
DICTIONARYVAR
  5
29A
102
{ACAD_REACTORS
330
291
102
}
330
291
100
DictionaryVariables
280
     0
  1
2
  0
DICTIONARYVAR
  5
29B
102
{ACAD_REACTORS
330
291
102
}
330
291
100
DictionaryVariables
280
     0
  1
1
  0
DICTIONARYVAR
  5
29F
102
{ACAD_REACTORS
330
291
102
}
330
291
100
DictionaryVariables
280
     0
  1
1
  0
DICTIONARYVAR
  5
295
102
{ACAD_REACTORS
330
291
102
}
330
291
100
DictionaryVariables
280
     0
  1
80.000000
  0
DICTIONARYVAR
  5
294
102
{ACAD_REACTORS
330
291
102
}
330
291
100
DictionaryVariables
280
     0
  1
5.000000
  0
DICTIONARY
  5
2D2
330
45
100
AcDbDictionary
280
     1
281
     1
  3
ACAD_XREC_ROUNDTRIP
360
2D3
  0
DICTIONARY
  5
2D0
330
44
100
AcDbDictionary
280
     1
281
     1
  3
ACAD_XREC_ROUNDTRIP
360
2D1
  0
DICTIONARY
  5
2D4
330
46
100
AcDbDictionary
280
     1
281
     1
  3
ACAD_XREC_ROUNDTRIP
360
2D5
  0
DICTIONARY
  5
2D7
330
6C
100
AcDbDictionary
280
     1
281
     1
  3
ACAD_XREC_ROUNDTRIP
360
2D8
  0
DICTIONARY
  5
2A8
330
2F
100
AcDbDictionary
280
     1
281
     1
  3
ACAD_XREC_ROUNDTRIP
360
2A9
  0
DICTIONARY
  5
2AE
330
32
100
AcDbDictionary
280
     1
281
     1
  3
ACAD_XREC_ROUNDTRIP
360
2AF
  0
DICTIONARY
  5
2B6
330
36
100
AcDbDictionary
280
     1
281
     1
  3
ACAD_XREC_ROUNDTRIP
360
2B7
  0
DICTIONARY
  5
2BE
330
3A
100
AcDbDictionary
280
     1
281
     1
  3
ACAD_XREC_ROUNDTRIP
360
2BF
  0
DICTIONARY
  5
2B2
330
34
100
AcDbDictionary
280
     1
281
     1
  3
ACAD_XREC_ROUNDTRIP
360
2B3
  0
DICTIONARY
  5
2B4
330
35
100
AcDbDictionary
280
     1
281
     1
  3
ACAD_XREC_ROUNDTRIP
360
2B5
  0
DICTIONARY
  5
2C4
330
3D
100
AcDbDictionary
280
     1
281
     1
  3
ACAD_XREC_ROUNDTRIP
360
2C5
  0
DICTIONARY
  5
2BC
330
39
100
AcDbDictionary
280
     1
281
     1
  3
ACAD_XREC_ROUNDTRIP
360
2BD
  0
DICTIONARY
  5
2A0
330
2B
100
AcDbDictionary
280
     1
281
     1
  3
ACAD_XREC_ROUNDTRIP
360
2A1
  0
DICTIONARY
  5
2A2
330
2C
100
AcDbDictionary
280
     1
281
     1
  3
ACAD_XREC_ROUNDTRIP
360
2A3
  0
DICTIONARY
  5
2A4
330
2D
100
AcDbDictionary
280
     1
281
     1
  3
ACAD_XREC_ROUNDTRIP
360
2A5
  0
DICTIONARY
  5
2A6
330
2E
100
AcDbDictionary
280
     1
281
     1
  3
ACAD_XREC_ROUNDTRIP
360
2A7
  0
DICTIONARY
  5
2AC
330
31
100
AcDbDictionary
280
     1
281
     1
  3
ACAD_XREC_ROUNDTRIP
360
2AD
  0
DICTIONARY
  5
2C0
330
3B
100
AcDbDictionary
280
     1
281
     1
  3
ACAD_XREC_ROUNDTRIP
360
2C1
  0
DICTIONARY
  5
2BA
330
38
100
AcDbDictionary
280
     1
281
     1
  3
ACAD_XREC_ROUNDTRIP
360
2BB
  0
DICTIONARY
  5
2C2
330
3C
100
AcDbDictionary
280
     1
281
     1
  3
ACAD_XREC_ROUNDTRIP
360
2C3
  0
DICTIONARY
  5
2B0
330
33
100
AcDbDictionary
280
     1
281
     1
  3
ACAD_XREC_ROUNDTRIP
360
2B1
  0
DICTIONARY
  5
2CE
330
42
100
AcDbDictionary
280
     1
281
     1
  3
ACAD_XREC_ROUNDTRIP
360
2CF
  0
DICTIONARY
  5
2CC
330
41
100
AcDbDictionary
280
     1
281
     1
  3
ACAD_XREC_ROUNDTRIP
360
2CD
  0
DICTIONARY
  5
2C6
330
3E
100
AcDbDictionary
280
     1
281
     1
  3
ACAD_XREC_ROUNDTRIP
360
2C7
  0
DICTIONARY
  5
2C8
330
3F
100
AcDbDictionary
280
     1
281
     1
  3
ACAD_XREC_ROUNDTRIP
360
2C9
  0
DICTIONARY
  5
2B8
330
37
100
AcDbDictionary
280
     1
281
     1
  3
ACAD_XREC_ROUNDTRIP
360
2B9
  0
DICTIONARY
  5
2AA
330
30
100
AcDbDictionary
280
     1
281
     1
  3
ACAD_XREC_ROUNDTRIP
360
2AB
  0
DICTIONARY
  5
2CA
330
40
100
AcDbDictionary
280
     1
281
     1
  3
ACAD_XREC_ROUNDTRIP
360
2CB
  0
XRECORD
  5
2D3
102
{ACAD_REACTORS
330
2D2
102
}
330
2D2
100
AcDbXrecord
280
     1
102
MATERIAL
148
0.0
149
0.0
149
0.0
 93
        0
 94
      127
282
     0
 72
     1
 77
     1
171
     1
175
     1
179
     1
273
     0
  0
XRECORD
  5
2D1
102
{ACAD_REACTORS
330
2D0
102
}
330
2D0
100
AcDbXrecord
280
     1
102
MATERIAL
148
0.0
149
0.0
149
0.0
 93
        0
 94
      127
282
     0
 72
     1
 77
     1
171
     1
175
     1
179
     1
273
     0
  0
XRECORD
  5
2D5
102
{ACAD_REACTORS
330
2D4
102
}
330
2D4
100
AcDbXrecord
280
     1
102
MATERIAL
148
0.0
149
0.0
149
0.0
 93
        0
 94
      127
282
     0
 72
     1
 77
     1
171
     1
175
     1
179
     1
273
     0
  0
XRECORD
  5
2D8
102
{ACAD_REACTORS
330
2D7
102
}
330
2D7
100
AcDbXrecord
280
     1
102
ACAD_ROUNDTRIP_2010_MLEADER_STYLE
  0
XRECORD
  5
2A9
102
{ACAD_REACTORS
330
2A8
102
}
330
2A8
100
AcDbXrecord
280
     1
102
RTVSPropertyOp0
 70
     1
102
RTVSPropertyOp1
 70
     1
102
RTVSPropertyOp2
 70
     1
102
RTVSPropertyOp3
 70
     1
102
RTVSPropertyOp4
 70
     1
102
RTVSPropertyOp5
 70
     1
102
RTVSPropertyOp6
 70
     1
102
RTVSPropertyOp7
 70
     1
102
RTVSPropertyOp8
 70
     1
102
RTVSPropertyOp9
 70
     1
102
RTVSPropertyOp10
 70
     1
102
RTVSPropertyOp11
 70
     1
102
RTVSPropertyOp12
 70
     1
102
RTVSPropertyOp13
 70
     1
102
RTVSPropertyOp14
 70
     1
102
RTVSPropertyOp15
 70
     1
102
RTVSPropertyOp16
 70
     1
102
RTVSPropertyOp17
 70
     1
102
RTVSPropertyOp18
 70
     1
102
RTVSPropertyOp19
 70
     1
102
RTVSPropertyOp20
 70
     1
102
RTVSPropertyOp21
 70
     1
102
RTVSPropertyOp22
 70
     1
102
RTVSPropertyOp23
 70
     1
102
RTVSPropertyOp24
 70
     1
102
RTVSPropertyOp25
 70
     1
102
RTVSPropertyOp26
 70
     1
102
RTVSPropertyOp27
 70
     1
102
RTVSPropertyOp28
 70
     1
102
RTVSPropertyOp29
 70
     1
102
RTVSPropertyOp30
 70
     1
102
RTVSPropertyOp31
 70
     1
102
RTVSPropertyOp32
 70
     1
102
RTVSPropertyOp33
 70
     1
102
RTVSPropertyOp34
 70
     1
102
RTVSPropertyOp35
 70
     1
102
RTVSPropertyOp36
 70
     1
102
RTVSPropertyOp37
 70
     1
102
RTVSPropertyOp38
 70
     1
102
RTVSPropertyOp39
 70
     1
102
RTVSPropertyOp40
 70
     1
102
RTVSPropertyOp41
 70
     1
102
RTVSPropertyOp42
 70
     1
102
RTVSPropertyOp43
 70
     1
102
RTVSPropertyOp44
 70
     1
102
RTVSPropertyOp45
 70
     1
102
RTVSPropertyOp46
 70
     1
102
RTVSPropertyOp47
 70
     1
102
RTVSPropertyOp48
 70
     1
102
RTVSPropertyOp49
 70
     1
102
RTVSPropertyOp50
 70
     1
102
RTVSPropertyOp51
 70
     0
102
RTVSPropertyOp52
 70
     0
102
RTVSPropertyOp53
 70
     1
102
RTVSPropertyOp54
 70
     1
102
RTVSPropertyOp55
 70
     1
102
RTVSPropertyOp56
 70
     1
102
RTVSPropertyOp57
 70
     1
102
RTVSPost2010Prop28
280
     1
102
RTVSPost2010PropOp28
 70
     1
102
RTVSPost2010Prop29
280
     1
102
RTVSPost2010PropOp29
 70
     1
102
RTVSPost2010Prop30
280
     0
102
RTVSPost2010PropOp30
 70
     1
102
RTVSPost2010Prop31
280
     0
102
RTVSPost2010PropOp31
 70
     1
102
RTVSPost2010Prop32
280
     0
102
RTVSPost2010PropOp32
 70
     1
102
RTVSPost2010Prop33
280
     0
102
RTVSPost2010PropOp33
 70
     1
102
RTVSPost2010Prop34
280
     0
102
RTVSPost2010PropOp34
 70
     1
102
RTVSPost2010Prop35
280
     0
102
RTVSPost2010PropOp35
 70
     1
102
RTVSPost2010Prop36
280
     0
102
RTVSPost2010PropOp36
 70
     1
102
RTVSPost2010Prop37
 90
       50
102
RTVSPost2010PropOp37
 70
     1
102
RTVSPost2010Prop38
140
0.0
102
RTVSPost2010PropOp38
 70
     1
102
RTVSPost2010Prop39
140
1.0
102
RTVSPost2010PropOp39
 70
     1
102
RTVSPost2010Prop40
 90
        0
102
RTVSPost2010PropOp40
 70
     1
102
RTVSPost2010Prop41ColorIndex
 90
       18
102
RTVSPost2010Prop41ColorRGB
 90
        0
102
RTVSPost2010PropOp41
 70
     1
102
RTVSPost2010Prop42
 90
       50
102
RTVSPost2010PropOp42
 70
     1
102
RTVSPost2010Prop43
 90
        3
102
RTVSPost2010PropOp43
 70
     1
102
RTVSPost2010Prop44ColorIndex
 90
        5
102
RTVSPost2010Prop44ColorRGB
 90
      255
102
RTVSPost2010PropOp44
 70
     1
102
RTVSPost2010Prop45
280
     0
102
RTVSPost2010PropOp45
 70
     1
102
RTVSPost2010Prop46
 90
       50
102
RTVSPost2010PropOp46
 70
     1
102
RTVSPost2010Prop47
 90
       50
102
RTVSPost2010PropOp47
 70
     1
102
RTVSPost2010Prop48
 90
       50
102
RTVSPost2010PropOp48
 70
     1
102
RTVSPost2010Prop49
280
     0
102
RTVSPost2010PropOp49
 70
     1
102
RTVSPost2010Prop50
 90
       50
102
RTVSPost2010PropOp50
 70
     1
102
RTVSPost2010Prop51ColorIndex
 90
      256
102
RTVSPost2010Prop51ColorRGB
 90
-16777216
102
RTVSPost2010PropOp51
 70
     0
102
RTVSPost2010Prop52
140
1.0
102
RTVSPost2010PropOp52
 70
     0
102
RTVSPost2010Prop53
 90
        2
102
RTVSPost2010PropOp53
 70
     1
102
RTVSPost2010Prop54
  1
strokes_ogs.tif
102
RTVSPost2010PropOp54
 70
     1
102
RTVSPost2010Prop55
280
     0
102
RTVSPost2010PropOp55
 70
     1
102
RTVSPost2010Prop56
140
1.0
102
RTVSPost2010PropOp56
 70
     1
102
RTVSPost2010Prop57
140
1.0
102
RTVSPost2010PropOp57
 70
     1
  0
XRECORD
  5
2AF
102
{ACAD_REACTORS
330
2AE
102
}
330
2AE
100
AcDbXrecord
280
     1
102
RTVSPropertyOp0
 70
     1
102
RTVSPropertyOp1
 70
     1
102
RTVSPropertyOp2
 70
     1
102
RTVSPropertyOp3
 70
     1
102
RTVSPropertyOp4
 70
     1
102
RTVSPropertyOp5
 70
     1
102
RTVSPropertyOp6
 70
     1
102
RTVSPropertyOp7
 70
     1
102
RTVSPropertyOp8
 70
     1
102
RTVSPropertyOp9
 70
     1
102
RTVSPropertyOp10
 70
     1
102
RTVSPropertyOp11
 70
     1
102
RTVSPropertyOp12
 70
     1
102
RTVSPropertyOp13
 70
     1
102
RTVSPropertyOp14
 70
     1
102
RTVSPropertyOp15
 70
     1
102
RTVSPropertyOp16
 70
     1
102
RTVSPropertyOp17
 70
     1
102
RTVSPropertyOp18
 70
     1
102
RTVSPropertyOp19
 70
     1
102
RTVSPropertyOp20
 70
     1
102
RTVSPropertyOp21
 70
     1
102
RTVSPropertyOp22
 70
     1
102
RTVSPropertyOp23
 70
     1
102
RTVSPropertyOp24
 70
     1
102
RTVSPropertyOp25
 70
     1
102
RTVSPropertyOp26
 70
     1
102
RTVSPropertyOp27
 70
     1
102
RTVSPropertyOp28
 70
     1
102
RTVSPropertyOp29
 70
     1
102
RTVSPropertyOp30
 70
     1
102
RTVSPropertyOp31
 70
     1
102
RTVSPropertyOp32
 70
     1
102
RTVSPropertyOp33
 70
     1
102
RTVSPropertyOp34
 70
     1
102
RTVSPropertyOp35
 70
     1
102
RTVSPropertyOp36
 70
     1
102
RTVSPropertyOp37
 70
     1
102
RTVSPropertyOp38
 70
     1
102
RTVSPropertyOp39
 70
     1
102
RTVSPropertyOp40
 70
     1
102
RTVSPropertyOp41
 70
     1
102
RTVSPropertyOp42
 70
     1
102
RTVSPropertyOp43
 70
     1
102
RTVSPropertyOp44
 70
     1
102
RTVSPropertyOp45
 70
     1
102
RTVSPropertyOp46
 70
     1
102
RTVSPropertyOp47
 70
     1
102
RTVSPropertyOp48
 70
     1
102
RTVSPropertyOp49
 70
     1
102
RTVSPropertyOp50
 70
     1
102
RTVSPropertyOp51
 70
     0
102
RTVSPropertyOp52
 70
     0
102
RTVSPropertyOp53
 70
     1
102
RTVSPropertyOp54
 70
     1
102
RTVSPropertyOp55
 70
     1
102
RTVSPropertyOp56
 70
     1
102
RTVSPropertyOp57
 70
     1
102
RTVSPost2010Prop28
280
     0
102
RTVSPost2010PropOp28
 70
     1
102
RTVSPost2010Prop29
280
     1
102
RTVSPost2010PropOp29
 70
     1
102
RTVSPost2010Prop30
280
     1
102
RTVSPost2010PropOp30
 70
     1
102
RTVSPost2010Prop31
280
     0
102
RTVSPost2010PropOp31
 70
     1
102
RTVSPost2010Prop32
280
     0
102
RTVSPost2010PropOp32
 70
     1
102
RTVSPost2010Prop33
280
     0
102
RTVSPost2010PropOp33
 70
     1
102
RTVSPost2010Prop34
280
     0
102
RTVSPost2010PropOp34
 70
     1
102
RTVSPost2010Prop35
280
     0
102
RTVSPost2010PropOp35
 70
     1
102
RTVSPost2010Prop36
280
     0
102
RTVSPost2010PropOp36
 70
     1
102
RTVSPost2010Prop37
 90
       50
102
RTVSPost2010PropOp37
 70
     1
102
RTVSPost2010Prop38
140
0.0
102
RTVSPost2010PropOp38
 70
     1
102
RTVSPost2010Prop39
140
1.0
102
RTVSPost2010PropOp39
 70
     1
102
RTVSPost2010Prop40
 90
        0
102
RTVSPost2010PropOp40
 70
     1
102
RTVSPost2010Prop41ColorIndex
 90
       18
102
RTVSPost2010Prop41ColorRGB
 90
        0
102
RTVSPost2010PropOp41
 70
     1
102
RTVSPost2010Prop42
 90
       50
102
RTVSPost2010PropOp42
 70
     1
102
RTVSPost2010Prop43
 90
        3
102
RTVSPost2010PropOp43
 70
     1
102
RTVSPost2010Prop44ColorIndex
 90
        5
102
RTVSPost2010Prop44ColorRGB
 90
      255
102
RTVSPost2010PropOp44
 70
     1
102
RTVSPost2010Prop45
280
     0
102
RTVSPost2010PropOp45
 70
     1
102
RTVSPost2010Prop46
 90
       50
102
RTVSPost2010PropOp46
 70
     1
102
RTVSPost2010Prop47
 90
       50
102
RTVSPost2010PropOp47
 70
     1
102
RTVSPost2010Prop48
 90
       50
102
RTVSPost2010PropOp48
 70
     1
102
RTVSPost2010Prop49
280
     0
102
RTVSPost2010PropOp49
 70
     1
102
RTVSPost2010Prop50
 90
       50
102
RTVSPost2010PropOp50
 70
     1
102
RTVSPost2010Prop51ColorIndex
 90
      256
102
RTVSPost2010Prop51ColorRGB
 90
-16777216
102
RTVSPost2010PropOp51
 70
     0
102
RTVSPost2010Prop52
140
1.0
102
RTVSPost2010PropOp52
 70
     0
102
RTVSPost2010Prop53
 90
        2
102
RTVSPost2010PropOp53
 70
     1
102
RTVSPost2010Prop54
  1
strokes_ogs.tif
102
RTVSPost2010PropOp54
 70
     1
102
RTVSPost2010Prop55
280
     0
102
RTVSPost2010PropOp55
 70
     1
102
RTVSPost2010Prop56
140
1.0
102
RTVSPost2010PropOp56
 70
     1
102
RTVSPost2010Prop57
140
1.0
102
RTVSPost2010PropOp57
 70
     1
  0
XRECORD
  5
2B7
102
{ACAD_REACTORS
330
2B6
102
}
330
2B6
100
AcDbXrecord
280
     1
102
RTVSPropertyOp0
 70
     1
102
RTVSPropertyOp1
 70
     1
102
RTVSPropertyOp2
 70
     1
102
RTVSPropertyOp3
 70
     1
102
RTVSPropertyOp4
 70
     1
102
RTVSPropertyOp5
 70
     1
102
RTVSPropertyOp6
 70
     1
102
RTVSPropertyOp7
 70
     1
102
RTVSPropertyOp8
 70
     1
102
RTVSPropertyOp9
 70
     1
102
RTVSPropertyOp10
 70
     1
102
RTVSPropertyOp11
 70
     1
102
RTVSPropertyOp12
 70
     1
102
RTVSPropertyOp13
 70
     1
102
RTVSPropertyOp14
 70
     1
102
RTVSPropertyOp15
 70
     1
102
RTVSPropertyOp16
 70
     1
102
RTVSPropertyOp17
 70
     1
102
RTVSPropertyOp18
 70
     1
102
RTVSPropertyOp19
 70
     1
102
RTVSPropertyOp20
 70
     1
102
RTVSPropertyOp21
 70
     1
102
RTVSPropertyOp22
 70
     1
102
RTVSPropertyOp23
 70
     1
102
RTVSPropertyOp24
 70
     1
102
RTVSPropertyOp25
 70
     1
102
RTVSPropertyOp26
 70
     1
102
RTVSPropertyOp27
 70
     1
102
RTVSPropertyOp28
 70
     1
102
RTVSPropertyOp29
 70
     1
102
RTVSPropertyOp30
 70
     1
102
RTVSPropertyOp31
 70
     1
102
RTVSPropertyOp32
 70
     1
102
RTVSPropertyOp33
 70
     1
102
RTVSPropertyOp34
 70
     1
102
RTVSPropertyOp35
 70
     1
102
RTVSPropertyOp36
 70
     1
102
RTVSPropertyOp37
 70
     1
102
RTVSPropertyOp38
 70
     1
102
RTVSPropertyOp39
 70
     1
102
RTVSPropertyOp40
 70
     1
102
RTVSPropertyOp41
 70
     1
102
RTVSPropertyOp42
 70
     1
102
RTVSPropertyOp43
 70
     1
102
RTVSPropertyOp44
 70
     1
102
RTVSPropertyOp45
 70
     1
102
RTVSPropertyOp46
 70
     1
102
RTVSPropertyOp47
 70
     1
102
RTVSPropertyOp48
 70
     1
102
RTVSPropertyOp49
 70
     1
102
RTVSPropertyOp50
 70
     1
102
RTVSPropertyOp51
 70
     0
102
RTVSPropertyOp52
 70
     0
102
RTVSPropertyOp53
 70
     1
102
RTVSPropertyOp54
 70
     1
102
RTVSPropertyOp55
 70
     1
102
RTVSPropertyOp56
 70
     1
102
RTVSPropertyOp57
 70
     1
102
RTVSPost2010Prop28
280
     0
102
RTVSPost2010PropOp28
 70
     1
102
RTVSPost2010Prop29
280
     1
102
RTVSPost2010PropOp29
 70
     1
102
RTVSPost2010Prop30
280
     1
102
RTVSPost2010PropOp30
 70
     1
102
RTVSPost2010Prop31
280
     0
102
RTVSPost2010PropOp31
 70
     1
102
RTVSPost2010Prop32
280
     0
102
RTVSPost2010PropOp32
 70
     1
102
RTVSPost2010Prop33
280
     0
102
RTVSPost2010PropOp33
 70
     1
102
RTVSPost2010Prop34
280
     0
102
RTVSPost2010PropOp34
 70
     1
102
RTVSPost2010Prop35
280
     0
102
RTVSPost2010PropOp35
 70
     1
102
RTVSPost2010Prop36
280
     0
102
RTVSPost2010PropOp36
 70
     1
102
RTVSPost2010Prop37
 90
       50
102
RTVSPost2010PropOp37
 70
     1
102
RTVSPost2010Prop38
140
0.0
102
RTVSPost2010PropOp38
 70
     1
102
RTVSPost2010Prop39
140
1.0
102
RTVSPost2010PropOp39
 70
     1
102
RTVSPost2010Prop40
 90
        0
102
RTVSPost2010PropOp40
 70
     1
102
RTVSPost2010Prop41ColorIndex
 90
       18
102
RTVSPost2010Prop41ColorRGB
 90
        0
102
RTVSPost2010PropOp41
 70
     1
102
RTVSPost2010Prop42
 90
       50
102
RTVSPost2010PropOp42
 70
     1
102
RTVSPost2010Prop43
 90
        3
102
RTVSPost2010PropOp43
 70
     1
102
RTVSPost2010Prop44ColorIndex
 90
        5
102
RTVSPost2010Prop44ColorRGB
 90
      255
102
RTVSPost2010PropOp44
 70
     1
102
RTVSPost2010Prop45
280
     0
102
RTVSPost2010PropOp45
 70
     1
102
RTVSPost2010Prop46
 90
       50
102
RTVSPost2010PropOp46
 70
     1
102
RTVSPost2010Prop47
 90
       50
102
RTVSPost2010PropOp47
 70
     1
102
RTVSPost2010Prop48
 90
       50
102
RTVSPost2010PropOp48
 70
     1
102
RTVSPost2010Prop49
280
     0
102
RTVSPost2010PropOp49
 70
     1
102
RTVSPost2010Prop50
 90
       50
102
RTVSPost2010PropOp50
 70
     1
102
RTVSPost2010Prop51ColorIndex
 90
      256
102
RTVSPost2010Prop51ColorRGB
 90
-16777216
102
RTVSPost2010PropOp51
 70
     0
102
RTVSPost2010Prop52
140
1.0
102
RTVSPost2010PropOp52
 70
     0
102
RTVSPost2010Prop53
 90
        2
102
RTVSPost2010PropOp53
 70
     1
102
RTVSPost2010Prop54
  1
strokes_ogs.tif
102
RTVSPost2010PropOp54
 70
     1
102
RTVSPost2010Prop55
280
     0
102
RTVSPost2010PropOp55
 70
     1
102
RTVSPost2010Prop56
140
1.0
102
RTVSPost2010PropOp56
 70
     1
102
RTVSPost2010Prop57
140
1.0
102
RTVSPost2010PropOp57
 70
     1
  0
XRECORD
  5
2BF
102
{ACAD_REACTORS
330
2BE
102
}
330
2BE
100
AcDbXrecord
280
     1
102
RTVSPropertyOp0
 70
     1
102
RTVSPropertyOp1
 70
     1
102
RTVSPropertyOp2
 70
     1
102
RTVSPropertyOp3
 70
     1
102
RTVSPropertyOp4
 70
     1
102
RTVSPropertyOp5
 70
     1
102
RTVSPropertyOp6
 70
     1
102
RTVSPropertyOp7
 70
     1
102
RTVSPropertyOp8
 70
     1
102
RTVSPropertyOp9
 70
     1
102
RTVSPropertyOp10
 70
     1
102
RTVSPropertyOp11
 70
     1
102
RTVSPropertyOp12
 70
     1
102
RTVSPropertyOp13
 70
     1
102
RTVSPropertyOp14
 70
     1
102
RTVSPropertyOp15
 70
     1
102
RTVSPropertyOp16
 70
     1
102
RTVSPropertyOp17
 70
     1
102
RTVSPropertyOp18
 70
     1
102
RTVSPropertyOp19
 70
     1
102
RTVSPropertyOp20
 70
     1
102
RTVSPropertyOp21
 70
     1
102
RTVSPropertyOp22
 70
     1
102
RTVSPropertyOp23
 70
     1
102
RTVSPropertyOp24
 70
     1
102
RTVSPropertyOp25
 70
     1
102
RTVSPropertyOp26
 70
     1
102
RTVSPropertyOp27
 70
     1
102
RTVSPropertyOp28
 70
     1
102
RTVSPropertyOp29
 70
     1
102
RTVSPropertyOp30
 70
     1
102
RTVSPropertyOp31
 70
     1
102
RTVSPropertyOp32
 70
     1
102
RTVSPropertyOp33
 70
     1
102
RTVSPropertyOp34
 70
     1
102
RTVSPropertyOp35
 70
     1
102
RTVSPropertyOp36
 70
     1
102
RTVSPropertyOp37
 70
     1
102
RTVSPropertyOp38
 70
     1
102
RTVSPropertyOp39
 70
     1
102
RTVSPropertyOp40
 70
     1
102
RTVSPropertyOp41
 70
     1
102
RTVSPropertyOp42
 70
     1
102
RTVSPropertyOp43
 70
     1
102
RTVSPropertyOp44
 70
     1
102
RTVSPropertyOp45
 70
     1
102
RTVSPropertyOp46
 70
     1
102
RTVSPropertyOp47
 70
     1
102
RTVSPropertyOp48
 70
     1
102
RTVSPropertyOp49
 70
     1
102
RTVSPropertyOp50
 70
     1
102
RTVSPropertyOp51
 70
     0
102
RTVSPropertyOp52
 70
     0
102
RTVSPropertyOp53
 70
     1
102
RTVSPropertyOp54
 70
     1
102
RTVSPropertyOp55
 70
     1
102
RTVSPropertyOp56
 70
     1
102
RTVSPropertyOp57
 70
     1
102
RTVSPost2010Prop28
280
     0
102
RTVSPost2010PropOp28
 70
     1
102
RTVSPost2010Prop29
280
     1
102
RTVSPost2010PropOp29
 70
     1
102
RTVSPost2010Prop30
280
     1
102
RTVSPost2010PropOp30
 70
     1
102
RTVSPost2010Prop31
280
     0
102
RTVSPost2010PropOp31
 70
     1
102
RTVSPost2010Prop32
280
     0
102
RTVSPost2010PropOp32
 70
     1
102
RTVSPost2010Prop33
280
     0
102
RTVSPost2010PropOp33
 70
     1
102
RTVSPost2010Prop34
280
     0
102
RTVSPost2010PropOp34
 70
     1
102
RTVSPost2010Prop35
280
     0
102
RTVSPost2010PropOp35
 70
     1
102
RTVSPost2010Prop36
280
     0
102
RTVSPost2010PropOp36
 70
     1
102
RTVSPost2010Prop37
 90
       50
102
RTVSPost2010PropOp37
 70
     1
102
RTVSPost2010Prop38
140
0.0
102
RTVSPost2010PropOp38
 70
     1
102
RTVSPost2010Prop39
140
1.0
102
RTVSPost2010PropOp39
 70
     1
102
RTVSPost2010Prop40
 90
        0
102
RTVSPost2010PropOp40
 70
     1
102
RTVSPost2010Prop41ColorIndex
 90
       18
102
RTVSPost2010Prop41ColorRGB
 90
        0
102
RTVSPost2010PropOp41
 70
     1
102
RTVSPost2010Prop42
 90
       50
102
RTVSPost2010PropOp42
 70
     1
102
RTVSPost2010Prop43
 90
        3
102
RTVSPost2010PropOp43
 70
     1
102
RTVSPost2010Prop44ColorIndex
 90
        5
102
RTVSPost2010Prop44ColorRGB
 90
      255
102
RTVSPost2010PropOp44
 70
     1
102
RTVSPost2010Prop45
280
     0
102
RTVSPost2010PropOp45
 70
     1
102
RTVSPost2010Prop46
 90
       50
102
RTVSPost2010PropOp46
 70
     1
102
RTVSPost2010Prop47
 90
       50
102
RTVSPost2010PropOp47
 70
     1
102
RTVSPost2010Prop48
 90
       50
102
RTVSPost2010PropOp48
 70
     1
102
RTVSPost2010Prop49
280
     0
102
RTVSPost2010PropOp49
 70
     1
102
RTVSPost2010Prop50
 90
       50
102
RTVSPost2010PropOp50
 70
     1
102
RTVSPost2010Prop51ColorIndex
 90
      256
102
RTVSPost2010Prop51ColorRGB
 90
-16777216
102
RTVSPost2010PropOp51
 70
     0
102
RTVSPost2010Prop52
140
1.0
102
RTVSPost2010PropOp52
 70
     0
102
RTVSPost2010Prop53
 90
        2
102
RTVSPost2010PropOp53
 70
     1
102
RTVSPost2010Prop54
  1
strokes_ogs.tif
102
RTVSPost2010PropOp54
 70
     1
102
RTVSPost2010Prop55
280
     0
102
RTVSPost2010PropOp55
 70
     1
102
RTVSPost2010Prop56
140
1.0
102
RTVSPost2010PropOp56
 70
     1
102
RTVSPost2010Prop57
140
1.0
102
RTVSPost2010PropOp57
 70
     1
  0
XRECORD
  5
2B3
102
{ACAD_REACTORS
330
2B2
102
}
330
2B2
100
AcDbXrecord
280
     1
102
RTVSPropertyOp0
 70
     1
102
RTVSPropertyOp1
 70
     1
102
RTVSPropertyOp2
 70
     1
102
RTVSPropertyOp3
 70
     1
102
RTVSPropertyOp4
 70
     1
102
RTVSPropertyOp5
 70
     1
102
RTVSPropertyOp6
 70
     1
102
RTVSPropertyOp7
 70
     1
102
RTVSPropertyOp8
 70
     1
102
RTVSPropertyOp9
 70
     1
102
RTVSPropertyOp10
 70
     1
102
RTVSPropertyOp11
 70
     1
102
RTVSPropertyOp12
 70
     1
102
RTVSPropertyOp13
 70
     1
102
RTVSPropertyOp14
 70
     1
102
RTVSPropertyOp15
 70
     1
102
RTVSPropertyOp16
 70
     1
102
RTVSPropertyOp17
 70
     1
102
RTVSPropertyOp18
 70
     1
102
RTVSPropertyOp19
 70
     1
102
RTVSPropertyOp20
 70
     1
102
RTVSPropertyOp21
 70
     1
102
RTVSPropertyOp22
 70
     1
102
RTVSPropertyOp23
 70
     1
102
RTVSPropertyOp24
 70
     1
102
RTVSPropertyOp25
 70
     1
102
RTVSPropertyOp26
 70
     1
102
RTVSPropertyOp27
 70
     1
102
RTVSPropertyOp28
 70
     1
102
RTVSPropertyOp29
 70
     1
102
RTVSPropertyOp30
 70
     1
102
RTVSPropertyOp31
 70
     1
102
RTVSPropertyOp32
 70
     1
102
RTVSPropertyOp33
 70
     1
102
RTVSPropertyOp34
 70
     1
102
RTVSPropertyOp35
 70
     1
102
RTVSPropertyOp36
 70
     1
102
RTVSPropertyOp37
 70
     1
102
RTVSPropertyOp38
 70
     1
102
RTVSPropertyOp39
 70
     1
102
RTVSPropertyOp40
 70
     1
102
RTVSPropertyOp41
 70
     1
102
RTVSPropertyOp42
 70
     1
102
RTVSPropertyOp43
 70
     1
102
RTVSPropertyOp44
 70
     1
102
RTVSPropertyOp45
 70
     1
102
RTVSPropertyOp46
 70
     1
102
RTVSPropertyOp47
 70
     1
102
RTVSPropertyOp48
 70
     1
102
RTVSPropertyOp49
 70
     1
102
RTVSPropertyOp50
 70
     1
102
RTVSPropertyOp51
 70
     0
102
RTVSPropertyOp52
 70
     0
102
RTVSPropertyOp53
 70
     1
102
RTVSPropertyOp54
 70
     1
102
RTVSPropertyOp55
 70
     1
102
RTVSPropertyOp56
 70
     1
102
RTVSPropertyOp57
 70
     1
102
RTVSPost2010Prop28
280
     0
102
RTVSPost2010PropOp28
 70
     1
102
RTVSPost2010Prop29
280
     1
102
RTVSPost2010PropOp29
 70
     1
102
RTVSPost2010Prop30
280
     1
102
RTVSPost2010PropOp30
 70
     1
102
RTVSPost2010Prop31
280
     0
102
RTVSPost2010PropOp31
 70
     1
102
RTVSPost2010Prop32
280
     0
102
RTVSPost2010PropOp32
 70
     1
102
RTVSPost2010Prop33
280
     0
102
RTVSPost2010PropOp33
 70
     1
102
RTVSPost2010Prop34
280
     0
102
RTVSPost2010PropOp34
 70
     1
102
RTVSPost2010Prop35
280
     0
102
RTVSPost2010PropOp35
 70
     1
102
RTVSPost2010Prop36
280
     0
102
RTVSPost2010PropOp36
 70
     1
102
RTVSPost2010Prop37
 90
       50
102
RTVSPost2010PropOp37
 70
     1
102
RTVSPost2010Prop38
140
0.0
102
RTVSPost2010PropOp38
 70
     1
102
RTVSPost2010Prop39
140
1.0
102
RTVSPost2010PropOp39
 70
     1
102
RTVSPost2010Prop40
 90
        0
102
RTVSPost2010PropOp40
 70
     1
102
RTVSPost2010Prop41ColorIndex
 90
       18
102
RTVSPost2010Prop41ColorRGB
 90
        0
102
RTVSPost2010PropOp41
 70
     1
102
RTVSPost2010Prop42
 90
       50
102
RTVSPost2010PropOp42
 70
     1
102
RTVSPost2010Prop43
 90
        3
102
RTVSPost2010PropOp43
 70
     1
102
RTVSPost2010Prop44ColorIndex
 90
        5
102
RTVSPost2010Prop44ColorRGB
 90
      255
102
RTVSPost2010PropOp44
 70
     1
102
RTVSPost2010Prop45
280
     0
102
RTVSPost2010PropOp45
 70
     1
102
RTVSPost2010Prop46
 90
       50
102
RTVSPost2010PropOp46
 70
     1
102
RTVSPost2010Prop47
 90
       50
102
RTVSPost2010PropOp47
 70
     1
102
RTVSPost2010Prop48
 90
       50
102
RTVSPost2010PropOp48
 70
     1
102
RTVSPost2010Prop49
280
     0
102
RTVSPost2010PropOp49
 70
     1
102
RTVSPost2010Prop50
 90
       50
102
RTVSPost2010PropOp50
 70
     1
102
RTVSPost2010Prop51ColorIndex
 90
      256
102
RTVSPost2010Prop51ColorRGB
 90
-16777216
102
RTVSPost2010PropOp51
 70
     0
102
RTVSPost2010Prop52
140
1.0
102
RTVSPost2010PropOp52
 70
     0
102
RTVSPost2010Prop53
 90
        2
102
RTVSPost2010PropOp53
 70
     1
102
RTVSPost2010Prop54
  1
strokes_ogs.tif
102
RTVSPost2010PropOp54
 70
     1
102
RTVSPost2010Prop55
280
     0
102
RTVSPost2010PropOp55
 70
     1
102
RTVSPost2010Prop56
140
1.0
102
RTVSPost2010PropOp56
 70
     1
102
RTVSPost2010Prop57
140
1.0
102
RTVSPost2010PropOp57
 70
     1
  0
XRECORD
  5
2B5
102
{ACAD_REACTORS
330
2B4
102
}
330
2B4
100
AcDbXrecord
280
     1
102
RTVSPropertyOp0
 70
     1
102
RTVSPropertyOp1
 70
     1
102
RTVSPropertyOp2
 70
     1
102
RTVSPropertyOp3
 70
     1
102
RTVSPropertyOp4
 70
     1
102
RTVSPropertyOp5
 70
     1
102
RTVSPropertyOp6
 70
     1
102
RTVSPropertyOp7
 70
     1
102
RTVSPropertyOp8
 70
     1
102
RTVSPropertyOp9
 70
     1
102
RTVSPropertyOp10
 70
     1
102
RTVSPropertyOp11
 70
     1
102
RTVSPropertyOp12
 70
     1
102
RTVSPropertyOp13
 70
     1
102
RTVSPropertyOp14
 70
     1
102
RTVSPropertyOp15
 70
     1
102
RTVSPropertyOp16
 70
     1
102
RTVSPropertyOp17
 70
     1
102
RTVSPropertyOp18
 70
     1
102
RTVSPropertyOp19
 70
     1
102
RTVSPropertyOp20
 70
     1
102
RTVSPropertyOp21
 70
     1
102
RTVSPropertyOp22
 70
     1
102
RTVSPropertyOp23
 70
     1
102
RTVSPropertyOp24
 70
     1
102
RTVSPropertyOp25
 70
     1
102
RTVSPropertyOp26
 70
     1
102
RTVSPropertyOp27
 70
     1
102
RTVSPropertyOp28
 70
     1
102
RTVSPropertyOp29
 70
     1
102
RTVSPropertyOp30
 70
     1
102
RTVSPropertyOp31
 70
     1
102
RTVSPropertyOp32
 70
     1
102
RTVSPropertyOp33
 70
     1
102
RTVSPropertyOp34
 70
     1
102
RTVSPropertyOp35
 70
     1
102
RTVSPropertyOp36
 70
     1
102
RTVSPropertyOp37
 70
     1
102
RTVSPropertyOp38
 70
     1
102
RTVSPropertyOp39
 70
     1
102
RTVSPropertyOp40
 70
     1
102
RTVSPropertyOp41
 70
     1
102
RTVSPropertyOp42
 70
     1
102
RTVSPropertyOp43
 70
     1
102
RTVSPropertyOp44
 70
     1
102
RTVSPropertyOp45
 70
     1
102
RTVSPropertyOp46
 70
     1
102
RTVSPropertyOp47
 70
     1
102
RTVSPropertyOp48
 70
     1
102
RTVSPropertyOp49
 70
     1
102
RTVSPropertyOp50
 70
     1
102
RTVSPropertyOp51
 70
     0
102
RTVSPropertyOp52
 70
     0
102
RTVSPropertyOp53
 70
     1
102
RTVSPropertyOp54
 70
     1
102
RTVSPropertyOp55
 70
     1
102
RTVSPropertyOp56
 70
     1
102
RTVSPropertyOp57
 70
     1
102
RTVSPost2010Prop28
280
     0
102
RTVSPost2010PropOp28
 70
     1
102
RTVSPost2010Prop29
280
     1
102
RTVSPost2010PropOp29
 70
     1
102
RTVSPost2010Prop30
280
     1
102
RTVSPost2010PropOp30
 70
     1
102
RTVSPost2010Prop31
280
     0
102
RTVSPost2010PropOp31
 70
     1
102
RTVSPost2010Prop32
280
     0
102
RTVSPost2010PropOp32
 70
     1
102
RTVSPost2010Prop33
280
     0
102
RTVSPost2010PropOp33
 70
     1
102
RTVSPost2010Prop34
280
     0
102
RTVSPost2010PropOp34
 70
     1
102
RTVSPost2010Prop35
280
     0
102
RTVSPost2010PropOp35
 70
     1
102
RTVSPost2010Prop36
280
     0
102
RTVSPost2010PropOp36
 70
     1
102
RTVSPost2010Prop37
 90
       50
102
RTVSPost2010PropOp37
 70
     1
102
RTVSPost2010Prop38
140
0.0
102
RTVSPost2010PropOp38
 70
     1
102
RTVSPost2010Prop39
140
1.0
102
RTVSPost2010PropOp39
 70
     1
102
RTVSPost2010Prop40
 90
        0
102
RTVSPost2010PropOp40
 70
     1
102
RTVSPost2010Prop41ColorIndex
 90
       18
102
RTVSPost2010Prop41ColorRGB
 90
        0
102
RTVSPost2010PropOp41
 70
     1
102
RTVSPost2010Prop42
 90
       50
102
RTVSPost2010PropOp42
 70
     1
102
RTVSPost2010Prop43
 90
        3
102
RTVSPost2010PropOp43
 70
     1
102
RTVSPost2010Prop44ColorIndex
 90
        5
102
RTVSPost2010Prop44ColorRGB
 90
      255
102
RTVSPost2010PropOp44
 70
     1
102
RTVSPost2010Prop45
280
     0
102
RTVSPost2010PropOp45
 70
     1
102
RTVSPost2010Prop46
 90
       50
102
RTVSPost2010PropOp46
 70
     1
102
RTVSPost2010Prop47
 90
       50
102
RTVSPost2010PropOp47
 70
     1
102
RTVSPost2010Prop48
 90
       50
102
RTVSPost2010PropOp48
 70
     1
102
RTVSPost2010Prop49
280
     0
102
RTVSPost2010PropOp49
 70
     1
102
RTVSPost2010Prop50
 90
       50
102
RTVSPost2010PropOp50
 70
     1
102
RTVSPost2010Prop51ColorIndex
 90
      256
102
RTVSPost2010Prop51ColorRGB
 90
-16777216
102
RTVSPost2010PropOp51
 70
     0
102
RTVSPost2010Prop52
140
1.0
102
RTVSPost2010PropOp52
 70
     0
102
RTVSPost2010Prop53
 90
        2
102
RTVSPost2010PropOp53
 70
     1
102
RTVSPost2010Prop54
  1
strokes_ogs.tif
102
RTVSPost2010PropOp54
 70
     1
102
RTVSPost2010Prop55
280
     0
102
RTVSPost2010PropOp55
 70
     1
102
RTVSPost2010Prop56
140
1.0
102
RTVSPost2010PropOp56
 70
     1
102
RTVSPost2010Prop57
140
1.0
102
RTVSPost2010PropOp57
 70
     1
  0
XRECORD
  5
2C5
102
{ACAD_REACTORS
330
2C4
102
}
330
2C4
100
AcDbXrecord
280
     1
102
RTVSPropertyOp0
 70
     0
102
RTVSPropertyOp1
 70
     0
102
RTVSPropertyOp2
 70
     0
102
RTVSPropertyOp3
 70
     0
102
RTVSPropertyOp4
 70
     0
102
RTVSPropertyOp5
 70
     0
102
RTVSPropertyOp6
 70
     0
102
RTVSPropertyOp7
 70
     0
102
RTVSPropertyOp8
 70
     0
102
RTVSPropertyOp9
 70
     0
102
RTVSPropertyOp10
 70
     0
102
RTVSPropertyOp11
 70
     0
102
RTVSPropertyOp12
 70
     0
102
RTVSPropertyOp13
 70
     0
102
RTVSPropertyOp14
 70
     2
102
RTVSPropertyOp15
 70
     0
102
RTVSPropertyOp16
 70
     0
102
RTVSPropertyOp17
 70
     0
102
RTVSPropertyOp18
 70
     0
102
RTVSPropertyOp19
 70
     0
102
RTVSPropertyOp20
 70
     0
102
RTVSPropertyOp21
 70
     0
102
RTVSPropertyOp22
 70
     0
102
RTVSPropertyOp23
 70
     0
102
RTVSPropertyOp24
 70
     0
102
RTVSPropertyOp25
 70
     0
102
RTVSPropertyOp26
 70
     0
102
RTVSPropertyOp27
 70
     0
102
RTVSPropertyOp28
 70
     0
102
RTVSPropertyOp29
 70
     0
102
RTVSPropertyOp30
 70
     0
102
RTVSPropertyOp31
 70
     0
102
RTVSPropertyOp32
 70
     0
102
RTVSPropertyOp33
 70
     0
102
RTVSPropertyOp34
 70
     0
102
RTVSPropertyOp35
 70
     0
102
RTVSPropertyOp36
 70
     0
102
RTVSPropertyOp37
 70
     0
102
RTVSPropertyOp38
 70
     0
102
RTVSPropertyOp39
 70
     0
102
RTVSPropertyOp40
 70
     0
102
RTVSPropertyOp41
 70
     0
102
RTVSPropertyOp42
 70
     0
102
RTVSPropertyOp43
 70
     0
102
RTVSPropertyOp44
 70
     0
102
RTVSPropertyOp45
 70
     0
102
RTVSPropertyOp46
 70
     0
102
RTVSPropertyOp47
 70
     0
102
RTVSPropertyOp48
 70
     0
102
RTVSPropertyOp49
 70
     0
102
RTVSPropertyOp50
 70
     0
102
RTVSPropertyOp51
 70
     0
102
RTVSPropertyOp52
 70
     0
102
RTVSPropertyOp53
 70
     0
102
RTVSPropertyOp54
 70
     0
102
RTVSPropertyOp55
 70
     0
102
RTVSPropertyOp56
 70
     0
102
RTVSPropertyOp57
 70
     0
102
RTVSPost2010Prop28
280
     0
102
RTVSPost2010PropOp28
 70
     0
102
RTVSPost2010Prop29
280
     1
102
RTVSPost2010PropOp29
 70
     0
102
RTVSPost2010Prop30
280
     1
102
RTVSPost2010PropOp30
 70
     0
102
RTVSPost2010Prop31
280
     0
102
RTVSPost2010PropOp31
 70
     0
102
RTVSPost2010Prop32
280
     0
102
RTVSPost2010PropOp32
 70
     0
102
RTVSPost2010Prop33
280
     0
102
RTVSPost2010PropOp33
 70
     0
102
RTVSPost2010Prop34
280
     0
102
RTVSPost2010PropOp34
 70
     0
102
RTVSPost2010Prop35
280
     0
102
RTVSPost2010PropOp35
 70
     0
102
RTVSPost2010Prop36
280
     0
102
RTVSPost2010PropOp36
 70
     0
102
RTVSPost2010Prop37
 90
       50
102
RTVSPost2010PropOp37
 70
     0
102
RTVSPost2010Prop38
140
0.0
102
RTVSPost2010PropOp38
 70
     0
102
RTVSPost2010Prop39
140
1.0
102
RTVSPost2010PropOp39
 70
     0
102
RTVSPost2010Prop40
 90
        0
102
RTVSPost2010PropOp40
 70
     0
102
RTVSPost2010Prop41ColorIndex
 90
       18
102
RTVSPost2010Prop41ColorRGB
 90
        0
102
RTVSPost2010PropOp41
 70
     0
102
RTVSPost2010Prop42
 90
       50
102
RTVSPost2010PropOp42
 70
     0
102
RTVSPost2010Prop43
 90
        3
102
RTVSPost2010PropOp43
 70
     0
102
RTVSPost2010Prop44ColorIndex
 90
        5
102
RTVSPost2010Prop44ColorRGB
 90
      255
102
RTVSPost2010PropOp44
 70
     0
102
RTVSPost2010Prop45
280
     0
102
RTVSPost2010PropOp45
 70
     0
102
RTVSPost2010Prop46
 90
       50
102
RTVSPost2010PropOp46
 70
     0
102
RTVSPost2010Prop47
 90
       50
102
RTVSPost2010PropOp47
 70
     0
102
RTVSPost2010Prop48
 90
       50
102
RTVSPost2010PropOp48
 70
     0
102
RTVSPost2010Prop49
280
     0
102
RTVSPost2010PropOp49
 70
     0
102
RTVSPost2010Prop50
 90
       50
102
RTVSPost2010PropOp50
 70
     0
102
RTVSPost2010Prop51ColorIndex
 90
      256
102
RTVSPost2010Prop51ColorRGB
 90
-16777216
102
RTVSPost2010PropOp51
 70
     0
102
RTVSPost2010Prop52
140
1.0
102
RTVSPost2010PropOp52
 70
     0
102
RTVSPost2010Prop53
 90
        2
102
RTVSPost2010PropOp53
 70
     0
102
RTVSPost2010Prop54
  1
strokes_ogs.tif
102
RTVSPost2010PropOp54
 70
     0
102
RTVSPost2010Prop55
280
     0
102
RTVSPost2010PropOp55
 70
     0
102
RTVSPost2010Prop56
140
1.0
102
RTVSPost2010PropOp56
 70
     0
102
RTVSPost2010Prop57
140
1.0
102
RTVSPost2010PropOp57
 70
     0
  0
XRECORD
  5
2BD
102
{ACAD_REACTORS
330
2BC
102
}
330
2BC
100
AcDbXrecord
280
     1
102
RTVSPropertyOp0
 70
     1
102
RTVSPropertyOp1
 70
     1
102
RTVSPropertyOp2
 70
     1
102
RTVSPropertyOp3
 70
     1
102
RTVSPropertyOp4
 70
     1
102
RTVSPropertyOp5
 70
     1
102
RTVSPropertyOp6
 70
     1
102
RTVSPropertyOp7
 70
     1
102
RTVSPropertyOp8
 70
     1
102
RTVSPropertyOp9
 70
     1
102
RTVSPropertyOp10
 70
     1
102
RTVSPropertyOp11
 70
     1
102
RTVSPropertyOp12
 70
     1
102
RTVSPropertyOp13
 70
     1
102
RTVSPropertyOp14
 70
     1
102
RTVSPropertyOp15
 70
     1
102
RTVSPropertyOp16
 70
     1
102
RTVSPropertyOp17
 70
     1
102
RTVSPropertyOp18
 70
     1
102
RTVSPropertyOp19
 70
     1
102
RTVSPropertyOp20
 70
     1
102
RTVSPropertyOp21
 70
     1
102
RTVSPropertyOp22
 70
     1
102
RTVSPropertyOp23
 70
     1
102
RTVSPropertyOp24
 70
     1
102
RTVSPropertyOp25
 70
     1
102
RTVSPropertyOp26
 70
     1
102
RTVSPropertyOp27
 70
     1
102
RTVSPropertyOp28
 70
     1
102
RTVSPropertyOp29
 70
     1
102
RTVSPropertyOp30
 70
     1
102
RTVSPropertyOp31
 70
     1
102
RTVSPropertyOp32
 70
     1
102
RTVSPropertyOp33
 70
     1
102
RTVSPropertyOp34
 70
     1
102
RTVSPropertyOp35
 70
     1
102
RTVSPropertyOp36
 70
     1
102
RTVSPropertyOp37
 70
     1
102
RTVSPropertyOp38
 70
     1
102
RTVSPropertyOp39
 70
     1
102
RTVSPropertyOp40
 70
     1
102
RTVSPropertyOp41
 70
     1
102
RTVSPropertyOp42
 70
     1
102
RTVSPropertyOp43
 70
     1
102
RTVSPropertyOp44
 70
     1
102
RTVSPropertyOp45
 70
     1
102
RTVSPropertyOp46
 70
     1
102
RTVSPropertyOp47
 70
     1
102
RTVSPropertyOp48
 70
     1
102
RTVSPropertyOp49
 70
     1
102
RTVSPropertyOp50
 70
     1
102
RTVSPropertyOp51
 70
     0
102
RTVSPropertyOp52
 70
     0
102
RTVSPropertyOp53
 70
     1
102
RTVSPropertyOp54
 70
     1
102
RTVSPropertyOp55
 70
     1
102
RTVSPropertyOp56
 70
     1
102
RTVSPropertyOp57
 70
     1
102
RTVSPost2010Prop28
280
     0
102
RTVSPost2010PropOp28
 70
     1
102
RTVSPost2010Prop29
280
     1
102
RTVSPost2010PropOp29
 70
     1
102
RTVSPost2010Prop30
280
     1
102
RTVSPost2010PropOp30
 70
     1
102
RTVSPost2010Prop31
280
     0
102
RTVSPost2010PropOp31
 70
     1
102
RTVSPost2010Prop32
280
     0
102
RTVSPost2010PropOp32
 70
     1
102
RTVSPost2010Prop33
280
     0
102
RTVSPost2010PropOp33
 70
     1
102
RTVSPost2010Prop34
280
     0
102
RTVSPost2010PropOp34
 70
     1
102
RTVSPost2010Prop35
280
     0
102
RTVSPost2010PropOp35
 70
     1
102
RTVSPost2010Prop36
280
     0
102
RTVSPost2010PropOp36
 70
     1
102
RTVSPost2010Prop37
 90
       50
102
RTVSPost2010PropOp37
 70
     1
102
RTVSPost2010Prop38
140
0.0
102
RTVSPost2010PropOp38
 70
     1
102
RTVSPost2010Prop39
140
1.0
102
RTVSPost2010PropOp39
 70
     1
102
RTVSPost2010Prop40
 90
        0
102
RTVSPost2010PropOp40
 70
     1
102
RTVSPost2010Prop41ColorIndex
 90
       18
102
RTVSPost2010Prop41ColorRGB
 90
        0
102
RTVSPost2010PropOp41
 70
     1
102
RTVSPost2010Prop42
 90
       50
102
RTVSPost2010PropOp42
 70
     1
102
RTVSPost2010Prop43
 90
        3
102
RTVSPost2010PropOp43
 70
     1
102
RTVSPost2010Prop44ColorIndex
 90
        5
102
RTVSPost2010Prop44ColorRGB
 90
      255
102
RTVSPost2010PropOp44
 70
     1
102
RTVSPost2010Prop45
280
     0
102
RTVSPost2010PropOp45
 70
     1
102
RTVSPost2010Prop46
 90
       50
102
RTVSPost2010PropOp46
 70
     1
102
RTVSPost2010Prop47
 90
       50
102
RTVSPost2010PropOp47
 70
     1
102
RTVSPost2010Prop48
 90
       50
102
RTVSPost2010PropOp48
 70
     1
102
RTVSPost2010Prop49
280
     0
102
RTVSPost2010PropOp49
 70
     1
102
RTVSPost2010Prop50
 90
       50
102
RTVSPost2010PropOp50
 70
     1
102
RTVSPost2010Prop51ColorIndex
 90
      256
102
RTVSPost2010Prop51ColorRGB
 90
-16777216
102
RTVSPost2010PropOp51
 70
     0
102
RTVSPost2010Prop52
140
1.0
102
RTVSPost2010PropOp52
 70
     0
102
RTVSPost2010Prop53
 90
        2
102
RTVSPost2010PropOp53
 70
     1
102
RTVSPost2010Prop54
  1
strokes_ogs.tif
102
RTVSPost2010PropOp54
 70
     1
102
RTVSPost2010Prop55
280
     0
102
RTVSPost2010PropOp55
 70
     1
102
RTVSPost2010Prop56
140
1.0
102
RTVSPost2010PropOp56
 70
     1
102
RTVSPost2010Prop57
140
1.0
102
RTVSPost2010PropOp57
 70
     1
  0
XRECORD
  5
2A1
102
{ACAD_REACTORS
330
2A0
102
}
330
2A0
100
AcDbXrecord
280
     1
102
RTVSPropertyOp0
 70
     1
102
RTVSPropertyOp1
 70
     1
102
RTVSPropertyOp2
 70
     1
102
RTVSPropertyOp3
 70
     1
102
RTVSPropertyOp4
 70
     1
102
RTVSPropertyOp5
 70
     1
102
RTVSPropertyOp6
 70
     1
102
RTVSPropertyOp7
 70
     1
102
RTVSPropertyOp8
 70
     1
102
RTVSPropertyOp9
 70
     1
102
RTVSPropertyOp10
 70
     1
102
RTVSPropertyOp11
 70
     1
102
RTVSPropertyOp12
 70
     1
102
RTVSPropertyOp13
 70
     1
102
RTVSPropertyOp14
 70
     1
102
RTVSPropertyOp15
 70
     1
102
RTVSPropertyOp16
 70
     1
102
RTVSPropertyOp17
 70
     1
102
RTVSPropertyOp18
 70
     1
102
RTVSPropertyOp19
 70
     1
102
RTVSPropertyOp20
 70
     1
102
RTVSPropertyOp21
 70
     1
102
RTVSPropertyOp22
 70
     1
102
RTVSPropertyOp23
 70
     1
102
RTVSPropertyOp24
 70
     1
102
RTVSPropertyOp25
 70
     1
102
RTVSPropertyOp26
 70
     1
102
RTVSPropertyOp27
 70
     1
102
RTVSPropertyOp28
 70
     1
102
RTVSPropertyOp29
 70
     1
102
RTVSPropertyOp30
 70
     1
102
RTVSPropertyOp31
 70
     1
102
RTVSPropertyOp32
 70
     1
102
RTVSPropertyOp33
 70
     1
102
RTVSPropertyOp34
 70
     1
102
RTVSPropertyOp35
 70
     1
102
RTVSPropertyOp36
 70
     1
102
RTVSPropertyOp37
 70
     1
102
RTVSPropertyOp38
 70
     1
102
RTVSPropertyOp39
 70
     1
102
RTVSPropertyOp40
 70
     1
102
RTVSPropertyOp41
 70
     1
102
RTVSPropertyOp42
 70
     1
102
RTVSPropertyOp43
 70
     1
102
RTVSPropertyOp44
 70
     1
102
RTVSPropertyOp45
 70
     1
102
RTVSPropertyOp46
 70
     1
102
RTVSPropertyOp47
 70
     1
102
RTVSPropertyOp48
 70
     1
102
RTVSPropertyOp49
 70
     1
102
RTVSPropertyOp50
 70
     1
102
RTVSPropertyOp51
 70
     0
102
RTVSPropertyOp52
 70
     0
102
RTVSPropertyOp53
 70
     1
102
RTVSPropertyOp54
 70
     1
102
RTVSPropertyOp55
 70
     1
102
RTVSPropertyOp56
 70
     1
102
RTVSPropertyOp57
 70
     1
102
RTVSPost2010Prop28
280
     0
102
RTVSPost2010PropOp28
 70
     1
102
RTVSPost2010Prop29
280
     1
102
RTVSPost2010PropOp29
 70
     1
102
RTVSPost2010Prop30
280
     1
102
RTVSPost2010PropOp30
 70
     1
102
RTVSPost2010Prop31
280
     0
102
RTVSPost2010PropOp31
 70
     1
102
RTVSPost2010Prop32
280
     0
102
RTVSPost2010PropOp32
 70
     1
102
RTVSPost2010Prop33
280
     0
102
RTVSPost2010PropOp33
 70
     1
102
RTVSPost2010Prop34
280
     0
102
RTVSPost2010PropOp34
 70
     1
102
RTVSPost2010Prop35
280
     0
102
RTVSPost2010PropOp35
 70
     1
102
RTVSPost2010Prop36
280
     0
102
RTVSPost2010PropOp36
 70
     1
102
RTVSPost2010Prop37
 90
       50
102
RTVSPost2010PropOp37
 70
     1
102
RTVSPost2010Prop38
140
0.0
102
RTVSPost2010PropOp38
 70
     1
102
RTVSPost2010Prop39
140
1.0
102
RTVSPost2010PropOp39
 70
     1
102
RTVSPost2010Prop40
 90
        0
102
RTVSPost2010PropOp40
 70
     1
102
RTVSPost2010Prop41ColorIndex
 90
       18
102
RTVSPost2010Prop41ColorRGB
 90
        0
102
RTVSPost2010PropOp41
 70
     1
102
RTVSPost2010Prop42
 90
       50
102
RTVSPost2010PropOp42
 70
     1
102
RTVSPost2010Prop43
 90
        3
102
RTVSPost2010PropOp43
 70
     1
102
RTVSPost2010Prop44ColorIndex
 90
        5
102
RTVSPost2010Prop44ColorRGB
 90
      255
102
RTVSPost2010PropOp44
 70
     1
102
RTVSPost2010Prop45
280
     0
102
RTVSPost2010PropOp45
 70
     1
102
RTVSPost2010Prop46
 90
       50
102
RTVSPost2010PropOp46
 70
     1
102
RTVSPost2010Prop47
 90
       50
102
RTVSPost2010PropOp47
 70
     1
102
RTVSPost2010Prop48
 90
       50
102
RTVSPost2010PropOp48
 70
     1
102
RTVSPost2010Prop49
280
     0
102
RTVSPost2010PropOp49
 70
     1
102
RTVSPost2010Prop50
 90
       50
102
RTVSPost2010PropOp50
 70
     1
102
RTVSPost2010Prop51ColorIndex
 90
      256
102
RTVSPost2010Prop51ColorRGB
 90
-16777216
102
RTVSPost2010PropOp51
 70
     0
102
RTVSPost2010Prop52
140
1.0
102
RTVSPost2010PropOp52
 70
     0
102
RTVSPost2010Prop53
 90
        2
102
RTVSPost2010PropOp53
 70
     1
102
RTVSPost2010Prop54
  1
strokes_ogs.tif
102
RTVSPost2010PropOp54
 70
     1
102
RTVSPost2010Prop55
280
     0
102
RTVSPost2010PropOp55
 70
     1
102
RTVSPost2010Prop56
140
1.0
102
RTVSPost2010PropOp56
 70
     1
102
RTVSPost2010Prop57
140
1.0
102
RTVSPost2010PropOp57
 70
     1
  0
XRECORD
  5
2A3
102
{ACAD_REACTORS
330
2A2
102
}
330
2A2
100
AcDbXrecord
280
     1
102
RTVSPropertyOp0
 70
     1
102
RTVSPropertyOp1
 70
     1
102
RTVSPropertyOp2
 70
     1
102
RTVSPropertyOp3
 70
     1
102
RTVSPropertyOp4
 70
     1
102
RTVSPropertyOp5
 70
     1
102
RTVSPropertyOp6
 70
     1
102
RTVSPropertyOp7
 70
     1
102
RTVSPropertyOp8
 70
     1
102
RTVSPropertyOp9
 70
     1
102
RTVSPropertyOp10
 70
     1
102
RTVSPropertyOp11
 70
     1
102
RTVSPropertyOp12
 70
     1
102
RTVSPropertyOp13
 70
     1
102
RTVSPropertyOp14
 70
     1
102
RTVSPropertyOp15
 70
     1
102
RTVSPropertyOp16
 70
     1
102
RTVSPropertyOp17
 70
     1
102
RTVSPropertyOp18
 70
     1
102
RTVSPropertyOp19
 70
     1
102
RTVSPropertyOp20
 70
     1
102
RTVSPropertyOp21
 70
     1
102
RTVSPropertyOp22
 70
     1
102
RTVSPropertyOp23
 70
     1
102
RTVSPropertyOp24
 70
     1
102
RTVSPropertyOp25
 70
     1
102
RTVSPropertyOp26
 70
     1
102
RTVSPropertyOp27
 70
     1
102
RTVSPropertyOp28
 70
     1
102
RTVSPropertyOp29
 70
     1
102
RTVSPropertyOp30
 70
     1
102
RTVSPropertyOp31
 70
     1
102
RTVSPropertyOp32
 70
     1
102
RTVSPropertyOp33
 70
     1
102
RTVSPropertyOp34
 70
     1
102
RTVSPropertyOp35
 70
     1
102
RTVSPropertyOp36
 70
     1
102
RTVSPropertyOp37
 70
     1
102
RTVSPropertyOp38
 70
     1
102
RTVSPropertyOp39
 70
     1
102
RTVSPropertyOp40
 70
     1
102
RTVSPropertyOp41
 70
     1
102
RTVSPropertyOp42
 70
     1
102
RTVSPropertyOp43
 70
     1
102
RTVSPropertyOp44
 70
     1
102
RTVSPropertyOp45
 70
     1
102
RTVSPropertyOp46
 70
     1
102
RTVSPropertyOp47
 70
     1
102
RTVSPropertyOp48
 70
     1
102
RTVSPropertyOp49
 70
     1
102
RTVSPropertyOp50
 70
     1
102
RTVSPropertyOp51
 70
     0
102
RTVSPropertyOp52
 70
     0
102
RTVSPropertyOp53
 70
     1
102
RTVSPropertyOp54
 70
     1
102
RTVSPropertyOp55
 70
     1
102
RTVSPropertyOp56
 70
     1
102
RTVSPropertyOp57
 70
     1
102
RTVSPost2010Prop28
280
     0
102
RTVSPost2010PropOp28
 70
     1
102
RTVSPost2010Prop29
280
     1
102
RTVSPost2010PropOp29
 70
     1
102
RTVSPost2010Prop30
280
     1
102
RTVSPost2010PropOp30
 70
     1
102
RTVSPost2010Prop31
280
     0
102
RTVSPost2010PropOp31
 70
     1
102
RTVSPost2010Prop32
280
     0
102
RTVSPost2010PropOp32
 70
     1
102
RTVSPost2010Prop33
280
     0
102
RTVSPost2010PropOp33
 70
     1
102
RTVSPost2010Prop34
280
     0
102
RTVSPost2010PropOp34
 70
     1
102
RTVSPost2010Prop35
280
     0
102
RTVSPost2010PropOp35
 70
     1
102
RTVSPost2010Prop36
280
     0
102
RTVSPost2010PropOp36
 70
     1
102
RTVSPost2010Prop37
 90
       50
102
RTVSPost2010PropOp37
 70
     1
102
RTVSPost2010Prop38
140
0.0
102
RTVSPost2010PropOp38
 70
     1
102
RTVSPost2010Prop39
140
1.0
102
RTVSPost2010PropOp39
 70
     1
102
RTVSPost2010Prop40
 90
        0
102
RTVSPost2010PropOp40
 70
     1
102
RTVSPost2010Prop41ColorIndex
 90
       18
102
RTVSPost2010Prop41ColorRGB
 90
        0
102
RTVSPost2010PropOp41
 70
     1
102
RTVSPost2010Prop42
 90
       50
102
RTVSPost2010PropOp42
 70
     1
102
RTVSPost2010Prop43
 90
        3
102
RTVSPost2010PropOp43
 70
     1
102
RTVSPost2010Prop44ColorIndex
 90
        5
102
RTVSPost2010Prop44ColorRGB
 90
      255
102
RTVSPost2010PropOp44
 70
     1
102
RTVSPost2010Prop45
280
     0
102
RTVSPost2010PropOp45
 70
     1
102
RTVSPost2010Prop46
 90
       50
102
RTVSPost2010PropOp46
 70
     1
102
RTVSPost2010Prop47
 90
       50
102
RTVSPost2010PropOp47
 70
     1
102
RTVSPost2010Prop48
 90
       50
102
RTVSPost2010PropOp48
 70
     1
102
RTVSPost2010Prop49
280
     0
102
RTVSPost2010PropOp49
 70
     1
102
RTVSPost2010Prop50
 90
       50
102
RTVSPost2010PropOp50
 70
     1
102
RTVSPost2010Prop51ColorIndex
 90
      256
102
RTVSPost2010Prop51ColorRGB
 90
-16777216
102
RTVSPost2010PropOp51
 70
     0
102
RTVSPost2010Prop52
140
1.0
102
RTVSPost2010PropOp52
 70
     0
102
RTVSPost2010Prop53
 90
        2
102
RTVSPost2010PropOp53
 70
     1
102
RTVSPost2010Prop54
  1
strokes_ogs.tif
102
RTVSPost2010PropOp54
 70
     1
102
RTVSPost2010Prop55
280
     0
102
RTVSPost2010PropOp55
 70
     1
102
RTVSPost2010Prop56
140
1.0
102
RTVSPost2010PropOp56
 70
     1
102
RTVSPost2010Prop57
140
1.0
102
RTVSPost2010PropOp57
 70
     1
  0
XRECORD
  5
2A5
102
{ACAD_REACTORS
330
2A4
102
}
330
2A4
100
AcDbXrecord
280
     1
102
RTVSPropertyOp0
 70
     1
102
RTVSPropertyOp1
 70
     1
102
RTVSPropertyOp2
 70
     1
102
RTVSPropertyOp3
 70
     1
102
RTVSPropertyOp4
 70
     1
102
RTVSPropertyOp5
 70
     1
102
RTVSPropertyOp6
 70
     1
102
RTVSPropertyOp7
 70
     1
102
RTVSPropertyOp8
 70
     1
102
RTVSPropertyOp9
 70
     1
102
RTVSPropertyOp10
 70
     1
102
RTVSPropertyOp11
 70
     1
102
RTVSPropertyOp12
 70
     1
102
RTVSPropertyOp13
 70
     1
102
RTVSPropertyOp14
 70
     1
102
RTVSPropertyOp15
 70
     1
102
RTVSPropertyOp16
 70
     1
102
RTVSPropertyOp17
 70
     1
102
RTVSPropertyOp18
 70
     1
102
RTVSPropertyOp19
 70
     1
102
RTVSPropertyOp20
 70
     1
102
RTVSPropertyOp21
 70
     1
102
RTVSPropertyOp22
 70
     1
102
RTVSPropertyOp23
 70
     1
102
RTVSPropertyOp24
 70
     1
102
RTVSPropertyOp25
 70
     1
102
RTVSPropertyOp26
 70
     1
102
RTVSPropertyOp27
 70
     1
102
RTVSPropertyOp28
 70
     1
102
RTVSPropertyOp29
 70
     1
102
RTVSPropertyOp30
 70
     1
102
RTVSPropertyOp31
 70
     1
102
RTVSPropertyOp32
 70
     1
102
RTVSPropertyOp33
 70
     1
102
RTVSPropertyOp34
 70
     1
102
RTVSPropertyOp35
 70
     1
102
RTVSPropertyOp36
 70
     1
102
RTVSPropertyOp37
 70
     1
102
RTVSPropertyOp38
 70
     1
102
RTVSPropertyOp39
 70
     1
102
RTVSPropertyOp40
 70
     1
102
RTVSPropertyOp41
 70
     1
102
RTVSPropertyOp42
 70
     1
102
RTVSPropertyOp43
 70
     1
102
RTVSPropertyOp44
 70
     1
102
RTVSPropertyOp45
 70
     1
102
RTVSPropertyOp46
 70
     1
102
RTVSPropertyOp47
 70
     1
102
RTVSPropertyOp48
 70
     1
102
RTVSPropertyOp49
 70
     1
102
RTVSPropertyOp50
 70
     1
102
RTVSPropertyOp51
 70
     0
102
RTVSPropertyOp52
 70
     0
102
RTVSPropertyOp53
 70
     1
102
RTVSPropertyOp54
 70
     1
102
RTVSPropertyOp55
 70
     1
102
RTVSPropertyOp56
 70
     1
102
RTVSPropertyOp57
 70
     1
102
RTVSPost2010Prop28
280
     0
102
RTVSPost2010PropOp28
 70
     1
102
RTVSPost2010Prop29
280
     1
102
RTVSPost2010PropOp29
 70
     1
102
RTVSPost2010Prop30
280
     1
102
RTVSPost2010PropOp30
 70
     1
102
RTVSPost2010Prop31
280
     0
102
RTVSPost2010PropOp31
 70
     1
102
RTVSPost2010Prop32
280
     0
102
RTVSPost2010PropOp32
 70
     1
102
RTVSPost2010Prop33
280
     0
102
RTVSPost2010PropOp33
 70
     1
102
RTVSPost2010Prop34
280
     0
102
RTVSPost2010PropOp34
 70
     1
102
RTVSPost2010Prop35
280
     0
102
RTVSPost2010PropOp35
 70
     1
102
RTVSPost2010Prop36
280
     0
102
RTVSPost2010PropOp36
 70
     1
102
RTVSPost2010Prop37
 90
       50
102
RTVSPost2010PropOp37
 70
     1
102
RTVSPost2010Prop38
140
0.0
102
RTVSPost2010PropOp38
 70
     1
102
RTVSPost2010Prop39
140
1.0
102
RTVSPost2010PropOp39
 70
     1
102
RTVSPost2010Prop40
 90
        0
102
RTVSPost2010PropOp40
 70
     1
102
RTVSPost2010Prop41ColorIndex
 90
       18
102
RTVSPost2010Prop41ColorRGB
 90
        0
102
RTVSPost2010PropOp41
 70
     1
102
RTVSPost2010Prop42
 90
       50
102
RTVSPost2010PropOp42
 70
     1
102
RTVSPost2010Prop43
 90
        3
102
RTVSPost2010PropOp43
 70
     1
102
RTVSPost2010Prop44ColorIndex
 90
        5
102
RTVSPost2010Prop44ColorRGB
 90
      255
102
RTVSPost2010PropOp44
 70
     1
102
RTVSPost2010Prop45
280
     0
102
RTVSPost2010PropOp45
 70
     1
102
RTVSPost2010Prop46
 90
       50
102
RTVSPost2010PropOp46
 70
     1
102
RTVSPost2010Prop47
 90
       50
102
RTVSPost2010PropOp47
 70
     1
102
RTVSPost2010Prop48
 90
       50
102
RTVSPost2010PropOp48
 70
     1
102
RTVSPost2010Prop49
280
     0
102
RTVSPost2010PropOp49
 70
     1
102
RTVSPost2010Prop50
 90
       50
102
RTVSPost2010PropOp50
 70
     1
102
RTVSPost2010Prop51ColorIndex
 90
      256
102
RTVSPost2010Prop51ColorRGB
 90
-16777216
102
RTVSPost2010PropOp51
 70
     0
102
RTVSPost2010Prop52
140
1.0
102
RTVSPost2010PropOp52
 70
     0
102
RTVSPost2010Prop53
 90
        2
102
RTVSPost2010PropOp53
 70
     1
102
RTVSPost2010Prop54
  1
strokes_ogs.tif
102
RTVSPost2010PropOp54
 70
     1
102
RTVSPost2010Prop55
280
     0
102
RTVSPost2010PropOp55
 70
     1
102
RTVSPost2010Prop56
140
1.0
102
RTVSPost2010PropOp56
 70
     1
102
RTVSPost2010Prop57
140
1.0
102
RTVSPost2010PropOp57
 70
     1
  0
XRECORD
  5
2A7
102
{ACAD_REACTORS
330
2A6
102
}
330
2A6
100
AcDbXrecord
280
     1
102
RTVSPropertyOp0
 70
     1
102
RTVSPropertyOp1
 70
     1
102
RTVSPropertyOp2
 70
     1
102
RTVSPropertyOp3
 70
     1
102
RTVSPropertyOp4
 70
     1
102
RTVSPropertyOp5
 70
     1
102
RTVSPropertyOp6
 70
     1
102
RTVSPropertyOp7
 70
     1
102
RTVSPropertyOp8
 70
     1
102
RTVSPropertyOp9
 70
     1
102
RTVSPropertyOp10
 70
     1
102
RTVSPropertyOp11
 70
     1
102
RTVSPropertyOp12
 70
     1
102
RTVSPropertyOp13
 70
     1
102
RTVSPropertyOp14
 70
     1
102
RTVSPropertyOp15
 70
     1
102
RTVSPropertyOp16
 70
     1
102
RTVSPropertyOp17
 70
     1
102
RTVSPropertyOp18
 70
     1
102
RTVSPropertyOp19
 70
     1
102
RTVSPropertyOp20
 70
     1
102
RTVSPropertyOp21
 70
     1
102
RTVSPropertyOp22
 70
     1
102
RTVSPropertyOp23
 70
     1
102
RTVSPropertyOp24
 70
     1
102
RTVSPropertyOp25
 70
     1
102
RTVSPropertyOp26
 70
     1
102
RTVSPropertyOp27
 70
     1
102
RTVSPropertyOp28
 70
     1
102
RTVSPropertyOp29
 70
     1
102
RTVSPropertyOp30
 70
     1
102
RTVSPropertyOp31
 70
     1
102
RTVSPropertyOp32
 70
     1
102
RTVSPropertyOp33
 70
     1
102
RTVSPropertyOp34
 70
     1
102
RTVSPropertyOp35
 70
     1
102
RTVSPropertyOp36
 70
     1
102
RTVSPropertyOp37
 70
     1
102
RTVSPropertyOp38
 70
     1
102
RTVSPropertyOp39
 70
     1
102
RTVSPropertyOp40
 70
     1
102
RTVSPropertyOp41
 70
     1
102
RTVSPropertyOp42
 70
     1
102
RTVSPropertyOp43
 70
     1
102
RTVSPropertyOp44
 70
     1
102
RTVSPropertyOp45
 70
     1
102
RTVSPropertyOp46
 70
     1
102
RTVSPropertyOp47
 70
     1
102
RTVSPropertyOp48
 70
     1
102
RTVSPropertyOp49
 70
     1
102
RTVSPropertyOp50
 70
     1
102
RTVSPropertyOp51
 70
     0
102
RTVSPropertyOp52
 70
     0
102
RTVSPropertyOp53
 70
     1
102
RTVSPropertyOp54
 70
     1
102
RTVSPropertyOp55
 70
     1
102
RTVSPropertyOp56
 70
     1
102
RTVSPropertyOp57
 70
     1
102
RTVSPost2010Prop28
280
     0
102
RTVSPost2010PropOp28
 70
     1
102
RTVSPost2010Prop29
280
     1
102
RTVSPost2010PropOp29
 70
     1
102
RTVSPost2010Prop30
280
     1
102
RTVSPost2010PropOp30
 70
     1
102
RTVSPost2010Prop31
280
     0
102
RTVSPost2010PropOp31
 70
     1
102
RTVSPost2010Prop32
280
     0
102
RTVSPost2010PropOp32
 70
     1
102
RTVSPost2010Prop33
280
     0
102
RTVSPost2010PropOp33
 70
     1
102
RTVSPost2010Prop34
280
     0
102
RTVSPost2010PropOp34
 70
     1
102
RTVSPost2010Prop35
280
     0
102
RTVSPost2010PropOp35
 70
     1
102
RTVSPost2010Prop36
280
     0
102
RTVSPost2010PropOp36
 70
     1
102
RTVSPost2010Prop37
 90
       50
102
RTVSPost2010PropOp37
 70
     1
102
RTVSPost2010Prop38
140
0.0
102
RTVSPost2010PropOp38
 70
     1
102
RTVSPost2010Prop39
140
1.0
102
RTVSPost2010PropOp39
 70
     1
102
RTVSPost2010Prop40
 90
        0
102
RTVSPost2010PropOp40
 70
     1
102
RTVSPost2010Prop41ColorIndex
 90
       18
102
RTVSPost2010Prop41ColorRGB
 90
        0
102
RTVSPost2010PropOp41
 70
     1
102
RTVSPost2010Prop42
 90
       50
102
RTVSPost2010PropOp42
 70
     1
102
RTVSPost2010Prop43
 90
        3
102
RTVSPost2010PropOp43
 70
     1
102
RTVSPost2010Prop44ColorIndex
 90
        5
102
RTVSPost2010Prop44ColorRGB
 90
      255
102
RTVSPost2010PropOp44
 70
     1
102
RTVSPost2010Prop45
280
     0
102
RTVSPost2010PropOp45
 70
     1
102
RTVSPost2010Prop46
 90
       50
102
RTVSPost2010PropOp46
 70
     1
102
RTVSPost2010Prop47
 90
       50
102
RTVSPost2010PropOp47
 70
     1
102
RTVSPost2010Prop48
 90
       50
102
RTVSPost2010PropOp48
 70
     1
102
RTVSPost2010Prop49
280
     0
102
RTVSPost2010PropOp49
 70
     1
102
RTVSPost2010Prop50
 90
       50
102
RTVSPost2010PropOp50
 70
     1
102
RTVSPost2010Prop51ColorIndex
 90
      256
102
RTVSPost2010Prop51ColorRGB
 90
-16777216
102
RTVSPost2010PropOp51
 70
     0
102
RTVSPost2010Prop52
140
1.0
102
RTVSPost2010PropOp52
 70
     0
102
RTVSPost2010Prop53
 90
        2
102
RTVSPost2010PropOp53
 70
     1
102
RTVSPost2010Prop54
  1
strokes_ogs.tif
102
RTVSPost2010PropOp54
 70
     1
102
RTVSPost2010Prop55
280
     0
102
RTVSPost2010PropOp55
 70
     1
102
RTVSPost2010Prop56
140
1.0
102
RTVSPost2010PropOp56
 70
     1
102
RTVSPost2010Prop57
140
1.0
102
RTVSPost2010PropOp57
 70
     1
  0
XRECORD
  5
2AD
102
{ACAD_REACTORS
330
2AC
102
}
330
2AC
100
AcDbXrecord
280
     1
102
RTVSPropertyOp0
 70
     1
102
RTVSPropertyOp1
 70
     1
102
RTVSPropertyOp2
 70
     1
102
RTVSPropertyOp3
 70
     1
102
RTVSPropertyOp4
 70
     1
102
RTVSPropertyOp5
 70
     1
102
RTVSPropertyOp6
 70
     1
102
RTVSPropertyOp7
 70
     1
102
RTVSPropertyOp8
 70
     1
102
RTVSPropertyOp9
 70
     1
102
RTVSPropertyOp10
 70
     1
102
RTVSPropertyOp11
 70
     1
102
RTVSPropertyOp12
 70
     1
102
RTVSPropertyOp13
 70
     1
102
RTVSPropertyOp14
 70
     1
102
RTVSPropertyOp15
 70
     1
102
RTVSPropertyOp16
 70
     1
102
RTVSPropertyOp17
 70
     1
102
RTVSPropertyOp18
 70
     1
102
RTVSPropertyOp19
 70
     1
102
RTVSPropertyOp20
 70
     1
102
RTVSPropertyOp21
 70
     1
102
RTVSPropertyOp22
 70
     1
102
RTVSPropertyOp23
 70
     1
102
RTVSPropertyOp24
 70
     1
102
RTVSPropertyOp25
 70
     1
102
RTVSPropertyOp26
 70
     1
102
RTVSPropertyOp27
 70
     1
102
RTVSPropertyOp28
 70
     1
102
RTVSPropertyOp29
 70
     1
102
RTVSPropertyOp30
 70
     1
102
RTVSPropertyOp31
 70
     1
102
RTVSPropertyOp32
 70
     1
102
RTVSPropertyOp33
 70
     1
102
RTVSPropertyOp34
 70
     1
102
RTVSPropertyOp35
 70
     1
102
RTVSPropertyOp36
 70
     1
102
RTVSPropertyOp37
 70
     1
102
RTVSPropertyOp38
 70
     1
102
RTVSPropertyOp39
 70
     1
102
RTVSPropertyOp40
 70
     1
102
RTVSPropertyOp41
 70
     1
102
RTVSPropertyOp42
 70
     1
102
RTVSPropertyOp43
 70
     1
102
RTVSPropertyOp44
 70
     1
102
RTVSPropertyOp45
 70
     1
102
RTVSPropertyOp46
 70
     1
102
RTVSPropertyOp47
 70
     1
102
RTVSPropertyOp48
 70
     1
102
RTVSPropertyOp49
 70
     1
102
RTVSPropertyOp50
 70
     1
102
RTVSPropertyOp51
 70
     0
102
RTVSPropertyOp52
 70
     0
102
RTVSPropertyOp53
 70
     1
102
RTVSPropertyOp54
 70
     1
102
RTVSPropertyOp55
 70
     1
102
RTVSPropertyOp56
 70
     1
102
RTVSPropertyOp57
 70
     1
102
RTVSPost2010Prop28
280
     0
102
RTVSPost2010PropOp28
 70
     1
102
RTVSPost2010Prop29
280
     1
102
RTVSPost2010PropOp29
 70
     1
102
RTVSPost2010Prop30
280
     1
102
RTVSPost2010PropOp30
 70
     1
102
RTVSPost2010Prop31
280
     0
102
RTVSPost2010PropOp31
 70
     1
102
RTVSPost2010Prop32
280
     0
102
RTVSPost2010PropOp32
 70
     1
102
RTVSPost2010Prop33
280
     0
102
RTVSPost2010PropOp33
 70
     1
102
RTVSPost2010Prop34
280
     0
102
RTVSPost2010PropOp34
 70
     1
102
RTVSPost2010Prop35
280
     0
102
RTVSPost2010PropOp35
 70
     1
102
RTVSPost2010Prop36
280
     0
102
RTVSPost2010PropOp36
 70
     1
102
RTVSPost2010Prop37
 90
       50
102
RTVSPost2010PropOp37
 70
     1
102
RTVSPost2010Prop38
140
0.0
102
RTVSPost2010PropOp38
 70
     1
102
RTVSPost2010Prop39
140
1.0
102
RTVSPost2010PropOp39
 70
     1
102
RTVSPost2010Prop40
 90
        0
102
RTVSPost2010PropOp40
 70
     1
102
RTVSPost2010Prop41ColorIndex
 90
       18
102
RTVSPost2010Prop41ColorRGB
 90
        0
102
RTVSPost2010PropOp41
 70
     1
102
RTVSPost2010Prop42
 90
       50
102
RTVSPost2010PropOp42
 70
     1
102
RTVSPost2010Prop43
 90
        3
102
RTVSPost2010PropOp43
 70
     1
102
RTVSPost2010Prop44ColorIndex
 90
        5
102
RTVSPost2010Prop44ColorRGB
 90
      255
102
RTVSPost2010PropOp44
 70
     1
102
RTVSPost2010Prop45
280
     0
102
RTVSPost2010PropOp45
 70
     1
102
RTVSPost2010Prop46
 90
       50
102
RTVSPost2010PropOp46
 70
     1
102
RTVSPost2010Prop47
 90
       50
102
RTVSPost2010PropOp47
 70
     1
102
RTVSPost2010Prop48
 90
       50
102
RTVSPost2010PropOp48
 70
     1
102
RTVSPost2010Prop49
280
     0
102
RTVSPost2010PropOp49
 70
     1
102
RTVSPost2010Prop50
 90
       50
102
RTVSPost2010PropOp50
 70
     1
102
RTVSPost2010Prop51ColorIndex
 90
      256
102
RTVSPost2010Prop51ColorRGB
 90
-16777216
102
RTVSPost2010PropOp51
 70
     0
102
RTVSPost2010Prop52
140
1.0
102
RTVSPost2010PropOp52
 70
     0
102
RTVSPost2010Prop53
 90
        2
102
RTVSPost2010PropOp53
 70
     1
102
RTVSPost2010Prop54
  1
strokes_ogs.tif
102
RTVSPost2010PropOp54
 70
     1
102
RTVSPost2010Prop55
280
     0
102
RTVSPost2010PropOp55
 70
     1
102
RTVSPost2010Prop56
140
1.0
102
RTVSPost2010PropOp56
 70
     1
102
RTVSPost2010Prop57
140
1.0
102
RTVSPost2010PropOp57
 70
     1
  0
XRECORD
  5
2C1
102
{ACAD_REACTORS
330
2C0
102
}
330
2C0
100
AcDbXrecord
280
     1
102
RTVSPropertyOp0
 70
     0
102
RTVSPropertyOp1
 70
     0
102
RTVSPropertyOp2
 70
     0
102
RTVSPropertyOp3
 70
     0
102
RTVSPropertyOp4
 70
     0
102
RTVSPropertyOp5
 70
     0
102
RTVSPropertyOp6
 70
     0
102
RTVSPropertyOp7
 70
     0
102
RTVSPropertyOp8
 70
     0
102
RTVSPropertyOp9
 70
     0
102
RTVSPropertyOp10
 70
     0
102
RTVSPropertyOp11
 70
     0
102
RTVSPropertyOp12
 70
     0
102
RTVSPropertyOp13
 70
     0
102
RTVSPropertyOp14
 70
     2
102
RTVSPropertyOp15
 70
     0
102
RTVSPropertyOp16
 70
     0
102
RTVSPropertyOp17
 70
     0
102
RTVSPropertyOp18
 70
     0
102
RTVSPropertyOp19
 70
     0
102
RTVSPropertyOp20
 70
     0
102
RTVSPropertyOp21
 70
     0
102
RTVSPropertyOp22
 70
     0
102
RTVSPropertyOp23
 70
     0
102
RTVSPropertyOp24
 70
     0
102
RTVSPropertyOp25
 70
     0
102
RTVSPropertyOp26
 70
     0
102
RTVSPropertyOp27
 70
     0
102
RTVSPropertyOp28
 70
     0
102
RTVSPropertyOp29
 70
     0
102
RTVSPropertyOp30
 70
     0
102
RTVSPropertyOp31
 70
     0
102
RTVSPropertyOp32
 70
     0
102
RTVSPropertyOp33
 70
     0
102
RTVSPropertyOp34
 70
     0
102
RTVSPropertyOp35
 70
     0
102
RTVSPropertyOp36
 70
     0
102
RTVSPropertyOp37
 70
     0
102
RTVSPropertyOp38
 70
     0
102
RTVSPropertyOp39
 70
     0
102
RTVSPropertyOp40
 70
     0
102
RTVSPropertyOp41
 70
     0
102
RTVSPropertyOp42
 70
     0
102
RTVSPropertyOp43
 70
     0
102
RTVSPropertyOp44
 70
     0
102
RTVSPropertyOp45
 70
     0
102
RTVSPropertyOp46
 70
     0
102
RTVSPropertyOp47
 70
     0
102
RTVSPropertyOp48
 70
     0
102
RTVSPropertyOp49
 70
     0
102
RTVSPropertyOp50
 70
     0
102
RTVSPropertyOp51
 70
     0
102
RTVSPropertyOp52
 70
     0
102
RTVSPropertyOp53
 70
     0
102
RTVSPropertyOp54
 70
     0
102
RTVSPropertyOp55
 70
     0
102
RTVSPropertyOp56
 70
     0
102
RTVSPropertyOp57
 70
     0
102
RTVSPost2010Prop28
280
     0
102
RTVSPost2010PropOp28
 70
     0
102
RTVSPost2010Prop29
280
     1
102
RTVSPost2010PropOp29
 70
     0
102
RTVSPost2010Prop30
280
     1
102
RTVSPost2010PropOp30
 70
     0
102
RTVSPost2010Prop31
280
     0
102
RTVSPost2010PropOp31
 70
     0
102
RTVSPost2010Prop32
280
     0
102
RTVSPost2010PropOp32
 70
     0
102
RTVSPost2010Prop33
280
     0
102
RTVSPost2010PropOp33
 70
     0
102
RTVSPost2010Prop34
280
     0
102
RTVSPost2010PropOp34
 70
     0
102
RTVSPost2010Prop35
280
     0
102
RTVSPost2010PropOp35
 70
     0
102
RTVSPost2010Prop36
280
     0
102
RTVSPost2010PropOp36
 70
     0
102
RTVSPost2010Prop37
 90
       50
102
RTVSPost2010PropOp37
 70
     0
102
RTVSPost2010Prop38
140
0.0
102
RTVSPost2010PropOp38
 70
     0
102
RTVSPost2010Prop39
140
1.0
102
RTVSPost2010PropOp39
 70
     0
102
RTVSPost2010Prop40
 90
        0
102
RTVSPost2010PropOp40
 70
     0
102
RTVSPost2010Prop41ColorIndex
 90
       18
102
RTVSPost2010Prop41ColorRGB
 90
        0
102
RTVSPost2010PropOp41
 70
     0
102
RTVSPost2010Prop42
 90
       50
102
RTVSPost2010PropOp42
 70
     0
102
RTVSPost2010Prop43
 90
        3
102
RTVSPost2010PropOp43
 70
     0
102
RTVSPost2010Prop44ColorIndex
 90
        5
102
RTVSPost2010Prop44ColorRGB
 90
      255
102
RTVSPost2010PropOp44
 70
     0
102
RTVSPost2010Prop45
280
     0
102
RTVSPost2010PropOp45
 70
     0
102
RTVSPost2010Prop46
 90
       50
102
RTVSPost2010PropOp46
 70
     0
102
RTVSPost2010Prop47
 90
       50
102
RTVSPost2010PropOp47
 70
     0
102
RTVSPost2010Prop48
 90
       50
102
RTVSPost2010PropOp48
 70
     0
102
RTVSPost2010Prop49
280
     0
102
RTVSPost2010PropOp49
 70
     0
102
RTVSPost2010Prop50
 90
       50
102
RTVSPost2010PropOp50
 70
     0
102
RTVSPost2010Prop51ColorIndex
 90
      256
102
RTVSPost2010Prop51ColorRGB
 90
-16777216
102
RTVSPost2010PropOp51
 70
     0
102
RTVSPost2010Prop52
140
1.0
102
RTVSPost2010PropOp52
 70
     0
102
RTVSPost2010Prop53
 90
        2
102
RTVSPost2010PropOp53
 70
     0
102
RTVSPost2010Prop54
  1
strokes_ogs.tif
102
RTVSPost2010PropOp54
 70
     0
102
RTVSPost2010Prop55
280
     0
102
RTVSPost2010PropOp55
 70
     0
102
RTVSPost2010Prop56
140
1.0
102
RTVSPost2010PropOp56
 70
     0
102
RTVSPost2010Prop57
140
1.0
102
RTVSPost2010PropOp57
 70
     0
  0
XRECORD
  5
2BB
102
{ACAD_REACTORS
330
2BA
102
}
330
2BA
100
AcDbXrecord
280
     1
102
RTVSPropertyOp0
 70
     1
102
RTVSPropertyOp1
 70
     1
102
RTVSPropertyOp2
 70
     1
102
RTVSPropertyOp3
 70
     1
102
RTVSPropertyOp4
 70
     1
102
RTVSPropertyOp5
 70
     1
102
RTVSPropertyOp6
 70
     1
102
RTVSPropertyOp7
 70
     1
102
RTVSPropertyOp8
 70
     1
102
RTVSPropertyOp9
 70
     1
102
RTVSPropertyOp10
 70
     1
102
RTVSPropertyOp11
 70
     1
102
RTVSPropertyOp12
 70
     1
102
RTVSPropertyOp13
 70
     1
102
RTVSPropertyOp14
 70
     1
102
RTVSPropertyOp15
 70
     1
102
RTVSPropertyOp16
 70
     1
102
RTVSPropertyOp17
 70
     1
102
RTVSPropertyOp18
 70
     1
102
RTVSPropertyOp19
 70
     1
102
RTVSPropertyOp20
 70
     1
102
RTVSPropertyOp21
 70
     1
102
RTVSPropertyOp22
 70
     1
102
RTVSPropertyOp23
 70
     1
102
RTVSPropertyOp24
 70
     1
102
RTVSPropertyOp25
 70
     1
102
RTVSPropertyOp26
 70
     1
102
RTVSPropertyOp27
 70
     1
102
RTVSPropertyOp28
 70
     1
102
RTVSPropertyOp29
 70
     1
102
RTVSPropertyOp30
 70
     1
102
RTVSPropertyOp31
 70
     1
102
RTVSPropertyOp32
 70
     1
102
RTVSPropertyOp33
 70
     1
102
RTVSPropertyOp34
 70
     1
102
RTVSPropertyOp35
 70
     1
102
RTVSPropertyOp36
 70
     1
102
RTVSPropertyOp37
 70
     1
102
RTVSPropertyOp38
 70
     1
102
RTVSPropertyOp39
 70
     1
102
RTVSPropertyOp40
 70
     1
102
RTVSPropertyOp41
 70
     1
102
RTVSPropertyOp42
 70
     1
102
RTVSPropertyOp43
 70
     1
102
RTVSPropertyOp44
 70
     1
102
RTVSPropertyOp45
 70
     1
102
RTVSPropertyOp46
 70
     1
102
RTVSPropertyOp47
 70
     1
102
RTVSPropertyOp48
 70
     1
102
RTVSPropertyOp49
 70
     1
102
RTVSPropertyOp50
 70
     1
102
RTVSPropertyOp51
 70
     0
102
RTVSPropertyOp52
 70
     0
102
RTVSPropertyOp53
 70
     1
102
RTVSPropertyOp54
 70
     1
102
RTVSPropertyOp55
 70
     1
102
RTVSPropertyOp56
 70
     1
102
RTVSPropertyOp57
 70
     1
102
RTVSPost2010Prop28
280
     0
102
RTVSPost2010PropOp28
 70
     1
102
RTVSPost2010Prop29
280
     1
102
RTVSPost2010PropOp29
 70
     1
102
RTVSPost2010Prop30
280
     1
102
RTVSPost2010PropOp30
 70
     1
102
RTVSPost2010Prop31
280
     0
102
RTVSPost2010PropOp31
 70
     1
102
RTVSPost2010Prop32
280
     0
102
RTVSPost2010PropOp32
 70
     1
102
RTVSPost2010Prop33
280
     0
102
RTVSPost2010PropOp33
 70
     1
102
RTVSPost2010Prop34
280
     0
102
RTVSPost2010PropOp34
 70
     1
102
RTVSPost2010Prop35
280
     0
102
RTVSPost2010PropOp35
 70
     1
102
RTVSPost2010Prop36
280
     0
102
RTVSPost2010PropOp36
 70
     1
102
RTVSPost2010Prop37
 90
       50
102
RTVSPost2010PropOp37
 70
     1
102
RTVSPost2010Prop38
140
0.0
102
RTVSPost2010PropOp38
 70
     1
102
RTVSPost2010Prop39
140
1.0
102
RTVSPost2010PropOp39
 70
     1
102
RTVSPost2010Prop40
 90
        0
102
RTVSPost2010PropOp40
 70
     1
102
RTVSPost2010Prop41ColorIndex
 90
       18
102
RTVSPost2010Prop41ColorRGB
 90
        0
102
RTVSPost2010PropOp41
 70
     1
102
RTVSPost2010Prop42
 90
       50
102
RTVSPost2010PropOp42
 70
     1
102
RTVSPost2010Prop43
 90
        3
102
RTVSPost2010PropOp43
 70
     1
102
RTVSPost2010Prop44ColorIndex
 90
        5
102
RTVSPost2010Prop44ColorRGB
 90
      255
102
RTVSPost2010PropOp44
 70
     1
102
RTVSPost2010Prop45
280
     0
102
RTVSPost2010PropOp45
 70
     1
102
RTVSPost2010Prop46
 90
       50
102
RTVSPost2010PropOp46
 70
     1
102
RTVSPost2010Prop47
 90
       50
102
RTVSPost2010PropOp47
 70
     1
102
RTVSPost2010Prop48
 90
       50
102
RTVSPost2010PropOp48
 70
     1
102
RTVSPost2010Prop49
280
     0
102
RTVSPost2010PropOp49
 70
     1
102
RTVSPost2010Prop50
 90
       50
102
RTVSPost2010PropOp50
 70
     1
102
RTVSPost2010Prop51ColorIndex
 90
      256
102
RTVSPost2010Prop51ColorRGB
 90
-16777216
102
RTVSPost2010PropOp51
 70
     0
102
RTVSPost2010Prop52
140
1.0
102
RTVSPost2010PropOp52
 70
     0
102
RTVSPost2010Prop53
 90
        2
102
RTVSPost2010PropOp53
 70
     1
102
RTVSPost2010Prop54
  1
strokes_ogs.tif
102
RTVSPost2010PropOp54
 70
     1
102
RTVSPost2010Prop55
280
     0
102
RTVSPost2010PropOp55
 70
     1
102
RTVSPost2010Prop56
140
1.0
102
RTVSPost2010PropOp56
 70
     1
102
RTVSPost2010Prop57
140
1.0
102
RTVSPost2010PropOp57
 70
     1
  0
XRECORD
  5
2C3
102
{ACAD_REACTORS
330
2C2
102
}
330
2C2
100
AcDbXrecord
280
     1
102
RTVSPropertyOp0
 70
     0
102
RTVSPropertyOp1
 70
     0
102
RTVSPropertyOp2
 70
     0
102
RTVSPropertyOp3
 70
     0
102
RTVSPropertyOp4
 70
     0
102
RTVSPropertyOp5
 70
     0
102
RTVSPropertyOp6
 70
     0
102
RTVSPropertyOp7
 70
     0
102
RTVSPropertyOp8
 70
     0
102
RTVSPropertyOp9
 70
     0
102
RTVSPropertyOp10
 70
     0
102
RTVSPropertyOp11
 70
     0
102
RTVSPropertyOp12
 70
     0
102
RTVSPropertyOp13
 70
     0
102
RTVSPropertyOp14
 70
     2
102
RTVSPropertyOp15
 70
     0
102
RTVSPropertyOp16
 70
     0
102
RTVSPropertyOp17
 70
     0
102
RTVSPropertyOp18
 70
     0
102
RTVSPropertyOp19
 70
     0
102
RTVSPropertyOp20
 70
     0
102
RTVSPropertyOp21
 70
     0
102
RTVSPropertyOp22
 70
     0
102
RTVSPropertyOp23
 70
     0
102
RTVSPropertyOp24
 70
     0
102
RTVSPropertyOp25
 70
     0
102
RTVSPropertyOp26
 70
     0
102
RTVSPropertyOp27
 70
     0
102
RTVSPropertyOp28
 70
     0
102
RTVSPropertyOp29
 70
     0
102
RTVSPropertyOp30
 70
     0
102
RTVSPropertyOp31
 70
     0
102
RTVSPropertyOp32
 70
     0
102
RTVSPropertyOp33
 70
     0
102
RTVSPropertyOp34
 70
     0
102
RTVSPropertyOp35
 70
     0
102
RTVSPropertyOp36
 70
     0
102
RTVSPropertyOp37
 70
     0
102
RTVSPropertyOp38
 70
     0
102
RTVSPropertyOp39
 70
     0
102
RTVSPropertyOp40
 70
     0
102
RTVSPropertyOp41
 70
     0
102
RTVSPropertyOp42
 70
     0
102
RTVSPropertyOp43
 70
     0
102
RTVSPropertyOp44
 70
     0
102
RTVSPropertyOp45
 70
     0
102
RTVSPropertyOp46
 70
     0
102
RTVSPropertyOp47
 70
     0
102
RTVSPropertyOp48
 70
     0
102
RTVSPropertyOp49
 70
     0
102
RTVSPropertyOp50
 70
     0
102
RTVSPropertyOp51
 70
     0
102
RTVSPropertyOp52
 70
     0
102
RTVSPropertyOp53
 70
     0
102
RTVSPropertyOp54
 70
     0
102
RTVSPropertyOp55
 70
     0
102
RTVSPropertyOp56
 70
     0
102
RTVSPropertyOp57
 70
     0
102
RTVSPost2010Prop28
280
     0
102
RTVSPost2010PropOp28
 70
     0
102
RTVSPost2010Prop29
280
     1
102
RTVSPost2010PropOp29
 70
     0
102
RTVSPost2010Prop30
280
     1
102
RTVSPost2010PropOp30
 70
     0
102
RTVSPost2010Prop31
280
     0
102
RTVSPost2010PropOp31
 70
     0
102
RTVSPost2010Prop32
280
     0
102
RTVSPost2010PropOp32
 70
     0
102
RTVSPost2010Prop33
280
     0
102
RTVSPost2010PropOp33
 70
     0
102
RTVSPost2010Prop34
280
     0
102
RTVSPost2010PropOp34
 70
     0
102
RTVSPost2010Prop35
280
     0
102
RTVSPost2010PropOp35
 70
     0
102
RTVSPost2010Prop36
280
     0
102
RTVSPost2010PropOp36
 70
     0
102
RTVSPost2010Prop37
 90
       50
102
RTVSPost2010PropOp37
 70
     0
102
RTVSPost2010Prop38
140
0.0
102
RTVSPost2010PropOp38
 70
     0
102
RTVSPost2010Prop39
140
1.0
102
RTVSPost2010PropOp39
 70
     0
102
RTVSPost2010Prop40
 90
        0
102
RTVSPost2010PropOp40
 70
     0
102
RTVSPost2010Prop41ColorIndex
 90
       18
102
RTVSPost2010Prop41ColorRGB
 90
        0
102
RTVSPost2010PropOp41
 70
     0
102
RTVSPost2010Prop42
 90
       50
102
RTVSPost2010PropOp42
 70
     0
102
RTVSPost2010Prop43
 90
        3
102
RTVSPost2010PropOp43
 70
     0
102
RTVSPost2010Prop44ColorIndex
 90
        5
102
RTVSPost2010Prop44ColorRGB
 90
      255
102
RTVSPost2010PropOp44
 70
     0
102
RTVSPost2010Prop45
280
     0
102
RTVSPost2010PropOp45
 70
     0
102
RTVSPost2010Prop46
 90
       50
102
RTVSPost2010PropOp46
 70
     0
102
RTVSPost2010Prop47
 90
       50
102
RTVSPost2010PropOp47
 70
     0
102
RTVSPost2010Prop48
 90
       50
102
RTVSPost2010PropOp48
 70
     0
102
RTVSPost2010Prop49
280
     0
102
RTVSPost2010PropOp49
 70
     0
102
RTVSPost2010Prop50
 90
       50
102
RTVSPost2010PropOp50
 70
     0
102
RTVSPost2010Prop51ColorIndex
 90
      256
102
RTVSPost2010Prop51ColorRGB
 90
-16777216
102
RTVSPost2010PropOp51
 70
     0
102
RTVSPost2010Prop52
140
1.0
102
RTVSPost2010PropOp52
 70
     0
102
RTVSPost2010Prop53
 90
        2
102
RTVSPost2010PropOp53
 70
     0
102
RTVSPost2010Prop54
  1
strokes_ogs.tif
102
RTVSPost2010PropOp54
 70
     0
102
RTVSPost2010Prop55
280
     0
102
RTVSPost2010PropOp55
 70
     0
102
RTVSPost2010Prop56
140
1.0
102
RTVSPost2010PropOp56
 70
     0
102
RTVSPost2010Prop57
140
1.0
102
RTVSPost2010PropOp57
 70
     0
  0
XRECORD
  5
2B1
102
{ACAD_REACTORS
330
2B0
102
}
330
2B0
100
AcDbXrecord
280
     1
102
RTVSPropertyOp0
 70
     1
102
RTVSPropertyOp1
 70
     1
102
RTVSPropertyOp2
 70
     1
102
RTVSPropertyOp3
 70
     1
102
RTVSPropertyOp4
 70
     1
102
RTVSPropertyOp5
 70
     1
102
RTVSPropertyOp6
 70
     1
102
RTVSPropertyOp7
 70
     1
102
RTVSPropertyOp8
 70
     1
102
RTVSPropertyOp9
 70
     1
102
RTVSPropertyOp10
 70
     1
102
RTVSPropertyOp11
 70
     1
102
RTVSPropertyOp12
 70
     1
102
RTVSPropertyOp13
 70
     1
102
RTVSPropertyOp14
 70
     1
102
RTVSPropertyOp15
 70
     1
102
RTVSPropertyOp16
 70
     1
102
RTVSPropertyOp17
 70
     1
102
RTVSPropertyOp18
 70
     1
102
RTVSPropertyOp19
 70
     1
102
RTVSPropertyOp20
 70
     1
102
RTVSPropertyOp21
 70
     1
102
RTVSPropertyOp22
 70
     1
102
RTVSPropertyOp23
 70
     1
102
RTVSPropertyOp24
 70
     1
102
RTVSPropertyOp25
 70
     1
102
RTVSPropertyOp26
 70
     1
102
RTVSPropertyOp27
 70
     1
102
RTVSPropertyOp28
 70
     1
102
RTVSPropertyOp29
 70
     1
102
RTVSPropertyOp30
 70
     1
102
RTVSPropertyOp31
 70
     1
102
RTVSPropertyOp32
 70
     1
102
RTVSPropertyOp33
 70
     1
102
RTVSPropertyOp34
 70
     1
102
RTVSPropertyOp35
 70
     1
102
RTVSPropertyOp36
 70
     1
102
RTVSPropertyOp37
 70
     1
102
RTVSPropertyOp38
 70
     1
102
RTVSPropertyOp39
 70
     1
102
RTVSPropertyOp40
 70
     1
102
RTVSPropertyOp41
 70
     1
102
RTVSPropertyOp42
 70
     1
102
RTVSPropertyOp43
 70
     1
102
RTVSPropertyOp44
 70
     1
102
RTVSPropertyOp45
 70
     1
102
RTVSPropertyOp46
 70
     1
102
RTVSPropertyOp47
 70
     1
102
RTVSPropertyOp48
 70
     1
102
RTVSPropertyOp49
 70
     1
102
RTVSPropertyOp50
 70
     1
102
RTVSPropertyOp51
 70
     0
102
RTVSPropertyOp52
 70
     0
102
RTVSPropertyOp53
 70
     1
102
RTVSPropertyOp54
 70
     1
102
RTVSPropertyOp55
 70
     1
102
RTVSPropertyOp56
 70
     1
102
RTVSPropertyOp57
 70
     1
102
RTVSPost2010Prop28
280
     0
102
RTVSPost2010PropOp28
 70
     1
102
RTVSPost2010Prop29
280
     1
102
RTVSPost2010PropOp29
 70
     1
102
RTVSPost2010Prop30
280
     1
102
RTVSPost2010PropOp30
 70
     1
102
RTVSPost2010Prop31
280
     0
102
RTVSPost2010PropOp31
 70
     1
102
RTVSPost2010Prop32
280
     0
102
RTVSPost2010PropOp32
 70
     1
102
RTVSPost2010Prop33
280
     0
102
RTVSPost2010PropOp33
 70
     1
102
RTVSPost2010Prop34
280
     0
102
RTVSPost2010PropOp34
 70
     1
102
RTVSPost2010Prop35
280
     0
102
RTVSPost2010PropOp35
 70
     1
102
RTVSPost2010Prop36
280
     0
102
RTVSPost2010PropOp36
 70
     1
102
RTVSPost2010Prop37
 90
       50
102
RTVSPost2010PropOp37
 70
     1
102
RTVSPost2010Prop38
140
0.0
102
RTVSPost2010PropOp38
 70
     1
102
RTVSPost2010Prop39
140
1.0
102
RTVSPost2010PropOp39
 70
     1
102
RTVSPost2010Prop40
 90
        0
102
RTVSPost2010PropOp40
 70
     1
102
RTVSPost2010Prop41ColorIndex
 90
       18
102
RTVSPost2010Prop41ColorRGB
 90
        0
102
RTVSPost2010PropOp41
 70
     1
102
RTVSPost2010Prop42
 90
       50
102
RTVSPost2010PropOp42
 70
     1
102
RTVSPost2010Prop43
 90
        3
102
RTVSPost2010PropOp43
 70
     1
102
RTVSPost2010Prop44ColorIndex
 90
        5
102
RTVSPost2010Prop44ColorRGB
 90
      255
102
RTVSPost2010PropOp44
 70
     1
102
RTVSPost2010Prop45
280
     0
102
RTVSPost2010PropOp45
 70
     1
102
RTVSPost2010Prop46
 90
       50
102
RTVSPost2010PropOp46
 70
     1
102
RTVSPost2010Prop47
 90
       50
102
RTVSPost2010PropOp47
 70
     1
102
RTVSPost2010Prop48
 90
       50
102
RTVSPost2010PropOp48
 70
     1
102
RTVSPost2010Prop49
280
     0
102
RTVSPost2010PropOp49
 70
     1
102
RTVSPost2010Prop50
 90
       50
102
RTVSPost2010PropOp50
 70
     1
102
RTVSPost2010Prop51ColorIndex
 90
      256
102
RTVSPost2010Prop51ColorRGB
 90
-16777216
102
RTVSPost2010PropOp51
 70
     0
102
RTVSPost2010Prop52
140
1.0
102
RTVSPost2010PropOp52
 70
     0
102
RTVSPost2010Prop53
 90
        2
102
RTVSPost2010PropOp53
 70
     1
102
RTVSPost2010Prop54
  1
strokes_ogs.tif
102
RTVSPost2010PropOp54
 70
     1
102
RTVSPost2010Prop55
280
     0
102
RTVSPost2010PropOp55
 70
     1
102
RTVSPost2010Prop56
140
1.0
102
RTVSPost2010PropOp56
 70
     1
102
RTVSPost2010Prop57
140
1.0
102
RTVSPost2010PropOp57
 70
     1
  0
XRECORD
  5
2CF
102
{ACAD_REACTORS
330
2CE
102
}
330
2CE
100
AcDbXrecord
280
     1
102
RTVSPropertyOp0
 70
     1
102
RTVSPropertyOp1
 70
     1
102
RTVSPropertyOp2
 70
     1
102
RTVSPropertyOp3
 70
     1
102
RTVSPropertyOp4
 70
     1
102
RTVSPropertyOp5
 70
     1
102
RTVSPropertyOp6
 70
     1
102
RTVSPropertyOp7
 70
     1
102
RTVSPropertyOp8
 70
     1
102
RTVSPropertyOp9
 70
     1
102
RTVSPropertyOp10
 70
     1
102
RTVSPropertyOp11
 70
     1
102
RTVSPropertyOp12
 70
     1
102
RTVSPropertyOp13
 70
     1
102
RTVSPropertyOp14
 70
     1
102
RTVSPropertyOp15
 70
     1
102
RTVSPropertyOp16
 70
     1
102
RTVSPropertyOp17
 70
     1
102
RTVSPropertyOp18
 70
     1
102
RTVSPropertyOp19
 70
     1
102
RTVSPropertyOp20
 70
     1
102
RTVSPropertyOp21
 70
     1
102
RTVSPropertyOp22
 70
     1
102
RTVSPropertyOp23
 70
     1
102
RTVSPropertyOp24
 70
     1
102
RTVSPropertyOp25
 70
     1
102
RTVSPropertyOp26
 70
     1
102
RTVSPropertyOp27
 70
     1
102
RTVSPropertyOp28
 70
     1
102
RTVSPropertyOp29
 70
     1
102
RTVSPropertyOp30
 70
     1
102
RTVSPropertyOp31
 70
     1
102
RTVSPropertyOp32
 70
     1
102
RTVSPropertyOp33
 70
     1
102
RTVSPropertyOp34
 70
     1
102
RTVSPropertyOp35
 70
     1
102
RTVSPropertyOp36
 70
     1
102
RTVSPropertyOp37
 70
     1
102
RTVSPropertyOp38
 70
     1
102
RTVSPropertyOp39
 70
     1
102
RTVSPropertyOp40
 70
     1
102
RTVSPropertyOp41
 70
     1
102
RTVSPropertyOp42
 70
     1
102
RTVSPropertyOp43
 70
     1
102
RTVSPropertyOp44
 70
     1
102
RTVSPropertyOp45
 70
     1
102
RTVSPropertyOp46
 70
     1
102
RTVSPropertyOp47
 70
     1
102
RTVSPropertyOp48
 70
     1
102
RTVSPropertyOp49
 70
     1
102
RTVSPropertyOp50
 70
     1
102
RTVSPropertyOp51
 70
     0
102
RTVSPropertyOp52
 70
     0
102
RTVSPropertyOp53
 70
     1
102
RTVSPropertyOp54
 70
     1
102
RTVSPropertyOp55
 70
     1
102
RTVSPropertyOp56
 70
     1
102
RTVSPropertyOp57
 70
     1
102
RTVSPost2010Prop28
280
     0
102
RTVSPost2010PropOp28
 70
     1
102
RTVSPost2010Prop29
280
     1
102
RTVSPost2010PropOp29
 70
     1
102
RTVSPost2010Prop30
280
     1
102
RTVSPost2010PropOp30
 70
     1
102
RTVSPost2010Prop31
280
     0
102
RTVSPost2010PropOp31
 70
     1
102
RTVSPost2010Prop32
280
     0
102
RTVSPost2010PropOp32
 70
     1
102
RTVSPost2010Prop33
280
     0
102
RTVSPost2010PropOp33
 70
     1
102
RTVSPost2010Prop34
280
     0
102
RTVSPost2010PropOp34
 70
     1
102
RTVSPost2010Prop35
280
     0
102
RTVSPost2010PropOp35
 70
     1
102
RTVSPost2010Prop36
280
     0
102
RTVSPost2010PropOp36
 70
     1
102
RTVSPost2010Prop37
 90
       50
102
RTVSPost2010PropOp37
 70
     1
102
RTVSPost2010Prop38
140
0.0
102
RTVSPost2010PropOp38
 70
     1
102
RTVSPost2010Prop39
140
1.0
102
RTVSPost2010PropOp39
 70
     1
102
RTVSPost2010Prop40
 90
        0
102
RTVSPost2010PropOp40
 70
     1
102
RTVSPost2010Prop41ColorIndex
 90
       18
102
RTVSPost2010Prop41ColorRGB
 90
        0
102
RTVSPost2010PropOp41
 70
     1
102
RTVSPost2010Prop42
 90
       50
102
RTVSPost2010PropOp42
 70
     1
102
RTVSPost2010Prop43
 90
        3
102
RTVSPost2010PropOp43
 70
     1
102
RTVSPost2010Prop44ColorIndex
 90
        5
102
RTVSPost2010Prop44ColorRGB
 90
      255
102
RTVSPost2010PropOp44
 70
     1
102
RTVSPost2010Prop45
280
     0
102
RTVSPost2010PropOp45
 70
     1
102
RTVSPost2010Prop46
 90
       50
102
RTVSPost2010PropOp46
 70
     1
102
RTVSPost2010Prop47
 90
       50
102
RTVSPost2010PropOp47
 70
     1
102
RTVSPost2010Prop48
 90
       50
102
RTVSPost2010PropOp48
 70
     1
102
RTVSPost2010Prop49
280
     0
102
RTVSPost2010PropOp49
 70
     1
102
RTVSPost2010Prop50
 90
       50
102
RTVSPost2010PropOp50
 70
     1
102
RTVSPost2010Prop51ColorIndex
 90
      256
102
RTVSPost2010Prop51ColorRGB
 90
-16777216
102
RTVSPost2010PropOp51
 70
     0
102
RTVSPost2010Prop52
140
1.0
102
RTVSPost2010PropOp52
 70
     0
102
RTVSPost2010Prop53
 90
        2
102
RTVSPost2010PropOp53
 70
     1
102
RTVSPost2010Prop54
  1
strokes_ogs.tif
102
RTVSPost2010PropOp54
 70
     1
102
RTVSPost2010Prop55
280
     0
102
RTVSPost2010PropOp55
 70
     1
102
RTVSPost2010Prop56
140
1.0
102
RTVSPost2010PropOp56
 70
     1
102
RTVSPost2010Prop57
140
1.0
102
RTVSPost2010PropOp57
 70
     1
  0
XRECORD
  5
2CD
102
{ACAD_REACTORS
330
2CC
102
}
330
2CC
100
AcDbXrecord
280
     1
102
RTVSPropertyOp0
 70
     1
102
RTVSPropertyOp1
 70
     1
102
RTVSPropertyOp2
 70
     1
102
RTVSPropertyOp3
 70
     1
102
RTVSPropertyOp4
 70
     1
102
RTVSPropertyOp5
 70
     1
102
RTVSPropertyOp6
 70
     1
102
RTVSPropertyOp7
 70
     1
102
RTVSPropertyOp8
 70
     1
102
RTVSPropertyOp9
 70
     1
102
RTVSPropertyOp10
 70
     1
102
RTVSPropertyOp11
 70
     1
102
RTVSPropertyOp12
 70
     1
102
RTVSPropertyOp13
 70
     1
102
RTVSPropertyOp14
 70
     1
102
RTVSPropertyOp15
 70
     1
102
RTVSPropertyOp16
 70
     1
102
RTVSPropertyOp17
 70
     1
102
RTVSPropertyOp18
 70
     1
102
RTVSPropertyOp19
 70
     1
102
RTVSPropertyOp20
 70
     1
102
RTVSPropertyOp21
 70
     1
102
RTVSPropertyOp22
 70
     1
102
RTVSPropertyOp23
 70
     1
102
RTVSPropertyOp24
 70
     1
102
RTVSPropertyOp25
 70
     1
102
RTVSPropertyOp26
 70
     1
102
RTVSPropertyOp27
 70
     1
102
RTVSPropertyOp28
 70
     1
102
RTVSPropertyOp29
 70
     1
102
RTVSPropertyOp30
 70
     1
102
RTVSPropertyOp31
 70
     1
102
RTVSPropertyOp32
 70
     1
102
RTVSPropertyOp33
 70
     1
102
RTVSPropertyOp34
 70
     1
102
RTVSPropertyOp35
 70
     1
102
RTVSPropertyOp36
 70
     1
102
RTVSPropertyOp37
 70
     1
102
RTVSPropertyOp38
 70
     1
102
RTVSPropertyOp39
 70
     1
102
RTVSPropertyOp40
 70
     1
102
RTVSPropertyOp41
 70
     1
102
RTVSPropertyOp42
 70
     1
102
RTVSPropertyOp43
 70
     1
102
RTVSPropertyOp44
 70
     1
102
RTVSPropertyOp45
 70
     1
102
RTVSPropertyOp46
 70
     1
102
RTVSPropertyOp47
 70
     1
102
RTVSPropertyOp48
 70
     1
102
RTVSPropertyOp49
 70
     1
102
RTVSPropertyOp50
 70
     1
102
RTVSPropertyOp51
 70
     0
102
RTVSPropertyOp52
 70
     0
102
RTVSPropertyOp53
 70
     1
102
RTVSPropertyOp54
 70
     1
102
RTVSPropertyOp55
 70
     1
102
RTVSPropertyOp56
 70
     1
102
RTVSPropertyOp57
 70
     1
102
RTVSPost2010Prop28
280
     0
102
RTVSPost2010PropOp28
 70
     1
102
RTVSPost2010Prop29
280
     1
102
RTVSPost2010PropOp29
 70
     1
102
RTVSPost2010Prop30
280
     1
102
RTVSPost2010PropOp30
 70
     1
102
RTVSPost2010Prop31
280
     0
102
RTVSPost2010PropOp31
 70
     1
102
RTVSPost2010Prop32
280
     0
102
RTVSPost2010PropOp32
 70
     1
102
RTVSPost2010Prop33
280
     0
102
RTVSPost2010PropOp33
 70
     1
102
RTVSPost2010Prop34
280
     0
102
RTVSPost2010PropOp34
 70
     1
102
RTVSPost2010Prop35
280
     0
102
RTVSPost2010PropOp35
 70
     1
102
RTVSPost2010Prop36
280
     0
102
RTVSPost2010PropOp36
 70
     1
102
RTVSPost2010Prop37
 90
       50
102
RTVSPost2010PropOp37
 70
     1
102
RTVSPost2010Prop38
140
0.0
102
RTVSPost2010PropOp38
 70
     1
102
RTVSPost2010Prop39
140
1.0
102
RTVSPost2010PropOp39
 70
     1
102
RTVSPost2010Prop40
 90
        0
102
RTVSPost2010PropOp40
 70
     1
102
RTVSPost2010Prop41ColorIndex
 90
       18
102
RTVSPost2010Prop41ColorRGB
 90
        0
102
RTVSPost2010PropOp41
 70
     1
102
RTVSPost2010Prop42
 90
       50
102
RTVSPost2010PropOp42
 70
     1
102
RTVSPost2010Prop43
 90
        3
102
RTVSPost2010PropOp43
 70
     1
102
RTVSPost2010Prop44ColorIndex
 90
        5
102
RTVSPost2010Prop44ColorRGB
 90
      255
102
RTVSPost2010PropOp44
 70
     1
102
RTVSPost2010Prop45
280
     0
102
RTVSPost2010PropOp45
 70
     1
102
RTVSPost2010Prop46
 90
       50
102
RTVSPost2010PropOp46
 70
     1
102
RTVSPost2010Prop47
 90
       50
102
RTVSPost2010PropOp47
 70
     1
102
RTVSPost2010Prop48
 90
       50
102
RTVSPost2010PropOp48
 70
     1
102
RTVSPost2010Prop49
280
     0
102
RTVSPost2010PropOp49
 70
     1
102
RTVSPost2010Prop50
 90
       50
102
RTVSPost2010PropOp50
 70
     1
102
RTVSPost2010Prop51ColorIndex
 90
      256
102
RTVSPost2010Prop51ColorRGB
 90
-16777216
102
RTVSPost2010PropOp51
 70
     0
102
RTVSPost2010Prop52
140
1.0
102
RTVSPost2010PropOp52
 70
     0
102
RTVSPost2010Prop53
 90
        2
102
RTVSPost2010PropOp53
 70
     1
102
RTVSPost2010Prop54
  1
strokes_ogs.tif
102
RTVSPost2010PropOp54
 70
     1
102
RTVSPost2010Prop55
280
     0
102
RTVSPost2010PropOp55
 70
     1
102
RTVSPost2010Prop56
140
1.0
102
RTVSPost2010PropOp56
 70
     1
102
RTVSPost2010Prop57
140
1.0
102
RTVSPost2010PropOp57
 70
     1
  0
XRECORD
  5
2C7
102
{ACAD_REACTORS
330
2C6
102
}
330
2C6
100
AcDbXrecord
280
     1
102
RTVSPropertyOp0
 70
     1
102
RTVSPropertyOp1
 70
     1
102
RTVSPropertyOp2
 70
     1
102
RTVSPropertyOp3
 70
     1
102
RTVSPropertyOp4
 70
     1
102
RTVSPropertyOp5
 70
     1
102
RTVSPropertyOp6
 70
     1
102
RTVSPropertyOp7
 70
     1
102
RTVSPropertyOp8
 70
     1
102
RTVSPropertyOp9
 70
     1
102
RTVSPropertyOp10
 70
     1
102
RTVSPropertyOp11
 70
     1
102
RTVSPropertyOp12
 70
     1
102
RTVSPropertyOp13
 70
     1
102
RTVSPropertyOp14
 70
     1
102
RTVSPropertyOp15
 70
     1
102
RTVSPropertyOp16
 70
     1
102
RTVSPropertyOp17
 70
     1
102
RTVSPropertyOp18
 70
     1
102
RTVSPropertyOp19
 70
     1
102
RTVSPropertyOp20
 70
     1
102
RTVSPropertyOp21
 70
     1
102
RTVSPropertyOp22
 70
     1
102
RTVSPropertyOp23
 70
     1
102
RTVSPropertyOp24
 70
     1
102
RTVSPropertyOp25
 70
     1
102
RTVSPropertyOp26
 70
     1
102
RTVSPropertyOp27
 70
     1
102
RTVSPropertyOp28
 70
     1
102
RTVSPropertyOp29
 70
     1
102
RTVSPropertyOp30
 70
     1
102
RTVSPropertyOp31
 70
     1
102
RTVSPropertyOp32
 70
     1
102
RTVSPropertyOp33
 70
     1
102
RTVSPropertyOp34
 70
     1
102
RTVSPropertyOp35
 70
     1
102
RTVSPropertyOp36
 70
     1
102
RTVSPropertyOp37
 70
     1
102
RTVSPropertyOp38
 70
     1
102
RTVSPropertyOp39
 70
     1
102
RTVSPropertyOp40
 70
     1
102
RTVSPropertyOp41
 70
     1
102
RTVSPropertyOp42
 70
     1
102
RTVSPropertyOp43
 70
     1
102
RTVSPropertyOp44
 70
     1
102
RTVSPropertyOp45
 70
     1
102
RTVSPropertyOp46
 70
     1
102
RTVSPropertyOp47
 70
     1
102
RTVSPropertyOp48
 70
     1
102
RTVSPropertyOp49
 70
     1
102
RTVSPropertyOp50
 70
     1
102
RTVSPropertyOp51
 70
     0
102
RTVSPropertyOp52
 70
     0
102
RTVSPropertyOp53
 70
     1
102
RTVSPropertyOp54
 70
     1
102
RTVSPropertyOp55
 70
     1
102
RTVSPropertyOp56
 70
     1
102
RTVSPropertyOp57
 70
     1
102
RTVSPost2010Prop28
280
     0
102
RTVSPost2010PropOp28
 70
     1
102
RTVSPost2010Prop29
280
     1
102
RTVSPost2010PropOp29
 70
     1
102
RTVSPost2010Prop30
280
     1
102
RTVSPost2010PropOp30
 70
     1
102
RTVSPost2010Prop31
280
     0
102
RTVSPost2010PropOp31
 70
     1
102
RTVSPost2010Prop32
280
     0
102
RTVSPost2010PropOp32
 70
     1
102
RTVSPost2010Prop33
280
     0
102
RTVSPost2010PropOp33
 70
     1
102
RTVSPost2010Prop34
280
     0
102
RTVSPost2010PropOp34
 70
     1
102
RTVSPost2010Prop35
280
     0
102
RTVSPost2010PropOp35
 70
     1
102
RTVSPost2010Prop36
280
     0
102
RTVSPost2010PropOp36
 70
     1
102
RTVSPost2010Prop37
 90
       50
102
RTVSPost2010PropOp37
 70
     1
102
RTVSPost2010Prop38
140
0.0
102
RTVSPost2010PropOp38
 70
     1
102
RTVSPost2010Prop39
140
1.0
102
RTVSPost2010PropOp39
 70
     1
102
RTVSPost2010Prop40
 90
        0
102
RTVSPost2010PropOp40
 70
     1
102
RTVSPost2010Prop41ColorIndex
 90
       18
102
RTVSPost2010Prop41ColorRGB
 90
        0
102
RTVSPost2010PropOp41
 70
     1
102
RTVSPost2010Prop42
 90
       50
102
RTVSPost2010PropOp42
 70
     1
102
RTVSPost2010Prop43
 90
        3
102
RTVSPost2010PropOp43
 70
     1
102
RTVSPost2010Prop44ColorIndex
 90
        5
102
RTVSPost2010Prop44ColorRGB
 90
      255
102
RTVSPost2010PropOp44
 70
     1
102
RTVSPost2010Prop45
280
     0
102
RTVSPost2010PropOp45
 70
     1
102
RTVSPost2010Prop46
 90
       50
102
RTVSPost2010PropOp46
 70
     1
102
RTVSPost2010Prop47
 90
       50
102
RTVSPost2010PropOp47
 70
     1
102
RTVSPost2010Prop48
 90
       50
102
RTVSPost2010PropOp48
 70
     1
102
RTVSPost2010Prop49
280
     0
102
RTVSPost2010PropOp49
 70
     1
102
RTVSPost2010Prop50
 90
       50
102
RTVSPost2010PropOp50
 70
     1
102
RTVSPost2010Prop51ColorIndex
 90
      256
102
RTVSPost2010Prop51ColorRGB
 90
-16777216
102
RTVSPost2010PropOp51
 70
     0
102
RTVSPost2010Prop52
140
1.0
102
RTVSPost2010PropOp52
 70
     0
102
RTVSPost2010Prop53
 90
        2
102
RTVSPost2010PropOp53
 70
     1
102
RTVSPost2010Prop54
  1
strokes_ogs.tif
102
RTVSPost2010PropOp54
 70
     1
102
RTVSPost2010Prop55
280
     0
102
RTVSPost2010PropOp55
 70
     1
102
RTVSPost2010Prop56
140
1.0
102
RTVSPost2010PropOp56
 70
     1
102
RTVSPost2010Prop57
140
1.0
102
RTVSPost2010PropOp57
 70
     1
  0
XRECORD
  5
2C9
102
{ACAD_REACTORS
330
2C8
102
}
330
2C8
100
AcDbXrecord
280
     1
102
RTVSPropertyOp0
 70
     1
102
RTVSPropertyOp1
 70
     1
102
RTVSPropertyOp2
 70
     1
102
RTVSPropertyOp3
 70
     1
102
RTVSPropertyOp4
 70
     1
102
RTVSPropertyOp5
 70
     1
102
RTVSPropertyOp6
 70
     1
102
RTVSPropertyOp7
 70
     1
102
RTVSPropertyOp8
 70
     1
102
RTVSPropertyOp9
 70
     1
102
RTVSPropertyOp10
 70
     1
102
RTVSPropertyOp11
 70
     1
102
RTVSPropertyOp12
 70
     1
102
RTVSPropertyOp13
 70
     1
102
RTVSPropertyOp14
 70
     1
102
RTVSPropertyOp15
 70
     1
102
RTVSPropertyOp16
 70
     1
102
RTVSPropertyOp17
 70
     1
102
RTVSPropertyOp18
 70
     1
102
RTVSPropertyOp19
 70
     1
102
RTVSPropertyOp20
 70
     1
102
RTVSPropertyOp21
 70
     1
102
RTVSPropertyOp22
 70
     1
102
RTVSPropertyOp23
 70
     1
102
RTVSPropertyOp24
 70
     1
102
RTVSPropertyOp25
 70
     1
102
RTVSPropertyOp26
 70
     1
102
RTVSPropertyOp27
 70
     1
102
RTVSPropertyOp28
 70
     1
102
RTVSPropertyOp29
 70
     1
102
RTVSPropertyOp30
 70
     1
102
RTVSPropertyOp31
 70
     1
102
RTVSPropertyOp32
 70
     1
102
RTVSPropertyOp33
 70
     1
102
RTVSPropertyOp34
 70
     1
102
RTVSPropertyOp35
 70
     1
102
RTVSPropertyOp36
 70
     1
102
RTVSPropertyOp37
 70
     1
102
RTVSPropertyOp38
 70
     1
102
RTVSPropertyOp39
 70
     1
102
RTVSPropertyOp40
 70
     1
102
RTVSPropertyOp41
 70
     1
102
RTVSPropertyOp42
 70
     1
102
RTVSPropertyOp43
 70
     1
102
RTVSPropertyOp44
 70
     1
102
RTVSPropertyOp45
 70
     1
102
RTVSPropertyOp46
 70
     1
102
RTVSPropertyOp47
 70
     1
102
RTVSPropertyOp48
 70
     1
102
RTVSPropertyOp49
 70
     1
102
RTVSPropertyOp50
 70
     1
102
RTVSPropertyOp51
 70
     0
102
RTVSPropertyOp52
 70
     0
102
RTVSPropertyOp53
 70
     1
102
RTVSPropertyOp54
 70
     1
102
RTVSPropertyOp55
 70
     1
102
RTVSPropertyOp56
 70
     1
102
RTVSPropertyOp57
 70
     1
102
RTVSPost2010Prop28
280
     0
102
RTVSPost2010PropOp28
 70
     1
102
RTVSPost2010Prop29
280
     1
102
RTVSPost2010PropOp29
 70
     1
102
RTVSPost2010Prop30
280
     1
102
RTVSPost2010PropOp30
 70
     1
102
RTVSPost2010Prop31
280
     0
102
RTVSPost2010PropOp31
 70
     1
102
RTVSPost2010Prop32
280
     0
102
RTVSPost2010PropOp32
 70
     1
102
RTVSPost2010Prop33
280
     0
102
RTVSPost2010PropOp33
 70
     1
102
RTVSPost2010Prop34
280
     0
102
RTVSPost2010PropOp34
 70
     1
102
RTVSPost2010Prop35
280
     0
102
RTVSPost2010PropOp35
 70
     1
102
RTVSPost2010Prop36
280
     0
102
RTVSPost2010PropOp36
 70
     1
102
RTVSPost2010Prop37
 90
       50
102
RTVSPost2010PropOp37
 70
     1
102
RTVSPost2010Prop38
140
0.0
102
RTVSPost2010PropOp38
 70
     1
102
RTVSPost2010Prop39
140
1.0
102
RTVSPost2010PropOp39
 70
     1
102
RTVSPost2010Prop40
 90
        0
102
RTVSPost2010PropOp40
 70
     1
102
RTVSPost2010Prop41ColorIndex
 90
       18
102
RTVSPost2010Prop41ColorRGB
 90
        0
102
RTVSPost2010PropOp41
 70
     1
102
RTVSPost2010Prop42
 90
       50
102
RTVSPost2010PropOp42
 70
     1
102
RTVSPost2010Prop43
 90
        3
102
RTVSPost2010PropOp43
 70
     1
102
RTVSPost2010Prop44ColorIndex
 90
        5
102
RTVSPost2010Prop44ColorRGB
 90
      255
102
RTVSPost2010PropOp44
 70
     1
102
RTVSPost2010Prop45
280
     0
102
RTVSPost2010PropOp45
 70
     1
102
RTVSPost2010Prop46
 90
       50
102
RTVSPost2010PropOp46
 70
     1
102
RTVSPost2010Prop47
 90
       50
102
RTVSPost2010PropOp47
 70
     1
102
RTVSPost2010Prop48
 90
       50
102
RTVSPost2010PropOp48
 70
     1
102
RTVSPost2010Prop49
280
     0
102
RTVSPost2010PropOp49
 70
     1
102
RTVSPost2010Prop50
 90
       50
102
RTVSPost2010PropOp50
 70
     1
102
RTVSPost2010Prop51ColorIndex
 90
      256
102
RTVSPost2010Prop51ColorRGB
 90
-16777216
102
RTVSPost2010PropOp51
 70
     0
102
RTVSPost2010Prop52
140
1.0
102
RTVSPost2010PropOp52
 70
     0
102
RTVSPost2010Prop53
 90
        2
102
RTVSPost2010PropOp53
 70
     1
102
RTVSPost2010Prop54
  1
strokes_ogs.tif
102
RTVSPost2010PropOp54
 70
     1
102
RTVSPost2010Prop55
280
     0
102
RTVSPost2010PropOp55
 70
     1
102
RTVSPost2010Prop56
140
1.0
102
RTVSPost2010PropOp56
 70
     1
102
RTVSPost2010Prop57
140
1.0
102
RTVSPost2010PropOp57
 70
     1
  0
XRECORD
  5
2B9
102
{ACAD_REACTORS
330
2B8
102
}
330
2B8
100
AcDbXrecord
280
     1
102
RTVSPropertyOp0
 70
     1
102
RTVSPropertyOp1
 70
     1
102
RTVSPropertyOp2
 70
     1
102
RTVSPropertyOp3
 70
     1
102
RTVSPropertyOp4
 70
     1
102
RTVSPropertyOp5
 70
     1
102
RTVSPropertyOp6
 70
     1
102
RTVSPropertyOp7
 70
     1
102
RTVSPropertyOp8
 70
     1
102
RTVSPropertyOp9
 70
     1
102
RTVSPropertyOp10
 70
     1
102
RTVSPropertyOp11
 70
     1
102
RTVSPropertyOp12
 70
     1
102
RTVSPropertyOp13
 70
     1
102
RTVSPropertyOp14
 70
     1
102
RTVSPropertyOp15
 70
     1
102
RTVSPropertyOp16
 70
     1
102
RTVSPropertyOp17
 70
     1
102
RTVSPropertyOp18
 70
     1
102
RTVSPropertyOp19
 70
     1
102
RTVSPropertyOp20
 70
     1
102
RTVSPropertyOp21
 70
     1
102
RTVSPropertyOp22
 70
     1
102
RTVSPropertyOp23
 70
     1
102
RTVSPropertyOp24
 70
     1
102
RTVSPropertyOp25
 70
     1
102
RTVSPropertyOp26
 70
     1
102
RTVSPropertyOp27
 70
     1
102
RTVSPropertyOp28
 70
     1
102
RTVSPropertyOp29
 70
     1
102
RTVSPropertyOp30
 70
     1
102
RTVSPropertyOp31
 70
     1
102
RTVSPropertyOp32
 70
     1
102
RTVSPropertyOp33
 70
     1
102
RTVSPropertyOp34
 70
     1
102
RTVSPropertyOp35
 70
     1
102
RTVSPropertyOp36
 70
     1
102
RTVSPropertyOp37
 70
     1
102
RTVSPropertyOp38
 70
     1
102
RTVSPropertyOp39
 70
     1
102
RTVSPropertyOp40
 70
     1
102
RTVSPropertyOp41
 70
     1
102
RTVSPropertyOp42
 70
     1
102
RTVSPropertyOp43
 70
     1
102
RTVSPropertyOp44
 70
     1
102
RTVSPropertyOp45
 70
     1
102
RTVSPropertyOp46
 70
     1
102
RTVSPropertyOp47
 70
     1
102
RTVSPropertyOp48
 70
     1
102
RTVSPropertyOp49
 70
     1
102
RTVSPropertyOp50
 70
     1
102
RTVSPropertyOp51
 70
     0
102
RTVSPropertyOp52
 70
     0
102
RTVSPropertyOp53
 70
     1
102
RTVSPropertyOp54
 70
     1
102
RTVSPropertyOp55
 70
     1
102
RTVSPropertyOp56
 70
     1
102
RTVSPropertyOp57
 70
     1
102
RTVSPost2010Prop28
280
     0
102
RTVSPost2010PropOp28
 70
     1
102
RTVSPost2010Prop29
280
     1
102
RTVSPost2010PropOp29
 70
     1
102
RTVSPost2010Prop30
280
     1
102
RTVSPost2010PropOp30
 70
     1
102
RTVSPost2010Prop31
280
     0
102
RTVSPost2010PropOp31
 70
     1
102
RTVSPost2010Prop32
280
     0
102
RTVSPost2010PropOp32
 70
     1
102
RTVSPost2010Prop33
280
     0
102
RTVSPost2010PropOp33
 70
     1
102
RTVSPost2010Prop34
280
     0
102
RTVSPost2010PropOp34
 70
     1
102
RTVSPost2010Prop35
280
     0
102
RTVSPost2010PropOp35
 70
     1
102
RTVSPost2010Prop36
280
     0
102
RTVSPost2010PropOp36
 70
     1
102
RTVSPost2010Prop37
 90
       50
102
RTVSPost2010PropOp37
 70
     1
102
RTVSPost2010Prop38
140
0.0
102
RTVSPost2010PropOp38
 70
     1
102
RTVSPost2010Prop39
140
1.0
102
RTVSPost2010PropOp39
 70
     1
102
RTVSPost2010Prop40
 90
        0
102
RTVSPost2010PropOp40
 70
     1
102
RTVSPost2010Prop41ColorIndex
 90
       18
102
RTVSPost2010Prop41ColorRGB
 90
        0
102
RTVSPost2010PropOp41
 70
     1
102
RTVSPost2010Prop42
 90
       50
102
RTVSPost2010PropOp42
 70
     1
102
RTVSPost2010Prop43
 90
        3
102
RTVSPost2010PropOp43
 70
     1
102
RTVSPost2010Prop44ColorIndex
 90
        5
102
RTVSPost2010Prop44ColorRGB
 90
      255
102
RTVSPost2010PropOp44
 70
     1
102
RTVSPost2010Prop45
280
     0
102
RTVSPost2010PropOp45
 70
     1
102
RTVSPost2010Prop46
 90
       50
102
RTVSPost2010PropOp46
 70
     1
102
RTVSPost2010Prop47
 90
       50
102
RTVSPost2010PropOp47
 70
     1
102
RTVSPost2010Prop48
 90
       50
102
RTVSPost2010PropOp48
 70
     1
102
RTVSPost2010Prop49
280
     0
102
RTVSPost2010PropOp49
 70
     1
102
RTVSPost2010Prop50
 90
       50
102
RTVSPost2010PropOp50
 70
     1
102
RTVSPost2010Prop51ColorIndex
 90
      256
102
RTVSPost2010Prop51ColorRGB
 90
-16777216
102
RTVSPost2010PropOp51
 70
     0
102
RTVSPost2010Prop52
140
1.0
102
RTVSPost2010PropOp52
 70
     0
102
RTVSPost2010Prop53
 90
        2
102
RTVSPost2010PropOp53
 70
     1
102
RTVSPost2010Prop54
  1
strokes_ogs.tif
102
RTVSPost2010PropOp54
 70
     1
102
RTVSPost2010Prop55
280
     0
102
RTVSPost2010PropOp55
 70
     1
102
RTVSPost2010Prop56
140
1.0
102
RTVSPost2010PropOp56
 70
     1
102
RTVSPost2010Prop57
140
1.0
102
RTVSPost2010PropOp57
 70
     1
  0
XRECORD
  5
2AB
102
{ACAD_REACTORS
330
2AA
102
}
330
2AA
100
AcDbXrecord
280
     1
102
RTVSPropertyOp0
 70
     1
102
RTVSPropertyOp1
 70
     1
102
RTVSPropertyOp2
 70
     1
102
RTVSPropertyOp3
 70
     1
102
RTVSPropertyOp4
 70
     1
102
RTVSPropertyOp5
 70
     1
102
RTVSPropertyOp6
 70
     1
102
RTVSPropertyOp7
 70
     1
102
RTVSPropertyOp8
 70
     1
102
RTVSPropertyOp9
 70
     1
102
RTVSPropertyOp10
 70
     1
102
RTVSPropertyOp11
 70
     1
102
RTVSPropertyOp12
 70
     1
102
RTVSPropertyOp13
 70
     1
102
RTVSPropertyOp14
 70
     1
102
RTVSPropertyOp15
 70
     1
102
RTVSPropertyOp16
 70
     1
102
RTVSPropertyOp17
 70
     1
102
RTVSPropertyOp18
 70
     1
102
RTVSPropertyOp19
 70
     1
102
RTVSPropertyOp20
 70
     1
102
RTVSPropertyOp21
 70
     1
102
RTVSPropertyOp22
 70
     1
102
RTVSPropertyOp23
 70
     1
102
RTVSPropertyOp24
 70
     1
102
RTVSPropertyOp25
 70
     1
102
RTVSPropertyOp26
 70
     1
102
RTVSPropertyOp27
 70
     1
102
RTVSPropertyOp28
 70
     1
102
RTVSPropertyOp29
 70
     1
102
RTVSPropertyOp30
 70
     1
102
RTVSPropertyOp31
 70
     1
102
RTVSPropertyOp32
 70
     1
102
RTVSPropertyOp33
 70
     1
102
RTVSPropertyOp34
 70
     1
102
RTVSPropertyOp35
 70
     1
102
RTVSPropertyOp36
 70
     1
102
RTVSPropertyOp37
 70
     1
102
RTVSPropertyOp38
 70
     1
102
RTVSPropertyOp39
 70
     1
102
RTVSPropertyOp40
 70
     1
102
RTVSPropertyOp41
 70
     1
102
RTVSPropertyOp42
 70
     1
102
RTVSPropertyOp43
 70
     1
102
RTVSPropertyOp44
 70
     1
102
RTVSPropertyOp45
 70
     1
102
RTVSPropertyOp46
 70
     1
102
RTVSPropertyOp47
 70
     1
102
RTVSPropertyOp48
 70
     1
102
RTVSPropertyOp49
 70
     1
102
RTVSPropertyOp50
 70
     1
102
RTVSPropertyOp51
 70
     0
102
RTVSPropertyOp52
 70
     0
102
RTVSPropertyOp53
 70
     1
102
RTVSPropertyOp54
 70
     1
102
RTVSPropertyOp55
 70
     1
102
RTVSPropertyOp56
 70
     1
102
RTVSPropertyOp57
 70
     1
102
RTVSPost2010Prop28
280
     0
102
RTVSPost2010PropOp28
 70
     1
102
RTVSPost2010Prop29
280
     1
102
RTVSPost2010PropOp29
 70
     1
102
RTVSPost2010Prop30
280
     1
102
RTVSPost2010PropOp30
 70
     1
102
RTVSPost2010Prop31
280
     0
102
RTVSPost2010PropOp31
 70
     1
102
RTVSPost2010Prop32
280
     0
102
RTVSPost2010PropOp32
 70
     1
102
RTVSPost2010Prop33
280
     0
102
RTVSPost2010PropOp33
 70
     1
102
RTVSPost2010Prop34
280
     0
102
RTVSPost2010PropOp34
 70
     1
102
RTVSPost2010Prop35
280
     0
102
RTVSPost2010PropOp35
 70
     1
102
RTVSPost2010Prop36
280
     0
102
RTVSPost2010PropOp36
 70
     1
102
RTVSPost2010Prop37
 90
       50
102
RTVSPost2010PropOp37
 70
     1
102
RTVSPost2010Prop38
140
0.0
102
RTVSPost2010PropOp38
 70
     1
102
RTVSPost2010Prop39
140
1.0
102
RTVSPost2010PropOp39
 70
     1
102
RTVSPost2010Prop40
 90
        0
102
RTVSPost2010PropOp40
 70
     1
102
RTVSPost2010Prop41ColorIndex
 90
       18
102
RTVSPost2010Prop41ColorRGB
 90
        0
102
RTVSPost2010PropOp41
 70
     1
102
RTVSPost2010Prop42
 90
       50
102
RTVSPost2010PropOp42
 70
     1
102
RTVSPost2010Prop43
 90
        3
102
RTVSPost2010PropOp43
 70
     1
102
RTVSPost2010Prop44ColorIndex
 90
        5
102
RTVSPost2010Prop44ColorRGB
 90
      255
102
RTVSPost2010PropOp44
 70
     1
102
RTVSPost2010Prop45
280
     0
102
RTVSPost2010PropOp45
 70
     1
102
RTVSPost2010Prop46
 90
       50
102
RTVSPost2010PropOp46
 70
     1
102
RTVSPost2010Prop47
 90
       50
102
RTVSPost2010PropOp47
 70
     1
102
RTVSPost2010Prop48
 90
       50
102
RTVSPost2010PropOp48
 70
     1
102
RTVSPost2010Prop49
280
     0
102
RTVSPost2010PropOp49
 70
     1
102
RTVSPost2010Prop50
 90
       50
102
RTVSPost2010PropOp50
 70
     1
102
RTVSPost2010Prop51ColorIndex
 90
      256
102
RTVSPost2010Prop51ColorRGB
 90
-16777216
102
RTVSPost2010PropOp51
 70
     0
102
RTVSPost2010Prop52
140
1.0
102
RTVSPost2010PropOp52
 70
     0
102
RTVSPost2010Prop53
 90
        2
102
RTVSPost2010PropOp53
 70
     1
102
RTVSPost2010Prop54
  1
strokes_ogs.tif
102
RTVSPost2010PropOp54
 70
     1
102
RTVSPost2010Prop55
280
     0
102
RTVSPost2010PropOp55
 70
     1
102
RTVSPost2010Prop56
140
1.0
102
RTVSPost2010PropOp56
 70
     1
102
RTVSPost2010Prop57
140
1.0
102
RTVSPost2010PropOp57
 70
     1
  0
XRECORD
  5
2CB
102
{ACAD_REACTORS
330
2CA
102
}
330
2CA
100
AcDbXrecord
280
     1
102
RTVSPropertyOp0
 70
     1
102
RTVSPropertyOp1
 70
     1
102
RTVSPropertyOp2
 70
     1
102
RTVSPropertyOp3
 70
     1
102
RTVSPropertyOp4
 70
     1
102
RTVSPropertyOp5
 70
     1
102
RTVSPropertyOp6
 70
     1
102
RTVSPropertyOp7
 70
     1
102
RTVSPropertyOp8
 70
     1
102
RTVSPropertyOp9
 70
     1
102
RTVSPropertyOp10
 70
     1
102
RTVSPropertyOp11
 70
     1
102
RTVSPropertyOp12
 70
     1
102
RTVSPropertyOp13
 70
     1
102
RTVSPropertyOp14
 70
     1
102
RTVSPropertyOp15
 70
     1
102
RTVSPropertyOp16
 70
     1
102
RTVSPropertyOp17
 70
     1
102
RTVSPropertyOp18
 70
     1
102
RTVSPropertyOp19
 70
     1
102
RTVSPropertyOp20
 70
     1
102
RTVSPropertyOp21
 70
     1
102
RTVSPropertyOp22
 70
     1
102
RTVSPropertyOp23
 70
     1
102
RTVSPropertyOp24
 70
     1
102
RTVSPropertyOp25
 70
     1
102
RTVSPropertyOp26
 70
     1
102
RTVSPropertyOp27
 70
     1
102
RTVSPropertyOp28
 70
     1
102
RTVSPropertyOp29
 70
     1
102
RTVSPropertyOp30
 70
     1
102
RTVSPropertyOp31
 70
     1
102
RTVSPropertyOp32
 70
     1
102
RTVSPropertyOp33
 70
     1
102
RTVSPropertyOp34
 70
     1
102
RTVSPropertyOp35
 70
     1
102
RTVSPropertyOp36
 70
     1
102
RTVSPropertyOp37
 70
     1
102
RTVSPropertyOp38
 70
     1
102
RTVSPropertyOp39
 70
     1
102
RTVSPropertyOp40
 70
     1
102
RTVSPropertyOp41
 70
     1
102
RTVSPropertyOp42
 70
     1
102
RTVSPropertyOp43
 70
     1
102
RTVSPropertyOp44
 70
     1
102
RTVSPropertyOp45
 70
     1
102
RTVSPropertyOp46
 70
     1
102
RTVSPropertyOp47
 70
     1
102
RTVSPropertyOp48
 70
     1
102
RTVSPropertyOp49
 70
     1
102
RTVSPropertyOp50
 70
     1
102
RTVSPropertyOp51
 70
     0
102
RTVSPropertyOp52
 70
     0
102
RTVSPropertyOp53
 70
     1
102
RTVSPropertyOp54
 70
     1
102
RTVSPropertyOp55
 70
     1
102
RTVSPropertyOp56
 70
     1
102
RTVSPropertyOp57
 70
     1
102
RTVSPost2010Prop28
280
     0
102
RTVSPost2010PropOp28
 70
     1
102
RTVSPost2010Prop29
280
     1
102
RTVSPost2010PropOp29
 70
     1
102
RTVSPost2010Prop30
280
     1
102
RTVSPost2010PropOp30
 70
     1
102
RTVSPost2010Prop31
280
     0
102
RTVSPost2010PropOp31
 70
     1
102
RTVSPost2010Prop32
280
     0
102
RTVSPost2010PropOp32
 70
     1
102
RTVSPost2010Prop33
280
     0
102
RTVSPost2010PropOp33
 70
     1
102
RTVSPost2010Prop34
280
     0
102
RTVSPost2010PropOp34
 70
     1
102
RTVSPost2010Prop35
280
     0
102
RTVSPost2010PropOp35
 70
     1
102
RTVSPost2010Prop36
280
     0
102
RTVSPost2010PropOp36
 70
     1
102
RTVSPost2010Prop37
 90
       50
102
RTVSPost2010PropOp37
 70
     1
102
RTVSPost2010Prop38
140
0.0
102
RTVSPost2010PropOp38
 70
     1
102
RTVSPost2010Prop39
140
1.0
102
RTVSPost2010PropOp39
 70
     1
102
RTVSPost2010Prop40
 90
        0
102
RTVSPost2010PropOp40
 70
     1
102
RTVSPost2010Prop41ColorIndex
 90
       18
102
RTVSPost2010Prop41ColorRGB
 90
        0
102
RTVSPost2010PropOp41
 70
     1
102
RTVSPost2010Prop42
 90
       50
102
RTVSPost2010PropOp42
 70
     1
102
RTVSPost2010Prop43
 90
        3
102
RTVSPost2010PropOp43
 70
     1
102
RTVSPost2010Prop44ColorIndex
 90
        5
102
RTVSPost2010Prop44ColorRGB
 90
      255
102
RTVSPost2010PropOp44
 70
     1
102
RTVSPost2010Prop45
280
     0
102
RTVSPost2010PropOp45
 70
     1
102
RTVSPost2010Prop46
 90
       50
102
RTVSPost2010PropOp46
 70
     1
102
RTVSPost2010Prop47
 90
       50
102
RTVSPost2010PropOp47
 70
     1
102
RTVSPost2010Prop48
 90
       50
102
RTVSPost2010PropOp48
 70
     1
102
RTVSPost2010Prop49
280
     0
102
RTVSPost2010PropOp49
 70
     1
102
RTVSPost2010Prop50
 90
       50
102
RTVSPost2010PropOp50
 70
     1
102
RTVSPost2010Prop51ColorIndex
 90
      256
102
RTVSPost2010Prop51ColorRGB
 90
-16777216
102
RTVSPost2010PropOp51
 70
     0
102
RTVSPost2010Prop52
140
1.0
102
RTVSPost2010PropOp52
 70
     0
102
RTVSPost2010Prop53
 90
        2
102
RTVSPost2010PropOp53
 70
     1
102
RTVSPost2010Prop54
  1
strokes_ogs.tif
102
RTVSPost2010PropOp54
 70
     1
102
RTVSPost2010Prop55
280
     0
102
RTVSPost2010PropOp55
 70
     1
102
RTVSPost2010Prop56
140
1.0
102
RTVSPost2010PropOp56
 70
     1
102
RTVSPost2010Prop57
140
1.0
102
RTVSPost2010PropOp57
 70
     1
  0
ENDSEC
  0
EOF
