  0
SECTION
  2
HEADER
  9
$ACADVER
  1
AC1015
  9
$ACADMAINTVER
 70
     6
  9
$DWGCODEPAGE
  3
ANSI_1252
  9
$INSBASE
 10
0.0
 20
0.0
 30
0.0
  9
$EXTMIN
 10
28.255053
 20
83.5513
 30
0.0
  9
$EXTMAX
 10
798.751038
 20
794.258057
 30
0.0
  9
$LIMMIN
 10
28.255053
 20
83.5513
  9
$LIMMAX
 10
798.751038
 20
794.258057
  9
$ORTHOMODE
 70
     0
  9
$REGENMODE
 70
     1
  9
$FILLMODE
 70
     1
  9
$QTEXTMODE
 70
     0
  9
$MIRRTEXT
 70
     1
  9
$LTSCALE
 40
1.0
  9
$ATTMODE
 70
     1
  9
$TEXTSIZE
 40
2.5
  9
$TRACEWID
 40
1.0
  9
$TEXTSTYLE
  7
Standard
  9
$CLAYER
  8
0
  9
$CELTYPE
  6
ByLayer
  9
$CECOLOR
 62
   256
  9
$CELTSCALE
 40
1.0
  9
$DISPSILH
 70
     0
  9
$DIMSCALE
 40
1.0
  9
$DIMASZ
 40
2.5
  9
$DIMEXO
 40
0.625
  9
$DIMDLI
 40
3.75
  9
$DIMRND
 40
0.0
  9
$DIMDLE
 40
0.0
  9
$DIMEXE
 40
1.25
  9
$DIMTP
 40
0.0
  9
$DIMTM
 40
0.0
  9
$DIMTXT
 40
2.5
  9
$DIMCEN
 40
2.5
  9
$DIMTSZ
 40
0.0
  9
$DIMTOL
 70
     0
  9
$DIMLIM
 70
     0
  9
$DIMTIH
 70
     0
  9
$DIMTOH
 70
     0
  9
$DIMSE1
 70
     0
  9
$DIMSE2
 70
     0
  9
$DIMTAD
 70
     1
  9
$DIMZIN
 70
     8
  9
$DIMBLK
  1

  9
$DIMASO
 70
     1
  9
$DIMSHO
 70
     1
  9
$DIMPOST
  1

  9
$DIMAPOST
  1

  9
$DIMALT
 70
     0
  9
$DIMALTD
 70
     3
  9
$DIMALTF
 40
0.03937
  9
$DIMLFAC
 40
1.0
  9
$DIMTOFL
 70
     1
  9
$DIMTVP
 40
0.0
  9
$DIMTIX
 70
     0
  9
$DIMSOXD
 70
     0
  9
$DIMSAH
 70
     0
  9
$DIMBLK1
  1

  9
$DIMBLK2
  1

  9
$DIMSTYLE
  2
ISO-25
  9
$DIMCLRD
 70
     0
  9
$DIMCLRE
 70
     0
  9
$DIMCLRT
 70
     0
  9
$DIMTFAC
 40
1.0
  9
$DIMGAP
 40
0.625
  9
$DIMJUST
 70
     0
  9
$DIMSD1
 70
     0
  9
$DIMSD2
 70
     0
  9
$DIMTOLJ
 70
     0
  9
$DIMTZIN
 70
     8
  9
$DIMALTZ
 70
     0
  9
$DIMALTTZ
 70
     0
  9
$DIMUPT
 70
     0
  9
$DIMDEC
 70
     2
  9
$DIMTDEC
 70
     2
  9
$DIMALTU
 70
     2
  9
$DIMALTTD
 70
     3
  9
$DIMTXSTY
  7
Standard
  9
$DIMAUNIT
 70
     0
  9
$DIMADEC
 70
     0
  9
$DIMALTRND
 40
0.0
  9
$DIMAZIN
 70
     0
  9
$DIMDSEP
 70
    44
  9
$DIMATFIT
 70
     3
  9
$DIMFRAC
 70
     0
  9
$DIMLDRBLK
  1

  9
$DIMLUNIT
 70
     2
  9
$DIMLWD
 70
    -2
  9
$DIMLWE
 70
    -2
  9
$DIMTMOVE
 70
     0
  9
$LUNITS
 70
     2
  9
$LUPREC
 70
     4
  9
$SKETCHINC
 40
1.0
  9
$FILLETRAD
 40
10.0
  9
$AUNITS
 70
     0
  9
$AUPREC
 70
     0
  9
$MENU
  1
.
  9
$ELEVATION
 40
0.0
  9
$PELEVATION
 40
0.0
  9
$THICKNESS
 40
0.0
  9
$LIMCHECK
 70
     0
  9
$CHAMFERA
 40
0.0
  9
$CHAMFERB
 40
0.0
  9
$CHAMFERC
 40
0.0
  9
$CHAMFERD
 40
0.0
  9
$SKPOLY
 70
     0
  9
$TDCREATE
 40
2460448.583482188
  9
$TDUCREATE
 40
2460448.500148854
  9
$TDUPDATE
 40
2460448.583482592
  9
$TDUUPDATE
 40
2460448.500149259
  9
$TDINDWG
 40
0.0000000116
  9
$TDUSRTIMER
 40
0.0000000116
  9
$USRTIMER
 70
     1
  9
$ANGBASE
 50
0.0
  9
$ANGDIR
 70
     0
  9
$PDMODE
 70
     0
  9
$PDSIZE
 40
0.0
  9
$PLINEWID
 40
0.0
  9
$SPLFRAME
 70
     0
  9
$SPLINETYPE
 70
     6
  9
$SPLINESEGS
 70
     8
  9
$HANDSEED
  5
231
  9
$SURFTAB1
 70
     6
  9
$SURFTAB2
 70
     6
  9
$SURFTYPE
 70
     6
  9
$SURFU
 70
     6
  9
$SURFV
 70
     6
  9
$UCSBASE
  2

  9
$UCSNAME
  2

  9
$UCSORG
 10
0.0
 20
0.0
 30
0.0
  9
$UCSXDIR
 10
1.0
 20
0.0
 30
0.0
  9
$UCSYDIR
 10
0.0
 20
1.0
 30
0.0
  9
$UCSORTHOREF
  2

  9
$UCSORTHOVIEW
 70
     0
  9
$UCSORGTOP
 10
0.0
 20
0.0
 30
0.0
  9
$UCSORGBOTTOM
 10
0.0
 20
0.0
 30
0.0
  9
$UCSORGLEFT
 10
0.0
 20
0.0
 30
0.0
  9
$UCSORGRIGHT
 10
0.0
 20
0.0
 30
0.0
  9
$UCSORGFRONT
 10
0.0
 20
0.0
 30
0.0
  9
$UCSORGBACK
 10
0.0
 20
0.0
 30
0.0
  9
$PUCSBASE
  2

  9
$PUCSNAME
  2

  9
$PUCSORG
 10
0.0
 20
0.0
 30
0.0
  9
$PUCSXDIR
 10
1.0
 20
0.0
 30
0.0
  9
$PUCSYDIR
 10
0.0
 20
1.0
 30
0.0
  9
$PUCSORTHOREF
  2

  9
$PUCSORTHOVIEW
 70
     0
  9
$PUCSORGTOP
 10
0.0
 20
0.0
 30
0.0
  9
$PUCSORGBOTTOM
 10
0.0
 20
0.0
 30
0.0
  9
$PUCSORGLEFT
 10
0.0
 20
0.0
 30
0.0
  9
$PUCSORGRIGHT
 10
0.0
 20
0.0
 30
0.0
  9
$PUCSORGFRONT
 10
0.0
 20
0.0
 30
0.0
  9
$PUCSORGBACK
 10
0.0
 20
0.0
 30
0.0
  9
$USERI1
 70
     0
  9
$USERI2
 70
     0
  9
$USERI3
 70
     0
  9
$USERI4
 70
     0
  9
$USERI5
 70
     0
  9
$USERR1
 40
0.0
  9
$USERR2
 40
0.0
  9
$USERR3
 40
0.0
  9
$USERR4
 40
0.0
  9
$USERR5
 40
0.0
  9
$WORLDVIEW
 70
     1
  9
$SHADEDGE
 70
     3
  9
$SHADEDIF
 70
    70
  9
$TILEMODE
 70
     1
  9
$MAXACTVP
 70
    64
  9
$PINSBASE
 10
0.0
 20
0.0
 30
0.0
  9
$PLIMCHECK
 70
     0
  9
$PEXTMIN
 10
1.000000E+20
 20
1.000000E+20
 30
1.000000E+20
  9
$PEXTMAX
 10
-1.000000E+20
 20
-1.000000E+20
 30
-1.000000E+20
  9
$PLIMMIN
 10
0.0
 20
0.0
  9
$PLIMMAX
 10
420.0
 20
297.0
  9
$UNITMODE
 70
     0
  9
$VISRETAIN
 70
     1
  9
$PLINEGEN
 70
     0
  9
$PSLTSCALE
 70
     1
  9
$TREEDEPTH
 70
  3020
  9
$CMLSTYLE
  2
Standard
  9
$CMLJUST
 70
     0
  9
$CMLSCALE
 40
20.0
  9
$PROXYGRAPHICS
 70
     1
  9
$MEASUREMENT
 70
     1
  9
$CELWEIGHT
370
    -1
  9
$ENDCAPS
280
     0
  9
$JOINSTYLE
280
     0
  9
$LWDISPLAY
290
     0
  9
$INSUNITS
 70
     4
  9
$HYPERLINKBASE
  1

  9
$STYLESHEET
  1

  9
$XEDIT
290
     1
  9
$CEPSNTYPE
380
     0
  9
$PSTYLEMODE
290
     1
  9
$FINGERPRINTGUID
  2
{4e73b136-8796-404f-8abe-960a82ecc323}
  9
$VERSIONGUID
  2
{FAEB1C32-E019-11D5-929B-00C0DF256EC4}
  9
$EXTNAMES
290
     1
  9
$PSVPSCALE
 40
0.0
  9
$OLESTARTUP
290
     0
  0
ENDSEC
  0
SECTION
  2
CLASSES
  0
CLASS
  1
ACDBDICTIONARYWDFLT
  2
AcDbDictionaryWithDefault
  3
ObjectDBX Classes
 90
        0
280
     0
281
     0
  0
CLASS
  1
VISUALSTYLE
  2
AcDbVisualStyle
  3
ObjectDBX Classes
 90
     4095
280
     0
281
     0
  0
CLASS
  1
MATERIAL
  2
AcDbMaterial
  3
ObjectDBX Classes
 90
     1153
280
     0
281
     0
  0
CLASS
  1
SCALE
  2
AcDbScale
  3
ObjectDBX Classes
 90
     1153
280
     0
281
     0
  0
CLASS
  1
TABLESTYLE
  2
AcDbTableStyle
  3
ObjectDBX Classes
 90
     4095
280
     0
281
     0
  0
CLASS
  1
MLEADERSTYLE
  2
AcDbMLeaderStyle
  3
ACDB_MLEADERSTYLE_CLASS
 90
     4095
280
     0
281
     0
  0
CLASS
  1
SUN
  2
AcDbSun
  3
SCENEOE
 90
     1153
280
     0
281
     0
  0
CLASS
  1
DICTIONARYVAR
  2
AcDbDictionaryVar
  3
ObjectDBX Classes
 90
        0
280
     0
281
     0
  0
CLASS
  1
ACDBPLACEHOLDER
  2
AcDbPlaceHolder
  3
ObjectDBX Classes
 90
        0
280
     0
281
     0
  0
CLASS
  1
LAYOUT
  2
AcDbLayout
  3
ObjectDBX Classes
 90
        0
280
     0
281
     0
  0
ENDSEC
  0
SECTION
  2
TABLES
  0
TABLE
  2
VPORT
  5
8
102
{ACAD_XDICTIONARY
360
1F4
102
}
330
0
100
AcDbSymbolTable
 70
     1
  0
VPORT
  5
29
330
8
100
AcDbSymbolTableRecord
100
AcDbViewportTableRecord
  2
*Active
 70
     0
 10
0.0
 20
0.0
 11
1.0
 21
1.0
 12
344.186916
 22
148.5
 13
0.0
 23
0.0
 14
10.0
 24
10.0
 15
10.0
 25
10.0
 16
0.0
 26
0.0
 36
1.0
 17
0.0
 27
0.0
 37
0.0
 40
297.0
 41
1.972973
 42
50.0
 43
0.0
 44
0.0
 50
0.0
 51
0.0
 71
     0
 72
   100
 73
     1
 74
     3
 75
     0
 76
     0
 77
     0
 78
     0
281
     0
 65
     1
110
0.0
120
0.0
130
0.0
111
1.0
121
0.0
131
0.0
112
0.0
122
1.0
132
0.0
 79
     0
146
0.0
  0
ENDTAB
  0
TABLE
  2
LTYPE
  5
5
330
0
100
AcDbSymbolTable
 70
     1
  0
LTYPE
  5
14
330
5
100
AcDbSymbolTableRecord
100
AcDbLinetypeTableRecord
  2
ByBlock
 70
     0
  3

 72
    65
 73
     0
 40
0.0
  0
LTYPE
  5
15
330
5
100
AcDbSymbolTableRecord
100
AcDbLinetypeTableRecord
  2
ByLayer
 70
     0
  3

 72
    65
 73
     0
 40
0.0
  0
LTYPE
  5
16
330
5
100
AcDbSymbolTableRecord
100
AcDbLinetypeTableRecord
  2
Continuous
 70
     0
  3
Solid line
 72
    65
 73
     0
 40
0.0
  0
ENDTAB
  0
TABLE
  2
LAYER
  5
2
330
0
100
AcDbSymbolTable
 70
     1
  0
LAYER
  5
10
330
2
100
AcDbSymbolTableRecord
100
AcDbLayerTableRecord
  2
0
 70
     0
 62
   106
  6
Continuous
370
     0
390
F
  0
ENDTAB
  0
TABLE
  2
STYLE
  5
3
330
0
100
AcDbSymbolTable
 70
     4
  0
STYLE
  5
11
330
3
100
AcDbSymbolTableRecord
100
AcDbTextStyleTableRecord
  2
Standard
 70
     0
 40
0.0
 41
1.0
 50
0.0
 71
     0
 42
2.5
  3
txt
  4

  0
STYLE
  5
6E
330
3
100
AcDbSymbolTableRecord
100
AcDbTextStyleTableRecord
  2
Default
 70
     0
 40
0.0
 41
1.0
 50
0.0
 71
     0
 42
2.5
  3

  4

1001
ACAD
1000
txt
1071
        0
  0
STYLE
  5
6F
330
3
100
AcDbSymbolTableRecord
100
AcDbTextStyleTableRecord
  2
ISO
 70
     0
 40
0.0
 41
1.0
 50
0.0
 71
     0
 42
2.5
  3

  4

1001
ACAD
1000
txt
1071
        0
  0
STYLE
  5
70
330
3
100
AcDbSymbolTableRecord
100
AcDbTextStyleTableRecord
  2
zucchetti
 70
     0
 40
0.0
 41
1.0
 50
0.0
 71
     0
 42
2.5
  3

  4

1001
ACAD
1000
Arial
1071
        0
  0
ENDTAB
  0
TABLE
  2
VIEW
  5
6
330
0
100
AcDbSymbolTable
 70
     0
  0
ENDTAB
  0
TABLE
  2
UCS
  5
7
330
0
100
AcDbSymbolTable
 70
     0
  0
ENDTAB
  0
TABLE
  2
APPID
  5
9
330
0
100
AcDbSymbolTable
 70
     2
  0
APPID
  5
12
330
9
100
AcDbSymbolTableRecord
100
AcDbRegAppTableRecord
  2
ACAD
 70
     0
  0
APPID
  5
22E
330
9
100
AcDbSymbolTableRecord
100
AcDbRegAppTableRecord
  2
ACAD_MLEADERVER
 70
     0
  0
ENDTAB
  0
TABLE
  2
DIMSTYLE
  5
A
330
0
100
AcDbSymbolTable
 70
     4
100
AcDbDimStyleTable
  0
DIMSTYLE
105
27
330
A
100
AcDbSymbolTableRecord
100
AcDbDimStyleTableRecord
  2
ISO-25
 70
     0
 41
2.5
 42
0.625
 43
3.75
 44
1.25
 73
     0
 74
     0
 77
     1
 78
     8
140
2.5
141
2.5
143
0.03937
147
0.625
171
     3
172
     1
178
     0
271
     2
272
     2
274
     3
278
    44
283
     0
284
     8
340
11
  0
DIMSTYLE
105
71
330
A
100
AcDbSymbolTableRecord
100
AcDbDimStyleTableRecord
  2
Default
 70
     0
  3
<>
 41
4.375
 42
1.05
 44
2.1
 73
     0
 74
     0
 77
     1
 78
     8
140
3.5
146
0.4
147
1.75
172
     1
271
     2
178
     3
271
     2
272
     3
284
     8
340
6E
341
72
342
72
  0
DIMSTYLE
105
79
330
A
100
AcDbSymbolTableRecord
100
AcDbDimStyleTableRecord
  2
ISO
 70
     0
  3
<>
 41
4.375
 42
1.05
 44
2.1
 73
     0
 74
     0
 77
     1
 78
     8
140
3.5
146
0.4
147
1.75
172
     1
271
     2
178
     3
271
     2
272
     3
284
     8
340
6F
341
72
342
72
  0
DIMSTYLE
105
7A
330
A
100
AcDbSymbolTableRecord
100
AcDbDimStyleTableRecord
  2
zucchetti
 70
     0
  3
<>
 41
3.0
 42
0.9
 44
1.8
 73
     0
 74
     0
 77
     1
 78
     8
140
3.0
146
0.6
147
1.5
172
     1
176
     3
177
     3
271
     2
178
     3
271
     2
272
     2
284
     8
340
70
  0
ENDTAB
  0
TABLE
  2
BLOCK_RECORD
  5
1
330
0
100
AcDbSymbolTable
 70
     6
  0
BLOCK_RECORD
  5
1F
330
1
100
AcDbSymbolTableRecord
100
AcDbBlockTableRecord
  2
*Model_Space
340
22
  0
BLOCK_RECORD
  5
1B
330
1
100
AcDbSymbolTableRecord
100
AcDbBlockTableRecord
  2
*Paper_Space
340
1E
  0
BLOCK_RECORD
  5
23
330
1
100
AcDbSymbolTableRecord
100
AcDbBlockTableRecord
  2
*Paper_Space0
340
26
  0
BLOCK_RECORD
  5
72
330
1
100
AcDbSymbolTableRecord
100
AcDbBlockTableRecord
  2
_Closed
340
0
  0
BLOCK_RECORD
  5
7B
330
1
100
AcDbSymbolTableRecord
100
AcDbBlockTableRecord
  2
a
340
0
102
{BLKREFS
331
140
102
}
  0
BLOCK_RECORD
  5
141
330
1
100
AcDbSymbolTableRecord
100
AcDbBlockTableRecord
  2
b
340
0
102
{BLKREFS
331
16D
102
}
  0
BLOCK_RECORD
  5
16E
330
1
100
AcDbSymbolTableRecord
100
AcDbBlockTableRecord
  2
c
340
0
102
{BLKREFS
331
1AA
102
}
  0
BLOCK_RECORD
  5
1AB
330
1
100
AcDbSymbolTableRecord
100
AcDbBlockTableRecord
  2
d
340
0
102
{BLKREFS
331
1E8
102
}
  0
ENDTAB
  0
ENDSEC
  0
SECTION
  2
BLOCKS
  0
BLOCK
  5
20
330
1F
100
AcDbEntity
  8
0
100
AcDbBlockBegin
  2
*Model_Space
 70
     0
 10
0.0
 20
0.0
 30
0.0
  3
*Model_Space
  1

  0
ENDBLK
  5
21
330
1F
100
AcDbEntity
  8
0
100
AcDbBlockEnd
  0
BLOCK
  5
1C
330
1B
100
AcDbEntity
 67
     1
  8
0
100
AcDbBlockBegin
  2
*Paper_Space
 70
     0
 10
0.0
 20
0.0
 30
0.0
  3
*Paper_Space
  1

  0
ENDBLK
  5
1D
330
1B
100
AcDbEntity
 67
     1
  8
0
100
AcDbBlockEnd
  0
BLOCK
  5
24
330
23
100
AcDbEntity
  8
0
100
AcDbBlockBegin
  2
*Paper_Space0
 70
     0
 10
0.0
 20
0.0
 30
0.0
  3
*Paper_Space0
  1

  0
ENDBLK
  5
25
330
23
100
AcDbEntity
  8
0
100
AcDbBlockEnd
  0
BLOCK
  5
73
330
72
100
AcDbEntity
  8
0
100
AcDbBlockBegin
  2
_Closed
 70
     0
 10
0.0
 20
0.0
 30
0.0
  3
_Closed
  1

  0
LINE
  5
75
330
72
100
AcDbEntity
  8
0
  6
ByBlock
 62
     0
370
    -2
100
AcDbLine
 10
-1.0
 20
0.166667
 30
0.0
 11
0.0
 21
0.0
 31
0.0
  0
LINE
  5
76
330
72
100
AcDbEntity
  8
0
  6
ByBlock
 62
     0
370
    -2
100
AcDbLine
 10
0.0
 20
0.0
 30
0.0
 11
-1.0
 21
-0.166667
 31
0.0
  0
LINE
  5
77
330
72
100
AcDbEntity
  8
0
  6
ByBlock
 62
     0
370
    -2
100
AcDbLine
 10
-1.0
 20
0.166667
 30
0.0
 11
-1.0
 21
-0.166667
 31
0.0
  0
LINE
  5
78
330
72
100
AcDbEntity
  8
0
  6
ByBlock
 62
     0
370
    -2
100
AcDbLine
 10
0.0
 20
0.0
 30
0.0
 11
-1.0
 21
0.0
 31
0.0
  0
ENDBLK
  5
74
330
72
100
AcDbEntity
  8
0
100
AcDbBlockEnd
  0
BLOCK
  5
13E
330
7B
100
AcDbEntity
  8
0
100
AcDbBlockBegin
  2
a
 70
     0
 10
361.39743
 20
102.135033
 30
0.0
  3
a
  1

  0
LINE
  5
7C
330
7B
100
AcDbEntity
  8
0
  6
Continuous
 62
     0
370
    30
100
AcDbLine
 10
389.475079
 20
481.541696
 30
0.0
 11
416.248892
 21
481.541696
 31
0.0
  0
LINE
  5
7D
330
7B
100
AcDbEntity
  8
0
  6
Continuous
 62
     0
370
    30
100
AcDbLine
 10
416.248892
 20
481.541696
 30
0.0
 11
443.022704
 21
481.541696
 31
0.0
  0
LINE
  5
7E
330
7B
100
AcDbEntity
  8
0
  6
Continuous
 62
     0
370
     0
100
AcDbLine
 10
389.275087
 20
481.343441
 30
0.0
 11
416.248892
 21
481.343441
 31
0.0
  0
LINE
  5
7F
330
7B
100
AcDbEntity
  8
0
  6
Continuous
 62
     0
370
     0
100
AcDbLine
 10
416.248892
 20
481.343441
 30
0.0
 11
443.222697
 21
481.343441
 31
0.0
  0
LINE
  5
80
330
7B
100
AcDbEntity
  8
0
  6
Continuous
 62
     0
370
    30
100
AcDbLine
 10
389.24889
 20
478.341696
 30
0.0
 11
416.248892
 21
478.341696
 31
0.0
  0
LINE
  5
81
330
7B
100
AcDbEntity
  8
0
  6
Continuous
 62
     0
370
    30
100
AcDbLine
 10
416.248892
 20
478.341696
 30
0.0
 11
443.248894
 21
478.341696
 31
0.0
  0
LINE
  5
82
330
7B
100
AcDbEntity
  8
0
  6
Continuous
 62
     0
370
    30
100
AcDbLine
 10
389.275087
 20
481.343441
 30
0.0
 11
389.24889
 21
478.341696
 31
0.0
  0
LINE
  5
83
330
7B
100
AcDbEntity
  8
0
  6
Continuous
 62
     0
370
    30
100
AcDbLine
 10
443.222697
 20
481.343441
 30
0.0
 11
443.248894
 21
478.341696
 31
0.0
  0
ARC
  5
84
330
7B
100
AcDbEntity
  8
0
  6
Continuous
 62
     0
370
    30
100
AcDbCircle
 10
389.475193
 20
481.341581
 30
0.0
 40
0.2001151484180521
100
AcDbArc
 50
90.061215
 51
179.467325
  0
ARC
  5
85
330
7B
100
AcDbEntity
  8
0
  6
Continuous
 62
     0
370
    30
100
AcDbCircle
 10
443.02259
 20
481.341581
 30
0.0
 40
0.2001151484180049
100
AcDbArc
 50
0.532675
 51
89.938785
  0
LINE
  5
86
330
7B
100
AcDbEntity
  8
0
  6
Continuous
 62
     0
370
     0
100
AcDbLine
 10
405.137408
 20
763.079726
 30
0.0
 11
427.360376
 21
763.079726
 31
0.0
  0
ARC
  5
87
330
7B
100
AcDbEntity
  8
0
  6
Continuous
 62
     0
370
    30
100
AcDbCircle
 10
416.251087
 20
754.155885
 30
0.0
 40
14.2530280199379
100
AcDbArc
 50
137.647592
 51
141.236926
  0
ARC
  5
88
330
7B
100
AcDbEntity
  8
0
  6
Continuous
 62
     0
370
    30
100
AcDbCircle
 10
416.246698
 20
754.155886
 30
0.0
 40
14.25302610695247
100
AcDbArc
 50
38.763075
 51
42.352409
  0
ARC
  5
89
330
7B
100
AcDbEntity
  8
0
  6
Continuous
 62
     0
370
    30
100
AcDbCircle
 10
402.797743
 20
764.958658
 30
0.0
 40
3.000736016962849
100
AcDbArc
 50
280.972174
 51
321.23285
  0
ARC
  5
8A
330
7B
100
AcDbEntity
  8
0
  6
Continuous
 62
     0
370
    30
100
AcDbCircle
 10
429.700041
 20
764.958658
 30
0.0
 40
3.000736016974958
100
AcDbArc
 50
218.76715
 51
259.027826
  0
ARC
  5
8B
330
7B
100
AcDbEntity
  8
0
  6
Continuous
 62
     0
370
     0
100
AcDbCircle
 10
416.242604
 20
782.257968
 30
0.0
 40
4.5
100
AcDbArc
 50
180.0
 51
360.0
  0
ARC
  5
8C
330
7B
100
AcDbEntity
  8
0
  6
Continuous
 62
     0
370
     0
100
AcDbCircle
 10
416.242604
 20
782.257968
 30
0.0
 40
4.5
100
AcDbArc
 50
360.0
 51
180.0
  0
ARC
  5
8D
330
7B
100
AcDbEntity
  8
0
  6
Continuous
 62
     0
370
    30
100
AcDbCircle
 10
416.242645
 20
782.257968
 30
0.0
 40
5.0
100
AcDbArc
 50
180.0
 51
360.0
  0
ARC
  5
8E
330
7B
100
AcDbEntity
  8
0
  6
Continuous
 62
     0
370
    30
100
AcDbCircle
 10
416.242645
 20
782.257968
 30
0.0
 40
5.0
100
AcDbArc
 50
360.0
 51
180.0
  0
ARC
  5
8F
330
7B
100
AcDbEntity
  8
0
  6
Continuous
 62
     0
370
    30
100
AcDbCircle
 10
416.246952
 20
782.257983
 30
0.0
 40
5.000000000028573
100
AcDbArc
 50
270.201152
 51
89.999902
  0
LINE
  5
90
330
7B
100
AcDbEntity
  8
0
  6
Continuous
 62
     0
370
     0
100
AcDbLine
 10
416.247261
 20
790.857636
 30
0.0
 11
416.246947
 21
787.257983
 31
0.0
  0
SPLINE
  5
91
330
7B
100
AcDbEntity
  8
0
  6
Continuous
 62
     0
370
     0
100
AcDbSpline
210
0.0
220
0.0
230
1.0
 70
     8
 71
     7
 72
    41
 73
    33
 74
     0
 42
0.000000001
 43
0.0
 40
0.0
 40
0.0
 40
0.0
 40
0.0
 40
0.0
 40
0.0
 40
0.0
 40
0.0
 40
0.24
 40
0.24
 40
0.24
 40
0.24
 40
0.24
 40
0.4072
 40
0.4072
 40
0.4072
 40
0.4072
 40
0.4072
 40
0.49149616
 40
0.49149616
 40
0.49149616
 40
0.49149616
 40
0.49149616
 40
0.500000409248974
 40
0.500000409248974
 40
0.500000409248974
 40
0.500000409248974
 40
0.500000409248974
 40
0.875512
 40
0.875512
 40
0.875512
 40
0.875512
 40
0.875512
 40
1.0
 40
1.0
 40
1.0
 40
1.0
 40
1.0
 40
1.0
 40
1.0
 40
1.0
 10
416.2472604259216
 20
772.8576472673292
 30
0.0
 10
415.2661601823422
 20
772.8579190309473
 30
0.0
 10
414.2850984325717
 20
772.9809570220173
 30
0.0
 10
413.3260688915994
 20
773.2284361160323
 30
0.0
 10
412.4143927288626
 20
773.5964171839632
 30
0.0
 10
411.5604572436708
 20
774.0642487271073
 30
0.0
 10
410.2381266750049
 20
775.0272645462564
 30
0.0
 10
409.1533891066981
 20
776.2376882288446
 30
0.0
 10
408.75112476988
 20
776.7725448285563
 30
0.0
 10
408.3949925085684
 20
777.3422578273688
 30
0.0
 10
408.089584371343
 20
777.9441037879144
 30
0.0
 10
407.712946574825
 20
778.8899564501949
 30
0.0
 10
407.4640580127158
 20
779.8815045581443
 30
0.0
 10
407.3952103138241
 20
780.2181542348582
 30
0.0
 10
407.3413514945469
 20
780.558188837792
 30
0.0
 10
407.302232720846
 20
780.9007288888289
 30
0.0
 10
407.2765141545436
 20
781.2794905355939
 30
0.0
 10
407.2697810174164
 20
781.6587810713447
 30
0.0
 10
407.2693231915098
 20
781.6935426986158
 30
0.0
 10
407.269024327771
 20
781.7283066100589
 30
0.0
 10
407.2688841879157
 20
781.763071730403
 30
0.0
 10
407.2697125820974
 20
783.3329233310801
 30
0.0
 10
407.5932105923281
 20
784.9008729979333
 30
0.0
 10
408.1974641720291
 20
786.340229546506
 30
0.0
 10
409.0663312925001
 20
787.6058836086347
 30
0.0
 10
410.1361262710532
 20
788.6940204481781
 30
0.0
 10
411.8188472264024
 20
789.8449702442686
 30
0.0
 10
413.7360415701002
 20
790.5106199349509
 30
0.0
 10
414.2262553401375
 20
790.6430972208153
 30
0.0
 10
414.7245293995469
 20
790.7460284707402
 30
0.0
 10
415.2296196225789
 20
790.8179556868902
 30
0.0
 10
415.7383688365156
 20
790.8556105540044
 30
0.0
 10
416.2472606840916
 20
790.8576360369566
 30
0.0
  0
SPLINE
  5
92
330
7B
100
AcDbEntity
  8
0
  6
Continuous
 62
     0
370
     0
100
AcDbSpline
210
0.0
220
0.0
230
1.0
 70
     8
 71
     7
 72
    21
 73
    13
 74
     0
 42
0.000000001
 43
0.0
 40
0.0000000287205835
 40
0.0000000287205835
 40
0.0000000287205835
 40
0.0000000287205835
 40
0.0000000287205835
 40
0.0000000287205835
 40
0.0000000287205835
 40
0.0000000287205835
 40
0.34
 40
0.34
 40
0.34
 40
0.34
 40
0.34
 40
1.0
 40
1.0
 40
1.0
 40
1.0
 40
1.0
 40
1.0
 40
1.0
 40
1.0
 10
416.2469470911641
 20
777.2579832862235
 30
0.0
 10
416.2469734147529
 20
777.2579833715545
 30
0.0
 10
416.2469998025819
 20
777.2414717785789
 30
0.0
 10
416.247026192413
 20
777.2051318559761
 30
0.0
 10
416.2470523623933
 20
777.1450489111216
 30
0.0
 10
416.2470782630706
 20
777.0553816206256
 30
0.0
 10
416.2471515690222
 20
776.6837400297584
 30
0.0
 10
416.2472102801117
 20
775.9886756396589
 30
0.0
 10
416.2472367276778
 20
775.3708347807691
 30
0.0
 10
416.2472485385485
 20
774.7535734463539
 30
0.0
 10
416.2472570877773
 20
774.1236568907625
 30
0.0
 10
416.2472604214085
 20
773.4906520848483
 30
0.0
 10
416.2472604259216
 20
772.8576472673292
 30
0.0
  0
LINE
  5
93
330
7B
100
AcDbEntity
  8
0
  6
Continuous
 62
     0
370
     0
100
AcDbLine
 10
416.24726
 20
790.857636
 30
0.0
 11
416.24726
 21
793.757984
 31
0.0
  0
LINE
  5
94
330
7B
100
AcDbEntity
  8
0
  6
Continuous
 62
     0
370
     0
100
AcDbLine
 10
416.24726
 20
793.75799
 30
0.0
 11
396.048891
 21
793.75799
 31
0.0
  0
LINE
  5
95
330
7B
100
AcDbEntity
  8
0
  6
Continuous
 62
     0
370
    30
100
AcDbLine
 10
396.048891
 20
763.75799
 30
0.0
 11
416.24726
 21
763.75799
 31
0.0
  0
LINE
  5
96
330
7B
100
AcDbEntity
  8
0
  6
Continuous
 62
     0
370
     0
100
AcDbLine
 10
416.24726
 20
763.757984
 30
0.0
 11
416.24726
 21
772.857647
 31
0.0
  0
SPLINE
  5
97
330
7B
100
AcDbEntity
  8
0
  6
Continuous
 62
     0
370
     0
100
AcDbSpline
210
0.0
220
0.0
230
1.0
 70
     8
 71
     7
 72
    41
 73
    33
 74
     0
 42
0.000000001
 43
0.0
 40
0.0
 40
0.0
 40
0.0
 40
0.0
 40
0.0
 40
0.0
 40
0.0
 40
0.0
 40
0.24
 40
0.24
 40
0.24
 40
0.24
 40
0.24
 40
0.4072
 40
0.4072
 40
0.4072
 40
0.4072
 40
0.4072
 40
0.49149616
 40
0.49149616
 40
0.49149616
 40
0.49149616
 40
0.49149616
 40
0.500000409248974
 40
0.500000409248974
 40
0.500000409248974
 40
0.500000409248974
 40
0.500000409248974
 40
0.875512
 40
0.875512
 40
0.875512
 40
0.875512
 40
0.875512
 40
0.999999986493276
 40
0.999999986493276
 40
0.999999986493276
 40
0.999999986493276
 40
0.999999986493276
 40
0.999999986493276
 40
0.999999986493276
 40
0.999999986493276
 10
416.2472605557036
 20
772.8576472673292
 30
0.0
 10
417.228360799283
 20
772.8579190308958
 30
0.0
 10
418.2094315244851
 20
772.980957021914
 30
0.0
 10
419.1684790403239
 20
773.2284361158785
 30
0.0
 10
420.0801809595595
 20
773.5964171837618
 30
0.0
 10
420.9341481216767
 20
774.0642487268608
 30
0.0
 10
422.2565381936716
 20
775.0272645459402
 30
0.0
 10
423.3413380682666
 20
776.2376882284714
 30
0.0
 10
423.7436276296947
 20
776.7725448281619
 30
0.0
 10
424.0997838974261
 20
777.3422578269557
 30
0.0
 10
424.4052138101271
 20
777.9441037874852
 30
0.0
 10
424.7818795150904
 20
778.8899564497458
 30
0.0
 10
425.0307873493185
 20
779.8815045576823
 30
0.0
 10
425.0996404585017
 20
780.2181542343925
 30
0.0
 10
425.1535035544849
 20
780.5581888373234
 30
0.0
 10
425.192625453953
 20
780.9007288883583
 30
0.0
 10
425.2183460791336
 20
781.2794905351219
 30
0.0
 10
425.2250797555839
 20
781.6587810708724
 30
0.0
 10
425.2255376181639
 20
781.6935426981435
 30
0.0
 10
425.2258365058386
 20
781.7283066095865
 30
0.0
 10
425.2259766569078
 20
781.7630717299306
 30
0.0
 10
425.2251481953886
 20
783.3329233306079
 30
0.0
 10
424.9016242511591
 20
784.900872997478
 30
0.0
 10
424.2973222414429
 20
786.3402295460825
 30
0.0
 10
423.4283932368187
 20
787.6058836082569
 30
0.0
 10
422.3585361316751
 20
788.6940204478565
 30
0.0
 10
420.6757428130608
 20
789.8449702129444
 30
0.0
 10
418.7585032379225
 20
790.5106198988557
 30
0.0
 10
418.26828017973
 20
790.6430971775885
 30
0.0
 10
417.7699990436543
 20
790.7460284259886
 30
0.0
 10
417.2649040479017
 20
790.8179556478168
 30
0.0
 10
416.7561524763564
 20
790.8556105294647
 30
0.0
 10
416.2472606840855
 20
790.8576360354183
 30
0.0
  0
LINE
  5
98
330
7B
100
AcDbEntity
  8
0
  6
Continuous
 62
     0
370
    30
100
AcDbLine
 10
436.448891
 20
763.75799
 30
0.0
 11
416.24726
 21
763.75799
 31
0.0
  0
LINE
  5
99
330
7B
100
AcDbEntity
  8
0
  6
Continuous
 62
     0
370
     0
100
AcDbLine
 10
416.24726
 20
793.75799
 30
0.0
 11
436.448891
 21
793.75799
 31
0.0
  0
LINE
  5
9A
330
7B
100
AcDbEntity
  8
0
  6
Continuous
 62
     0
370
    30
100
AcDbLine
 10
396.548891
 20
794.25799
 30
0.0
 11
435.948891
 21
794.25799
 31
0.0
  0
ARC
  5
9B
330
7B
100
AcDbEntity
  8
0
  6
Continuous
 62
     0
370
    30
100
AcDbCircle
 10
435.948888
 20
793.757987
 30
0.0
 40
0.500003447128182
100
AcDbArc
 50
0.000395
 51
89.999598
  0
SPLINE
  5
9C
330
7B
100
AcDbEntity
  8
0
  6
Continuous
 62
     0
370
    30
100
AcDbSpline
210
0.0
220
0.0
230
1.0
 70
     8
 71
     3
 72
    18
 73
    14
 74
     0
 42
0.000000001
 43
0.0
 40
0.0
 40
0.0
 40
0.0
 40
0.0
 40
0.024458846834485
 40
0.0489747525144465
 40
0.0970518326566396
 40
0.1452184526435981
 40
0.1933895955240725
 40
0.2415123423113931
 40
0.3857048539771981
 40
0.4337482210250752
 40
0.5298855562228395
 40
0.6261618543660492
 40
0.7832604764197484
 40
0.7832604764197484
 40
0.7832604764197484
 40
0.7832604764197484
 10
396.5470379827655
 20
794.2579868023344
 30
0.0
 10
396.540834576304
 20
794.2579632374701
 30
0.0
 10
396.5216871820776
 20
794.2574818140758
 30
0.0
 10
396.4908263751377
 20
794.2549613710082
 30
0.0
 10
396.4502847556718
 20
794.2489129229066
 30
0.0
 10
396.4037382670691
 20
794.2371993484313
 30
0.0
 10
396.3582293323661
 20
794.2210654157864
 30
0.0
 10
396.2855745066262
 20
794.1869451218904
 30
0.0
 10
396.2201651635619
 20
794.1391771143019
 30
0.0
 10
396.1547556939684
 20
794.0685397561456
 30
0.0
 10
396.1090334094588
 20
794.0022016958229
 30
0.0
 10
396.0623572659879
 20
793.8948892294025
 30
0.0
 10
396.0488913310438
 20
793.8101591421977
 30
0.0
 10
396.0488913317421
 20
793.7579903264511
 30
0.0
  0
LINE
  5
9D
330
7B
100
AcDbEntity
  8
0
  6
Continuous
 62
     0
370
    30
100
AcDbLine
 10
436.448891
 20
793.75799
 30
0.0
 11
436.448891
 21
763.75799
 31
0.0
  0
LINE
  5
9E
330
7B
100
AcDbEntity
  8
0
  6
Continuous
 62
     0
370
    30
100
AcDbLine
 10
396.048891
 20
763.75799
 30
0.0
 11
396.048891
 21
793.75799
 31
0.0
  0
LINE
  5
9F
330
7B
100
AcDbEntity
  8
0
  6
Continuous
 62
     0
370
     0
100
AcDbLine
 10
411.973399
 20
714.31856
 30
0.0
 11
411.973406
 21
714.46538
 31
0.0
  0
SPLINE
  5
A0
330
7B
100
AcDbEntity
  8
0
  6
Continuous
 62
     0
370
    30
100
AcDbSpline
210
0.0
220
0.0
230
1.0
 70
    12
 71
     2
 72
     6
 73
     3
 74
     0
 42
0.000000001
 43
0.0
 40
12.5663706143592
 40
12.5663706143592
 40
12.5663706143592
 40
25.13274122871839
 40
25.13274122871839
 40
25.13274122871839
 10
411.9733994821274
 20
714.3185600175909
 30
0.0
 41
1.0
 10
418.7441733937513
 20
716.4488569534508
 30
0.0
 41
0.7071067811865471
 10
423.0052320109399
 20
713.0633288117547
 30
0.0
 41
1.0
  0
SPLINE
  5
A1
330
7B
100
AcDbEntity
  8
0
  6
Continuous
 62
     0
370
    30
100
AcDbSpline
210
0.0
220
0.0
230
1.0
 70
    12
 71
     2
 72
     8
 73
     5
 74
     0
 42
0.000000001
 43
0.0
 40
0.0
 40
0.0
 40
0.0
 40
12.5663706143592
 40
12.5663706143592
 40
25.13274122871839
 40
25.13274122871839
 40
25.13274122871839
 10
423.0052320109399
 20
713.0633288117547
 30
0.0
 41
1.0
 10
427.2662906281295
 20
709.6778006700588
 30
0.0
 41
0.707106781186548
 10
420.4955167165056
 20
707.5475037341989
 30
0.0
 41
1.0
 10
413.7247428048816
 20
705.4172067983388
 30
0.0
 41
0.707106781186548
 10
409.4636841876922
 20
708.8027349400347
 30
0.0
 41
1.0
  0
SPLINE
  5
A2
330
7B
100
AcDbEntity
  8
0
  6
Continuous
 62
     0
370
    30
100
AcDbSpline
210
0.0
220
0.0
230
1.0
 70
    12
 71
     2
 72
     6
 73
     3
 74
     0
 42
0.000000001
 43
0.0
 40
0.0
 40
0.0
 40
0.0
 40
12.5663706143592
 40
12.5663706143592
 40
12.5663706143592
 10
409.4636841876922
 20
708.8027349400347
 30
0.0
 41
1.0
 10
405.2026255705034
 20
712.188263081731
 30
0.0
 41
0.7071067811865471
 10
411.9733994821274
 20
714.3185600175909
 30
0.0
 41
1.0
  0
SPLINE
  5
A3
330
7B
100
AcDbEntity
  8
0
  6
Continuous
 62
     0
370
    30
100
AcDbSpline
210
0.0
220
0.0
230
1.0
 70
    12
 71
     2
 72
     8
 73
     5
 74
     0
 42
0.000000001
 43
0.0
 40
0.0
 40
0.0
 40
0.0
 40
11.7809724509617
 40
11.7809724509617
 40
23.5619449019234
 40
23.5619449019234
 40
23.5619449019234
 10
422.5820123286738
 20
712.9301954648797
 30
0.0
 41
1.0
 10
418.587269875059
 20
716.1041280977198
 30
0.0
 41
0.707106781186548
 10
412.2396693329116
 20
714.1069747203511
 30
0.0
 41
1.0
 10
405.8920687907637
 20
712.1098213429822
 30
0.0
 41
0.707106781186548
 10
409.8868112443786
 20
708.9358887101421
 30
0.0
 41
1.0
  0
SPLINE
  5
A4
330
7B
100
AcDbEntity
  8
0
  6
Continuous
 62
     0
370
    30
100
AcDbSpline
210
0.0
220
0.0
230
1.0
 70
    12
 71
     2
 72
     6
 73
     3
 74
     0
 42
0.000000001
 43
0.0
 40
-23.5619449019234
 40
-23.5619449019234
 40
-23.5619449019234
 40
-11.7809724509617
 40
-11.7809724509617
 40
-11.7809724509617
 10
422.5820123286738
 20
712.9301954648797
 30
0.0
 41
1.0
 10
426.5767547822887
 20
709.7562628320397
 30
0.0
 41
0.707106781186548
 10
420.2291542401416
 20
707.759109454671
 30
0.0
 41
1.0
  0
SPLINE
  5
A5
330
7B
100
AcDbEntity
  8
0
  6
Continuous
 62
     0
370
    30
100
AcDbSpline
210
0.0
220
0.0
230
1.0
 70
    12
 71
     2
 72
     6
 73
     3
 74
     0
 42
0.000000001
 43
0.0
 40
-11.7809724509617
 40
-11.7809724509617
 40
-11.7809724509617
 40
0.0
 40
0.0
 40
0.0
 10
420.2291542401416
 20
707.759109454671
 30
0.0
 41
1.0
 10
413.8815536979936
 20
705.7619560773021
 30
0.0
 41
0.707106781186548
 10
409.8868112443786
 20
708.9358887101421
 30
0.0
 41
1.0
  0
LINE
  5
A6
330
7B
100
AcDbEntity
  8
0
  6
Continuous
 62
     0
370
     0
100
AcDbLine
 10
419.186297
 20
709.041707
 30
0.0
 11
419.186317
 21
709.478138
 31
0.0
  0
SPLINE
  5
A7
330
7B
100
AcDbEntity
  8
0
  6
Continuous
 62
     0
370
    30
100
AcDbSpline
210
0.0
220
0.0
230
1.0
 70
    12
 71
     2
 72
     8
 73
     5
 74
     0
 42
0.000000001
 43
0.0
 40
-1.57079632679489
 40
-1.57079632679489
 40
-1.57079632679489
 40
-0.7853981633974441
 40
-0.7853981633974441
 40
0.0
 40
0.0
 40
0.0
 10
419.6742853223414
 20
709.4781155352974
 30
0.0
 41
1.0
 10
420.110710479873
 20
709.3561038247997
 30
0.0
 41
0.7071067811865471
 10
419.8667164605013
 20
709.1378997711314
 30
0.0
 41
1.0
 10
419.6227224411302
 20
708.9196957174637
 30
0.0
 41
0.7071067811865471
 10
419.1862972835995
 20
709.0417074279619
 30
0.0
 41
1.0
  0
SPLINE
  5
A8
330
7B
100
AcDbEntity
  8
0
  6
Continuous
 62
     0
370
    30
100
AcDbSpline
210
0.0
220
0.0
230
1.0
 70
    12
 71
     2
 72
     6
 73
     3
 74
     0
 42
0.000000001
 43
0.0
 40
-0.7853981633974418
 40
-0.7853981633974418
 40
-0.7853981633974418
 40
0.0
 40
0.0
 40
0.0
 10
418.9938661454389
 20
709.3819231921275
 30
0.0
 41
1.0
 10
419.2378601648098
 20
709.6001272457954
 30
0.0
 41
0.707106781186549
 10
419.6742853223414
 20
709.4781155352974
 30
0.0
 41
1.0
  0
SPLINE
  5
A9
330
7B
100
AcDbEntity
  8
0
  6
Continuous
 62
     0
370
    30
100
AcDbSpline
210
0.0
220
0.0
230
1.0
 70
    12
 71
     2
 72
     6
 73
     3
 74
     0
 42
0.000000001
 43
0.0
 40
-1.57079632679488
 40
-1.57079632679488
 40
-1.57079632679488
 40
-0.7853981633974418
 40
-0.7853981633974418
 40
-0.7853981633974418
 10
419.1862972835995
 20
709.0417074279619
 30
0.0
 41
1.0
 10
418.7498721260679
 20
709.1637191384597
 30
0.0
 41
0.707106781186548
 10
418.9938661454389
 20
709.3819231921275
 30
0.0
 41
1.0
  0
LINE
  5
AA
330
7B
100
AcDbEntity
  8
0
  6
Continuous
 62
     0
370
     0
100
AcDbLine
 10
421.174052
 20
709.880319
 30
0.0
 11
421.174075
 21
710.378255
 31
0.0
  0
SPLINE
  5
AB
330
7B
100
AcDbEntity
  8
0
  6
Continuous
 62
     0
370
    30
100
AcDbSpline
210
0.0
220
0.0
230
1.0
 70
    12
 71
     2
 72
     8
 73
     5
 74
     0
 42
0.000000001
 43
0.0
 40
-1.57079632679489
 40
-1.57079632679489
 40
-1.57079632679489
 40
-0.7853981633974471
 40
-0.7853981633974471
 40
0.0
 40
0.0
 40
0.0
 10
421.26483131188
 20
710.3782505201723
 30
0.0
 41
1.0
 10
421.7627668405128
 20
710.3555388605618
 30
0.0
 41
0.7071067811865459
 10
421.7173773159529
 20
710.1065729049506
 30
0.0
 41
1.0
 10
421.6719877913922
 20
709.8576069493391
 30
0.0
 41
0.7071067811865459
 10
421.1740522627586
 20
709.8803186089492
 30
0.0
 41
1.0
  0
SPLINE
  5
AC
330
7B
100
AcDbEntity
  8
0
  6
Continuous
 62
     0
370
    30
100
AcDbSpline
210
0.0
220
0.0
230
1.0
 70
    12
 71
     2
 72
     6
 73
     3
 74
     0
 42
0.000000001
 43
0.0
 40
-0.785398163397441
 40
-0.785398163397441
 40
-0.785398163397441
 40
0.0
 40
0.0
 40
0.0
 10
420.7215062586865
 20
710.1519962241712
 30
0.0
 41
1.0
 10
420.7668957832464
 20
710.4009621797824
 30
0.0
 41
0.7071067811865501
 10
421.26483131188
 20
710.3782505201723
 30
0.0
 41
1.0
  0
SPLINE
  5
AD
330
7B
100
AcDbEntity
  8
0
  6
Continuous
 62
     0
370
    30
100
AcDbSpline
210
0.0
220
0.0
230
1.0
 70
    12
 71
     2
 72
     6
 73
     3
 74
     0
 42
0.000000001
 43
0.0
 40
-1.57079632679488
 40
-1.57079632679488
 40
-1.57079632679488
 40
-0.785398163397441
 40
-0.785398163397441
 40
-0.785398163397441
 10
421.1740522627586
 20
709.8803186089492
 30
0.0
 41
1.0
 10
420.6761167341258
 20
709.9030302685597
 30
0.0
 41
0.7071067811865501
 10
420.7215062586865
 20
710.1519962241712
 30
0.0
 41
1.0
  0
LINE
  5
AE
330
7B
100
AcDbEntity
  8
0
  6
Continuous
 62
     0
370
     0
100
AcDbLine
 10
421.673309
 20
711.367935
 30
0.0
 11
421.673302
 21
711.206861
 31
0.0
  0
LINE
  5
AF
330
7B
100
AcDbEntity
  8
0
  6
Continuous
 62
     0
370
     0
100
AcDbLine
 10
422.307713
 20
711.050697
 30
0.0
 11
422.307735
 21
711.524041
 31
0.0
  0
SPLINE
  5
B0
330
7B
100
AcDbEntity
  8
0
  6
Continuous
 62
     0
370
    30
100
AcDbSpline
210
0.0
220
0.0
230
1.0
 70
    12
 71
     2
 72
     8
 73
     5
 74
     0
 42
0.000000001
 43
0.0
 40
-1.57079632679489
 40
-1.57079632679489
 40
-1.57079632679489
 40
-0.7853981633974431
 40
-0.7853981633974431
 40
0.0
 40
0.0
 40
0.0
 10
421.9855868585439
 20
711.5240559546841
 30
0.0
 41
1.0
 10
422.4589351817766
 20
711.6045713982373
 30
0.0
 41
0.7071067811865459
 10
422.6199984131737
 20
711.3678920161921
 30
0.0
 41
1.0
 10
422.7810616445715
 20
711.1312126341471
 30
0.0
 41
0.7071067811865459
 10
422.3077133213396
 20
711.0506971905942
 30
0.0
 41
1.0
  0
SPLINE
  5
B1
330
7B
100
AcDbEntity
  8
0
  6
Continuous
 62
     0
370
    30
100
AcDbSpline
210
0.0
220
0.0
230
1.0
 70
    12
 71
     2
 72
     6
 73
     3
 74
     0
 42
0.000000001
 43
0.0
 40
-0.78539816339744
 40
-0.78539816339744
 40
-0.78539816339744
 40
0.0
 40
0.0
 40
0.0
 10
421.6733017667099
 20
711.2068611290863
 30
0.0
 41
1.0
 10
421.5122385353121
 20
711.4435405111312
 30
0.0
 41
0.707106781186549
 10
421.9855868585439
 20
711.5240559546841
 30
0.0
 41
1.0
  0
SPLINE
  5
B2
330
7B
100
AcDbEntity
  8
0
  6
Continuous
 62
     0
370
    30
100
AcDbSpline
210
0.0
220
0.0
230
1.0
 70
    12
 71
     2
 72
     6
 73
     3
 74
     0
 42
0.000000001
 43
0.0
 40
-1.57079632679488
 40
-1.57079632679488
 40
-1.57079632679488
 40
-0.78539816339744
 40
-0.78539816339744
 40
-0.78539816339744
 10
422.3077133213397
 20
711.0506971905942
 30
0.0
 41
1.0
 10
421.834364998107
 20
710.9701817470409
 30
0.0
 41
0.707106781186549
 10
421.6733017667099
 20
711.2068611290863
 30
0.0
 41
1.0
  0
LINE
  5
B3
330
7B
100
AcDbEntity
  8
0
  6
Continuous
 62
     0
370
     0
100
AcDbLine
 10
421.684694
 20
712.703797
 30
0.0
 11
421.684679
 21
712.364122
 31
0.0
  0
LINE
  5
B4
330
7B
100
AcDbEntity
  8
0
  6
Continuous
 62
     0
370
     0
100
AcDbLine
 10
422.39126
 20
712.350474
 30
0.0
 11
422.391277
 21
712.717381
 31
0.0
  0
SPLINE
  5
B5
330
7B
100
AcDbEntity
  8
0
  6
Continuous
 62
     0
370
    30
100
AcDbSpline
210
0.0
220
0.0
230
1.0
 70
    12
 71
     2
 72
     8
 73
     5
 74
     0
 42
0.000000001
 43
0.0
 40
-1.5707963267949
 40
-1.5707963267949
 40
-1.5707963267949
 40
-0.785398163397448
 40
-0.785398163397448
 40
0.0
 40
0.0
 40
0.0
 10
421.7119267804576
 20
712.7174116698909
 30
0.0
 41
1.0
 10
422.0788416729672
 20
712.8872323649571
 30
0.0
 41
0.7071067811865459
 10
422.418508364401
 20
712.7037635717986
 30
0.0
 41
1.0
 10
422.7581750558347
 20
712.5202947786404
 30
0.0
 41
0.7071067811865459
 10
422.3912601633251
 20
712.3504740835742
 30
0.0
 41
1.0
  0
SPLINE
  5
B6
330
7B
100
AcDbEntity
  8
0
  6
Continuous
 62
     0
370
    30
100
AcDbSpline
210
0.0
220
0.0
230
1.0
 70
    12
 71
     2
 72
     6
 73
     3
 74
     0
 42
0.000000001
 43
0.0
 40
-0.78539816339744
 40
-0.78539816339744
 40
-0.78539816339744
 40
0.0
 40
0.0
 40
0.0
 10
421.6846785793817
 20
712.3641221816665
 30
0.0
 41
1.0
 10
421.345011887948
 20
712.5475909748249
 30
0.0
 41
0.7071067811865501
 10
421.7119267804576
 20
712.7174116698909
 30
0.0
 41
1.0
  0
SPLINE
  5
B7
330
7B
100
AcDbEntity
  8
0
  6
Continuous
 62
     0
370
    30
100
AcDbSpline
210
0.0
220
0.0
230
1.0
 70
    12
 71
     2
 72
     6
 73
     3
 74
     0
 42
0.000000001
 43
0.0
 40
-1.57079632679488
 40
-1.57079632679488
 40
-1.57079632679488
 40
-0.78539816339744
 40
-0.78539816339744
 40
-0.78539816339744
 10
422.3912601633251
 20
712.3504740835742
 30
0.0
 41
1.0
 10
422.0243452708148
 20
712.180653388508
 30
0.0
 41
0.7071067811865501
 10
421.6846785793817
 20
712.3641221816665
 30
0.0
 41
1.0
  0
LINE
  5
B8
330
7B
100
AcDbEntity
  8
0
  6
Continuous
 62
     0
370
     0
100
AcDbLine
 10
420.75369
 20
713.883221
 30
0.0
 11
420.75367
 21
713.423678
 31
0.0
  0
LINE
  5
B9
330
7B
100
AcDbEntity
  8
0
  6
Continuous
 62
     0
370
     0
100
AcDbLine
 10
421.410247
 20
713.554906
 30
0.0
 11
421.410251
 21
713.646748
 31
0.0
  0
ARC
  5
BA
330
7B
100
AcDbEntity
  8
0
  6
Continuous
 62
     0
370
    30
100
AcDbCircle
 10
421.288731
 20
713.664192
 30
0.0
 40
0.1634304007424719
100
AcDbArc
 50
318.032955
 51
347.390931
  0
SPLINE
  5
BB
330
7B
100
AcDbEntity
  8
0
  6
Continuous
 62
     0
370
    30
100
AcDbSpline
210
0.0
220
0.0
230
1.0
 70
    12
 71
     2
 72
     6
 73
     3
 74
     0
 42
0.000000001
 43
0.0
 40
-1.57079632679489
 40
-1.57079632679489
 40
-1.57079632679489
 40
-1.112548601711205
 40
-1.112548601711205
 40
-1.112548601711205
 10
420.4911693912454
 20
713.7519756213368
 30
0.0
 41
1.0
 10
420.5892165726783
 20
713.8663063297593
 30
0.0
 41
0.8291087788732405
 10
420.8307522785853
 20
713.8961433386734
 30
0.0
 41
0.8576336423967379
  0
SPLINE
  5
BC
330
7B
100
AcDbEntity
  8
0
  6
Continuous
 62
     0
370
    30
100
AcDbSpline
210
0.0
220
0.0
230
1.0
 70
    12
 71
     2
 72
     6
 73
     3
 74
     0
 42
0.000000001
 43
0.0
 40
-0.7853981633974418
 40
-0.7853981633974418
 40
-0.7853981633974418
 40
0.0
 40
0.0
 40
0.0
 10
420.7536695424353
 20
713.4236784325338
 30
0.0
 41
1.0
 10
420.2941308476902
 20
713.5222132157071
 30
0.0
 41
0.707106781186549
 10
420.4911693912453
 20
713.7519756213367
 30
0.0
 41
1.0
  0
SPLINE
  5
BD
330
7B
100
AcDbEntity
  8
0
  6
Continuous
 62
     0
370
    30
100
AcDbSpline
210
0.0
220
0.0
230
1.0
 70
    12
 71
     2
 72
     6
 73
     3
 74
     0
 42
0.000000001
 43
0.0
 40
-1.57079632679488
 40
-1.57079632679488
 40
-1.57079632679488
 40
-0.7853981633974418
 40
-0.7853981633974418
 40
-0.7853981633974418
 10
421.4102467807371
 20
713.554906054991
 30
0.0
 41
1.0
 10
421.2132082371812
 20
713.325143649361
 30
0.0
 41
0.707106781186548
 10
420.7536695424353
 20
713.4236784325338
 30
0.0
 41
1.0
  0
LINE
  5
BE
330
7B
100
AcDbEntity
  8
0
  6
Continuous
 62
     0
370
     0
100
AcDbLine
 10
419.041264
 20
714.410427
 30
0.0
 11
419.041255
 21
714.202323
 31
0.0
  0
ARC
  5
BF
330
7B
100
AcDbEntity
  8
0
  6
Continuous
 62
     0
370
    30
100
AcDbCircle
 10
418.66489
 20
714.451957
 30
0.0
 40
0.1305321155691663
100
AcDbArc
 50
158.048065
 51
181.358712
  0
SPLINE
  5
C0
330
7B
100
AcDbEntity
  8
0
  6
Continuous
 62
     0
370
    30
100
AcDbSpline
210
0.0
220
0.0
230
1.0
 70
    12
 71
     2
 72
     6
 73
     3
 74
     0
 42
0.000000001
 43
0.0
 40
-0.7853981633974431
 40
-0.7853981633974431
 40
-0.7853981633974431
 40
0.0
 40
0.0
 40
0.0
 10
419.0412545763119
 20
714.2023229801478
 30
0.0
 41
1.0
 10
418.5413022933535
 20
714.1988861941644
 30
0.0
 41
0.707106781186548
 10
418.5343947337345
 20
714.4488623030982
 30
0.0
 41
1.0
  0
SPLINE
  5
C1
330
7B
100
AcDbEntity
  8
0
  6
Continuous
 62
     0
370
    30
100
AcDbSpline
210
0.0
220
0.0
230
1.0
 70
    12
 71
     2
 72
     6
 73
     3
 74
     0
 42
0.000000001
 43
0.0
 40
-1.277708220836508
 40
-1.277708220836508
 40
-1.277708220836508
 40
-0.7853981633974431
 40
-0.7853981633974431
 40
-0.7853981633974431
 10
419.4573854525157
 20
714.3190196296318
 30
0.0
 41
0.8629760596541418
 10
419.3126834973932
 20
714.2041888444376
 30
0.0
 41
0.8164061439183755
 10
419.0412545763119
 20
714.2023229801478
 30
0.0
 41
1.0
  0
LINE
  5
C2
330
7B
100
AcDbEntity
  8
0
  6
Continuous
 62
     0
370
     0
100
AcDbLine
 10
416.843531
 20
714.670629
 30
0.0
 11
416.843526
 21
714.565421
 31
0.0
  0
SPLINE
  5
C3
330
7B
100
AcDbEntity
  8
0
  6
Continuous
 62
     0
370
    30
100
AcDbSpline
210
0.0
220
0.0
230
1.0
 70
    12
 71
     2
 72
     6
 73
     3
 74
     0
 42
0.000000001
 43
0.0
 40
-0.7853981633974431
 40
-0.7853981633974431
 40
-0.7853981633974431
 40
-0.0113054157157479
 40
-0.0113054157157479
 40
-0.0113054157157479
 10
416.8435257854538
 20
714.5654211084612
 30
0.0
 41
1.0
 10
416.3987918332608
 20
714.4627280486072
 30
0.0
 41
0.7113228333156818
 10
416.1843273997979
 20
714.68295616126
 30
0.0
 41
0.991689271686369
  0
ARC
  5
C4
330
7B
100
AcDbEntity
  8
0
  6
Continuous
 62
     0
370
    30
100
AcDbCircle
 10
416.736135
 20
715.099373
 30
0.0
 40
0.5446438053714204
100
AcDbArc
 50
281.371862
 51
306.278732
  0
LINE
  5
C5
330
7B
100
AcDbEntity
  8
0
  6
Continuous
 62
     0
370
     0
100
AcDbLine
 10
414.540497
 20
714.586199
 30
0.0
 11
414.54049
 21
714.45019
 31
0.0
  0
ARC
  5
C6
330
7B
100
AcDbEntity
  8
0
  6
Continuous
 62
     0
370
    30
100
AcDbCircle
 10
414.010497
 20
714.836003
 30
0.0
 40
0.445244449402729
100
AcDbArc
 50
234.817458
 51
246.776873
  0
SPLINE
  5
C7
330
7B
100
AcDbEntity
  8
0
  6
Continuous
 62
     0
370
    30
100
AcDbSpline
210
0.0
220
0.0
230
1.0
 70
    12
 71
     2
 72
     6
 73
     3
 74
     0
 42
0.000000001
 43
0.0
 40
-0.785398163397438
 40
-0.785398163397438
 40
-0.785398163397438
 40
0.0
 40
0.0
 40
0.0
 10
414.5404904435409
 20
714.4501898524464
 30
0.0
 41
1.0
 10
414.2110903864823
 20
714.2621217419104
 30
0.0
 41
0.707106781186552
 10
413.8349313748603
 20
714.4268343775368
 30
0.0
 41
1.0
  0
SPLINE
  5
C8
330
7B
100
AcDbEntity
  8
0
  6
Continuous
 62
     0
370
    30
100
AcDbSpline
210
0.0
220
0.0
230
1.0
 70
    12
 71
     2
 72
     6
 73
     3
 74
     0
 42
0.000000001
 43
0.0
 40
-1.118222990041543
 40
-1.118222990041543
 40
-1.118222990041543
 40
-0.785398163397438
 40
-0.785398163397438
 40
-0.785398163397438
 10
414.6634327173159
 20
714.5999029986182
 30
0.0
 41
0.8569577844318339
 10
414.6531813722361
 20
714.5145297624741
 30
0.0
 41
0.875881891096947
 10
414.5404904435409
 20
714.4501898524464
 30
0.0
 41
1.0
  0
LINE
  5
C9
330
7B
100
AcDbEntity
  8
0
  6
Continuous
 62
     0
370
     0
100
AcDbLine
 10
412.530371
 20
714.024467
 30
0.0
 11
412.530364
 21
713.876554
 31
0.0
  0
SPLINE
  5
CA
330
7B
100
AcDbEntity
  8
0
  6
Continuous
 62
     0
370
    30
100
AcDbSpline
210
0.0
220
0.0
230
1.0
 70
    12
 71
     2
 72
     6
 73
     3
 74
     0
 42
0.000000001
 43
0.0
 40
-1.57079632679489
 40
-1.57079632679489
 40
-1.57079632679489
 40
-1.097984704957451
 40
-1.097984704957451
 40
-1.097984704957451
 10
411.9048225815298
 20
713.7117285986604
 30
0.0
 41
1.0
 10
411.6579878916377
 20
713.7499608880855
 30
0.0
 41
0.8236775634751526
 10
411.5775740612798
 20
713.8727491350628
 30
0.0
 41
0.859648205963923
  0
SPLINE
  5
CB
330
7B
100
AcDbEntity
  8
0
  6
Continuous
 62
     0
370
    30
100
AcDbSpline
210
0.0
220
0.0
230
1.0
 70
    12
 71
     2
 72
     6
 73
     3
 74
     0
 42
0.000000001
 43
0.0
 40
-0.7853981633974431
 40
-0.7853981633974431
 40
-0.7853981633974431
 40
0.0
 40
0.0
 40
0.0
 10
412.5303642836095
 20
713.8765537431116
 30
0.0
 41
1.0
 10
412.382440011386
 20
713.6377503105168
 30
0.0
 41
0.707106781186549
 10
411.9048225815298
 20
713.7117285986604
 30
0.0
 41
1.0
  0
SPLINE
  5
CC
330
7B
100
AcDbEntity
  8
0
  6
Continuous
 62
     0
370
    30
100
AcDbSpline
210
0.0
220
0.0
230
1.0
 70
    12
 71
     2
 72
     6
 73
     3
 74
     0
 42
0.000000001
 43
0.0
 40
-1.375432614573851
 40
-1.375432614573851
 40
-1.375432614573851
 40
-0.7853981633974431
 40
-0.7853981633974431
 40
-0.7853981633974431
 10
412.3653161157392
 20
714.1456496555884
 30
0.0
 41
0.8905336042563352
 10
412.6311127024054
 20
714.0391982359682
 30
0.0
 41
0.7799624474950123
 10
412.5303642836095
 20
713.8765537431116
 30
0.0
 41
1.0
  0
SPLINE
  5
CD
330
7B
100
AcDbEntity
  8
0
  6
Continuous
 62
     0
370
    30
100
AcDbSpline
210
0.0
220
0.0
230
1.0
 70
    12
 71
     2
 72
     8
 73
     5
 74
     0
 42
0.000000001
 43
0.0
 40
-1.57079632679489
 40
-1.57079632679489
 40
-1.57079632679489
 40
-0.7853981633974451
 40
-0.7853981633974451
 40
0.0
 40
0.0
 40
0.0
 10
410.7233538878131
 20
712.6659046259535
 30
0.0
 41
1.0
 10
410.2268624323634
 20
712.6363570485228
 30
0.0
 41
0.7071067811865471
 10
410.167733469234
 20
712.8846045202191
 30
0.0
 41
1.0
 10
410.1086045061053
 20
713.1328519919158
 30
0.0
 41
0.7071067811865471
 10
410.6050959615542
 20
713.1623995693462
 30
0.0
 41
1.0
  0
SPLINE
  5
CE
330
7B
100
AcDbEntity
  8
0
  6
Continuous
 62
     0
370
    30
100
AcDbSpline
210
0.0
220
0.0
230
1.0
 70
    12
 71
     2
 72
     6
 73
     3
 74
     0
 42
0.000000001
 43
0.0
 40
-0.7853981633974451
 40
-0.7853981633974451
 40
-0.7853981633974451
 40
0.0
 40
0.0
 40
0.0
 10
411.1607163801334
 20
712.9436996750807
 30
0.0
 41
1.0
 10
411.219845343262
 20
712.695452203384
 30
0.0
 41
0.7071067811865471
 10
410.7233538878131
 20
712.6659046259535
 30
0.0
 41
1.0
  0
SPLINE
  5
CF
330
7B
100
AcDbEntity
  8
0
  6
Continuous
 62
     0
370
    30
100
AcDbSpline
210
0.0
220
0.0
230
1.0
 70
    12
 71
     2
 72
     6
 73
     3
 74
     0
 42
0.000000001
 43
0.0
 40
-1.57079632679489
 40
-1.57079632679489
 40
-1.57079632679489
 40
-0.7853981633974451
 40
-0.7853981633974451
 40
-0.7853981633974451
 10
410.6050959615542
 20
713.1623995693462
 30
0.0
 41
1.0
 10
411.1015874170038
 20
713.1919471467772
 30
0.0
 41
0.7071067811865471
 10
411.1607163801334
 20
712.9436996750807
 30
0.0
 41
1.0
  0
SPLINE
  5
D0
330
7B
100
AcDbEntity
  8
0
  6
Continuous
 62
     0
370
    30
100
AcDbSpline
210
0.0
220
0.0
230
1.0
 70
    12
 71
     2
 72
     8
 73
     5
 74
     0
 42
0.000000001
 43
0.0
 40
-1.57079632679489
 40
-1.57079632679489
 40
-1.57079632679489
 40
-0.7853981633974441
 40
-0.7853981633974441
 40
0.0
 40
0.0
 40
0.0
 10
410.4948119641589
 20
711.470194925309
 30
0.0
 41
1.0
 10
410.0652943662465
 20
711.3422305268728
 30
0.0
 41
0.7071067811865471
 10
409.8093361026599
 20
711.5569977945577
 30
0.0
 41
1.0
 10
409.5533778390726
 20
711.7717650622417
 30
0.0
 41
0.7071067811865471
 10
409.982895436985
 20
711.8997294606779
 30
0.0
 41
1.0
  0
SPLINE
  5
D1
330
7B
100
AcDbEntity
  8
0
  6
Continuous
 62
     0
370
    30
100
AcDbSpline
210
0.0
220
0.0
230
1.0
 70
    12
 71
     2
 72
     6
 73
     3
 74
     0
 42
0.000000001
 43
0.0
 40
-0.7853981633974431
 40
-0.7853981633974431
 40
-0.7853981633974431
 40
0.0
 40
0.0
 40
0.0
 10
410.6683712984847
 20
711.8129265914297
 30
0.0
 41
1.0
 10
410.9243295620721
 20
711.5981593237453
 30
0.0
 41
0.707106781186549
 10
410.4948119641589
 20
711.470194925309
 30
0.0
 41
1.0
  0
SPLINE
  5
D2
330
7B
100
AcDbEntity
  8
0
  6
Continuous
 62
     0
370
    30
100
AcDbSpline
210
0.0
220
0.0
230
1.0
 70
    12
 71
     2
 72
     6
 73
     3
 74
     0
 42
0.000000001
 43
0.0
 40
-1.57079632679489
 40
-1.57079632679489
 40
-1.57079632679489
 40
-0.7853981633974431
 40
-0.7853981633974431
 40
-0.7853981633974431
 10
409.982895436985
 20
711.8997294606779
 30
0.0
 41
1.0
 10
410.4124130348974
 20
712.0276938591139
 30
0.0
 41
0.707106781186548
 10
410.6683712984847
 20
711.8129265914297
 30
0.0
 41
1.0
  0
SPLINE
  5
D3
330
7B
100
AcDbEntity
  8
0
  6
Continuous
 62
     0
370
    30
100
AcDbSpline
210
0.0
220
0.0
230
1.0
 70
    12
 71
     2
 72
     8
 73
     5
 74
     0
 42
0.000000001
 43
0.0
 40
-1.57079632679489
 40
-1.57079632679489
 40
-1.57079632679489
 40
-0.7853981633974441
 40
-0.7853981633974441
 40
0.0
 40
0.0
 40
0.0
 10
411.2587137854064
 20
710.3313485666505
 30
0.0
 41
1.0
 10
410.9704375397552
 20
710.1270935542187
 30
0.0
 41
0.707106781186548
 10
410.561907484792
 20
710.2712454062089
 30
0.0
 41
1.0
 10
410.1533774298287
 20
710.4153972581992
 30
0.0
 41
0.707106781186548
 10
410.4416536754807
 20
710.6196522706311
 30
0.0
 41
1.0
  0
SPLINE
  5
D4
330
7B
100
AcDbEntity
  8
0
  6
Continuous
 62
     0
370
    30
100
AcDbSpline
210
0.0
220
0.0
230
1.0
 70
    12
 71
     2
 72
     6
 73
     3
 74
     0
 42
0.000000001
 43
0.0
 40
-0.7853981633974431
 40
-0.7853981633974431
 40
-0.7853981633974431
 40
0.0
 40
0.0
 40
0.0
 10
411.1384599760952
 20
710.6797554310725
 30
0.0
 41
1.0
 10
411.5469900310584
 20
710.5356035790825
 30
0.0
 41
0.707106781186548
 10
411.2587137854064
 20
710.3313485666505
 30
0.0
 41
1.0
  0
SPLINE
  5
D5
330
7B
100
AcDbEntity
  8
0
  6
Continuous
 62
     0
370
    30
100
AcDbSpline
210
0.0
220
0.0
230
1.0
 70
    12
 71
     2
 72
     6
 73
     3
 74
     0
 42
0.000000001
 43
0.0
 40
-1.57079632679489
 40
-1.57079632679489
 40
-1.57079632679489
 40
-0.7853981633974431
 40
-0.7853981633974431
 40
-0.7853981633974431
 10
410.4416536754808
 20
710.6196522706309
 30
0.0
 41
1.0
 10
410.7299299211319
 20
710.8239072830628
 30
0.0
 41
0.707106781186548
 10
411.1384599760952
 20
710.6797554310725
 30
0.0
 41
1.0
  0
SPLINE
  5
D6
330
7B
100
AcDbEntity
  8
0
  6
Continuous
 62
     0
370
    30
100
AcDbSpline
210
0.0
220
0.0
230
1.0
 70
    12
 71
     2
 72
     8
 73
     5
 74
     0
 42
0.000000001
 43
0.0
 40
-1.57079632679489
 40
-1.57079632679489
 40
-1.57079632679489
 40
-0.7853981633974471
 40
-0.7853981633974471
 40
0.0
 40
0.0
 40
0.0
 10
412.8829737868312
 20
709.4462824314841
 30
0.0
 41
1.0
 10
412.7857844752215
 20
709.2010543523048
 30
0.0
 41
0.707106781186545
 10
412.2953211867642
 20
709.249665623813
 30
0.0
 41
1.0
 10
411.8048578983078
 20
709.2982768953218
 30
0.0
 41
0.707106781186545
 10
411.9020472099176
 20
709.5435049745012
 30
0.0
 41
1.0
  0
SPLINE
  5
D7
330
7B
100
AcDbEntity
  8
0
  6
Continuous
 62
     0
370
    30
100
AcDbSpline
210
0.0
220
0.0
230
1.0
 70
    12
 71
     2
 72
     6
 73
     3
 74
     0
 42
0.000000001
 43
0.0
 40
-0.7853981633974431
 40
-0.7853981633974431
 40
-0.7853981633974431
 40
0.0
 40
0.0
 40
0.0
 10
412.4896998099846
 20
709.7401217821722
 30
0.0
 41
1.0
 10
412.980163098441
 20
709.6915105106635
 30
0.0
 41
0.707106781186549
 10
412.8829737868312
 20
709.4462824314841
 30
0.0
 41
1.0
  0
SPLINE
  5
D8
330
7B
100
AcDbEntity
  8
0
  6
Continuous
 62
     0
370
    30
100
AcDbSpline
210
0.0
220
0.0
230
1.0
 70
    12
 71
     2
 72
     6
 73
     3
 74
     0
 42
0.000000001
 43
0.0
 40
-1.57079632679489
 40
-1.57079632679489
 40
-1.57079632679489
 40
-0.7853981633974431
 40
-0.7853981633974431
 40
-0.7853981633974431
 10
411.9020472099176
 20
709.5435049745012
 30
0.0
 41
1.0
 10
411.9992365215275
 20
709.7887330536806
 30
0.0
 41
0.707106781186549
 10
412.4896998099846
 20
709.7401217821722
 30
0.0
 41
1.0
  0
LINE
  5
D9
330
7B
100
AcDbEntity
  8
0
  6
Continuous
 62
     0
370
     0
100
AcDbLine
 10
414.111561
 20
708.857363
 30
0.0
 11
414.111566
 21
708.968077
 31
0.0
  0
SPLINE
  5
DA
330
7B
100
AcDbEntity
  8
0
  6
Continuous
 62
     0
370
    30
100
AcDbSpline
210
0.0
220
0.0
230
1.0
 70
    12
 71
     2
 72
     8
 73
     5
 74
     0
 42
0.000000001
 43
0.0
 40
-1.57079632679488
 40
-1.57079632679488
 40
-1.57079632679488
 40
-0.7853981633974418
 40
-0.7853981633974418
 40
0.0
 40
0.0
 40
0.0
 10
415.086742658248
 20
708.9680324951535
 30
0.0
 41
1.0
 10
415.1974451955938
 20
708.7242335119436
 30
0.0
 41
0.7071067811865471
 10
414.7098542319365
 20
708.6688988725072
 30
0.0
 41
1.0
 10
414.2222632682794
 20
708.6135642330706
 30
0.0
 41
0.7071067811865471
 10
414.1115607309335
 20
708.8573632162806
 30
0.0
 41
1.0
  0
SPLINE
  5
DB
330
7B
100
AcDbEntity
  8
0
  6
Continuous
 62
     0
370
    30
100
AcDbSpline
210
0.0
220
0.0
230
1.0
 70
    12
 71
     2
 72
     6
 73
     3
 74
     0
 42
0.000000001
 43
0.0
 40
-0.7853981633974431
 40
-0.7853981633974431
 40
-0.7853981633974431
 40
0.0
 40
0.0
 40
0.0
 10
414.4884491572449
 20
709.1564968389271
 30
0.0
 41
1.0
 10
414.9760401209022
 20
709.2118314783637
 30
0.0
 41
0.707106781186549
 10
415.086742658248
 20
708.9680324951535
 30
0.0
 41
1.0
  0
SPLINE
  5
DC
330
7B
100
AcDbEntity
  8
0
  6
Continuous
 62
     0
370
    30
100
AcDbSpline
210
0.0
220
0.0
230
1.0
 70
    12
 71
     2
 72
     6
 73
     3
 74
     0
 42
0.000000001
 43
0.0
 40
-1.57079632679489
 40
-1.57079632679489
 40
-1.57079632679489
 40
-0.7853981633974431
 40
-0.7853981633974431
 40
-0.7853981633974431
 10
414.1115607309335
 20
708.8573632162806
 30
0.0
 41
1.0
 10
414.0008581935879
 20
709.1011621994907
 30
0.0
 41
0.707106781186548
 10
414.4884491572449
 20
709.1564968389271
 30
0.0
 41
1.0
  0
LINE
  5
DD
330
7B
100
AcDbEntity
  8
0
  6
Continuous
 62
     0
370
     0
100
AcDbLine
 10
416.688149
 20
708.679867
 30
0.0
 11
416.688163
 21
708.979329
 31
0.0
  0
SPLINE
  5
DE
330
7B
100
AcDbEntity
  8
0
  6
Continuous
 62
     0
370
    30
100
AcDbSpline
210
0.0
220
0.0
230
1.0
 70
    12
 71
     2
 72
     8
 73
     5
 74
     0
 42
0.000000001
 43
0.0
 40
-1.57079632679489
 40
-1.57079632679489
 40
-1.57079632679489
 40
-0.7853981633974451
 40
-0.7853981633974451
 40
0.0
 40
0.0
 40
0.0
 10
417.4889687411771
 20
708.9792925164147
 30
0.0
 41
1.0
 10
417.7884216530709
 20
708.7790776882156
 30
0.0
 41
0.7071067811865471
 10
417.3880119214544
 20
708.629364999692
 30
0.0
 41
1.0
 10
416.9876021898381
 20
708.4796523111685
 30
0.0
 41
0.7071067811865471
 10
416.6881492779442
 20
708.6798671393676
 30
0.0
 41
1.0
  0
SPLINE
  5
DF
330
7B
100
AcDbEntity
  8
0
  6
Continuous
 62
     0
370
    30
100
AcDbSpline
210
0.0
220
0.0
230
1.0
 70
    12
 71
     2
 72
     6
 73
     3
 74
     0
 42
0.000000001
 43
0.0
 40
-0.785398163397441
 40
-0.785398163397441
 40
-0.785398163397441
 40
0.0
 40
0.0
 40
0.0
 10
416.7891060976668
 20
709.0297946560905
 30
0.0
 41
1.0
 10
417.1895158292833
 20
709.179507344614
 30
0.0
 41
0.7071067811865501
 10
417.4889687411771
 20
708.9792925164147
 30
0.0
 41
1.0
  0
SPLINE
  5
E0
330
7B
100
AcDbEntity
  8
0
  6
Continuous
 62
     0
370
    30
100
AcDbSpline
210
0.0
220
0.0
230
1.0
 70
    12
 71
     2
 72
     6
 73
     3
 74
     0
 42
0.000000001
 43
0.0
 40
-1.57079632679489
 40
-1.57079632679489
 40
-1.57079632679489
 40
-0.785398163397441
 40
-0.785398163397441
 40
-0.785398163397441
 10
416.6881492779442
 20
708.6798671393676
 30
0.0
 41
1.0
 10
416.3886963660504
 20
708.8800819675669
 30
0.0
 41
0.7071067811865471
 10
416.7891060976668
 20
709.0297946560905
 30
0.0
 41
1.0
  0
LINE
  5
E1
330
7B
100
AcDbEntity
  8
0
  6
Continuous
 62
     0
370
     0
100
AcDbLine
 10
417.990104
 20
709.940903
 30
0.0
 11
417.990119
 21
710.271718
 31
0.0
  0
SPLINE
  5
E2
330
7B
100
AcDbEntity
  8
0
  6
Continuous
 62
     0
370
    30
100
AcDbSpline
210
0.0
220
0.0
230
1.0
 70
    12
 71
     2
 72
     8
 73
     5
 74
     0
 42
0.000000001
 43
0.0
 40
-1.57079632679489
 40
-1.57079632679489
 40
-1.57079632679489
 40
-0.7853981633974431
 40
-0.7853981633974431
 40
0.0
 40
0.0
 40
0.0
 10
418.7399492762153
 20
710.2716839113787
 30
0.0
 41
1.0
 10
419.0707559009554
 20
710.0842115560815
 30
0.0
 41
0.7071067811865459
 10
418.6958332734131
 20
709.9188211617565
 30
0.0
 41
1.0
 10
418.3209106458707
 20
709.7534307674314
 30
0.0
 41
0.7071067811865459
 10
417.9901040211305
 20
709.9409031227285
 30
0.0
 41
1.0
  0
SPLINE
  5
E3
330
7B
100
AcDbEntity
  8
0
  6
Continuous
 62
     0
370
    30
100
AcDbSpline
210
0.0
220
0.0
230
1.0
 70
    12
 71
     2
 72
     6
 73
     3
 74
     0
 42
0.000000001
 43
0.0
 40
-0.7853981633974391
 40
-0.7853981633974391
 40
-0.7853981633974391
 40
0.0
 40
0.0
 40
0.0
 10
418.0342200239335
 20
710.2937658723511
 30
0.0
 41
1.0
 10
418.4091426514757
 20
710.4591562666764
 30
0.0
 41
0.707106781186549
 10
418.7399492762153
 20
710.2716839113787
 30
0.0
 41
1.0
  0
SPLINE
  5
E4
330
7B
100
AcDbEntity
  8
0
  6
Continuous
 62
     0
370
    30
100
AcDbSpline
210
0.0
220
0.0
230
1.0
 70
    12
 71
     2
 72
     6
 73
     3
 74
     0
 42
0.000000001
 43
0.0
 40
-1.57079632679488
 40
-1.57079632679488
 40
-1.57079632679488
 40
-0.7853981633974391
 40
-0.7853981633974391
 40
-0.7853981633974391
 10
417.9901040211305
 20
709.9409031227285
 30
0.0
 41
1.0
 10
417.6592973963912
 20
710.1283754780258
 30
0.0
 41
0.707106781186549
 10
418.0342200239335
 20
710.2937658723511
 30
0.0
 41
1.0
  0
LINE
  5
E5
330
7B
100
AcDbEntity
  8
0
  6
Continuous
 62
     0
370
     0
100
AcDbLine
 10
419.839137
 20
710.811664
 30
0.0
 11
419.839159
 21
711.299668
 31
0.0
  0
SPLINE
  5
E6
330
7B
100
AcDbEntity
  8
0
  6
Continuous
 62
     0
370
    30
100
AcDbSpline
210
0.0
220
0.0
230
1.0
 70
    12
 71
     2
 72
     8
 73
     5
 74
     0
 42
0.000000001
 43
0.0
 40
-1.57079632679488
 40
-1.57079632679488
 40
-1.57079632679488
 40
-0.785398163397441
 40
-0.785398163397441
 40
0.0
 40
0.0
 40
0.0
 10
420.0568878055496
 20
711.299658373441
 30
0.0
 41
1.0
 10
420.544889978036
 20
711.2452040866854
 30
0.0
 41
0.7071067811865471
 10
420.4360144561616
 20
711.0012069613138
 30
0.0
 41
1.0
 10
420.327138934287
 20
710.757209835942
 30
0.0
 41
0.7071067811865471
 10
419.8391367618005
 20
710.811664122698
 30
0.0
 41
1.0
  0
SPLINE
  5
E7
330
7B
100
AcDbEntity
  8
0
  6
Continuous
 62
     0
370
    30
100
AcDbSpline
210
0.0
220
0.0
230
1.0
 70
    12
 71
     2
 72
     6
 73
     3
 74
     0
 42
0.000000001
 43
0.0
 40
-0.7853981633974361
 40
-0.7853981633974361
 40
-0.7853981633974361
 40
0.0
 40
0.0
 40
0.0
 10
419.4600101111886
 20
711.1101155348254
 30
0.0
 41
1.0
 10
419.5688856330631
 20
711.3541126601968
 30
0.0
 41
0.7071067811865509
 10
420.0568878055496
 20
711.299658373441
 30
0.0
 41
1.0
  0
SPLINE
  5
E8
330
7B
100
AcDbEntity
  8
0
  6
Continuous
 62
     0
370
    30
100
AcDbSpline
210
0.0
220
0.0
230
1.0
 70
    12
 71
     2
 72
     6
 73
     3
 74
     0
 42
0.000000001
 43
0.0
 40
-1.57079632679488
 40
-1.57079632679488
 40
-1.57079632679488
 40
-0.7853981633974361
 40
-0.7853981633974361
 40
-0.7853981633974361
 10
419.8391367618005
 20
710.811664122698
 30
0.0
 41
1.0
 10
419.3511345893142
 20
710.8661184094537
 30
0.0
 41
0.707106781186545
 10
419.4600101111886
 20
711.1101155348254
 30
0.0
 41
1.0
  0
LINE
  5
E9
330
7B
100
AcDbEntity
  8
0
  6
Continuous
 62
     0
370
     0
100
AcDbLine
 10
419.653773
 20
712.388386
 30
0.0
 11
419.653764
 21
712.189618
 31
0.0
  0
LINE
  5
EA
330
7B
100
AcDbEntity
  8
0
  6
Continuous
 62
     0
370
     0
100
AcDbLine
 10
420.31132
 20
712.059576
 30
0.0
 11
420.311341
 21
712.518368
 31
0.0
  0
SPLINE
  5
EB
330
7B
100
AcDbEntity
  8
0
  6
Continuous
 62
     0
370
    30
100
AcDbSpline
210
0.0
220
0.0
230
1.0
 70
    12
 71
     2
 72
     8
 73
     5
 74
     0
 42
0.000000001
 43
0.0
 40
-1.57079632679489
 40
-1.57079632679489
 40
-1.57079632679489
 40
-0.7853981633974431
 40
-0.7853981633974431
 40
0.0
 40
0.0
 40
0.0
 10
419.9138030953472
 20
712.5183863614725
 30
0.0
 41
1.0
 10
420.3726005722745
 20
712.6177498299656
 30
0.0
 41
0.7071067811865459
 10
420.5713589048808
 20
712.3883445822821
 30
0.0
 41
1.0
 10
420.7701172374869
 20
712.1589393345987
 30
0.0
 41
0.7071067811865459
 10
420.3113197605596
 20
712.0595758661053
 30
0.0
 41
1.0
  0
SPLINE
  5
EC
330
7B
100
AcDbEntity
  8
0
  6
Continuous
 62
     0
370
    30
100
AcDbSpline
210
0.0
220
0.0
230
1.0
 70
    12
 71
     2
 72
     6
 73
     3
 74
     0
 42
0.000000001
 43
0.0
 40
-0.7853981633974361
 40
-0.7853981633974361
 40
-0.7853981633974361
 40
0.0
 40
0.0
 40
0.0
 10
419.6537639510263
 20
712.1896176452956
 30
0.0
 41
1.0
 10
419.4550056184201
 20
712.419022892979
 30
0.0
 41
0.7071067811865509
 10
419.9138030953472
 20
712.5183863614725
 30
0.0
 41
1.0
  0
SPLINE
  5
ED
330
7B
100
AcDbEntity
  8
0
  6
Continuous
 62
     0
370
    30
100
AcDbSpline
210
0.0
220
0.0
230
1.0
 70
    12
 71
     2
 72
     6
 73
     3
 74
     0
 42
0.000000001
 43
0.0
 40
-1.57079632679488
 40
-1.57079632679488
 40
-1.57079632679488
 40
-0.7853981633974361
 40
-0.7853981633974361
 40
-0.7853981633974361
 10
420.3113197605596
 20
712.0595758661053
 30
0.0
 41
1.0
 10
419.8525222836324
 20
711.9602123976122
 30
0.0
 41
0.707106781186545
 10
419.6537639510263
 20
712.1896176452956
 30
0.0
 41
1.0
  0
LINE
  5
EE
330
7B
100
AcDbEntity
  8
0
  6
Continuous
 62
     0
370
     0
100
AcDbLine
 10
418.541494
 20
713.550418
 30
0.0
 11
418.541474
 21
713.119939
 31
0.0
  0
LINE
  5
EF
330
7B
100
AcDbEntity
  8
0
  6
Continuous
 62
     0
370
     0
100
AcDbLine
 10
419.226295
 20
713.207978
 30
0.0
 11
419.226307
 21
713.462316
 31
0.0
  0
SPLINE
  5
F0
330
7B
100
AcDbEntity
  8
0
  6
Continuous
 62
     0
370
    30
100
AcDbSpline
210
0.0
220
0.0
230
1.0
 70
    12
 71
     2
 72
     8
 73
     5
 74
     0
 42
0.000000001
 43
0.0
 40
-1.57079632679488
 40
-1.57079632679488
 40
-1.57079632679488
 40
-0.7853981633974418
 40
-0.7853981633974418
 40
0.0
 40
0.0
 40
0.0
 10
418.3653486416359
 20
713.4623552070857
 30
0.0
 41
1.0
 10
418.6196963807696
 20
713.6775829631033
 30
0.0
 41
0.7071067811865471
 10
419.0501696403483
 20
713.5503946005255
 30
0.0
 41
1.0
 10
419.4806428999277
 20
713.4232062379481
 30
0.0
 41
0.7071067811865471
 10
419.2262951607931
 20
713.2079784819299
 30
0.0
 41
1.0
  0
SPLINE
  5
F1
330
7B
100
AcDbEntity
  8
0
  6
Continuous
 62
     0
370
    30
100
AcDbSpline
210
0.0
220
0.0
230
1.0
 70
    12
 71
     2
 72
     6
 73
     3
 74
     0
 42
0.000000001
 43
0.0
 40
-0.7853981633974361
 40
-0.7853981633974361
 40
-0.7853981633974361
 40
0.0
 40
0.0
 40
0.0
 10
418.5414741620799
 20
713.1199390884897
 30
0.0
 41
1.0
 10
418.1110009025014
 20
713.2471274510674
 30
0.0
 41
0.707106781186552
 10
418.3653486416359
 20
713.4623552070857
 30
0.0
 41
1.0
  0
SPLINE
  5
F2
330
7B
100
AcDbEntity
  8
0
  6
Continuous
 62
     0
370
    30
100
AcDbSpline
210
0.0
220
0.0
230
1.0
 70
    12
 71
     2
 72
     6
 73
     3
 74
     0
 42
0.000000001
 43
0.0
 40
-1.57079632679488
 40
-1.57079632679488
 40
-1.57079632679488
 40
-0.7853981633974361
 40
-0.7853981633974361
 40
-0.7853981633974361
 10
419.2262951607931
 20
713.2079784819299
 30
0.0
 41
1.0
 10
418.9719474216585
 20
712.9927507259117
 30
0.0
 41
0.707106781186545
 10
418.5414741620799
 20
713.1199390884897
 30
0.0
 41
1.0
  0
LINE
  5
F3
330
7B
100
AcDbEntity
  8
0
  6
Continuous
 62
     0
370
     0
100
AcDbLine
 10
416.54802
 20
714.043489
 30
0.0
 11
416.547998
 21
713.545729
 31
0.0
  0
SPLINE
  5
F4
330
7B
100
AcDbEntity
  8
0
  6
Continuous
 62
     0
370
    30
100
AcDbSpline
210
0.0
220
0.0
230
1.0
 70
    12
 71
     2
 72
     8
 73
     5
 74
     0
 42
0.000000001
 43
0.0
 40
-1.57079632679488
 40
-1.57079632679488
 40
-1.57079632679488
 40
-0.7853981633974418
 40
-0.7853981633974418
 40
0.0
 40
0.0
 40
0.0
 10
416.0029814157007
 20
713.7710008955769
 30
0.0
 41
1.0
 10
415.9557272256544
 20
714.019883251643
 30
0.0
 41
0.7071067811865471
 10
416.4534892582946
 20
714.0434934057023
 30
0.0
 41
1.0
 10
416.9512512909348
 20
714.0671035597613
 30
0.0
 41
0.7071067811865471
 10
416.9985054809812
 20
713.8182212036953
 30
0.0
 41
1.0
  0
SPLINE
  5
F5
330
7B
100
AcDbEntity
  8
0
  6
Continuous
 62
     0
370
    30
100
AcDbSpline
210
0.0
220
0.0
230
1.0
 70
    12
 71
     2
 72
     6
 73
     3
 74
     0
 42
0.000000001
 43
0.0
 40
-0.7853981633974352
 40
-0.7853981633974352
 40
-0.7853981633974352
 40
0.0
 40
0.0
 40
0.0
 10
416.5479976383872
 20
713.5457286935699
 30
0.0
 41
1.0
 10
416.050235605747
 20
713.5221185395106
 30
0.0
 41
0.7071067811865509
 10
416.0029814157007
 20
713.7710008955769
 30
0.0
 41
1.0
  0
SPLINE
  5
F6
330
7B
100
AcDbEntity
  8
0
  6
Continuous
 62
     0
370
    30
100
AcDbSpline
210
0.0
220
0.0
230
1.0
 70
    12
 71
     2
 72
     6
 73
     3
 74
     0
 42
0.000000001
 43
0.0
 40
-1.57079632679488
 40
-1.57079632679488
 40
-1.57079632679488
 40
-0.7853981633974352
 40
-0.7853981633974352
 40
-0.7853981633974352
 10
416.9985054809812
 20
713.8182212036953
 30
0.0
 41
1.0
 10
417.0457596710274
 20
713.5693388476291
 30
0.0
 41
0.7071067811865438
 10
416.5479976383872
 20
713.5457286935699
 30
0.0
 41
1.0
  0
LINE
  5
F7
330
7B
100
AcDbEntity
  8
0
  6
Continuous
 62
     0
370
     0
100
AcDbLine
 10
414.434792
 20
713.679264
 30
0.0
 11
414.434775
 21
713.304349
 31
0.0
  0
SPLINE
  5
F8
330
7B
100
AcDbEntity
  8
0
  6
Continuous
 62
     0
370
    30
100
AcDbSpline
210
0.0
220
0.0
230
1.0
 70
    12
 71
     2
 72
     8
 73
     5
 74
     0
 42
0.000000001
 43
0.0
 40
-1.57079632679488
 40
-1.57079632679488
 40
-1.57079632679488
 40
-0.7853981633974418
 40
-0.7853981633974418
 40
0.0
 40
0.0
 40
0.0
 10
413.7290454039417
 20
713.3264312644245
 30
0.0
 41
1.0
 10
413.3982387792016
 20
713.5139036197216
 30
0.0
 41
0.7071067811865471
 10
413.7731614067438
 20
713.6792940140468
 30
0.0
 41
1.0
 10
414.1480840342863
 20
713.8446844083721
 30
0.0
 41
0.7071067811865471
 10
414.4788906590264
 20
713.6572120530749
 30
0.0
 41
1.0
  0
SPLINE
  5
F9
330
7B
100
AcDbEntity
  8
0
  6
Continuous
 62
     0
370
    30
100
AcDbSpline
210
0.0
220
0.0
230
1.0
 70
    12
 71
     2
 72
     6
 73
     3
 74
     0
 42
0.000000001
 43
0.0
 40
-0.7853981633974361
 40
-0.7853981633974361
 40
-0.7853981633974361
 40
0.0
 40
0.0
 40
0.0
 10
414.4347746562235
 20
713.3043493034522
 30
0.0
 41
1.0
 10
414.0598520286812
 20
713.138958909127
 30
0.0
 41
0.7071067811865509
 10
413.7290454039417
 20
713.3264312644245
 30
0.0
 41
1.0
  0
SPLINE
  5
FA
330
7B
100
AcDbEntity
  8
0
  6
Continuous
 62
     0
370
    30
100
AcDbSpline
210
0.0
220
0.0
230
1.0
 70
    12
 71
     2
 72
     6
 73
     3
 74
     0
 42
0.000000001
 43
0.0
 40
-1.57079632679488
 40
-1.57079632679488
 40
-1.57079632679488
 40
-0.7853981633974361
 40
-0.7853981633974361
 40
-0.7853981633974361
 10
414.4788906590264
 20
713.6572120530749
 30
0.0
 41
1.0
 10
414.8096972837658
 20
713.4697396977774
 30
0.0
 41
0.707106781186545
 10
414.4347746562235
 20
713.3043493034522
 30
0.0
 41
1.0
  0
LINE
  5
FB
330
7B
100
AcDbEntity
  8
0
  6
Continuous
 62
     0
370
     0
100
AcDbLine
 10
413.00899
 20
712.596864
 30
0.0
 11
413.008985
 21
712.488
 31
0.0
  0
SPLINE
  5
FC
330
7B
100
AcDbEntity
  8
0
  6
Continuous
 62
     0
370
    30
100
AcDbSpline
210
0.0
220
0.0
230
1.0
 70
    12
 71
     2
 72
     8
 73
     5
 74
     0
 42
0.000000001
 43
0.0
 40
-1.57079632679488
 40
-1.57079632679488
 40
-1.57079632679488
 40
-0.7853981633974418
 40
-0.7853981633974418
 40
0.0
 40
0.0
 40
0.0
 10
412.4121068746074
 20
712.2984568023621
 30
0.0
 41
1.0
 10
411.9241047021209
 20
712.3529110891179
 30
0.0
 41
0.7071067811865471
 10
412.0329802239955
 20
712.5969082144896
 30
0.0
 41
1.0
 10
412.14185574587
 20
712.8409053398611
 30
0.0
 41
0.7071067811865471
 10
412.6298579183564
 20
712.7864510531053
 30
0.0
 41
1.0
  0
SPLINE
  5
FD
330
7B
100
AcDbEntity
  8
0
  6
Continuous
 62
     0
370
    30
100
AcDbSpline
210
0.0
220
0.0
230
1.0
 70
    12
 71
     2
 72
     6
 73
     3
 74
     0
 42
0.000000001
 43
0.0
 40
-0.785398163397437
 40
-0.785398163397437
 40
-0.785398163397437
 40
0.0
 40
0.0
 40
0.0
 10
413.0089845689685
 20
712.4879996409779
 30
0.0
 41
1.0
 10
412.9001090470938
 20
712.2440025156063
 30
0.0
 41
0.7071067811865501
 10
412.4121068746074
 20
712.2984568023621
 30
0.0
 41
1.0
  0
SPLINE
  5
FE
330
7B
100
AcDbEntity
  8
0
  6
Continuous
 62
     0
370
    30
100
AcDbSpline
210
0.0
220
0.0
230
1.0
 70
    12
 71
     2
 72
     6
 73
     3
 74
     0
 42
0.000000001
 43
0.0
 40
-1.57079632679488
 40
-1.57079632679488
 40
-1.57079632679488
 40
-0.785398163397437
 40
-0.785398163397437
 40
-0.785398163397437
 10
412.6298579183564
 20
712.7864510531053
 30
0.0
 41
1.0
 10
413.117860090843
 20
712.7319967663495
 30
0.0
 41
0.707106781186545
 10
413.0089845689685
 20
712.4879996409779
 30
0.0
 41
1.0
  0
SPLINE
  5
FF
330
7B
100
AcDbEntity
  8
0
  6
Continuous
 62
     0
370
    30
100
AcDbSpline
210
0.0
220
0.0
230
1.0
 70
    12
 71
     2
 72
     8
 73
     5
 74
     0
 42
0.000000001
 43
0.0
 40
-1.57079632679488
 40
-1.57079632679488
 40
-1.57079632679488
 40
-0.7853981633974418
 40
-0.7853981633974418
 40
0.0
 40
0.0
 40
0.0
 10
412.5551915848097
 20
711.079728814331
 30
0.0
 41
1.0
 10
412.0963941078825
 20
710.9803653458376
 30
0.0
 41
0.7071067811865471
 10
411.8976357752763
 20
711.2097705935212
 30
0.0
 41
1.0
 10
411.69887744267
 20
711.4391758412047
 30
0.0
 41
0.7071067811865471
 10
412.1576749195974
 20
711.5385393096979
 30
0.0
 41
1.0
  0
SPLINE
  5
100
330
7B
100
AcDbEntity
  8
0
  6
Continuous
 62
     0
370
    30
100
AcDbSpline
210
0.0
220
0.0
230
1.0
 70
    12
 71
     2
 72
     6
 73
     3
 74
     0
 42
0.000000001
 43
0.0
 40
-0.785398163397434
 40
-0.785398163397434
 40
-0.785398163397434
 40
0.0
 40
0.0
 40
0.0
 10
412.81523072913
 20
711.4084975305074
 30
0.0
 41
1.0
 10
413.0139890617361
 20
711.1790922828238
 30
0.0
 41
0.7071067811865509
 10
412.5551915848097
 20
711.079728814331
 30
0.0
 41
1.0
  0
SPLINE
  5
101
330
7B
100
AcDbEntity
  8
0
  6
Continuous
 62
     0
370
    30
100
AcDbSpline
210
0.0
220
0.0
230
1.0
 70
    12
 71
     2
 72
     6
 73
     3
 74
     0
 42
0.000000001
 43
0.0
 40
-1.57079632679488
 40
-1.57079632679488
 40
-1.57079632679488
 40
-0.785398163397434
 40
-0.785398163397434
 40
-0.785398163397434
 10
412.1576749195974
 20
711.5385393096979
 30
0.0
 41
1.0
 10
412.6164723965246
 20
711.6379027781912
 30
0.0
 41
0.7071067811865459
 10
412.81523072913
 20
711.4084975305074
 30
0.0
 41
1.0
  0
SPLINE
  5
102
330
7B
100
AcDbEntity
  8
0
  6
Continuous
 62
     0
370
    30
100
AcDbSpline
210
0.0
220
0.0
230
1.0
 70
    12
 71
     2
 72
     8
 73
     5
 74
     0
 42
0.000000001
 43
0.0
 40
-1.57079632679488
 40
-1.57079632679488
 40
-1.57079632679488
 40
-0.7853981633974418
 40
-0.7853981633974418
 40
0.0
 40
0.0
 40
0.0
 10
414.1036460385211
 20
710.1357599687177
 30
0.0
 41
1.0
 10
413.8492982993873
 20
709.9205322127
 30
0.0
 41
0.7071067811865471
 10
413.4188250398079
 20
710.0477205752775
 30
0.0
 41
1.0
 10
412.9883517802293
 20
710.1749089378555
 30
0.0
 41
0.7071067811865471
 10
413.2426995193639
 20
710.3901366938734
 30
0.0
 41
1.0
  0
SPLINE
  5
103
330
7B
100
AcDbEntity
  8
0
  6
Continuous
 62
     0
370
    30
100
AcDbSpline
210
0.0
220
0.0
230
1.0
 70
    12
 71
     2
 72
     6
 73
     3
 74
     0
 42
0.000000001
 43
0.0
 40
-0.78539816339744
 40
-0.78539816339744
 40
-0.78539816339744
 40
0.0
 40
0.0
 40
0.0
 10
413.927520518077
 20
710.4781760873137
 30
0.0
 41
1.0
 10
414.3579937776556
 20
710.3509877247358
 30
0.0
 41
0.707106781186548
 10
414.1036460385211
 20
710.1357599687177
 30
0.0
 41
1.0
  0
SPLINE
  5
104
330
7B
100
AcDbEntity
  8
0
  6
Continuous
 62
     0
370
    30
100
AcDbSpline
210
0.0
220
0.0
230
1.0
 70
    12
 71
     2
 72
     6
 73
     3
 74
     0
 42
0.000000001
 43
0.0
 40
-1.57079632679488
 40
-1.57079632679488
 40
-1.57079632679488
 40
-0.78539816339744
 40
-0.78539816339744
 40
-0.78539816339744
 10
413.2426995193639
 20
710.3901366938734
 30
0.0
 41
1.0
 10
413.4970472584976
 20
710.6053644498911
 30
0.0
 41
0.707106781186548
 10
413.927520518077
 20
710.4781760873137
 30
0.0
 41
1.0
  0
LINE
  5
105
330
7B
100
AcDbEntity
  8
0
  6
Continuous
 62
     0
370
     0
100
AcDbLine
 10
415.470489
 20
709.779894
 30
0.0
 11
415.470491
 21
709.827159
 31
0.0
  0
SPLINE
  5
106
330
7B
100
AcDbEntity
  8
0
  6
Continuous
 62
     0
370
    30
100
AcDbSpline
210
0.0
220
0.0
230
1.0
 70
    12
 71
     2
 72
     8
 73
     5
 74
     0
 42
0.000000001
 43
0.0
 40
-1.57079632679488
 40
-1.57079632679488
 40
-1.57079632679488
 40
-0.785398163397441
 40
-0.785398163397441
 40
0.0
 40
0.0
 40
0.0
 10
416.4660132644563
 20
709.8271142802264
 30
0.0
 41
1.0
 10
416.5132674545025
 20
709.5782319241603
 30
0.0
 41
0.7071067811865471
 10
416.0155054218624
 20
709.5546217701011
 30
0.0
 41
1.0
 10
415.5177433892221
 20
709.531011616042
 30
0.0
 41
0.7071067811865471
 10
415.4704891991759
 20
709.7798939721081
 30
0.0
 41
1.0
  0
SPLINE
  5
107
330
7B
100
AcDbEntity
  8
0
  6
Continuous
 62
     0
370
    30
100
AcDbSpline
210
0.0
220
0.0
230
1.0
 70
    12
 71
     2
 72
     6
 73
     3
 74
     0
 42
0.000000001
 43
0.0
 40
-0.7853981633974391
 40
-0.7853981633974391
 40
-0.7853981633974391
 40
0.0
 40
0.0
 40
0.0
 10
415.9209970417697
 20
710.0523864822333
 30
0.0
 41
1.0
 10
416.41875907441
 20
710.0759966362925
 30
0.0
 41
0.707106781186548
 10
416.4660132644563
 20
709.8271142802264
 30
0.0
 41
1.0
  0
SPLINE
  5
108
330
7B
100
AcDbEntity
  8
0
  6
Continuous
 62
     0
370
    30
100
AcDbSpline
210
0.0
220
0.0
230
1.0
 70
    12
 71
     2
 72
     6
 73
     3
 74
     0
 42
0.000000001
 43
0.0
 40
-1.57079632679488
 40
-1.57079632679488
 40
-1.57079632679488
 40
-0.7853981633974391
 40
-0.7853981633974391
 40
-0.7853981633974391
 10
415.4704891991759
 20
709.7798939721081
 30
0.0
 41
1.0
 10
415.4232350091295
 20
710.0287763281741
 30
0.0
 41
0.707106781186549
 10
415.9209970417697
 20
710.0523864822333
 30
0.0
 41
1.0
  0
LINE
  5
109
330
7B
100
AcDbEntity
  8
0
  6
Continuous
 62
     0
370
     0
100
AcDbLine
 10
416.876589
 20
710.819532
 30
0.0
 11
416.876601
 21
711.085857
 31
0.0
  0
SPLINE
  5
10A
330
7B
100
AcDbEntity
  8
0
  6
Continuous
 62
     0
370
    30
100
AcDbSpline
210
0.0
220
0.0
230
1.0
 70
    12
 71
     2
 72
     8
 73
     5
 74
     0
 42
0.000000001
 43
0.0
 40
-1.57079632679489
 40
-1.57079632679489
 40
-1.57079632679489
 40
-0.7853981633974451
 40
-0.7853981633974451
 40
0.0
 40
0.0
 40
0.0
 10
417.7229353638521
 20
711.0858191109688
 30
0.0
 41
1.0
 10
417.9892515274266
 20
710.874223602113
 30
0.0
 41
0.707106781186548
 10
417.5660781579498
 20
710.7410800436217
 30
0.0
 41
1.0
 10
417.142904788474
 20
710.6079364851307
 30
0.0
 41
0.707106781186548
 10
416.8765886248993
 20
710.8195319939865
 30
0.0
 41
1.0
  0
SPLINE
  5
10B
330
7B
100
AcDbEntity
  8
0
  6
Continuous
 62
     0
370
    30
100
AcDbSpline
210
0.0
220
0.0
230
1.0
 70
    12
 71
     2
 72
     6
 73
     3
 74
     0
 42
0.000000001
 43
0.0
 40
-0.7853981633974441
 40
-0.7853981633974441
 40
-0.7853981633974441
 40
0.0
 40
0.0
 40
0.0
 10
417.0334458308014
 20
711.1642710613337
 30
0.0
 41
1.0
 10
417.4566192002782
 20
711.297414619825
 30
0.0
 41
0.707106781186548
 10
417.7229353638521
 20
711.0858191109688
 30
0.0
 41
1.0
  0
SPLINE
  5
10C
330
7B
100
AcDbEntity
  8
0
  6
Continuous
 62
     0
370
    30
100
AcDbSpline
210
0.0
220
0.0
230
1.0
 70
    12
 71
     2
 72
     6
 73
     3
 74
     0
 42
0.000000001
 43
0.0
 40
-1.57079632679489
 40
-1.57079632679489
 40
-1.57079632679489
 40
-0.7853981633974441
 40
-0.7853981633974441
 40
-0.7853981633974441
 10
416.8765886248993
 20
710.8195319939865
 30
0.0
 41
1.0
 10
416.6102724613247
 20
711.0311275028422
 30
0.0
 41
0.707106781186548
 10
417.0334458308014
 20
711.1642710613337
 30
0.0
 41
1.0
  0
LINE
  5
10D
330
7B
100
AcDbEntity
  8
0
  6
Continuous
 62
     0
370
     0
100
AcDbLine
 10
417.688777
 20
712.105304
 30
0.0
 11
417.688771
 21
711.982779
 31
0.0
  0
LINE
  5
10E
330
7B
100
AcDbEntity
  8
0
  6
Continuous
 62
     0
370
     0
100
AcDbLine
 10
418.296043
 20
711.801636
 30
0.0
 11
418.296065
 21
712.286391
 31
0.0
  0
SPLINE
  5
10F
330
7B
100
AcDbEntity
  8
0
  6
Continuous
 62
     0
370
    30
100
AcDbSpline
210
0.0
220
0.0
230
1.0
 70
    12
 71
     2
 72
     8
 73
     5
 74
     0
 42
0.000000001
 43
0.0
 40
-1.57079632679489
 40
-1.57079632679489
 40
-1.57079632679489
 40
-0.7853981633974441
 40
-0.7853981633974441
 40
0.0
 40
0.0
 40
0.0
 10
418.051015423989
 20
712.2864022606268
 30
0.0
 41
1.0
 10
418.5357734349735
 20
712.3476427013629
 30
0.0
 41
0.707106781186548
 10
418.6582873950001
 20
712.105259791581
 30
0.0
 41
1.0
 10
418.7808013550273
 20
711.8628768817996
 30
0.0
 41
0.707106781186548
 10
418.2960433440429
 20
711.8016364410635
 30
0.0
 41
1.0
  0
SPLINE
  5
110
330
7B
100
AcDbEntity
  8
0
  6
Continuous
 62
     0
370
    30
100
AcDbSpline
210
0.0
220
0.0
230
1.0
 70
    12
 71
     2
 72
     6
 73
     3
 74
     0
 42
0.000000001
 43
0.0
 40
-0.7853981633974441
 40
-0.7853981633974441
 40
-0.7853981633974441
 40
0.0
 40
0.0
 40
0.0
 10
417.6887713730318
 20
711.9827789101095
 30
0.0
 41
1.0
 10
417.5662574130046
 20
712.2251618198909
 30
0.0
 41
0.7071067811865471
 10
418.051015423989
 20
712.2864022606268
 30
0.0
 41
1.0
  0
SPLINE
  5
111
330
7B
100
AcDbEntity
  8
0
  6
Continuous
 62
     0
370
    30
100
AcDbSpline
210
0.0
220
0.0
230
1.0
 70
    12
 71
     2
 72
     6
 73
     3
 74
     0
 42
0.000000001
 43
0.0
 40
-1.57079632679489
 40
-1.57079632679489
 40
-1.57079632679489
 40
-0.7853981633974441
 40
-0.7853981633974441
 40
-0.7853981633974441
 10
418.2960433440429
 20
711.8016364410635
 30
0.0
 41
1.0
 10
417.8112853330583
 20
711.7403960003276
 30
0.0
 41
0.7071067811865471
 10
417.6887713730319
 20
711.9827789101096
 30
0.0
 41
1.0
  0
LINE
  5
112
330
7B
100
AcDbEntity
  8
0
  6
Continuous
 62
     0
370
     0
100
AcDbLine
 10
416.866512
 20
712.780177
 30
0.0
 11
416.866513
 21
712.813446
 31
0.0
  0
SPLINE
  5
113
330
7B
100
AcDbEntity
  8
0
  6
Continuous
 62
     0
370
    30
100
AcDbSpline
210
0.0
220
0.0
230
1.0
 70
    12
 71
     2
 72
     6
 73
     3
 74
     0
 42
0.000000001
 43
0.0
 40
-0.7853981633974471
 40
-0.7853981633974471
 40
-0.7853981633974471
 40
0.0
 40
0.0
 40
0.0
 10
416.4009011577427
 20
713.0462785014857
 30
0.0
 41
1.0
 10
416.8997923186122
 20
713.02962118344
 30
0.0
 41
0.707106781186545
 10
416.8665115550793
 20
712.7801770007231
 30
0.0
 41
1.0
  0
SPLINE
  5
114
330
7B
100
AcDbEntity
  8
0
  6
Continuous
 62
     0
370
    30
100
AcDbSpline
210
0.0
220
0.0
230
1.0
 70
    12
 71
     2
 72
     6
 73
     3
 74
     0
 42
0.000000001
 43
0.0
 40
-1.57079632679489
 40
-1.57079632679489
 40
-1.57079632679489
 40
-0.7853981633974471
 40
-0.7853981633974471
 40
-0.7853981633974471
 10
415.86872923334
 20
712.8134916368147
 30
0.0
 41
1.0
 10
415.902009996873
 20
713.0629358195315
 30
0.0
 41
0.707106781186549
 10
416.4009011577427
 20
713.0462785014857
 30
0.0
 41
1.0
  0
SPLINE
  5
115
330
7B
100
AcDbEntity
  8
0
  6
Continuous
 62
     0
370
    30
100
AcDbSpline
210
0.0
220
0.0
230
1.0
 70
    12
 71
     2
 72
     8
 73
     5
 74
     0
 42
0.000000001
 43
0.0
 40
-1.57079632679489
 40
-1.57079632679489
 40
-1.57079632679489
 40
-0.7853981633974431
 40
-0.7853981633974431
 40
0.0
 40
0.0
 40
0.0
 10
416.8665115550793
 20
712.7801770007231
 30
0.0
 41
1.0
 10
416.8332307915463
 20
712.5307328180063
 30
0.0
 41
0.707106781186548
 10
416.3343396306767
 20
712.547390136052
 30
0.0
 41
1.0
 10
415.835448469807
 20
712.5640474540978
 30
0.0
 41
0.707106781186548
 10
415.86872923334
 20
712.8134916368147
 30
0.0
 41
1.0
  0
LINE
  5
116
330
7B
100
AcDbEntity
  8
0
  6
Continuous
 62
     0
370
     0
100
AcDbLine
 10
414.841938
 20
712.263638
 30
0.0
 11
414.841929
 21
712.077831
 31
0.0
  0
SPLINE
  5
117
330
7B
100
AcDbEntity
  8
0
  6
Continuous
 62
     0
370
    30
100
AcDbSpline
210
0.0
220
0.0
230
1.0
 70
    12
 71
     2
 72
     8
 73
     5
 74
     0
 42
0.000000001
 43
0.0
 40
-1.57079632679489
 40
-1.57079632679489
 40
-1.57079632679489
 40
-0.7853981633974451
 40
-0.7853981633974451
 40
0.0
 40
0.0
 40
0.0
 10
414.1919221342031
 20
711.93866763675
 30
0.0
 41
1.0
 10
413.7277327662534
 20
712.0315921792288
 30
0.0
 41
0.7071067811865471
 10
413.9135505003305
 20
712.2636803002965
 30
0.0
 41
1.0
 10
414.0993682344082
 20
712.4957684213648
 30
0.0
 41
0.7071067811865471
 10
414.5635576023573
 20
712.4028438788854
 30
0.0
 41
1.0
  0
SPLINE
  5
118
330
7B
100
AcDbEntity
  8
0
  6
Continuous
 62
     0
370
    30
100
AcDbSpline
210
0.0
220
0.0
230
1.0
 70
    12
 71
     2
 72
     6
 73
     3
 74
     0
 42
0.000000001
 43
0.0
 40
-0.7853981633974441
 40
-0.7853981633974441
 40
-0.7853981633974441
 40
0.0
 40
0.0
 40
0.0
 10
414.8419292362299
 20
712.0778312153387
 30
0.0
 41
1.0
 10
414.6561115021521
 20
711.8457430942706
 30
0.0
 41
0.707106781186548
 10
414.1919221342031
 20
711.93866763675
 30
0.0
 41
1.0
  0
SPLINE
  5
119
330
7B
100
AcDbEntity
  8
0
  6
Continuous
 62
     0
370
    30
100
AcDbSpline
210
0.0
220
0.0
230
1.0
 70
    12
 71
     2
 72
     6
 73
     3
 74
     0
 42
0.000000001
 43
0.0
 40
-1.57079632679489
 40
-1.57079632679489
 40
-1.57079632679489
 40
-0.7853981633974441
 40
-0.7853981633974441
 40
-0.7853981633974441
 10
414.5635576023573
 20
712.4028438788854
 30
0.0
 41
1.0
 10
415.0277469703071
 20
712.3099193364064
 30
0.0
 41
0.7071067811865471
 10
414.8419292362299
 20
712.0778312153387
 30
0.0
 41
1.0
  0
LINE
  5
11A
330
7B
100
AcDbEntity
  8
0
  6
Continuous
 62
     0
370
     0
100
AcDbLine
 10
414.633687
 20
711.223046
 30
0.0
 11
414.633669
 21
710.838989
 31
0.0
  0
SPLINE
  5
11B
330
7B
100
AcDbEntity
  8
0
  6
Continuous
 62
     0
370
    30
100
AcDbSpline
210
0.0
220
0.0
230
1.0
 70
    12
 71
     2
 72
     6
 73
     3
 74
     0
 42
0.000000001
 43
0.0
 40
-0.7853981633974461
 40
-0.7853981633974461
 40
-0.7853981633974461
 40
0.0
 40
0.0
 40
0.0
 10
414.6336694893686
 20
710.838989302523
 30
0.0
 41
1.0
 10
414.2496200038714
 20
710.9990849677739
 30
0.0
 41
0.7071067811865471
 10
414.5697855740136
 20
711.1910986248497
 30
0.0
 41
1.0
  0
SPLINE
  5
11C
330
7B
100
AcDbEntity
  8
0
  6
Continuous
 62
     0
370
    30
100
AcDbSpline
210
0.0
220
0.0
230
1.0
 70
    12
 71
     2
 72
     6
 73
     3
 74
     0
 42
0.000000001
 43
0.0
 40
-1.57079632679489
 40
-1.57079632679489
 40
-1.57079632679489
 40
-0.7853981633974461
 40
-0.7853981633974461
 40
-0.7853981633974461
 10
415.3378845450075
 20
710.8709072943476
 30
0.0
 41
1.0
 10
415.0177189748659
 20
710.6788936372719
 30
0.0
 41
0.7071067811865471
 10
414.6336694893686
 20
710.838989302523
 30
0.0
 41
1.0
  0
SPLINE
  5
11D
330
7B
100
AcDbEntity
  8
0
  6
Continuous
 62
     0
370
    30
100
AcDbSpline
210
0.0
220
0.0
230
1.0
 70
    12
 71
     2
 72
     8
 73
     5
 74
     0
 42
0.000000001
 43
0.0
 40
-1.57079632679489
 40
-1.57079632679489
 40
-1.57079632679489
 40
-0.7853981633974441
 40
-0.7853981633974441
 40
0.0
 40
0.0
 40
0.0
 10
414.5697855740136
 20
711.1910986248497
 30
0.0
 41
1.0
 10
414.8899511441551
 20
711.3831122819253
 30
0.0
 41
0.707106781186548
 10
415.2740006296524
 20
711.2230166166744
 30
0.0
 41
1.0
 10
415.6580501151496
 20
711.0629209514234
 30
0.0
 41
0.707106781186548
 10
415.3378845450075
 20
710.8709072943476
 30
0.0
 41
1.0
  0
LINE
  5
11E
330
7B
100
AcDbEntity
  8
0
  6
Continuous
 62
     0
370
     0
100
AcDbLine
 10
420.229193
 20
708.625135
 30
0.0
 11
420.229154
 21
707.759109
 31
0.0
  0
SPLINE
  5
11F
330
7B
100
AcDbEntity
  8
0
  6
Continuous
 62
     0
370
    30
100
AcDbSpline
210
0.0
220
0.0
230
1.0
 70
    12
 71
     2
 72
     6
 73
     3
 74
     0
 42
0.000000001
 43
0.0
 40
-23.5619449019234
 40
-23.5619449019234
 40
-23.5619449019234
 40
-11.7809724509617
 40
-11.7809724509617
 40
-11.7809724509617
 10
409.8868504851411
 20
709.8019144221491
 30
0.0
 41
1.0
 10
413.8815929387559
 20
706.6279817893089
 30
0.0
 41
0.707106781186548
 10
420.2291934809031
 20
708.6251351666778
 30
0.0
 41
1.0
  0
LINE
  5
120
330
7B
100
AcDbEntity
  8
0
  6
Continuous
 62
     0
370
     0
100
AcDbLine
 10
409.886811
 20
708.935889
 30
0.0
 11
409.88685
 21
709.801914
 31
0.0
  0
SPLINE
  5
121
330
7B
100
AcDbEntity
  8
0
  6
Continuous
 62
     0
370
    30
100
AcDbSpline
210
0.0
220
0.0
230
1.0
 70
    12
 71
     2
 72
     6
 73
     3
 74
     0
 42
0.000000001
 43
0.0
 40
-11.7809724509617
 40
-11.7809724509617
 40
-11.7809724509617
 40
-5.12224306789995
 40
-5.12224306789995
 40
-5.12224306789995
 10
420.2291934809031
 20
708.6251351666778
 30
0.0
 41
1.0
 10
423.2693964809437
 20
709.5816779814157
 30
0.0
 41
0.8344536760160693
 10
423.6842634684012
 20
711.3657173818413
 30
0.0
 41
0.8560443946418386
  0
SPLINE
  5
122
330
7B
100
AcDbEntity
  8
0
  6
Continuous
 62
     0
370
    30
100
AcDbSpline
210
0.0
220
0.0
230
1.0
 70
    12
 71
     2
 72
     6
 73
     3
 74
     0
 42
0.000000001
 43
0.0
 40
-3.453793264862115
 40
-3.453793264862115
 40
-3.453793264862115
 40
0.0
 40
0.0
 40
0.0
 10
408.7845993454136
 20
711.366392505188
 30
0.0
 41
0.8786132510867753
 10
408.9809522134254
 20
710.5216754881046
 30
0.0
 41
0.9141333509884315
 10
409.8868504851411
 20
709.8019144221491
 30
0.0
 41
1.0
  0
LINE
  5
123
330
7B
100
AcDbEntity
  8
0
  6
Continuous
 62
     0
370
    30
100
AcDbLine
 10
408.234458
 20
710.933394
 30
0.0
 11
408.234504
 21
711.941177
 31
0.0
  0
LINE
  5
124
330
7B
100
AcDbEntity
  8
0
  6
Continuous
 62
     0
370
    30
100
AcDbLine
 10
424.234458
 20
710.932669
 30
0.0
 11
424.234504
 21
711.94045
 31
0.0
  0
SPLINE
  5
125
330
7B
100
AcDbEntity
  8
0
  6
Continuous
 62
     0
370
     0
100
AcDbSpline
210
0.0
220
0.0
230
1.0
 70
     8
 71
     3
 72
    25
 73
    21
 74
     0
 42
0.000000001
 43
0.0
 40
0.0
 40
0.0
 40
0.0
 40
0.0
 40
0.017287159795259
 40
0.051861479385778
 40
0.076996925908164
 40
0.112740992305858
 40
0.164609455289785
 40
0.206036394241346
 40
0.242217207976323
 40
0.305472579554517
 40
0.360892552861089
 40
0.4107243373895971
 40
0.456513850737288
 40
0.50000881154421
 40
0.5435051176066971
 40
0.589290302202794
 40
0.6391214844027191
 40
0.694542480036373
 40
0.7577987981595331
 40
0.7897577246630193
 40
0.7897577246630193
 40
0.7897577246630193
 40
0.7897577246630193
 10
416.2473220315033
 20
757.5127676324345
 30
0.0
 10
416.5538971117605
 20
757.5122055953218
 30
0.0
 10
417.4735820945884
 20
757.4876545372019
 30
0.0
 10
418.8342324138205
 20
757.3252197255038
 30
0.0
 10
420.466557497696
 20
756.9710064366012
 30
0.0
 10
422.3218639412829
 20
756.3713618479615
 30
0.0
 10
424.2809663876806
 20
755.4151786422564
 30
0.0
 10
426.0346743709731
 20
754.2179926608143
 30
0.0
 10
427.7432401524081
 20
752.7276702688957
 30
0.0
 10
429.3418922637464
 20
750.8510921267859
 30
0.0
 10
430.7051569670865
 20
748.5270549277619
 30
0.0
 10
431.6055174510624
 20
746.2064410711156
 30
0.0
 10
432.1296746405367
 20
743.8721895535181
 30
0.0
 10
432.3071225814633
 20
741.5129767417351
 30
0.0
 10
432.1291032059907
 20
739.1541090751404
 30
0.0
 10
431.6057240812708
 20
736.8195021410272
 30
0.0
 10
430.7052284002459
 20
734.4990103335257
 30
0.0
 10
429.3419353237157
 20
732.175026858264
 30
0.0
 10
427.7869083936966
 20
730.3494840534848
 30
0.0
 10
426.639170856092
 20
729.3361124823375
 30
0.0
 10
426.2352893230545
 20
729.0133685300937
 30
0.0
  0
LINE
  5
126
330
7B
100
AcDbEntity
  8
0
  6
Continuous
 62
     0
370
     0
100
AcDbLine
 10
416.247322
 20
705.933041
 30
0.0
 11
416.247322
 21
481.54168
 31
0.0
  0
LINE
  5
127
330
7B
100
AcDbEntity
  8
0
  6
Continuous
 62
     0
370
    30
100
AcDbLine
 10
436.248892
 20
762.012776
 30
0.0
 11
416.247322
 21
762.012776
 31
0.0
  0
LINE
  5
128
330
7B
100
AcDbEntity
  8
0
  6
Continuous
 62
     0
370
     0
100
AcDbLine
 10
416.247322
 20
762.012769
 30
0.0
 11
416.247322
 21
757.512768
 31
0.0
  0
SPLINE
  5
129
330
7B
100
AcDbEntity
  8
0
  6
Continuous
 62
     0
370
     0
100
AcDbSpline
210
0.0
220
0.0
230
1.0
 70
     8
 71
     3
 72
    25
 73
    21
 74
     0
 42
0.000000001
 43
0.0
 40
0.2108886791508
 40
0.2108886791508
 40
0.2108886791508
 40
0.2108886791508
 40
0.242201201840468
 40
0.305457519963629
 40
0.360878515597281
 40
0.410709697797205
 40
0.4564948823933029
 40
0.4999911884557891
 40
0.543486149262712
 40
0.5892756626104021
 40
0.6391074471389099
 40
0.694527420445484
 40
0.7577827920236772
 40
0.793963605758653
 40
0.835390544710215
 40
0.8872590076941421
 40
0.9230030740918369
 40
0.9481385206142219
 40
0.9827128402047409
 40
1.0
 40
1.0
 40
1.0
 40
1.0
 10
406.235292535754
 20
729.0329733996784
 30
0.0
 10
405.840354712059
 20
729.3498782532578
 30
0.0
 10
404.7016323132493
 20
730.3573177455517
 30
0.0
 10
403.1534671239255
 20
732.175026858934
 30
0.0
 10
401.7903810092507
 20
734.4990103342653
 30
0.0
 10
400.8900460282263
 20
736.819502141813
 30
0.0
 10
400.3667714713688
 20
739.1541090759528
 30
0.0
 10
400.1887898757591
 20
741.5129767425568
 30
0.0
 10
400.3662001531015
 20
743.8721895543306
 30
0.0
 10
400.8902526161569
 20
746.2064410719013
 30
0.0
 10
401.7904524332049
 20
748.5270549285016
 30
0.0
 10
403.153510177063
 20
750.851092127456
 30
0.0
 10
404.7519672811509
 20
752.727670269484
 30
0.0
 10
406.4603669244748
 20
754.2179926613148
 30
0.0
 10
408.2139352370792
 20
755.4151786426675
 30
0.0
 10
410.1729217161052
 20
756.3713618482725
 30
0.0
 10
412.0281538853103
 20
756.9710064368171
 30
0.0
 10
413.6604347432774
 20
757.3252197256362
 30
0.0
 10
415.0210652881268
 20
757.4876545372647
 30
0.0
 10
415.9407469512461
 20
757.5122055953375
 30
0.0
 10
416.2473220315033
 20
757.5127676324345
 30
0.0
  0
LINE
  5
12A
330
7B
100
AcDbEntity
  8
0
  6
Continuous
 62
     0
370
    30
100
AcDbLine
 10
416.247322
 20
762.012776
 30
0.0
 11
396.248892
 21
762.012776
 31
0.0
  0
LINE
  5
12B
330
7B
100
AcDbEntity
  8
0
  6
Continuous
 62
     0
370
     0
100
AcDbLine
 10
416.247092
 20
753.685022
 30
0.0
 11
416.247275
 21
757.512768
 31
0.0
  0
LINE
  5
12C
330
7B
100
AcDbEntity
  8
0
  6
Continuous
 62
     0
370
     0
100
AcDbLine
 10
416.246844
 20
751.512767
 30
0.0
 11
416.247092
 21
753.685022
 31
0.0
  0
ARC
  5
12D
330
7B
100
AcDbEntity
  8
0
  6
Continuous
 62
     0
370
    30
100
AcDbCircle
 10
416.247248
 20
741.512949
 30
0.0
 40
9.999818015775546
100
AcDbArc
 50
357.402919
 51
90.002317
  0
ARC
  5
12E
330
7B
100
AcDbEntity
  8
0
  6
Continuous
 62
     0
370
    30
100
AcDbCircle
 10
416.23708
 20
741.512606
 30
0.0
 40
10.00012141945131
100
AcDbArc
 50
359.774411
 51
89.99807
  0
ARC
  5
12F
330
7B
100
AcDbEntity
  8
0
  6
Continuous
 62
     0
370
    30
100
AcDbCircle
 10
416.237326
 20
741.512605
 30
0.0
 40
10.00012203803397
100
AcDbArc
 50
90.001929
 51
179.669009
  0
LINE
  5
130
330
7B
100
AcDbEntity
  8
0
  6
Continuous
 62
     0
370
     0
100
AcDbLine
 10
416.237417
 20
751.512728
 30
0.0
 11
416.234698
 21
731.512716
 31
0.0
  0
SPLINE
  5
131
330
7B
100
AcDbEntity
  8
0
  6
Continuous
 62
     0
370
     0
100
AcDbSpline
210
0.0
220
0.0
230
1.0
 70
     8
 71
     3
 72
    16
 73
    12
 74
     0
 42
0.000000001
 43
0.0
 40
0.0
 40
0.0
 40
0.0
 40
0.0
 40
0.023809522688812
 40
0.071428568066435
 40
0.142857127061636
 40
0.214285690732392
 40
0.285714281432774
 40
0.357142857835291
 40
0.4285714241738221
 40
0.5000000000010301
 40
0.5000220165607889
 40
0.5000220165607889
 40
0.5000220165607889
 40
0.5000220165607889
 10
416.2346975441338
 20
731.512716119473
 30
0.0
 10
416.4835074741274
 20
731.512713461098
 30
0.0
 10
417.2299385624422
 20
731.4987765474309
 30
0.0
 10
418.7165942961957
 20
731.3869154011359
 30
0.0
 10
420.6098022587469
 20
731.0554993740067
 30
0.0
 10
422.5223312758539
 20
730.4547473007417
 30
0.0
 10
424.1190516229163
 20
729.6563566910974
 30
0.0
 10
425.3205868461691
 20
728.7003225217725
 30
0.0
 10
426.0665005713845
 20
727.6345948313956
 30
0.0
 10
426.2351537071541
 20
726.886490482282
 30
0.0
 10
426.2351625928554
 20
726.5123815453998
 30
0.0
 10
426.2351625875864
 20
726.5122662686545
 30
0.0
  0
LINE
  5
132
330
7B
100
AcDbEntity
  8
0
  6
Continuous
 62
     0
370
     0
100
AcDbLine
 10
416.234484
 20
731.512716
 30
0.0
 11
416.233778
 21
715.933026
 31
0.0
  0
ELLIPSE
  5
133
330
7B
100
AcDbEntity
  8
0
  6
Continuous
 62
     0
370
    30
100
AcDbEllipse
 10
416.234458
 20
710.933032
 30
0.0
 11
-9.999999989732245
 21
0.0004531612418279934
 31
0.0
210
0.0
220
0.0
230
-1.0
 40
0.499999
 41
1.570705694500745
 42
4.712298348090549
  0
SPLINE
  5
134
330
7B
100
AcDbEntity
  8
0
  6
Continuous
 62
     0
370
     0
100
AcDbSpline
210
0.0
220
0.0
230
1.0
 70
     8
 71
     3
 72
    15
 73
    11
 74
     0
 42
0.000000001
 43
0.0
 40
0.0
 40
0.0
 40
0.0
 40
0.0
 40
0.023809522687721
 40
0.071428568063163
 40
0.142857127056399
 40
0.214285690722894
 40
0.285714281420303
 40
0.357142857821214
 40
0.428571424156606
 40
0.4999712847938416
 40
0.4999712847938416
 40
0.4999712847938416
 40
0.4999712847938416
 10
416.2342703047699
 20
731.512716119473
 30
0.0
 10
415.9854637470566
 20
731.5127134611625
 30
0.0
 10
415.2390465627537
 20
731.4987769251818
 30
0.0
 10
413.7524412189897
 20
731.3869188217378
 30
0.0
 10
411.8593463771366
 20
731.0555116971246
 30
0.0
 10
409.9469978924484
 20
730.4547752009831
 30
0.0
 10
408.350499554102
 20
729.6564041249035
 30
0.0
 10
407.1492145523754
 20
728.7003913832793
 30
0.0
 10
406.4036649917225
 20
727.6348274496354
 30
0.0
 10
406.2351816610241
 20
726.8870082423568
 30
0.0
 10
406.2351647462121
 20
726.513170020472
 30
0.0
  0
ELLIPSE
  5
135
330
7B
100
AcDbEntity
  8
0
  6
Continuous
 62
     0
370
    30
100
AcDbEllipse
 10
416.234458
 20
710.933032
 30
0.0
 11
-9.999999989732245
 21
0.0004531612418395404
 31
0.0
210
0.0
220
0.0
230
-1.0
 40
0.499999
 41
4.712298348090542
 42
7.853891001680337
  0
ELLIPSE
  5
136
330
7B
100
AcDbEntity
  8
0
  6
Continuous
 62
     0
370
    30
100
AcDbEllipse
 10
416.234458
 20
710.933032
 30
0.0
 11
8.249999991529101
 21
-0.0003738580245080946
 31
0.0
210
0.0
220
0.0
230
1.0
 40
0.499999
 41
0.000090632294155
 42
3.141683285883948
  0
ELLIPSE
  5
137
330
7B
100
AcDbEntity
  8
0
  6
Continuous
 62
     0
370
    30
100
AcDbEllipse
 10
416.234458
 20
710.933032
 30
0.0
 11
8.249999991529101
 21
-0.0003738580245080946
 31
0.0
210
0.0
220
0.0
230
1.0
 40
0.499999
 41
3.141683285883948
 42
6.283275939473741
  0
LINE
  5
138
330
7B
100
AcDbEntity
  8
0
  6
Continuous
 62
     0
370
    30
100
AcDbLine
 10
406.234458
 20
710.933485
 30
0.0
 11
406.235164
 21
726.513172
 31
0.0
  0
SPLINE
  5
139
330
7B
100
AcDbEntity
  8
0
  6
Continuous
 62
     0
370
    30
100
AcDbSpline
210
0.0
220
0.0
230
1.0
 70
     8
 71
     3
 72
    64
 73
    60
 74
     0
 42
0.000000001
 43
0.0
 40
0.0
 40
0.0
 40
0.0
 40
0.0
 40
2.107901933484241
 40
6.152091588007962
 40
9.036210955053145
 40
13.36942705174261
 40
15.77842963695006
 40
18.18742806715343
 40
20.11403089822857
 40
23.0015625858128
 40
24.44374463737657
 40
25.88514583368087
 40
26.84600837757976
 40
28.25980210102452
 40
29.16538864768164
 40
29.61820538522004
 40
30.06801232279147
 40
30.51790651680295
 40
30.74332775456825
 40
30.96931204993036
 40
31.02637582437188
 40
31.08345375052382
 40
31.14247657747772
 40
31.20152839746795
 40
31.2346788874674
 40
31.26784275584359
 40
31.31252444825148
 40
31.35722630647085
 40
31.41247750277056
 40
31.46773974705826
 40
31.52051232704864
 40
31.5732878602618
 40
31.67753304344935
 40
31.78178137141123
 40
31.88570078046988
 40
31.98962106189101
 40
32.1966158832815
 40
32.4036113455076
 40
32.61056348434016
 40
32.81751507729249
 40
33.42689871551796
 40
33.63002747644455
 40
34.03628105743483
 40
34.44253522350966
 40
35.19282253689657
 40
36.13068563202156
 40
37.81852510122617
 40
38.56820688149845
 40
39.69273687931536
 40
40.8175922263957
 40
42.13064388569368
 40
43.87225145495333
 40
44.514474436988
 40
44.94238226126947
 40
45.58386889490865
 40
46.01150676947265
 40
46.22535845257688
 40
46.43920749083998
 40
46.65279511715254
 40
46.65279511715254
 40
46.65279511715254
 40
46.65279511715254
 10
406.2351647462846
 20
726.513170020472
 30
0.0
 10
406.2351923159668
 20
727.1215553194772
 30
0.0
 10
406.2352777213398
 20
728.8616300381648
 30
0.0
 10
406.2354231957626
 20
731.2445160041036
 30
0.0
 10
406.2356300193417
 20
733.9244733543144
 30
0.0
 10
406.2358273730902
 20
735.9316152462093
 30
0.0
 10
406.2360302036903
 20
737.5580283086225
 30
0.0
 10
406.2361868242942
 20
738.5988309787125
 30
0.0
 10
406.2363603463875
 20
739.5563346009169
 30
0.0
 10
406.2365155647508
 20
740.2314702783153
 30
0.0
 10
406.2366619217
 20
740.7206985470074
 30
0.0
 10
406.2367604395817
 20
740.986329642666
 30
0.0
 10
406.2368598172445
 20
741.2012070156399
 30
0.0
 10
406.2369450115241
 20
741.3423849368924
 30
0.0
 10
406.2370210206981
 20
741.4293904390383
 30
0.0
 10
406.2370699796035
 20
741.4722246083331
 30
0.0
 10
406.2371137518309
 20
741.5005516922871
 30
0.0
 10
406.2371471320928
 20
741.5195937018591
 30
0.0
 10
406.237213963609
 20
741.5401203353907
 30
0.0
 10
406.2372393612636
 20
741.5501181182725
 30
0.0
 10
406.2373618800841
 20
741.5715248857935
 30
0.0
 10
406.2373952564632
 20
741.5774838212405
 30
0.0
 10
406.2375730093341
 20
741.6000542852927
 30
0.0
 10
406.2376460934589
 20
741.6086412718761
 30
0.0
 10
406.237931902601
 20
741.634199094962
 30
0.0
 10
406.238132800124
 20
741.6501143797127
 30
0.0
 10
406.2386992027114
 20
741.6869750125903
 30
0.0
 10
406.2393321525965
 20
741.7203289753725
 30
0.0
 10
406.2405493586722
 20
741.773137822466
 30
0.0
 10
406.2419618691337
 20
741.8222769150095
 30
0.0
 10
406.243774969384
 20
741.8761601405793
 30
0.0
 10
406.2464377689199
 20
741.9443468720617
 30
0.0
 10
406.2505196278819
 20
742.0317049064402
 30
0.0
 10
406.2564275129195
 20
742.1349081865374
 30
0.0
 10
406.2634484635163
 20
742.2387776217347
 30
0.0
 10
406.2741913569463
 20
742.3764117578235
 30
0.0
 10
406.290296588867
 20
742.5483632668057
 30
0.0
 10
406.3138451804756
 20
742.7539139444411
 30
0.0
 10
406.341648037546
 20
742.9590296941212
 30
0.0
 10
406.3944419183497
 20
743.2960041581125
 30
0.0
 10
406.4607516506703
 20
743.6294709004355
 30
0.0
 10
406.5561341750622
 20
744.0243885087293
 30
0.0
 10
406.6456171824018
 20
744.3509736314265
 30
0.0
 10
406.8035648617175
 20
744.8475012713616
 30
0.0
 10
407.0534478404998
 20
745.4999206143968
 30
0.0
 10
407.5437839786997
 20
746.5142068226371
 30
0.0
 10
408.1640081579443
 20
747.4577464272177
 30
0.0
 10
408.9325576434891
 20
748.3639345136805
 30
0.0
 10
409.6488571555049
 20
749.0635591074695
 30
0.0
 10
410.5875421513704
 20
749.7939584982888
 30
0.0
 10
411.785560721306
 20
750.5110081965506
 30
0.0
 10
412.9313139010534
 20
750.9772166381244
 30
0.0
 10
413.8357330297023
 20
751.2250053419452
 30
0.0
 10
414.3933922594613
 20
751.3462103310815
 30
0.0
 10
414.8862629349014
 20
751.4259761049469
 30
0.0
 10
415.3115882672568
 20
751.4715223903779
 30
0.0
 10
415.59592139315
 20
751.4929960154102
 30
0.0
 10
415.8094052157036
 20
751.5039458218637
 30
0.0
 10
415.9517952277929
 20
751.5097185158547
 30
0.0
 10
416.0229938856399
 20
751.5104318736857
 30
0.0
  0
LINE
  5
13A
330
7B
100
AcDbEntity
  8
0
  6
Continuous
 62
     0
370
    30
100
AcDbLine
 10
426.235164
 20
726.512268
 30
0.0
 11
426.234458
 21
710.932579
 31
0.0
  0
LINE
  5
13B
330
7B
100
AcDbEntity
  8
0
  6
Continuous
 62
     0
370
    30
100
AcDbLine
 10
426.235163
 20
726.512266
 30
0.0
 11
426.237097
 21
741.473233
 31
0.0
  0
LINE
  5
13C
330
7B
100
AcDbEntity
  8
0
  6
Continuous
 62
     0
370
    30
100
AcDbLine
 10
396.248892
 20
762.012776
 30
0.0
 11
396.248892
 21
481.541687
 31
0.0
  0
LINE
  5
13D
330
7B
100
AcDbEntity
  8
0
  6
Continuous
 62
     0
370
    30
100
AcDbLine
 10
436.248892
 20
481.541687
 30
0.0
 11
436.248892
 21
762.012776
 31
0.0
  0
ENDBLK
  5
13F
330
7B
100
AcDbEntity
  8
0
100
AcDbBlockEnd
  0
BLOCK
  5
16B
330
141
100
AcDbEntity
  8
0
100
AcDbBlockBegin
  2
b
 70
     0
 10
361.39743
 20
102.135033
 30
0.0
  3
b
  1

  0
ARC
  5
142
330
141
100
AcDbEntity
  8
0
  6
Continuous
 62
     0
370
     0
100
AcDbCircle
 10
416.248892
 20
291.300833
 30
0.0
 40
26.77381252757334
100
AcDbArc
 50
90.0
 51
247.992014
  0
ARC
  5
143
330
141
100
AcDbEntity
  8
0
  6
Continuous
 62
     0
370
     0
100
AcDbCircle
 10
416.248892
 20
291.300833
 30
0.0
 40
26.77381252757334
100
AcDbArc
 50
291.998992
 51
90.0
  0
ARC
  5
144
330
141
100
AcDbEntity
  8
0
  6
Continuous
 62
     0
370
     0
100
AcDbCircle
 10
416.248892
 20
291.300833
 30
0.0
 40
26.97380497977826
100
AcDbArc
 50
90.0
 51
248.186354
  0
ARC
  5
145
330
141
100
AcDbEntity
  8
0
  6
Continuous
 62
     0
370
     0
100
AcDbCircle
 10
416.248892
 20
291.300833
 30
0.0
 40
26.97380497977826
100
AcDbArc
 50
291.804652
 51
90.0
  0
ARC
  5
146
330
141
100
AcDbEntity
  8
0
  6
Continuous
 62
     0
370
    30
100
AcDbCircle
 10
416.248892
 20
291.300833
 30
0.0
 40
27.00000179246894
100
AcDbArc
 50
90.0
 51
248.211221
  0
ARC
  5
147
330
141
100
AcDbEntity
  8
0
  6
Continuous
 62
     0
370
    30
100
AcDbCircle
 10
416.248892
 20
291.300833
 30
0.0
 40
27.00000179246894
100
AcDbArc
 50
291.779785
 51
90.0
  0
LINE
  5
148
330
141
100
AcDbEntity
  8
0
  6
Continuous
 62
     0
370
    30
100
AcDbLine
 10
411.742604
 20
213.501086
 30
0.0
 11
420.742604
 21
213.500359
 31
0.0
  0
ARC
  5
149
330
141
100
AcDbEntity
  8
0
  6
Continuous
 62
     0
370
    30
100
AcDbCircle
 10
411.742645
 20
214.001086
 30
0.0
 40
0.499999999999955
100
AcDbArc
 50
179.99537
 51
269.99537
  0
LINE
  5
14A
330
141
100
AcDbEntity
  8
0
  6
Continuous
 62
     0
370
     0
100
AcDbLine
 10
411.242645
 20
214.001126
 30
0.0
 11
421.242645
 21
214.000318
 31
0.0
  0
LINE
  5
14B
330
141
100
AcDbEntity
  8
0
  6
Continuous
 62
     0
370
     0
100
AcDbLine
 10
411.246952
 20
267.301126
 30
0.0
 11
416.24696
 21
267.300721
 31
0.0
  0
LINE
  5
14C
330
141
100
AcDbEntity
  8
0
  6
Continuous
 62
     0
370
    30
100
AcDbLine
 10
411.246952
 20
267.301126
 30
0.0
 11
411.242645
 21
214.001126
 31
0.0
  0
LINE
  5
14D
330
141
100
AcDbEntity
  8
0
  6
Continuous
 62
     0
370
     0
100
AcDbLine
 10
416.24696
 20
267.300721
 30
0.0
 11
421.246952
 21
267.300319
 31
0.0
  0
SPLINE
  5
14E
330
141
100
AcDbEntity
  8
0
  6
Continuous
 62
     0
370
     0
100
AcDbSpline
210
0.0
220
0.0
230
1.0
 70
     8
 71
     7
 72
    21
 73
    13
 74
     0
 42
0.000000001
 43
0.0
 40
0.0
 40
0.0
 40
0.0
 40
0.0
 40
0.0
 40
0.0
 40
0.0
 40
0.0
 40
0.6599999999999999
 40
0.6599999999999999
 40
0.6599999999999999
 40
0.6599999999999999
 40
0.6599999999999999
 40
1.0
 40
1.0
 40
1.0
 40
1.0
 40
1.0
 40
1.0
 40
1.0
 40
1.0
 10
416.2472606840916
 20
271.1007191395305
 30
0.0
 10
416.2472606800591
 20
271.1007193377253
 30
0.0
 10
416.2472558267568
 20
271.0441652915565
 30
0.0
 10
416.2472445968995
 20
270.9123494493656
 30
0.0
 10
416.247225495666
 20
270.6881489614266
 30
0.0
 10
416.2471918222627
 20
270.2871266225902
 30
0.0
 10
416.2471320481698
 20
269.5678993403612
 30
0.0
 10
416.247064696321
 20
268.7479422094561
 30
0.0
 10
416.2470413391558
 20
268.462512487167
 30
0.0
 10
416.2470177993408
 20
268.1738051360042
 30
0.0
 10
416.2469941874399
 20
267.8832086719674
 30
0.0
 10
416.2469706015827
 20
267.5919647108085
 30
0.0
 10
416.2469470911797
 20
267.3007207454084
 30
0.0
  0
ARC
  5
14F
330
141
100
AcDbEntity
  8
0
  6
Continuous
 62
     0
370
    30
100
AcDbCircle
 10
416.248891
 20
291.300718
 30
0.0
 40
20.2
100
AcDbArc
 50
179.99537
 51
269.995375
  0
ARC
  5
150
330
141
100
AcDbEntity
  8
0
  6
Continuous
 62
     0
370
    30
100
AcDbCircle
 10
416.248891
 20
291.300718
 30
0.0
 40
20.2
100
AcDbArc
 50
89.995375
 51
179.99537
  0
ARC
  5
151
330
141
100
AcDbEntity
  8
0
  6
Continuous
 62
     0
370
    30
100
AcDbCircle
 10
416.248891
 20
291.300718
 30
0.0
 40
20.2
100
AcDbArc
 50
269.995374
 51
89.995376
  0
ARC
  5
152
330
141
100
AcDbEntity
  8
0
  6
Continuous
 62
     0
370
     0
100
AcDbCircle
 10
416.248891
 20
291.300718
 30
0.0
 40
19.70000000000001
100
AcDbArc
 50
359.99537
 51
179.99537
  0
ARC
  5
153
330
141
100
AcDbEntity
  8
0
  6
Continuous
 62
     0
370
     0
100
AcDbCircle
 10
416.248891
 20
291.300718
 30
0.0
 40
19.70000000000001
100
AcDbArc
 50
179.99537
 51
359.99537
  0
SPLINE
  5
154
330
141
100
AcDbEntity
  8
0
  6
Continuous
 62
     0
370
    30
100
AcDbSpline
210
0.0
220
0.0
230
1.0
 70
     8
 71
     3
 72
    17
 73
    13
 74
     0
 42
0.000000001
 43
0.0
 40
0.0
 40
0.0
 40
0.0
 40
0.0
 40
0.4654875640367381
 40
2.093144073693268
 40
3.021576684097602
 40
3.601942728026999
 40
4.881621431696353
 40
6.048510872999375
 40
6.515607816844518
 40
6.982639316529472
 40
7.216117059469055
 40
7.603758276496169
 40
7.603758276496169
 40
7.603758276496169
 40
7.603758276496169
 10
421.2469518463382
 20
267.3003184589076
 30
0.0
 10
421.2469643855496
 20
267.4554670324756
 30
0.0
 10
421.264188204272
 20
268.1530509121204
 30
0.0
 10
421.4169642464022
 20
269.1562231398498
 30
0.0
 10
421.8042398357892
 20
270.1309285491847
 30
0.0
 10
422.2706337758353
 20
270.9348132727753
 30
0.0
 10
422.9275803739598
 20
271.7045398952599
 30
0.0
 10
423.688533981925
 20
272.305409239606
 30
0.0
 10
424.2739507648508
 20
272.6847926181097
 30
0.0
 10
424.6089205142588
 20
272.8804670252913
 30
0.0
 10
424.9264243110945
 20
273.0533283468023
 30
0.0
 10
425.110250141657
 20
273.147821602782
 30
0.0
 10
425.2258942440832
 20
273.2050479802498
 30
0.0
  0
SPLINE
  5
155
330
141
100
AcDbEntity
  8
0
  6
Continuous
 62
     0
370
    30
100
AcDbSpline
210
0.0
220
0.0
230
1.0
 70
     8
 71
     3
 72
    17
 73
    13
 74
     0
 42
0.000000001
 43
0.0
 40
0.0
 40
0.0
 40
0.0
 40
0.0
 40
0.4654875640008912
 40
2.093144072974703
 40
3.021576683147833
 40
3.601942727346763
 40
4.881621432207393
 40
6.048510874145061
 40
6.515607818026064
 40
6.982639317738462
 40
7.216117060747678
 40
7.603757956075204
 40
7.603757956075204
 40
7.603757956075204
 40
7.603757956075204
 10
411.2469556322737
 20
267.3011260204065
 30
0.0
 10
411.2469681362275
 20
267.456274593963
 30
0.0
 10
411.2298569161268
 20
268.1538612444313
 30
0.0
 10
411.0772427879687
 20
269.1570581177967
 30
0.0
 10
410.6901245084136
 20
270.131826015535
 30
0.0
 10
410.2238603097638
 20
270.9357859977673
 30
0.0
 10
409.5670379463507
 20
271.7056186340782
 30
0.0
 10
408.8061813311229
 20
272.306610791756
 30
0.0
 10
408.2208257932485
 20
272.6860886598904
 30
0.0
 10
407.8858876335257
 20
272.8818171349148
 30
0.0
 10
407.5684118383686
 20
273.0547296550159
 30
0.0
 10
407.3846013599406
 20
273.1492525369018
 30
0.0
 10
407.2689665941114
 20
273.2064975368289
 30
0.0
  0
LINE
  5
156
330
141
100
AcDbEntity
  8
0
  6
Continuous
 62
     0
370
    30
100
AcDbLine
 10
421.242645
 20
214.000318
 30
0.0
 11
421.246952
 21
267.300318
 31
0.0
  0
ARC
  5
157
330
141
100
AcDbEntity
  8
0
  6
Continuous
 62
     0
370
    30
100
AcDbCircle
 10
420.742642
 20
214.000361
 30
0.0
 40
0.50000247613936
100
AcDbArc
 50
269.995655
 51
359.995086
  0
SPLINE
  5
158
330
141
100
AcDbEntity
  8
0
  6
Continuous
 62
     0
370
     0
100
AcDbSpline
210
0.0
220
0.0
230
1.0
 70
     8
 71
     3
 72
    12
 73
     8
 74
     0
 42
0.000000001
 43
0.0
 40
0.4621613296591419
 40
0.4621613296591419
 40
0.4621613296591419
 40
0.4621613296591419
 40
0.504933507711649
 40
0.5800802031291221
 40
0.6523829390499369
 40
0.723151725913309
 40
0.8212415082078257
 40
0.8212415082078257
 40
0.8212415082078257
 40
0.8212415082078257
 10
426.2470250325725
 20
265.1844958815581
 30
0.0
 10
426.2470250403991
 20
265.1844957274704
 30
0.0
 10
426.1757825172963
 20
265.1845008961869
 30
0.0
 10
425.7448302447208
 20
265.1845340792839
 30
0.0
 10
424.8197210960804
 20
265.1846058729542
 30
0.0
 10
423.3837280614412
 20
265.1847183393966
 30
0.0
 10
422.0767179027254
 20
265.1848191026351
 30
0.0
 10
421.2467808985004
 20
265.1848842548724
 30
0.0
  0
LINE
  5
159
330
141
100
AcDbEntity
  8
0
  6
Continuous
 62
     0
370
     0
100
AcDbLine
 10
416.237417
 20
142.377935
 30
0.0
 11
416.243121
 21
213.500724
 31
0.0
  0
SPLINE
  5
15A
330
141
100
AcDbEntity
  8
0
  6
Continuous
 62
     0
370
     0
100
AcDbSpline
210
0.0
220
0.0
230
1.0
 70
     8
 71
     3
 72
    15
 73
    11
 74
     0
 42
0.000000001
 43
0.0
 40
0.5
 40
0.5
 40
0.5
 40
0.5
 40
0.5714285758192951
 40
0.6428571421593089
 40
0.714285718563603
 40
0.7857143092655658
 40
0.8571428729374272
 40
0.9285714319333058
 40
0.9761904773111022
 40
1.0
 40
1.0
 40
1.0
 40
1.0
 10
426.2372017921908
 20
142.377153341973
 30
0.0
 10
426.2372177757262
 20
142.3771530642505
 30
0.0
 10
426.0686923161139
 20
142.3771657388599
 30
0.0
 10
425.3229234750789
 20
142.377223486362
 30
0.0
 10
424.1215182233015
 20
142.3773170778086
 30
0.0
 10
422.5249064162987
 20
142.3774418055119
 30
0.0
 10
420.6124590705732
 20
142.3775914692141
 30
0.0
 10
418.7192961635527
 20
142.3777398183842
 30
0.0
 10
417.2326556371585
 20
142.3778564219592
 30
0.0
 10
416.4862264435453
 20
142.3779149988105
 30
0.0
 10
416.2374165139123
 20
142.3779345278754
 30
0.0
  0
LINE
  5
15B
330
141
100
AcDbEntity
  8
0
  6
Continuous
 62
     0
370
     0
100
AcDbLine
 10
406.246659
 20
265.186066
 30
0.0
 11
411.246781
 21
265.185669
 31
0.0
  0
LINE
  5
15C
330
141
100
AcDbEntity
  8
0
  6
Continuous
 62
     0
370
     0
100
AcDbLine
 10
406.237204
 20
142.378723
 30
0.0
 11
416.236989
 21
142.377935
 31
0.0
  0
LINE
  5
15D
330
141
100
AcDbEntity
  8
0
  6
Continuous
 62
     0
370
     0
100
AcDbLine
 10
416.237417
 20
142.377934
 30
0.0
 11
416.234698
 21
107.736926
 31
0.0
  0
SPLINE
  5
15E
330
141
100
AcDbEntity
  8
0
  6
Continuous
 62
     0
370
     0
100
AcDbSpline
210
0.0
220
0.0
230
1.0
 70
     8
 71
     3
 72
    15
 73
    11
 74
     0
 42
0.000000001
 43
0.0
 40
0.0
 40
0.0
 40
0.0
 40
0.0
 40
0.023809522688812
 40
0.071428568066435
 40
0.142857127061636
 40
0.214285690732392
 40
0.285714281432774
 40
0.357142857835291
 40
0.4285714241738221
 40
0.4999939290093788
 40
0.4999939290093788
 40
0.4999939290093788
 40
0.4999939290093788
 10
416.2346975441338
 20
107.7369258776786
 30
0.0
 10
416.4835074741274
 20
107.7369109530322
 30
0.0
 10
417.2299385624422
 20
107.7609918270826
 30
0.0
 10
418.7165942961957
 20
107.9546244795514
 30
0.0
 10
420.6098022587469
 20
108.5285057273185
 30
0.0
 10
422.5223312758539
 20
109.5688895390597
 30
0.0
 10
424.1190516229163
 20
110.9516183924996
 30
0.0
 10
425.3205868461691
 20
112.6074251321444
 30
0.0
 10
426.0664794386836
 20
114.4532102387152
 30
0.0
 10
426.2351133861565
 20
115.7486952731895
 30
0.0
 10
426.2351625686571
 20
116.3964167398855
 30
0.0
  0
LINE
  5
15F
330
141
100
AcDbEntity
  8
0
  6
Continuous
 62
     0
370
     0
100
AcDbLine
 10
416.234484
 20
107.736926
 30
0.0
 11
416.233778
 21
98.742001
 31
0.0
  0
ELLIPSE
  5
160
330
141
100
AcDbEntity
  8
0
  6
Continuous
 62
     0
370
    30
100
AcDbEllipse
 10
416.234458
 20
107.402259
 30
0.0
 11
-9.999999969196642
 21
0.000784899473047869
 31
0.0
210
0.0
220
0.0
230
1.0
 40
0.866026
 41
1.570796326852914
 42
3.141592653596655
  0
SPLINE
  5
161
330
141
100
AcDbEntity
  8
0
  6
Continuous
 62
     0
370
     0
100
AcDbSpline
210
0.0
220
0.0
230
1.0
 70
     8
 71
     3
 72
    15
 73
    11
 74
     0
 42
0.000000001
 43
0.0
 40
0.0
 40
0.0
 40
0.0
 40
0.0
 40
0.023809522687721
 40
0.071428568063163
 40
0.142857127056399
 40
0.214285690722894
 40
0.285714281420303
 40
0.357142857821214
 40
0.428571424156606
 40
0.5000000415861567
 40
0.5000000415861567
 40
0.5000000415861567
 40
0.5000000415861567
 10
416.2342703047699
 20
107.7369259112125
 30
0.0
 10
415.9854637470566
 20
107.7369500443801
 30
0.0
 10
415.2390465627537
 20
107.7611474379422
 30
0.0
 10
413.7524412189897
 20
107.9550081913433
 30
0.0
 10
411.8593463771366
 20
108.5291712064588
 30
0.0
 10
409.9469978924484
 20
109.569828252517
 30
0.0
 10
408.350499554102
 20
110.9527739086149
 30
0.0
 10
407.1492145523754
 20
112.6087321318066
 30
0.0
 10
406.4035650715603
 20
114.4546503239723
 30
0.0
 10
406.2351138792017
 20
115.7501992625077
 30
0.0
 10
406.2351647667534
 20
116.3979677263852
 30
0.0
  0
ELLIPSE
  5
162
330
141
100
AcDbEntity
  8
0
  6
Continuous
 62
     0
370
    30
100
AcDbEllipse
 10
416.234458
 20
107.402259
 30
0.0
 11
-9.999999969196642
 21
0.0007848994730678693
 31
0.0
210
0.0
220
0.0
230
1.0
 40
0.866026
 41
0.0000000000068612
 42
1.570796326852921
  0
LINE
  5
163
330
141
100
AcDbEntity
  8
0
  6
Continuous
 62
     0
370
    30
100
AcDbLine
 10
406.234458
 20
107.403044
 30
0.0
 11
406.235164
 21
116.397967
 31
0.0
  0
LINE
  5
164
330
141
100
AcDbEntity
  8
0
  6
Continuous
 62
     0
370
    30
100
AcDbLine
 10
406.237204
 20
142.378723
 30
0.0
 11
406.235165
 21
116.397968
 31
0.0
  0
LINE
  5
165
330
141
100
AcDbEntity
  8
0
  6
Continuous
 62
     0
370
    30
100
AcDbLine
 10
426.235164
 20
116.396398
 30
0.0
 11
426.234458
 21
107.401474
 31
0.0
  0
LINE
  5
166
330
141
100
AcDbEntity
  8
0
  6
Continuous
 62
     0
370
    30
100
AcDbLine
 10
426.237202
 20
142.377153
 30
0.0
 11
426.235163
 21
116.396399
 31
0.0
  0
LINE
  5
167
330
141
100
AcDbEntity
  8
0
  6
Continuous
 62
     0
370
    30
100
AcDbLine
 10
406.237204
 20
142.378723
 30
0.0
 11
406.246843
 21
265.186066
 31
0.0
  0
SPLINE
  5
168
330
141
100
AcDbEntity
  8
0
  6
Continuous
 62
     0
370
    30
100
AcDbSpline
210
0.0
220
0.0
230
1.0
 70
     8
 71
     3
 72
    16
 73
    12
 74
     0
 42
0.000000001
 43
0.0
 40
0.0
 40
0.0
 40
0.0
 40
0.0
 40
2.259759896488891
 40
4.108944906917433
 40
5.530866093485715
 40
6.489109290195882
 40
8.432353261437628
 40
10.1588092481174
 40
11.15245887465536
 40
12.14758439683659
 40
12.90167980498636
 40
12.90167980498636
 40
12.90167980498636
 40
12.90167980498636
 10
406.2466064906023
 20
265.1860657138038
 30
0.0
 10
406.2466655908788
 20
265.9390323827792
 30
0.0
 10
406.1947568732204
 20
267.3097294872936
 30
0.0
 10
405.9298002932876
 20
269.1370496334474
 30
0.0
 10
405.5752640481855
 20
270.5034146537361
 30
0.0
 10
405.0970793235119
 20
271.8638446596779
 30
0.0
 10
404.4424498174657
 20
273.2638882179263
 30
0.0
 10
403.644031024297
 20
274.5990421557008
 30
0.0
 10
402.9554577404633
 20
275.628524102427
 30
0.0
 10
402.4273426817524
 20
276.3749391595842
 30
0.0
 10
402.0834845870831
 20
276.8458309869378
 30
0.0
 10
401.9343716514217
 20
277.0481928952279
 30
0.0
  0
LINE
  5
169
330
141
100
AcDbEntity
  8
0
  6
Continuous
 62
     0
370
    30
100
AcDbLine
 10
426.237202
 20
142.377153
 30
0.0
 11
426.246841
 21
265.184496
 31
0.0
  0
SPLINE
  5
16A
330
141
100
AcDbEntity
  8
0
  6
Continuous
 62
     0
370
    30
100
AcDbSpline
210
0.0
220
0.0
230
1.0
 70
     8
 71
     3
 72
    16
 73
    12
 74
     0
 42
0.000000001
 43
0.0
 40
0.0
 40
0.0
 40
0.0
 40
0.0
 40
2.259759896488888
 40
4.108944906917417
 40
5.530866093485716
 40
6.489109290195946
 40
8.432353261437939
 40
10.15880924811799
 40
11.15245887465611
 40
12.14758439683755
 40
12.90168662688521
 40
12.90168662688521
 40
12.90168662688521
 40
12.90168662688521
 10
426.2470775692937
 20
265.1844958788829
 30
0.0
 10
426.2471366695702
 20
265.9374625478583
 30
0.0
 10
426.2992605583377
 20
267.3081514868641
 30
0.0
 10
426.5645039873453
 20
269.1354300176736
 30
0.0
 10
426.9192547197779
 20
270.5017393661003
 30
0.0
 10
427.3976529985814
 20
271.8620942899406
 30
0.0
 10
428.0525022751099
 20
273.2620350673332
 30
0.0
 10
428.8511306506329
 20
274.5970636530427
 30
0.0
 10
429.5398655338416
 20
275.6264374949868
 30
0.0
 10
430.0680990719277
 20
276.3727714958043
 30
0.0
 10
430.4120324516928
 20
276.8436111548161
 30
0.0
 10
430.5611785173058
 20
277.0459514717463
 30
0.0
  0
ENDBLK
  5
16C
330
141
100
AcDbEntity
  8
0
100
AcDbBlockEnd
  0
BLOCK
  5
1A8
330
16E
100
AcDbEntity
  8
0
100
AcDbBlockBegin
  2
c
 70
     0
 10
361.39743
 20
102.135033
 30
0.0
  3
c
  1

  0
LINE
  5
16F
330
16E
100
AcDbEntity
  8
0
  6
Continuous
 62
     0
370
    30
100
AcDbLine
 10
579.418427
 20
481.541726
 30
0.0
 11
632.966052
 21
481.541726
 31
0.0
  0
ARC
  5
170
330
16E
100
AcDbEntity
  8
0
  6
Continuous
 62
     0
370
    30
100
AcDbCircle
 10
579.41846
 20
481.341693
 30
0.0
 40
0.2000335698565181
100
AcDbArc
 50
90.009512
 51
179.490451
  0
LINE
  5
171
330
16E
100
AcDbEntity
  8
0
  6
Continuous
 62
     0
370
     0
100
AcDbLine
 10
579.218435
 20
481.343472
 30
0.0
 11
633.166045
 21
481.343472
 31
0.0
  0
LINE
  5
172
330
16E
100
AcDbEntity
  8
0
  6
Continuous
 62
     0
370
    30
100
AcDbLine
 10
579.218435
 20
481.343472
 30
0.0
 11
579.192238
 21
478.341726
 31
0.0
  0
LINE
  5
173
330
16E
100
AcDbEntity
  8
0
  6
Continuous
 62
     0
370
    30
100
AcDbLine
 10
579.192238
 20
478.341726
 30
0.0
 11
633.192242
 21
478.341726
 31
0.0
  0
LINE
  5
174
330
16E
100
AcDbEntity
  8
0
  6
Continuous
 62
     0
370
    30
100
AcDbLine
 10
633.166045
 20
481.343472
 30
0.0
 11
633.192242
 21
478.341726
 31
0.0
  0
ARC
  5
175
330
16E
100
AcDbEntity
  8
0
  6
Continuous
 62
     0
370
    30
100
AcDbCircle
 10
632.965938
 20
481.341611
 30
0.0
 40
0.2001151484181984
100
AcDbArc
 50
0.532675
 51
89.938785
  0
SPLINE
  5
176
330
16E
100
AcDbEntity
  8
0
  6
Continuous
 62
     0
370
    30
100
AcDbSpline
210
0.0
220
0.0
230
1.0
 70
     8
 71
     3
 72
    12
 73
     8
 74
     0
 42
0.000000001
 43
0.0
 40
0.0
 40
0.0
 40
0.0
 40
0.0
 40
0.111099996301737
 40
0.333299988905211
 40
0.6666305403126941
 40
0.8888768467708982
 40
1.0
 40
1.0
 40
1.0
 40
1.0
 10
594.961568485746
 20
762.6807211385985
 30
0.0
 10
594.9606474023151
 20
762.6657612924482
 30
0.0
 10
594.9713755639626
 20
762.6309394948992
 30
0.0
 10
595.0778075045399
 20
762.6181955796868
 30
0.0
 10
595.3576974886325
 20
762.7130910621571
 30
0.0
 10
595.6806069884927
 20
762.9054235786402
 30
0.0
 10
595.8438900456802
 20
763.0334626222239
 30
0.0
 10
595.8977543572589
 20
763.0797600553368
 30
0.0
  0
SPLINE
  5
177
330
16E
100
AcDbEntity
  8
0
  6
Continuous
 62
     0
370
    30
100
AcDbSpline
210
0.0
220
0.0
230
1.0
 70
     8
 71
     3
 72
    10
 73
     6
 74
     0
 42
0.000000001
 43
0.0
 40
0.0
 40
0.0
 40
0.0
 40
0.0
 40
0.333333333333333
 40
0.666666666666667
 40
1.0
 40
1.0
 40
1.0
 40
1.0
 10
594.9931576236884
 20
762.9745510750408
 30
0.0
 10
594.9896248778352
 20
762.9745510761921
 30
0.0
 10
594.9821396062656
 20
762.9483839578422
 30
0.0
 10
594.9720204936986
 20
762.8392975159302
 30
0.0
 10
594.9650422688857
 20
762.7360724385846
 30
0.0
 10
594.9615664589446
 20
762.6807195039946
 30
0.0
  0
LINE
  5
178
330
16E
100
AcDbEntity
  8
0
  6
Continuous
 62
     0
370
     0
100
AcDbLine
 10
595.897754
 20
763.07976
 30
0.0
 11
617.303814
 21
763.079753
 31
0.0
  0
ARC
  5
179
330
16E
100
AcDbEntity
  8
0
  6
Continuous
 62
     0
370
     0
100
AcDbCircle
 10
575.402468
 20
786.703493
 30
0.0
 40
31.27519133731856
100
AcDbArc
 50
310.943986
 51
312.805587
  0
SPLINE
  5
17A
330
16E
100
AcDbEntity
  8
0
  6
Continuous
 62
     0
370
    30
100
AcDbSpline
210
0.0
220
0.0
230
1.0
 70
     8
 71
     3
 72
    10
 73
     6
 74
     0
 42
0.000000001
 43
0.0
 40
18.75838921056838
 40
18.75838921056838
 40
18.75838921056838
 40
18.75838921056838
 40
18.99741885493317
 40
19.41302141447924
 40
19.82833813574944
 40
19.82833813574944
 40
19.82833813574944
 40
19.82833813574944
 10
595.7191375724522
 20
763.758023914907
 30
0.0
 10
595.6635210202053
 20
763.7010002853438
 30
0.0
 10
595.5121495459312
 20
763.5439259588325
 30
0.0
 10
595.2692415579314
 20
763.2830151327937
 30
0.0
 10
595.0816072228694
 20
763.0791170191637
 30
0.0
 10
594.9917912022106
 20
762.9737966906566
 30
0.0
  0
ARC
  5
17B
330
16E
100
AcDbEntity
  8
0
  6
Continuous
 62
     0
370
    30
100
AcDbCircle
 10
606.189355
 20
754.15538
 30
0.0
 40
14.25396954822141
100
AcDbArc
 50
38.762779
 51
42.351856
  0
ARC
  5
17C
330
16E
100
AcDbEntity
  8
0
  6
Continuous
 62
     0
370
    30
100
AcDbCircle
 10
619.64348
 20
764.958684
 30
0.0
 40
3.000736019769717
100
AcDbArc
 50
218.767132
 51
259.027807
  0
ARC
  5
17D
330
16E
100
AcDbEntity
  8
0
  6
Continuous
 62
     0
370
    30
100
AcDbCircle
 10
592.741761
 20
764.95775
 30
0.0
 40
2.999690241571084
100
AcDbArc
 50
280.96375
 51
318.587985
  0
LINE
  5
17E
330
16E
100
AcDbEntity
  8
0
  6
Continuous
 62
     0
370
     0
100
AcDbLine
 10
683.992336
 20
777.757998
 30
0.0
 11
683.992337
 21
782.257998
 31
0.0
  0
LINE
  5
17F
330
16E
100
AcDbEntity
  8
0
  6
Continuous
 62
     0
370
     0
100
AcDbLine
 10
683.992337
 20
782.257998
 30
0.0
 11
683.992338
 21
786.757998
 31
0.0
  0
LINE
  5
180
330
16E
100
AcDbEntity
  8
0
  6
Continuous
 62
     0
370
     0
100
AcDbLine
 10
683.492336
 20
777.257998
 30
0.0
 11
683.492337
 21
782.257999
 31
0.0
  0
LINE
  5
181
330
16E
100
AcDbEntity
  8
0
  6
Continuous
 62
     0
370
     0
100
AcDbLine
 10
683.492337
 20
782.257999
 30
0.0
 11
683.492338
 21
787.257998
 31
0.0
  0
LINE
  5
182
330
16E
100
AcDbEntity
  8
0
  6
Continuous
 62
     0
370
     0
100
AcDbLine
 10
630.191933
 20
782.258014
 30
0.0
 11
630.192338
 21
787.258014
 31
0.0
  0
SPLINE
  5
183
330
16E
100
AcDbEntity
  8
0
  6
Continuous
 62
     0
370
     0
100
AcDbSpline
210
0.0
220
0.0
230
1.0
 70
    12
 71
     2
 72
     8
 73
     5
 74
     0
 42
0.000000001
 43
0.0
 40
0.0
 40
0.0
 40
0.0
 40
0.5
 40
0.5
 40
1.0
 40
1.0
 40
1.0
 10
630.1923351961378
 20
777.2580138038063
 30
0.0
 41
1.0
 10
630.1921681014074
 20
777.2580102723367
 30
0.0
 41
0.923879368694005
 10
630.192050424766
 20
778.7224768962261
 30
0.0
 41
1.0
 10
630.1919327481247
 20
780.1869435201155
 30
0.0
 41
0.923879368694005
 10
630.1919334230954
 20
782.2580138395863
 30
0.0
 41
1.0
  0
SPLINE
  5
184
330
16E
100
AcDbEntity
  8
0
  6
Continuous
 62
     0
370
    30
100
AcDbSpline
210
0.0
220
0.0
230
1.0
 70
     8
 71
     7
 72
    21
 73
    13
 74
     0
 42
0.000000001
 43
0.0
 40
0.0
 40
0.0
 40
0.0
 40
0.0
 40
0.0
 40
0.0
 40
0.0
 40
0.0
 40
0.6599999999999999
 40
0.6599999999999999
 40
0.6599999999999999
 40
0.6599999999999999
 40
0.6599999999999999
 40
1.0
 40
1.0
 40
1.0
 40
1.0
 40
1.0
 40
1.0
 40
1.0
 40
1.0
 10
626.3923397098008
 20
790.8576665545347
 30
0.0
 10
626.3923395363186
 20
790.2923106198571
 30
0.0
 10
626.4488936072
 20
789.7269546678255
 30
0.0
 10
626.5807094735111
 20
789.1751609339883
 30
0.0
 10
626.8049099859425
 20
788.6148619402059
 30
0.0
 10
627.2059323444387
 20
788.165131345133
 30
0.0
 10
627.9251596482809
 20
787.6707356214781
 30
0.0
 10
628.745116790665
 20
787.4081922072678
 30
0.0
 10
629.0305465157971
 20
787.3431746020842
 30
0.0
 10
629.3192538689195
 20
787.2983689545237
 30
0.0
 10
629.6098503341623
 20
787.2708071102836
 30
0.0
 10
629.9010942958813
 20
787.2580138874825
 30
0.0
 10
630.1923382612824
 20
787.2580138037966
 30
0.0
  0
SPLINE
  5
185
330
16E
100
AcDbEntity
  8
0
  6
Continuous
 62
     0
370
     0
100
AcDbSpline
210
0.0
220
0.0
230
1.0
 70
     8
 71
     7
 72
    41
 73
    33
 74
     0
 42
0.000000001
 43
0.0
 40
0.0
 40
0.0
 40
0.0
 40
0.0
 40
0.0
 40
0.0
 40
0.0
 40
0.0
 40
0.24
 40
0.24
 40
0.24
 40
0.24
 40
0.24
 40
0.4072
 40
0.4072
 40
0.4072
 40
0.4072
 40
0.4072
 40
0.49149616
 40
0.49149616
 40
0.49149616
 40
0.49149616
 40
0.49149616
 40
0.500000409248974
 40
0.500000409248974
 40
0.500000409248974
 40
0.500000409248974
 40
0.500000409248974
 40
0.875512
 40
0.875512
 40
0.875512
 40
0.875512
 40
0.875512
 40
1.0
 40
1.0
 40
1.0
 40
1.0
 40
1.0
 40
1.0
 40
1.0
 40
1.0
 10
626.3923341843249
 20
772.8576777849073
 30
0.0
 10
626.3922550288728
 20
772.8579495485254
 30
0.0
 10
626.3365826478632
 20
772.9809875395954
 30
0.0
 10
626.2251701405553
 20
773.2284666336104
 30
0.0
 10
626.0655625440407
 20
773.5964477015414
 30
0.0
 10
625.8692888815096
 20
774.0642792446854
 30
0.0
 10
625.5006225660384
 20
775.0272950638346
 30
0.0
 10
625.114614143205
 20
776.2377187464227
 30
0.0
 10
624.9583421870705
 20
776.7725753461344
 30
0.0
 10
624.8096193582666
 20
777.342288344947
 30
0.0
 10
624.6747189635848
 20
777.9441343054925
 30
0.0
 10
624.5018256986264
 20
778.889986967773
 30
0.0
 10
624.3824356272285
 20
779.8815350757225
 30
0.0
 10
624.3489191716985
 20
780.2181847524363
 30
0.0
 10
624.3224252838825
 20
780.5582193553702
 30
0.0
 10
624.3030614299336
 20
780.900759406407
 30
0.0
 10
624.2903069144194
 20
781.2795210531721
 30
0.0
 10
624.2869659608256
 20
781.6588115889228
 30
0.0
 10
624.2867387826401
 20
781.693573216194
 30
0.0
 10
624.2865905116303
 20
781.728337127637
 30
0.0
 10
624.2865210541829
 20
781.7631022479811
 30
0.0
 10
624.2869387171236
 20
783.3329538486582
 30
0.0
 10
624.447598914066
 20
784.9009035155115
 30
0.0
 10
624.7476206568748
 20
786.3402600640841
 30
0.0
 10
625.1309977913015
 20
787.6059141262128
 30
0.0
 10
625.5158927206787
 20
788.6940509657562
 30
0.0
 10
625.9645240169905
 20
789.8450007618467
 30
0.0
 10
626.2451996818345
 20
790.510650452529
 30
0.0
 10
626.3031162860691
 20
790.6431277383934
 30
0.0
 10
626.3473400608918
 20
790.7460589883183
 30
0.0
 10
626.3773005279681
 20
790.8179862044683
 30
0.0
 10
626.3922986515943
 20
790.8556410715826
 30
0.0
 10
626.3923397098008
 20
790.8576665545347
 30
0.0
  0
SPLINE
  5
186
330
16E
100
AcDbEntity
  8
0
  6
Continuous
 62
     0
370
    30
100
AcDbSpline
210
0.0
220
0.0
230
1.0
 70
     8
 71
     7
 72
    21
 73
    13
 74
     0
 42
0.000000001
 43
0.0
 40
0.0000000287205835
 40
0.0000000287205835
 40
0.0000000287205835
 40
0.0000000287205835
 40
0.0000000287205835
 40
0.0000000287205835
 40
0.0000000287205835
 40
0.0000000287205835
 40
0.34
 40
0.34
 40
0.34
 40
0.34
 40
0.34
 40
1.0
 40
1.0
 40
1.0
 40
1.0
 40
1.0
 40
1.0
 40
1.0
 40
1.0
 10
630.1923351950651
 20
777.2580138038016
 30
0.0
 10
629.866241832829
 20
777.2580138891326
 30
0.0
 10
629.5401484662191
 20
777.241502296157
 30
0.0
 10
629.2149201766945
 20
777.2051623735542
 30
0.0
 10
628.8933831449338
 20
777.1450794286998
 30
0.0
 10
628.5762926077032
 20
777.0554121382037
 30
0.0
 10
627.6825507588427
 20
776.6837705473365
 30
0.0
 10
626.9770060432946
 20
775.9887061572371
 30
0.0
 10
626.6653191423391
 20
775.3708652983472
 30
0.0
 10
626.5288317133864
 20
774.753603963932
 30
0.0
 10
626.4301391892066
 20
774.1236874083406
 30
0.0
 10
626.3923343786389
 20
773.4906826024264
 30
0.0
 10
626.3923341843249
 20
772.8576777849073
 30
0.0
  0
LINE
  5
187
330
16E
100
AcDbEntity
  8
0
  6
Continuous
 62
     0
370
    30
100
AcDbLine
 10
626.39234
 20
790.857667
 30
0.0
 11
626.392341
 21
793.758014
 31
0.0
  0
LINE
  5
188
330
16E
100
AcDbEntity
  8
0
  6
Continuous
 62
     0
370
     0
100
AcDbLine
 10
626.392341
 20
793.758014
 30
0.0
 11
606.190709
 21
793.758021
 31
0.0
  0
LINE
  5
189
330
16E
100
AcDbEntity
  8
0
  6
Continuous
 62
     0
370
     0
100
AcDbLine
 10
606.190709
 20
793.758021
 30
0.0
 11
585.992341
 21
793.758027
 31
0.0
  0
LINE
  5
18A
330
16E
100
AcDbEntity
  8
0
  6
Continuous
 62
     0
370
    30
100
AcDbLine
 10
585.992331
 20
763.758027
 30
0.0
 11
626.392331
 21
763.758014
 31
0.0
  0
LINE
  5
18B
330
16E
100
AcDbEntity
  8
0
  6
Continuous
 62
     0
370
    30
100
AcDbLine
 10
626.392331
 20
763.758014
 30
0.0
 11
626.392334
 21
772.857678
 31
0.0
  0
LINE
  5
18C
330
16E
100
AcDbEntity
  8
0
  6
Continuous
 62
     0
370
    30
100
AcDbLine
 10
586.492341
 20
794.258027
 30
0.0
 11
606.19075
 21
794.258021
 31
0.0
  0
LINE
  5
18D
330
16E
100
AcDbEntity
  8
0
  6
Continuous
 62
     0
370
    30
100
AcDbLine
 10
606.19075
 20
794.258021
 30
0.0
 11
625.892341
 21
794.258015
 31
0.0
  0
ARC
  5
18E
330
16E
100
AcDbEntity
  8
0
  6
Continuous
 62
     0
370
    30
100
AcDbCircle
 10
586.492361
 20
793.758007
 30
0.0
 40
0.5000199794170855
100
AcDbArc
 50
90.006624
 51
179.997693
  0
ARC
  5
18F
330
16E
100
AcDbEntity
  8
0
  6
Continuous
 62
     0
370
    30
100
AcDbCircle
 10
625.892321
 20
793.757995
 30
0.0
 40
0.500019979415721
100
AcDbArc
 50
0.002272
 51
89.993342
  0
LINE
  5
190
330
16E
100
AcDbEntity
  8
0
  6
Continuous
 62
     0
370
    30
100
AcDbLine
 10
585.992331
 20
763.758027
 30
0.0
 11
585.992341
 21
793.758027
 31
0.0
  0
LINE
  5
191
330
16E
100
AcDbEntity
  8
0
  6
Continuous
 62
     0
370
    30
100
AcDbLine
 10
683.492338
 20
787.257998
 30
0.0
 11
630.192338
 21
787.258014
 31
0.0
  0
LINE
  5
192
330
16E
100
AcDbEntity
  8
0
  6
Continuous
 62
     0
370
    30
100
AcDbLine
 10
683.492336
 20
777.257998
 30
0.0
 11
630.192335
 21
777.258014
 31
0.0
  0
ARC
  5
193
330
16E
100
AcDbEntity
  8
0
  6
Continuous
 62
     0
370
    30
100
AcDbCircle
 10
683.492311
 20
786.757981
 30
0.0
 40
0.5000177355492168
100
AcDbArc
 50
2.652553
 51
89.996846
  0
ARC
  5
194
330
16E
100
AcDbEntity
  8
0
  6
Continuous
 62
     0
370
    30
100
AcDbCircle
 10
683.492308
 20
777.758016
 30
0.0
 40
0.5000177355400777
100
AcDbArc
 50
270.003121
 51
357.347414
  0
LINE
  5
195
330
16E
100
AcDbEntity
  8
0
  6
Continuous
 62
     0
370
    30
100
AcDbLine
 10
626.192318
 20
725.512889
 30
0.0
 11
626.192239
 21
481.541711
 31
0.0
  0
LINE
  5
196
330
16E
100
AcDbEntity
  8
0
  6
Continuous
 62
     0
370
    30
100
AcDbLine
 10
626.19233
 20
762.0128
 30
0.0
 11
626.192329
 21
757.512798
 31
0.0
  0
SPLINE
  5
197
330
16E
100
AcDbEntity
  8
0
  6
Continuous
 62
     0
370
     0
100
AcDbSpline
210
0.0
220
0.0
230
1.0
 70
     8
 71
     3
 72
    31
 73
    27
 74
     0
 42
0.000000001
 43
0.0
 40
0.0
 40
0.0
 40
0.0
 40
0.0
 40
0.017224973502115
 40
0.051674920506345
 40
0.076815406471647
 40
0.112611319620934
 40
0.164553291932971
 40
0.2060108929808449
 40
0.242201201840468
 40
0.305457519963629
 40
0.360878515597281
 40
0.410709697797205
 40
0.4564948823933029
 40
0.4999911884557891
 40
0.543486149262712
 40
0.5892756626104021
 40
0.6391074471389099
 40
0.694527420445484
 40
0.7577827920236772
 40
0.793963605758653
 40
0.835390544710215
 40
0.8872590076941421
 40
0.9230030740918369
 40
0.9481385206142219
 40
0.9827128402047409
 40
1.0
 40
1.0
 40
1.0
 40
1.0
 10
626.1923184611907
 20
725.5128885010142
 30
0.0
 10
626.1922944983168
 20
725.5136049951459
 30
0.0
 10
626.1712271743454
 20
725.5383923676488
 30
0.0
 10
626.0459205253809
 20
725.7015785416753
 30
0.0
 10
625.7650768383402
 20
726.0554085175389
 30
0.0
 10
625.2919501005385
 20
726.6547733958375
 30
0.0
 10
624.5523549277168
 20
727.6105138599025
 30
0.0
 10
623.6615527656797
 20
728.8078395511953
 30
0.0
 10
622.6026324948587
 20
730.2982349486258
 30
0.0
 10
621.3601963126576
 20
732.1750573765121
 30
0.0
 10
620.0416920809059
 20
734.4990408518435
 30
0.0
 10
619.0179235750103
 20
736.8195326593911
 30
0.0
 10
618.3517602139975
 20
739.1541395935309
 30
0.0
 10
618.1110799764892
 20
741.5130072601349
 30
0.0
 10
618.3510209827514
 20
743.8722200719087
 30
0.0
 10
619.018195969639
 20
746.2064715894794
 30
0.0
 10
620.041755298507
 20
748.5270854460797
 30
0.0
 10
621.3602459227102
 20
750.8511226450341
 30
0.0
 10
622.6026162051301
 20
752.7277007870621
 30
0.0
 10
623.6610914499713
 20
754.218023178893
 30
0.0
 10
624.5509661291192
 20
755.4152091602456
 30
0.0
 10
625.2898608738524
 20
756.3713923658506
 30
0.0
 10
625.763152734873
 20
756.9710369543952
 30
0.0
 10
626.0450108404664
 20
757.3252502432143
 30
0.0
 10
626.1710853235725
 20
757.4876850548428
 30
0.0
 10
626.1923048402507
 20
757.5122361129156
 30
0.0
 10
626.1923288900797
 20
757.5127981500126
 30
0.0
  0
LINE
  5
198
330
16E
100
AcDbEntity
  8
0
  6
Continuous
 62
     0
370
    30
100
AcDbLine
 10
626.19233
 20
762.0128
 30
0.0
 11
586.19233
 21
762.012813
 31
0.0
  0
SPLINE
  5
199
330
16E
100
AcDbEntity
  8
0
  6
Continuous
 62
     0
370
    30
100
AcDbSpline
210
0.0
220
0.0
230
1.0
 70
     8
 71
     3
 72
    16
 73
    12
 74
     0
 42
0.000000001
 43
0.0
 40
0.0
 40
0.0
 40
0.0
 40
0.0
 40
0.047816995130667
 40
0.143450985392001
 40
0.290233555895009
 40
0.4369647895447289
 40
0.5820147576898891
 40
0.7243818256556961
 40
0.863546408965853
 40
0.9545154696552839
 40
1.0
 40
1.0
 40
1.0
 40
1.0
 10
626.1923184600173
 20
725.5128885010142
 30
0.0
 10
626.1923185092224
 20
725.6628775270326
 30
0.0
 10
626.2140462027903
 20
726.1128446009507
 30
0.0
 10
626.3861572642581
 20
727.0162824583317
 30
0.0
 10
626.8552726771302
 20
728.1529527383618
 30
0.0
 10
627.6411745555135
 20
729.2940358743679
 30
0.0
 10
628.6278864007634
 20
730.2456451866913
 30
0.0
 10
629.7684745349202
 20
730.9645946686794
 30
0.0
 10
630.8763613406038
 20
731.3630774349797
 30
0.0
 10
631.7370861035056
 20
731.4964672464241
 30
0.0
 10
632.1651042384681
 20
731.5127979974591
 30
0.0
 10
632.307776950898
 20
731.5127979509614
 30
0.0
  0
SPLINE
  5
19A
330
16E
100
AcDbEntity
  8
0
  6
Continuous
 62
     0
370
    30
100
AcDbSpline
210
0.0
220
0.0
230
1.0
 70
     8
 71
     3
 72
    12
 73
     8
 74
     0
 42
0.000000001
 43
0.0
 40
0.0
 40
0.0
 40
0.0
 40
0.0
 40
0.111878207966194
 40
0.335634623898582
 40
0.671608871002294
 40
0.8905362903340981
 40
1.0
 40
1.0
 40
1.0
 40
1.0
 10
627.7374302209544
 20
753.6850524684006
 30
0.0
 10
627.6331317462218
 20
753.8023666085176
 30
0.0
 10
627.332548060147
 20
754.165254815037
 30
0.0
 10
626.8087928521845
 20
754.9561636492824
 30
0.0
 10
626.3845203657822
 20
755.9723820113762
 30
0.0
 10
626.2133232186093
 20
756.8984537869014
 30
0.0
 10
626.1923288386306
 20
757.3592120614394
 30
0.0
 10
626.1923288885985
 20
757.5127981500127
 30
0.0
  0
SPLINE
  5
19B
330
16E
100
AcDbEntity
  8
0
  6
Continuous
 62
     0
370
    30
100
AcDbSpline
210
0.0
220
0.0
230
1.0
 70
     8
 71
     3
 72
    12
 73
     8
 74
     0
 42
0.000000001
 43
0.0
 40
0.0
 40
0.0
 40
0.0
 40
0.0
 40
0.108060844157032
 40
0.324182532471095
 40
0.657504398275734
 40
0.8858347994252451
 40
1.0
 40
1.0
 40
1.0
 40
1.0
 10
632.3077834689725
 20
751.5127979509658
 30
0.0
 10
632.1207257605229
 20
751.5127980119282
 30
0.0
 10
631.5595526583072
 20
751.543017495206
 30
0.0
 10
630.4317220414324
 20
751.7849086437902
 30
0.0
 10
629.2084063386471
 20
752.3784748415334
 30
0.0
 10
628.2821769145451
 20
753.1116237186432
 30
0.0
 10
627.8687383873053
 20
753.537358030248
 30
0.0
 10
627.7374302209544
 20
753.6850524684006
 30
0.0
  0
LINE
  5
19C
330
16E
100
AcDbEntity
  8
0
  6
Continuous
 62
     0
370
    30
100
AcDbLine
 10
632.307777
 20
731.512798
 30
0.0
 11
755.115119
 21
731.512758
 31
0.0
  0
LINE
  5
19D
330
16E
100
AcDbEntity
  8
0
  6
Continuous
 62
     0
370
    30
100
AcDbLine
 10
755.115126
 20
751.512758
 30
0.0
 11
632.307784
 21
751.512798
 31
0.0
  0
SPLINE
  5
19E
330
16E
100
AcDbEntity
  8
0
  6
Continuous
 62
     0
370
     0
100
AcDbSpline
210
0.0
220
0.0
230
1.0
 70
     8
 71
     3
 72
    10
 73
     6
 74
     0
 42
0.000000001
 43
0.0
 40
0.0
 40
0.0
 40
0.0
 40
0.0
 40
0.333333333333333
 40
0.666666666666667
 40
1.0
 40
1.0
 40
1.0
 40
1.0
 10
632.3077769506359
 20
731.5127979509614
 30
0.0
 10
632.3077579940252
 20
731.5127971352433
 30
0.0
 10
632.3077187711369
 20
731.5306532736133
 30
0.0
 10
632.307662017445
 20
731.6116351434914
 30
0.0
 10
632.3076243717715
 20
731.7008175177536
 30
0.0
 10
632.3076057008078
 20
731.7541338415457
 30
0.0
  0
LINE
  5
19F
330
16E
100
AcDbEntity
  8
0
  6
Continuous
 62
     0
370
     0
100
AcDbLine
 10
632.307606
 20
731.754134
 30
0.0
 11
632.307783
 21
751.512798
 31
0.0
  0
LINE
  5
1A0
330
16E
100
AcDbEntity
  8
0
  6
Continuous
 62
     0
370
     0
100
AcDbLine
 10
755.115119
 20
731.512758
 30
0.0
 11
755.115126
 21
751.512758
 31
0.0
  0
ARC
  5
1A1
330
16E
100
AcDbEntity
  8
0
  6
Continuous
 62
     0
370
    30
100
AcDbCircle
 10
755.115012
 20
711.512583
 30
0.0
 40
40.00017490631478
100
AcDbArc
 50
30.000126
 51
89.999836
  0
ARC
  5
1A2
330
16E
100
AcDbEntity
  8
0
  6
Continuous
 62
     0
370
    30
100
AcDbCircle
 10
755.115062
 20
711.512671
 30
0.0
 40
20.00008738105323
100
AcDbArc
 50
30.000126
 51
89.999836
  0
LINE
  5
1A3
330
16E
100
AcDbEntity
  8
0
  6
Continuous
 62
     0
370
    30
100
AcDbLine
 10
789.756136
 20
731.512747
 30
0.0
 11
798.751061
 21
715.933057
 31
0.0
  0
LINE
  5
1A4
330
16E
100
AcDbEntity
  8
0
  6
Continuous
 62
     0
370
    30
100
AcDbLine
 10
781.430546
 20
705.933068
 30
0.0
 11
772.435624
 21
721.512752
 31
0.0
  0
LINE
  5
1A5
330
16E
100
AcDbEntity
  8
0
  6
Continuous
 62
     0
370
     0
100
AcDbLine
 10
789.756136
 20
731.512747
 30
0.0
 11
772.435624
 21
721.512752
 31
0.0
  0
LINE
  5
1A6
330
16E
100
AcDbEntity
  8
0
  6
Continuous
 62
     0
370
    30
100
AcDbLine
 10
781.430546
 20
705.933068
 30
0.0
 11
798.751061
 21
715.933057
 31
0.0
  0
LINE
  5
1A7
330
16E
100
AcDbEntity
  8
0
  6
Continuous
 62
     0
370
    30
100
AcDbLine
 10
586.19233
 20
762.012813
 30
0.0
 11
586.192239
 21
481.541724
 31
0.0
  0
ENDBLK
  5
1A9
330
16E
100
AcDbEntity
  8
0
100
AcDbBlockEnd
  0
BLOCK
  5
1E6
330
1AB
100
AcDbEntity
  8
0
100
AcDbBlockBegin
  2
d
 70
     0
 10
295.931122
 20
0.0
 30
0.0
  3
d
  1

  0
LINE
  5
1AC
330
1AB
100
AcDbEntity
  8
0
  6
Continuous
 62
     0
370
    30
100
AcDbLine
 10
194.040061
 20
481.541673
 30
0.0
 11
247.587686
 21
481.541673
 31
0.0
  0
ARC
  5
1AD
330
1AB
100
AcDbEntity
  8
0
  6
Continuous
 62
     0
370
    30
100
AcDbCircle
 10
247.587653
 20
481.341639
 30
0.0
 40
0.2000335698565181
100
AcDbArc
 50
0.509549
 51
89.990488
  0
LINE
  5
1AE
330
1AB
100
AcDbEntity
  8
0
  6
Continuous
 62
     0
370
     0
100
AcDbLine
 10
193.840068
 20
481.343418
 30
0.0
 11
247.787678
 21
481.343418
 31
0.0
  0
LINE
  5
1AF
330
1AB
100
AcDbEntity
  8
0
  6
Continuous
 62
     0
370
    30
100
AcDbLine
 10
247.787678
 20
481.343418
 30
0.0
 11
247.813875
 21
478.341673
 31
0.0
  0
LINE
  5
1B0
330
1AB
100
AcDbEntity
  8
0
  6
Continuous
 62
     0
370
    30
100
AcDbLine
 10
193.813871
 20
478.341673
 30
0.0
 11
247.813875
 21
478.341673
 31
0.0
  0
LINE
  5
1B1
330
1AB
100
AcDbEntity
  8
0
  6
Continuous
 62
     0
370
    30
100
AcDbLine
 10
193.840068
 20
481.343418
 30
0.0
 11
193.813871
 21
478.341673
 31
0.0
  0
ARC
  5
1B2
330
1AB
100
AcDbEntity
  8
0
  6
Continuous
 62
     0
370
    30
100
AcDbCircle
 10
194.040175
 20
481.341558
 30
0.0
 40
0.2001151484181984
100
AcDbArc
 50
90.061215
 51
179.467325
  0
SPLINE
  5
1B3
330
1AB
100
AcDbEntity
  8
0
  6
Continuous
 62
     0
370
    30
100
AcDbSpline
210
0.0
220
0.0
230
1.0
 70
     8
 71
     3
 72
    10
 73
     6
 74
     0
 42
0.000000001
 43
0.0
 40
0.0
 40
0.0
 40
0.0
 40
0.0
 40
0.333333333333333
 40
0.666666666666667
 40
1.0
 40
1.0
 40
1.0
 40
1.0
 10
231.981226688971
 20
762.680772532914
 30
0.0
 10
231.9846989069265
 20
762.7361230836868
 30
0.0
 10
231.9918408241328
 20
762.8391876653166
 30
0.0
 10
232.0027504432301
 20
762.9483603421845
 30
0.0
 10
232.0094226339513
 20
762.9744976681277
 30
0.0
 10
232.0129554167819
 20
762.9744976692791
 30
0.0
  0
SPLINE
  5
1B4
330
1AB
100
AcDbEntity
  8
0
  6
Continuous
 62
     0
370
    30
100
AcDbSpline
210
0.0
220
0.0
230
1.0
 70
     8
 71
     3
 72
    12
 73
     8
 74
     0
 42
0.000000001
 43
0.0
 40
0.0
 40
0.0
 40
0.0
 40
0.0
 40
0.111123153363705
 40
0.333369460091116
 40
0.6667000106239991
 40
0.888900003541333
 40
1.0
 40
1.0
 40
1.0
 40
1.0
 10
231.0036983586206
 20
763.0797066154657
 30
0.0
 10
231.0583688032263
 20
763.0334091826421
 30
0.0
 10
231.2243653330598
 20
762.9053701421403
 30
0.0
 10
231.554595216913
 20
762.7130376240782
 30
0.0
 10
231.8461191278273
 20
762.6181421432769
 30
0.0
 10
231.9639962156919
 20
762.630886069103
 30
0.0
 10
231.9804015650619
 20
762.6657078677501
 30
0.0
 10
231.9813571183372
 20
762.6806677132328
 30
0.0
  0
LINE
  5
1B5
330
1AB
100
AcDbEntity
  8
0
  6
Continuous
 62
     0
370
     0
100
AcDbLine
 10
209.702299
 20
763.0797
 30
0.0
 11
231.003698
 21
763.079707
 31
0.0
  0
ARC
  5
1B6
330
1AB
100
AcDbEntity
  8
0
  6
Continuous
 62
     0
370
     0
100
AcDbCircle
 10
248.478027
 20
783.512049
 30
0.0
 40
26.88555076901943
100
AcDbArc
 50
227.285847
 51
229.461986
  0
SPLINE
  5
1B7
330
1AB
100
AcDbEntity
  8
0
  6
Continuous
 62
     0
370
    30
100
AcDbSpline
210
0.0
220
0.0
230
1.0
 70
     8
 71
     3
 72
    10
 73
     6
 74
     0
 42
0.000000001
 43
0.0
 40
18.75838921056841
 40
18.75838921056841
 40
18.75838921056841
 40
18.75838921056841
 40
18.99741885493317
 40
19.41302141447924
 40
19.82833813574944
 40
19.82833813574944
 40
19.82833813574944
 40
19.82833813574944
 10
231.286975480125
 20
763.757970509145
 30
0.0
 10
231.3425920322055
 20
763.7009468795819
 30
0.0
 10
231.4939635060063
 20
763.5438725530707
 30
0.0
 10
231.7368714932537
 20
763.282961727032
 30
0.0
 10
231.9245058275888
 20
763.079063613402
 30
0.0
 10
232.0143218484624
 20
762.9737432848949
 30
0.0
  0
ARC
  5
1B8
330
1AB
100
AcDbEntity
  8
0
  6
Continuous
 62
     0
370
    30
100
AcDbCircle
 10
220.816758
 20
754.155326
 30
0.0
 40
14.25396954814163
100
AcDbArc
 50
137.648144
 51
141.237221
  0
ARC
  5
1B9
330
1AB
100
AcDbEntity
  8
0
  6
Continuous
 62
     0
370
    30
100
AcDbCircle
 10
207.362633
 20
764.95863
 30
0.0
 40
3.000736019774447
100
AcDbArc
 50
280.972193
 51
321.232868
  0
ARC
  5
1BA
330
1AB
100
AcDbEntity
  8
0
  6
Continuous
 62
     0
370
    30
100
AcDbCircle
 10
234.264352
 20
764.957696
 30
0.0
 40
2.999690241585572
100
AcDbArc
 50
221.412015
 51
259.03625
  0
LINE
  5
1BB
330
1AB
100
AcDbEntity
  8
0
  6
Continuous
 62
     0
370
     0
100
AcDbLine
 10
143.013776
 20
782.257945
 30
0.0
 11
143.013777
 21
777.757945
 31
0.0
  0
LINE
  5
1BC
330
1AB
100
AcDbEntity
  8
0
  6
Continuous
 62
     0
370
     0
100
AcDbLine
 10
143.013775
 20
786.757945
 30
0.0
 11
143.013776
 21
782.257945
 31
0.0
  0
LINE
  5
1BD
330
1AB
100
AcDbEntity
  8
0
  6
Continuous
 62
     0
370
     0
100
AcDbLine
 10
143.513776
 20
782.257945
 30
0.0
 11
143.513777
 21
777.257945
 31
0.0
  0
LINE
  5
1BE
330
1AB
100
AcDbEntity
  8
0
  6
Continuous
 62
     0
370
     0
100
AcDbLine
 10
143.513775
 20
787.257945
 30
0.0
 11
143.513776
 21
782.257945
 31
0.0
  0
LINE
  5
1BF
330
1AB
100
AcDbEntity
  8
0
  6
Continuous
 62
     0
370
     0
100
AcDbLine
 10
196.813775
 20
787.25796
 30
0.0
 11
196.813778
 21
777.25796
 31
0.0
  0
SPLINE
  5
1C0
330
1AB
100
AcDbEntity
  8
0
  6
Continuous
 62
     0
370
    30
100
AcDbSpline
210
0.0
220
0.0
230
1.0
 70
     8
 71
     7
 72
    21
 73
    13
 74
     0
 42
0.000000001
 43
0.0
 40
0.0
 40
0.0
 40
0.0
 40
0.0
 40
0.0
 40
0.0
 40
0.0
 40
0.0
 40
0.6599999999999999
 40
0.6599999999999999
 40
0.6599999999999999
 40
0.6599999999999999
 40
0.6599999999999999
 40
1.0
 40
1.0
 40
1.0
 40
1.0
 40
1.0
 40
1.0
 40
1.0
 40
1.0
 10
200.6137733427099
 20
790.857613148773
 30
0.0
 10
200.6137735161922
 20
790.2922572140953
 30
0.0
 10
200.5572194453112
 20
789.7269012620637
 30
0.0
 10
200.4254035790011
 20
789.1751075282266
 30
0.0
 10
200.2012030665715
 20
788.6148085344441
 30
0.0
 10
199.8001807080782
 20
788.1650779393713
 30
0.0
 10
199.0809534042411
 20
787.6706822157164
 30
0.0
 10
198.2609962618629
 20
787.4081388015061
 30
0.0
 10
197.9755665367328
 20
787.3431211963225
 30
0.0
 10
197.6868591836125
 20
787.2983155487619
 30
0.0
 10
197.3962627183719
 20
787.2707537045219
 30
0.0
 10
197.1050187566548
 20
787.2579604817208
 30
0.0
 10
196.8137747912557
 20
787.2579603980349
 30
0.0
  0
SPLINE
  5
1C1
330
1AB
100
AcDbEntity
  8
0
  6
Continuous
 62
     0
370
    30
100
AcDbSpline
210
0.0
220
0.0
230
1.0
 70
     8
 71
     7
 72
    21
 73
    13
 74
     0
 42
0.000000001
 43
0.0
 40
0.0000000287205835
 40
0.0000000287205835
 40
0.0000000287205835
 40
0.0000000287205835
 40
0.0000000287205835
 40
0.0000000287205835
 40
0.0000000287205835
 40
0.0000000287205835
 40
0.34
 40
0.34
 40
0.34
 40
0.34
 40
0.34
 40
1.0
 40
1.0
 40
1.0
 40
1.0
 40
1.0
 40
1.0
 40
1.0
 40
1.0
 10
196.8137778574731
 20
777.2579603980399
 30
0.0
 10
197.1398712197068
 20
777.2579604833709
 30
0.0
 10
197.4659645863144
 20
777.2414488903953
 30
0.0
 10
197.7911928758368
 20
777.2051089677925
 30
0.0
 10
198.1127299075952
 20
777.145026022938
 30
0.0
 10
198.4298204448235
 20
777.055358732442
 30
0.0
 10
199.3235622936776
 20
776.6837171415748
 30
0.0
 10
200.0291070092205
 20
775.9886527514753
 30
0.0
 10
200.3407939101738
 20
775.3708118925855
 30
0.0
 10
200.4772813391254
 20
774.7535505581703
 30
0.0
 10
200.5759738633046
 20
774.1236340025789
 30
0.0
 10
200.6137786738719
 20
773.4906291966647
 30
0.0
 10
200.6137788681859
 20
772.8576243791456
 30
0.0
  0
LINE
  5
1C2
330
1AB
100
AcDbEntity
  8
0
  6
Continuous
 62
     0
370
    30
100
AcDbLine
 10
241.013772
 20
793.757973
 30
0.0
 11
241.013782
 21
763.757973
 31
0.0
  0
SPLINE
  5
1C3
330
1AB
100
AcDbEntity
  8
0
  6
Continuous
 62
     0
370
     0
100
AcDbSpline
210
0.0
220
0.0
230
1.0
 70
     8
 71
     7
 72
    41
 73
    33
 74
     0
 42
0.000000001
 43
0.0
 40
0.0
 40
0.0
 40
0.0
 40
0.0
 40
0.0
 40
0.0
 40
0.0
 40
0.0
 40
0.24
 40
0.24
 40
0.24
 40
0.24
 40
0.24
 40
0.4072
 40
0.4072
 40
0.4072
 40
0.4072
 40
0.4072
 40
0.49149616
 40
0.49149616
 40
0.49149616
 40
0.49149616
 40
0.49149616
 40
0.500000409248974
 40
0.500000409248974
 40
0.500000409248974
 40
0.500000409248974
 40
0.500000409248974
 40
0.875512
 40
0.875512
 40
0.875512
 40
0.875512
 40
0.875512
 40
0.999999986493276
 40
0.999999986493276
 40
0.999999986493276
 40
0.999999986493276
 40
0.999999986493276
 40
0.999999986493276
 40
0.999999986493276
 40
0.999999986493276
 10
200.6137788681754
 20
772.8576243791456
 30
0.0
 10
200.613699626786
 20
772.8578961427122
 30
0.0
 10
200.6692136164442
 20
772.9809341337304
 30
0.0
 10
200.7804712887335
 20
773.2284132276949
 30
0.0
 10
200.9399316947173
 20
773.5963942955782
 30
0.0
 10
201.1360674883664
 20
774.0642258386772
 30
0.0
 10
201.5045203111779
 20
775.0272416577566
 30
0.0
 10
201.8903536000807
 20
776.2376653402878
 30
0.0
 10
202.046560609336
 20
776.7725219399783
 30
0.0
 10
202.1952259392981
 20
777.3422349387721
 30
0.0
 10
202.3300770246354
 20
777.9440808993016
 30
0.0
 10
202.5029094798559
 20
778.8899335615622
 30
0.0
 10
202.6222593670937
 20
779.8814816694987
 30
0.0
 10
202.6557647068514
 20
780.2181313462089
 30
0.0
 10
202.6822498989142
 20
780.5581659491398
 30
0.0
 10
202.7016074369561
 20
780.9007060001748
 30
0.0
 10
202.7143578000885
 20
781.2794676469383
 30
0.0
 10
202.717697666586
 20
781.6587581826888
 30
0.0
 10
202.7179247708534
 20
781.6935198099599
 30
0.0
 10
202.7180729936103
 20
781.7282837214029
 30
0.0
 10
202.7181424284313
 20
781.763048841747
 30
0.0
 10
202.7177248992389
 20
783.3329004424243
 30
0.0
 10
202.5571169325536
 20
784.9008501092944
 30
0.0
 10
202.2571927492927
 20
786.3402066578989
 30
0.0
 10
201.8739558968729
 20
787.6058607200733
 30
0.0
 10
201.4892336889578
 20
788.6939975596729
 30
0.0
 10
201.0408740828292
 20
789.8449473247608
 30
0.0
 10
200.760507952202
 20
790.5105970106721
 30
0.0
 10
200.7026704965179
 20
790.6430742894049
 30
0.0
 10
200.6585271680397
 20
790.746005537805
 30
0.0
 10
200.6286482442981
 20
790.8179327596332
 30
0.0
 10
200.613732250999
 20
790.8555876412811
 30
0.0
 10
200.6137733427099
 20
790.8576131472347
 30
0.0
  0
LINE
  5
1C4
330
1AB
100
AcDbEntity
  8
0
  6
Continuous
 62
     0
370
    30
100
AcDbLine
 10
241.013782
 20
763.757973
 30
0.0
 11
200.613782
 21
763.757961
 31
0.0
  0
LINE
  5
1C5
330
1AB
100
AcDbEntity
  8
0
  6
Continuous
 62
     0
370
     0
100
AcDbLine
 10
200.613772
 20
793.757961
 30
0.0
 11
241.013772
 21
793.757973
 31
0.0
  0
LINE
  5
1C6
330
1AB
100
AcDbEntity
  8
0
  6
Continuous
 62
     0
370
    30
100
AcDbLine
 10
220.812179
 20
794.257967
 30
0.0
 11
240.513772
 21
794.257973
 31
0.0
  0
LINE
  5
1C7
330
1AB
100
AcDbEntity
  8
0
  6
Continuous
 62
     0
370
    30
100
AcDbLine
 10
201.113772
 20
794.257961
 30
0.0
 11
220.812179
 21
794.257967
 31
0.0
  0
LINE
  5
1C8
330
1AB
100
AcDbEntity
  8
0
  6
Continuous
 62
     0
370
    30
100
AcDbLine
 10
201.112955
 20
794.257961
 30
0.0
 11
201.14555
 21
794.257961
 31
0.0
  0
LINE
  5
1C9
330
1AB
100
AcDbEntity
  8
0
  6
Continuous
 62
     0
370
    30
100
AcDbLine
 10
240.51459
 20
794.257973
 30
0.0
 11
240.482002
 21
794.257973
 31
0.0
  0
ARC
  5
1CA
330
1AB
100
AcDbEntity
  8
0
  6
Continuous
 62
     0
370
    30
100
AcDbCircle
 10
240.513752
 20
793.757953
 30
0.0
 40
0.5000199794492901
100
AcDbArc
 50
0.002307
 51
89.993376
  0
ARC
  5
1CB
330
1AB
100
AcDbEntity
  8
0
  6
Continuous
 62
     0
370
    30
100
AcDbCircle
 10
201.113792
 20
793.757941
 30
0.0
 40
0.5000199793995441
100
AcDbArc
 50
90.006658
 51
179.997728
  0
LINE
  5
1CC
330
1AB
100
AcDbEntity
  8
0
  6
Continuous
 62
     0
370
    30
100
AcDbLine
 10
200.613772
 20
793.757961
 30
0.0
 11
200.613773
 21
790.857604
 31
0.0
  0
LINE
  5
1CD
330
1AB
100
AcDbEntity
  8
0
  6
Continuous
 62
     0
370
    30
100
AcDbLine
 10
200.613779
 20
772.857636
 30
0.0
 11
200.613782
 21
763.757961
 31
0.0
  0
LINE
  5
1CE
330
1AB
100
AcDbEntity
  8
0
  6
Continuous
 62
     0
370
    30
100
AcDbLine
 10
143.513775
 20
787.257945
 30
0.0
 11
196.813775
 21
787.25796
 31
0.0
  0
LINE
  5
1CF
330
1AB
100
AcDbEntity
  8
0
  6
Continuous
 62
     0
370
    30
100
AcDbLine
 10
143.513777
 20
777.257945
 30
0.0
 11
196.813778
 21
777.25796
 31
0.0
  0
ARC
  5
1D0
330
1AB
100
AcDbEntity
  8
0
  6
Continuous
 62
     0
370
    30
100
AcDbCircle
 10
143.513802
 20
786.757927
 30
0.0
 40
0.5000177367056926
100
AcDbArc
 50
90.003154
 51
177.347447
  0
ARC
  5
1D1
330
1AB
100
AcDbEntity
  8
0
  6
Continuous
 62
     0
370
    30
100
AcDbCircle
 10
143.513805
 20
777.757963
 30
0.0
 40
0.5000177366908385
100
AcDbArc
 50
182.652586
 51
269.996879
  0
SPLINE
  5
1D2
330
1AB
100
AcDbEntity
  8
0
  6
Continuous
 62
     0
370
     0
100
AcDbSpline
210
0.0
220
0.0
230
1.0
 70
     8
 71
     3
 72
    31
 73
    27
 74
     0
 42
0.000000001
 43
0.0
 40
0.0
 40
0.0
 40
0.0
 40
0.0
 40
0.017287159795259
 40
0.051861479385778
 40
0.076996925908164
 40
0.112740992305858
 40
0.164609455289785
 40
0.206036394241346
 40
0.242217207976323
 40
0.305472579554517
 40
0.360892552861089
 40
0.4107243373895971
 40
0.456513850737288
 40
0.50000881154421
 40
0.5435051176066971
 40
0.589290302202794
 40
0.6391214844027191
 40
0.694542480036373
 40
0.7577987981595331
 40
0.7939891070191561
 40
0.83544670806703
 40
0.8873886803790662
 40
0.9231845935283539
 40
0.948325079493656
 40
0.982775026497885
 40
1.0
 40
1.0
 40
1.0
 40
1.0
 10
200.8137841624257
 20
757.5127447442509
 30
0.0
 10
200.8137600861615
 20
757.5121827071382
 30
0.0
 10
200.8348352311405
 20
757.4876316490183
 30
0.0
 10
200.9606961211903
 20
757.3251968373202
 30
0.0
 10
201.2422979881966
 20
756.9709835484176
 30
0.0
 10
201.7152986094192
 20
756.3713389597779
 30
0.0
 10
202.45388582375
 20
755.4151557540728
 30
0.0
 10
203.3434852171356
 20
754.2179697726307
 30
0.0
 10
204.4016922647043
 20
752.7276473807121
 30
0.0
 10
205.6438116063417
 20
750.8510692386023
 30
0.0
 10
206.9620882417669
 20
748.5270320395783
 30
0.0
 10
207.9855062448348
 20
746.206418182932
 30
0.0
 10
208.6525989578499
 20
743.8721666653345
 30
0.0
 10
208.8925121113252
 20
741.5129538535515
 30
0.0
 10
208.6518598162982
 20
739.1540861869568
 30
0.0
 10
207.9857786070301
 20
736.8194792528436
 30
0.0
 10
206.962151448155
 20
734.4989874453421
 30
0.0
 10
205.6438612096352
 20
732.1750039700804
 30
0.0
 10
204.401675976949
 20
730.2981815422758
 30
0.0
 10
203.3430240215473
 20
728.807786144933
 30
0.0
 10
202.4524974801515
 20
727.6104604537297
 30
0.0
 10
201.7132103480243
 20
726.6547199897655
 30
0.0
 10
201.2403752622879
 20
726.0553551115618
 30
0.0
 10
200.9597876537107
 20
725.7015251357818
 30
0.0
 10
200.8346940748149
 20
725.5383389618246
 30
0.0
 10
200.8137706012686
 20
725.5135515893686
 30
0.0
 10
200.8137945913147
 20
725.5128350952525
 30
0.0
  0
LINE
  5
1D3
330
1AB
100
AcDbEntity
  8
0
  6
Continuous
 62
     0
370
    30
100
AcDbLine
 10
240.813874
 20
481.541671
 30
0.0
 11
240.813783
 21
760.954149
 31
0.0
  0
LINE
  5
1D4
330
1AB
100
AcDbEntity
  8
0
  6
Continuous
 62
     0
370
    30
100
AcDbLine
 10
240.813783
 20
760.954149
 30
0.0
 11
240.813783
 21
762.01276
 31
0.0
  0
LINE
  5
1D5
330
1AB
100
AcDbEntity
  8
0
  6
Continuous
 62
     0
370
    30
100
AcDbLine
 10
240.813783
 20
762.01276
 30
0.0
 11
200.813783
 21
762.012747
 31
0.0
  0
SPLINE
  5
1D6
330
1AB
100
AcDbEntity
  8
0
  6
Continuous
 62
     0
370
    30
100
AcDbSpline
210
0.0
220
0.0
230
1.0
 70
     8
 71
     3
 72
    16
 73
    12
 74
     0
 42
0.000000001
 43
0.0
 40
0.0
 40
0.0
 40
0.0
 40
0.0
 40
0.047816995130667
 40
0.143450985392001
 40
0.290233555895009
 40
0.4369647895447289
 40
0.5820147576898891
 40
0.7243818256556961
 40
0.863546408965853
 40
0.9545154696552839
 40
1.0
 40
1.0
 40
1.0
 40
1.0
 10
200.8137945924933
 20
725.5128350952525
 30
0.0
 10
200.8137945432888
 20
725.6628241212709
 30
0.0
 10
200.7920668497185
 20
726.112791195189
 30
0.0
 10
200.6199557882638
 20
727.01622905257
 30
0.0
 10
200.1508403753945
 20
728.1528993326001
 30
0.0
 10
199.3649384970154
 20
729.2939824686061
 30
0.0
 10
198.3782266517694
 20
730.2455917809295
 30
0.0
 10
197.2376385176158
 20
730.9645412629177
 30
0.0
 10
196.1297517119403
 20
731.363024029218
 30
0.0
 10
195.2690269490291
 20
731.4964138406624
 30
0.0
 10
194.8410088140782
 20
731.5127445916974
 30
0.0
 10
194.6983361016492
 20
731.5127445451997
 30
0.0
  0
SPLINE
  5
1D7
330
1AB
100
AcDbEntity
  8
0
  6
Continuous
 62
     0
370
    30
100
AcDbSpline
210
0.0
220
0.0
230
1.0
 70
     8
 71
     3
 72
    12
 73
     8
 74
     0
 42
0.000000001
 43
0.0
 40
0.0
 40
0.0
 40
0.0
 40
0.0
 40
0.111878207966194
 40
0.335634623898582
 40
0.671608871002294
 40
0.8905362903340981
 40
1.0
 40
1.0
 40
1.0
 40
1.0
 10
199.2686828315711
 20
753.6849990626389
 30
0.0
 10
199.3729813063032
 20
753.8023132027558
 30
0.0
 10
199.6735649923762
 20
754.1652014092753
 30
0.0
 10
200.1973202003366
 20
754.9561102435207
 30
0.0
 10
200.6215926867367
 20
755.9723286056145
 30
0.0
 10
200.7927898338976
 20
756.8984003811397
 30
0.0
 10
200.8137842138794
 20
757.3591586556777
 30
0.0
 10
200.8137841639111
 20
757.512744744251
 30
0.0
  0
SPLINE
  5
1D8
330
1AB
100
AcDbEntity
  8
0
  6
Continuous
 62
     0
370
    30
100
AcDbSpline
210
0.0
220
0.0
230
1.0
 70
     8
 71
     3
 72
    12
 73
     8
 74
     0
 42
0.000000001
 43
0.0
 40
0.0
 40
0.0
 40
0.0
 40
0.0
 40
0.108060844157032
 40
0.324182532471095
 40
0.657504398275734
 40
0.8858347994252451
 40
1.0
 40
1.0
 40
1.0
 40
1.0
 10
194.6983295835747
 20
751.5127445452041
 30
0.0
 10
194.8853872920231
 20
751.5127446061665
 30
0.0
 10
195.44656039422
 20
751.5429640894442
 30
0.0
 10
196.5743910111124
 20
751.7848552380285
 30
0.0
 10
197.7977067138837
 20
752.3784214357717
 30
0.0
 10
198.7239361379829
 20
753.1115703128814
 30
0.0
 10
199.137374665221
 20
753.5373046244863
 30
0.0
 10
199.2686828315711
 20
753.6849990626389
 30
0.0
  0
LINE
  5
1D9
330
1AB
100
AcDbEntity
  8
0
  6
Continuous
 62
     0
370
     0
100
AcDbLine
 10
194.698164
 20
731.754207
 30
0.0
 11
194.69833
 21
751.512745
 31
0.0
  0
SPLINE
  5
1DA
330
1AB
100
AcDbEntity
  8
0
  6
Continuous
 62
     0
370
     0
100
AcDbSpline
210
0.0
220
0.0
230
1.0
 70
     8
 71
     3
 72
    10
 73
     6
 74
     0
 42
0.000000001
 43
0.0
 40
0.0
 40
0.0
 40
0.0
 40
0.0
 40
0.333333333333333
 40
0.666666666666667
 40
1.0
 40
1.0
 40
1.0
 40
1.0
 10
194.6983361016492
 20
731.5127445451997
 30
0.0
 10
194.69831672634
 20
731.5127437292548
 30
0.0
 10
194.6982792860666
 20
731.5306092542953
 30
0.0
 10
194.6982209682784
 20
731.6116339478549
 30
0.0
 10
194.6981831877251
 20
731.7008631421853
 30
0.0
 10
194.6981644521948
 20
731.7542073221889
 30
0.0
  0
LINE
  5
1DB
330
1AB
100
AcDbEntity
  8
0
  6
Continuous
 62
     0
370
    30
100
AcDbLine
 10
194.698336
 20
731.512745
 30
0.0
 11
71.890994
 21
731.512705
 31
0.0
  0
LINE
  5
1DC
330
1AB
100
AcDbEntity
  8
0
  6
Continuous
 62
     0
370
    30
100
AcDbLine
 10
71.890987
 20
751.512705
 30
0.0
 11
194.69833
 21
751.512745
 31
0.0
  0
SPLINE
  5
1DD
330
1AB
100
AcDbEntity
  8
0
  6
Continuous
 62
     0
370
     0
100
AcDbSpline
210
0.0
220
0.0
230
1.0
 70
     8
 71
     3
 72
    23
 73
    19
 74
     0
 42
0.000000001
 43
0.0
 40
0.0
 40
0.0
 40
0.0
 40
0.0
 40
0.023809522687476
 40
0.071428568062429
 40
0.142857127052635
 40
0.214285690720065
 40
0.285714281419627
 40
0.357142857823145
 40
0.4285714241631671
 40
0.499999999991276
 40
0.5714285758192951
 40
0.6428571421593089
 40
0.714285718563603
 40
0.7857143092655658
 40
0.8571428729374272
 40
0.9285714319333058
 40
0.9761904773111022
 40
1.0
 40
1.0
 40
1.0
 40
1.0
 10
71.89099356330189
 20
731.5127045247207
 30
0.0
 10
71.8909740233608
 20
731.5126992079114
 30
0.0
 10
71.89091539441205
 20
731.5405411503065
 30
0.0
 10
71.8907985695196
 20
731.7642000334697
 30
0.0
 10
71.89064967438478
 20
732.4269515519906
 30
0.0
 10
71.8904990874153
 20
733.6283746421772
 30
0.0
 10
71.89037317399644
 20
735.225088525945
 30
0.0
 10
71.890278193754
 20
737.1371065969657
 30
0.0
 10
71.89021892403971
 20
739.2685313065749
 30
0.0
 10
71.89019833282282
 20
741.5124890336463
 30
0.0
 10
71.89021745387407
 20
743.7564575663112
 30
0.0
 10
71.89027532714368
 20
745.8879141501892
 30
0.0
 10
71.89036905468453
 20
747.7999835680567
 30
0.0
 10
71.89049392197555
 20
749.3967656885371
 30
0.0
 10
71.89064372179288
 20
750.5982705131094
 30
0.0
 10
71.89079218268915
 20
751.2611029413761
 30
0.0
 10
71.89090886102642
 20
751.4848253601727
 30
0.0
 10
71.89096747172357
 20
751.5126992032066
 30
0.0
 10
71.8909870116646
 20
751.5127045199479
 30
0.0
  0
ARC
  5
1DE
330
1AB
100
AcDbEntity
  8
0
  6
Continuous
 62
     0
370
    30
100
AcDbCircle
 10
71.891101
 20
711.51253
 30
0.0
 40
40.00017490598951
100
AcDbArc
 50
90.000164
 51
149.999874
  0
SPLINE
  5
1DF
330
1AB
100
AcDbEntity
  8
0
  6
Continuous
 62
     0
370
     0
100
AcDbSpline
210
0.0
220
0.0
230
1.0
 70
     8
 71
     3
 72
    23
 73
    19
 74
     0
 42
0.000000001
 43
0.0
 40
0.0
 40
0.0
 40
0.0
 40
0.0
 40
0.023809522688812
 40
0.071428568066435
 40
0.142857127061636
 40
0.214285690732392
 40
0.285714281432774
 40
0.357142857835291
 40
0.4285714241738221
 40
0.5000000000010301
 40
0.5714285758290479
 40
0.642857142169417
 40
0.7142857185732839
 40
0.785714309272931
 40
0.8571428729405831
 40
0.9285714319325988
 40
0.976190477310866
 40
1.0
 40
1.0
 40
1.0
 40
1.0
 10
37.24997748735836
 20
731.5126932312894
 30
0.0
 10
37.24996255183601
 20
731.5126905729144
 30
0.0
 10
37.27404339264967
 20
731.4987536592473
 30
0.0
 10
37.46767597524507
 20
731.3868925129523
 30
0.0
 10
38.04155712577079
 20
731.0554764858231
 30
0.0
 10
39.08194082765294
 20
730.4547244125581
 30
0.0
 10
40.46466957639922
 20
729.6563338029138
 30
0.0
 10
42.12047622173367
 20
728.7002996335889
 30
0.0
 10
43.96631354407683
 20
727.634571943212
 30
0.0
 10
45.90962780593011
 20
726.5125883102313
 30
0.0
 10
47.85297242217769
 20
725.3906100800725
 30
0.0
 10
49.69889928370364
 20
724.3248983268976
 30
0.0
 10
51.35485016933069
 20
723.3688898310858
 30
0.0
 10
52.7377706042646
 20
722.570533339881
 30
0.0
 10
53.7783839090728
 20
721.9698221338506
 30
0.0
 10
54.35249234590364
 20
721.6384465615613
 30
0.0
 10
54.54630340849022
 20
721.526617182976
 30
0.0
 10
54.57047386239168
 20
721.512696219541
 30
0.0
 10
54.57048879790938
 20
721.5126988779082
 30
0.0
  0
ARC
  5
1E0
330
1AB
100
AcDbEntity
  8
0
  6
Continuous
 62
     0
370
    30
100
AcDbCircle
 10
71.891051
 20
711.512617
 30
0.0
 40
20.00008738089046
100
AcDbArc
 50
90.000164
 51
149.999874
  0
LINE
  5
1E1
330
1AB
100
AcDbEntity
  8
0
  6
Continuous
 62
     0
370
    30
100
AcDbLine
 10
37.249978
 20
731.512693
 30
0.0
 11
28.255052
 21
715.933003
 31
0.0
  0
LINE
  5
1E2
330
1AB
100
AcDbEntity
  8
0
  6
Continuous
 62
     0
370
    30
100
AcDbLine
 10
28.255052
 20
715.933004
 30
0.0
 11
45.575567
 21
705.933015
 31
0.0
  0
LINE
  5
1E3
330
1AB
100
AcDbEntity
  8
0
  6
Continuous
 62
     0
370
    30
100
AcDbLine
 10
45.575567
 20
705.933014
 30
0.0
 11
54.570489
 21
721.512699
 31
0.0
  0
LINE
  5
1E4
330
1AB
100
AcDbEntity
  8
0
  6
Continuous
 62
     0
370
    30
100
AcDbLine
 10
200.813874
 20
481.541658
 30
0.0
 11
200.813795
 21
725.512839
 31
0.0
  0
LINE
  5
1E5
330
1AB
100
AcDbEntity
  8
0
  6
Continuous
 62
     0
370
    30
100
AcDbLine
 10
200.813784
 20
757.512742
 30
0.0
 11
200.813783
 21
762.012747
 31
0.0
  0
ENDBLK
  5
1E7
330
1AB
100
AcDbEntity
  8
0
100
AcDbBlockEnd
  0
ENDSEC
  0
SECTION
  2
ENTITIES
  0
INSERT
  5
140
330
1F
100
AcDbEntity
  8
0
  6
Continuous
 62
     7
370
     0
100
AcDbBlockReference
  2
a
 10
361.39743
 20
102.135033
 30
0.0
  0
INSERT
  5
16D
330
1F
100
AcDbEntity
  8
0
  6
Continuous
 62
     7
370
     0
100
AcDbBlockReference
  2
b
 10
361.39743
 20
102.135033
 30
0.0
  0
INSERT
  5
1AA
330
1F
100
AcDbEntity
  8
0
  6
Continuous
 62
     7
370
     0
100
AcDbBlockReference
  2
c
 10
361.39743
 20
102.135033
 30
0.0
  0
INSERT
  5
1E8
330
1F
100
AcDbEntity
  8
0
  6
Continuous
 62
     7
370
     0
100
AcDbBlockReference
  2
d
 10
295.931122
 20
0.0
 30
0.0
  0
ENDSEC
  0
SECTION
  2
OBJECTS
  0
DICTIONARY
  5
C
330
0
100
AcDbDictionary
281
     1
  3
ACAD_GROUP
350
D
  3
ACAD_LAYOUT
350
1A
  3
ACAD_MATERIAL
350
43
  3
ACAD_MLEADERSTYLE
350
6B
  3
ACAD_MLINESTYLE
350
17
  3
ACAD_PLOTSETTINGS
350
19
  3
ACAD_PLOTSTYLENAME
350
E
  3
ACAD_SCALELIST
350
47
  3
ACAD_TABLESTYLE
350
69
  3
ACAD_VISUALSTYLE
350
2A
  3
AcDbVariableDictionary
350
1E9
  0
DICTIONARY
  5
1F4
330
8
100
AcDbDictionary
280
     1
281
     1
  3
ACAD_XREC_ROUNDTRIP
360
1F5
  0
DICTIONARY
  5
D
102
{ACAD_REACTORS
330
C
102
}
330
C
100
AcDbDictionary
281
     1
  0
DICTIONARY
  5
1A
102
{ACAD_REACTORS
330
C
102
}
330
C
100
AcDbDictionary
281
     1
  3
Layout1
350
1E
  3
Layout2
350
26
  3
Model
350
22
  0
DICTIONARY
  5
43
102
{ACAD_REACTORS
330
C
102
}
330
C
100
AcDbDictionary
281
     1
  3
ByBlock
350
45
  3
ByLayer
350
44
  3
Global
350
46
  0
DICTIONARY
  5
6B
102
{ACAD_REACTORS
330
C
102
}
330
C
100
AcDbDictionary
281
     1
  3
Standard
350
6C
  0
DICTIONARY
  5
17
102
{ACAD_REACTORS
330
C
102
}
330
C
100
AcDbDictionary
281
     1
  3
Standard
350
18
  0
DICTIONARY
  5
19
102
{ACAD_REACTORS
330
C
102
}
330
C
100
AcDbDictionary
281
     1
  0
ACDBDICTIONARYWDFLT
  5
E
102
{ACAD_REACTORS
330
C
102
}
330
C
100
AcDbDictionary
281
     1
  3
Normal
350
F
100
AcDbDictionaryWithDefault
340
F
  0
DICTIONARY
  5
47
102
{ACAD_REACTORS
330
C
102
}
330
C
100
AcDbDictionary
281
     1
  3
A0
350
48
  3
A1
350
49
  3
A2
350
4A
  3
A3
350
4B
  3
A4
350
4C
  3
A5
350
4D
  3
A6
350
4E
  3
A7
350
4F
  3
A8
350
50
  3
A9
350
51
  3
B0
350
52
  3
B1
350
53
  3
B2
350
54
  3
B3
350
55
  3
B4
350
56
  3
B5
350
57
  3
B6
350
58
  3
B7
350
59
  3
B8
350
5A
  3
B9
350
5B
  3
C0
350
5C
  3
C1
350
5D
  3
C2
350
5E
  3
C3
350
5F
  3
C4
350
60
  3
C5
350
61
  3
C6
350
62
  3
C7
350
63
  3
C8
350
64
  3
C9
350
65
  3
D0
350
66
  3
D1
350
67
  3
D2
350
68
  0
DICTIONARY
  5
69
102
{ACAD_REACTORS
330
C
102
}
330
C
100
AcDbDictionary
281
     1
  3
Standard
350
6A
  0
DICTIONARY
  5
2A
102
{ACAD_REACTORS
330
C
102
}
330
C
100
AcDbDictionary
281
     1
  3
2dWireframe
350
2F
  3
Basic
350
32
  3
Brighten
350
36
  3
ColorChange
350
3A
  3
Conceptual
350
34
  3
Dim
350
35
  3
EdgeColorOff
350
3D
  3
Facepattern
350
39
  3
Flat
350
2B
  3
FlatWithEdges
350
2C
  3
Gouraud
350
2D
  3
GouraudWithEdges
350
2E
  3
Hidden
350
31
  3
JitterOff
350
3B
  3
Linepattern
350
38
  3
OverhangOff
350
3C
  3
Realistic
350
33
  3
Shaded
350
42
  3
Shaded with edges
350
41
  3
Shades of Gray
350
3E
  3
Sketchy
350
3F
  3
Thicken
350
37
  3
Wireframe
350
30
  3
X-Ray
350
40
  0
DICTIONARY
  5
1E9
102
{ACAD_REACTORS
330
C
102
}
330
C
100
AcDbDictionary
281
     1
  3
CANNOSCALE
350
1F6
  3
CENTEREXE
350
1F0
  3
CENTERLTYPEFILE
350
1F1
  3
CMLEADERSTYLE
350
1EB
  3
CTABLESTYLE
350
1EA
  3
DIMASSOC
350
1F2
  3
HIDETEXT
350
1F3
  3
MSLTSCALE
350
1F7
  3
PSOLHEIGHT
350
1ED
  3
PSOLWIDTH
350
1EC
  0
XRECORD
  5
1F5
102
{ACAD_REACTORS
330
1F4
102
}
330
1F4
100
AcDbXrecord
280
     1
102
VTR_0.000_0.000_1.000_1.000_VISUALSTYLE
340
2F
102
VTR_0.000_0.000_1.000_1.000_GRIDDISPLAY
 70
     3
102
VTR_0.000_0.000_1.000_1.000_GRIDMAJOR
 70
     5
102
VTR_0.000_0.000_1.000_1.000_DEFAULTLIGHTING
280
     1
102
VTR_0.000_0.000_1.000_1.000_DEFAULTLIGHTINGTYPE
 70
     1
102
VTR_0.000_0.000_1.000_1.000_BRIGHTNESS
141
0.0
102
VTR_0.000_0.000_1.000_1.000_CONTRAST
142
0.0
  0
LAYOUT
  5
1E
102
{ACAD_REACTORS
330
1A
102
}
330
1A
100
AcDbPlotSettings
  1

  2
none_device
  4

  6

 40
0.0
 41
0.0
 42
0.0
 43
0.0
 44
0.0
 45
0.0
 46
0.0
 47
0.0
 48
0.0
 49
0.0
140
0.0
141
0.0
142
1.0
143
1.0
 70
   688
 72
     1
 73
     0
 74
     5
  7

 75
    16
147
1.0
148
0.0
149
0.0
100
AcDbLayout
  1
Layout1
 70
     1
 71
     1
 10
0.0
 20
0.0
 11
420.0
 21
297.0
 12
0.0
 22
0.0
 32
0.0
 14
1.000000E+20
 24
1.000000E+20
 34
1.000000E+20
 15
-1.000000E+20
 25
-1.000000E+20
 35
-1.000000E+20
146
0.0
 13
0.0
 23
0.0
 33
0.0
 16
1.0
 26
0.0
 36
0.0
 17
0.0
 27
1.0
 37
0.0
 76
     0
330
1B
  0
LAYOUT
  5
26
102
{ACAD_REACTORS
330
1A
102
}
330
1A
100
AcDbPlotSettings
  1

  2
none_device
  4

  6

 40
0.0
 41
0.0
 42
0.0
 43
0.0
 44
0.0
 45
0.0
 46
0.0
 47
0.0
 48
0.0
 49
0.0
140
0.0
141
0.0
142
1.0
143
1.0
 70
   688
 72
     1
 73
     0
 74
     5
  7

 75
    16
147
1.0
148
0.0
149
0.0
100
AcDbLayout
  1
Layout2
 70
     1
 71
     2
 10
0.0
 20
0.0
 11
0.0
 21
0.0
 12
0.0
 22
0.0
 32
0.0
 14
0.0
 24
0.0
 34
0.0
 15
0.0
 25
0.0
 35
0.0
146
0.0
 13
0.0
 23
0.0
 33
0.0
 16
1.0
 26
0.0
 36
0.0
 17
0.0
 27
1.0
 37
0.0
 76
     0
330
23
  0
LAYOUT
  5
22
102
{ACAD_REACTORS
330
1A
102
}
330
1A
100
AcDbPlotSettings
  1

  2
none_device
  4
Letter_(8.50_x_11.00_Inches)
  6

 40
6.35
 41
6.35
 42
6.350005
 43
6.350005
 44
215.9
 45
279.4
 46
0.0
 47
0.0
 48
0.0
 49
0.0
140
0.0
141
0.0
142
1.0
143
1.0
 70
  1712
 72
     1
 73
     0
 74
     0
  7

 75
     0
147
1.0
148
0.0
149
0.0
100
AcDbLayout
  1
Model
 70
     1
 71
     0
 10
28.255053
 20
83.5513
 11
798.751038
 21
794.258057
 12
0.0
 22
0.0
 32
0.0
 14
28.255053
 24
83.5513
 34
0.0
 15
798.751038
 25
794.258057
 35
0.0
146
0.0
 13
0.0
 23
0.0
 33
0.0
 16
1.0
 26
0.0
 36
0.0
 17
0.0
 27
1.0
 37
0.0
 76
     0
330
1F
331
29
  0
MATERIAL
  5
45
102
{ACAD_REACTORS
330
43
102
}
102
{ACAD_XDICTIONARY
360
22A
102
}
330
43
100
AcDbMaterial
  1
ByBlock
  0
MATERIAL
  5
44
102
{ACAD_REACTORS
330
43
102
}
102
{ACAD_XDICTIONARY
360
228
102
}
330
43
100
AcDbMaterial
  1
ByLayer
  0
MATERIAL
  5
46
102
{ACAD_REACTORS
330
43
102
}
102
{ACAD_XDICTIONARY
360
22C
102
}
330
43
100
AcDbMaterial
  1
Global
  0
MLEADERSTYLE
  5
6C
102
{ACAD_REACTORS
330
6B
102
}
102
{ACAD_XDICTIONARY
360
22F
102
}
330
6B
100
AcDbMLeaderStyle
170
     2
171
     1
172
     0
 90
        2
 40
0.0
 41
0.0
173
     1
 91
-1056964608
340
14
 92
       -2
290
     1
 42
2.0
291
     1
 43
8.0
  3
Standard
341
0
 44
4.0
300

342
11
174
     1
178
     6
175
     1
176
     0
 93
-1056964608
 45
4.0
292
     0
297
     0
 46
4.0
343
0
 94
-1056964608
 47
1.0
 49
1.0
140
1.0
293
     1
141
0.0
294
     1
177
     0
142
1.0
295
     0
296
     0
143
3.75
1001
ACAD_MLEADERVER
1070
     2
  0
MLINESTYLE
  5
18
102
{ACAD_REACTORS
330
17
102
}
330
17
100
AcDbMlineStyle
  2
Standard
 70
     0
  3

 62
   256
 51
90.0
 52
90.0
 71
     2
 49
0.5
 62
   256
  6
BYLAYER
 49
-0.5
 62
   256
  6
BYLAYER
  0
ACDBPLACEHOLDER
  5
F
102
{ACAD_REACTORS
330
E
102
}
330
E
  0
SCALE
  5
48
102
{ACAD_REACTORS
330
47
102
}
330
47
100
AcDbScale
 70
     0
300
1:1
140
1.0
141
1.0
290
     1
  0
SCALE
  5
49
102
{ACAD_REACTORS
330
47
102
}
330
47
100
AcDbScale
 70
     0
300
1:2
140
1.0
141
2.0
290
     0
  0
SCALE
  5
4A
102
{ACAD_REACTORS
330
47
102
}
330
47
100
AcDbScale
 70
     0
300
1:4
140
1.0
141
4.0
290
     0
  0
SCALE
  5
4B
102
{ACAD_REACTORS
330
47
102
}
330
47
100
AcDbScale
 70
     0
300
1:5
140
1.0
141
5.0
290
     0
  0
SCALE
  5
4C
102
{ACAD_REACTORS
330
47
102
}
330
47
100
AcDbScale
 70
     0
300
1:8
140
1.0
141
8.0
290
     0
  0
SCALE
  5
4D
102
{ACAD_REACTORS
330
47
102
}
330
47
100
AcDbScale
 70
     0
300
1:10
140
1.0
141
10.0
290
     0
  0
SCALE
  5
4E
102
{ACAD_REACTORS
330
47
102
}
330
47
100
AcDbScale
 70
     0
300
1:16
140
1.0
141
16.0
290
     0
  0
SCALE
  5
4F
102
{ACAD_REACTORS
330
47
102
}
330
47
100
AcDbScale
 70
     0
300
1:20
140
1.0
141
20.0
290
     0
  0
SCALE
  5
50
102
{ACAD_REACTORS
330
47
102
}
330
47
100
AcDbScale
 70
     0
300
1:30
140
1.0
141
30.0
290
     0
  0
SCALE
  5
51
102
{ACAD_REACTORS
330
47
102
}
330
47
100
AcDbScale
 70
     0
300
1:40
140
1.0
141
40.0
290
     0
  0
SCALE
  5
52
102
{ACAD_REACTORS
330
47
102
}
330
47
100
AcDbScale
 70
     0
300
1:50
140
1.0
141
50.0
290
     0
  0
SCALE
  5
53
102
{ACAD_REACTORS
330
47
102
}
330
47
100
AcDbScale
 70
     0
300
1:100
140
1.0
141
100.0
290
     0
  0
SCALE
  5
54
102
{ACAD_REACTORS
330
47
102
}
330
47
100
AcDbScale
 70
     0
300
2:1
140
2.0
141
1.0
290
     0
  0
SCALE
  5
55
102
{ACAD_REACTORS
330
47
102
}
330
47
100
AcDbScale
 70
     0
300
4:1
140
4.0
141
1.0
290
     0
  0
SCALE
  5
56
102
{ACAD_REACTORS
330
47
102
}
330
47
100
AcDbScale
 70
     0
300
8:1
140
8.0
141
1.0
290
     0
  0
SCALE
  5
57
102
{ACAD_REACTORS
330
47
102
}
330
47
100
AcDbScale
 70
     0
300
10:1
140
10.0
141
1.0
290
     0
  0
SCALE
  5
58
102
{ACAD_REACTORS
330
47
102
}
330
47
100
AcDbScale
 70
     0
300
100:1
140
100.0
141
1.0
290
     0
  0
SCALE
  5
59
102
{ACAD_REACTORS
330
47
102
}
330
47
100
AcDbScale
 70
     0
300
1/128" = 1'-0"
140
0.007812
141
12.0
290
     0
  0
SCALE
  5
5A
102
{ACAD_REACTORS
330
47
102
}
330
47
100
AcDbScale
 70
     0
300
1/64" = 1'-0"
140
0.015625
141
12.0
290
     0
  0
SCALE
  5
5B
102
{ACAD_REACTORS
330
47
102
}
330
47
100
AcDbScale
 70
     0
300
1/32" = 1'-0"
140
0.03125
141
12.0
290
     0
  0
SCALE
  5
5C
102
{ACAD_REACTORS
330
47
102
}
330
47
100
AcDbScale
 70
     0
300
1/16" = 1'-0"
140
0.0625
141
12.0
290
     0
  0
SCALE
  5
5D
102
{ACAD_REACTORS
330
47
102
}
330
47
100
AcDbScale
 70
     0
300
3/32" = 1'-0"
140
0.09375
141
12.0
290
     0
  0
SCALE
  5
5E
102
{ACAD_REACTORS
330
47
102
}
330
47
100
AcDbScale
 70
     0
300
1/8" = 1'-0"
140
0.125
141
12.0
290
     0
  0
SCALE
  5
5F
102
{ACAD_REACTORS
330
47
102
}
330
47
100
AcDbScale
 70
     0
300
3/16" = 1'-0"
140
0.1875
141
12.0
290
     0
  0
SCALE
  5
60
102
{ACAD_REACTORS
330
47
102
}
330
47
100
AcDbScale
 70
     0
300
1/4" = 1'-0"
140
0.25
141
12.0
290
     0
  0
SCALE
  5
61
102
{ACAD_REACTORS
330
47
102
}
330
47
100
AcDbScale
 70
     0
300
3/8" = 1'-0"
140
0.375
141
12.0
290
     0
  0
SCALE
  5
62
102
{ACAD_REACTORS
330
47
102
}
330
47
100
AcDbScale
 70
     0
300
1/2" = 1'-0"
140
0.5
141
12.0
290
     0
  0
SCALE
  5
63
102
{ACAD_REACTORS
330
47
102
}
330
47
100
AcDbScale
 70
     0
300
3/4" = 1'-0"
140
0.75
141
12.0
290
     0
  0
SCALE
  5
64
102
{ACAD_REACTORS
330
47
102
}
330
47
100
AcDbScale
 70
     0
300
1" = 1'-0"
140
1.0
141
12.0
290
     0
  0
SCALE
  5
65
102
{ACAD_REACTORS
330
47
102
}
330
47
100
AcDbScale
 70
     0
300
1-1/2" = 1'-0"
140
1.5
141
12.0
290
     0
  0
SCALE
  5
66
102
{ACAD_REACTORS
330
47
102
}
330
47
100
AcDbScale
 70
     0
300
3" = 1'-0"
140
3.0
141
12.0
290
     0
  0
SCALE
  5
67
102
{ACAD_REACTORS
330
47
102
}
330
47
100
AcDbScale
 70
     0
300
6" = 1'-0"
140
6.0
141
12.0
290
     0
  0
SCALE
  5
68
102
{ACAD_REACTORS
330
47
102
}
330
47
100
AcDbScale
 70
     0
300
1'-0" = 1'-0"
140
12.0
141
12.0
290
     0
  0
TABLESTYLE
  5
6A
102
{ACAD_REACTORS
330
69
102
}
330
69
100
AcDbTableStyle
  3
Standard
 70
     0
 71
     0
 40
1.5
 41
1.5
280
     0
281
     0
  7
Standard
140
4.5
170
     2
 62
     0
 63
   257
283
     0
274
    -2
284
     1
 64
     0
275
    -2
285
     1
 65
     0
276
    -2
286
     1
 66
     0
277
    -2
287
     1
 67
     0
278
    -2
288
     1
 68
     0
279
    -2
289
     1
 69
     0
  7
Standard
140
6.0
170
     5
 62
     0
 63
   257
283
     0
274
    -2
284
     1
 64
     0
275
    -2
285
     1
 65
     0
276
    -2
286
     1
 66
     0
277
    -2
287
     1
 67
     0
278
    -2
288
     1
 68
     0
279
    -2
289
     1
 69
     0
  7
Standard
140
4.5
170
     5
 62
     0
 63
   257
283
     0
274
    -2
284
     1
 64
     0
275
    -2
285
     1
 65
     0
276
    -2
286
     1
 66
     0
277
    -2
287
     1
 67
     0
278
    -2
288
     1
 68
     0
279
    -2
289
     1
 69
     0
  0
VISUALSTYLE
  5
2F
102
{ACAD_REACTORS
330
2A
102
}
102
{ACAD_XDICTIONARY
360
200
102
}
330
2A
100
AcDbVisualStyle
  2
2dWireframe
 70
     4
 71
     0
 72
     2
 73
     0
 90
        0
 40
0.6
 41
30.0
 62
     5
 63
     7
 74
     1
 91
        4
 64
     7
 65
   257
 75
     1
175
     1
 42
1.0
 92
        0
 66
   257
 43
1.0
 76
     1
 77
     6
 78
     2
 67
     7
 79
     5
170
     0
171
     0
290
     0
174
     0
 93
        1
 44
0.0
173
     0
291
     0
 45
0.0
1001
ACAD
1000
AcDbSavedByObjectVersion
1070
     0
  0
VISUALSTYLE
  5
32
102
{ACAD_REACTORS
330
2A
102
}
102
{ACAD_XDICTIONARY
360
206
102
}
330
2A
100
AcDbVisualStyle
  2
Basic
 70
     7
 71
     1
 72
     0
 73
     1
 90
        0
 40
0.6
 41
30.0
 62
     5
 63
     7
 74
     0
 91
        4
 64
     7
 65
   257
 75
     1
175
     1
 42
1.0
 92
        8
 66
     7
 43
1.0
 76
     1
 77
     6
 78
     2
 67
     7
 79
     5
170
     0
171
     0
290
     0
174
     0
 93
        1
 44
0.0
173
     0
291
     1
 45
0.0
1001
ACAD
1000
AcDbSavedByObjectVersion
1070
     0
  0
VISUALSTYLE
  5
36
102
{ACAD_REACTORS
330
2A
102
}
102
{ACAD_XDICTIONARY
360
20E
102
}
330
2A
100
AcDbVisualStyle
  2
Brighten
 70
    12
 71
     2
 72
     2
 73
     0
 90
        0
 40
0.6
 41
30.0
 62
     5
 63
     7
 74
     1
 91
        4
 64
     7
 65
   257
 75
     1
175
     1
 42
1.0
 92
        8
 66
     7
 43
1.0
 76
     1
 77
     6
 78
     2
 67
     7
 79
     5
170
     0
171
     0
290
     0
174
     0
 93
        1
 44
50.0
173
     0
291
     1
 45
0.0
1001
ACAD
1000
AcDbSavedByObjectVersion
1070
     0
  0
VISUALSTYLE
  5
3A
102
{ACAD_REACTORS
330
2A
102
}
102
{ACAD_XDICTIONARY
360
216
102
}
330
2A
100
AcDbVisualStyle
  2
ColorChange
 70
    16
 71
     2
 72
     2
 73
     3
 90
        0
 40
0.6
 41
30.0
 62
     5
 63
     8
 74
     1
 91
        4
 64
     7
 65
   257
 75
     1
175
     1
 42
1.0
 92
        8
 66
     8
 43
1.0
 76
     1
 77
     6
 78
     2
 67
     7
 79
     5
170
     0
171
     0
290
     0
174
     0
 93
        1
 44
0.0
173
     0
291
     1
 45
0.0
1001
ACAD
1000
AcDbSavedByObjectVersion
1070
     0
  0
VISUALSTYLE
  5
34
102
{ACAD_REACTORS
330
2A
102
}
102
{ACAD_XDICTIONARY
360
20A
102
}
330
2A
100
AcDbVisualStyle
  2
Conceptual
 70
     9
 71
     3
 72
     2
 73
     0
 90
        0
 40
0.6
 41
30.0
 62
     5
 63
     7
 74
     2
 91
        2
 64
     7
 65
   257
 75
     1
175
     1
 42
179.0
 92
        8
 66
     7
 43
1.0
 76
     1
 77
     6
 78
     2
 67
     7
 79
     3
170
     0
171
     0
290
     0
174
     0
 93
        1
 44
0.0
173
     0
291
     0
 45
0.0
1001
ACAD
1000
AcDbSavedByObjectVersion
1070
     0
  0
VISUALSTYLE
  5
35
102
{ACAD_REACTORS
330
2A
102
}
102
{ACAD_XDICTIONARY
360
20C
102
}
330
2A
100
AcDbVisualStyle
  2
Dim
 70
    11
 71
     2
 72
     2
 73
     0
 90
        0
 40
0.6
 41
30.0
 62
     5
 63
     7
 74
     1
 91
        4
 64
     7
 65
   257
 75
     1
175
     1
 42
1.0
 92
        8
 66
     7
 43
1.0
 76
     1
 77
     6
 78
     2
 67
     7
 79
     5
170
     0
171
     0
290
     0
174
     0
 93
        1
 44
-50.0
173
     0
291
     1
 45
0.0
1001
ACAD
1000
AcDbSavedByObjectVersion
1070
     0
  0
VISUALSTYLE
  5
3D
102
{ACAD_REACTORS
330
2A
102
}
102
{ACAD_XDICTIONARY
360
21C
102
}
330
2A
100
AcDbVisualStyle
  2
EdgeColorOff
 70
    22
 71
     2
 72
     2
 73
     0
 90
        0
 40
0.6
 41
30.0
 62
     5
 63
     7
 74
     1
 91
        4
 64
     7
 65
   257
 75
     1
175
     1
 42
1.0
 92
        8
 66
     7
 43
1.0
 76
     1
 77
     6
 78
     2
 67
     7
 79
     5
170
     0
171
     0
290
     0
174
     0
 93
        1
 44
0.0
173
     0
291
     1
 45
0.0
1001
ACAD
1000
AcDbSavedByObjectVersion
1070
     0
  0
VISUALSTYLE
  5
39
102
{ACAD_REACTORS
330
2A
102
}
102
{ACAD_XDICTIONARY
360
214
102
}
330
2A
100
AcDbVisualStyle
  2
Facepattern
 70
    15
 71
     2
 72
     2
 73
     0
 90
        0
 40
0.6
 41
30.0
 62
     5
 63
     7
 74
     1
 91
        4
 64
     7
 65
   257
 75
     1
175
     1
 42
1.0
 92
        8
 66
     7
 43
1.0
 76
     1
 77
     6
 78
     2
 67
     7
 79
     5
170
     0
171
     0
290
     0
174
     0
 93
        1
 44
0.0
173
     0
291
     1
 45
0.0
1001
ACAD
1000
AcDbSavedByObjectVersion
1070
     0
  0
VISUALSTYLE
  5
2B
102
{ACAD_REACTORS
330
2A
102
}
102
{ACAD_XDICTIONARY
360
1F8
102
}
330
2A
100
AcDbVisualStyle
  2
Flat
 70
     0
 71
     2
 72
     1
 73
     1
 90
        2
 40
0.6
 41
30.0
 62
     5
 63
     7
 74
     0
 91
        0
 64
     7
 65
   257
 75
     1
175
     1
 42
1.0
 92
        8
 66
     7
 43
1.0
 76
     1
 77
     6
 78
     2
 67
     7
 79
     5
170
     0
171
     0
290
     0
174
     0
 93
       13
 44
0.0
173
     0
291
     1
 45
0.0
1001
ACAD
1000
AcDbSavedByObjectVersion
1070
     0
  0
VISUALSTYLE
  5
2C
102
{ACAD_REACTORS
330
2A
102
}
102
{ACAD_XDICTIONARY
360
1FA
102
}
330
2A
100
AcDbVisualStyle
  2
FlatWithEdges
 70
     1
 71
     2
 72
     1
 73
     1
 90
        2
 40
0.6
 41
30.0
 62
     5
 63
     7
 74
     1
 91
        0
 64
     7
 65
   257
 75
     1
175
     1
 42
1.0
 92
        0
 66
   257
 43
1.0
 76
     1
 77
     6
 78
     2
 67
     7
 79
     5
170
     0
171
     0
290
     0
174
     0
 93
       13
 44
0.0
173
     0
291
     1
 45
0.0
1001
ACAD
1000
AcDbSavedByObjectVersion
1070
     0
  0
VISUALSTYLE
  5
2D
102
{ACAD_REACTORS
330
2A
102
}
102
{ACAD_XDICTIONARY
360
1FC
102
}
330
2A
100
AcDbVisualStyle
  2
Gouraud
 70
     2
 71
     2
 72
     2
 73
     1
 90
        2
 40
0.6
 41
30.0
 62
     5
 63
     7
 74
     0
 91
        0
 64
     7
 65
   257
 75
     1
175
     1
 42
1.0
 92
        0
 66
     7
 43
1.0
 76
     1
 77
     6
 78
     2
 67
     7
 79
     5
170
     0
171
     0
290
     0
174
     0
 93
       13
 44
0.0
173
     0
291
     1
 45
0.0
1001
ACAD
1000
AcDbSavedByObjectVersion
1070
     0
  0
VISUALSTYLE
  5
2E
102
{ACAD_REACTORS
330
2A
102
}
102
{ACAD_XDICTIONARY
360
1FE
102
}
330
2A
100
AcDbVisualStyle
  2
GouraudWithEdges
 70
     3
 71
     2
 72
     2
 73
     1
 90
        2
 40
0.6
 41
30.0
 62
     5
 63
     7
 74
     1
 91
        0
 64
     7
 65
   257
 75
     1
175
     1
 42
1.0
 92
        0
 66
   257
 43
1.0
 76
     1
 77
     6
 78
     2
 67
     7
 79
     5
170
     0
171
     0
290
     0
174
     0
 93
       13
 44
0.0
173
     0
291
     1
 45
0.0
1001
ACAD
1000
AcDbSavedByObjectVersion
1070
     0
  0
VISUALSTYLE
  5
31
102
{ACAD_REACTORS
330
2A
102
}
102
{ACAD_XDICTIONARY
360
204
102
}
330
2A
100
AcDbVisualStyle
  2
Hidden
 70
     6
 71
     1
 72
     2
 73
     2
 90
        0
 40
0.6
 41
30.0
 62
     5
 63
     7
 74
     2
 91
        2
 64
     7
 65
   257
 75
     2
175
     1
 42
40.0
 92
        0
 66
   257
 43
1.0
 76
     1
 77
     6
 78
     2
 67
     7
 79
     3
170
     0
171
     0
290
     0
174
     0
 93
        1
 44
0.0
173
     0
291
     0
 45
0.0
1001
ACAD
1000
AcDbSavedByObjectVersion
1070
     0
  0
VISUALSTYLE
  5
3B
102
{ACAD_REACTORS
330
2A
102
}
102
{ACAD_XDICTIONARY
360
218
102
}
330
2A
100
AcDbVisualStyle
  2
JitterOff
 70
    20
 71
     2
 72
     2
 73
     0
 90
        0
 40
0.6
 41
30.0
 62
     5
 63
     7
 74
     1
 91
        4
 64
     7
 65
   257
 75
     1
175
     1
 42
1.0
 92
       10
 66
     7
 43
1.0
 76
     1
 77
     6
 78
     2
 67
     7
 79
     5
170
     0
171
     0
290
     0
174
     0
 93
        1
 44
0.0
173
     0
291
     1
 45
0.0
1001
ACAD
1000
AcDbSavedByObjectVersion
1070
     0
  0
VISUALSTYLE
  5
38
102
{ACAD_REACTORS
330
2A
102
}
102
{ACAD_XDICTIONARY
360
212
102
}
330
2A
100
AcDbVisualStyle
  2
Linepattern
 70
    14
 71
     2
 72
     2
 73
     0
 90
        0
 40
0.6
 41
30.0
 62
     5
 63
     7
 74
     1
 91
        4
 64
     7
 65
   257
 75
     7
175
     7
 42
1.0
 92
        8
 66
     7
 43
1.0
 76
     1
 77
     6
 78
     2
 67
     7
 79
     5
170
     0
171
     0
290
     0
174
     0
 93
        1
 44
0.0
173
     0
291
     1
 45
0.0
1001
ACAD
1000
AcDbSavedByObjectVersion
1070
     0
  0
VISUALSTYLE
  5
3C
102
{ACAD_REACTORS
330
2A
102
}
102
{ACAD_XDICTIONARY
360
21A
102
}
330
2A
100
AcDbVisualStyle
  2
OverhangOff
 70
    21
 71
     2
 72
     2
 73
     0
 90
        0
 40
0.6
 41
30.0
 62
     5
 63
     7
 74
     1
 91
        4
 64
     7
 65
   257
 75
     1
175
     1
 42
1.0
 92
        9
 66
     7
 43
1.0
 76
     1
 77
     6
 78
     2
 67
     7
 79
     5
170
     0
171
     0
290
     0
174
     0
 93
        1
 44
0.0
173
     0
291
     1
 45
0.0
1001
ACAD
1000
AcDbSavedByObjectVersion
1070
     0
  0
VISUALSTYLE
  5
33
102
{ACAD_REACTORS
330
2A
102
}
102
{ACAD_XDICTIONARY
360
208
102
}
330
2A
100
AcDbVisualStyle
  2
Realistic
 70
     8
 71
     2
 72
     3
 73
     0
 90
        2
 40
0.6
 41
30.0
 62
     5
 63
     7
 74
     0
 91
        0
 64
     7
 65
   257
 75
     1
175
     1
 42
1.0
 92
        8
 66
   257
 43
1.0
 76
     1
 77
     6
 78
     2
 67
     7
 79
     3
170
     0
171
     0
290
     0
174
     0
 93
       13
 44
0.0
173
     0
291
     0
 45
0.0
1001
ACAD
1000
AcDbSavedByObjectVersion
1070
     0
  0
VISUALSTYLE
  5
42
102
{ACAD_REACTORS
330
2A
102
}
102
{ACAD_XDICTIONARY
360
226
102
}
330
2A
100
AcDbVisualStyle
  2
Shaded
 70
    27
 71
     2
 72
     2
 73
     1
 90
        2
 40
0.6
 41
30.0
 62
     5
 63
     7
 74
     0
 91
        4
 64
     7
 65
   257
 75
     1
175
     1
 42
1.0
 92
        8
 66
   257
 43
1.0
 76
     1
 77
     6
 78
     2
 67
     8
 79
     3
170
     0
171
     0
290
     0
174
     0
 93
        5
 44
0.0
173
     0
291
     0
 45
0.0
1001
ACAD
1000
AcDbSavedByObjectVersion
1070
     0
  0
VISUALSTYLE
  5
41
102
{ACAD_REACTORS
330
2A
102
}
102
{ACAD_XDICTIONARY
360
224
102
}
330
2A
100
AcDbVisualStyle
  2
Shaded with edges
 70
    26
 71
     2
 72
     2
 73
     1
 90
        2
 40
0.6
 41
30.0
 62
     5
 63
     7
 74
     1
 91
       10
 64
     7
 65
   257
 75
     2
175
     1
 42
1.0
 92
        8
 66
   257
 43
1.0
 76
     1
 77
     6
 78
     2
 67
     7
 79
     3
170
     0
171
     0
290
     0
174
     0
 93
        5
 44
0.0
173
     0
291
     0
 45
0.0
1001
ACAD
1000
AcDbSavedByObjectVersion
1070
     0
  0
VISUALSTYLE
  5
3E
102
{ACAD_REACTORS
330
2A
102
}
102
{ACAD_XDICTIONARY
360
21E
102
}
330
2A
100
AcDbVisualStyle
  2
Shades of Gray
 70
    23
 71
     2
 72
     2
 73
     3
 90
        0
 40
0.6
 41
30.0
 62
     5
 63
     7
 74
     2
 91
        2
 64
     7
 65
     7
 75
     1
175
     1
 42
40.0
 92
        8
 66
     7
 43
1.0
 76
     1
 77
     6
 78
     2
 67
     7
 79
     3
170
     0
171
     0
290
     0
174
     0
 93
        1
 44
0.0
173
     0
291
     0
 45
0.0
1001
ACAD
1000
AcDbSavedByObjectVersion
1070
     0
  0
VISUALSTYLE
  5
3F
102
{ACAD_REACTORS
330
2A
102
}
102
{ACAD_XDICTIONARY
360
220
102
}
330
2A
100
AcDbVisualStyle
  2
Sketchy
 70
    24
 71
     1
 72
     2
 73
     2
 90
        0
 40
0.6
 41
30.0
 62
     5
 63
     7
 74
     2
 91
        2
 64
     7
 65
     7
 75
     1
175
     1
 42
40.0
 92
       11
 66
     7
 43
1.0
 76
     1
 77
     6
 78
     2
 67
     7
 79
     6
170
     0
171
     0
290
     0
174
     0
 93
        1
 44
0.0
173
     0
291
     0
 45
0.0
1001
ACAD
1000
AcDbSavedByObjectVersion
1070
     0
  0
VISUALSTYLE
  5
37
102
{ACAD_REACTORS
330
2A
102
}
102
{ACAD_XDICTIONARY
360
210
102
}
330
2A
100
AcDbVisualStyle
  2
Thicken
 70
    13
 71
     2
 72
     2
 73
     0
 90
        0
 40
0.6
 41
30.0
 62
     5
 63
     7
 74
     1
 91
        4
 64
     7
 65
   257
 75
     1
175
     1
 42
1.0
 92
       12
 66
     7
 43
1.0
 76
     1
 77
     6
 78
     2
 67
     7
 79
     5
170
     0
171
     0
290
     0
174
     0
 93
        1
 44
0.0
173
     0
291
     1
 45
0.0
1001
ACAD
1000
AcDbSavedByObjectVersion
1070
     0
  0
VISUALSTYLE
  5
30
102
{ACAD_REACTORS
330
2A
102
}
102
{ACAD_XDICTIONARY
360
202
102
}
330
2A
100
AcDbVisualStyle
  2
Wireframe
 70
     5
 71
     0
 72
     2
 73
     0
 90
        0
 40
0.6
 41
30.0
 62
     5
 63
     7
 74
     1
 91
        4
 64
     7
 65
   257
 75
     1
175
     1
 42
1.0
 92
        0
 66
   257
 43
1.0
 76
     1
 77
     6
 78
     2
 67
     7
 79
     3
170
     0
171
     0
290
     0
174
     0
 93
        1
 44
0.0
173
     0
291
     0
 45
0.0
1001
ACAD
1000
AcDbSavedByObjectVersion
1070
     0
  0
VISUALSTYLE
  5
40
102
{ACAD_REACTORS
330
2A
102
}
102
{ACAD_XDICTIONARY
360
222
102
}
330
2A
100
AcDbVisualStyle
  2
X-Ray
 70
    25
 71
     2
 72
     2
 73
     1
 90
        1
 40
0.5
 41
30.0
 62
     5
 63
     7
 74
     1
 91
        0
 64
     7
 65
   257
 75
     1
175
     1
 42
1.0
 92
        8
 66
     7
 43
1.0
 76
     1
 77
     6
 78
     2
 67
     7
 79
     3
170
     0
171
     0
290
     0
174
     0
 93
       13
 44
0.0
173
     0
291
     0
 45
0.0
1001
ACAD
1000
AcDbSavedByObjectVersion
1070
     0
  0
DICTIONARYVAR
  5
1F6
102
{ACAD_REACTORS
330
1E9
102
}
330
1E9
100
DictionaryVariables
280
     0
  1
1:1
  0
DICTIONARYVAR
  5
1F0
102
{ACAD_REACTORS
330
1E9
102
}
330
1E9
100
DictionaryVariables
280
     0
  1
3.500000
  0
DICTIONARYVAR
  5
1F1
102
{ACAD_REACTORS
330
1E9
102
}
330
1E9
100
DictionaryVariables
280
     0
  1
acadiso.lin
  0
DICTIONARYVAR
  5
1EB
102
{ACAD_REACTORS
330
1E9
102
}
330
1E9
100
DictionaryVariables
280
     0
  1
Standard
  0
DICTIONARYVAR
  5
1EA
102
{ACAD_REACTORS
330
1E9
102
}
330
1E9
100
DictionaryVariables
280
     0
  1
Standard
  0
DICTIONARYVAR
  5
1F2
102
{ACAD_REACTORS
330
1E9
102
}
330
1E9
100
DictionaryVariables
280
     0
  1
2
  0
DICTIONARYVAR
  5
1F3
102
{ACAD_REACTORS
330
1E9
102
}
330
1E9
100
DictionaryVariables
280
     0
  1
1
  0
DICTIONARYVAR
  5
1F7
102
{ACAD_REACTORS
330
1E9
102
}
330
1E9
100
DictionaryVariables
280
     0
  1
1
  0
DICTIONARYVAR
  5
1ED
102
{ACAD_REACTORS
330
1E9
102
}
330
1E9
100
DictionaryVariables
280
     0
  1
80.000000
  0
DICTIONARYVAR
  5
1EC
102
{ACAD_REACTORS
330
1E9
102
}
330
1E9
100
DictionaryVariables
280
     0
  1
5.000000
  0
DICTIONARY
  5
22A
330
45
100
AcDbDictionary
280
     1
281
     1
  3
ACAD_XREC_ROUNDTRIP
360
22B
  0
DICTIONARY
  5
228
330
44
100
AcDbDictionary
280
     1
281
     1
  3
ACAD_XREC_ROUNDTRIP
360
229
  0
DICTIONARY
  5
22C
330
46
100
AcDbDictionary
280
     1
281
     1
  3
ACAD_XREC_ROUNDTRIP
360
22D
  0
DICTIONARY
  5
22F
330
6C
100
AcDbDictionary
280
     1
281
     1
  3
ACAD_XREC_ROUNDTRIP
360
230
  0
DICTIONARY
  5
200
330
2F
100
AcDbDictionary
280
     1
281
     1
  3
ACAD_XREC_ROUNDTRIP
360
201
  0
DICTIONARY
  5
206
330
32
100
AcDbDictionary
280
     1
281
     1
  3
ACAD_XREC_ROUNDTRIP
360
207
  0
DICTIONARY
  5
20E
330
36
100
AcDbDictionary
280
     1
281
     1
  3
ACAD_XREC_ROUNDTRIP
360
20F
  0
DICTIONARY
  5
216
330
3A
100
AcDbDictionary
280
     1
281
     1
  3
ACAD_XREC_ROUNDTRIP
360
217
  0
DICTIONARY
  5
20A
330
34
100
AcDbDictionary
280
     1
281
     1
  3
ACAD_XREC_ROUNDTRIP
360
20B
  0
DICTIONARY
  5
20C
330
35
100
AcDbDictionary
280
     1
281
     1
  3
ACAD_XREC_ROUNDTRIP
360
20D
  0
DICTIONARY
  5
21C
330
3D
100
AcDbDictionary
280
     1
281
     1
  3
ACAD_XREC_ROUNDTRIP
360
21D
  0
DICTIONARY
  5
214
330
39
100
AcDbDictionary
280
     1
281
     1
  3
ACAD_XREC_ROUNDTRIP
360
215
  0
DICTIONARY
  5
1F8
330
2B
100
AcDbDictionary
280
     1
281
     1
  3
ACAD_XREC_ROUNDTRIP
360
1F9
  0
DICTIONARY
  5
1FA
330
2C
100
AcDbDictionary
280
     1
281
     1
  3
ACAD_XREC_ROUNDTRIP
360
1FB
  0
DICTIONARY
  5
1FC
330
2D
100
AcDbDictionary
280
     1
281
     1
  3
ACAD_XREC_ROUNDTRIP
360
1FD
  0
DICTIONARY
  5
1FE
330
2E
100
AcDbDictionary
280
     1
281
     1
  3
ACAD_XREC_ROUNDTRIP
360
1FF
  0
DICTIONARY
  5
204
330
31
100
AcDbDictionary
280
     1
281
     1
  3
ACAD_XREC_ROUNDTRIP
360
205
  0
DICTIONARY
  5
218
330
3B
100
AcDbDictionary
280
     1
281
     1
  3
ACAD_XREC_ROUNDTRIP
360
219
  0
DICTIONARY
  5
212
330
38
100
AcDbDictionary
280
     1
281
     1
  3
ACAD_XREC_ROUNDTRIP
360
213
  0
DICTIONARY
  5
21A
330
3C
100
AcDbDictionary
280
     1
281
     1
  3
ACAD_XREC_ROUNDTRIP
360
21B
  0
DICTIONARY
  5
208
330
33
100
AcDbDictionary
280
     1
281
     1
  3
ACAD_XREC_ROUNDTRIP
360
209
  0
DICTIONARY
  5
226
330
42
100
AcDbDictionary
280
     1
281
     1
  3
ACAD_XREC_ROUNDTRIP
360
227
  0
DICTIONARY
  5
224
330
41
100
AcDbDictionary
280
     1
281
     1
  3
ACAD_XREC_ROUNDTRIP
360
225
  0
DICTIONARY
  5
21E
330
3E
100
AcDbDictionary
280
     1
281
     1
  3
ACAD_XREC_ROUNDTRIP
360
21F
  0
DICTIONARY
  5
220
330
3F
100
AcDbDictionary
280
     1
281
     1
  3
ACAD_XREC_ROUNDTRIP
360
221
  0
DICTIONARY
  5
210
330
37
100
AcDbDictionary
280
     1
281
     1
  3
ACAD_XREC_ROUNDTRIP
360
211
  0
DICTIONARY
  5
202
330
30
100
AcDbDictionary
280
     1
281
     1
  3
ACAD_XREC_ROUNDTRIP
360
203
  0
DICTIONARY
  5
222
330
40
100
AcDbDictionary
280
     1
281
     1
  3
ACAD_XREC_ROUNDTRIP
360
223
  0
XRECORD
  5
22B
102
{ACAD_REACTORS
330
22A
102
}
330
22A
100
AcDbXrecord
280
     1
102
MATERIAL
148
0.0
149
0.0
149
0.0
 93
        0
 94
      127
282
     0
 72
     1
 77
     1
171
     1
175
     1
179
     1
273
     0
  0
XRECORD
  5
229
102
{ACAD_REACTORS
330
228
102
}
330
228
100
AcDbXrecord
280
     1
102
MATERIAL
148
0.0
149
0.0
149
0.0
 93
        0
 94
      127
282
     0
 72
     1
 77
     1
171
     1
175
     1
179
     1
273
     0
  0
XRECORD
  5
22D
102
{ACAD_REACTORS
330
22C
102
}
330
22C
100
AcDbXrecord
280
     1
102
MATERIAL
148
0.0
149
0.0
149
0.0
 93
        0
 94
      127
282
     0
 72
     1
 77
     1
171
     1
175
     1
179
     1
273
     0
  0
XRECORD
  5
230
102
{ACAD_REACTORS
330
22F
102
}
330
22F
100
AcDbXrecord
280
     1
102
ACAD_ROUNDTRIP_2010_MLEADER_STYLE
  0
XRECORD
  5
201
102
{ACAD_REACTORS
330
200
102
}
330
200
100
AcDbXrecord
280
     1
102
RTVSPropertyOp0
 70
     1
102
RTVSPropertyOp1
 70
     1
102
RTVSPropertyOp2
 70
     1
102
RTVSPropertyOp3
 70
     1
102
RTVSPropertyOp4
 70
     1
102
RTVSPropertyOp5
 70
     1
102
RTVSPropertyOp6
 70
     1
102
RTVSPropertyOp7
 70
     1
102
RTVSPropertyOp8
 70
     1
102
RTVSPropertyOp9
 70
     1
102
RTVSPropertyOp10
 70
     1
102
RTVSPropertyOp11
 70
     1
102
RTVSPropertyOp12
 70
     1
102
RTVSPropertyOp13
 70
     1
102
RTVSPropertyOp14
 70
     1
102
RTVSPropertyOp15
 70
     1
102
RTVSPropertyOp16
 70
     1
102
RTVSPropertyOp17
 70
     1
102
RTVSPropertyOp18
 70
     1
102
RTVSPropertyOp19
 70
     1
102
RTVSPropertyOp20
 70
     1
102
RTVSPropertyOp21
 70
     1
102
RTVSPropertyOp22
 70
     1
102
RTVSPropertyOp23
 70
     1
102
RTVSPropertyOp24
 70
     1
102
RTVSPropertyOp25
 70
     1
102
RTVSPropertyOp26
 70
     1
102
RTVSPropertyOp27
 70
     1
102
RTVSPropertyOp28
 70
     1
102
RTVSPropertyOp29
 70
     1
102
RTVSPropertyOp30
 70
     1
102
RTVSPropertyOp31
 70
     1
102
RTVSPropertyOp32
 70
     1
102
RTVSPropertyOp33
 70
     1
102
RTVSPropertyOp34
 70
     1
102
RTVSPropertyOp35
 70
     1
102
RTVSPropertyOp36
 70
     1
102
RTVSPropertyOp37
 70
     1
102
RTVSPropertyOp38
 70
     1
102
RTVSPropertyOp39
 70
     1
102
RTVSPropertyOp40
 70
     1
102
RTVSPropertyOp41
 70
     1
102
RTVSPropertyOp42
 70
     1
102
RTVSPropertyOp43
 70
     1
102
RTVSPropertyOp44
 70
     1
102
RTVSPropertyOp45
 70
     1
102
RTVSPropertyOp46
 70
     1
102
RTVSPropertyOp47
 70
     1
102
RTVSPropertyOp48
 70
     1
102
RTVSPropertyOp49
 70
     1
102
RTVSPropertyOp50
 70
     1
102
RTVSPropertyOp51
 70
     0
102
RTVSPropertyOp52
 70
     0
102
RTVSPropertyOp53
 70
     1
102
RTVSPropertyOp54
 70
     1
102
RTVSPropertyOp55
 70
     1
102
RTVSPropertyOp56
 70
     1
102
RTVSPropertyOp57
 70
     1
102
RTVSPost2010Prop28
280
     1
102
RTVSPost2010PropOp28
 70
     1
102
RTVSPost2010Prop29
280
     1
102
RTVSPost2010PropOp29
 70
     1
102
RTVSPost2010Prop30
280
     0
102
RTVSPost2010PropOp30
 70
     1
102
RTVSPost2010Prop31
280
     0
102
RTVSPost2010PropOp31
 70
     1
102
RTVSPost2010Prop32
280
     0
102
RTVSPost2010PropOp32
 70
     1
102
RTVSPost2010Prop33
280
     0
102
RTVSPost2010PropOp33
 70
     1
102
RTVSPost2010Prop34
280
     0
102
RTVSPost2010PropOp34
 70
     1
102
RTVSPost2010Prop35
280
     0
102
RTVSPost2010PropOp35
 70
     1
102
RTVSPost2010Prop36
280
     0
102
RTVSPost2010PropOp36
 70
     1
102
RTVSPost2010Prop37
 90
       50
102
RTVSPost2010PropOp37
 70
     1
102
RTVSPost2010Prop38
140
0.0
102
RTVSPost2010PropOp38
 70
     1
102
RTVSPost2010Prop39
140
1.0
102
RTVSPost2010PropOp39
 70
     1
102
RTVSPost2010Prop40
 90
        0
102
RTVSPost2010PropOp40
 70
     1
102
RTVSPost2010Prop41ColorIndex
 90
       18
102
RTVSPost2010Prop41ColorRGB
 90
        0
102
RTVSPost2010PropOp41
 70
     1
102
RTVSPost2010Prop42
 90
       50
102
RTVSPost2010PropOp42
 70
     1
102
RTVSPost2010Prop43
 90
        3
102
RTVSPost2010PropOp43
 70
     1
102
RTVSPost2010Prop44ColorIndex
 90
        5
102
RTVSPost2010Prop44ColorRGB
 90
      255
102
RTVSPost2010PropOp44
 70
     1
102
RTVSPost2010Prop45
280
     0
102
RTVSPost2010PropOp45
 70
     1
102
RTVSPost2010Prop46
 90
       50
102
RTVSPost2010PropOp46
 70
     1
102
RTVSPost2010Prop47
 90
       50
102
RTVSPost2010PropOp47
 70
     1
102
RTVSPost2010Prop48
 90
       50
102
RTVSPost2010PropOp48
 70
     1
102
RTVSPost2010Prop49
280
     0
102
RTVSPost2010PropOp49
 70
     1
102
RTVSPost2010Prop50
 90
       50
102
RTVSPost2010PropOp50
 70
     1
102
RTVSPost2010Prop51ColorIndex
 90
      256
102
RTVSPost2010Prop51ColorRGB
 90
-16777216
102
RTVSPost2010PropOp51
 70
     0
102
RTVSPost2010Prop52
140
1.0
102
RTVSPost2010PropOp52
 70
     0
102
RTVSPost2010Prop53
 90
        2
102
RTVSPost2010PropOp53
 70
     1
102
RTVSPost2010Prop54
  1
strokes_ogs.tif
102
RTVSPost2010PropOp54
 70
     1
102
RTVSPost2010Prop55
280
     0
102
RTVSPost2010PropOp55
 70
     1
102
RTVSPost2010Prop56
140
1.0
102
RTVSPost2010PropOp56
 70
     1
102
RTVSPost2010Prop57
140
1.0
102
RTVSPost2010PropOp57
 70
     1
  0
XRECORD
  5
207
102
{ACAD_REACTORS
330
206
102
}
330
206
100
AcDbXrecord
280
     1
102
RTVSPropertyOp0
 70
     1
102
RTVSPropertyOp1
 70
     1
102
RTVSPropertyOp2
 70
     1
102
RTVSPropertyOp3
 70
     1
102
RTVSPropertyOp4
 70
     1
102
RTVSPropertyOp5
 70
     1
102
RTVSPropertyOp6
 70
     1
102
RTVSPropertyOp7
 70
     1
102
RTVSPropertyOp8
 70
     1
102
RTVSPropertyOp9
 70
     1
102
RTVSPropertyOp10
 70
     1
102
RTVSPropertyOp11
 70
     1
102
RTVSPropertyOp12
 70
     1
102
RTVSPropertyOp13
 70
     1
102
RTVSPropertyOp14
 70
     1
102
RTVSPropertyOp15
 70
     1
102
RTVSPropertyOp16
 70
     1
102
RTVSPropertyOp17
 70
     1
102
RTVSPropertyOp18
 70
     1
102
RTVSPropertyOp19
 70
     1
102
RTVSPropertyOp20
 70
     1
102
RTVSPropertyOp21
 70
     1
102
RTVSPropertyOp22
 70
     1
102
RTVSPropertyOp23
 70
     1
102
RTVSPropertyOp24
 70
     1
102
RTVSPropertyOp25
 70
     1
102
RTVSPropertyOp26
 70
     1
102
RTVSPropertyOp27
 70
     1
102
RTVSPropertyOp28
 70
     1
102
RTVSPropertyOp29
 70
     1
102
RTVSPropertyOp30
 70
     1
102
RTVSPropertyOp31
 70
     1
102
RTVSPropertyOp32
 70
     1
102
RTVSPropertyOp33
 70
     1
102
RTVSPropertyOp34
 70
     1
102
RTVSPropertyOp35
 70
     1
102
RTVSPropertyOp36
 70
     1
102
RTVSPropertyOp37
 70
     1
102
RTVSPropertyOp38
 70
     1
102
RTVSPropertyOp39
 70
     1
102
RTVSPropertyOp40
 70
     1
102
RTVSPropertyOp41
 70
     1
102
RTVSPropertyOp42
 70
     1
102
RTVSPropertyOp43
 70
     1
102
RTVSPropertyOp44
 70
     1
102
RTVSPropertyOp45
 70
     1
102
RTVSPropertyOp46
 70
     1
102
RTVSPropertyOp47
 70
     1
102
RTVSPropertyOp48
 70
     1
102
RTVSPropertyOp49
 70
     1
102
RTVSPropertyOp50
 70
     1
102
RTVSPropertyOp51
 70
     0
102
RTVSPropertyOp52
 70
     0
102
RTVSPropertyOp53
 70
     1
102
RTVSPropertyOp54
 70
     1
102
RTVSPropertyOp55
 70
     1
102
RTVSPropertyOp56
 70
     1
102
RTVSPropertyOp57
 70
     1
102
RTVSPost2010Prop28
280
     0
102
RTVSPost2010PropOp28
 70
     1
102
RTVSPost2010Prop29
280
     1
102
RTVSPost2010PropOp29
 70
     1
102
RTVSPost2010Prop30
280
     1
102
RTVSPost2010PropOp30
 70
     1
102
RTVSPost2010Prop31
280
     0
102
RTVSPost2010PropOp31
 70
     1
102
RTVSPost2010Prop32
280
     0
102
RTVSPost2010PropOp32
 70
     1
102
RTVSPost2010Prop33
280
     0
102
RTVSPost2010PropOp33
 70
     1
102
RTVSPost2010Prop34
280
     0
102
RTVSPost2010PropOp34
 70
     1
102
RTVSPost2010Prop35
280
     0
102
RTVSPost2010PropOp35
 70
     1
102
RTVSPost2010Prop36
280
     0
102
RTVSPost2010PropOp36
 70
     1
102
RTVSPost2010Prop37
 90
       50
102
RTVSPost2010PropOp37
 70
     1
102
RTVSPost2010Prop38
140
0.0
102
RTVSPost2010PropOp38
 70
     1
102
RTVSPost2010Prop39
140
1.0
102
RTVSPost2010PropOp39
 70
     1
102
RTVSPost2010Prop40
 90
        0
102
RTVSPost2010PropOp40
 70
     1
102
RTVSPost2010Prop41ColorIndex
 90
       18
102
RTVSPost2010Prop41ColorRGB
 90
        0
102
RTVSPost2010PropOp41
 70
     1
102
RTVSPost2010Prop42
 90
       50
102
RTVSPost2010PropOp42
 70
     1
102
RTVSPost2010Prop43
 90
        3
102
RTVSPost2010PropOp43
 70
     1
102
RTVSPost2010Prop44ColorIndex
 90
        5
102
RTVSPost2010Prop44ColorRGB
 90
      255
102
RTVSPost2010PropOp44
 70
     1
102
RTVSPost2010Prop45
280
     0
102
RTVSPost2010PropOp45
 70
     1
102
RTVSPost2010Prop46
 90
       50
102
RTVSPost2010PropOp46
 70
     1
102
RTVSPost2010Prop47
 90
       50
102
RTVSPost2010PropOp47
 70
     1
102
RTVSPost2010Prop48
 90
       50
102
RTVSPost2010PropOp48
 70
     1
102
RTVSPost2010Prop49
280
     0
102
RTVSPost2010PropOp49
 70
     1
102
RTVSPost2010Prop50
 90
       50
102
RTVSPost2010PropOp50
 70
     1
102
RTVSPost2010Prop51ColorIndex
 90
      256
102
RTVSPost2010Prop51ColorRGB
 90
-16777216
102
RTVSPost2010PropOp51
 70
     0
102
RTVSPost2010Prop52
140
1.0
102
RTVSPost2010PropOp52
 70
     0
102
RTVSPost2010Prop53
 90
        2
102
RTVSPost2010PropOp53
 70
     1
102
RTVSPost2010Prop54
  1
strokes_ogs.tif
102
RTVSPost2010PropOp54
 70
     1
102
RTVSPost2010Prop55
280
     0
102
RTVSPost2010PropOp55
 70
     1
102
RTVSPost2010Prop56
140
1.0
102
RTVSPost2010PropOp56
 70
     1
102
RTVSPost2010Prop57
140
1.0
102
RTVSPost2010PropOp57
 70
     1
  0
XRECORD
  5
20F
102
{ACAD_REACTORS
330
20E
102
}
330
20E
100
AcDbXrecord
280
     1
102
RTVSPropertyOp0
 70
     1
102
RTVSPropertyOp1
 70
     1
102
RTVSPropertyOp2
 70
     1
102
RTVSPropertyOp3
 70
     1
102
RTVSPropertyOp4
 70
     1
102
RTVSPropertyOp5
 70
     1
102
RTVSPropertyOp6
 70
     1
102
RTVSPropertyOp7
 70
     1
102
RTVSPropertyOp8
 70
     1
102
RTVSPropertyOp9
 70
     1
102
RTVSPropertyOp10
 70
     1
102
RTVSPropertyOp11
 70
     1
102
RTVSPropertyOp12
 70
     1
102
RTVSPropertyOp13
 70
     1
102
RTVSPropertyOp14
 70
     1
102
RTVSPropertyOp15
 70
     1
102
RTVSPropertyOp16
 70
     1
102
RTVSPropertyOp17
 70
     1
102
RTVSPropertyOp18
 70
     1
102
RTVSPropertyOp19
 70
     1
102
RTVSPropertyOp20
 70
     1
102
RTVSPropertyOp21
 70
     1
102
RTVSPropertyOp22
 70
     1
102
RTVSPropertyOp23
 70
     1
102
RTVSPropertyOp24
 70
     1
102
RTVSPropertyOp25
 70
     1
102
RTVSPropertyOp26
 70
     1
102
RTVSPropertyOp27
 70
     1
102
RTVSPropertyOp28
 70
     1
102
RTVSPropertyOp29
 70
     1
102
RTVSPropertyOp30
 70
     1
102
RTVSPropertyOp31
 70
     1
102
RTVSPropertyOp32
 70
     1
102
RTVSPropertyOp33
 70
     1
102
RTVSPropertyOp34
 70
     1
102
RTVSPropertyOp35
 70
     1
102
RTVSPropertyOp36
 70
     1
102
RTVSPropertyOp37
 70
     1
102
RTVSPropertyOp38
 70
     1
102
RTVSPropertyOp39
 70
     1
102
RTVSPropertyOp40
 70
     1
102
RTVSPropertyOp41
 70
     1
102
RTVSPropertyOp42
 70
     1
102
RTVSPropertyOp43
 70
     1
102
RTVSPropertyOp44
 70
     1
102
RTVSPropertyOp45
 70
     1
102
RTVSPropertyOp46
 70
     1
102
RTVSPropertyOp47
 70
     1
102
RTVSPropertyOp48
 70
     1
102
RTVSPropertyOp49
 70
     1
102
RTVSPropertyOp50
 70
     1
102
RTVSPropertyOp51
 70
     0
102
RTVSPropertyOp52
 70
     0
102
RTVSPropertyOp53
 70
     1
102
RTVSPropertyOp54
 70
     1
102
RTVSPropertyOp55
 70
     1
102
RTVSPropertyOp56
 70
     1
102
RTVSPropertyOp57
 70
     1
102
RTVSPost2010Prop28
280
     0
102
RTVSPost2010PropOp28
 70
     1
102
RTVSPost2010Prop29
280
     1
102
RTVSPost2010PropOp29
 70
     1
102
RTVSPost2010Prop30
280
     1
102
RTVSPost2010PropOp30
 70
     1
102
RTVSPost2010Prop31
280
     0
102
RTVSPost2010PropOp31
 70
     1
102
RTVSPost2010Prop32
280
     0
102
RTVSPost2010PropOp32
 70
     1
102
RTVSPost2010Prop33
280
     0
102
RTVSPost2010PropOp33
 70
     1
102
RTVSPost2010Prop34
280
     0
102
RTVSPost2010PropOp34
 70
     1
102
RTVSPost2010Prop35
280
     0
102
RTVSPost2010PropOp35
 70
     1
102
RTVSPost2010Prop36
280
     0
102
RTVSPost2010PropOp36
 70
     1
102
RTVSPost2010Prop37
 90
       50
102
RTVSPost2010PropOp37
 70
     1
102
RTVSPost2010Prop38
140
0.0
102
RTVSPost2010PropOp38
 70
     1
102
RTVSPost2010Prop39
140
1.0
102
RTVSPost2010PropOp39
 70
     1
102
RTVSPost2010Prop40
 90
        0
102
RTVSPost2010PropOp40
 70
     1
102
RTVSPost2010Prop41ColorIndex
 90
       18
102
RTVSPost2010Prop41ColorRGB
 90
        0
102
RTVSPost2010PropOp41
 70
     1
102
RTVSPost2010Prop42
 90
       50
102
RTVSPost2010PropOp42
 70
     1
102
RTVSPost2010Prop43
 90
        3
102
RTVSPost2010PropOp43
 70
     1
102
RTVSPost2010Prop44ColorIndex
 90
        5
102
RTVSPost2010Prop44ColorRGB
 90
      255
102
RTVSPost2010PropOp44
 70
     1
102
RTVSPost2010Prop45
280
     0
102
RTVSPost2010PropOp45
 70
     1
102
RTVSPost2010Prop46
 90
       50
102
RTVSPost2010PropOp46
 70
     1
102
RTVSPost2010Prop47
 90
       50
102
RTVSPost2010PropOp47
 70
     1
102
RTVSPost2010Prop48
 90
       50
102
RTVSPost2010PropOp48
 70
     1
102
RTVSPost2010Prop49
280
     0
102
RTVSPost2010PropOp49
 70
     1
102
RTVSPost2010Prop50
 90
       50
102
RTVSPost2010PropOp50
 70
     1
102
RTVSPost2010Prop51ColorIndex
 90
      256
102
RTVSPost2010Prop51ColorRGB
 90
-16777216
102
RTVSPost2010PropOp51
 70
     0
102
RTVSPost2010Prop52
140
1.0
102
RTVSPost2010PropOp52
 70
     0
102
RTVSPost2010Prop53
 90
        2
102
RTVSPost2010PropOp53
 70
     1
102
RTVSPost2010Prop54
  1
strokes_ogs.tif
102
RTVSPost2010PropOp54
 70
     1
102
RTVSPost2010Prop55
280
     0
102
RTVSPost2010PropOp55
 70
     1
102
RTVSPost2010Prop56
140
1.0
102
RTVSPost2010PropOp56
 70
     1
102
RTVSPost2010Prop57
140
1.0
102
RTVSPost2010PropOp57
 70
     1
  0
XRECORD
  5
217
102
{ACAD_REACTORS
330
216
102
}
330
216
100
AcDbXrecord
280
     1
102
RTVSPropertyOp0
 70
     1
102
RTVSPropertyOp1
 70
     1
102
RTVSPropertyOp2
 70
     1
102
RTVSPropertyOp3
 70
     1
102
RTVSPropertyOp4
 70
     1
102
RTVSPropertyOp5
 70
     1
102
RTVSPropertyOp6
 70
     1
102
RTVSPropertyOp7
 70
     1
102
RTVSPropertyOp8
 70
     1
102
RTVSPropertyOp9
 70
     1
102
RTVSPropertyOp10
 70
     1
102
RTVSPropertyOp11
 70
     1
102
RTVSPropertyOp12
 70
     1
102
RTVSPropertyOp13
 70
     1
102
RTVSPropertyOp14
 70
     1
102
RTVSPropertyOp15
 70
     1
102
RTVSPropertyOp16
 70
     1
102
RTVSPropertyOp17
 70
     1
102
RTVSPropertyOp18
 70
     1
102
RTVSPropertyOp19
 70
     1
102
RTVSPropertyOp20
 70
     1
102
RTVSPropertyOp21
 70
     1
102
RTVSPropertyOp22
 70
     1
102
RTVSPropertyOp23
 70
     1
102
RTVSPropertyOp24
 70
     1
102
RTVSPropertyOp25
 70
     1
102
RTVSPropertyOp26
 70
     1
102
RTVSPropertyOp27
 70
     1
102
RTVSPropertyOp28
 70
     1
102
RTVSPropertyOp29
 70
     1
102
RTVSPropertyOp30
 70
     1
102
RTVSPropertyOp31
 70
     1
102
RTVSPropertyOp32
 70
     1
102
RTVSPropertyOp33
 70
     1
102
RTVSPropertyOp34
 70
     1
102
RTVSPropertyOp35
 70
     1
102
RTVSPropertyOp36
 70
     1
102
RTVSPropertyOp37
 70
     1
102
RTVSPropertyOp38
 70
     1
102
RTVSPropertyOp39
 70
     1
102
RTVSPropertyOp40
 70
     1
102
RTVSPropertyOp41
 70
     1
102
RTVSPropertyOp42
 70
     1
102
RTVSPropertyOp43
 70
     1
102
RTVSPropertyOp44
 70
     1
102
RTVSPropertyOp45
 70
     1
102
RTVSPropertyOp46
 70
     1
102
RTVSPropertyOp47
 70
     1
102
RTVSPropertyOp48
 70
     1
102
RTVSPropertyOp49
 70
     1
102
RTVSPropertyOp50
 70
     1
102
RTVSPropertyOp51
 70
     0
102
RTVSPropertyOp52
 70
     0
102
RTVSPropertyOp53
 70
     1
102
RTVSPropertyOp54
 70
     1
102
RTVSPropertyOp55
 70
     1
102
RTVSPropertyOp56
 70
     1
102
RTVSPropertyOp57
 70
     1
102
RTVSPost2010Prop28
280
     0
102
RTVSPost2010PropOp28
 70
     1
102
RTVSPost2010Prop29
280
     1
102
RTVSPost2010PropOp29
 70
     1
102
RTVSPost2010Prop30
280
     1
102
RTVSPost2010PropOp30
 70
     1
102
RTVSPost2010Prop31
280
     0
102
RTVSPost2010PropOp31
 70
     1
102
RTVSPost2010Prop32
280
     0
102
RTVSPost2010PropOp32
 70
     1
102
RTVSPost2010Prop33
280
     0
102
RTVSPost2010PropOp33
 70
     1
102
RTVSPost2010Prop34
280
     0
102
RTVSPost2010PropOp34
 70
     1
102
RTVSPost2010Prop35
280
     0
102
RTVSPost2010PropOp35
 70
     1
102
RTVSPost2010Prop36
280
     0
102
RTVSPost2010PropOp36
 70
     1
102
RTVSPost2010Prop37
 90
       50
102
RTVSPost2010PropOp37
 70
     1
102
RTVSPost2010Prop38
140
0.0
102
RTVSPost2010PropOp38
 70
     1
102
RTVSPost2010Prop39
140
1.0
102
RTVSPost2010PropOp39
 70
     1
102
RTVSPost2010Prop40
 90
        0
102
RTVSPost2010PropOp40
 70
     1
102
RTVSPost2010Prop41ColorIndex
 90
       18
102
RTVSPost2010Prop41ColorRGB
 90
        0
102
RTVSPost2010PropOp41
 70
     1
102
RTVSPost2010Prop42
 90
       50
102
RTVSPost2010PropOp42
 70
     1
102
RTVSPost2010Prop43
 90
        3
102
RTVSPost2010PropOp43
 70
     1
102
RTVSPost2010Prop44ColorIndex
 90
        5
102
RTVSPost2010Prop44ColorRGB
 90
      255
102
RTVSPost2010PropOp44
 70
     1
102
RTVSPost2010Prop45
280
     0
102
RTVSPost2010PropOp45
 70
     1
102
RTVSPost2010Prop46
 90
       50
102
RTVSPost2010PropOp46
 70
     1
102
RTVSPost2010Prop47
 90
       50
102
RTVSPost2010PropOp47
 70
     1
102
RTVSPost2010Prop48
 90
       50
102
RTVSPost2010PropOp48
 70
     1
102
RTVSPost2010Prop49
280
     0
102
RTVSPost2010PropOp49
 70
     1
102
RTVSPost2010Prop50
 90
       50
102
RTVSPost2010PropOp50
 70
     1
102
RTVSPost2010Prop51ColorIndex
 90
      256
102
RTVSPost2010Prop51ColorRGB
 90
-16777216
102
RTVSPost2010PropOp51
 70
     0
102
RTVSPost2010Prop52
140
1.0
102
RTVSPost2010PropOp52
 70
     0
102
RTVSPost2010Prop53
 90
        2
102
RTVSPost2010PropOp53
 70
     1
102
RTVSPost2010Prop54
  1
strokes_ogs.tif
102
RTVSPost2010PropOp54
 70
     1
102
RTVSPost2010Prop55
280
     0
102
RTVSPost2010PropOp55
 70
     1
102
RTVSPost2010Prop56
140
1.0
102
RTVSPost2010PropOp56
 70
     1
102
RTVSPost2010Prop57
140
1.0
102
RTVSPost2010PropOp57
 70
     1
  0
XRECORD
  5
20B
102
{ACAD_REACTORS
330
20A
102
}
330
20A
100
AcDbXrecord
280
     1
102
RTVSPropertyOp0
 70
     1
102
RTVSPropertyOp1
 70
     1
102
RTVSPropertyOp2
 70
     1
102
RTVSPropertyOp3
 70
     1
102
RTVSPropertyOp4
 70
     1
102
RTVSPropertyOp5
 70
     1
102
RTVSPropertyOp6
 70
     1
102
RTVSPropertyOp7
 70
     1
102
RTVSPropertyOp8
 70
     1
102
RTVSPropertyOp9
 70
     1
102
RTVSPropertyOp10
 70
     1
102
RTVSPropertyOp11
 70
     1
102
RTVSPropertyOp12
 70
     1
102
RTVSPropertyOp13
 70
     1
102
RTVSPropertyOp14
 70
     1
102
RTVSPropertyOp15
 70
     1
102
RTVSPropertyOp16
 70
     1
102
RTVSPropertyOp17
 70
     1
102
RTVSPropertyOp18
 70
     1
102
RTVSPropertyOp19
 70
     1
102
RTVSPropertyOp20
 70
     1
102
RTVSPropertyOp21
 70
     1
102
RTVSPropertyOp22
 70
     1
102
RTVSPropertyOp23
 70
     1
102
RTVSPropertyOp24
 70
     1
102
RTVSPropertyOp25
 70
     1
102
RTVSPropertyOp26
 70
     1
102
RTVSPropertyOp27
 70
     1
102
RTVSPropertyOp28
 70
     1
102
RTVSPropertyOp29
 70
     1
102
RTVSPropertyOp30
 70
     1
102
RTVSPropertyOp31
 70
     1
102
RTVSPropertyOp32
 70
     1
102
RTVSPropertyOp33
 70
     1
102
RTVSPropertyOp34
 70
     1
102
RTVSPropertyOp35
 70
     1
102
RTVSPropertyOp36
 70
     1
102
RTVSPropertyOp37
 70
     1
102
RTVSPropertyOp38
 70
     1
102
RTVSPropertyOp39
 70
     1
102
RTVSPropertyOp40
 70
     1
102
RTVSPropertyOp41
 70
     1
102
RTVSPropertyOp42
 70
     1
102
RTVSPropertyOp43
 70
     1
102
RTVSPropertyOp44
 70
     1
102
RTVSPropertyOp45
 70
     1
102
RTVSPropertyOp46
 70
     1
102
RTVSPropertyOp47
 70
     1
102
RTVSPropertyOp48
 70
     1
102
RTVSPropertyOp49
 70
     1
102
RTVSPropertyOp50
 70
     1
102
RTVSPropertyOp51
 70
     0
102
RTVSPropertyOp52
 70
     0
102
RTVSPropertyOp53
 70
     1
102
RTVSPropertyOp54
 70
     1
102
RTVSPropertyOp55
 70
     1
102
RTVSPropertyOp56
 70
     1
102
RTVSPropertyOp57
 70
     1
102
RTVSPost2010Prop28
280
     0
102
RTVSPost2010PropOp28
 70
     1
102
RTVSPost2010Prop29
280
     1
102
RTVSPost2010PropOp29
 70
     1
102
RTVSPost2010Prop30
280
     1
102
RTVSPost2010PropOp30
 70
     1
102
RTVSPost2010Prop31
280
     0
102
RTVSPost2010PropOp31
 70
     1
102
RTVSPost2010Prop32
280
     0
102
RTVSPost2010PropOp32
 70
     1
102
RTVSPost2010Prop33
280
     0
102
RTVSPost2010PropOp33
 70
     1
102
RTVSPost2010Prop34
280
     0
102
RTVSPost2010PropOp34
 70
     1
102
RTVSPost2010Prop35
280
     0
102
RTVSPost2010PropOp35
 70
     1
102
RTVSPost2010Prop36
280
     0
102
RTVSPost2010PropOp36
 70
     1
102
RTVSPost2010Prop37
 90
       50
102
RTVSPost2010PropOp37
 70
     1
102
RTVSPost2010Prop38
140
0.0
102
RTVSPost2010PropOp38
 70
     1
102
RTVSPost2010Prop39
140
1.0
102
RTVSPost2010PropOp39
 70
     1
102
RTVSPost2010Prop40
 90
        0
102
RTVSPost2010PropOp40
 70
     1
102
RTVSPost2010Prop41ColorIndex
 90
       18
102
RTVSPost2010Prop41ColorRGB
 90
        0
102
RTVSPost2010PropOp41
 70
     1
102
RTVSPost2010Prop42
 90
       50
102
RTVSPost2010PropOp42
 70
     1
102
RTVSPost2010Prop43
 90
        3
102
RTVSPost2010PropOp43
 70
     1
102
RTVSPost2010Prop44ColorIndex
 90
        5
102
RTVSPost2010Prop44ColorRGB
 90
      255
102
RTVSPost2010PropOp44
 70
     1
102
RTVSPost2010Prop45
280
     0
102
RTVSPost2010PropOp45
 70
     1
102
RTVSPost2010Prop46
 90
       50
102
RTVSPost2010PropOp46
 70
     1
102
RTVSPost2010Prop47
 90
       50
102
RTVSPost2010PropOp47
 70
     1
102
RTVSPost2010Prop48
 90
       50
102
RTVSPost2010PropOp48
 70
     1
102
RTVSPost2010Prop49
280
     0
102
RTVSPost2010PropOp49
 70
     1
102
RTVSPost2010Prop50
 90
       50
102
RTVSPost2010PropOp50
 70
     1
102
RTVSPost2010Prop51ColorIndex
 90
      256
102
RTVSPost2010Prop51ColorRGB
 90
-16777216
102
RTVSPost2010PropOp51
 70
     0
102
RTVSPost2010Prop52
140
1.0
102
RTVSPost2010PropOp52
 70
     0
102
RTVSPost2010Prop53
 90
        2
102
RTVSPost2010PropOp53
 70
     1
102
RTVSPost2010Prop54
  1
strokes_ogs.tif
102
RTVSPost2010PropOp54
 70
     1
102
RTVSPost2010Prop55
280
     0
102
RTVSPost2010PropOp55
 70
     1
102
RTVSPost2010Prop56
140
1.0
102
RTVSPost2010PropOp56
 70
     1
102
RTVSPost2010Prop57
140
1.0
102
RTVSPost2010PropOp57
 70
     1
  0
XRECORD
  5
20D
102
{ACAD_REACTORS
330
20C
102
}
330
20C
100
AcDbXrecord
280
     1
102
RTVSPropertyOp0
 70
     1
102
RTVSPropertyOp1
 70
     1
102
RTVSPropertyOp2
 70
     1
102
RTVSPropertyOp3
 70
     1
102
RTVSPropertyOp4
 70
     1
102
RTVSPropertyOp5
 70
     1
102
RTVSPropertyOp6
 70
     1
102
RTVSPropertyOp7
 70
     1
102
RTVSPropertyOp8
 70
     1
102
RTVSPropertyOp9
 70
     1
102
RTVSPropertyOp10
 70
     1
102
RTVSPropertyOp11
 70
     1
102
RTVSPropertyOp12
 70
     1
102
RTVSPropertyOp13
 70
     1
102
RTVSPropertyOp14
 70
     1
102
RTVSPropertyOp15
 70
     1
102
RTVSPropertyOp16
 70
     1
102
RTVSPropertyOp17
 70
     1
102
RTVSPropertyOp18
 70
     1
102
RTVSPropertyOp19
 70
     1
102
RTVSPropertyOp20
 70
     1
102
RTVSPropertyOp21
 70
     1
102
RTVSPropertyOp22
 70
     1
102
RTVSPropertyOp23
 70
     1
102
RTVSPropertyOp24
 70
     1
102
RTVSPropertyOp25
 70
     1
102
RTVSPropertyOp26
 70
     1
102
RTVSPropertyOp27
 70
     1
102
RTVSPropertyOp28
 70
     1
102
RTVSPropertyOp29
 70
     1
102
RTVSPropertyOp30
 70
     1
102
RTVSPropertyOp31
 70
     1
102
RTVSPropertyOp32
 70
     1
102
RTVSPropertyOp33
 70
     1
102
RTVSPropertyOp34
 70
     1
102
RTVSPropertyOp35
 70
     1
102
RTVSPropertyOp36
 70
     1
102
RTVSPropertyOp37
 70
     1
102
RTVSPropertyOp38
 70
     1
102
RTVSPropertyOp39
 70
     1
102
RTVSPropertyOp40
 70
     1
102
RTVSPropertyOp41
 70
     1
102
RTVSPropertyOp42
 70
     1
102
RTVSPropertyOp43
 70
     1
102
RTVSPropertyOp44
 70
     1
102
RTVSPropertyOp45
 70
     1
102
RTVSPropertyOp46
 70
     1
102
RTVSPropertyOp47
 70
     1
102
RTVSPropertyOp48
 70
     1
102
RTVSPropertyOp49
 70
     1
102
RTVSPropertyOp50
 70
     1
102
RTVSPropertyOp51
 70
     0
102
RTVSPropertyOp52
 70
     0
102
RTVSPropertyOp53
 70
     1
102
RTVSPropertyOp54
 70
     1
102
RTVSPropertyOp55
 70
     1
102
RTVSPropertyOp56
 70
     1
102
RTVSPropertyOp57
 70
     1
102
RTVSPost2010Prop28
280
     0
102
RTVSPost2010PropOp28
 70
     1
102
RTVSPost2010Prop29
280
     1
102
RTVSPost2010PropOp29
 70
     1
102
RTVSPost2010Prop30
280
     1
102
RTVSPost2010PropOp30
 70
     1
102
RTVSPost2010Prop31
280
     0
102
RTVSPost2010PropOp31
 70
     1
102
RTVSPost2010Prop32
280
     0
102
RTVSPost2010PropOp32
 70
     1
102
RTVSPost2010Prop33
280
     0
102
RTVSPost2010PropOp33
 70
     1
102
RTVSPost2010Prop34
280
     0
102
RTVSPost2010PropOp34
 70
     1
102
RTVSPost2010Prop35
280
     0
102
RTVSPost2010PropOp35
 70
     1
102
RTVSPost2010Prop36
280
     0
102
RTVSPost2010PropOp36
 70
     1
102
RTVSPost2010Prop37
 90
       50
102
RTVSPost2010PropOp37
 70
     1
102
RTVSPost2010Prop38
140
0.0
102
RTVSPost2010PropOp38
 70
     1
102
RTVSPost2010Prop39
140
1.0
102
RTVSPost2010PropOp39
 70
     1
102
RTVSPost2010Prop40
 90
        0
102
RTVSPost2010PropOp40
 70
     1
102
RTVSPost2010Prop41ColorIndex
 90
       18
102
RTVSPost2010Prop41ColorRGB
 90
        0
102
RTVSPost2010PropOp41
 70
     1
102
RTVSPost2010Prop42
 90
       50
102
RTVSPost2010PropOp42
 70
     1
102
RTVSPost2010Prop43
 90
        3
102
RTVSPost2010PropOp43
 70
     1
102
RTVSPost2010Prop44ColorIndex
 90
        5
102
RTVSPost2010Prop44ColorRGB
 90
      255
102
RTVSPost2010PropOp44
 70
     1
102
RTVSPost2010Prop45
280
     0
102
RTVSPost2010PropOp45
 70
     1
102
RTVSPost2010Prop46
 90
       50
102
RTVSPost2010PropOp46
 70
     1
102
RTVSPost2010Prop47
 90
       50
102
RTVSPost2010PropOp47
 70
     1
102
RTVSPost2010Prop48
 90
       50
102
RTVSPost2010PropOp48
 70
     1
102
RTVSPost2010Prop49
280
     0
102
RTVSPost2010PropOp49
 70
     1
102
RTVSPost2010Prop50
 90
       50
102
RTVSPost2010PropOp50
 70
     1
102
RTVSPost2010Prop51ColorIndex
 90
      256
102
RTVSPost2010Prop51ColorRGB
 90
-16777216
102
RTVSPost2010PropOp51
 70
     0
102
RTVSPost2010Prop52
140
1.0
102
RTVSPost2010PropOp52
 70
     0
102
RTVSPost2010Prop53
 90
        2
102
RTVSPost2010PropOp53
 70
     1
102
RTVSPost2010Prop54
  1
strokes_ogs.tif
102
RTVSPost2010PropOp54
 70
     1
102
RTVSPost2010Prop55
280
     0
102
RTVSPost2010PropOp55
 70
     1
102
RTVSPost2010Prop56
140
1.0
102
RTVSPost2010PropOp56
 70
     1
102
RTVSPost2010Prop57
140
1.0
102
RTVSPost2010PropOp57
 70
     1
  0
XRECORD
  5
21D
102
{ACAD_REACTORS
330
21C
102
}
330
21C
100
AcDbXrecord
280
     1
102
RTVSPropertyOp0
 70
     0
102
RTVSPropertyOp1
 70
     0
102
RTVSPropertyOp2
 70
     0
102
RTVSPropertyOp3
 70
     0
102
RTVSPropertyOp4
 70
     0
102
RTVSPropertyOp5
 70
     0
102
RTVSPropertyOp6
 70
     0
102
RTVSPropertyOp7
 70
     0
102
RTVSPropertyOp8
 70
     0
102
RTVSPropertyOp9
 70
     0
102
RTVSPropertyOp10
 70
     0
102
RTVSPropertyOp11
 70
     0
102
RTVSPropertyOp12
 70
     0
102
RTVSPropertyOp13
 70
     0
102
RTVSPropertyOp14
 70
     2
102
RTVSPropertyOp15
 70
     0
102
RTVSPropertyOp16
 70
     0
102
RTVSPropertyOp17
 70
     0
102
RTVSPropertyOp18
 70
     0
102
RTVSPropertyOp19
 70
     0
102
RTVSPropertyOp20
 70
     0
102
RTVSPropertyOp21
 70
     0
102
RTVSPropertyOp22
 70
     0
102
RTVSPropertyOp23
 70
     0
102
RTVSPropertyOp24
 70
     0
102
RTVSPropertyOp25
 70
     0
102
RTVSPropertyOp26
 70
     0
102
RTVSPropertyOp27
 70
     0
102
RTVSPropertyOp28
 70
     0
102
RTVSPropertyOp29
 70
     0
102
RTVSPropertyOp30
 70
     0
102
RTVSPropertyOp31
 70
     0
102
RTVSPropertyOp32
 70
     0
102
RTVSPropertyOp33
 70
     0
102
RTVSPropertyOp34
 70
     0
102
RTVSPropertyOp35
 70
     0
102
RTVSPropertyOp36
 70
     0
102
RTVSPropertyOp37
 70
     0
102
RTVSPropertyOp38
 70
     0
102
RTVSPropertyOp39
 70
     0
102
RTVSPropertyOp40
 70
     0
102
RTVSPropertyOp41
 70
     0
102
RTVSPropertyOp42
 70
     0
102
RTVSPropertyOp43
 70
     0
102
RTVSPropertyOp44
 70
     0
102
RTVSPropertyOp45
 70
     0
102
RTVSPropertyOp46
 70
     0
102
RTVSPropertyOp47
 70
     0
102
RTVSPropertyOp48
 70
     0
102
RTVSPropertyOp49
 70
     0
102
RTVSPropertyOp50
 70
     0
102
RTVSPropertyOp51
 70
     0
102
RTVSPropertyOp52
 70
     0
102
RTVSPropertyOp53
 70
     0
102
RTVSPropertyOp54
 70
     0
102
RTVSPropertyOp55
 70
     0
102
RTVSPropertyOp56
 70
     0
102
RTVSPropertyOp57
 70
     0
102
RTVSPost2010Prop28
280
     0
102
RTVSPost2010PropOp28
 70
     0
102
RTVSPost2010Prop29
280
     1
102
RTVSPost2010PropOp29
 70
     0
102
RTVSPost2010Prop30
280
     1
102
RTVSPost2010PropOp30
 70
     0
102
RTVSPost2010Prop31
280
     0
102
RTVSPost2010PropOp31
 70
     0
102
RTVSPost2010Prop32
280
     0
102
RTVSPost2010PropOp32
 70
     0
102
RTVSPost2010Prop33
280
     0
102
RTVSPost2010PropOp33
 70
     0
102
RTVSPost2010Prop34
280
     0
102
RTVSPost2010PropOp34
 70
     0
102
RTVSPost2010Prop35
280
     0
102
RTVSPost2010PropOp35
 70
     0
102
RTVSPost2010Prop36
280
     0
102
RTVSPost2010PropOp36
 70
     0
102
RTVSPost2010Prop37
 90
       50
102
RTVSPost2010PropOp37
 70
     0
102
RTVSPost2010Prop38
140
0.0
102
RTVSPost2010PropOp38
 70
     0
102
RTVSPost2010Prop39
140
1.0
102
RTVSPost2010PropOp39
 70
     0
102
RTVSPost2010Prop40
 90
        0
102
RTVSPost2010PropOp40
 70
     0
102
RTVSPost2010Prop41ColorIndex
 90
       18
102
RTVSPost2010Prop41ColorRGB
 90
        0
102
RTVSPost2010PropOp41
 70
     0
102
RTVSPost2010Prop42
 90
       50
102
RTVSPost2010PropOp42
 70
     0
102
RTVSPost2010Prop43
 90
        3
102
RTVSPost2010PropOp43
 70
     0
102
RTVSPost2010Prop44ColorIndex
 90
        5
102
RTVSPost2010Prop44ColorRGB
 90
      255
102
RTVSPost2010PropOp44
 70
     0
102
RTVSPost2010Prop45
280
     0
102
RTVSPost2010PropOp45
 70
     0
102
RTVSPost2010Prop46
 90
       50
102
RTVSPost2010PropOp46
 70
     0
102
RTVSPost2010Prop47
 90
       50
102
RTVSPost2010PropOp47
 70
     0
102
RTVSPost2010Prop48
 90
       50
102
RTVSPost2010PropOp48
 70
     0
102
RTVSPost2010Prop49
280
     0
102
RTVSPost2010PropOp49
 70
     0
102
RTVSPost2010Prop50
 90
       50
102
RTVSPost2010PropOp50
 70
     0
102
RTVSPost2010Prop51ColorIndex
 90
      256
102
RTVSPost2010Prop51ColorRGB
 90
-16777216
102
RTVSPost2010PropOp51
 70
     0
102
RTVSPost2010Prop52
140
1.0
102
RTVSPost2010PropOp52
 70
     0
102
RTVSPost2010Prop53
 90
        2
102
RTVSPost2010PropOp53
 70
     0
102
RTVSPost2010Prop54
  1
strokes_ogs.tif
102
RTVSPost2010PropOp54
 70
     0
102
RTVSPost2010Prop55
280
     0
102
RTVSPost2010PropOp55
 70
     0
102
RTVSPost2010Prop56
140
1.0
102
RTVSPost2010PropOp56
 70
     0
102
RTVSPost2010Prop57
140
1.0
102
RTVSPost2010PropOp57
 70
     0
  0
XRECORD
  5
215
102
{ACAD_REACTORS
330
214
102
}
330
214
100
AcDbXrecord
280
     1
102
RTVSPropertyOp0
 70
     1
102
RTVSPropertyOp1
 70
     1
102
RTVSPropertyOp2
 70
     1
102
RTVSPropertyOp3
 70
     1
102
RTVSPropertyOp4
 70
     1
102
RTVSPropertyOp5
 70
     1
102
RTVSPropertyOp6
 70
     1
102
RTVSPropertyOp7
 70
     1
102
RTVSPropertyOp8
 70
     1
102
RTVSPropertyOp9
 70
     1
102
RTVSPropertyOp10
 70
     1
102
RTVSPropertyOp11
 70
     1
102
RTVSPropertyOp12
 70
     1
102
RTVSPropertyOp13
 70
     1
102
RTVSPropertyOp14
 70
     1
102
RTVSPropertyOp15
 70
     1
102
RTVSPropertyOp16
 70
     1
102
RTVSPropertyOp17
 70
     1
102
RTVSPropertyOp18
 70
     1
102
RTVSPropertyOp19
 70
     1
102
RTVSPropertyOp20
 70
     1
102
RTVSPropertyOp21
 70
     1
102
RTVSPropertyOp22
 70
     1
102
RTVSPropertyOp23
 70
     1
102
RTVSPropertyOp24
 70
     1
102
RTVSPropertyOp25
 70
     1
102
RTVSPropertyOp26
 70
     1
102
RTVSPropertyOp27
 70
     1
102
RTVSPropertyOp28
 70
     1
102
RTVSPropertyOp29
 70
     1
102
RTVSPropertyOp30
 70
     1
102
RTVSPropertyOp31
 70
     1
102
RTVSPropertyOp32
 70
     1
102
RTVSPropertyOp33
 70
     1
102
RTVSPropertyOp34
 70
     1
102
RTVSPropertyOp35
 70
     1
102
RTVSPropertyOp36
 70
     1
102
RTVSPropertyOp37
 70
     1
102
RTVSPropertyOp38
 70
     1
102
RTVSPropertyOp39
 70
     1
102
RTVSPropertyOp40
 70
     1
102
RTVSPropertyOp41
 70
     1
102
RTVSPropertyOp42
 70
     1
102
RTVSPropertyOp43
 70
     1
102
RTVSPropertyOp44
 70
     1
102
RTVSPropertyOp45
 70
     1
102
RTVSPropertyOp46
 70
     1
102
RTVSPropertyOp47
 70
     1
102
RTVSPropertyOp48
 70
     1
102
RTVSPropertyOp49
 70
     1
102
RTVSPropertyOp50
 70
     1
102
RTVSPropertyOp51
 70
     0
102
RTVSPropertyOp52
 70
     0
102
RTVSPropertyOp53
 70
     1
102
RTVSPropertyOp54
 70
     1
102
RTVSPropertyOp55
 70
     1
102
RTVSPropertyOp56
 70
     1
102
RTVSPropertyOp57
 70
     1
102
RTVSPost2010Prop28
280
     0
102
RTVSPost2010PropOp28
 70
     1
102
RTVSPost2010Prop29
280
     1
102
RTVSPost2010PropOp29
 70
     1
102
RTVSPost2010Prop30
280
     1
102
RTVSPost2010PropOp30
 70
     1
102
RTVSPost2010Prop31
280
     0
102
RTVSPost2010PropOp31
 70
     1
102
RTVSPost2010Prop32
280
     0
102
RTVSPost2010PropOp32
 70
     1
102
RTVSPost2010Prop33
280
     0
102
RTVSPost2010PropOp33
 70
     1
102
RTVSPost2010Prop34
280
     0
102
RTVSPost2010PropOp34
 70
     1
102
RTVSPost2010Prop35
280
     0
102
RTVSPost2010PropOp35
 70
     1
102
RTVSPost2010Prop36
280
     0
102
RTVSPost2010PropOp36
 70
     1
102
RTVSPost2010Prop37
 90
       50
102
RTVSPost2010PropOp37
 70
     1
102
RTVSPost2010Prop38
140
0.0
102
RTVSPost2010PropOp38
 70
     1
102
RTVSPost2010Prop39
140
1.0
102
RTVSPost2010PropOp39
 70
     1
102
RTVSPost2010Prop40
 90
        0
102
RTVSPost2010PropOp40
 70
     1
102
RTVSPost2010Prop41ColorIndex
 90
       18
102
RTVSPost2010Prop41ColorRGB
 90
        0
102
RTVSPost2010PropOp41
 70
     1
102
RTVSPost2010Prop42
 90
       50
102
RTVSPost2010PropOp42
 70
     1
102
RTVSPost2010Prop43
 90
        3
102
RTVSPost2010PropOp43
 70
     1
102
RTVSPost2010Prop44ColorIndex
 90
        5
102
RTVSPost2010Prop44ColorRGB
 90
      255
102
RTVSPost2010PropOp44
 70
     1
102
RTVSPost2010Prop45
280
     0
102
RTVSPost2010PropOp45
 70
     1
102
RTVSPost2010Prop46
 90
       50
102
RTVSPost2010PropOp46
 70
     1
102
RTVSPost2010Prop47
 90
       50
102
RTVSPost2010PropOp47
 70
     1
102
RTVSPost2010Prop48
 90
       50
102
RTVSPost2010PropOp48
 70
     1
102
RTVSPost2010Prop49
280
     0
102
RTVSPost2010PropOp49
 70
     1
102
RTVSPost2010Prop50
 90
       50
102
RTVSPost2010PropOp50
 70
     1
102
RTVSPost2010Prop51ColorIndex
 90
      256
102
RTVSPost2010Prop51ColorRGB
 90
-16777216
102
RTVSPost2010PropOp51
 70
     0
102
RTVSPost2010Prop52
140
1.0
102
RTVSPost2010PropOp52
 70
     0
102
RTVSPost2010Prop53
 90
        2
102
RTVSPost2010PropOp53
 70
     1
102
RTVSPost2010Prop54
  1
strokes_ogs.tif
102
RTVSPost2010PropOp54
 70
     1
102
RTVSPost2010Prop55
280
     0
102
RTVSPost2010PropOp55
 70
     1
102
RTVSPost2010Prop56
140
1.0
102
RTVSPost2010PropOp56
 70
     1
102
RTVSPost2010Prop57
140
1.0
102
RTVSPost2010PropOp57
 70
     1
  0
XRECORD
  5
1F9
102
{ACAD_REACTORS
330
1F8
102
}
330
1F8
100
AcDbXrecord
280
     1
102
RTVSPropertyOp0
 70
     1
102
RTVSPropertyOp1
 70
     1
102
RTVSPropertyOp2
 70
     1
102
RTVSPropertyOp3
 70
     1
102
RTVSPropertyOp4
 70
     1
102
RTVSPropertyOp5
 70
     1
102
RTVSPropertyOp6
 70
     1
102
RTVSPropertyOp7
 70
     1
102
RTVSPropertyOp8
 70
     1
102
RTVSPropertyOp9
 70
     1
102
RTVSPropertyOp10
 70
     1
102
RTVSPropertyOp11
 70
     1
102
RTVSPropertyOp12
 70
     1
102
RTVSPropertyOp13
 70
     1
102
RTVSPropertyOp14
 70
     1
102
RTVSPropertyOp15
 70
     1
102
RTVSPropertyOp16
 70
     1
102
RTVSPropertyOp17
 70
     1
102
RTVSPropertyOp18
 70
     1
102
RTVSPropertyOp19
 70
     1
102
RTVSPropertyOp20
 70
     1
102
RTVSPropertyOp21
 70
     1
102
RTVSPropertyOp22
 70
     1
102
RTVSPropertyOp23
 70
     1
102
RTVSPropertyOp24
 70
     1
102
RTVSPropertyOp25
 70
     1
102
RTVSPropertyOp26
 70
     1
102
RTVSPropertyOp27
 70
     1
102
RTVSPropertyOp28
 70
     1
102
RTVSPropertyOp29
 70
     1
102
RTVSPropertyOp30
 70
     1
102
RTVSPropertyOp31
 70
     1
102
RTVSPropertyOp32
 70
     1
102
RTVSPropertyOp33
 70
     1
102
RTVSPropertyOp34
 70
     1
102
RTVSPropertyOp35
 70
     1
102
RTVSPropertyOp36
 70
     1
102
RTVSPropertyOp37
 70
     1
102
RTVSPropertyOp38
 70
     1
102
RTVSPropertyOp39
 70
     1
102
RTVSPropertyOp40
 70
     1
102
RTVSPropertyOp41
 70
     1
102
RTVSPropertyOp42
 70
     1
102
RTVSPropertyOp43
 70
     1
102
RTVSPropertyOp44
 70
     1
102
RTVSPropertyOp45
 70
     1
102
RTVSPropertyOp46
 70
     1
102
RTVSPropertyOp47
 70
     1
102
RTVSPropertyOp48
 70
     1
102
RTVSPropertyOp49
 70
     1
102
RTVSPropertyOp50
 70
     1
102
RTVSPropertyOp51
 70
     0
102
RTVSPropertyOp52
 70
     0
102
RTVSPropertyOp53
 70
     1
102
RTVSPropertyOp54
 70
     1
102
RTVSPropertyOp55
 70
     1
102
RTVSPropertyOp56
 70
     1
102
RTVSPropertyOp57
 70
     1
102
RTVSPost2010Prop28
280
     0
102
RTVSPost2010PropOp28
 70
     1
102
RTVSPost2010Prop29
280
     1
102
RTVSPost2010PropOp29
 70
     1
102
RTVSPost2010Prop30
280
     1
102
RTVSPost2010PropOp30
 70
     1
102
RTVSPost2010Prop31
280
     0
102
RTVSPost2010PropOp31
 70
     1
102
RTVSPost2010Prop32
280
     0
102
RTVSPost2010PropOp32
 70
     1
102
RTVSPost2010Prop33
280
     0
102
RTVSPost2010PropOp33
 70
     1
102
RTVSPost2010Prop34
280
     0
102
RTVSPost2010PropOp34
 70
     1
102
RTVSPost2010Prop35
280
     0
102
RTVSPost2010PropOp35
 70
     1
102
RTVSPost2010Prop36
280
     0
102
RTVSPost2010PropOp36
 70
     1
102
RTVSPost2010Prop37
 90
       50
102
RTVSPost2010PropOp37
 70
     1
102
RTVSPost2010Prop38
140
0.0
102
RTVSPost2010PropOp38
 70
     1
102
RTVSPost2010Prop39
140
1.0
102
RTVSPost2010PropOp39
 70
     1
102
RTVSPost2010Prop40
 90
        0
102
RTVSPost2010PropOp40
 70
     1
102
RTVSPost2010Prop41ColorIndex
 90
       18
102
RTVSPost2010Prop41ColorRGB
 90
        0
102
RTVSPost2010PropOp41
 70
     1
102
RTVSPost2010Prop42
 90
       50
102
RTVSPost2010PropOp42
 70
     1
102
RTVSPost2010Prop43
 90
        3
102
RTVSPost2010PropOp43
 70
     1
102
RTVSPost2010Prop44ColorIndex
 90
        5
102
RTVSPost2010Prop44ColorRGB
 90
      255
102
RTVSPost2010PropOp44
 70
     1
102
RTVSPost2010Prop45
280
     0
102
RTVSPost2010PropOp45
 70
     1
102
RTVSPost2010Prop46
 90
       50
102
RTVSPost2010PropOp46
 70
     1
102
RTVSPost2010Prop47
 90
       50
102
RTVSPost2010PropOp47
 70
     1
102
RTVSPost2010Prop48
 90
       50
102
RTVSPost2010PropOp48
 70
     1
102
RTVSPost2010Prop49
280
     0
102
RTVSPost2010PropOp49
 70
     1
102
RTVSPost2010Prop50
 90
       50
102
RTVSPost2010PropOp50
 70
     1
102
RTVSPost2010Prop51ColorIndex
 90
      256
102
RTVSPost2010Prop51ColorRGB
 90
-16777216
102
RTVSPost2010PropOp51
 70
     0
102
RTVSPost2010Prop52
140
1.0
102
RTVSPost2010PropOp52
 70
     0
102
RTVSPost2010Prop53
 90
        2
102
RTVSPost2010PropOp53
 70
     1
102
RTVSPost2010Prop54
  1
strokes_ogs.tif
102
RTVSPost2010PropOp54
 70
     1
102
RTVSPost2010Prop55
280
     0
102
RTVSPost2010PropOp55
 70
     1
102
RTVSPost2010Prop56
140
1.0
102
RTVSPost2010PropOp56
 70
     1
102
RTVSPost2010Prop57
140
1.0
102
RTVSPost2010PropOp57
 70
     1
  0
XRECORD
  5
1FB
102
{ACAD_REACTORS
330
1FA
102
}
330
1FA
100
AcDbXrecord
280
     1
102
RTVSPropertyOp0
 70
     1
102
RTVSPropertyOp1
 70
     1
102
RTVSPropertyOp2
 70
     1
102
RTVSPropertyOp3
 70
     1
102
RTVSPropertyOp4
 70
     1
102
RTVSPropertyOp5
 70
     1
102
RTVSPropertyOp6
 70
     1
102
RTVSPropertyOp7
 70
     1
102
RTVSPropertyOp8
 70
     1
102
RTVSPropertyOp9
 70
     1
102
RTVSPropertyOp10
 70
     1
102
RTVSPropertyOp11
 70
     1
102
RTVSPropertyOp12
 70
     1
102
RTVSPropertyOp13
 70
     1
102
RTVSPropertyOp14
 70
     1
102
RTVSPropertyOp15
 70
     1
102
RTVSPropertyOp16
 70
     1
102
RTVSPropertyOp17
 70
     1
102
RTVSPropertyOp18
 70
     1
102
RTVSPropertyOp19
 70
     1
102
RTVSPropertyOp20
 70
     1
102
RTVSPropertyOp21
 70
     1
102
RTVSPropertyOp22
 70
     1
102
RTVSPropertyOp23
 70
     1
102
RTVSPropertyOp24
 70
     1
102
RTVSPropertyOp25
 70
     1
102
RTVSPropertyOp26
 70
     1
102
RTVSPropertyOp27
 70
     1
102
RTVSPropertyOp28
 70
     1
102
RTVSPropertyOp29
 70
     1
102
RTVSPropertyOp30
 70
     1
102
RTVSPropertyOp31
 70
     1
102
RTVSPropertyOp32
 70
     1
102
RTVSPropertyOp33
 70
     1
102
RTVSPropertyOp34
 70
     1
102
RTVSPropertyOp35
 70
     1
102
RTVSPropertyOp36
 70
     1
102
RTVSPropertyOp37
 70
     1
102
RTVSPropertyOp38
 70
     1
102
RTVSPropertyOp39
 70
     1
102
RTVSPropertyOp40
 70
     1
102
RTVSPropertyOp41
 70
     1
102
RTVSPropertyOp42
 70
     1
102
RTVSPropertyOp43
 70
     1
102
RTVSPropertyOp44
 70
     1
102
RTVSPropertyOp45
 70
     1
102
RTVSPropertyOp46
 70
     1
102
RTVSPropertyOp47
 70
     1
102
RTVSPropertyOp48
 70
     1
102
RTVSPropertyOp49
 70
     1
102
RTVSPropertyOp50
 70
     1
102
RTVSPropertyOp51
 70
     0
102
RTVSPropertyOp52
 70
     0
102
RTVSPropertyOp53
 70
     1
102
RTVSPropertyOp54
 70
     1
102
RTVSPropertyOp55
 70
     1
102
RTVSPropertyOp56
 70
     1
102
RTVSPropertyOp57
 70
     1
102
RTVSPost2010Prop28
280
     0
102
RTVSPost2010PropOp28
 70
     1
102
RTVSPost2010Prop29
280
     1
102
RTVSPost2010PropOp29
 70
     1
102
RTVSPost2010Prop30
280
     1
102
RTVSPost2010PropOp30
 70
     1
102
RTVSPost2010Prop31
280
     0
102
RTVSPost2010PropOp31
 70
     1
102
RTVSPost2010Prop32
280
     0
102
RTVSPost2010PropOp32
 70
     1
102
RTVSPost2010Prop33
280
     0
102
RTVSPost2010PropOp33
 70
     1
102
RTVSPost2010Prop34
280
     0
102
RTVSPost2010PropOp34
 70
     1
102
RTVSPost2010Prop35
280
     0
102
RTVSPost2010PropOp35
 70
     1
102
RTVSPost2010Prop36
280
     0
102
RTVSPost2010PropOp36
 70
     1
102
RTVSPost2010Prop37
 90
       50
102
RTVSPost2010PropOp37
 70
     1
102
RTVSPost2010Prop38
140
0.0
102
RTVSPost2010PropOp38
 70
     1
102
RTVSPost2010Prop39
140
1.0
102
RTVSPost2010PropOp39
 70
     1
102
RTVSPost2010Prop40
 90
        0
102
RTVSPost2010PropOp40
 70
     1
102
RTVSPost2010Prop41ColorIndex
 90
       18
102
RTVSPost2010Prop41ColorRGB
 90
        0
102
RTVSPost2010PropOp41
 70
     1
102
RTVSPost2010Prop42
 90
       50
102
RTVSPost2010PropOp42
 70
     1
102
RTVSPost2010Prop43
 90
        3
102
RTVSPost2010PropOp43
 70
     1
102
RTVSPost2010Prop44ColorIndex
 90
        5
102
RTVSPost2010Prop44ColorRGB
 90
      255
102
RTVSPost2010PropOp44
 70
     1
102
RTVSPost2010Prop45
280
     0
102
RTVSPost2010PropOp45
 70
     1
102
RTVSPost2010Prop46
 90
       50
102
RTVSPost2010PropOp46
 70
     1
102
RTVSPost2010Prop47
 90
       50
102
RTVSPost2010PropOp47
 70
     1
102
RTVSPost2010Prop48
 90
       50
102
RTVSPost2010PropOp48
 70
     1
102
RTVSPost2010Prop49
280
     0
102
RTVSPost2010PropOp49
 70
     1
102
RTVSPost2010Prop50
 90
       50
102
RTVSPost2010PropOp50
 70
     1
102
RTVSPost2010Prop51ColorIndex
 90
      256
102
RTVSPost2010Prop51ColorRGB
 90
-16777216
102
RTVSPost2010PropOp51
 70
     0
102
RTVSPost2010Prop52
140
1.0
102
RTVSPost2010PropOp52
 70
     0
102
RTVSPost2010Prop53
 90
        2
102
RTVSPost2010PropOp53
 70
     1
102
RTVSPost2010Prop54
  1
strokes_ogs.tif
102
RTVSPost2010PropOp54
 70
     1
102
RTVSPost2010Prop55
280
     0
102
RTVSPost2010PropOp55
 70
     1
102
RTVSPost2010Prop56
140
1.0
102
RTVSPost2010PropOp56
 70
     1
102
RTVSPost2010Prop57
140
1.0
102
RTVSPost2010PropOp57
 70
     1
  0
XRECORD
  5
1FD
102
{ACAD_REACTORS
330
1FC
102
}
330
1FC
100
AcDbXrecord
280
     1
102
RTVSPropertyOp0
 70
     1
102
RTVSPropertyOp1
 70
     1
102
RTVSPropertyOp2
 70
     1
102
RTVSPropertyOp3
 70
     1
102
RTVSPropertyOp4
 70
     1
102
RTVSPropertyOp5
 70
     1
102
RTVSPropertyOp6
 70
     1
102
RTVSPropertyOp7
 70
     1
102
RTVSPropertyOp8
 70
     1
102
RTVSPropertyOp9
 70
     1
102
RTVSPropertyOp10
 70
     1
102
RTVSPropertyOp11
 70
     1
102
RTVSPropertyOp12
 70
     1
102
RTVSPropertyOp13
 70
     1
102
RTVSPropertyOp14
 70
     1
102
RTVSPropertyOp15
 70
     1
102
RTVSPropertyOp16
 70
     1
102
RTVSPropertyOp17
 70
     1
102
RTVSPropertyOp18
 70
     1
102
RTVSPropertyOp19
 70
     1
102
RTVSPropertyOp20
 70
     1
102
RTVSPropertyOp21
 70
     1
102
RTVSPropertyOp22
 70
     1
102
RTVSPropertyOp23
 70
     1
102
RTVSPropertyOp24
 70
     1
102
RTVSPropertyOp25
 70
     1
102
RTVSPropertyOp26
 70
     1
102
RTVSPropertyOp27
 70
     1
102
RTVSPropertyOp28
 70
     1
102
RTVSPropertyOp29
 70
     1
102
RTVSPropertyOp30
 70
     1
102
RTVSPropertyOp31
 70
     1
102
RTVSPropertyOp32
 70
     1
102
RTVSPropertyOp33
 70
     1
102
RTVSPropertyOp34
 70
     1
102
RTVSPropertyOp35
 70
     1
102
RTVSPropertyOp36
 70
     1
102
RTVSPropertyOp37
 70
     1
102
RTVSPropertyOp38
 70
     1
102
RTVSPropertyOp39
 70
     1
102
RTVSPropertyOp40
 70
     1
102
RTVSPropertyOp41
 70
     1
102
RTVSPropertyOp42
 70
     1
102
RTVSPropertyOp43
 70
     1
102
RTVSPropertyOp44
 70
     1
102
RTVSPropertyOp45
 70
     1
102
RTVSPropertyOp46
 70
     1
102
RTVSPropertyOp47
 70
     1
102
RTVSPropertyOp48
 70
     1
102
RTVSPropertyOp49
 70
     1
102
RTVSPropertyOp50
 70
     1
102
RTVSPropertyOp51
 70
     0
102
RTVSPropertyOp52
 70
     0
102
RTVSPropertyOp53
 70
     1
102
RTVSPropertyOp54
 70
     1
102
RTVSPropertyOp55
 70
     1
102
RTVSPropertyOp56
 70
     1
102
RTVSPropertyOp57
 70
     1
102
RTVSPost2010Prop28
280
     0
102
RTVSPost2010PropOp28
 70
     1
102
RTVSPost2010Prop29
280
     1
102
RTVSPost2010PropOp29
 70
     1
102
RTVSPost2010Prop30
280
     1
102
RTVSPost2010PropOp30
 70
     1
102
RTVSPost2010Prop31
280
     0
102
RTVSPost2010PropOp31
 70
     1
102
RTVSPost2010Prop32
280
     0
102
RTVSPost2010PropOp32
 70
     1
102
RTVSPost2010Prop33
280
     0
102
RTVSPost2010PropOp33
 70
     1
102
RTVSPost2010Prop34
280
     0
102
RTVSPost2010PropOp34
 70
     1
102
RTVSPost2010Prop35
280
     0
102
RTVSPost2010PropOp35
 70
     1
102
RTVSPost2010Prop36
280
     0
102
RTVSPost2010PropOp36
 70
     1
102
RTVSPost2010Prop37
 90
       50
102
RTVSPost2010PropOp37
 70
     1
102
RTVSPost2010Prop38
140
0.0
102
RTVSPost2010PropOp38
 70
     1
102
RTVSPost2010Prop39
140
1.0
102
RTVSPost2010PropOp39
 70
     1
102
RTVSPost2010Prop40
 90
        0
102
RTVSPost2010PropOp40
 70
     1
102
RTVSPost2010Prop41ColorIndex
 90
       18
102
RTVSPost2010Prop41ColorRGB
 90
        0
102
RTVSPost2010PropOp41
 70
     1
102
RTVSPost2010Prop42
 90
       50
102
RTVSPost2010PropOp42
 70
     1
102
RTVSPost2010Prop43
 90
        3
102
RTVSPost2010PropOp43
 70
     1
102
RTVSPost2010Prop44ColorIndex
 90
        5
102
RTVSPost2010Prop44ColorRGB
 90
      255
102
RTVSPost2010PropOp44
 70
     1
102
RTVSPost2010Prop45
280
     0
102
RTVSPost2010PropOp45
 70
     1
102
RTVSPost2010Prop46
 90
       50
102
RTVSPost2010PropOp46
 70
     1
102
RTVSPost2010Prop47
 90
       50
102
RTVSPost2010PropOp47
 70
     1
102
RTVSPost2010Prop48
 90
       50
102
RTVSPost2010PropOp48
 70
     1
102
RTVSPost2010Prop49
280
     0
102
RTVSPost2010PropOp49
 70
     1
102
RTVSPost2010Prop50
 90
       50
102
RTVSPost2010PropOp50
 70
     1
102
RTVSPost2010Prop51ColorIndex
 90
      256
102
RTVSPost2010Prop51ColorRGB
 90
-16777216
102
RTVSPost2010PropOp51
 70
     0
102
RTVSPost2010Prop52
140
1.0
102
RTVSPost2010PropOp52
 70
     0
102
RTVSPost2010Prop53
 90
        2
102
RTVSPost2010PropOp53
 70
     1
102
RTVSPost2010Prop54
  1
strokes_ogs.tif
102
RTVSPost2010PropOp54
 70
     1
102
RTVSPost2010Prop55
280
     0
102
RTVSPost2010PropOp55
 70
     1
102
RTVSPost2010Prop56
140
1.0
102
RTVSPost2010PropOp56
 70
     1
102
RTVSPost2010Prop57
140
1.0
102
RTVSPost2010PropOp57
 70
     1
  0
XRECORD
  5
1FF
102
{ACAD_REACTORS
330
1FE
102
}
330
1FE
100
AcDbXrecord
280
     1
102
RTVSPropertyOp0
 70
     1
102
RTVSPropertyOp1
 70
     1
102
RTVSPropertyOp2
 70
     1
102
RTVSPropertyOp3
 70
     1
102
RTVSPropertyOp4
 70
     1
102
RTVSPropertyOp5
 70
     1
102
RTVSPropertyOp6
 70
     1
102
RTVSPropertyOp7
 70
     1
102
RTVSPropertyOp8
 70
     1
102
RTVSPropertyOp9
 70
     1
102
RTVSPropertyOp10
 70
     1
102
RTVSPropertyOp11
 70
     1
102
RTVSPropertyOp12
 70
     1
102
RTVSPropertyOp13
 70
     1
102
RTVSPropertyOp14
 70
     1
102
RTVSPropertyOp15
 70
     1
102
RTVSPropertyOp16
 70
     1
102
RTVSPropertyOp17
 70
     1
102
RTVSPropertyOp18
 70
     1
102
RTVSPropertyOp19
 70
     1
102
RTVSPropertyOp20
 70
     1
102
RTVSPropertyOp21
 70
     1
102
RTVSPropertyOp22
 70
     1
102
RTVSPropertyOp23
 70
     1
102
RTVSPropertyOp24
 70
     1
102
RTVSPropertyOp25
 70
     1
102
RTVSPropertyOp26
 70
     1
102
RTVSPropertyOp27
 70
     1
102
RTVSPropertyOp28
 70
     1
102
RTVSPropertyOp29
 70
     1
102
RTVSPropertyOp30
 70
     1
102
RTVSPropertyOp31
 70
     1
102
RTVSPropertyOp32
 70
     1
102
RTVSPropertyOp33
 70
     1
102
RTVSPropertyOp34
 70
     1
102
RTVSPropertyOp35
 70
     1
102
RTVSPropertyOp36
 70
     1
102
RTVSPropertyOp37
 70
     1
102
RTVSPropertyOp38
 70
     1
102
RTVSPropertyOp39
 70
     1
102
RTVSPropertyOp40
 70
     1
102
RTVSPropertyOp41
 70
     1
102
RTVSPropertyOp42
 70
     1
102
RTVSPropertyOp43
 70
     1
102
RTVSPropertyOp44
 70
     1
102
RTVSPropertyOp45
 70
     1
102
RTVSPropertyOp46
 70
     1
102
RTVSPropertyOp47
 70
     1
102
RTVSPropertyOp48
 70
     1
102
RTVSPropertyOp49
 70
     1
102
RTVSPropertyOp50
 70
     1
102
RTVSPropertyOp51
 70
     0
102
RTVSPropertyOp52
 70
     0
102
RTVSPropertyOp53
 70
     1
102
RTVSPropertyOp54
 70
     1
102
RTVSPropertyOp55
 70
     1
102
RTVSPropertyOp56
 70
     1
102
RTVSPropertyOp57
 70
     1
102
RTVSPost2010Prop28
280
     0
102
RTVSPost2010PropOp28
 70
     1
102
RTVSPost2010Prop29
280
     1
102
RTVSPost2010PropOp29
 70
     1
102
RTVSPost2010Prop30
280
     1
102
RTVSPost2010PropOp30
 70
     1
102
RTVSPost2010Prop31
280
     0
102
RTVSPost2010PropOp31
 70
     1
102
RTVSPost2010Prop32
280
     0
102
RTVSPost2010PropOp32
 70
     1
102
RTVSPost2010Prop33
280
     0
102
RTVSPost2010PropOp33
 70
     1
102
RTVSPost2010Prop34
280
     0
102
RTVSPost2010PropOp34
 70
     1
102
RTVSPost2010Prop35
280
     0
102
RTVSPost2010PropOp35
 70
     1
102
RTVSPost2010Prop36
280
     0
102
RTVSPost2010PropOp36
 70
     1
102
RTVSPost2010Prop37
 90
       50
102
RTVSPost2010PropOp37
 70
     1
102
RTVSPost2010Prop38
140
0.0
102
RTVSPost2010PropOp38
 70
     1
102
RTVSPost2010Prop39
140
1.0
102
RTVSPost2010PropOp39
 70
     1
102
RTVSPost2010Prop40
 90
        0
102
RTVSPost2010PropOp40
 70
     1
102
RTVSPost2010Prop41ColorIndex
 90
       18
102
RTVSPost2010Prop41ColorRGB
 90
        0
102
RTVSPost2010PropOp41
 70
     1
102
RTVSPost2010Prop42
 90
       50
102
RTVSPost2010PropOp42
 70
     1
102
RTVSPost2010Prop43
 90
        3
102
RTVSPost2010PropOp43
 70
     1
102
RTVSPost2010Prop44ColorIndex
 90
        5
102
RTVSPost2010Prop44ColorRGB
 90
      255
102
RTVSPost2010PropOp44
 70
     1
102
RTVSPost2010Prop45
280
     0
102
RTVSPost2010PropOp45
 70
     1
102
RTVSPost2010Prop46
 90
       50
102
RTVSPost2010PropOp46
 70
     1
102
RTVSPost2010Prop47
 90
       50
102
RTVSPost2010PropOp47
 70
     1
102
RTVSPost2010Prop48
 90
       50
102
RTVSPost2010PropOp48
 70
     1
102
RTVSPost2010Prop49
280
     0
102
RTVSPost2010PropOp49
 70
     1
102
RTVSPost2010Prop50
 90
       50
102
RTVSPost2010PropOp50
 70
     1
102
RTVSPost2010Prop51ColorIndex
 90
      256
102
RTVSPost2010Prop51ColorRGB
 90
-16777216
102
RTVSPost2010PropOp51
 70
     0
102
RTVSPost2010Prop52
140
1.0
102
RTVSPost2010PropOp52
 70
     0
102
RTVSPost2010Prop53
 90
        2
102
RTVSPost2010PropOp53
 70
     1
102
RTVSPost2010Prop54
  1
strokes_ogs.tif
102
RTVSPost2010PropOp54
 70
     1
102
RTVSPost2010Prop55
280
     0
102
RTVSPost2010PropOp55
 70
     1
102
RTVSPost2010Prop56
140
1.0
102
RTVSPost2010PropOp56
 70
     1
102
RTVSPost2010Prop57
140
1.0
102
RTVSPost2010PropOp57
 70
     1
  0
XRECORD
  5
205
102
{ACAD_REACTORS
330
204
102
}
330
204
100
AcDbXrecord
280
     1
102
RTVSPropertyOp0
 70
     1
102
RTVSPropertyOp1
 70
     1
102
RTVSPropertyOp2
 70
     1
102
RTVSPropertyOp3
 70
     1
102
RTVSPropertyOp4
 70
     1
102
RTVSPropertyOp5
 70
     1
102
RTVSPropertyOp6
 70
     1
102
RTVSPropertyOp7
 70
     1
102
RTVSPropertyOp8
 70
     1
102
RTVSPropertyOp9
 70
     1
102
RTVSPropertyOp10
 70
     1
102
RTVSPropertyOp11
 70
     1
102
RTVSPropertyOp12
 70
     1
102
RTVSPropertyOp13
 70
     1
102
RTVSPropertyOp14
 70
     1
102
RTVSPropertyOp15
 70
     1
102
RTVSPropertyOp16
 70
     1
102
RTVSPropertyOp17
 70
     1
102
RTVSPropertyOp18
 70
     1
102
RTVSPropertyOp19
 70
     1
102
RTVSPropertyOp20
 70
     1
102
RTVSPropertyOp21
 70
     1
102
RTVSPropertyOp22
 70
     1
102
RTVSPropertyOp23
 70
     1
102
RTVSPropertyOp24
 70
     1
102
RTVSPropertyOp25
 70
     1
102
RTVSPropertyOp26
 70
     1
102
RTVSPropertyOp27
 70
     1
102
RTVSPropertyOp28
 70
     1
102
RTVSPropertyOp29
 70
     1
102
RTVSPropertyOp30
 70
     1
102
RTVSPropertyOp31
 70
     1
102
RTVSPropertyOp32
 70
     1
102
RTVSPropertyOp33
 70
     1
102
RTVSPropertyOp34
 70
     1
102
RTVSPropertyOp35
 70
     1
102
RTVSPropertyOp36
 70
     1
102
RTVSPropertyOp37
 70
     1
102
RTVSPropertyOp38
 70
     1
102
RTVSPropertyOp39
 70
     1
102
RTVSPropertyOp40
 70
     1
102
RTVSPropertyOp41
 70
     1
102
RTVSPropertyOp42
 70
     1
102
RTVSPropertyOp43
 70
     1
102
RTVSPropertyOp44
 70
     1
102
RTVSPropertyOp45
 70
     1
102
RTVSPropertyOp46
 70
     1
102
RTVSPropertyOp47
 70
     1
102
RTVSPropertyOp48
 70
     1
102
RTVSPropertyOp49
 70
     1
102
RTVSPropertyOp50
 70
     1
102
RTVSPropertyOp51
 70
     0
102
RTVSPropertyOp52
 70
     0
102
RTVSPropertyOp53
 70
     1
102
RTVSPropertyOp54
 70
     1
102
RTVSPropertyOp55
 70
     1
102
RTVSPropertyOp56
 70
     1
102
RTVSPropertyOp57
 70
     1
102
RTVSPost2010Prop28
280
     0
102
RTVSPost2010PropOp28
 70
     1
102
RTVSPost2010Prop29
280
     1
102
RTVSPost2010PropOp29
 70
     1
102
RTVSPost2010Prop30
280
     1
102
RTVSPost2010PropOp30
 70
     1
102
RTVSPost2010Prop31
280
     0
102
RTVSPost2010PropOp31
 70
     1
102
RTVSPost2010Prop32
280
     0
102
RTVSPost2010PropOp32
 70
     1
102
RTVSPost2010Prop33
280
     0
102
RTVSPost2010PropOp33
 70
     1
102
RTVSPost2010Prop34
280
     0
102
RTVSPost2010PropOp34
 70
     1
102
RTVSPost2010Prop35
280
     0
102
RTVSPost2010PropOp35
 70
     1
102
RTVSPost2010Prop36
280
     0
102
RTVSPost2010PropOp36
 70
     1
102
RTVSPost2010Prop37
 90
       50
102
RTVSPost2010PropOp37
 70
     1
102
RTVSPost2010Prop38
140
0.0
102
RTVSPost2010PropOp38
 70
     1
102
RTVSPost2010Prop39
140
1.0
102
RTVSPost2010PropOp39
 70
     1
102
RTVSPost2010Prop40
 90
        0
102
RTVSPost2010PropOp40
 70
     1
102
RTVSPost2010Prop41ColorIndex
 90
       18
102
RTVSPost2010Prop41ColorRGB
 90
        0
102
RTVSPost2010PropOp41
 70
     1
102
RTVSPost2010Prop42
 90
       50
102
RTVSPost2010PropOp42
 70
     1
102
RTVSPost2010Prop43
 90
        3
102
RTVSPost2010PropOp43
 70
     1
102
RTVSPost2010Prop44ColorIndex
 90
        5
102
RTVSPost2010Prop44ColorRGB
 90
      255
102
RTVSPost2010PropOp44
 70
     1
102
RTVSPost2010Prop45
280
     0
102
RTVSPost2010PropOp45
 70
     1
102
RTVSPost2010Prop46
 90
       50
102
RTVSPost2010PropOp46
 70
     1
102
RTVSPost2010Prop47
 90
       50
102
RTVSPost2010PropOp47
 70
     1
102
RTVSPost2010Prop48
 90
       50
102
RTVSPost2010PropOp48
 70
     1
102
RTVSPost2010Prop49
280
     0
102
RTVSPost2010PropOp49
 70
     1
102
RTVSPost2010Prop50
 90
       50
102
RTVSPost2010PropOp50
 70
     1
102
RTVSPost2010Prop51ColorIndex
 90
      256
102
RTVSPost2010Prop51ColorRGB
 90
-16777216
102
RTVSPost2010PropOp51
 70
     0
102
RTVSPost2010Prop52
140
1.0
102
RTVSPost2010PropOp52
 70
     0
102
RTVSPost2010Prop53
 90
        2
102
RTVSPost2010PropOp53
 70
     1
102
RTVSPost2010Prop54
  1
strokes_ogs.tif
102
RTVSPost2010PropOp54
 70
     1
102
RTVSPost2010Prop55
280
     0
102
RTVSPost2010PropOp55
 70
     1
102
RTVSPost2010Prop56
140
1.0
102
RTVSPost2010PropOp56
 70
     1
102
RTVSPost2010Prop57
140
1.0
102
RTVSPost2010PropOp57
 70
     1
  0
XRECORD
  5
219
102
{ACAD_REACTORS
330
218
102
}
330
218
100
AcDbXrecord
280
     1
102
RTVSPropertyOp0
 70
     0
102
RTVSPropertyOp1
 70
     0
102
RTVSPropertyOp2
 70
     0
102
RTVSPropertyOp3
 70
     0
102
RTVSPropertyOp4
 70
     0
102
RTVSPropertyOp5
 70
     0
102
RTVSPropertyOp6
 70
     0
102
RTVSPropertyOp7
 70
     0
102
RTVSPropertyOp8
 70
     0
102
RTVSPropertyOp9
 70
     0
102
RTVSPropertyOp10
 70
     0
102
RTVSPropertyOp11
 70
     0
102
RTVSPropertyOp12
 70
     0
102
RTVSPropertyOp13
 70
     0
102
RTVSPropertyOp14
 70
     2
102
RTVSPropertyOp15
 70
     0
102
RTVSPropertyOp16
 70
     0
102
RTVSPropertyOp17
 70
     0
102
RTVSPropertyOp18
 70
     0
102
RTVSPropertyOp19
 70
     0
102
RTVSPropertyOp20
 70
     0
102
RTVSPropertyOp21
 70
     0
102
RTVSPropertyOp22
 70
     0
102
RTVSPropertyOp23
 70
     0
102
RTVSPropertyOp24
 70
     0
102
RTVSPropertyOp25
 70
     0
102
RTVSPropertyOp26
 70
     0
102
RTVSPropertyOp27
 70
     0
102
RTVSPropertyOp28
 70
     0
102
RTVSPropertyOp29
 70
     0
102
RTVSPropertyOp30
 70
     0
102
RTVSPropertyOp31
 70
     0
102
RTVSPropertyOp32
 70
     0
102
RTVSPropertyOp33
 70
     0
102
RTVSPropertyOp34
 70
     0
102
RTVSPropertyOp35
 70
     0
102
RTVSPropertyOp36
 70
     0
102
RTVSPropertyOp37
 70
     0
102
RTVSPropertyOp38
 70
     0
102
RTVSPropertyOp39
 70
     0
102
RTVSPropertyOp40
 70
     0
102
RTVSPropertyOp41
 70
     0
102
RTVSPropertyOp42
 70
     0
102
RTVSPropertyOp43
 70
     0
102
RTVSPropertyOp44
 70
     0
102
RTVSPropertyOp45
 70
     0
102
RTVSPropertyOp46
 70
     0
102
RTVSPropertyOp47
 70
     0
102
RTVSPropertyOp48
 70
     0
102
RTVSPropertyOp49
 70
     0
102
RTVSPropertyOp50
 70
     0
102
RTVSPropertyOp51
 70
     0
102
RTVSPropertyOp52
 70
     0
102
RTVSPropertyOp53
 70
     0
102
RTVSPropertyOp54
 70
     0
102
RTVSPropertyOp55
 70
     0
102
RTVSPropertyOp56
 70
     0
102
RTVSPropertyOp57
 70
     0
102
RTVSPost2010Prop28
280
     0
102
RTVSPost2010PropOp28
 70
     0
102
RTVSPost2010Prop29
280
     1
102
RTVSPost2010PropOp29
 70
     0
102
RTVSPost2010Prop30
280
     1
102
RTVSPost2010PropOp30
 70
     0
102
RTVSPost2010Prop31
280
     0
102
RTVSPost2010PropOp31
 70
     0
102
RTVSPost2010Prop32
280
     0
102
RTVSPost2010PropOp32
 70
     0
102
RTVSPost2010Prop33
280
     0
102
RTVSPost2010PropOp33
 70
     0
102
RTVSPost2010Prop34
280
     0
102
RTVSPost2010PropOp34
 70
     0
102
RTVSPost2010Prop35
280
     0
102
RTVSPost2010PropOp35
 70
     0
102
RTVSPost2010Prop36
280
     0
102
RTVSPost2010PropOp36
 70
     0
102
RTVSPost2010Prop37
 90
       50
102
RTVSPost2010PropOp37
 70
     0
102
RTVSPost2010Prop38
140
0.0
102
RTVSPost2010PropOp38
 70
     0
102
RTVSPost2010Prop39
140
1.0
102
RTVSPost2010PropOp39
 70
     0
102
RTVSPost2010Prop40
 90
        0
102
RTVSPost2010PropOp40
 70
     0
102
RTVSPost2010Prop41ColorIndex
 90
       18
102
RTVSPost2010Prop41ColorRGB
 90
        0
102
RTVSPost2010PropOp41
 70
     0
102
RTVSPost2010Prop42
 90
       50
102
RTVSPost2010PropOp42
 70
     0
102
RTVSPost2010Prop43
 90
        3
102
RTVSPost2010PropOp43
 70
     0
102
RTVSPost2010Prop44ColorIndex
 90
        5
102
RTVSPost2010Prop44ColorRGB
 90
      255
102
RTVSPost2010PropOp44
 70
     0
102
RTVSPost2010Prop45
280
     0
102
RTVSPost2010PropOp45
 70
     0
102
RTVSPost2010Prop46
 90
       50
102
RTVSPost2010PropOp46
 70
     0
102
RTVSPost2010Prop47
 90
       50
102
RTVSPost2010PropOp47
 70
     0
102
RTVSPost2010Prop48
 90
       50
102
RTVSPost2010PropOp48
 70
     0
102
RTVSPost2010Prop49
280
     0
102
RTVSPost2010PropOp49
 70
     0
102
RTVSPost2010Prop50
 90
       50
102
RTVSPost2010PropOp50
 70
     0
102
RTVSPost2010Prop51ColorIndex
 90
      256
102
RTVSPost2010Prop51ColorRGB
 90
-16777216
102
RTVSPost2010PropOp51
 70
     0
102
RTVSPost2010Prop52
140
1.0
102
RTVSPost2010PropOp52
 70
     0
102
RTVSPost2010Prop53
 90
        2
102
RTVSPost2010PropOp53
 70
     0
102
RTVSPost2010Prop54
  1
strokes_ogs.tif
102
RTVSPost2010PropOp54
 70
     0
102
RTVSPost2010Prop55
280
     0
102
RTVSPost2010PropOp55
 70
     0
102
RTVSPost2010Prop56
140
1.0
102
RTVSPost2010PropOp56
 70
     0
102
RTVSPost2010Prop57
140
1.0
102
RTVSPost2010PropOp57
 70
     0
  0
XRECORD
  5
213
102
{ACAD_REACTORS
330
212
102
}
330
212
100
AcDbXrecord
280
     1
102
RTVSPropertyOp0
 70
     1
102
RTVSPropertyOp1
 70
     1
102
RTVSPropertyOp2
 70
     1
102
RTVSPropertyOp3
 70
     1
102
RTVSPropertyOp4
 70
     1
102
RTVSPropertyOp5
 70
     1
102
RTVSPropertyOp6
 70
     1
102
RTVSPropertyOp7
 70
     1
102
RTVSPropertyOp8
 70
     1
102
RTVSPropertyOp9
 70
     1
102
RTVSPropertyOp10
 70
     1
102
RTVSPropertyOp11
 70
     1
102
RTVSPropertyOp12
 70
     1
102
RTVSPropertyOp13
 70
     1
102
RTVSPropertyOp14
 70
     1
102
RTVSPropertyOp15
 70
     1
102
RTVSPropertyOp16
 70
     1
102
RTVSPropertyOp17
 70
     1
102
RTVSPropertyOp18
 70
     1
102
RTVSPropertyOp19
 70
     1
102
RTVSPropertyOp20
 70
     1
102
RTVSPropertyOp21
 70
     1
102
RTVSPropertyOp22
 70
     1
102
RTVSPropertyOp23
 70
     1
102
RTVSPropertyOp24
 70
     1
102
RTVSPropertyOp25
 70
     1
102
RTVSPropertyOp26
 70
     1
102
RTVSPropertyOp27
 70
     1
102
RTVSPropertyOp28
 70
     1
102
RTVSPropertyOp29
 70
     1
102
RTVSPropertyOp30
 70
     1
102
RTVSPropertyOp31
 70
     1
102
RTVSPropertyOp32
 70
     1
102
RTVSPropertyOp33
 70
     1
102
RTVSPropertyOp34
 70
     1
102
RTVSPropertyOp35
 70
     1
102
RTVSPropertyOp36
 70
     1
102
RTVSPropertyOp37
 70
     1
102
RTVSPropertyOp38
 70
     1
102
RTVSPropertyOp39
 70
     1
102
RTVSPropertyOp40
 70
     1
102
RTVSPropertyOp41
 70
     1
102
RTVSPropertyOp42
 70
     1
102
RTVSPropertyOp43
 70
     1
102
RTVSPropertyOp44
 70
     1
102
RTVSPropertyOp45
 70
     1
102
RTVSPropertyOp46
 70
     1
102
RTVSPropertyOp47
 70
     1
102
RTVSPropertyOp48
 70
     1
102
RTVSPropertyOp49
 70
     1
102
RTVSPropertyOp50
 70
     1
102
RTVSPropertyOp51
 70
     0
102
RTVSPropertyOp52
 70
     0
102
RTVSPropertyOp53
 70
     1
102
RTVSPropertyOp54
 70
     1
102
RTVSPropertyOp55
 70
     1
102
RTVSPropertyOp56
 70
     1
102
RTVSPropertyOp57
 70
     1
102
RTVSPost2010Prop28
280
     0
102
RTVSPost2010PropOp28
 70
     1
102
RTVSPost2010Prop29
280
     1
102
RTVSPost2010PropOp29
 70
     1
102
RTVSPost2010Prop30
280
     1
102
RTVSPost2010PropOp30
 70
     1
102
RTVSPost2010Prop31
280
     0
102
RTVSPost2010PropOp31
 70
     1
102
RTVSPost2010Prop32
280
     0
102
RTVSPost2010PropOp32
 70
     1
102
RTVSPost2010Prop33
280
     0
102
RTVSPost2010PropOp33
 70
     1
102
RTVSPost2010Prop34
280
     0
102
RTVSPost2010PropOp34
 70
     1
102
RTVSPost2010Prop35
280
     0
102
RTVSPost2010PropOp35
 70
     1
102
RTVSPost2010Prop36
280
     0
102
RTVSPost2010PropOp36
 70
     1
102
RTVSPost2010Prop37
 90
       50
102
RTVSPost2010PropOp37
 70
     1
102
RTVSPost2010Prop38
140
0.0
102
RTVSPost2010PropOp38
 70
     1
102
RTVSPost2010Prop39
140
1.0
102
RTVSPost2010PropOp39
 70
     1
102
RTVSPost2010Prop40
 90
        0
102
RTVSPost2010PropOp40
 70
     1
102
RTVSPost2010Prop41ColorIndex
 90
       18
102
RTVSPost2010Prop41ColorRGB
 90
        0
102
RTVSPost2010PropOp41
 70
     1
102
RTVSPost2010Prop42
 90
       50
102
RTVSPost2010PropOp42
 70
     1
102
RTVSPost2010Prop43
 90
        3
102
RTVSPost2010PropOp43
 70
     1
102
RTVSPost2010Prop44ColorIndex
 90
        5
102
RTVSPost2010Prop44ColorRGB
 90
      255
102
RTVSPost2010PropOp44
 70
     1
102
RTVSPost2010Prop45
280
     0
102
RTVSPost2010PropOp45
 70
     1
102
RTVSPost2010Prop46
 90
       50
102
RTVSPost2010PropOp46
 70
     1
102
RTVSPost2010Prop47
 90
       50
102
RTVSPost2010PropOp47
 70
     1
102
RTVSPost2010Prop48
 90
       50
102
RTVSPost2010PropOp48
 70
     1
102
RTVSPost2010Prop49
280
     0
102
RTVSPost2010PropOp49
 70
     1
102
RTVSPost2010Prop50
 90
       50
102
RTVSPost2010PropOp50
 70
     1
102
RTVSPost2010Prop51ColorIndex
 90
      256
102
RTVSPost2010Prop51ColorRGB
 90
-16777216
102
RTVSPost2010PropOp51
 70
     0
102
RTVSPost2010Prop52
140
1.0
102
RTVSPost2010PropOp52
 70
     0
102
RTVSPost2010Prop53
 90
        2
102
RTVSPost2010PropOp53
 70
     1
102
RTVSPost2010Prop54
  1
strokes_ogs.tif
102
RTVSPost2010PropOp54
 70
     1
102
RTVSPost2010Prop55
280
     0
102
RTVSPost2010PropOp55
 70
     1
102
RTVSPost2010Prop56
140
1.0
102
RTVSPost2010PropOp56
 70
     1
102
RTVSPost2010Prop57
140
1.0
102
RTVSPost2010PropOp57
 70
     1
  0
XRECORD
  5
21B
102
{ACAD_REACTORS
330
21A
102
}
330
21A
100
AcDbXrecord
280
     1
102
RTVSPropertyOp0
 70
     0
102
RTVSPropertyOp1
 70
     0
102
RTVSPropertyOp2
 70
     0
102
RTVSPropertyOp3
 70
     0
102
RTVSPropertyOp4
 70
     0
102
RTVSPropertyOp5
 70
     0
102
RTVSPropertyOp6
 70
     0
102
RTVSPropertyOp7
 70
     0
102
RTVSPropertyOp8
 70
     0
102
RTVSPropertyOp9
 70
     0
102
RTVSPropertyOp10
 70
     0
102
RTVSPropertyOp11
 70
     0
102
RTVSPropertyOp12
 70
     0
102
RTVSPropertyOp13
 70
     0
102
RTVSPropertyOp14
 70
     2
102
RTVSPropertyOp15
 70
     0
102
RTVSPropertyOp16
 70
     0
102
RTVSPropertyOp17
 70
     0
102
RTVSPropertyOp18
 70
     0
102
RTVSPropertyOp19
 70
     0
102
RTVSPropertyOp20
 70
     0
102
RTVSPropertyOp21
 70
     0
102
RTVSPropertyOp22
 70
     0
102
RTVSPropertyOp23
 70
     0
102
RTVSPropertyOp24
 70
     0
102
RTVSPropertyOp25
 70
     0
102
RTVSPropertyOp26
 70
     0
102
RTVSPropertyOp27
 70
     0
102
RTVSPropertyOp28
 70
     0
102
RTVSPropertyOp29
 70
     0
102
RTVSPropertyOp30
 70
     0
102
RTVSPropertyOp31
 70
     0
102
RTVSPropertyOp32
 70
     0
102
RTVSPropertyOp33
 70
     0
102
RTVSPropertyOp34
 70
     0
102
RTVSPropertyOp35
 70
     0
102
RTVSPropertyOp36
 70
     0
102
RTVSPropertyOp37
 70
     0
102
RTVSPropertyOp38
 70
     0
102
RTVSPropertyOp39
 70
     0
102
RTVSPropertyOp40
 70
     0
102
RTVSPropertyOp41
 70
     0
102
RTVSPropertyOp42
 70
     0
102
RTVSPropertyOp43
 70
     0
102
RTVSPropertyOp44
 70
     0
102
RTVSPropertyOp45
 70
     0
102
RTVSPropertyOp46
 70
     0
102
RTVSPropertyOp47
 70
     0
102
RTVSPropertyOp48
 70
     0
102
RTVSPropertyOp49
 70
     0
102
RTVSPropertyOp50
 70
     0
102
RTVSPropertyOp51
 70
     0
102
RTVSPropertyOp52
 70
     0
102
RTVSPropertyOp53
 70
     0
102
RTVSPropertyOp54
 70
     0
102
RTVSPropertyOp55
 70
     0
102
RTVSPropertyOp56
 70
     0
102
RTVSPropertyOp57
 70
     0
102
RTVSPost2010Prop28
280
     0
102
RTVSPost2010PropOp28
 70
     0
102
RTVSPost2010Prop29
280
     1
102
RTVSPost2010PropOp29
 70
     0
102
RTVSPost2010Prop30
280
     1
102
RTVSPost2010PropOp30
 70
     0
102
RTVSPost2010Prop31
280
     0
102
RTVSPost2010PropOp31
 70
     0
102
RTVSPost2010Prop32
280
     0
102
RTVSPost2010PropOp32
 70
     0
102
RTVSPost2010Prop33
280
     0
102
RTVSPost2010PropOp33
 70
     0
102
RTVSPost2010Prop34
280
     0
102
RTVSPost2010PropOp34
 70
     0
102
RTVSPost2010Prop35
280
     0
102
RTVSPost2010PropOp35
 70
     0
102
RTVSPost2010Prop36
280
     0
102
RTVSPost2010PropOp36
 70
     0
102
RTVSPost2010Prop37
 90
       50
102
RTVSPost2010PropOp37
 70
     0
102
RTVSPost2010Prop38
140
0.0
102
RTVSPost2010PropOp38
 70
     0
102
RTVSPost2010Prop39
140
1.0
102
RTVSPost2010PropOp39
 70
     0
102
RTVSPost2010Prop40
 90
        0
102
RTVSPost2010PropOp40
 70
     0
102
RTVSPost2010Prop41ColorIndex
 90
       18
102
RTVSPost2010Prop41ColorRGB
 90
        0
102
RTVSPost2010PropOp41
 70
     0
102
RTVSPost2010Prop42
 90
       50
102
RTVSPost2010PropOp42
 70
     0
102
RTVSPost2010Prop43
 90
        3
102
RTVSPost2010PropOp43
 70
     0
102
RTVSPost2010Prop44ColorIndex
 90
        5
102
RTVSPost2010Prop44ColorRGB
 90
      255
102
RTVSPost2010PropOp44
 70
     0
102
RTVSPost2010Prop45
280
     0
102
RTVSPost2010PropOp45
 70
     0
102
RTVSPost2010Prop46
 90
       50
102
RTVSPost2010PropOp46
 70
     0
102
RTVSPost2010Prop47
 90
       50
102
RTVSPost2010PropOp47
 70
     0
102
RTVSPost2010Prop48
 90
       50
102
RTVSPost2010PropOp48
 70
     0
102
RTVSPost2010Prop49
280
     0
102
RTVSPost2010PropOp49
 70
     0
102
RTVSPost2010Prop50
 90
       50
102
RTVSPost2010PropOp50
 70
     0
102
RTVSPost2010Prop51ColorIndex
 90
      256
102
RTVSPost2010Prop51ColorRGB
 90
-16777216
102
RTVSPost2010PropOp51
 70
     0
102
RTVSPost2010Prop52
140
1.0
102
RTVSPost2010PropOp52
 70
     0
102
RTVSPost2010Prop53
 90
        2
102
RTVSPost2010PropOp53
 70
     0
102
RTVSPost2010Prop54
  1
strokes_ogs.tif
102
RTVSPost2010PropOp54
 70
     0
102
RTVSPost2010Prop55
280
     0
102
RTVSPost2010PropOp55
 70
     0
102
RTVSPost2010Prop56
140
1.0
102
RTVSPost2010PropOp56
 70
     0
102
RTVSPost2010Prop57
140
1.0
102
RTVSPost2010PropOp57
 70
     0
  0
XRECORD
  5
209
102
{ACAD_REACTORS
330
208
102
}
330
208
100
AcDbXrecord
280
     1
102
RTVSPropertyOp0
 70
     1
102
RTVSPropertyOp1
 70
     1
102
RTVSPropertyOp2
 70
     1
102
RTVSPropertyOp3
 70
     1
102
RTVSPropertyOp4
 70
     1
102
RTVSPropertyOp5
 70
     1
102
RTVSPropertyOp6
 70
     1
102
RTVSPropertyOp7
 70
     1
102
RTVSPropertyOp8
 70
     1
102
RTVSPropertyOp9
 70
     1
102
RTVSPropertyOp10
 70
     1
102
RTVSPropertyOp11
 70
     1
102
RTVSPropertyOp12
 70
     1
102
RTVSPropertyOp13
 70
     1
102
RTVSPropertyOp14
 70
     1
102
RTVSPropertyOp15
 70
     1
102
RTVSPropertyOp16
 70
     1
102
RTVSPropertyOp17
 70
     1
102
RTVSPropertyOp18
 70
     1
102
RTVSPropertyOp19
 70
     1
102
RTVSPropertyOp20
 70
     1
102
RTVSPropertyOp21
 70
     1
102
RTVSPropertyOp22
 70
     1
102
RTVSPropertyOp23
 70
     1
102
RTVSPropertyOp24
 70
     1
102
RTVSPropertyOp25
 70
     1
102
RTVSPropertyOp26
 70
     1
102
RTVSPropertyOp27
 70
     1
102
RTVSPropertyOp28
 70
     1
102
RTVSPropertyOp29
 70
     1
102
RTVSPropertyOp30
 70
     1
102
RTVSPropertyOp31
 70
     1
102
RTVSPropertyOp32
 70
     1
102
RTVSPropertyOp33
 70
     1
102
RTVSPropertyOp34
 70
     1
102
RTVSPropertyOp35
 70
     1
102
RTVSPropertyOp36
 70
     1
102
RTVSPropertyOp37
 70
     1
102
RTVSPropertyOp38
 70
     1
102
RTVSPropertyOp39
 70
     1
102
RTVSPropertyOp40
 70
     1
102
RTVSPropertyOp41
 70
     1
102
RTVSPropertyOp42
 70
     1
102
RTVSPropertyOp43
 70
     1
102
RTVSPropertyOp44
 70
     1
102
RTVSPropertyOp45
 70
     1
102
RTVSPropertyOp46
 70
     1
102
RTVSPropertyOp47
 70
     1
102
RTVSPropertyOp48
 70
     1
102
RTVSPropertyOp49
 70
     1
102
RTVSPropertyOp50
 70
     1
102
RTVSPropertyOp51
 70
     0
102
RTVSPropertyOp52
 70
     0
102
RTVSPropertyOp53
 70
     1
102
RTVSPropertyOp54
 70
     1
102
RTVSPropertyOp55
 70
     1
102
RTVSPropertyOp56
 70
     1
102
RTVSPropertyOp57
 70
     1
102
RTVSPost2010Prop28
280
     0
102
RTVSPost2010PropOp28
 70
     1
102
RTVSPost2010Prop29
280
     1
102
RTVSPost2010PropOp29
 70
     1
102
RTVSPost2010Prop30
280
     1
102
RTVSPost2010PropOp30
 70
     1
102
RTVSPost2010Prop31
280
     0
102
RTVSPost2010PropOp31
 70
     1
102
RTVSPost2010Prop32
280
     0
102
RTVSPost2010PropOp32
 70
     1
102
RTVSPost2010Prop33
280
     0
102
RTVSPost2010PropOp33
 70
     1
102
RTVSPost2010Prop34
280
     0
102
RTVSPost2010PropOp34
 70
     1
102
RTVSPost2010Prop35
280
     0
102
RTVSPost2010PropOp35
 70
     1
102
RTVSPost2010Prop36
280
     0
102
RTVSPost2010PropOp36
 70
     1
102
RTVSPost2010Prop37
 90
       50
102
RTVSPost2010PropOp37
 70
     1
102
RTVSPost2010Prop38
140
0.0
102
RTVSPost2010PropOp38
 70
     1
102
RTVSPost2010Prop39
140
1.0
102
RTVSPost2010PropOp39
 70
     1
102
RTVSPost2010Prop40
 90
        0
102
RTVSPost2010PropOp40
 70
     1
102
RTVSPost2010Prop41ColorIndex
 90
       18
102
RTVSPost2010Prop41ColorRGB
 90
        0
102
RTVSPost2010PropOp41
 70
     1
102
RTVSPost2010Prop42
 90
       50
102
RTVSPost2010PropOp42
 70
     1
102
RTVSPost2010Prop43
 90
        3
102
RTVSPost2010PropOp43
 70
     1
102
RTVSPost2010Prop44ColorIndex
 90
        5
102
RTVSPost2010Prop44ColorRGB
 90
      255
102
RTVSPost2010PropOp44
 70
     1
102
RTVSPost2010Prop45
280
     0
102
RTVSPost2010PropOp45
 70
     1
102
RTVSPost2010Prop46
 90
       50
102
RTVSPost2010PropOp46
 70
     1
102
RTVSPost2010Prop47
 90
       50
102
RTVSPost2010PropOp47
 70
     1
102
RTVSPost2010Prop48
 90
       50
102
RTVSPost2010PropOp48
 70
     1
102
RTVSPost2010Prop49
280
     0
102
RTVSPost2010PropOp49
 70
     1
102
RTVSPost2010Prop50
 90
       50
102
RTVSPost2010PropOp50
 70
     1
102
RTVSPost2010Prop51ColorIndex
 90
      256
102
RTVSPost2010Prop51ColorRGB
 90
-16777216
102
RTVSPost2010PropOp51
 70
     0
102
RTVSPost2010Prop52
140
1.0
102
RTVSPost2010PropOp52
 70
     0
102
RTVSPost2010Prop53
 90
        2
102
RTVSPost2010PropOp53
 70
     1
102
RTVSPost2010Prop54
  1
strokes_ogs.tif
102
RTVSPost2010PropOp54
 70
     1
102
RTVSPost2010Prop55
280
     0
102
RTVSPost2010PropOp55
 70
     1
102
RTVSPost2010Prop56
140
1.0
102
RTVSPost2010PropOp56
 70
     1
102
RTVSPost2010Prop57
140
1.0
102
RTVSPost2010PropOp57
 70
     1
  0
XRECORD
  5
227
102
{ACAD_REACTORS
330
226
102
}
330
226
100
AcDbXrecord
280
     1
102
RTVSPropertyOp0
 70
     1
102
RTVSPropertyOp1
 70
     1
102
RTVSPropertyOp2
 70
     1
102
RTVSPropertyOp3
 70
     1
102
RTVSPropertyOp4
 70
     1
102
RTVSPropertyOp5
 70
     1
102
RTVSPropertyOp6
 70
     1
102
RTVSPropertyOp7
 70
     1
102
RTVSPropertyOp8
 70
     1
102
RTVSPropertyOp9
 70
     1
102
RTVSPropertyOp10
 70
     1
102
RTVSPropertyOp11
 70
     1
102
RTVSPropertyOp12
 70
     1
102
RTVSPropertyOp13
 70
     1
102
RTVSPropertyOp14
 70
     1
102
RTVSPropertyOp15
 70
     1
102
RTVSPropertyOp16
 70
     1
102
RTVSPropertyOp17
 70
     1
102
RTVSPropertyOp18
 70
     1
102
RTVSPropertyOp19
 70
     1
102
RTVSPropertyOp20
 70
     1
102
RTVSPropertyOp21
 70
     1
102
RTVSPropertyOp22
 70
     1
102
RTVSPropertyOp23
 70
     1
102
RTVSPropertyOp24
 70
     1
102
RTVSPropertyOp25
 70
     1
102
RTVSPropertyOp26
 70
     1
102
RTVSPropertyOp27
 70
     1
102
RTVSPropertyOp28
 70
     1
102
RTVSPropertyOp29
 70
     1
102
RTVSPropertyOp30
 70
     1
102
RTVSPropertyOp31
 70
     1
102
RTVSPropertyOp32
 70
     1
102
RTVSPropertyOp33
 70
     1
102
RTVSPropertyOp34
 70
     1
102
RTVSPropertyOp35
 70
     1
102
RTVSPropertyOp36
 70
     1
102
RTVSPropertyOp37
 70
     1
102
RTVSPropertyOp38
 70
     1
102
RTVSPropertyOp39
 70
     1
102
RTVSPropertyOp40
 70
     1
102
RTVSPropertyOp41
 70
     1
102
RTVSPropertyOp42
 70
     1
102
RTVSPropertyOp43
 70
     1
102
RTVSPropertyOp44
 70
     1
102
RTVSPropertyOp45
 70
     1
102
RTVSPropertyOp46
 70
     1
102
RTVSPropertyOp47
 70
     1
102
RTVSPropertyOp48
 70
     1
102
RTVSPropertyOp49
 70
     1
102
RTVSPropertyOp50
 70
     1
102
RTVSPropertyOp51
 70
     0
102
RTVSPropertyOp52
 70
     0
102
RTVSPropertyOp53
 70
     1
102
RTVSPropertyOp54
 70
     1
102
RTVSPropertyOp55
 70
     1
102
RTVSPropertyOp56
 70
     1
102
RTVSPropertyOp57
 70
     1
102
RTVSPost2010Prop28
280
     0
102
RTVSPost2010PropOp28
 70
     1
102
RTVSPost2010Prop29
280
     1
102
RTVSPost2010PropOp29
 70
     1
102
RTVSPost2010Prop30
280
     1
102
RTVSPost2010PropOp30
 70
     1
102
RTVSPost2010Prop31
280
     0
102
RTVSPost2010PropOp31
 70
     1
102
RTVSPost2010Prop32
280
     0
102
RTVSPost2010PropOp32
 70
     1
102
RTVSPost2010Prop33
280
     0
102
RTVSPost2010PropOp33
 70
     1
102
RTVSPost2010Prop34
280
     0
102
RTVSPost2010PropOp34
 70
     1
102
RTVSPost2010Prop35
280
     0
102
RTVSPost2010PropOp35
 70
     1
102
RTVSPost2010Prop36
280
     0
102
RTVSPost2010PropOp36
 70
     1
102
RTVSPost2010Prop37
 90
       50
102
RTVSPost2010PropOp37
 70
     1
102
RTVSPost2010Prop38
140
0.0
102
RTVSPost2010PropOp38
 70
     1
102
RTVSPost2010Prop39
140
1.0
102
RTVSPost2010PropOp39
 70
     1
102
RTVSPost2010Prop40
 90
        0
102
RTVSPost2010PropOp40
 70
     1
102
RTVSPost2010Prop41ColorIndex
 90
       18
102
RTVSPost2010Prop41ColorRGB
 90
        0
102
RTVSPost2010PropOp41
 70
     1
102
RTVSPost2010Prop42
 90
       50
102
RTVSPost2010PropOp42
 70
     1
102
RTVSPost2010Prop43
 90
        3
102
RTVSPost2010PropOp43
 70
     1
102
RTVSPost2010Prop44ColorIndex
 90
        5
102
RTVSPost2010Prop44ColorRGB
 90
      255
102
RTVSPost2010PropOp44
 70
     1
102
RTVSPost2010Prop45
280
     0
102
RTVSPost2010PropOp45
 70
     1
102
RTVSPost2010Prop46
 90
       50
102
RTVSPost2010PropOp46
 70
     1
102
RTVSPost2010Prop47
 90
       50
102
RTVSPost2010PropOp47
 70
     1
102
RTVSPost2010Prop48
 90
       50
102
RTVSPost2010PropOp48
 70
     1
102
RTVSPost2010Prop49
280
     0
102
RTVSPost2010PropOp49
 70
     1
102
RTVSPost2010Prop50
 90
       50
102
RTVSPost2010PropOp50
 70
     1
102
RTVSPost2010Prop51ColorIndex
 90
      256
102
RTVSPost2010Prop51ColorRGB
 90
-16777216
102
RTVSPost2010PropOp51
 70
     0
102
RTVSPost2010Prop52
140
1.0
102
RTVSPost2010PropOp52
 70
     0
102
RTVSPost2010Prop53
 90
        2
102
RTVSPost2010PropOp53
 70
     1
102
RTVSPost2010Prop54
  1
strokes_ogs.tif
102
RTVSPost2010PropOp54
 70
     1
102
RTVSPost2010Prop55
280
     0
102
RTVSPost2010PropOp55
 70
     1
102
RTVSPost2010Prop56
140
1.0
102
RTVSPost2010PropOp56
 70
     1
102
RTVSPost2010Prop57
140
1.0
102
RTVSPost2010PropOp57
 70
     1
  0
XRECORD
  5
225
102
{ACAD_REACTORS
330
224
102
}
330
224
100
AcDbXrecord
280
     1
102
RTVSPropertyOp0
 70
     1
102
RTVSPropertyOp1
 70
     1
102
RTVSPropertyOp2
 70
     1
102
RTVSPropertyOp3
 70
     1
102
RTVSPropertyOp4
 70
     1
102
RTVSPropertyOp5
 70
     1
102
RTVSPropertyOp6
 70
     1
102
RTVSPropertyOp7
 70
     1
102
RTVSPropertyOp8
 70
     1
102
RTVSPropertyOp9
 70
     1
102
RTVSPropertyOp10
 70
     1
102
RTVSPropertyOp11
 70
     1
102
RTVSPropertyOp12
 70
     1
102
RTVSPropertyOp13
 70
     1
102
RTVSPropertyOp14
 70
     1
102
RTVSPropertyOp15
 70
     1
102
RTVSPropertyOp16
 70
     1
102
RTVSPropertyOp17
 70
     1
102
RTVSPropertyOp18
 70
     1
102
RTVSPropertyOp19
 70
     1
102
RTVSPropertyOp20
 70
     1
102
RTVSPropertyOp21
 70
     1
102
RTVSPropertyOp22
 70
     1
102
RTVSPropertyOp23
 70
     1
102
RTVSPropertyOp24
 70
     1
102
RTVSPropertyOp25
 70
     1
102
RTVSPropertyOp26
 70
     1
102
RTVSPropertyOp27
 70
     1
102
RTVSPropertyOp28
 70
     1
102
RTVSPropertyOp29
 70
     1
102
RTVSPropertyOp30
 70
     1
102
RTVSPropertyOp31
 70
     1
102
RTVSPropertyOp32
 70
     1
102
RTVSPropertyOp33
 70
     1
102
RTVSPropertyOp34
 70
     1
102
RTVSPropertyOp35
 70
     1
102
RTVSPropertyOp36
 70
     1
102
RTVSPropertyOp37
 70
     1
102
RTVSPropertyOp38
 70
     1
102
RTVSPropertyOp39
 70
     1
102
RTVSPropertyOp40
 70
     1
102
RTVSPropertyOp41
 70
     1
102
RTVSPropertyOp42
 70
     1
102
RTVSPropertyOp43
 70
     1
102
RTVSPropertyOp44
 70
     1
102
RTVSPropertyOp45
 70
     1
102
RTVSPropertyOp46
 70
     1
102
RTVSPropertyOp47
 70
     1
102
RTVSPropertyOp48
 70
     1
102
RTVSPropertyOp49
 70
     1
102
RTVSPropertyOp50
 70
     1
102
RTVSPropertyOp51
 70
     0
102
RTVSPropertyOp52
 70
     0
102
RTVSPropertyOp53
 70
     1
102
RTVSPropertyOp54
 70
     1
102
RTVSPropertyOp55
 70
     1
102
RTVSPropertyOp56
 70
     1
102
RTVSPropertyOp57
 70
     1
102
RTVSPost2010Prop28
280
     0
102
RTVSPost2010PropOp28
 70
     1
102
RTVSPost2010Prop29
280
     1
102
RTVSPost2010PropOp29
 70
     1
102
RTVSPost2010Prop30
280
     1
102
RTVSPost2010PropOp30
 70
     1
102
RTVSPost2010Prop31
280
     0
102
RTVSPost2010PropOp31
 70
     1
102
RTVSPost2010Prop32
280
     0
102
RTVSPost2010PropOp32
 70
     1
102
RTVSPost2010Prop33
280
     0
102
RTVSPost2010PropOp33
 70
     1
102
RTVSPost2010Prop34
280
     0
102
RTVSPost2010PropOp34
 70
     1
102
RTVSPost2010Prop35
280
     0
102
RTVSPost2010PropOp35
 70
     1
102
RTVSPost2010Prop36
280
     0
102
RTVSPost2010PropOp36
 70
     1
102
RTVSPost2010Prop37
 90
       50
102
RTVSPost2010PropOp37
 70
     1
102
RTVSPost2010Prop38
140
0.0
102
RTVSPost2010PropOp38
 70
     1
102
RTVSPost2010Prop39
140
1.0
102
RTVSPost2010PropOp39
 70
     1
102
RTVSPost2010Prop40
 90
        0
102
RTVSPost2010PropOp40
 70
     1
102
RTVSPost2010Prop41ColorIndex
 90
       18
102
RTVSPost2010Prop41ColorRGB
 90
        0
102
RTVSPost2010PropOp41
 70
     1
102
RTVSPost2010Prop42
 90
       50
102
RTVSPost2010PropOp42
 70
     1
102
RTVSPost2010Prop43
 90
        3
102
RTVSPost2010PropOp43
 70
     1
102
RTVSPost2010Prop44ColorIndex
 90
        5
102
RTVSPost2010Prop44ColorRGB
 90
      255
102
RTVSPost2010PropOp44
 70
     1
102
RTVSPost2010Prop45
280
     0
102
RTVSPost2010PropOp45
 70
     1
102
RTVSPost2010Prop46
 90
       50
102
RTVSPost2010PropOp46
 70
     1
102
RTVSPost2010Prop47
 90
       50
102
RTVSPost2010PropOp47
 70
     1
102
RTVSPost2010Prop48
 90
       50
102
RTVSPost2010PropOp48
 70
     1
102
RTVSPost2010Prop49
280
     0
102
RTVSPost2010PropOp49
 70
     1
102
RTVSPost2010Prop50
 90
       50
102
RTVSPost2010PropOp50
 70
     1
102
RTVSPost2010Prop51ColorIndex
 90
      256
102
RTVSPost2010Prop51ColorRGB
 90
-16777216
102
RTVSPost2010PropOp51
 70
     0
102
RTVSPost2010Prop52
140
1.0
102
RTVSPost2010PropOp52
 70
     0
102
RTVSPost2010Prop53
 90
        2
102
RTVSPost2010PropOp53
 70
     1
102
RTVSPost2010Prop54
  1
strokes_ogs.tif
102
RTVSPost2010PropOp54
 70
     1
102
RTVSPost2010Prop55
280
     0
102
RTVSPost2010PropOp55
 70
     1
102
RTVSPost2010Prop56
140
1.0
102
RTVSPost2010PropOp56
 70
     1
102
RTVSPost2010Prop57
140
1.0
102
RTVSPost2010PropOp57
 70
     1
  0
XRECORD
  5
21F
102
{ACAD_REACTORS
330
21E
102
}
330
21E
100
AcDbXrecord
280
     1
102
RTVSPropertyOp0
 70
     1
102
RTVSPropertyOp1
 70
     1
102
RTVSPropertyOp2
 70
     1
102
RTVSPropertyOp3
 70
     1
102
RTVSPropertyOp4
 70
     1
102
RTVSPropertyOp5
 70
     1
102
RTVSPropertyOp6
 70
     1
102
RTVSPropertyOp7
 70
     1
102
RTVSPropertyOp8
 70
     1
102
RTVSPropertyOp9
 70
     1
102
RTVSPropertyOp10
 70
     1
102
RTVSPropertyOp11
 70
     1
102
RTVSPropertyOp12
 70
     1
102
RTVSPropertyOp13
 70
     1
102
RTVSPropertyOp14
 70
     1
102
RTVSPropertyOp15
 70
     1
102
RTVSPropertyOp16
 70
     1
102
RTVSPropertyOp17
 70
     1
102
RTVSPropertyOp18
 70
     1
102
RTVSPropertyOp19
 70
     1
102
RTVSPropertyOp20
 70
     1
102
RTVSPropertyOp21
 70
     1
102
RTVSPropertyOp22
 70
     1
102
RTVSPropertyOp23
 70
     1
102
RTVSPropertyOp24
 70
     1
102
RTVSPropertyOp25
 70
     1
102
RTVSPropertyOp26
 70
     1
102
RTVSPropertyOp27
 70
     1
102
RTVSPropertyOp28
 70
     1
102
RTVSPropertyOp29
 70
     1
102
RTVSPropertyOp30
 70
     1
102
RTVSPropertyOp31
 70
     1
102
RTVSPropertyOp32
 70
     1
102
RTVSPropertyOp33
 70
     1
102
RTVSPropertyOp34
 70
     1
102
RTVSPropertyOp35
 70
     1
102
RTVSPropertyOp36
 70
     1
102
RTVSPropertyOp37
 70
     1
102
RTVSPropertyOp38
 70
     1
102
RTVSPropertyOp39
 70
     1
102
RTVSPropertyOp40
 70
     1
102
RTVSPropertyOp41
 70
     1
102
RTVSPropertyOp42
 70
     1
102
RTVSPropertyOp43
 70
     1
102
RTVSPropertyOp44
 70
     1
102
RTVSPropertyOp45
 70
     1
102
RTVSPropertyOp46
 70
     1
102
RTVSPropertyOp47
 70
     1
102
RTVSPropertyOp48
 70
     1
102
RTVSPropertyOp49
 70
     1
102
RTVSPropertyOp50
 70
     1
102
RTVSPropertyOp51
 70
     0
102
RTVSPropertyOp52
 70
     0
102
RTVSPropertyOp53
 70
     1
102
RTVSPropertyOp54
 70
     1
102
RTVSPropertyOp55
 70
     1
102
RTVSPropertyOp56
 70
     1
102
RTVSPropertyOp57
 70
     1
102
RTVSPost2010Prop28
280
     0
102
RTVSPost2010PropOp28
 70
     1
102
RTVSPost2010Prop29
280
     1
102
RTVSPost2010PropOp29
 70
     1
102
RTVSPost2010Prop30
280
     1
102
RTVSPost2010PropOp30
 70
     1
102
RTVSPost2010Prop31
280
     0
102
RTVSPost2010PropOp31
 70
     1
102
RTVSPost2010Prop32
280
     0
102
RTVSPost2010PropOp32
 70
     1
102
RTVSPost2010Prop33
280
     0
102
RTVSPost2010PropOp33
 70
     1
102
RTVSPost2010Prop34
280
     0
102
RTVSPost2010PropOp34
 70
     1
102
RTVSPost2010Prop35
280
     0
102
RTVSPost2010PropOp35
 70
     1
102
RTVSPost2010Prop36
280
     0
102
RTVSPost2010PropOp36
 70
     1
102
RTVSPost2010Prop37
 90
       50
102
RTVSPost2010PropOp37
 70
     1
102
RTVSPost2010Prop38
140
0.0
102
RTVSPost2010PropOp38
 70
     1
102
RTVSPost2010Prop39
140
1.0
102
RTVSPost2010PropOp39
 70
     1
102
RTVSPost2010Prop40
 90
        0
102
RTVSPost2010PropOp40
 70
     1
102
RTVSPost2010Prop41ColorIndex
 90
       18
102
RTVSPost2010Prop41ColorRGB
 90
        0
102
RTVSPost2010PropOp41
 70
     1
102
RTVSPost2010Prop42
 90
       50
102
RTVSPost2010PropOp42
 70
     1
102
RTVSPost2010Prop43
 90
        3
102
RTVSPost2010PropOp43
 70
     1
102
RTVSPost2010Prop44ColorIndex
 90
        5
102
RTVSPost2010Prop44ColorRGB
 90
      255
102
RTVSPost2010PropOp44
 70
     1
102
RTVSPost2010Prop45
280
     0
102
RTVSPost2010PropOp45
 70
     1
102
RTVSPost2010Prop46
 90
       50
102
RTVSPost2010PropOp46
 70
     1
102
RTVSPost2010Prop47
 90
       50
102
RTVSPost2010PropOp47
 70
     1
102
RTVSPost2010Prop48
 90
       50
102
RTVSPost2010PropOp48
 70
     1
102
RTVSPost2010Prop49
280
     0
102
RTVSPost2010PropOp49
 70
     1
102
RTVSPost2010Prop50
 90
       50
102
RTVSPost2010PropOp50
 70
     1
102
RTVSPost2010Prop51ColorIndex
 90
      256
102
RTVSPost2010Prop51ColorRGB
 90
-16777216
102
RTVSPost2010PropOp51
 70
     0
102
RTVSPost2010Prop52
140
1.0
102
RTVSPost2010PropOp52
 70
     0
102
RTVSPost2010Prop53
 90
        2
102
RTVSPost2010PropOp53
 70
     1
102
RTVSPost2010Prop54
  1
strokes_ogs.tif
102
RTVSPost2010PropOp54
 70
     1
102
RTVSPost2010Prop55
280
     0
102
RTVSPost2010PropOp55
 70
     1
102
RTVSPost2010Prop56
140
1.0
102
RTVSPost2010PropOp56
 70
     1
102
RTVSPost2010Prop57
140
1.0
102
RTVSPost2010PropOp57
 70
     1
  0
XRECORD
  5
221
102
{ACAD_REACTORS
330
220
102
}
330
220
100
AcDbXrecord
280
     1
102
RTVSPropertyOp0
 70
     1
102
RTVSPropertyOp1
 70
     1
102
RTVSPropertyOp2
 70
     1
102
RTVSPropertyOp3
 70
     1
102
RTVSPropertyOp4
 70
     1
102
RTVSPropertyOp5
 70
     1
102
RTVSPropertyOp6
 70
     1
102
RTVSPropertyOp7
 70
     1
102
RTVSPropertyOp8
 70
     1
102
RTVSPropertyOp9
 70
     1
102
RTVSPropertyOp10
 70
     1
102
RTVSPropertyOp11
 70
     1
102
RTVSPropertyOp12
 70
     1
102
RTVSPropertyOp13
 70
     1
102
RTVSPropertyOp14
 70
     1
102
RTVSPropertyOp15
 70
     1
102
RTVSPropertyOp16
 70
     1
102
RTVSPropertyOp17
 70
     1
102
RTVSPropertyOp18
 70
     1
102
RTVSPropertyOp19
 70
     1
102
RTVSPropertyOp20
 70
     1
102
RTVSPropertyOp21
 70
     1
102
RTVSPropertyOp22
 70
     1
102
RTVSPropertyOp23
 70
     1
102
RTVSPropertyOp24
 70
     1
102
RTVSPropertyOp25
 70
     1
102
RTVSPropertyOp26
 70
     1
102
RTVSPropertyOp27
 70
     1
102
RTVSPropertyOp28
 70
     1
102
RTVSPropertyOp29
 70
     1
102
RTVSPropertyOp30
 70
     1
102
RTVSPropertyOp31
 70
     1
102
RTVSPropertyOp32
 70
     1
102
RTVSPropertyOp33
 70
     1
102
RTVSPropertyOp34
 70
     1
102
RTVSPropertyOp35
 70
     1
102
RTVSPropertyOp36
 70
     1
102
RTVSPropertyOp37
 70
     1
102
RTVSPropertyOp38
 70
     1
102
RTVSPropertyOp39
 70
     1
102
RTVSPropertyOp40
 70
     1
102
RTVSPropertyOp41
 70
     1
102
RTVSPropertyOp42
 70
     1
102
RTVSPropertyOp43
 70
     1
102
RTVSPropertyOp44
 70
     1
102
RTVSPropertyOp45
 70
     1
102
RTVSPropertyOp46
 70
     1
102
RTVSPropertyOp47
 70
     1
102
RTVSPropertyOp48
 70
     1
102
RTVSPropertyOp49
 70
     1
102
RTVSPropertyOp50
 70
     1
102
RTVSPropertyOp51
 70
     0
102
RTVSPropertyOp52
 70
     0
102
RTVSPropertyOp53
 70
     1
102
RTVSPropertyOp54
 70
     1
102
RTVSPropertyOp55
 70
     1
102
RTVSPropertyOp56
 70
     1
102
RTVSPropertyOp57
 70
     1
102
RTVSPost2010Prop28
280
     0
102
RTVSPost2010PropOp28
 70
     1
102
RTVSPost2010Prop29
280
     1
102
RTVSPost2010PropOp29
 70
     1
102
RTVSPost2010Prop30
280
     1
102
RTVSPost2010PropOp30
 70
     1
102
RTVSPost2010Prop31
280
     0
102
RTVSPost2010PropOp31
 70
     1
102
RTVSPost2010Prop32
280
     0
102
RTVSPost2010PropOp32
 70
     1
102
RTVSPost2010Prop33
280
     0
102
RTVSPost2010PropOp33
 70
     1
102
RTVSPost2010Prop34
280
     0
102
RTVSPost2010PropOp34
 70
     1
102
RTVSPost2010Prop35
280
     0
102
RTVSPost2010PropOp35
 70
     1
102
RTVSPost2010Prop36
280
     0
102
RTVSPost2010PropOp36
 70
     1
102
RTVSPost2010Prop37
 90
       50
102
RTVSPost2010PropOp37
 70
     1
102
RTVSPost2010Prop38
140
0.0
102
RTVSPost2010PropOp38
 70
     1
102
RTVSPost2010Prop39
140
1.0
102
RTVSPost2010PropOp39
 70
     1
102
RTVSPost2010Prop40
 90
        0
102
RTVSPost2010PropOp40
 70
     1
102
RTVSPost2010Prop41ColorIndex
 90
       18
102
RTVSPost2010Prop41ColorRGB
 90
        0
102
RTVSPost2010PropOp41
 70
     1
102
RTVSPost2010Prop42
 90
       50
102
RTVSPost2010PropOp42
 70
     1
102
RTVSPost2010Prop43
 90
        3
102
RTVSPost2010PropOp43
 70
     1
102
RTVSPost2010Prop44ColorIndex
 90
        5
102
RTVSPost2010Prop44ColorRGB
 90
      255
102
RTVSPost2010PropOp44
 70
     1
102
RTVSPost2010Prop45
280
     0
102
RTVSPost2010PropOp45
 70
     1
102
RTVSPost2010Prop46
 90
       50
102
RTVSPost2010PropOp46
 70
     1
102
RTVSPost2010Prop47
 90
       50
102
RTVSPost2010PropOp47
 70
     1
102
RTVSPost2010Prop48
 90
       50
102
RTVSPost2010PropOp48
 70
     1
102
RTVSPost2010Prop49
280
     0
102
RTVSPost2010PropOp49
 70
     1
102
RTVSPost2010Prop50
 90
       50
102
RTVSPost2010PropOp50
 70
     1
102
RTVSPost2010Prop51ColorIndex
 90
      256
102
RTVSPost2010Prop51ColorRGB
 90
-16777216
102
RTVSPost2010PropOp51
 70
     0
102
RTVSPost2010Prop52
140
1.0
102
RTVSPost2010PropOp52
 70
     0
102
RTVSPost2010Prop53
 90
        2
102
RTVSPost2010PropOp53
 70
     1
102
RTVSPost2010Prop54
  1
strokes_ogs.tif
102
RTVSPost2010PropOp54
 70
     1
102
RTVSPost2010Prop55
280
     0
102
RTVSPost2010PropOp55
 70
     1
102
RTVSPost2010Prop56
140
1.0
102
RTVSPost2010PropOp56
 70
     1
102
RTVSPost2010Prop57
140
1.0
102
RTVSPost2010PropOp57
 70
     1
  0
XRECORD
  5
211
102
{ACAD_REACTORS
330
210
102
}
330
210
100
AcDbXrecord
280
     1
102
RTVSPropertyOp0
 70
     1
102
RTVSPropertyOp1
 70
     1
102
RTVSPropertyOp2
 70
     1
102
RTVSPropertyOp3
 70
     1
102
RTVSPropertyOp4
 70
     1
102
RTVSPropertyOp5
 70
     1
102
RTVSPropertyOp6
 70
     1
102
RTVSPropertyOp7
 70
     1
102
RTVSPropertyOp8
 70
     1
102
RTVSPropertyOp9
 70
     1
102
RTVSPropertyOp10
 70
     1
102
RTVSPropertyOp11
 70
     1
102
RTVSPropertyOp12
 70
     1
102
RTVSPropertyOp13
 70
     1
102
RTVSPropertyOp14
 70
     1
102
RTVSPropertyOp15
 70
     1
102
RTVSPropertyOp16
 70
     1
102
RTVSPropertyOp17
 70
     1
102
RTVSPropertyOp18
 70
     1
102
RTVSPropertyOp19
 70
     1
102
RTVSPropertyOp20
 70
     1
102
RTVSPropertyOp21
 70
     1
102
RTVSPropertyOp22
 70
     1
102
RTVSPropertyOp23
 70
     1
102
RTVSPropertyOp24
 70
     1
102
RTVSPropertyOp25
 70
     1
102
RTVSPropertyOp26
 70
     1
102
RTVSPropertyOp27
 70
     1
102
RTVSPropertyOp28
 70
     1
102
RTVSPropertyOp29
 70
     1
102
RTVSPropertyOp30
 70
     1
102
RTVSPropertyOp31
 70
     1
102
RTVSPropertyOp32
 70
     1
102
RTVSPropertyOp33
 70
     1
102
RTVSPropertyOp34
 70
     1
102
RTVSPropertyOp35
 70
     1
102
RTVSPropertyOp36
 70
     1
102
RTVSPropertyOp37
 70
     1
102
RTVSPropertyOp38
 70
     1
102
RTVSPropertyOp39
 70
     1
102
RTVSPropertyOp40
 70
     1
102
RTVSPropertyOp41
 70
     1
102
RTVSPropertyOp42
 70
     1
102
RTVSPropertyOp43
 70
     1
102
RTVSPropertyOp44
 70
     1
102
RTVSPropertyOp45
 70
     1
102
RTVSPropertyOp46
 70
     1
102
RTVSPropertyOp47
 70
     1
102
RTVSPropertyOp48
 70
     1
102
RTVSPropertyOp49
 70
     1
102
RTVSPropertyOp50
 70
     1
102
RTVSPropertyOp51
 70
     0
102
RTVSPropertyOp52
 70
     0
102
RTVSPropertyOp53
 70
     1
102
RTVSPropertyOp54
 70
     1
102
RTVSPropertyOp55
 70
     1
102
RTVSPropertyOp56
 70
     1
102
RTVSPropertyOp57
 70
     1
102
RTVSPost2010Prop28
280
     0
102
RTVSPost2010PropOp28
 70
     1
102
RTVSPost2010Prop29
280
     1
102
RTVSPost2010PropOp29
 70
     1
102
RTVSPost2010Prop30
280
     1
102
RTVSPost2010PropOp30
 70
     1
102
RTVSPost2010Prop31
280
     0
102
RTVSPost2010PropOp31
 70
     1
102
RTVSPost2010Prop32
280
     0
102
RTVSPost2010PropOp32
 70
     1
102
RTVSPost2010Prop33
280
     0
102
RTVSPost2010PropOp33
 70
     1
102
RTVSPost2010Prop34
280
     0
102
RTVSPost2010PropOp34
 70
     1
102
RTVSPost2010Prop35
280
     0
102
RTVSPost2010PropOp35
 70
     1
102
RTVSPost2010Prop36
280
     0
102
RTVSPost2010PropOp36
 70
     1
102
RTVSPost2010Prop37
 90
       50
102
RTVSPost2010PropOp37
 70
     1
102
RTVSPost2010Prop38
140
0.0
102
RTVSPost2010PropOp38
 70
     1
102
RTVSPost2010Prop39
140
1.0
102
RTVSPost2010PropOp39
 70
     1
102
RTVSPost2010Prop40
 90
        0
102
RTVSPost2010PropOp40
 70
     1
102
RTVSPost2010Prop41ColorIndex
 90
       18
102
RTVSPost2010Prop41ColorRGB
 90
        0
102
RTVSPost2010PropOp41
 70
     1
102
RTVSPost2010Prop42
 90
       50
102
RTVSPost2010PropOp42
 70
     1
102
RTVSPost2010Prop43
 90
        3
102
RTVSPost2010PropOp43
 70
     1
102
RTVSPost2010Prop44ColorIndex
 90
        5
102
RTVSPost2010Prop44ColorRGB
 90
      255
102
RTVSPost2010PropOp44
 70
     1
102
RTVSPost2010Prop45
280
     0
102
RTVSPost2010PropOp45
 70
     1
102
RTVSPost2010Prop46
 90
       50
102
RTVSPost2010PropOp46
 70
     1
102
RTVSPost2010Prop47
 90
       50
102
RTVSPost2010PropOp47
 70
     1
102
RTVSPost2010Prop48
 90
       50
102
RTVSPost2010PropOp48
 70
     1
102
RTVSPost2010Prop49
280
     0
102
RTVSPost2010PropOp49
 70
     1
102
RTVSPost2010Prop50
 90
       50
102
RTVSPost2010PropOp50
 70
     1
102
RTVSPost2010Prop51ColorIndex
 90
      256
102
RTVSPost2010Prop51ColorRGB
 90
-16777216
102
RTVSPost2010PropOp51
 70
     0
102
RTVSPost2010Prop52
140
1.0
102
RTVSPost2010PropOp52
 70
     0
102
RTVSPost2010Prop53
 90
        2
102
RTVSPost2010PropOp53
 70
     1
102
RTVSPost2010Prop54
  1
strokes_ogs.tif
102
RTVSPost2010PropOp54
 70
     1
102
RTVSPost2010Prop55
280
     0
102
RTVSPost2010PropOp55
 70
     1
102
RTVSPost2010Prop56
140
1.0
102
RTVSPost2010PropOp56
 70
     1
102
RTVSPost2010Prop57
140
1.0
102
RTVSPost2010PropOp57
 70
     1
  0
XRECORD
  5
203
102
{ACAD_REACTORS
330
202
102
}
330
202
100
AcDbXrecord
280
     1
102
RTVSPropertyOp0
 70
     1
102
RTVSPropertyOp1
 70
     1
102
RTVSPropertyOp2
 70
     1
102
RTVSPropertyOp3
 70
     1
102
RTVSPropertyOp4
 70
     1
102
RTVSPropertyOp5
 70
     1
102
RTVSPropertyOp6
 70
     1
102
RTVSPropertyOp7
 70
     1
102
RTVSPropertyOp8
 70
     1
102
RTVSPropertyOp9
 70
     1
102
RTVSPropertyOp10
 70
     1
102
RTVSPropertyOp11
 70
     1
102
RTVSPropertyOp12
 70
     1
102
RTVSPropertyOp13
 70
     1
102
RTVSPropertyOp14
 70
     1
102
RTVSPropertyOp15
 70
     1
102
RTVSPropertyOp16
 70
     1
102
RTVSPropertyOp17
 70
     1
102
RTVSPropertyOp18
 70
     1
102
RTVSPropertyOp19
 70
     1
102
RTVSPropertyOp20
 70
     1
102
RTVSPropertyOp21
 70
     1
102
RTVSPropertyOp22
 70
     1
102
RTVSPropertyOp23
 70
     1
102
RTVSPropertyOp24
 70
     1
102
RTVSPropertyOp25
 70
     1
102
RTVSPropertyOp26
 70
     1
102
RTVSPropertyOp27
 70
     1
102
RTVSPropertyOp28
 70
     1
102
RTVSPropertyOp29
 70
     1
102
RTVSPropertyOp30
 70
     1
102
RTVSPropertyOp31
 70
     1
102
RTVSPropertyOp32
 70
     1
102
RTVSPropertyOp33
 70
     1
102
RTVSPropertyOp34
 70
     1
102
RTVSPropertyOp35
 70
     1
102
RTVSPropertyOp36
 70
     1
102
RTVSPropertyOp37
 70
     1
102
RTVSPropertyOp38
 70
     1
102
RTVSPropertyOp39
 70
     1
102
RTVSPropertyOp40
 70
     1
102
RTVSPropertyOp41
 70
     1
102
RTVSPropertyOp42
 70
     1
102
RTVSPropertyOp43
 70
     1
102
RTVSPropertyOp44
 70
     1
102
RTVSPropertyOp45
 70
     1
102
RTVSPropertyOp46
 70
     1
102
RTVSPropertyOp47
 70
     1
102
RTVSPropertyOp48
 70
     1
102
RTVSPropertyOp49
 70
     1
102
RTVSPropertyOp50
 70
     1
102
RTVSPropertyOp51
 70
     0
102
RTVSPropertyOp52
 70
     0
102
RTVSPropertyOp53
 70
     1
102
RTVSPropertyOp54
 70
     1
102
RTVSPropertyOp55
 70
     1
102
RTVSPropertyOp56
 70
     1
102
RTVSPropertyOp57
 70
     1
102
RTVSPost2010Prop28
280
     0
102
RTVSPost2010PropOp28
 70
     1
102
RTVSPost2010Prop29
280
     1
102
RTVSPost2010PropOp29
 70
     1
102
RTVSPost2010Prop30
280
     1
102
RTVSPost2010PropOp30
 70
     1
102
RTVSPost2010Prop31
280
     0
102
RTVSPost2010PropOp31
 70
     1
102
RTVSPost2010Prop32
280
     0
102
RTVSPost2010PropOp32
 70
     1
102
RTVSPost2010Prop33
280
     0
102
RTVSPost2010PropOp33
 70
     1
102
RTVSPost2010Prop34
280
     0
102
RTVSPost2010PropOp34
 70
     1
102
RTVSPost2010Prop35
280
     0
102
RTVSPost2010PropOp35
 70
     1
102
RTVSPost2010Prop36
280
     0
102
RTVSPost2010PropOp36
 70
     1
102
RTVSPost2010Prop37
 90
       50
102
RTVSPost2010PropOp37
 70
     1
102
RTVSPost2010Prop38
140
0.0
102
RTVSPost2010PropOp38
 70
     1
102
RTVSPost2010Prop39
140
1.0
102
RTVSPost2010PropOp39
 70
     1
102
RTVSPost2010Prop40
 90
        0
102
RTVSPost2010PropOp40
 70
     1
102
RTVSPost2010Prop41ColorIndex
 90
       18
102
RTVSPost2010Prop41ColorRGB
 90
        0
102
RTVSPost2010PropOp41
 70
     1
102
RTVSPost2010Prop42
 90
       50
102
RTVSPost2010PropOp42
 70
     1
102
RTVSPost2010Prop43
 90
        3
102
RTVSPost2010PropOp43
 70
     1
102
RTVSPost2010Prop44ColorIndex
 90
        5
102
RTVSPost2010Prop44ColorRGB
 90
      255
102
RTVSPost2010PropOp44
 70
     1
102
RTVSPost2010Prop45
280
     0
102
RTVSPost2010PropOp45
 70
     1
102
RTVSPost2010Prop46
 90
       50
102
RTVSPost2010PropOp46
 70
     1
102
RTVSPost2010Prop47
 90
       50
102
RTVSPost2010PropOp47
 70
     1
102
RTVSPost2010Prop48
 90
       50
102
RTVSPost2010PropOp48
 70
     1
102
RTVSPost2010Prop49
280
     0
102
RTVSPost2010PropOp49
 70
     1
102
RTVSPost2010Prop50
 90
       50
102
RTVSPost2010PropOp50
 70
     1
102
RTVSPost2010Prop51ColorIndex
 90
      256
102
RTVSPost2010Prop51ColorRGB
 90
-16777216
102
RTVSPost2010PropOp51
 70
     0
102
RTVSPost2010Prop52
140
1.0
102
RTVSPost2010PropOp52
 70
     0
102
RTVSPost2010Prop53
 90
        2
102
RTVSPost2010PropOp53
 70
     1
102
RTVSPost2010Prop54
  1
strokes_ogs.tif
102
RTVSPost2010PropOp54
 70
     1
102
RTVSPost2010Prop55
280
     0
102
RTVSPost2010PropOp55
 70
     1
102
RTVSPost2010Prop56
140
1.0
102
RTVSPost2010PropOp56
 70
     1
102
RTVSPost2010Prop57
140
1.0
102
RTVSPost2010PropOp57
 70
     1
  0
XRECORD
  5
223
102
{ACAD_REACTORS
330
222
102
}
330
222
100
AcDbXrecord
280
     1
102
RTVSPropertyOp0
 70
     1
102
RTVSPropertyOp1
 70
     1
102
RTVSPropertyOp2
 70
     1
102
RTVSPropertyOp3
 70
     1
102
RTVSPropertyOp4
 70
     1
102
RTVSPropertyOp5
 70
     1
102
RTVSPropertyOp6
 70
     1
102
RTVSPropertyOp7
 70
     1
102
RTVSPropertyOp8
 70
     1
102
RTVSPropertyOp9
 70
     1
102
RTVSPropertyOp10
 70
     1
102
RTVSPropertyOp11
 70
     1
102
RTVSPropertyOp12
 70
     1
102
RTVSPropertyOp13
 70
     1
102
RTVSPropertyOp14
 70
     1
102
RTVSPropertyOp15
 70
     1
102
RTVSPropertyOp16
 70
     1
102
RTVSPropertyOp17
 70
     1
102
RTVSPropertyOp18
 70
     1
102
RTVSPropertyOp19
 70
     1
102
RTVSPropertyOp20
 70
     1
102
RTVSPropertyOp21
 70
     1
102
RTVSPropertyOp22
 70
     1
102
RTVSPropertyOp23
 70
     1
102
RTVSPropertyOp24
 70
     1
102
RTVSPropertyOp25
 70
     1
102
RTVSPropertyOp26
 70
     1
102
RTVSPropertyOp27
 70
     1
102
RTVSPropertyOp28
 70
     1
102
RTVSPropertyOp29
 70
     1
102
RTVSPropertyOp30
 70
     1
102
RTVSPropertyOp31
 70
     1
102
RTVSPropertyOp32
 70
     1
102
RTVSPropertyOp33
 70
     1
102
RTVSPropertyOp34
 70
     1
102
RTVSPropertyOp35
 70
     1
102
RTVSPropertyOp36
 70
     1
102
RTVSPropertyOp37
 70
     1
102
RTVSPropertyOp38
 70
     1
102
RTVSPropertyOp39
 70
     1
102
RTVSPropertyOp40
 70
     1
102
RTVSPropertyOp41
 70
     1
102
RTVSPropertyOp42
 70
     1
102
RTVSPropertyOp43
 70
     1
102
RTVSPropertyOp44
 70
     1
102
RTVSPropertyOp45
 70
     1
102
RTVSPropertyOp46
 70
     1
102
RTVSPropertyOp47
 70
     1
102
RTVSPropertyOp48
 70
     1
102
RTVSPropertyOp49
 70
     1
102
RTVSPropertyOp50
 70
     1
102
RTVSPropertyOp51
 70
     0
102
RTVSPropertyOp52
 70
     0
102
RTVSPropertyOp53
 70
     1
102
RTVSPropertyOp54
 70
     1
102
RTVSPropertyOp55
 70
     1
102
RTVSPropertyOp56
 70
     1
102
RTVSPropertyOp57
 70
     1
102
RTVSPost2010Prop28
280
     0
102
RTVSPost2010PropOp28
 70
     1
102
RTVSPost2010Prop29
280
     1
102
RTVSPost2010PropOp29
 70
     1
102
RTVSPost2010Prop30
280
     1
102
RTVSPost2010PropOp30
 70
     1
102
RTVSPost2010Prop31
280
     0
102
RTVSPost2010PropOp31
 70
     1
102
RTVSPost2010Prop32
280
     0
102
RTVSPost2010PropOp32
 70
     1
102
RTVSPost2010Prop33
280
     0
102
RTVSPost2010PropOp33
 70
     1
102
RTVSPost2010Prop34
280
     0
102
RTVSPost2010PropOp34
 70
     1
102
RTVSPost2010Prop35
280
     0
102
RTVSPost2010PropOp35
 70
     1
102
RTVSPost2010Prop36
280
     0
102
RTVSPost2010PropOp36
 70
     1
102
RTVSPost2010Prop37
 90
       50
102
RTVSPost2010PropOp37
 70
     1
102
RTVSPost2010Prop38
140
0.0
102
RTVSPost2010PropOp38
 70
     1
102
RTVSPost2010Prop39
140
1.0
102
RTVSPost2010PropOp39
 70
     1
102
RTVSPost2010Prop40
 90
        0
102
RTVSPost2010PropOp40
 70
     1
102
RTVSPost2010Prop41ColorIndex
 90
       18
102
RTVSPost2010Prop41ColorRGB
 90
        0
102
RTVSPost2010PropOp41
 70
     1
102
RTVSPost2010Prop42
 90
       50
102
RTVSPost2010PropOp42
 70
     1
102
RTVSPost2010Prop43
 90
        3
102
RTVSPost2010PropOp43
 70
     1
102
RTVSPost2010Prop44ColorIndex
 90
        5
102
RTVSPost2010Prop44ColorRGB
 90
      255
102
RTVSPost2010PropOp44
 70
     1
102
RTVSPost2010Prop45
280
     0
102
RTVSPost2010PropOp45
 70
     1
102
RTVSPost2010Prop46
 90
       50
102
RTVSPost2010PropOp46
 70
     1
102
RTVSPost2010Prop47
 90
       50
102
RTVSPost2010PropOp47
 70
     1
102
RTVSPost2010Prop48
 90
       50
102
RTVSPost2010PropOp48
 70
     1
102
RTVSPost2010Prop49
280
     0
102
RTVSPost2010PropOp49
 70
     1
102
RTVSPost2010Prop50
 90
       50
102
RTVSPost2010PropOp50
 70
     1
102
RTVSPost2010Prop51ColorIndex
 90
      256
102
RTVSPost2010Prop51ColorRGB
 90
-16777216
102
RTVSPost2010PropOp51
 70
     0
102
RTVSPost2010Prop52
140
1.0
102
RTVSPost2010PropOp52
 70
     0
102
RTVSPost2010Prop53
 90
        2
102
RTVSPost2010PropOp53
 70
     1
102
RTVSPost2010Prop54
  1
strokes_ogs.tif
102
RTVSPost2010PropOp54
 70
     1
102
RTVSPost2010Prop55
280
     0
102
RTVSPost2010PropOp55
 70
     1
102
RTVSPost2010Prop56
140
1.0
102
RTVSPost2010PropOp56
 70
     1
102
RTVSPost2010Prop57
140
1.0
102
RTVSPost2010PropOp57
 70
     1
  0
ENDSEC
  0
EOF
