  0
SECTION
  2
HEADER
  9
$ACADVER
  1
AC1015
  9
$ACADMAINTVER
 70
     6
  9
$DWGCODEPAGE
  3
ANSI_1252
  9
$INSBASE
 10
0.0
 20
0.0
 30
0.0
  9
$EXTMIN
 10
-259.316437
 20
591.952454
 30
0.0
  9
$EXTMAX
 10
500.932739
 20
1788.180298
 30
0.0
  9
$LIMMIN
 10
-259.316437
 20
591.952454
  9
$LIMMAX
 10
500.932739
 20
1788.180298
  9
$ORTHOMODE
 70
     0
  9
$REGENMODE
 70
     1
  9
$FILLMODE
 70
     1
  9
$QTEXTMODE
 70
     0
  9
$MIRRTEXT
 70
     1
  9
$LTSCALE
 40
1.0
  9
$ATTMODE
 70
     1
  9
$TEXTSIZE
 40
2.5
  9
$TRACEWID
 40
1.0
  9
$TEXTSTYLE
  7
Standard
  9
$CLAYER
  8
0
  9
$CELTYPE
  6
ByLayer
  9
$CECOLOR
 62
   256
  9
$CELTSCALE
 40
1.0
  9
$DISPSILH
 70
     0
  9
$DIMSCALE
 40
1.0
  9
$DIMASZ
 40
2.5
  9
$DIMEXO
 40
0.625
  9
$DIMDLI
 40
3.75
  9
$DIMRND
 40
0.0
  9
$DIMDLE
 40
0.0
  9
$DIMEXE
 40
1.25
  9
$DIMTP
 40
0.0
  9
$DIMTM
 40
0.0
  9
$DIMTXT
 40
2.5
  9
$DIMCEN
 40
2.5
  9
$DIMTSZ
 40
0.0
  9
$DIMTOL
 70
     0
  9
$DIMLIM
 70
     0
  9
$DIMTIH
 70
     0
  9
$DIMTOH
 70
     0
  9
$DIMSE1
 70
     0
  9
$DIMSE2
 70
     0
  9
$DIMTAD
 70
     1
  9
$DIMZIN
 70
     8
  9
$DIMBLK
  1

  9
$DIMASO
 70
     1
  9
$DIMSHO
 70
     1
  9
$DIMPOST
  1

  9
$DIMAPOST
  1

  9
$DIMALT
 70
     0
  9
$DIMALTD
 70
     3
  9
$DIMALTF
 40
0.03937
  9
$DIMLFAC
 40
1.0
  9
$DIMTOFL
 70
     1
  9
$DIMTVP
 40
0.0
  9
$DIMTIX
 70
     0
  9
$DIMSOXD
 70
     0
  9
$DIMSAH
 70
     0
  9
$DIMBLK1
  1

  9
$DIMBLK2
  1

  9
$DIMSTYLE
  2
ISO-25
  9
$DIMCLRD
 70
     0
  9
$DIMCLRE
 70
     0
  9
$DIMCLRT
 70
     0
  9
$DIMTFAC
 40
1.0
  9
$DIMGAP
 40
0.625
  9
$DIMJUST
 70
     0
  9
$DIMSD1
 70
     0
  9
$DIMSD2
 70
     0
  9
$DIMTOLJ
 70
     0
  9
$DIMTZIN
 70
     8
  9
$DIMALTZ
 70
     0
  9
$DIMALTTZ
 70
     0
  9
$DIMUPT
 70
     0
  9
$DIMDEC
 70
     2
  9
$DIMTDEC
 70
     2
  9
$DIMALTU
 70
     2
  9
$DIMALTTD
 70
     3
  9
$DIMTXSTY
  7
Standard
  9
$DIMAUNIT
 70
     0
  9
$DIMADEC
 70
     0
  9
$DIMALTRND
 40
0.0
  9
$DIMAZIN
 70
     0
  9
$DIMDSEP
 70
    44
  9
$DIMATFIT
 70
     3
  9
$DIMFRAC
 70
     0
  9
$DIMLDRBLK
  1

  9
$DIMLUNIT
 70
     2
  9
$DIMLWD
 70
    -2
  9
$DIMLWE
 70
    -2
  9
$DIMTMOVE
 70
     0
  9
$LUNITS
 70
     2
  9
$LUPREC
 70
     4
  9
$SKETCHINC
 40
1.0
  9
$FILLETRAD
 40
10.0
  9
$AUNITS
 70
     0
  9
$AUPREC
 70
     0
  9
$MENU
  1
.
  9
$ELEVATION
 40
0.0
  9
$PELEVATION
 40
0.0
  9
$THICKNESS
 40
0.0
  9
$LIMCHECK
 70
     0
  9
$CHAMFERA
 40
0.0
  9
$CHAMFERB
 40
0.0
  9
$CHAMFERC
 40
0.0
  9
$CHAMFERD
 40
0.0
  9
$SKPOLY
 70
     0
  9
$TDCREATE
 40
2460448.693523935
  9
$TDUCREATE
 40
2460448.610190602
  9
$TDUPDATE
 40
2460448.69352441
  9
$TDUUPDATE
 40
2460448.610191077
  9
$TDINDWG
 40
0.0000000116
  9
$TDUSRTIMER
 40
0.0000000116
  9
$USRTIMER
 70
     1
  9
$ANGBASE
 50
0.0
  9
$ANGDIR
 70
     0
  9
$PDMODE
 70
     0
  9
$PDSIZE
 40
0.0
  9
$PLINEWID
 40
0.0
  9
$SPLFRAME
 70
     0
  9
$SPLINETYPE
 70
     6
  9
$SPLINESEGS
 70
     8
  9
$HANDSEED
  5
28B
  9
$SURFTAB1
 70
     6
  9
$SURFTAB2
 70
     6
  9
$SURFTYPE
 70
     6
  9
$SURFU
 70
     6
  9
$SURFV
 70
     6
  9
$UCSBASE
  2

  9
$UCSNAME
  2

  9
$UCSORG
 10
0.0
 20
0.0
 30
0.0
  9
$UCSXDIR
 10
1.0
 20
0.0
 30
0.0
  9
$UCSYDIR
 10
0.0
 20
1.0
 30
0.0
  9
$UCSORTHOREF
  2

  9
$UCSORTHOVIEW
 70
     0
  9
$UCSORGTOP
 10
0.0
 20
0.0
 30
0.0
  9
$UCSORGBOTTOM
 10
0.0
 20
0.0
 30
0.0
  9
$UCSORGLEFT
 10
0.0
 20
0.0
 30
0.0
  9
$UCSORGRIGHT
 10
0.0
 20
0.0
 30
0.0
  9
$UCSORGFRONT
 10
0.0
 20
0.0
 30
0.0
  9
$UCSORGBACK
 10
0.0
 20
0.0
 30
0.0
  9
$PUCSBASE
  2

  9
$PUCSNAME
  2

  9
$PUCSORG
 10
0.0
 20
0.0
 30
0.0
  9
$PUCSXDIR
 10
1.0
 20
0.0
 30
0.0
  9
$PUCSYDIR
 10
0.0
 20
1.0
 30
0.0
  9
$PUCSORTHOREF
  2

  9
$PUCSORTHOVIEW
 70
     0
  9
$PUCSORGTOP
 10
0.0
 20
0.0
 30
0.0
  9
$PUCSORGBOTTOM
 10
0.0
 20
0.0
 30
0.0
  9
$PUCSORGLEFT
 10
0.0
 20
0.0
 30
0.0
  9
$PUCSORGRIGHT
 10
0.0
 20
0.0
 30
0.0
  9
$PUCSORGFRONT
 10
0.0
 20
0.0
 30
0.0
  9
$PUCSORGBACK
 10
0.0
 20
0.0
 30
0.0
  9
$USERI1
 70
     0
  9
$USERI2
 70
     0
  9
$USERI3
 70
     0
  9
$USERI4
 70
     0
  9
$USERI5
 70
     0
  9
$USERR1
 40
0.0
  9
$USERR2
 40
0.0
  9
$USERR3
 40
0.0
  9
$USERR4
 40
0.0
  9
$USERR5
 40
0.0
  9
$WORLDVIEW
 70
     1
  9
$SHADEDGE
 70
     3
  9
$SHADEDIF
 70
    70
  9
$TILEMODE
 70
     1
  9
$MAXACTVP
 70
    64
  9
$PINSBASE
 10
0.0
 20
0.0
 30
0.0
  9
$PLIMCHECK
 70
     0
  9
$PEXTMIN
 10
1.000000E+20
 20
1.000000E+20
 30
1.000000E+20
  9
$PEXTMAX
 10
-1.000000E+20
 20
-1.000000E+20
 30
-1.000000E+20
  9
$PLIMMIN
 10
0.0
 20
0.0
  9
$PLIMMAX
 10
420.0
 20
297.0
  9
$UNITMODE
 70
     0
  9
$VISRETAIN
 70
     1
  9
$PLINEGEN
 70
     0
  9
$PSLTSCALE
 70
     1
  9
$TREEDEPTH
 70
  3020
  9
$CMLSTYLE
  2
Standard
  9
$CMLJUST
 70
     0
  9
$CMLSCALE
 40
20.0
  9
$PROXYGRAPHICS
 70
     1
  9
$MEASUREMENT
 70
     1
  9
$CELWEIGHT
370
    -1
  9
$ENDCAPS
280
     0
  9
$JOINSTYLE
280
     0
  9
$LWDISPLAY
290
     0
  9
$INSUNITS
 70
     4
  9
$HYPERLINKBASE
  1

  9
$STYLESHEET
  1

  9
$XEDIT
290
     1
  9
$CEPSNTYPE
380
     0
  9
$PSTYLEMODE
290
     1
  9
$FINGERPRINTGUID
  2
{7626da6f-775b-4f4e-8c07-4d679389ef4f}
  9
$VERSIONGUID
  2
{FAEB1C32-E019-11D5-929B-00C0DF256EC4}
  9
$EXTNAMES
290
     1
  9
$PSVPSCALE
 40
0.0
  9
$OLESTARTUP
290
     0
  0
ENDSEC
  0
SECTION
  2
CLASSES
  0
CLASS
  1
ACDBDICTIONARYWDFLT
  2
AcDbDictionaryWithDefault
  3
ObjectDBX Classes
 90
        0
280
     0
281
     0
  0
CLASS
  1
VISUALSTYLE
  2
AcDbVisualStyle
  3
ObjectDBX Classes
 90
     4095
280
     0
281
     0
  0
CLASS
  1
MATERIAL
  2
AcDbMaterial
  3
ObjectDBX Classes
 90
     1153
280
     0
281
     0
  0
CLASS
  1
SCALE
  2
AcDbScale
  3
ObjectDBX Classes
 90
     1153
280
     0
281
     0
  0
CLASS
  1
TABLESTYLE
  2
AcDbTableStyle
  3
ObjectDBX Classes
 90
     4095
280
     0
281
     0
  0
CLASS
  1
MLEADERSTYLE
  2
AcDbMLeaderStyle
  3
ACDB_MLEADERSTYLE_CLASS
 90
     4095
280
     0
281
     0
  0
CLASS
  1
SUN
  2
AcDbSun
  3
SCENEOE
 90
     1153
280
     0
281
     0
  0
CLASS
  1
DICTIONARYVAR
  2
AcDbDictionaryVar
  3
ObjectDBX Classes
 90
        0
280
     0
281
     0
  0
CLASS
  1
ACDBPLACEHOLDER
  2
AcDbPlaceHolder
  3
ObjectDBX Classes
 90
        0
280
     0
281
     0
  0
CLASS
  1
LAYOUT
  2
AcDbLayout
  3
ObjectDBX Classes
 90
        0
280
     0
281
     0
  0
ENDSEC
  0
SECTION
  2
TABLES
  0
TABLE
  2
VPORT
  5
8
102
{ACAD_XDICTIONARY
360
24E
102
}
330
0
100
AcDbSymbolTable
 70
     1
  0
VPORT
  5
29
330
8
100
AcDbSymbolTableRecord
100
AcDbViewportTableRecord
  2
*Active
 70
     0
 10
0.0
 20
0.0
 11
1.0
 21
1.0
 12
344.186916
 22
148.5
 13
0.0
 23
0.0
 14
10.0
 24
10.0
 15
10.0
 25
10.0
 16
0.0
 26
0.0
 36
1.0
 17
0.0
 27
0.0
 37
0.0
 40
297.0
 41
1.972973
 42
50.0
 43
0.0
 44
0.0
 50
0.0
 51
0.0
 71
     0
 72
   100
 73
     1
 74
     3
 75
     0
 76
     0
 77
     0
 78
     0
281
     0
 65
     1
110
0.0
120
0.0
130
0.0
111
1.0
121
0.0
131
0.0
112
0.0
122
1.0
132
0.0
 79
     0
146
0.0
  0
ENDTAB
  0
TABLE
  2
LTYPE
  5
5
330
0
100
AcDbSymbolTable
 70
     1
  0
LTYPE
  5
14
330
5
100
AcDbSymbolTableRecord
100
AcDbLinetypeTableRecord
  2
ByBlock
 70
     0
  3

 72
    65
 73
     0
 40
0.0
  0
LTYPE
  5
15
330
5
100
AcDbSymbolTableRecord
100
AcDbLinetypeTableRecord
  2
ByLayer
 70
     0
  3

 72
    65
 73
     0
 40
0.0
  0
LTYPE
  5
16
330
5
100
AcDbSymbolTableRecord
100
AcDbLinetypeTableRecord
  2
Continuous
 70
     0
  3
Solid line
 72
    65
 73
     0
 40
0.0
  0
ENDTAB
  0
TABLE
  2
LAYER
  5
2
330
0
100
AcDbSymbolTable
 70
     1
  0
LAYER
  5
10
330
2
100
AcDbSymbolTableRecord
100
AcDbLayerTableRecord
  2
0
 70
     0
 62
   106
  6
Continuous
370
     0
390
F
  0
ENDTAB
  0
TABLE
  2
STYLE
  5
3
330
0
100
AcDbSymbolTable
 70
     4
  0
STYLE
  5
11
330
3
100
AcDbSymbolTableRecord
100
AcDbTextStyleTableRecord
  2
Standard
 70
     0
 40
0.0
 41
1.0
 50
0.0
 71
     0
 42
2.5
  3
txt
  4

  0
STYLE
  5
6E
330
3
100
AcDbSymbolTableRecord
100
AcDbTextStyleTableRecord
  2
Default
 70
     0
 40
0.0
 41
1.0
 50
0.0
 71
     0
 42
2.5
  3

  4

1001
ACAD
1000
txt
1071
        0
  0
STYLE
  5
6F
330
3
100
AcDbSymbolTableRecord
100
AcDbTextStyleTableRecord
  2
ISO
 70
     0
 40
0.0
 41
1.0
 50
0.0
 71
     0
 42
2.5
  3

  4

1001
ACAD
1000
txt
1071
        0
  0
STYLE
  5
70
330
3
100
AcDbSymbolTableRecord
100
AcDbTextStyleTableRecord
  2
zucchetti
 70
     0
 40
0.0
 41
1.0
 50
0.0
 71
     0
 42
2.5
  3

  4

1001
ACAD
1000
Arial
1071
        0
  0
ENDTAB
  0
TABLE
  2
VIEW
  5
6
330
0
100
AcDbSymbolTable
 70
     0
  0
ENDTAB
  0
TABLE
  2
UCS
  5
7
330
0
100
AcDbSymbolTable
 70
     0
  0
ENDTAB
  0
TABLE
  2
APPID
  5
9
330
0
100
AcDbSymbolTable
 70
     2
  0
APPID
  5
12
330
9
100
AcDbSymbolTableRecord
100
AcDbRegAppTableRecord
  2
ACAD
 70
     0
  0
APPID
  5
288
330
9
100
AcDbSymbolTableRecord
100
AcDbRegAppTableRecord
  2
ACAD_MLEADERVER
 70
     0
  0
ENDTAB
  0
TABLE
  2
DIMSTYLE
  5
A
330
0
100
AcDbSymbolTable
 70
     4
100
AcDbDimStyleTable
  0
DIMSTYLE
105
27
330
A
100
AcDbSymbolTableRecord
100
AcDbDimStyleTableRecord
  2
ISO-25
 70
     0
 41
2.5
 42
0.625
 43
3.75
 44
1.25
 73
     0
 74
     0
 77
     1
 78
     8
140
2.5
141
2.5
143
0.03937
147
0.625
171
     3
172
     1
178
     0
271
     2
272
     2
274
     3
278
    44
283
     0
284
     8
340
11
  0
DIMSTYLE
105
71
330
A
100
AcDbSymbolTableRecord
100
AcDbDimStyleTableRecord
  2
Default
 70
     0
  3
<>
 41
4.375
 42
1.05
 44
2.1
 73
     0
 74
     0
 77
     1
 78
     8
140
3.5
146
0.4
147
1.75
172
     1
271
     2
178
     3
271
     2
272
     3
284
     8
340
6E
341
72
342
72
  0
DIMSTYLE
105
79
330
A
100
AcDbSymbolTableRecord
100
AcDbDimStyleTableRecord
  2
ISO
 70
     0
  3
<>
 41
4.375
 42
1.05
 44
2.1
 73
     0
 74
     0
 77
     1
 78
     8
140
3.5
146
0.4
147
1.75
172
     1
271
     2
178
     3
271
     2
272
     3
284
     8
340
6F
341
72
342
72
  0
DIMSTYLE
105
7A
330
A
100
AcDbSymbolTableRecord
100
AcDbDimStyleTableRecord
  2
zucchetti
 70
     0
  3
<>
 41
3.0
 42
0.9
 44
1.8
 73
     0
 74
     0
 77
     1
 78
     8
140
3.0
146
0.6
147
1.5
172
     1
176
     3
177
     3
271
     2
178
     3
271
     2
272
     2
284
     8
340
70
  0
ENDTAB
  0
TABLE
  2
BLOCK_RECORD
  5
1
330
0
100
AcDbSymbolTable
 70
     6
  0
BLOCK_RECORD
  5
1F
330
1
100
AcDbSymbolTableRecord
100
AcDbBlockTableRecord
  2
*Model_Space
340
22
  0
BLOCK_RECORD
  5
1B
330
1
100
AcDbSymbolTableRecord
100
AcDbBlockTableRecord
  2
*Paper_Space
340
1E
  0
BLOCK_RECORD
  5
23
330
1
100
AcDbSymbolTableRecord
100
AcDbBlockTableRecord
  2
*Paper_Space0
340
26
  0
BLOCK_RECORD
  5
72
330
1
100
AcDbSymbolTableRecord
100
AcDbBlockTableRecord
  2
_Closed
340
0
  0
BLOCK_RECORD
  5
7B
330
1
100
AcDbSymbolTableRecord
100
AcDbBlockTableRecord
  2
a
340
0
102
{BLKREFS
331
EF
102
}
  0
BLOCK_RECORD
  5
F0
330
1
100
AcDbSymbolTableRecord
100
AcDbBlockTableRecord
  2
b
340
0
102
{BLKREFS
331
156
102
}
  0
BLOCK_RECORD
  5
157
330
1
100
AcDbSymbolTableRecord
100
AcDbBlockTableRecord
  2
c
340
0
102
{BLKREFS
331
1D6
102
}
  0
BLOCK_RECORD
  5
1D7
330
1
100
AcDbSymbolTableRecord
100
AcDbBlockTableRecord
  2
d
340
0
102
{BLKREFS
331
242
102
}
  0
ENDTAB
  0
ENDSEC
  0
SECTION
  2
BLOCKS
  0
BLOCK
  5
20
330
1F
100
AcDbEntity
  8
0
100
AcDbBlockBegin
  2
*Model_Space
 70
     0
 10
0.0
 20
0.0
 30
0.0
  3
*Model_Space
  1

  0
ENDBLK
  5
21
330
1F
100
AcDbEntity
  8
0
100
AcDbBlockEnd
  0
BLOCK
  5
1C
330
1B
100
AcDbEntity
 67
     1
  8
0
100
AcDbBlockBegin
  2
*Paper_Space
 70
     0
 10
0.0
 20
0.0
 30
0.0
  3
*Paper_Space
  1

  0
ENDBLK
  5
1D
330
1B
100
AcDbEntity
 67
     1
  8
0
100
AcDbBlockEnd
  0
BLOCK
  5
24
330
23
100
AcDbEntity
  8
0
100
AcDbBlockBegin
  2
*Paper_Space0
 70
     0
 10
0.0
 20
0.0
 30
0.0
  3
*Paper_Space0
  1

  0
ENDBLK
  5
25
330
23
100
AcDbEntity
  8
0
100
AcDbBlockEnd
  0
BLOCK
  5
73
330
72
100
AcDbEntity
  8
0
100
AcDbBlockBegin
  2
_Closed
 70
     0
 10
0.0
 20
0.0
 30
0.0
  3
_Closed
  1

  0
LINE
  5
75
330
72
100
AcDbEntity
  8
0
  6
ByBlock
 62
     0
370
    -2
100
AcDbLine
 10
-1.0
 20
0.166667
 30
0.0
 11
0.0
 21
0.0
 31
0.0
  0
LINE
  5
76
330
72
100
AcDbEntity
  8
0
  6
ByBlock
 62
     0
370
    -2
100
AcDbLine
 10
0.0
 20
0.0
 30
0.0
 11
-1.0
 21
-0.166667
 31
0.0
  0
LINE
  5
77
330
72
100
AcDbEntity
  8
0
  6
ByBlock
 62
     0
370
    -2
100
AcDbLine
 10
-1.0
 20
0.166667
 30
0.0
 11
-1.0
 21
-0.166667
 31
0.0
  0
LINE
  5
78
330
72
100
AcDbEntity
  8
0
  6
ByBlock
 62
     0
370
    -2
100
AcDbLine
 10
0.0
 20
0.0
 30
0.0
 11
-1.0
 21
0.0
 31
0.0
  0
ENDBLK
  5
74
330
72
100
AcDbEntity
  8
0
100
AcDbBlockEnd
  0
BLOCK
  5
ED
330
7B
100
AcDbEntity
  8
0
100
AcDbBlockBegin
  2
a
 70
     0
 10
37.8563
 20
141.461548
 30
0.0
  3
a
  1

  0
LINE
  5
7C
330
7B
100
AcDbEntity
  8
0
  6
Continuous
 62
     0
370
    30
100
AcDbLine
 10
83.560802
 20
1760.180283
 30
0.0
 11
95.065954
 21
1760.180283
 31
0.0
  0
LINE
  5
7D
330
7B
100
AcDbEntity
  8
0
  6
Continuous
 62
     0
370
    30
100
AcDbLine
 10
95.065954
 20
1760.180283
 30
0.0
 11
106.571106
 21
1760.180283
 31
0.0
  0
ARC
  5
7E
330
7B
100
AcDbEntity
  8
0
  6
Continuous
 62
     0
370
    30
100
AcDbCircle
 10
95.065954
 20
1776.180283
 30
0.0
 40
11.99999999995186
100
AcDbArc
 50
90.0
 51
270.0
  0
ARC
  5
7F
330
7B
100
AcDbEntity
  8
0
  6
Continuous
 62
     0
370
    30
100
AcDbCircle
 10
95.065954
 20
1776.180283
 30
0.0
 40
11.99999999995186
100
AcDbArc
 50
270.0
 51
90.0
  0
ARC
  5
80
330
7B
100
AcDbEntity
  8
0
  6
Continuous
 62
     0
370
    30
100
AcDbCircle
 10
95.065954
 20
1776.180283
 30
0.0
 40
10.7
100
AcDbArc
 50
180.0
 51
360.0
  0
ARC
  5
81
330
7B
100
AcDbEntity
  8
0
  6
Continuous
 62
     0
370
    30
100
AcDbCircle
 10
95.065954
 20
1776.180283
 30
0.0
 40
10.7
100
AcDbArc
 50
0.0
 51
180.0
  0
ARC
  5
82
330
7B
100
AcDbEntity
  8
0
  6
Continuous
 62
     0
370
    30
100
AcDbCircle
 10
95.065954
 20
1776.180283
 30
0.0
 40
10.5
100
AcDbArc
 50
0.0
 51
180.0
  0
ARC
  5
83
330
7B
100
AcDbEntity
  8
0
  6
Continuous
 62
     0
370
    30
100
AcDbCircle
 10
95.065954
 20
1776.180283
 30
0.0
 40
10.5
100
AcDbArc
 50
180.0
 51
0.0
  0
LINE
  5
84
330
7B
100
AcDbEntity
  8
0
  6
Continuous
 62
     0
370
    30
100
AcDbLine
 10
89.815954
 20
1777.180283
 30
0.0
 11
89.815954
 21
1775.180283
 31
0.0
  0
LINE
  5
85
330
7B
100
AcDbEntity
  8
0
  6
Continuous
 62
     0
370
    30
100
AcDbLine
 10
100.315954
 20
1777.180283
 30
0.0
 11
89.815954
 21
1777.180283
 31
0.0
  0
LINE
  5
86
330
7B
100
AcDbEntity
  8
0
  6
Continuous
 62
     0
370
    30
100
AcDbLine
 10
100.315954
 20
1775.180283
 30
0.0
 11
100.315954
 21
1777.180283
 31
0.0
  0
LINE
  5
87
330
7B
100
AcDbEntity
  8
0
  6
Continuous
 62
     0
370
    30
100
AcDbLine
 10
89.815954
 20
1775.180283
 30
0.0
 11
100.315954
 21
1775.180283
 31
0.0
  0
ARC
  5
88
330
7B
100
AcDbEntity
  8
0
  6
Continuous
 62
     0
370
    30
100
AcDbCircle
 10
95.065954
 20
1783.680283
 30
0.0
 40
0.5
100
AcDbArc
 50
147.908178
 51
327.908178
  0
ARC
  5
89
330
7B
100
AcDbEntity
  8
0
  6
Continuous
 62
     0
370
    30
100
AcDbCircle
 10
95.065954
 20
1783.680283
 30
0.0
 40
0.5
100
AcDbArc
 50
327.908178
 51
147.908178
  0
ARC
  5
8A
330
7B
100
AcDbEntity
  8
0
  6
Continuous
 62
     0
370
    30
100
AcDbCircle
 10
90.657564
 20
1782.24791
 30
0.0
 40
0.5
100
AcDbArc
 50
183.908178
 51
3.908178
  0
ARC
  5
8B
330
7B
100
AcDbEntity
  8
0
  6
Continuous
 62
     0
370
    30
100
AcDbCircle
 10
90.657564
 20
1782.24791
 30
0.0
 40
0.5
100
AcDbArc
 50
3.908178
 51
183.908178
  0
ARC
  5
8C
330
7B
100
AcDbEntity
  8
0
  6
Continuous
 62
     0
370
    30
100
AcDbCircle
 10
87.93303
 20
1778.49791
 30
0.0
 40
0.5
100
AcDbArc
 50
219.908178
 51
39.908178
  0
ARC
  5
8D
330
7B
100
AcDbEntity
  8
0
  6
Continuous
 62
     0
370
    30
100
AcDbCircle
 10
87.93303
 20
1778.49791
 30
0.0
 40
0.5
100
AcDbArc
 50
39.908178
 51
219.908178
  0
ARC
  5
8E
330
7B
100
AcDbEntity
  8
0
  6
Continuous
 62
     0
370
    30
100
AcDbCircle
 10
87.93303
 20
1773.862655
 30
0.0
 40
0.5
100
AcDbArc
 50
255.908178
 51
75.908178
  0
ARC
  5
8F
330
7B
100
AcDbEntity
  8
0
  6
Continuous
 62
     0
370
    30
100
AcDbCircle
 10
87.93303
 20
1773.862655
 30
0.0
 40
0.5
100
AcDbArc
 50
75.908178
 51
255.908178
  0
ARC
  5
90
330
7B
100
AcDbEntity
  8
0
  6
Continuous
 62
     0
370
    30
100
AcDbCircle
 10
90.657564
 20
1770.112655
 30
0.0
 40
0.5
100
AcDbArc
 50
291.908178
 51
111.908178
  0
ARC
  5
91
330
7B
100
AcDbEntity
  8
0
  6
Continuous
 62
     0
370
    30
100
AcDbCircle
 10
90.657564
 20
1770.112655
 30
0.0
 40
0.5
100
AcDbArc
 50
111.908178
 51
291.908178
  0
ARC
  5
92
330
7B
100
AcDbEntity
  8
0
  6
Continuous
 62
     0
370
    30
100
AcDbCircle
 10
95.065954
 20
1768.680283
 30
0.0
 40
0.5
100
AcDbArc
 50
327.908178
 51
147.908178
  0
ARC
  5
93
330
7B
100
AcDbEntity
  8
0
  6
Continuous
 62
     0
370
    30
100
AcDbCircle
 10
95.065954
 20
1768.680283
 30
0.0
 40
0.5
100
AcDbArc
 50
147.908178
 51
327.908178
  0
ARC
  5
94
330
7B
100
AcDbEntity
  8
0
  6
Continuous
 62
     0
370
    30
100
AcDbCircle
 10
99.474343
 20
1770.112655
 30
0.0
 40
0.5
100
AcDbArc
 50
3.908178
 51
183.908178
  0
ARC
  5
95
330
7B
100
AcDbEntity
  8
0
  6
Continuous
 62
     0
370
    30
100
AcDbCircle
 10
99.474343
 20
1770.112655
 30
0.0
 40
0.5
100
AcDbArc
 50
183.908178
 51
3.908178
  0
ARC
  5
96
330
7B
100
AcDbEntity
  8
0
  6
Continuous
 62
     0
370
    30
100
AcDbCircle
 10
102.198878
 20
1773.862655
 30
0.0
 40
0.5
100
AcDbArc
 50
39.908178
 51
219.908178
  0
ARC
  5
97
330
7B
100
AcDbEntity
  8
0
  6
Continuous
 62
     0
370
    30
100
AcDbCircle
 10
102.198878
 20
1773.862655
 30
0.0
 40
0.5
100
AcDbArc
 50
219.908178
 51
39.908178
  0
ARC
  5
98
330
7B
100
AcDbEntity
  8
0
  6
Continuous
 62
     0
370
    30
100
AcDbCircle
 10
102.198878
 20
1778.49791
 30
0.0
 40
0.5
100
AcDbArc
 50
75.908178
 51
255.908178
  0
ARC
  5
99
330
7B
100
AcDbEntity
  8
0
  6
Continuous
 62
     0
370
    30
100
AcDbCircle
 10
102.198878
 20
1778.49791
 30
0.0
 40
0.5
100
AcDbArc
 50
255.908178
 51
75.908178
  0
ARC
  5
9A
330
7B
100
AcDbEntity
  8
0
  6
Continuous
 62
     0
370
    30
100
AcDbCircle
 10
99.474343
 20
1782.24791
 30
0.0
 40
0.5
100
AcDbArc
 50
111.908178
 51
291.908178
  0
ARC
  5
9B
330
7B
100
AcDbEntity
  8
0
  6
Continuous
 62
     0
370
    30
100
AcDbCircle
 10
99.474343
 20
1782.24791
 30
0.0
 40
0.5
100
AcDbArc
 50
291.908178
 51
111.908178
  0
ARC
  5
9C
330
7B
100
AcDbEntity
  8
0
  6
Continuous
 62
     0
370
    30
100
AcDbCircle
 10
91.565954
 20
1779.680283
 30
0.0
 40
0.5
100
AcDbArc
 50
180.0
 51
360.0
  0
ARC
  5
9D
330
7B
100
AcDbEntity
  8
0
  6
Continuous
 62
     0
370
    30
100
AcDbCircle
 10
91.565954
 20
1779.680283
 30
0.0
 40
0.5
100
AcDbArc
 50
0.0
 51
180.0
  0
ARC
  5
9E
330
7B
100
AcDbEntity
  8
0
  6
Continuous
 62
     0
370
    30
100
AcDbCircle
 10
98.565954
 20
1779.680283
 30
0.0
 40
0.5
100
AcDbArc
 50
180.0
 51
360.0
  0
ARC
  5
9F
330
7B
100
AcDbEntity
  8
0
  6
Continuous
 62
     0
370
    30
100
AcDbCircle
 10
98.565954
 20
1779.680283
 30
0.0
 40
0.5
100
AcDbArc
 50
0.0
 51
180.0
  0
ARC
  5
A0
330
7B
100
AcDbEntity
  8
0
  6
Continuous
 62
     0
370
    30
100
AcDbCircle
 10
91.565954
 20
1772.680283
 30
0.0
 40
0.5
100
AcDbArc
 50
180.0
 51
360.0
  0
ARC
  5
A1
330
7B
100
AcDbEntity
  8
0
  6
Continuous
 62
     0
370
    30
100
AcDbCircle
 10
91.565954
 20
1772.680283
 30
0.0
 40
0.5
100
AcDbArc
 50
0.0
 51
180.0
  0
ARC
  5
A2
330
7B
100
AcDbEntity
  8
0
  6
Continuous
 62
     0
370
    30
100
AcDbCircle
 10
98.565954
 20
1772.680283
 30
0.0
 40
0.5
100
AcDbArc
 50
180.0
 51
360.0
  0
ARC
  5
A3
330
7B
100
AcDbEntity
  8
0
  6
Continuous
 62
     0
370
    30
100
AcDbCircle
 10
98.565954
 20
1772.680283
 30
0.0
 40
0.5
100
AcDbArc
 50
0.0
 51
180.0
  0
LINE
  5
A4
330
7B
100
AcDbEntity
  8
0
  6
Continuous
 62
     0
370
    30
100
AcDbLine
 10
95.065954
 20
1673.180283
 30
0.0
 11
83.565954
 21
1673.180283
 31
0.0
  0
LINE
  5
A5
330
7B
100
AcDbEntity
  8
0
  6
Continuous
 62
     0
370
    30
100
AcDbLine
 10
106.565954
 20
1673.180283
 30
0.0
 11
95.065954
 21
1673.180283
 31
0.0
  0
LINE
  5
A6
330
7B
100
AcDbEntity
  8
0
  6
Continuous
 62
     0
370
    30
100
AcDbLine
 10
106.565954
 20
1666.180283
 30
0.0
 11
99.095546
 21
1666.180283
 31
0.0
  0
LINE
  5
A7
330
7B
100
AcDbEntity
  8
0
  6
Continuous
 62
     0
370
    30
100
AcDbLine
 10
106.571106
 20
1760.180283
 30
0.0
 11
106.571106
 21
1772.769494
 31
0.0
  0
LINE
  5
A8
330
7B
100
AcDbEntity
  8
0
  6
Continuous
 62
     0
370
    30
100
AcDbLine
 10
83.560802
 20
1760.180283
 30
0.0
 11
83.560802
 21
1772.769494
 31
0.0
  0
LINE
  5
A9
330
7B
100
AcDbEntity
  8
0
  6
Continuous
 62
     0
370
    30
100
AcDbLine
 10
83.565954
 20
1673.180283
 30
0.0
 11
83.565954
 21
1666.180283
 31
0.0
  0
LINE
  5
AA
330
7B
100
AcDbEntity
  8
0
  6
Continuous
 62
     0
370
    30
100
AcDbLine
 10
106.565954
 20
1673.180283
 30
0.0
 11
106.565954
 21
1666.180283
 31
0.0
  0
LINE
  5
AB
330
7B
100
AcDbEntity
  8
0
  6
Continuous
 62
     0
370
    30
100
AcDbLine
 10
105.065959
 20
1673.180283
 30
0.0
 11
105.065959
 21
1760.180283
 31
0.0
  0
LINE
  5
AC
330
7B
100
AcDbEntity
  8
0
  6
Continuous
 62
     0
370
    30
100
AcDbLine
 10
85.065949
 20
1673.180283
 30
0.0
 11
85.065949
 21
1760.180283
 31
0.0
  0
ARC
  5
AD
330
7B
100
AcDbEntity
  8
0
  6
Continuous
 62
     0
370
    30
100
AcDbCircle
 10
96.865954
 20
1650.841478
 30
0.0
 40
30.00000018737844
100
AcDbArc
 50
113.162078
 51
248.271466
  0
ARC
  5
AE
330
7B
100
AcDbEntity
  8
0
  6
Continuous
 62
     0
370
    30
100
AcDbCircle
 10
96.865954
 20
1650.841478
 30
0.0
 40
30.00000018737844
100
AcDbArc
 50
291.728534
 51
74.137274
  0
ARC
  5
AF
330
7B
100
AcDbEntity
  8
0
  6
Continuous
 62
     0
370
     0
100
AcDbCircle
 10
96.865954
 20
1650.841478
 30
0.0
 40
29.50000018737844
100
AcDbArc
 50
113.578188
 51
247.845925
  0
ARC
  5
B0
330
7B
100
AcDbEntity
  8
0
  6
Continuous
 62
     0
370
     0
100
AcDbCircle
 10
96.865954
 20
1650.841478
 30
0.0
 40
29.50000018737844
100
AcDbArc
 50
292.154075
 51
73.861138
  0
ARC
  5
B1
330
7B
100
AcDbEntity
  8
0
  6
Continuous
 62
     0
370
    30
100
AcDbCircle
 10
176.865959
 20
1650.841492
 30
0.0
 40
30.0
100
AcDbArc
 50
206.239503
 51
259.436026
  0
ARC
  5
B2
330
7B
100
AcDbEntity
  8
0
  6
Continuous
 62
     0
370
    30
100
AcDbCircle
 10
176.865959
 20
1650.841492
 30
0.0
 40
30.0
100
AcDbArc
 50
280.563981
 51
26.239503
  0
ARC
  5
B3
330
7B
100
AcDbEntity
  8
0
  6
Continuous
 62
     0
370
    30
100
AcDbCircle
 10
176.865959
 20
1650.841492
 30
0.0
 40
30.0
100
AcDbArc
 50
26.239503
 51
206.239503
  0
ARC
  5
B4
330
7B
100
AcDbEntity
  8
0
  6
Continuous
 62
     0
370
     0
100
AcDbCircle
 10
176.865959
 20
1650.841492
 30
0.0
 40
29.5
100
AcDbArc
 50
26.239503
 51
206.239503
  0
ARC
  5
B5
330
7B
100
AcDbEntity
  8
0
  6
Continuous
 62
     0
370
     0
100
AcDbCircle
 10
176.865959
 20
1650.841492
 30
0.0
 40
29.5
100
AcDbArc
 50
206.239503
 51
259.254865
  0
ARC
  5
B6
330
7B
100
AcDbEntity
  8
0
  6
Continuous
 62
     0
370
     0
100
AcDbCircle
 10
176.865959
 20
1650.841492
 30
0.0
 40
29.5
100
AcDbArc
 50
280.745142
 51
26.239503
  0
ARC
  5
B7
330
7B
100
AcDbEntity
  8
0
  6
Continuous
 62
     0
370
    30
100
AcDbCircle
 10
176.865959
 20
1650.841492
 30
0.0
 40
22.5
100
AcDbArc
 50
206.239503
 51
249.457216
  0
ARC
  5
B8
330
7B
100
AcDbEntity
  8
0
  6
Continuous
 62
     0
370
    30
100
AcDbCircle
 10
176.865959
 20
1650.841492
 30
0.0
 40
22.5
100
AcDbArc
 50
290.542798
 51
26.239503
  0
ARC
  5
B9
330
7B
100
AcDbEntity
  8
0
  6
Continuous
 62
     0
370
    30
100
AcDbCircle
 10
176.865959
 20
1650.841492
 30
0.0
 40
22.5
100
AcDbArc
 50
26.239503
 51
206.239503
  0
ARC
  5
BA
330
7B
100
AcDbEntity
  8
0
  6
Continuous
 62
     0
370
    30
100
AcDbCircle
 10
96.865954
 20
1650.841478
 30
0.0
 40
15.5
100
AcDbArc
 50
180.0
 51
360.0
  0
ARC
  5
BB
330
7B
100
AcDbEntity
  8
0
  6
Continuous
 62
     0
370
    30
100
AcDbCircle
 10
96.865954
 20
1650.841478
 30
0.0
 40
15.5
100
AcDbArc
 50
0.0
 51
180.0
  0
ARC
  5
BC
330
7B
100
AcDbEntity
  8
0
  6
Continuous
 62
     0
370
     0
100
AcDbCircle
 10
96.865954
 20
1650.841478
 30
0.0
 40
14.5
100
AcDbArc
 50
0.0
 51
180.0
  0
ARC
  5
BD
330
7B
100
AcDbEntity
  8
0
  6
Continuous
 62
     0
370
     0
100
AcDbCircle
 10
96.865954
 20
1650.841478
 30
0.0
 40
14.5
100
AcDbArc
 50
180.0
 51
360.0
  0
LINE
  5
BE
330
7B
100
AcDbEntity
  8
0
  6
Continuous
 62
     0
370
    30
100
AcDbLine
 10
108.265954
 20
1634.841479
 30
0.0
 11
108.265954
 21
1640.339574
 31
0.0
  0
LINE
  5
BF
330
7B
100
AcDbEntity
  8
0
  6
Continuous
 62
     0
370
    30
100
AcDbLine
 10
85.465954
 20
1634.841479
 30
0.0
 11
85.465954
 21
1637.180283
 31
0.0
  0
LINE
  5
C0
330
7B
100
AcDbEntity
  8
0
  6
Continuous
 62
     0
370
    30
100
AcDbLine
 10
89.646586
 20
1634.841479
 30
0.0
 11
85.365954
 21
1634.841479
 31
0.0
  0
LINE
  5
C1
330
7B
100
AcDbEntity
  8
0
  6
Continuous
 62
     0
370
    30
100
AcDbLine
 10
89.865954
 20
1634.841479
 30
0.0
 11
89.646586
 21
1634.841479
 31
0.0
  0
LINE
  5
C2
330
7B
100
AcDbEntity
  8
0
  6
Continuous
 62
     0
370
    30
100
AcDbLine
 10
108.365954
 20
1634.841479
 30
0.0
 11
103.865954
 21
1634.841479
 31
0.0
  0
LINE
  5
C3
330
7B
100
AcDbEntity
  8
0
  6
Continuous
 62
     0
370
     0
100
AcDbLine
 10
107.419961
 20
1606.324902
 30
0.0
 11
103.865954
 21
1606.324902
 31
0.0
  0
LINE
  5
C4
330
7B
100
AcDbEntity
  8
0
  6
Continuous
 62
     0
370
     0
100
AcDbLine
 10
89.865954
 20
1606.324902
 30
0.0
 11
86.311946
 21
1606.324902
 31
0.0
  0
LINE
  5
C5
330
7B
100
AcDbEntity
  8
0
  6
Continuous
 62
     0
370
    30
100
AcDbLine
 10
106.920236
 20
1605.841479
 30
0.0
 11
103.865954
 21
1605.841479
 31
0.0
  0
LINE
  5
C6
330
7B
100
AcDbEntity
  8
0
  6
Continuous
 62
     0
370
    30
100
AcDbLine
 10
89.865954
 20
1605.841479
 30
0.0
 11
86.811671
 21
1605.841479
 31
0.0
  0
ARC
  5
C7
330
7B
100
AcDbEntity
  8
0
  6
Continuous
 62
     0
370
    30
100
AcDbCircle
 10
106.920193
 20
1606.341482
 30
0.0
 40
0.5000031532459617
100
AcDbArc
 50
270.00057
 51
358.09965
  0
ARC
  5
C8
330
7B
100
AcDbEntity
  8
0
  6
Continuous
 62
     0
370
    30
100
AcDbCircle
 10
86.811717
 20
1606.341482
 30
0.0
 40
0.500003102414471
100
AcDbArc
 50
181.900344
 51
269.999425
  0
LINE
  5
C9
330
7B
100
AcDbEntity
  8
0
  6
Continuous
 62
     0
370
    30
100
AcDbLine
 10
85.365954
 20
1634.841479
 30
0.0
 11
86.311946
 21
1606.324902
 31
0.0
  0
LINE
  5
CA
330
7B
100
AcDbEntity
  8
0
  6
Continuous
 62
     0
370
    30
100
AcDbLine
 10
108.365954
 20
1634.841479
 30
0.0
 11
107.419961
 21
1606.324902
 31
0.0
  0
LINE
  5
CB
330
7B
100
AcDbEntity
  8
0
  6
Continuous
 62
     0
370
    30
100
AcDbLine
 10
94.636362
 20
1666.180283
 30
0.0
 11
83.565954
 21
1666.180283
 31
0.0
  0
LINE
  5
CC
330
7B
100
AcDbEntity
  8
0
  6
Continuous
 62
     0
370
     0
100
AcDbLine
 10
88.705299
 20
1637.663705
 30
0.0
 11
84.511946
 21
1637.663705
 31
0.0
  0
LINE
  5
CD
330
7B
100
AcDbEntity
  8
0
  6
Continuous
 62
     0
370
     0
100
AcDbLine
 10
105.619962
 20
1637.663705
 30
0.0
 11
105.026609
 21
1637.663705
 31
0.0
  0
LINE
  5
CE
330
7B
100
AcDbEntity
  8
0
  6
Continuous
 62
     0
370
    30
100
AcDbLine
 10
89.543268
 20
1637.180283
 30
0.0
 11
85.011671
 21
1637.180283
 31
0.0
  0
LINE
  5
CF
330
7B
100
AcDbEntity
  8
0
  6
Continuous
 62
     0
370
    30
100
AcDbLine
 10
105.120236
 20
1637.180283
 30
0.0
 11
104.18864
 21
1637.180283
 31
0.0
  0
ARC
  5
D0
330
7B
100
AcDbEntity
  8
0
  6
Continuous
 62
     0
370
    30
100
AcDbCircle
 10
85.011717
 20
1637.680286
 30
0.0
 40
0.5000031038232955
100
AcDbArc
 50
181.900344
 51
269.999425
  0
ARC
  5
D1
330
7B
100
AcDbEntity
  8
0
  6
Continuous
 62
     0
370
    30
100
AcDbCircle
 10
105.120193
 20
1637.680286
 30
0.0
 40
0.5000031545308938
100
AcDbArc
 50
270.00057
 51
358.09965
  0
LINE
  5
D2
330
7B
100
AcDbEntity
  8
0
  6
Continuous
 62
     0
370
    30
100
AcDbLine
 10
105.63308
 20
1638.059167
 30
0.0
 11
105.619962
 21
1637.663705
 31
0.0
  0
LINE
  5
D3
330
7B
100
AcDbEntity
  8
0
  6
Continuous
 62
     0
370
    30
100
AcDbLine
 10
106.565954
 20
1666.180283
 30
0.0
 11
106.460939
 21
1663.014656
 31
0.0
  0
LINE
  5
D4
330
7B
100
AcDbEntity
  8
0
  6
Continuous
 62
     0
370
    30
100
AcDbLine
 10
84.379443
 20
1641.657958
 30
0.0
 11
84.511946
 21
1637.663705
 31
0.0
  0
LINE
  5
D5
330
7B
100
AcDbEntity
  8
0
  6
Continuous
 62
     0
370
    30
100
AcDbLine
 10
83.565954
 20
1666.180283
 30
0.0
 11
83.798267
 21
1659.177279
 31
0.0
  0
LINE
  5
D6
330
7B
100
AcDbEntity
  8
0
  6
Continuous
 62
     0
370
    30
100
AcDbLine
 10
89.865954
 20
1009.063705
 30
0.0
 11
89.865954
 21
1637.012162
 31
0.0
  0
SPLINE
  5
D7
330
7B
100
AcDbEntity
  8
0
  6
Continuous
 62
     0
370
    30
100
AcDbSpline
210
0.0
220
0.0
230
1.0
 70
    24
 71
     3
 72
    60
 73
    56
 74
     0
 42
0.000000001
 43
0.0
 40
632.4239181891918
 40
632.4239181891918
 40
632.4239181891918
 40
632.4239181891918
 40
633.2641936093279
 40
636.1483416823144
 40
640.4375703495548
 40
648.8395810524429
 40
654.7600743430777
 40
658.9584399250358
 40
661.3240708399243
 40
663.6684169565264
 40
667.1525627769929
 40
671.1798822726001
 40
678.0567465312223
 40
680.6587447643615
 40
688.8727961579716
 40
694.1051410950423
 40
699.722937088853
 40
705.9216537313433
 40
710.6932534766963
 40
716.5022754031361
 40
722.7867138648622
 40
729.322349047491
 40
736.7900884358216
 40
746.4215994871253
 40
755.5185576781075
 40
766.616125391161
 40
774.5744744182894
 40
783.0097088396994
 40
799.310870273565
 40
819.8635805616894
 40
832.5746962379174
 40
845.9852652144199
 40
867.3967928710421
 40
882.5187669627447
 40
902.0586127976511
 40
920.2893866642486
 40
941.3983681302175
 40
965.5904939293792
 40
988.3942378225769
 40
1011.850425393332
 40
1028.590511737755
 40
1063.487293042243
 40
1083.824909322304
 40
1104.383649825533
 40
1117.307065009917
 40
1150.965670483041
 40
1171.781476532712
 40
1190.744707150836
 40
1202.24490466329
 40
1217.571653015856
 40
1230.644034369044
 40
1240.85877168218
 40
1272.756624269636
 40
1287.124446683487
 40
1304.68010284924
 40
1304.68010284924
 40
1304.68010284924
 40
1304.68010284924
 10
103.8659537405261
 20
1009.063703874753
 30
0.0
 10
103.865953740526
 20
1009.063703858777
 30
0.0
 10
103.865953740526
 20
1009.070012867288
 30
0.0
 10
103.865953740526
 20
1009.14352695625
 30
0.0
 10
103.865953740526
 20
1009.514475117515
 30
0.0
 10
103.865953740526
 20
1010.482017716055
 30
0.0
 10
103.865953740526
 20
1012.154158002783
 30
0.0
 10
103.865953740526
 20
1013.668980488269
 30
0.0
 10
103.865953740526
 20
1014.944930354038
 30
0.0
 10
103.865953740526
 20
1016.253413880928
 30
0.0
 10
103.865953740526
 20
1018.028044516697
 30
0.0
 10
103.865953740526
 20
1020.957708266981
 30
0.0
 10
103.865953740526
 20
1024.110485962761
 30
0.0
 10
103.865953740526
 20
1028.594442844239
 30
0.0
 10
103.865953740526
 20
1032.990800067585
 30
0.0
 10
103.865953740526
 20
1038.56968650849
 30
0.0
 10
103.865953740526
 20
1043.776996307788
 30
0.0
 10
103.865953740526
 20
1049.025599095191
 30
0.0
 10
103.865953740526
 20
1054.458919525587
 30
0.0
 10
103.865953740526
 20
1060.008612195687
 30
0.0
 10
103.865953740526
 20
1066.205938201241
 30
0.0
 10
103.865953740526
 20
1072.974051243188
 30
0.0
 10
103.865953740526
 20
1080.826088246419
 30
0.0
 10
103.865953740526
 20
1089.442491539118
 30
0.0
 10
103.865953740526
 20
1099.141650015411
 30
0.0
 10
103.865953740526
 20
1108.214540744668
 30
0.0
 10
103.865953740526
 20
1117.021859181965
 30
0.0
 10
103.865953740526
 20
1127.457164675984
 30
0.0
 10
103.865953740526
 20
1141.859185012174
 30
0.0
 10
103.865953740526
 20
1157.582844299796
 30
0.0
 10
103.865953740526
 20
1172.386545197805
 30
0.0
 10
103.865953740526
 20
1187.472493610968
 30
0.0
 10
103.865953740526
 20
1203.350609200285
 30
0.0
 10
103.865953740526
 20
1221.226437050548
 30
0.0
 10
103.865953740526
 20
1238.141953080351
 30
0.0
 10
103.865953740526
 20
1257.046354255384
 30
0.0
 10
103.865953740526
 20
1277.531726813041
 30
0.0
 10
103.865953740526
 20
1299.600616376174
 30
0.0
 10
103.865953740526
 20
1322.5442016727
 30
0.0
 10
103.865953740526
 20
1343.150710347712
 30
0.0
 10
103.865953740526
 20
1367.797429303366
 30
0.0
 10
103.865953740526
 20
1391.516194349245
 30
0.0
 10
103.865953740526
 20
1416.576997236165
 30
0.0
 10
103.865953740526
 20
1434.410185660614
 30
0.0
 10
103.865953740526
 20
1456.68845879613
 30
0.0
 10
103.865953740526
 20
1479.089842241062
 30
0.0
 10
103.865953740526
 20
1503.531882194917
 30
0.0
 10
103.865953740526
 20
1520.610545943331
 30
0.0
 10
103.865953740526
 20
1535.865583570306
 30
0.0
 10
103.865953740526
 20
1549.160476354135
 30
0.0
 10
103.865953740526
 20
1562.028441667627
 30
0.0
 10
103.865953740526
 20
1580.420027742871
 30
0.0
 10
103.865953740526
 20
1599.245545768147
 30
0.0
 10
103.865953740526
 20
1620.519196618473
 30
0.0
 10
103.865953740526
 20
1631.16044241597
 30
0.0
 10
103.865953740526
 20
1637.01216173235
 30
0.0
  0
SPLINE
  5
D8
330
7B
100
AcDbEntity
  8
0
  6
Continuous
 62
     0
370
    30
100
AcDbSpline
210
0.0
220
0.0
230
1.0
 70
     8
 71
     3
 72
    42
 73
    38
 74
     0
 42
0.000000001
 43
0.0
 40
0.0
 40
0.0
 40
0.0
 40
0.0
 40
1.264401099535301
 40
2.093463330663259
 40
2.603096651066418
 40
3.644021670263305
 40
3.996063153082924
 40
4.349844886795649
 40
4.705067742922694
 40
5.061127667511635
 40
5.417725373010857
 40
5.682912572380864
 40
6.476670903071483
 40
7.263679279435559
 40
8.045469636582629
 40
8.814246275303237
 40
9.563063958712917
 40
10.33213937469149
 40
11.07221135238677
 40
11.31649880746872
 40
11.56416837143134
 40
11.82622693002554
 40
12.09176984510014
 40
12.36071379952693
 40
12.63288670623192
 40
13.32656984579533
 40
14.012814230901
 40
14.80867392039084
 40
16.15037049164475
 40
17.46512943621174
 40
17.98837505759698
 40
18.5149976261552
 40
19.03624695047931
 40
19.55101781327916
 40
20.32252905206042
 40
21.35305846596735
 40
22.07752834374783
 40
22.07752834374783
 40
22.07752834374783
 40
22.07752834374783
 10
89.8659548607884
 20
1009.059731880385
 30
0.0
 10
89.86619110145563
 20
1008.640816692955
 30
0.0
 10
89.92877523845314
 20
1007.945617900343
 30
0.0
 10
90.13261128976578
 20
1007.104802645731
 30
0.0
 10
90.39041945593381
 20
1006.357832892888
 30
0.0
 10
90.66143990939068
 20
1005.785148334865
 30
0.0
 10
90.96013065833914
 20
1005.287658453046
 30
0.0
 10
91.15659029768631
 20
1004.99470273979
 30
0.0
 10
91.3682499987835
 20
1004.711027508454
 30
0.0
 10
91.59475252581757
 20
1004.437434506418
 30
0.0
 10
91.81447976582947
 20
1004.197826987992
 30
0.0
 10
92.14778251679942
 20
1003.865150510644
 30
0.0
 10
92.61451152822349
 20
1003.464689975071
 30
0.0
 10
93.26618307650335
 20
1003.022223257102
 30
0.0
 10
93.95605791006435
 20
1002.65913837309
 30
0.0
 10
94.670354151975
 20
1002.37911994889
 30
0.0
 10
95.40681021149946
 20
1002.179289211851
 30
0.0
 10
96.15141675395692
 20
1002.062024678848
 30
0.0
 10
96.7360711857524
 20
1002.033945698541
 30
0.0
 10
97.14672236419632
 20
1002.043224488462
 30
0.0
 10
97.39769539872876
 20
1002.057762385006
 30
0.0
 10
97.65500609253417
 20
1002.082126930447
 30
0.0
 10
97.91826503735244
 20
1002.117142787517
 30
0.0
 10
98.18324389033924
 20
1002.162776569235
 30
0.0
 10
98.58588790730579
 20
1002.248307780379
 30
0.0
 10
99.11582317961222
 20
1002.399842668495
 30
0.0
 10
99.7904566667143
 20
1002.667184489181
 30
0.0
 10
100.6245025804984
 20
1003.104832989115
 30
0.0
 10
101.5530103327919
 20
1003.79019092684
 30
0.0
 10
102.2735472184205
 20
1004.570175074221
 30
0.0
 10
102.7274614911336
 20
1005.212247069497
 30
0.0
 10
102.9963382078763
 20
1005.659785375398
 30
0.0
 10
103.2300854279131
 20
1006.123660599003
 30
0.0
 10
103.4602377719242
 20
1006.678130230402
 30
0.0
 10
103.6896889774954
 20
1007.413361362864
 30
0.0
 10
103.8361442119685
 20
1008.241041872421
 30
0.0
 10
103.8659497624113
 20
1008.823420464174
 30
0.0
 10
103.8659535116658
 20
1009.063703874756
 30
0.0
  0
ARC
  5
D9
330
7B
100
AcDbEntity
  8
0
  6
Continuous
 62
     0
370
    30
100
AcDbCircle
 10
176.86596
 20
1650.841493
 30
0.0
 40
22.2
100
AcDbArc
 50
270.000001
 51
90.000001
  0
LINE
  5
DA
330
7B
100
AcDbEntity
  8
0
  6
Continuous
 62
     0
370
     0
100
AcDbLine
 10
176.865961
 20
1628.641493
 30
0.0
 11
176.865972
 21
1625.142129
 31
0.0
  0
LINE
  5
DB
330
7B
100
AcDbEntity
  8
0
  6
Continuous
 62
     0
370
     0
100
AcDbLine
 10
176.865972
 20
1625.142129
 30
0.0
 11
182.365961
 21
1625.142129
 31
0.0
  0
LINE
  5
DC
330
7B
100
AcDbEntity
  8
0
  6
Continuous
 62
     0
370
     0
100
AcDbLine
 10
176.865972
 20
1625.142129
 30
0.0
 11
176.865973
 21
1571.333083
 31
0.0
  0
LINE
  5
DD
330
7B
100
AcDbEntity
  8
0
  6
Continuous
 62
     0
370
     0
100
AcDbLine
 10
176.865973
 20
1571.333083
 30
0.0
 11
182.365961
 21
1571.333083
 31
0.0
  0
ARC
  5
DE
330
7B
100
AcDbEntity
  8
0
  6
Continuous
 62
     0
370
     0
100
AcDbCircle
 10
176.86596
 20
1650.841493
 30
0.0
 40
21.7
100
AcDbArc
 50
90.000001
 51
270.000001
  0
ARC
  5
DF
330
7B
100
AcDbEntity
  8
0
  6
Continuous
 62
     0
370
     0
100
AcDbCircle
 10
176.86596
 20
1650.841493
 30
0.0
 40
21.7
100
AcDbArc
 50
270.000001
 51
90.000001
  0
LINE
  5
E0
330
7B
100
AcDbEntity
  8
0
  6
Continuous
 62
     0
370
     0
100
AcDbLine
 10
176.86596
 20
1672.541493
 30
0.0
 11
176.86596
 21
1673.041493
 31
0.0
  0
LINE
  5
E1
330
7B
100
AcDbEntity
  8
0
  6
Continuous
 62
     0
370
     0
100
AcDbLine
 10
176.865961
 20
1628.641493
 30
0.0
 11
176.865961
 21
1629.141493
 31
0.0
  0
LINE
  5
E2
330
7B
100
AcDbEntity
  8
0
  6
Continuous
 62
     0
370
     0
100
AcDbLine
 10
176.86595
 20
1625.142129
 30
0.0
 11
171.365961
 21
1625.142129
 31
0.0
  0
ARC
  5
E3
330
7B
100
AcDbEntity
  8
0
  6
Continuous
 62
     0
370
    30
100
AcDbCircle
 10
176.86596
 20
1650.841493
 30
0.0
 40
22.2
100
AcDbArc
 50
90.000001
 51
270.000001
  0
SPLINE
  5
E4
330
7B
100
AcDbEntity
  8
0
  6
Continuous
 62
     0
370
    30
100
AcDbSpline
210
0.0
220
0.0
230
1.0
 70
    28
 71
     2
 72
     8
 73
     5
 74
     0
 42
0.000000001
 43
0.0
 40
0.1437927663785566
 40
0.1437927663785566
 40
0.1437927663785566
 40
0.5
 40
0.5
 40
1.0
 40
1.0
 40
1.0
 10
181.8659613838685
 20
1570.833083337311
 30
0.0
 41
0.8799840195330277
 10
181.8659614199986
 20
1570.833083337311
 30
0.0
 41
0.7913386335599599
 10
178.9821910379241
 20
1570.83308330334
 30
0.0
 41
1.0
 10
174.4521168606843
 20
1570.833083249977
 30
0.0
 41
0.7071067811865475
 10
172.3358872066286
 20
1570.833083225048
 30
0.0
 41
1.0
  0
LINE
  5
E5
330
7B
100
AcDbEntity
  8
0
  6
Continuous
 62
     0
370
    30
100
AcDbLine
 10
172.335887
 20
1570.833083
 30
0.0
 11
171.865961
 21
1570.833083
 31
0.0
  0
LINE
  5
E6
330
7B
100
AcDbEntity
  8
0
  6
Continuous
 62
     0
370
     0
100
AcDbLine
 10
171.365961
 20
1571.333083
 30
0.0
 11
176.865973
 21
1571.333083
 31
0.0
  0
ARC
  5
E7
330
7B
100
AcDbEntity
  8
0
  6
Continuous
 62
     0
370
    30
100
AcDbCircle
 10
171.866018
 20
1571.333083
 30
0.0
 40
0.4999996499906766
100
AcDbArc
 50
179.99996
 51
269.983991
  0
ARC
  5
E8
330
7B
100
AcDbEntity
  8
0
  6
Continuous
 62
     0
370
    30
100
AcDbCircle
 10
181.865916
 20
1571.333084
 30
0.0
 40
0.5000007368815175
100
AcDbArc
 50
270.007424
 51
359.999916
  0
LINE
  5
E9
330
7B
100
AcDbEntity
  8
0
  6
Continuous
 62
     0
370
    30
100
AcDbLine
 10
171.365961
 20
1625.142129
 30
0.0
 11
171.365961
 21
1571.333083
 31
0.0
  0
SPLINE
  5
EA
330
7B
100
AcDbEntity
  8
0
  6
Continuous
 62
     0
370
    30
100
AcDbSpline
210
0.0
220
0.0
230
1.0
 70
     8
 71
     3
 72
    16
 73
    12
 74
     0
 42
0.000000001
 43
0.0
 40
0.0
 40
0.0
 40
0.0
 40
0.0
 40
0.6490203057668347
 40
1.730591382508465
 40
2.596039299136178
 40
3.461529231026698
 40
4.543237929698329
 40
5.19229054368498
 40
5.841460044311695
 40
6.49067682601473
 40
7.066211986224648
 40
7.066211986224648
 40
7.066211986224648
 40
7.066211986224648
 10
171.3659607441149
 20
1625.142128895168
 30
0.0
 10
171.3659607415685
 20
1625.358292284742
 30
0.0
 10
171.3218523825258
 20
1625.935398064233
 30
0.0
 10
171.1015831007408
 20
1626.776754459091
 30
0.0
 10
170.7174284843778
 20
1627.6342911913
 30
0.0
 10
170.2267278439892
 20
1628.435270863353
 30
0.0
 10
169.6795983633775
 20
1629.108754351092
 30
0.0
 10
169.1110853195378
 20
1629.66317217861
 30
0.0
 10
168.6067667833202
 20
1630.072978946948
 30
0.0
 10
168.0860472526622
 20
1630.419474624154
 30
0.0
 10
167.7240357982658
 20
1630.609477319677
 30
0.0
 10
167.5502721595432
 20
1630.690613216047
 30
0.0
  0
LINE
  5
EB
330
7B
100
AcDbEntity
  8
0
  6
Continuous
 62
     0
370
    30
100
AcDbLine
 10
182.365961
 20
1571.333083
 30
0.0
 11
182.365961
 21
1625.142129
 31
0.0
  0
SPLINE
  5
EC
330
7B
100
AcDbEntity
  8
0
  6
Continuous
 62
     0
370
    30
100
AcDbSpline
210
0.0
220
0.0
230
1.0
 70
     8
 71
     3
 72
    16
 73
    12
 74
     0
 42
0.000000001
 43
0.0
 40
0.0
 40
0.0
 40
0.0
 40
0.0
 40
0.6490203057668308
 40
1.730591382508462
 40
2.596039299136149
 40
3.461529231026671
 40
4.543237929698293
 40
5.192290543684948
 40
5.841460044311661
 40
6.490676826014695
 40
7.06621198622461
 40
7.06621198622461
 40
7.06621198622461
 40
7.06621198622461
 10
182.3659607441163
 20
1625.142129024746
 30
0.0
 10
182.3659607415699
 20
1625.35829241432
 30
0.0
 10
182.4100690870164
 20
1625.93539819485
 30
0.0
 10
182.6303383489791
 20
1626.776754594898
 30
0.0
 10
183.0144929451388
 20
1627.634291336158
 30
0.0
 10
183.5051935666565
 20
1628.435271019771
 30
0.0
 10
184.0523230314011
 20
1629.108754520401
 30
0.0
 10
184.6208360621789
 20
1629.663172361313
 30
0.0
 10
185.1251545887415
 20
1630.072979141532
 30
0.0
 10
185.6458741112362
 20
1630.419474831006
 30
0.0
 10
186.0078855611561
 20
1630.609477535058
 30
0.0
 10
186.1816491979672
 20
1630.690613435522
 30
0.0
  0
ENDBLK
  5
EE
330
7B
100
AcDbEntity
  8
0
100
AcDbBlockEnd
  0
BLOCK
  5
154
330
F0
100
AcDbEntity
  8
0
100
AcDbBlockBegin
  2
b
 70
     0
 10
37.856316
 20
638.617981
 30
0.0
  3
b
  1

  0
ARC
  5
F1
330
F0
100
AcDbEntity
  8
0
  6
Continuous
 62
     0
370
    30
100
AcDbCircle
 10
87.065969
 20
727.172168
 30
0.0
 40
0.5
100
AcDbArc
 50
90.0
 51
180.0
  0
ARC
  5
F2
330
F0
100
AcDbEntity
  8
0
  6
Continuous
 62
     0
370
    30
100
AcDbCircle
 10
103.065969
 20
727.172168
 30
0.0
 40
0.5
100
AcDbArc
 50
0.0
 51
90.0
  0
LINE
  5
F3
330
F0
100
AcDbEntity
  8
0
  6
Continuous
 62
     0
370
    30
100
AcDbLine
 10
86.565969
 20
724.172168
 30
0.0
 11
86.565969
 21
727.172168
 31
0.0
  0
LINE
  5
F4
330
F0
100
AcDbEntity
  8
0
  6
Continuous
 62
     0
370
    30
100
AcDbLine
 10
95.065969
 20
727.672168
 30
0.0
 11
87.065969
 21
727.672168
 31
0.0
  0
LINE
  5
F5
330
F0
100
AcDbEntity
  8
0
  6
Continuous
 62
     0
370
    30
100
AcDbLine
 10
95.065969
 20
727.672168
 30
0.0
 11
103.065969
 21
727.672168
 31
0.0
  0
LINE
  5
F6
330
F0
100
AcDbEntity
  8
0
  6
Continuous
 62
     0
370
     0
100
AcDbLine
 10
95.065969
 20
724.172167
 30
0.0
 11
95.065969
 21
727.172167
 31
0.0
  0
LINE
  5
F7
330
F0
100
AcDbEntity
  8
0
  6
Continuous
 62
     0
370
     0
100
AcDbLine
 10
95.065969
 20
727.172168
 30
0.0
 11
86.565969
 21
727.172168
 31
0.0
  0
LINE
  5
F8
330
F0
100
AcDbEntity
  8
0
  6
Continuous
 62
     0
370
    30
100
AcDbLine
 10
103.565969
 20
724.172168
 30
0.0
 11
103.565969
 21
727.172168
 31
0.0
  0
LINE
  5
F9
330
F0
100
AcDbEntity
  8
0
  6
Continuous
 62
     0
370
     0
100
AcDbLine
 10
95.065969
 20
727.172168
 30
0.0
 11
103.565969
 21
727.172168
 31
0.0
  0
LINE
  5
FA
330
F0
100
AcDbEntity
  8
0
  6
Continuous
 62
     0
370
     0
100
AcDbLine
 10
95.065969
 20
727.172167
 30
0.0
 11
95.065969
 21
727.672167
 31
0.0
  0
LINE
  5
FB
330
F0
100
AcDbEntity
  8
0
  6
Continuous
 62
     0
370
    30
100
AcDbLine
 10
83.065969
 20
675.572168
 30
0.0
 11
95.065969
 21
675.572168
 31
0.0
  0
LINE
  5
FC
330
F0
100
AcDbEntity
  8
0
  6
Continuous
 62
     0
370
    30
100
AcDbLine
 10
95.065969
 20
675.572168
 30
0.0
 11
107.065969
 21
675.572168
 31
0.0
  0
LINE
  5
FD
330
F0
100
AcDbEntity
  8
0
  6
Continuous
 62
     0
370
    30
100
AcDbLine
 10
95.065969
 20
724.172168
 30
0.0
 11
104.065969
 21
724.172168
 31
0.0
  0
LINE
  5
FE
330
F0
100
AcDbEntity
  8
0
  6
Continuous
 62
     0
370
    30
100
AcDbLine
 10
86.065969
 20
724.172168
 30
0.0
 11
95.065969
 21
724.172168
 31
0.0
  0
LINE
  5
FF
330
F0
100
AcDbEntity
  8
0
  6
Continuous
 62
     0
370
     0
100
AcDbLine
 10
95.065969
 20
706.363218
 30
0.0
 11
95.065969
 21
704.770893
 31
0.0
  0
LINE
  5
100
330
F0
100
AcDbEntity
  8
0
  6
Continuous
 62
     0
370
     0
100
AcDbLine
 10
95.065969
 20
704.770894
 30
0.0
 11
107.065969
 21
704.770894
 31
0.0
  0
LINE
  5
101
330
F0
100
AcDbEntity
  8
0
  6
Continuous
 62
     0
370
     0
100
AcDbLine
 10
95.065969
 20
706.363218
 30
0.0
 11
106.93838
 21
706.363218
 31
0.0
  0
LINE
  5
102
330
F0
100
AcDbEntity
  8
0
  6
Continuous
 62
     0
370
     0
100
AcDbLine
 10
83.065969
 20
704.770894
 30
0.0
 11
95.065969
 21
704.770894
 31
0.0
  0
LINE
  5
103
330
F0
100
AcDbEntity
  8
0
  6
Continuous
 62
     0
370
     0
100
AcDbLine
 10
83.193558
 20
706.363218
 30
0.0
 11
95.065969
 21
706.363218
 31
0.0
  0
LINE
  5
104
330
F0
100
AcDbEntity
  8
0
  6
Continuous
 62
     0
370
    30
100
AcDbLine
 10
86.065969
 20
724.172168
 30
0.0
 11
83.193558
 21
706.363218
 31
0.0
  0
LINE
  5
105
330
F0
100
AcDbEntity
  8
0
  6
Continuous
 62
     0
370
    30
100
AcDbLine
 10
104.065969
 20
724.172168
 30
0.0
 11
106.93838
 21
706.363218
 31
0.0
  0
LINE
  5
106
330
F0
100
AcDbEntity
  8
0
  6
Continuous
 62
     0
370
    30
100
AcDbLine
 10
107.065969
 20
675.572168
 30
0.0
 11
107.065969
 21
704.770894
 31
0.0
  0
LINE
  5
107
330
F0
100
AcDbEntity
  8
0
  6
Continuous
 62
     0
370
    30
100
AcDbLine
 10
83.065969
 20
675.572168
 30
0.0
 11
83.065969
 21
704.770894
 31
0.0
  0
ARC
  5
108
330
F0
100
AcDbEntity
  8
0
  6
Continuous
 62
     0
370
    30
100
AcDbCircle
 10
93.066239
 20
704.770873
 30
0.0
 40
10.00026747187703
100
AcDbArc
 50
170.837777
 51
179.999878
  0
ARC
  5
109
330
F0
100
AcDbEntity
  8
0
  6
Continuous
 62
     0
370
    30
100
AcDbCircle
 10
97.065699
 20
704.770873
 30
0.0
 40
10.00026747176988
100
AcDbArc
 50
0.000122
 51
9.162223
  0
LINE
  5
10A
330
F0
100
AcDbEntity
  8
0
  6
Continuous
 62
     0
370
     0
100
AcDbLine
 10
96.865969
 20
763.660935
 30
0.0
 11
66.865969
 21
763.660935
 31
0.0
  0
LINE
  5
10B
330
F0
100
AcDbEntity
  8
0
  6
Continuous
 62
     0
370
     0
100
AcDbLine
 10
126.865969
 20
763.660935
 30
0.0
 11
96.865969
 21
763.660935
 31
0.0
  0
LINE
  5
10C
330
F0
100
AcDbEntity
  8
0
  6
Continuous
 62
     0
370
     0
100
AcDbLine
 10
126.865969
 20
767.660935
 30
0.0
 11
96.865969
 21
767.660935
 31
0.0
  0
LINE
  5
10D
330
F0
100
AcDbEntity
  8
0
  6
Continuous
 62
     0
370
     0
100
AcDbLine
 10
96.865969
 20
767.660935
 30
0.0
 11
66.865969
 21
767.660935
 31
0.0
  0
LINE
  5
10E
330
F0
100
AcDbEntity
  8
0
  6
Continuous
 62
     0
370
    30
100
AcDbLine
 10
96.865969
 20
768.160935
 30
0.0
 11
67.365969
 21
768.160935
 31
0.0
  0
LINE
  5
10F
330
F0
100
AcDbEntity
  8
0
  6
Continuous
 62
     0
370
    30
100
AcDbLine
 10
126.365969
 20
768.160935
 30
0.0
 11
96.865969
 21
768.160935
 31
0.0
  0
LINE
  5
110
330
F0
100
AcDbEntity
  8
0
  6
Continuous
 62
     0
370
    30
100
AcDbLine
 10
96.865969
 20
763.160935
 30
0.0
 11
67.365969
 21
763.160935
 31
0.0
  0
LINE
  5
111
330
F0
100
AcDbEntity
  8
0
  6
Continuous
 62
     0
370
    30
100
AcDbLine
 10
126.365969
 20
763.160935
 30
0.0
 11
96.865969
 21
763.160935
 31
0.0
  0
ARC
  5
112
330
F0
100
AcDbEntity
  8
0
  6
Continuous
 62
     0
370
    30
100
AcDbCircle
 10
67.365971
 20
763.660937
 30
0.0
 40
0.5000025881517485
100
AcDbArc
 50
180.000295
 51
269.993577
  0
ARC
  5
113
330
F0
100
AcDbEntity
  8
0
  6
Continuous
 62
     0
370
    30
100
AcDbCircle
 10
126.365967
 20
763.660937
 30
0.0
 40
0.5000025881519199
100
AcDbArc
 50
270.006423
 51
359.999705
  0
ARC
  5
114
330
F0
100
AcDbEntity
  8
0
  6
Continuous
 62
     0
370
    30
100
AcDbCircle
 10
126.365967
 20
767.660932
 30
0.0
 40
0.500002587448777
100
AcDbArc
 50
0.000295
 51
89.993577
  0
ARC
  5
115
330
F0
100
AcDbEntity
  8
0
  6
Continuous
 62
     0
370
    30
100
AcDbCircle
 10
67.365971
 20
767.660932
 30
0.0
 40
0.5000025874512343
100
AcDbArc
 50
90.006423
 51
179.999705
  0
LINE
  5
116
330
F0
100
AcDbEntity
  8
0
  6
Continuous
 62
     0
370
    30
100
AcDbLine
 10
126.865969
 20
767.660935
 30
0.0
 11
126.865969
 21
763.660935
 31
0.0
  0
LINE
  5
117
330
F0
100
AcDbEntity
  8
0
  6
Continuous
 62
     0
370
    30
100
AcDbLine
 10
66.865969
 20
767.660935
 30
0.0
 11
66.865969
 21
763.660935
 31
0.0
  0
LINE
  5
118
330
F0
100
AcDbEntity
  8
0
  6
Continuous
 62
     0
370
     0
100
AcDbLine
 10
146.865974
 20
767.660934
 30
0.0
 11
203.774587
 21
767.660934
 31
0.0
  0
LINE
  5
119
330
F0
100
AcDbEntity
  8
0
  6
Continuous
 62
     0
370
     0
100
AcDbLine
 10
203.774587
 20
767.660934
 30
0.0
 11
206.865974
 21
767.660934
 31
0.0
  0
LINE
  5
11A
330
F0
100
AcDbEntity
  8
0
  6
Continuous
 62
     0
370
     0
100
AcDbLine
 10
203.774587
 20
763.660934
 30
0.0
 11
206.865974
 21
763.660934
 31
0.0
  0
LINE
  5
11B
330
F0
100
AcDbEntity
  8
0
  6
Continuous
 62
     0
370
     0
100
AcDbLine
 10
146.865974
 20
763.660934
 30
0.0
 11
203.774587
 21
763.660934
 31
0.0
  0
LINE
  5
11C
330
F0
100
AcDbEntity
  8
0
  6
Continuous
 62
     0
370
    30
100
AcDbLine
 10
147.365974
 20
763.160934
 30
0.0
 11
203.32611
 21
763.160934
 31
0.0
  0
LINE
  5
11D
330
F0
100
AcDbEntity
  8
0
  6
Continuous
 62
     0
370
    30
100
AcDbLine
 10
203.32611
 20
763.160934
 30
0.0
 11
206.365974
 21
763.160934
 31
0.0
  0
LINE
  5
11E
330
F0
100
AcDbEntity
  8
0
  6
Continuous
 62
     0
370
    30
100
AcDbLine
 10
147.365974
 20
768.160934
 30
0.0
 11
203.32611
 21
768.160934
 31
0.0
  0
LINE
  5
11F
330
F0
100
AcDbEntity
  8
0
  6
Continuous
 62
     0
370
    30
100
AcDbLine
 10
203.32611
 20
768.160934
 30
0.0
 11
206.365974
 21
768.160934
 31
0.0
  0
ARC
  5
120
330
F0
100
AcDbEntity
  8
0
  6
Continuous
 62
     0
370
    30
100
AcDbCircle
 10
147.366071
 20
767.660933
 30
0.0
 40
0.5000017910513991
100
AcDbArc
 50
90.006908
 51
179.999796
  0
ARC
  5
121
330
F0
100
AcDbEntity
  8
0
  6
Continuous
 62
     0
370
    30
100
AcDbCircle
 10
206.365809
 20
767.660933
 30
0.0
 40
0.5000012928321476
100
AcDbArc
 50
0.000147
 51
89.996902
  0
ARC
  5
122
330
F0
100
AcDbEntity
  8
0
  6
Continuous
 62
     0
370
    30
100
AcDbCircle
 10
206.365809
 20
763.660936
 30
0.0
 40
0.5000012936268043
100
AcDbArc
 50
270.003098
 51
359.999853
  0
ARC
  5
123
330
F0
100
AcDbEntity
  8
0
  6
Continuous
 62
     0
370
    30
100
AcDbCircle
 10
147.366071
 20
763.660936
 30
0.0
 40
0.5000017904604539
100
AcDbArc
 50
180.000204
 51
269.993092
  0
LINE
  5
124
330
F0
100
AcDbEntity
  8
0
  6
Continuous
 62
     0
370
    30
100
AcDbLine
 10
206.865974
 20
763.660934
 30
0.0
 11
206.865974
 21
767.660934
 31
0.0
  0
LINE
  5
125
330
F0
100
AcDbEntity
  8
0
  6
Continuous
 62
     0
370
    30
100
AcDbLine
 10
146.865974
 20
763.660934
 30
0.0
 11
146.865974
 21
767.660934
 31
0.0
  0
LINE
  5
126
330
F0
100
AcDbEntity
  8
0
  6
Continuous
 62
     0
370
    30
100
AcDbLine
 10
198.465974
 20
727.456383
 30
0.0
 11
192.537975
 21
727.456383
 31
0.0
  0
LINE
  5
127
330
F0
100
AcDbEntity
  8
0
  6
Continuous
 62
     0
370
    30
100
AcDbLine
 10
192.537975
 20
727.456383
 30
0.0
 11
155.265974
 21
727.456383
 31
0.0
  0
LINE
  5
128
330
F0
100
AcDbEntity
  8
0
  6
Continuous
 62
     0
370
     0
100
AcDbLine
 10
192.900752
 20
727.956383
 30
0.0
 11
154.765974
 21
727.956383
 31
0.0
  0
LINE
  5
129
330
F0
100
AcDbEntity
  8
0
  6
Continuous
 62
     0
370
     0
100
AcDbLine
 10
198.965974
 20
727.956383
 30
0.0
 11
192.900752
 21
727.956383
 31
0.0
  0
LINE
  5
12A
330
F0
100
AcDbEntity
  8
0
  6
Continuous
 62
     0
370
    30
100
AcDbLine
 10
154.765974
 20
763.160934
 30
0.0
 11
154.765974
 21
727.956383
 31
0.0
  0
LINE
  5
12B
330
F0
100
AcDbEntity
  8
0
  6
Continuous
 62
     0
370
    30
100
AcDbLine
 10
198.965974
 20
763.160934
 30
0.0
 11
198.965974
 21
727.956383
 31
0.0
  0
ARC
  5
12C
330
F0
100
AcDbEntity
  8
0
  6
Continuous
 62
     0
370
    30
100
AcDbCircle
 10
198.465957
 20
727.956385
 30
0.0
 40
0.5000023886226144
100
AcDbArc
 50
270.007419
 51
359.999727
  0
ARC
  5
12D
330
F0
100
AcDbEntity
  8
0
  6
Continuous
 62
     0
370
    30
100
AcDbCircle
 10
155.265995
 20
727.956385
 30
0.0
 40
0.5000023809490759
100
AcDbArc
 50
180.000272
 51
269.994301
  0
LINE
  5
12E
330
F0
100
AcDbEntity
  8
0
  6
Continuous
 62
     0
370
    30
100
AcDbLine
 10
112.365969
 20
688.054321
 30
0.0
 11
112.365969
 21
747.736194
 31
0.0
  0
LINE
  5
12F
330
F0
100
AcDbEntity
  8
0
  6
Continuous
 62
     0
370
     0
100
AcDbLine
 10
83.065969
 20
688.054321
 30
0.0
 11
81.365969
 21
688.054321
 31
0.0
  0
LINE
  5
130
330
F0
100
AcDbEntity
  8
0
  6
Continuous
 62
     0
370
     0
100
AcDbLine
 10
112.365969
 20
688.054321
 30
0.0
 11
107.065969
 21
688.054321
 31
0.0
  0
LINE
  5
131
330
F0
100
AcDbEntity
  8
0
  6
Continuous
 62
     0
370
     0
100
AcDbLine
 10
81.365969
 20
747.736194
 30
0.0
 11
112.365969
 21
747.736194
 31
0.0
  0
ARC
  5
132
330
F0
100
AcDbEntity
  8
0
  6
Continuous
 62
     0
370
    30
100
AcDbCircle
 10
95.065645
 20
702.554291
 30
0.0
 40
12.50031663142808
100
AcDbArc
 50
343.740125
 51
18.693518
  0
LINE
  5
133
330
F0
100
AcDbEntity
  8
0
  6
Continuous
 62
     0
370
    30
100
AcDbLine
 10
81.365969
 20
692.054321
 30
0.0
 11
83.065969
 21
692.054321
 31
0.0
  0
LINE
  5
134
330
F0
100
AcDbEntity
  8
0
  6
Continuous
 62
     0
370
    30
100
AcDbLine
 10
84.272767
 20
713.054321
 30
0.0
 11
81.365969
 21
713.054321
 31
0.0
  0
LINE
  5
135
330
F0
100
AcDbEntity
  8
0
  6
Continuous
 62
     0
370
    30
100
AcDbLine
 10
83.065969
 20
687.054321
 30
0.0
 11
82.365969
 21
687.054321
 31
0.0
  0
LINE
  5
136
330
F0
100
AcDbEntity
  8
0
  6
Continuous
 62
     0
370
    30
100
AcDbLine
 10
111.365969
 20
687.054321
 30
0.0
 11
107.065969
 21
687.054321
 31
0.0
  0
ARC
  5
137
330
F0
100
AcDbEntity
  8
0
  6
Continuous
 62
     0
370
    30
100
AcDbCircle
 10
111.365969
 20
688.054321
 30
0.0
 40
1.0
100
AcDbArc
 50
270.0
 51
360.0
  0
LINE
  5
138
330
F0
100
AcDbEntity
  8
0
  6
Continuous
 62
     0
370
     0
100
AcDbLine
 10
81.865969
 20
762.054321
 30
0.0
 11
111.865969
 21
762.054321
 31
0.0
  0
LINE
  5
139
330
F0
100
AcDbEntity
  8
0
  6
Continuous
 62
     0
370
    30
100
AcDbLine
 10
111.865969
 20
763.160935
 30
0.0
 11
111.865969
 21
762.054321
 31
0.0
  0
LINE
  5
13A
330
F0
100
AcDbEntity
  8
0
  6
Continuous
 62
     0
370
    30
100
AcDbLine
 10
112.365969
 20
747.736194
 30
0.0
 11
111.865969
 21
762.054321
 31
0.0
  0
LINE
  5
13B
330
F0
100
AcDbEntity
  8
0
  6
Continuous
 62
     0
370
    30
100
AcDbLine
 10
81.365969
 20
747.736194
 30
0.0
 11
81.865969
 21
762.054321
 31
0.0
  0
LINE
  5
13C
330
F0
100
AcDbEntity
  8
0
  6
Continuous
 62
     0
370
    30
100
AcDbLine
 10
81.865969
 20
763.160935
 30
0.0
 11
81.865969
 21
762.054321
 31
0.0
  0
ARC
  5
13D
330
F0
100
AcDbEntity
  8
0
  6
Continuous
 62
     0
370
    30
100
AcDbCircle
 10
82.365981
 20
688.054333
 30
0.0
 40
1.00001237834976
100
AcDbArc
 50
180.000709
 51
269.993561
  0
LINE
  5
13E
330
F0
100
AcDbEntity
  8
0
  6
Continuous
 62
     0
370
    30
100
AcDbLine
 10
81.365969
 20
747.736194
 30
0.0
 11
81.365969
 21
713.054321
 31
0.0
  0
LINE
  5
13F
330
F0
100
AcDbEntity
  8
0
  6
Continuous
 62
     0
370
    30
100
AcDbLine
 10
81.365969
 20
692.054321
 30
0.0
 11
81.365969
 21
688.054321
 31
0.0
  0
LINE
  5
140
330
F0
100
AcDbEntity
  8
0
  6
Continuous
 62
     0
370
    30
100
AcDbLine
 10
177.109416
 20
727.356384
 30
0.0
 11
156.515976
 21
727.356384
 31
0.0
  0
LINE
  5
141
330
F0
100
AcDbEntity
  8
0
  6
Continuous
 62
     0
370
    30
100
AcDbLine
 10
197.215976
 20
727.356384
 30
0.0
 11
181.085064
 21
727.356384
 31
0.0
  0
LINE
  5
142
330
F0
100
AcDbEntity
  8
0
  6
Continuous
 62
     0
370
    30
100
AcDbLine
 10
181.085065
 20
727.356383
 30
0.0
 11
177.109415
 21
727.356383
 31
0.0
  0
ARC
  5
143
330
F0
100
AcDbEntity
  8
0
  6
Continuous
 62
     0
370
    30
100
AcDbCircle
 10
176.971947
 20
728.726802
 30
0.0
 40
20.50182446035807
100
AcDbArc
 50
183.83272
 51
204.596181
  0
ARC
  5
144
330
F0
100
AcDbEntity
  8
0
  6
Continuous
 62
     0
370
    30
100
AcDbCircle
 10
176.761769
 20
728.726408
 30
0.0
 40
20.50003735375513
100
AcDbArc
 50
335.402733
 51
356.16805
  0
SPLINE
  5
145
330
F0
100
AcDbEntity
  8
0
  6
Continuous
 62
     0
370
    30
100
AcDbSpline
210
0.0
220
0.0
230
1.0
 70
    24
 71
     3
 72
    15
 73
    11
 74
     0
 42
0.000000001
 43
0.0
 40
0.4603282430867161
 40
0.4603282430867161
 40
0.4603282430867161
 40
0.4603282430867161
 40
0.476190476190476
 40
0.5238095238095241
 40
0.571428571428571
 40
0.6190476190476191
 40
0.666666666666667
 40
0.7142857142857141
 40
0.7619047619047621
 40
0.7743632784218253
 40
0.7743632784218253
 40
0.7743632784218253
 40
0.7743632784218253
 10
89.86596899931507
 20
609.5031451105947
 30
0.0
 10
89.86596899931507
 20
609.5031450539259
 30
0.0
 10
89.86596899931507
 20
609.931847045525
 30
0.0
 10
89.86596899931509
 20
613.3029494694861
 30
0.0
 10
89.86596899931507
 20
621.2092578066863
 30
0.0
 10
89.86596899931509
 20
631.9250304255193
 30
0.0
 10
89.86596899931509
 20
644.8167757290091
 30
0.0
 10
89.8659689993151
 20
658.8501749731851
 30
0.0
 10
89.86596899931507
 20
669.1950491853528
 30
0.0
 10
89.86596899931507
 20
674.496401257942
 30
0.0
 10
89.86596899931507
 20
675.5721880280332
 30
0.0
  0
SPLINE
  5
146
330
F0
100
AcDbEntity
  8
0
  6
Continuous
 62
     0
370
    30
100
AcDbSpline
210
0.0
220
0.0
230
1.0
 70
    24
 71
     3
 72
    25
 73
    21
 74
     0
 42
0.000000001
 43
0.0
 40
725.4201870292824
 40
725.4201870292824
 40
725.4201870292824
 40
725.4201870292824
 40
729.322349049342
 40
736.7900884397394
 40
746.4215994929704
 40
755.5185576785644
 40
766.6161253844767
 40
774.5744744061192
 40
783.0097088214139
 40
799.3108702513646
 40
819.8635805370255
 40
832.5746962118399
 40
845.985265186944
 40
867.3967928414975
 40
882.5187669318625
 40
902.058612764563
 40
920.2893866288109
 40
941.3983680921724
 40
965.5904938884785
 40
979.1691422164556
 40
979.1691422164556
 40
979.1691422164556
 40
979.1691422164556
 10
103.8659689993151
 20
609.5033036828355
 30
0.0
 10
103.8659689993151
 20
609.5033036350237
 30
0.0
 10
103.8659689993151
 20
609.5977370229265
 30
0.0
 10
103.8659689993151
 20
610.2304280066013
 30
0.0
 10
103.8659689993151
 20
611.6810377437154
 30
0.0
 10
103.8659689993151
 20
613.8745354682704
 30
0.0
 10
103.8659689993151
 20
616.2764279088
 30
0.0
 10
103.8659689993151
 20
618.8079130307226
 30
0.0
 10
103.8659689993151
 20
621.9511738588253
 30
0.0
 10
103.8659689993151
 20
626.4776886816319
 30
0.0
 10
103.8659689993151
 20
631.5504178262279
 30
0.0
 10
103.8659689993151
 20
636.3364266765636
 30
0.0
 10
103.8659689993151
 20
641.1799465794676
 30
0.0
 10
103.8659689993151
 20
646.1846733839574
 30
0.0
 10
103.8659689993151
 20
651.6453327238285
 30
0.0
 10
103.8659689993151
 20
656.6178647021372
 30
0.0
 10
103.8659689993151
 20
661.8945463595966
 30
0.0
 10
103.8659689993151
 20
667.2668472948196
 30
0.0
 10
103.8659689993151
 20
671.8732543839853
 30
0.0
 10
103.8659689993151
 20
674.6142621631965
 30
0.0
 10
103.8659689993151
 20
675.57218802805
 30
0.0
  0
SPLINE
  5
147
330
F0
100
AcDbEntity
  8
0
  6
Continuous
 62
     0
370
    30
100
AcDbSpline
210
0.0
220
0.0
230
1.0
 70
     8
 71
     3
 72
    21
 73
    17
 74
     0
 42
0.000000001
 43
0.0
 40
0.0
 40
0.0
 40
0.0
 40
0.0
 40
1.414083573041313
 40
3.785062534134519
 40
4.841061543632134
 40
6.419027420770004
 40
8.747060998109863
 40
11.01783256297087
 40
13.15253613892265
 40
14.78788513558234
 40
15.73660910945117
 40
16.92420899612521
 40
18.49199218341386
 40
19.7689182415021
 40
21.29224620282268
 40
21.96555283111867
 40
21.96555283111867
 40
21.96555283111867
 40
21.96555283111867
 10
89.86597011957747
 20
609.499193071714
 30
0.0
 10
89.86623685393644
 20
609.0287030806687
 30
0.0
 10
89.9950399330205
 20
607.7656973173033
 30
0.0
 10
90.59209747938138
 20
606.2424943301456
 30
0.0
 10
91.56270899331733
 20
604.8797152207615
 30
0.0
 10
92.76477536401568
 20
603.7283951154496
 30
0.0
 10
94.61188917185287
 20
602.7557826230285
 30
0.0
 10
96.85837761696493
 20
602.4012964483928
 30
0.0
 10
98.87018463422041
 20
602.7208851812964
 30
0.0
 10
100.3120537709926
 20
603.3759979913557
 30
0.0
 10
101.3442281037037
 20
604.0987124835674
 30
0.0
 10
102.2395155341756
 20
604.9554357124928
 30
0.0
 10
103.0145685063171
 20
606.0638139326966
 30
0.0
 10
103.5926642194019
 20
607.4066918387131
 30
0.0
 10
103.8306681251057
 20
608.5467789073065
 30
0.0
 10
103.8659645954785
 20
609.2788960192515
 30
0.0
 10
103.8659590864374
 20
609.5033036824157
 30
0.0
  0
LINE
  5
148
330
F0
100
AcDbEntity
  8
0
  6
Continuous
 62
     0
370
     0
100
AcDbLine
 10
176.865975
 20
718.967803
 30
0.0
 11
176.865975
 21
689.894881
 31
0.0
  0
LINE
  5
149
330
F0
100
AcDbEntity
  8
0
  6
Continuous
 62
     0
370
     0
100
AcDbLine
 10
176.865975
 20
689.894882
 30
0.0
 11
199.065976
 21
689.894882
 31
0.0
  0
SPLINE
  5
14A
330
F0
100
AcDbEntity
  8
0
  6
Continuous
 62
     0
370
    30
100
AcDbSpline
210
0.0
220
0.0
230
1.0
 70
     8
 71
     3
 72
    18
 73
    14
 74
     0
 42
0.000000001
 43
0.0
 40
23.97000235900262
 40
23.97000235900262
 40
23.97000235900262
 40
23.97000235900262
 40
27.68331271769733
 40
31.35398672114482
 40
34.94074450226737
 40
38.5275022833341
 40
42.19817628686539
 40
46.05221087804267
 40
50.24072047929496
 40
55.03151443633934
 40
61.05486042600901
 40
65.01552313694897
 40
69.88148900234154
 40
69.88148900234154
 40
69.88148900234154
 40
69.88148900234154
 10
196.4398556342361
 20
722.9796722625173
 30
0.0
 10
197.0212318088953
 20
722.8462728556415
 30
0.0
 10
197.9962098217647
 20
722.5692337249699
 30
0.0
 10
198.8726726147082
 20
722.1347025410765
 30
0.0
 10
199.1615097015693
 20
721.6936215113423
 30
0.0
 10
198.8726725297419
 20
721.2525404815833
 30
0.0
 10
197.9849670621522
 20
720.8124354662673
 30
0.0
 10
196.4267176679565
 20
720.3734345388799
 30
0.0
 10
194.0395386750941
 20
719.9373381967646
 30
0.0
 10
190.4643624397781
 20
719.504492978401
 30
0.0
 10
186.1747538998034
 20
719.1931776630524
 30
0.0
 10
181.442086071276
 20
719.0080485409068
 30
0.0
 10
178.4879640446777
 20
718.9675770609234
 30
0.0
 10
176.8659754386568
 20
718.9678032890293
 30
0.0
  0
LINE
  5
14B
330
F0
100
AcDbEntity
  8
0
  6
Continuous
 62
     0
370
    30
100
AcDbLine
 10
176.865975
 20
689.394881
 30
0.0
 11
155.165976
 21
689.394882
 31
0.0
  0
LINE
  5
14C
330
F0
100
AcDbEntity
  8
0
  6
Continuous
 62
     0
370
    30
100
AcDbLine
 10
198.565976
 20
689.394882
 30
0.0
 11
176.865975
 21
689.394881
 31
0.0
  0
SPLINE
  5
14D
330
F0
100
AcDbEntity
  8
0
  6
Continuous
 62
     0
370
     0
100
AcDbSpline
210
0.0
220
0.0
230
1.0
 70
     8
 71
     3
 72
    11
 73
     7
 74
     0
 42
0.000000001
 43
0.0
 40
0.0
 40
0.0
 40
0.0
 40
0.0
 40
0.195090322016128
 40
0.3901806440322561
 40
0.585270966048389
 40
0.780361288064515
 40
0.780361288064515
 40
0.780361288064515
 40
0.780361288064515
 10
176.8659754445467
 20
689.3948809027934
 30
0.0
 10
176.8659754437807
 20
689.3948808999509
 30
0.0
 10
176.8659754422318
 20
689.4209002822614
 30
0.0
 10
176.8659754402741
 20
689.5321744312025
 30
0.0
 10
176.8659754389633
 20
689.6983669734034
 30
0.0
 10
176.8659754386568
 20
689.829850773599
 30
0.0
 10
176.8659754386568
 20
689.8948808809378
 30
0.0
  0
LINE
  5
14E
330
F0
100
AcDbEntity
  8
0
  6
Continuous
 62
     0
370
     0
100
AcDbLine
 10
154.665976
 20
689.894882
 30
0.0
 11
176.865975
 21
689.894882
 31
0.0
  0
SPLINE
  5
14F
330
F0
100
AcDbEntity
  8
0
  6
Continuous
 62
     0
370
    30
100
AcDbSpline
210
0.0
220
0.0
230
1.0
 70
     8
 71
     3
 72
    18
 73
    14
 74
     0
 42
0.000000001
 43
0.0
 40
0.0
 40
0.0
 40
0.0
 40
0.0
 40
4.86596584551179
 40
8.82662855540262
 40
14.84997455396034
 40
19.64076851509621
 40
23.82927811712096
 40
27.68331270999551
 40
31.35398671464196
 40
34.9407444963786
 40
38.52750227835872
 40
42.19817628263986
 40
45.9115461895383
 40
45.9115461895383
 40
45.9115461895383
 40
45.9115461895383
 10
176.8659754386568
 20
718.9678032888282
 30
0.0
 10
175.2439868392629
 20
718.9675770604312
 30
0.0
 10
172.2898648274641
 20
719.0080485408928
 30
0.0
 10
167.5571970369309
 20
719.1931776623073
 30
0.0
 10
163.2675885511494
 20
719.5044929774449
 30
0.0
 10
159.692412393898
 20
719.9373381957234
 30
0.0
 10
157.3052334823366
 20
720.3734345382607
 30
0.0
 10
155.7469841708342
 20
720.8124354655848
 30
0.0
 10
154.8592787866588
 20
721.252540481006
 30
0.0
 10
154.5704416987295
 20
721.6936215109245
 30
0.0
 10
154.8592788697451
 20
722.1347025407356
 30
0.0
 10
155.7357465032195
 20
722.5692360832797
 30
0.0
 10
156.7107355372346
 20
722.8462773237977
 30
0.0
 10
157.2921239815788
 20
722.9796786800574
 30
0.0
  0
ARC
  5
150
330
F0
100
AcDbEntity
  8
0
  6
Continuous
 62
     0
370
    30
100
AcDbCircle
 10
155.165978
 20
689.894884
 30
0.0
 40
0.5000026029382465
100
AcDbArc
 50
180.000298
 51
269.995185
  0
LINE
  5
151
330
F0
100
AcDbEntity
  8
0
  6
Continuous
 62
     0
370
    30
100
AcDbLine
 10
154.665976
 20
721.693621
 30
0.0
 11
154.665976
 21
689.894882
 31
0.0
  0
ARC
  5
152
330
F0
100
AcDbEntity
  8
0
  6
Continuous
 62
     0
370
    30
100
AcDbCircle
 10
198.565973
 20
689.894884
 30
0.0
 40
0.5000026029402502
100
AcDbArc
 50
270.004815
 51
359.999702
  0
LINE
  5
153
330
F0
100
AcDbEntity
  8
0
  6
Continuous
 62
     0
370
    30
100
AcDbLine
 10
199.065976
 20
689.894882
 30
0.0
 11
199.065976
 21
721.693622
 31
0.0
  0
ENDBLK
  5
155
330
F0
100
AcDbEntity
  8
0
100
AcDbBlockEnd
  0
BLOCK
  5
1D4
330
157
100
AcDbEntity
  8
0
100
AcDbBlockBegin
  2
c
 70
     0
 10
37.8563
 20
141.461548
 30
0.0
  3
c
  1

  0
LINE
  5
158
330
157
100
AcDbEntity
  8
0
  6
Continuous
 62
     0
370
    30
100
AcDbLine
 10
377.280398
 20
1744.680161
 30
0.0
 11
379.280398
 21
1747.680161
 31
0.0
  0
LINE
  5
159
330
157
100
AcDbEntity
  8
0
  6
Continuous
 62
     0
370
    30
100
AcDbLine
 10
379.280398
 20
1747.680161
 30
0.0
 11
379.280398
 21
1773.222121
 31
0.0
  0
LINE
  5
15A
330
157
100
AcDbEntity
  8
0
  6
Continuous
 62
     0
370
    30
100
AcDbLine
 10
375.780398
 20
1744.680161
 30
0.0
 11
376.280398
 21
1744.680161
 31
0.0
  0
LINE
  5
15B
330
157
100
AcDbEntity
  8
0
  6
Continuous
 62
     0
370
    30
100
AcDbLine
 10
376.280398
 20
1744.680161
 30
0.0
 11
377.280398
 21
1744.680161
 31
0.0
  0
LINE
  5
15C
330
157
100
AcDbEntity
  8
0
  6
Continuous
 62
     0
370
    30
100
AcDbLine
 10
375.780398
 20
1776.180161
 30
0.0
 11
375.780398
 21
1744.680161
 31
0.0
  0
LINE
  5
15D
330
157
100
AcDbEntity
  8
0
  6
Continuous
 62
     0
370
     0
100
AcDbLine
 10
376.280398
 20
1776.180161
 30
0.0
 11
376.280398
 21
1744.680161
 31
0.0
  0
LINE
  5
15E
330
157
100
AcDbEntity
  8
0
  6
Continuous
 62
     0
370
     0
100
AcDbLine
 10
375.780398
 20
1776.180161
 30
0.0
 11
376.280398
 21
1776.180161
 31
0.0
  0
LINE
  5
15F
330
157
100
AcDbEntity
  8
0
  6
Continuous
 62
     0
370
     0
100
AcDbLine
 10
379.280398
 20
1776.180161
 30
0.0
 11
376.280398
 21
1776.180161
 31
0.0
  0
LINE
  5
160
330
157
100
AcDbEntity
  8
0
  6
Continuous
 62
     0
370
    30
100
AcDbLine
 10
375.780398
 20
1784.180161
 30
0.0
 11
375.780398
 21
1776.180161
 31
0.0
  0
LINE
  5
161
330
157
100
AcDbEntity
  8
0
  6
Continuous
 62
     0
370
    30
100
AcDbLine
 10
379.280398
 20
1784.680161
 30
0.0
 11
376.280398
 21
1784.680161
 31
0.0
  0
LINE
  5
162
330
157
100
AcDbEntity
  8
0
  6
Continuous
 62
     0
370
     0
100
AcDbLine
 10
376.280398
 20
1784.680161
 30
0.0
 11
376.280398
 21
1776.180161
 31
0.0
  0
ARC
  5
163
330
157
100
AcDbEntity
  8
0
  6
Continuous
 62
     0
370
    30
100
AcDbCircle
 10
376.280398
 20
1784.180161
 30
0.0
 40
0.5
100
AcDbArc
 50
90.0
 51
180.0
  0
LINE
  5
164
330
157
100
AcDbEntity
  8
0
  6
Continuous
 62
     0
370
    30
100
AcDbLine
 10
410.802153
 20
1673.180161
 30
0.0
 11
410.802153
 21
1760.180161
 31
0.0
  0
LINE
  5
165
330
157
100
AcDbEntity
  8
0
  6
Continuous
 62
     0
370
    30
100
AcDbLine
 10
389.376345
 20
1760.180161
 30
0.0
 11
412.386649
 21
1760.180161
 31
0.0
  0
LINE
  5
166
330
157
100
AcDbEntity
  8
0
  6
Continuous
 62
     0
370
    30
100
AcDbLine
 10
427.880398
 20
1764.180161
 30
0.0
 11
427.880398
 21
1788.180161
 31
0.0
  0
LINE
  5
167
330
157
100
AcDbEntity
  8
0
  6
Continuous
 62
     0
370
    30
100
AcDbLine
 10
379.280398
 20
1773.222121
 30
0.0
 11
379.280398
 21
1785.180161
 31
0.0
  0
LINE
  5
168
330
157
100
AcDbEntity
  8
0
  6
Continuous
 62
     0
370
    30
100
AcDbLine
 10
412.398249
 20
1673.180161
 30
0.0
 11
389.398249
 21
1673.180161
 31
0.0
  0
LINE
  5
169
330
157
100
AcDbEntity
  8
0
  6
Continuous
 62
     0
370
    30
100
AcDbLine
 10
412.398249
 20
1673.180161
 30
0.0
 11
412.398249
 21
1666.180161
 31
0.0
  0
LINE
  5
16A
330
157
100
AcDbEntity
  8
0
  6
Continuous
 62
     0
370
    30
100
AcDbLine
 10
412.398249
 20
1666.180161
 30
0.0
 11
389.398249
 21
1666.180161
 31
0.0
  0
LINE
  5
16B
330
157
100
AcDbEntity
  8
0
  6
Continuous
 62
     0
370
    30
100
AcDbLine
 10
412.386649
 20
1760.180161
 30
0.0
 11
412.386649
 21
1764.180161
 31
0.0
  0
SPLINE
  5
16C
330
157
100
AcDbEntity
  8
0
  6
Continuous
 62
     0
370
    30
100
AcDbSpline
210
0.0
220
0.0
230
1.0
 70
     8
 71
     3
 72
    23
 73
    19
 74
     0
 42
0.000000001
 43
0.0
 40
0.9553401948527089
 40
0.9553401948527089
 40
0.9553401948527089
 40
0.9553401948527089
 40
1.397326887929738
 40
2.395928304511652
 40
3.023061100856006
 40
3.773453909343233
 40
4.587369697490497
 40
5.566239355724107
 40
6.498116677958611
 40
7.681754304579759
 40
9.001755409336393
 40
11.29685370731296
 40
12.86495997213502
 40
15.26879964918784
 40
17.44400700888651
 40
19.78486918086658
 40
21.98078497346992
 40
23.65944282701305
 40
23.65944282701305
 40
23.65944282701305
 40
23.65944282701305
 10
398.6816837162024
 20
1772.122172157573
 30
0.0
 10
398.8094077190879
 20
1772.191301874554
 30
0.0
 10
399.2325260507511
 20
1772.406129066983
 30
0.0
 10
399.875384696382
 20
1772.652640215397
 30
0.0
 10
400.6587066559123
 20
1772.785838988724
 30
0.0
 10
401.3936877211293
 20
1772.760568430468
 30
0.0
 10
402.2163401205852
 20
1772.546318320334
 30
0.0
 10
403.0350310362516
 20
1772.166502994388
 30
0.0
 10
403.9011538169817
 20
1771.640542667142
 30
0.0
 10
404.8048689782713
 20
1770.99430107385
 30
0.0
 10
405.9978259168845
 20
1770.047133052251
 30
0.0
 10
407.201297744278
 20
1769.006662834745
 30
0.0
 10
408.5537801223876
 20
1767.78947086027
 30
0.0
 10
409.7645549072524
 20
1766.668221380944
 30
0.0
 10
410.929735207968
 20
1765.570607044833
 30
0.0
 10
411.8043153511646
 20
1764.737887208925
 30
0.0
 10
412.2917190925373
 20
1764.271209836923
 30
0.0
 10
412.3866485692489
 20
1764.180160698981
 30
0.0
 10
412.3866485448304
 20
1764.180160698981
 30
0.0
  0
ARC
  5
16D
330
157
100
AcDbEntity
  8
0
  6
Continuous
 62
     0
370
    30
100
AcDbCircle
 10
391.946317
 20
1784.634696
 30
0.0
 40
14.21017543622298
100
AcDbArc
 50
291.218519
 51
298.293032
  0
SPLINE
  5
16E
330
157
100
AcDbEntity
  8
0
  6
Continuous
 62
     0
370
    30
100
AcDbSpline
210
0.0
220
0.0
230
1.0
 70
     8
 71
     3
 72
    18
 73
    14
 74
     0
 42
0.000000001
 43
0.0
 40
16.41622716199696
 40
16.41622716199696
 40
16.41622716199696
 40
16.41622716199696
 40
16.86863241078802
 40
18.77327499397074
 40
20.45388564781332
 40
22.35887630619517
 40
24.23102309354149
 40
26.01954709906387
 40
28.23606445647989
 40
29.56327702092856
 40
30.40705612706835
 40
31.20620834391705
 40
31.96693378152117
 40
31.96693378152117
 40
31.96693378152117
 40
31.96693378152117
 10
389.3764429836345
 20
1765.551884664919
 30
0.0
 10
389.3764027665261
 20
1765.551842489103
 30
0.0
 10
389.3916256790219
 20
1765.565837572481
 30
0.0
 10
389.5566845548233
 20
1765.717993105374
 30
0.0
 10
390.0436119931946
 20
1766.163602795891
 30
0.0
 10
390.7509387109342
 20
1766.80292714699
 30
0.0
 10
391.664970735155
 20
1767.610794272607
 30
0.0
 10
392.7906150806973
 20
1768.570491703934
 30
0.0
 10
393.949474673718
 20
1769.499764290062
 30
0.0
 10
395.0037052553008
 20
1770.253362110431
 30
0.0
 10
395.7661269396331
 20
1770.736292103478
 30
0.0
 10
396.4175688771426
 20
1771.096629277076
 30
0.0
 10
396.8647670830462
 20
1771.299963097845
 30
0.0
 10
397.0893404310843
 20
1771.387887418701
 30
0.0
  0
ARC
  5
16F
330
157
100
AcDbEntity
  8
0
  6
Continuous
 62
     0
370
    30
100
AcDbCircle
 10
398.681672
 20
1778.180161
 30
0.0
 40
10.0
100
AcDbArc
 50
90.0
 51
99.162347
  0
LINE
  5
170
330
157
100
AcDbEntity
  8
0
  6
Continuous
 62
     0
370
     0
100
AcDbLine
 10
398.681672
 20
1772.122167
 30
0.0
 11
398.681672
 21
1788.180161
 31
0.0
  0
LINE
  5
171
330
157
100
AcDbEntity
  8
0
  6
Continuous
 62
     0
370
     0
100
AcDbLine
 10
397.089347
 20
1771.387871
 30
0.0
 11
397.089347
 21
1788.052572
 31
0.0
  0
LINE
  5
172
330
157
100
AcDbEntity
  8
0
  6
Continuous
 62
     0
370
    30
100
AcDbLine
 10
427.880398
 20
1788.180161
 30
0.0
 11
398.681672
 21
1788.180161
 31
0.0
  0
LINE
  5
173
330
157
100
AcDbEntity
  8
0
  6
Continuous
 62
     0
370
    30
100
AcDbLine
 10
397.089347
 20
1788.052572
 30
0.0
 11
379.280398
 21
1785.180161
 31
0.0
  0
LINE
  5
174
330
157
100
AcDbEntity
  8
0
  6
Continuous
 62
     0
370
    30
100
AcDbLine
 10
379.280398
 20
1767.180161
 30
0.0
 11
389.376479
 21
1765.551761
 31
0.0
  0
LINE
  5
175
330
157
100
AcDbEntity
  8
0
  6
Continuous
 62
     0
370
    30
100
AcDbLine
 10
427.880398
 20
1764.180161
 30
0.0
 11
412.386649
 21
1764.180161
 31
0.0
  0
LINE
  5
176
330
157
100
AcDbEntity
  8
0
  6
Continuous
 62
     0
370
    30
100
AcDbLine
 10
389.376345
 20
1760.180161
 30
0.0
 11
389.376345
 21
1765.551797
 31
0.0
  0
LINE
  5
177
330
157
100
AcDbEntity
  8
0
  6
Continuous
 62
     0
370
    30
100
AcDbLine
 10
389.398249
 20
1673.180161
 30
0.0
 11
389.398249
 21
1666.180161
 31
0.0
  0
LINE
  5
178
330
157
100
AcDbEntity
  8
0
  6
Continuous
 62
     0
370
    30
100
AcDbLine
 10
390.802143
 20
1673.180161
 30
0.0
 11
390.802143
 21
1760.180161
 31
0.0
  0
LINE
  5
179
330
157
100
AcDbEntity
  8
0
  6
Continuous
 62
     0
370
    30
100
AcDbLine
 10
339.791636
 20
1620.841356
 30
0.0
 11
335.791636
 21
1620.841356
 31
0.0
  0
LINE
  5
17A
330
157
100
AcDbEntity
  8
0
  6
Continuous
 62
     0
370
     0
100
AcDbLine
 10
339.791636
 20
1680.841357
 30
0.0
 11
339.791636
 21
1620.841356
 31
0.0
  0
LINE
  5
17B
330
157
100
AcDbEntity
  8
0
  6
Continuous
 62
     0
370
     0
100
AcDbLine
 10
335.791636
 20
1680.841357
 30
0.0
 11
335.791636
 21
1620.841356
 31
0.0
  0
LINE
  5
17C
330
157
100
AcDbEntity
  8
0
  6
Continuous
 62
     0
370
    30
100
AcDbLine
 10
335.291636
 20
1680.341357
 30
0.0
 11
335.291636
 21
1621.341356
 31
0.0
  0
ARC
  5
17D
330
157
100
AcDbEntity
  8
0
  6
Continuous
 62
     0
370
    30
100
AcDbCircle
 10
335.791636
 20
1621.341356
 30
0.0
 40
0.499999999999999
100
AcDbArc
 50
186.899503
 51
270.0
  0
ARC
  5
17E
330
157
100
AcDbEntity
  8
0
  6
Continuous
 62
     0
370
    30
100
AcDbCircle
 10
339.791636
 20
1621.341356
 30
0.0
 40
0.5
100
AcDbArc
 50
270.0
 51
360.0
  0
LINE
  5
17F
330
157
100
AcDbEntity
  8
0
  6
Continuous
 62
     0
370
    30
100
AcDbLine
 10
340.291636
 20
1680.341357
 30
0.0
 11
340.291636
 21
1621.341356
 31
0.0
  0
ARC
  5
180
330
157
100
AcDbEntity
  8
0
  6
Continuous
 62
     0
370
    30
100
AcDbCircle
 10
339.791634
 20
1680.341354
 30
0.0
 40
0.500002700786945
100
AcDbArc
 50
0.000309
 51
89.999692
  0
ARC
  5
181
330
157
100
AcDbEntity
  8
0
  6
Continuous
 62
     0
370
    30
100
AcDbCircle
 10
335.791639
 20
1680.341354
 30
0.0
 40
0.500002700787012
100
AcDbArc
 50
90.000308
 51
179.99969
  0
ARC
  5
182
330
157
100
AcDbEntity
  8
0
  6
Continuous
 62
     0
370
    30
100
AcDbCircle
 10
335.788048
 20
1621.341523
 30
0.0
 40
0.4964121287345906
100
AcDbArc
 50
180.019279
 51
186.968377
  0
LINE
  5
183
330
157
100
AcDbEntity
  8
0
  6
Continuous
 62
     0
370
    30
100
AcDbLine
 10
335.791636
 20
1680.841357
 30
0.0
 11
339.791636
 21
1680.841357
 31
0.0
  0
LINE
  5
184
330
157
100
AcDbEntity
  8
0
  6
Continuous
 62
     0
370
    30
100
AcDbLine
 10
375.996185
 20
1672.44137
 30
0.0
 11
375.996185
 21
1666.341356
 31
0.0
  0
LINE
  5
185
330
157
100
AcDbEntity
  8
0
  6
Continuous
 62
     0
370
     0
100
AcDbLine
 10
375.496185
 20
1672.94137
 30
0.0
 11
375.496185
 21
1666.341356
 31
0.0
  0
LINE
  5
186
330
157
100
AcDbEntity
  8
0
  6
Continuous
 62
     0
370
    30
100
AcDbLine
 10
340.291633
 20
1672.94137
 30
0.0
 11
375.496185
 21
1672.94137
 31
0.0
  0
LINE
  5
187
330
157
100
AcDbEntity
  8
0
  6
Continuous
 62
     0
370
    30
100
AcDbLine
 10
340.291633
 20
1628.74137
 30
0.0
 11
361.600603
 21
1628.74137
 31
0.0
  0
ARC
  5
188
330
157
100
AcDbEntity
  8
0
  6
Continuous
 62
     0
370
    30
100
AcDbCircle
 10
375.496183
 20
1672.441347
 30
0.0
 40
0.5000023267242942
100
AcDbArc
 50
0.006492
 51
89.999735
  0
SPLINE
  5
189
330
157
100
AcDbEntity
  8
0
  6
Continuous
 62
     0
370
    30
100
AcDbSpline
210
0.0
220
0.0
230
1.0
 70
     8
 71
     3
 72
    12
 73
     8
 74
     0
 42
0.000000001
 43
0.0
 40
39.73537657756437
 40
39.73537657756437
 40
39.73537657756437
 40
39.73537657756437
 40
40.55543129233423
 40
42.34514277662964
 40
44.1936440607369
 40
45.92054037732369
 40
47.50758821643601
 40
47.50758821643601
 40
47.50758821643601
 40
47.50758821643601
 10
382.6115624729036
 20
1637.035644123232
 30
0.0
 10
382.7599090655035
 20
1636.931268165825
 30
0.0
 10
383.213611388494
 20
1636.608166832321
 30
0.0
 10
383.8824344599684
 20
1636.11630155987
 30
0.0
 10
384.4789426712657
 20
1635.664643084731
 30
0.0
 10
384.8250112115069
 20
1635.398147158023
 30
0.0
 10
384.898247446691
 20
1635.341371345503
 30
0.0
 10
384.8982421331187
 20
1635.341364518667
 30
0.0
  0
SPLINE
  5
18A
330
157
100
AcDbEntity
  8
0
  6
Continuous
 62
     0
370
    30
100
AcDbSpline
210
0.0
220
0.0
230
1.0
 70
     8
 71
     3
 72
    25
 73
    21
 74
     0
 42
0.000000001
 43
0.0
 40
7.772548747658786
 40
7.772548747658786
 40
7.772548747658786
 40
7.772548747658786
 40
8.6091138190783
 40
10.66263127428183
 40
12.07872010485981
 40
14.06872720782416
 40
17.04115085106039
 40
19.81943828947788
 40
21.60965926824844
 40
23.24081455853636
 40
25.02900395979536
 40
26.24897087222148
 40
28.024017012619
 40
29.83359972852735
 40
31.21865443939172
 40
33.20705812948561
 40
34.07987100534173
 40
36.30636085175861
 40
38.50054424432809
 40
39.73537657756437
 40
39.73537657756437
 40
39.73537657756437
 40
39.73537657756437
 10
360.8983751182154
 20
1635.341484645448
 30
0.0
 10
360.8983787618953
 20
1635.341479947847
 30
0.0
 10
360.9318234423885
 20
1635.36730826674
 30
0.0
 10
361.1545824121511
 20
1635.539711947833
 30
0.0
 10
361.6776273401106
 20
1635.938101459493
 30
0.0
 10
362.5376931834666
 20
1636.579609141211
 30
0.0
 10
363.9513497660398
 20
1637.584838670151
 30
0.0
 10
365.6587484069217
 20
1638.675172863664
 30
0.0
 10
367.2581356490696
 20
1639.546310503933
 30
0.0
 10
368.7256654875857
 20
1640.209855285237
 30
0.0
 10
370.1430309293199
 20
1640.683006690639
 30
0.0
 10
371.6896207094999
 20
1640.993145781934
 30
0.0
 10
373.2984903115465
 20
1641.078227779168
 30
0.0
 10
374.9416869731086
 20
1640.857987858385
 30
0.0
 10
376.5654282983932
 20
1640.401830395225
 30
0.0
 10
377.8000218427235
 20
1639.891354810963
 30
0.0
 10
379.1773080801654
 20
1639.210668609507
 30
0.0
 10
380.4971981469185
 20
1638.451695438959
 30
0.0
 10
381.7314751836155
 20
1637.647195727105
 30
0.0
 10
382.3881832693353
 20
1637.19281266906
 30
0.0
 10
382.6115624729036
 20
1637.035644123232
 30
0.0
  0
LINE
  5
18B
330
157
100
AcDbEntity
  8
0
  6
Continuous
 62
     0
370
     0
100
AcDbLine
 10
415.39825
 20
1650.841356
 30
0.0
 11
415.39825
 21
1635.341356
 31
0.0
  0
LINE
  5
18C
330
157
100
AcDbEntity
  8
0
  6
Continuous
 62
     0
370
     0
100
AcDbLine
 10
415.39825
 20
1666.341356
 30
0.0
 11
415.39825
 21
1650.841356
 31
0.0
  0
LINE
  5
18D
330
157
100
AcDbEntity
  8
0
  6
Continuous
 62
     0
370
     0
100
AcDbLine
 10
355.716377
 20
1650.841356
 30
0.0
 11
355.716377
 21
1666.341356
 31
0.0
  0
LINE
  5
18E
330
157
100
AcDbEntity
  8
0
  6
Continuous
 62
     0
370
     0
100
AcDbLine
 10
355.716377
 20
1635.341356
 30
0.0
 11
355.716377
 21
1650.841356
 31
0.0
  0
SPLINE
  5
18F
330
157
100
AcDbEntity
  8
0
  6
Continuous
 62
     0
370
    30
100
AcDbSpline
210
0.0
220
0.0
230
1.0
 70
     8
 71
     3
 72
    14
 73
    10
 74
     0
 42
0.000000001
 43
0.0
 40
43.0562203923764
 40
43.0562203923764
 40
43.0562203923764
 40
43.0562203923764
 40
43.96676107327994
 40
46.39363209441487
 40
48.68847975546876
 40
50.32293047213209
 40
52.12082948123872
 40
54.5249461884878
 40
55.75826192611281
 40
55.75826192611281
 40
55.75826192611281
 40
55.75826192611281
 10
412.3931337766081
 20
1666.025962912323
 30
0.0
 10
412.5103977398796
 20
1666.082200215937
 30
0.0
 10
412.9059851618085
 20
1666.263921912603
 30
0.0
 10
413.3474535782237
 20
1666.401098958692
 30
0.0
 10
413.4444105156963
 20
1666.234095028037
 30
0.0
 10
413.2379798545336
 20
1665.844329887314
 30
0.0
 10
412.7887998481646
 20
1665.253983227773
 30
0.0
 10
412.1361410575254
 20
1664.519005132943
 30
0.0
 10
411.593046566934
 20
1663.948995416976
 30
0.0
 10
411.3982503476062
 20
1663.748471133821
 30
0.0
  0
SPLINE
  5
190
330
157
100
AcDbEntity
  8
0
  6
Continuous
 62
     0
370
    30
100
AcDbSpline
210
0.0
220
0.0
230
1.0
 70
     8
 71
     3
 72
    14
 73
    10
 74
     0
 42
0.000000001
 43
0.0
 40
0.0
 40
0.0
 40
0.0
 40
0.0
 40
1.46548109743847
 40
4.313054094917441
 40
6.223471220552826
 40
7.638674440930243
 40
9.464006103996347
 40
11.99992921072141
 40
12.70668873802469
 40
12.70668873802469
 40
12.70668873802469
 40
12.70668873802469
 10
390.3982503476062
 20
1663.748471140775
 30
0.0
 10
390.1669563899235
 20
1663.986566361548
 30
0.0
 10
389.5303179538068
 20
1664.65731488
 30
0.0
 10
388.8324955662525
 20
1665.461125300965
 30
0.0
 10
388.4603374460632
 20
1666.002484741286
 30
0.0
 10
388.3641100652376
 20
1666.280076097138
 30
0.0
 10
388.5036511937105
 20
1666.390519329015
 30
0.0
 10
388.9205624919189
 20
1666.251463471071
 30
0.0
 10
389.3123426580162
 20
1666.069623156439
 30
0.0
 10
389.4033640350657
 20
1666.02597125183
 30
0.0
  0
LINE
  5
191
330
157
100
AcDbEntity
  8
0
  6
Continuous
 62
     0
370
    30
100
AcDbLine
 10
411.39825
 20
1637.934242
 30
0.0
 11
411.39825
 21
1663.748471
 31
0.0
  0
SPLINE
  5
192
330
157
100
AcDbEntity
  8
0
  6
Continuous
 62
     0
370
    30
100
AcDbSpline
210
0.0
220
0.0
230
1.0
 70
     8
 71
     3
 72
    17
 73
    13
 74
     0
 42
0.000000001
 43
0.0
 40
37.6902684361032
 40
37.6902684361032
 40
37.6902684361032
 40
37.6902684361032
 40
38.30587744707453
 40
40.15816662020153
 40
42.43550910859309
 40
44.23143292046517
 40
46.43901183415329
 40
48.73654662469729
 40
50.5267926695844
 40
52.36848899723802
 40
54.57984721117069
 40
55.81460708783178
 40
55.81460708783178
 40
55.81460708783178
 40
55.81460708783178
 10
409.4438162391589
 20
1637.18016070032
 30
0.0
 10
409.5843499689498
 20
1637.10959720343
 30
0.0
 10
410.136191835869
 20
1636.829217331793
 30
0.0
 10
411.1055220502442
 20
1636.31836945714
 30
0.0
 10
412.0978452463248
 20
1635.794221810826
 30
0.0
 10
412.8763562033262
 20
1635.425552478054
 30
0.0
 10
413.350784690431
 20
1635.28751020734
 30
0.0
 10
413.4467816235842
 20
1635.452626436182
 30
0.0
 10
413.2213494886914
 20
1635.865446064847
 30
0.0
 10
412.7494200464477
 20
1636.474050172443
 30
0.0
 10
412.1069826928511
 20
1637.19431625596
 30
0.0
 10
411.5930465582531
 20
1637.733717281499
 30
0.0
 10
411.3982503390581
 20
1637.934241564783
 30
0.0
  0
SPLINE
  5
193
330
157
100
AcDbEntity
  8
0
  6
Continuous
 62
     0
370
    30
100
AcDbSpline
210
0.0
220
0.0
230
1.0
 70
     8
 71
     3
 72
    17
 73
    13
 74
     0
 42
0.000000001
 43
0.0
 40
0.0
 40
0.0
 40
0.0
 40
0.0
 40
1.465481097438465
 40
4.313054094917447
 40
6.223471220552837
 40
7.63867444093025
 40
8.452469674433209
 40
9.668750476628226
 40
12.19239626250254
 40
13.3818853394129
 40
16.19605387705125
 40
18.11970112485304
 40
18.11970112485304
 40
18.11970112485304
 40
18.11970112485304
 10
390.3982503390581
 20
1637.934241571737
 30
0.0
 10
390.1669563812178
 20
1637.696146351117
 30
0.0
 10
389.5303179446568
 20
1637.025397833087
 30
0.0
 10
388.8324955565702
 20
1636.221587412583
 30
0.0
 10
388.4603374360224
 20
1635.680227972509
 30
0.0
 10
388.3830760581792
 20
1635.457149605658
 30
0.0
 10
388.4199893779995
 20
1635.353857268415
 30
0.0
 10
388.5916286878415
 20
1635.316559749826
 30
0.0
 10
389.0210324369557
 20
1635.470522809998
 30
0.0
 10
389.8736144719775
 20
1635.883560208345
 30
0.0
 10
390.9008712047436
 20
1636.431465523922
 30
0.0
 10
391.9130130965806
 20
1636.959679592142
 30
0.0
 10
392.3522274470262
 20
1637.180160705979
 30
0.0
  0
LINE
  5
194
330
157
100
AcDbEntity
  8
0
  6
Continuous
 62
     0
370
    30
100
AcDbLine
 10
390.39825
 20
1663.748471
 30
0.0
 11
390.39825
 21
1637.934242
 31
0.0
  0
LINE
  5
195
330
157
100
AcDbEntity
  8
0
  6
Continuous
 62
     0
370
    30
100
AcDbLine
 10
416.39825
 20
1665.341356
 30
0.0
 11
416.39825
 21
1650.841356
 31
0.0
  0
LINE
  5
196
330
157
100
AcDbEntity
  8
0
  6
Continuous
 62
     0
370
    30
100
AcDbLine
 10
416.39825
 20
1650.841356
 30
0.0
 11
416.39825
 21
1636.341356
 31
0.0
  0
LINE
  5
197
330
157
100
AcDbEntity
  8
0
  6
Continuous
 62
     0
370
     0
100
AcDbLine
 10
341.39825
 20
1635.841356
 30
0.0
 11
341.39825
 21
1650.841356
 31
0.0
  0
LINE
  5
198
330
157
100
AcDbEntity
  8
0
  6
Continuous
 62
     0
370
     0
100
AcDbLine
 10
341.39825
 20
1650.841356
 30
0.0
 11
341.39825
 21
1665.841356
 31
0.0
  0
LINE
  5
199
330
157
100
AcDbEntity
  8
0
  6
Continuous
 62
     0
370
    30
100
AcDbLine
 10
355.716377
 20
1666.341356
 30
0.0
 11
341.39825
 21
1665.841356
 31
0.0
  0
LINE
  5
19A
330
157
100
AcDbEntity
  8
0
  6
Continuous
 62
     0
370
    30
100
AcDbLine
 10
355.716377
 20
1635.341356
 30
0.0
 11
341.39825
 21
1635.841356
 31
0.0
  0
LINE
  5
19B
330
157
100
AcDbEntity
  8
0
  6
Continuous
 62
     0
370
    30
100
AcDbLine
 10
340.291636
 20
1665.841356
 30
0.0
 11
341.39825
 21
1665.841356
 31
0.0
  0
LINE
  5
19C
330
157
100
AcDbEntity
  8
0
  6
Continuous
 62
     0
370
    30
100
AcDbLine
 10
340.291636
 20
1635.841356
 30
0.0
 11
341.39825
 21
1635.841356
 31
0.0
  0
ARC
  5
19D
330
157
100
AcDbEntity
  8
0
  6
Continuous
 62
     0
370
    30
100
AcDbCircle
 10
415.398225
 20
1636.341382
 30
0.0
 40
1.000025415542349
100
AcDbArc
 50
270.001456
 51
359.992814
  0
ARC
  5
19E
330
157
100
AcDbEntity
  8
0
  6
Continuous
 62
     0
370
    30
100
AcDbCircle
 10
415.398225
 20
1665.341331
 30
0.0
 40
1.000025415543005
100
AcDbArc
 50
0.007186
 51
89.998544
  0
LINE
  5
19F
330
157
100
AcDbEntity
  8
0
  6
Continuous
 62
     0
370
    30
100
AcDbLine
 10
355.716377
 20
1666.341356
 30
0.0
 11
388.524997
 21
1666.341356
 31
0.0
  0
LINE
  5
1A0
330
157
100
AcDbEntity
  8
0
  6
Continuous
 62
     0
370
    30
100
AcDbLine
 10
413.268021
 20
1666.341356
 30
0.0
 11
415.39825
 21
1666.341356
 31
0.0
  0
LINE
  5
1A1
330
157
100
AcDbEntity
  8
0
  6
Continuous
 62
     0
370
    30
100
AcDbLine
 10
355.716377
 20
1635.341356
 30
0.0
 11
360.898485
 21
1635.341356
 31
0.0
  0
LINE
  5
1A2
330
157
100
AcDbEntity
  8
0
  6
Continuous
 62
     0
370
    30
100
AcDbLine
 10
384.898128
 20
1635.341356
 30
0.0
 11
388.525008
 21
1635.341356
 31
0.0
  0
LINE
  5
1A3
330
157
100
AcDbEntity
  8
0
  6
Continuous
 62
     0
370
    30
100
AcDbLine
 10
413.269248
 20
1635.341356
 30
0.0
 11
415.39825
 21
1635.341356
 31
0.0
  0
LINE
  5
1A4
330
157
100
AcDbEntity
  8
0
  6
Continuous
 62
     0
370
    30
100
AcDbLine
 10
384.298249
 20
1635.801088
 30
0.0
 11
384.298249
 21
1634.841357
 31
0.0
  0
LINE
  5
1A5
330
157
100
AcDbEntity
  8
0
  6
Continuous
 62
     0
370
    30
100
AcDbLine
 10
361.498249
 20
1634.841357
 30
0.0
 11
361.498249
 21
1635.801076
 31
0.0
  0
LINE
  5
1A6
330
157
100
AcDbEntity
  8
0
  6
Continuous
 62
     0
370
    30
100
AcDbLine
 10
381.849826
 20
1634.841357
 30
0.0
 11
361.398249
 21
1634.841357
 31
0.0
  0
LINE
  5
1A7
330
157
100
AcDbEntity
  8
0
  6
Continuous
 62
     0
370
    30
100
AcDbLine
 10
384.398249
 20
1634.841357
 30
0.0
 11
381.849826
 21
1634.841357
 31
0.0
  0
LINE
  5
1A8
330
157
100
AcDbEntity
  8
0
  6
Continuous
 62
     0
370
     0
100
AcDbLine
 10
383.452256
 20
1606.324779
 30
0.0
 11
381.113468
 21
1606.324779
 31
0.0
  0
LINE
  5
1A9
330
157
100
AcDbEntity
  8
0
  6
Continuous
 62
     0
370
     0
100
AcDbLine
 10
381.113468
 20
1606.324779
 30
0.0
 11
362.344241
 21
1606.324779
 31
0.0
  0
LINE
  5
1AA
330
157
100
AcDbEntity
  8
0
  6
Continuous
 62
     0
370
    30
100
AcDbLine
 10
382.952531
 20
1605.841357
 30
0.0
 11
380.724483
 21
1605.841357
 31
0.0
  0
LINE
  5
1AB
330
157
100
AcDbEntity
  8
0
  6
Continuous
 62
     0
370
    30
100
AcDbLine
 10
380.724483
 20
1605.841357
 30
0.0
 11
362.843966
 21
1605.841357
 31
0.0
  0
ARC
  5
1AC
330
157
100
AcDbEntity
  8
0
  6
Continuous
 62
     0
370
    30
100
AcDbCircle
 10
382.952494
 20
1606.34136
 30
0.0
 40
0.5000033224183877
100
AcDbArc
 50
270.000553
 51
358.099632
  0
ARC
  5
1AD
330
157
100
AcDbEntity
  8
0
  6
Continuous
 62
     0
370
    30
100
AcDbCircle
 10
362.84401
 20
1606.34136
 30
0.0
 40
0.5000031532399238
100
AcDbArc
 50
181.90035
 51
269.99943
  0
LINE
  5
1AE
330
157
100
AcDbEntity
  8
0
  6
Continuous
 62
     0
370
    30
100
AcDbLine
 10
361.398249
 20
1634.841357
 30
0.0
 11
362.344241
 21
1606.324779
 31
0.0
  0
LINE
  5
1AF
330
157
100
AcDbEntity
  8
0
  6
Continuous
 62
     0
370
    30
100
AcDbLine
 10
384.398249
 20
1634.841357
 30
0.0
 11
383.452256
 21
1606.324779
 31
0.0
  0
LINE
  5
1B0
330
157
100
AcDbEntity
  8
0
  6
Continuous
 62
     0
370
     0
100
AcDbLine
 10
411.452257
 20
1637.663583
 30
0.0
 11
392.680791
 21
1637.663583
 31
0.0
  0
LINE
  5
1B1
330
157
100
AcDbEntity
  8
0
  6
Continuous
 62
     0
370
     0
100
AcDbLine
 10
392.680791
 20
1637.663583
 30
0.0
 11
390.344242
 21
1637.663583
 31
0.0
  0
LINE
  5
1B2
330
157
100
AcDbEntity
  8
0
  6
Continuous
 62
     0
370
    30
100
AcDbLine
 10
410.952532
 20
1637.180161
 30
0.0
 11
393.069882
 21
1637.180161
 31
0.0
  0
LINE
  5
1B3
330
157
100
AcDbEntity
  8
0
  6
Continuous
 62
     0
370
    30
100
AcDbLine
 10
393.069882
 20
1637.180161
 30
0.0
 11
390.843967
 21
1637.180161
 31
0.0
  0
ARC
  5
1B4
330
157
100
AcDbEntity
  8
0
  6
Continuous
 62
     0
370
    30
100
AcDbCircle
 10
410.952488
 20
1637.680164
 30
0.0
 40
0.5000031545224668
100
AcDbArc
 50
270.00057
 51
358.09965
  0
ARC
  5
1B5
330
157
100
AcDbEntity
  8
0
  6
Continuous
 62
     0
370
    30
100
AcDbCircle
 10
390.844004
 20
1637.680164
 30
0.0
 40
0.5000033238497006
100
AcDbArc
 50
181.900368
 51
269.999447
  0
LINE
  5
1B6
330
157
100
AcDbEntity
  8
0
  6
Continuous
 62
     0
370
    30
100
AcDbLine
 10
390.337347
 20
1637.871425
 30
0.0
 11
390.344242
 21
1637.663583
 31
0.0
  0
LINE
  5
1B7
330
157
100
AcDbEntity
  8
0
  6
Continuous
 62
     0
370
    30
100
AcDbLine
 10
389.398249
 20
1666.180161
 30
0.0
 11
389.445151
 21
1664.766324
 31
0.0
  0
LINE
  5
1B8
330
157
100
AcDbEntity
  8
0
  6
Continuous
 62
     0
370
    30
100
AcDbLine
 10
411.459152
 20
1637.871427
 30
0.0
 11
411.452257
 21
1637.663583
 31
0.0
  0
LINE
  5
1B9
330
157
100
AcDbEntity
  8
0
  6
Continuous
 62
     0
370
    30
100
AcDbLine
 10
412.398249
 20
1666.180161
 30
0.0
 11
412.351348
 21
1664.766329
 31
0.0
  0
LINE
  5
1BA
330
157
100
AcDbEntity
  8
0
  6
Continuous
 62
     0
370
    30
100
AcDbLine
 10
376.096183
 20
1671.191371
 30
0.0
 11
376.096183
 21
1666.341356
 31
0.0
  0
ARC
  5
1BB
330
157
100
AcDbEntity
  8
0
  6
Continuous
 62
     0
370
    30
100
AcDbCircle
 10
374.725731
 20
1650.735277
 30
0.0
 40
20.5019490670825
100
AcDbArc
 50
63.131123
 51
86.167208
  0
LINE
  5
1BC
330
157
100
AcDbEntity
  8
0
  6
Continuous
 62
     0
370
    30
100
AcDbLine
 10
372.898249
 20
1605.841357
 30
0.0
 11
379.898248
 21
1605.839057
 31
0.0
  0
LINE
  5
1BD
330
157
100
AcDbEntity
  8
0
  6
Continuous
 62
     0
370
    30
100
AcDbLine
 10
400.898249
 20
1637.180161
 30
0.0
 11
393.898292
 21
1637.155726
 31
0.0
  0
SPLINE
  5
1BE
330
157
100
AcDbEntity
  8
0
  6
Continuous
 62
     0
370
    30
100
AcDbSpline
210
0.0
220
0.0
230
1.0
 70
     8
 71
     3
 72
    93
 73
    89
 74
     0
 42
0.000000001
 43
0.0
 40
0.0
 40
0.0
 40
0.0
 40
0.0
 40
97.62993292520397
 40
195.6494033416863
 40
241.4992995014932
 40
263.055753292302
 40
283.4794848538406
 40
336.9958298435123
 40
380.1007507659302
 40
409.6938213925724
 40
425.2736803048542
 40
439.5665099321678
 40
457.106410056346
 40
469.3672657118925
 40
486.3752600247204
 40
503.3424476562777
 40
511.0708896631792
 40
519.6866563707946
 40
530.0684641754837
 40
538.1319873983825
 40
544.3271248789621
 40
549.0290864283094
 40
553.349723316098
 40
557.3248834465114
 40
560.9910950361484
 40
566.9303814289343
 40
569.9297846544674
 40
573.8557893717416
 40
579.565970692089
 40
584.4438718613794
 40
589.671070530445
 40
593.9764155287105
 40
598.9100588610441
 40
604.7949116838209
 40
607.6215898420951
 40
612.2000271071768
 40
616.8032386885387
 40
623.1848311588502
 40
630.0323753567627
 40
634.0079723642515
 40
637.8810846495652
 40
643.0653650051888
 40
648.0350224123076
 40
653.353830559241
 40
656.6886461438679
 40
662.5213363761934
 40
668.7499214807757
 40
671.8837491735176
 40
677.3901291008818
 40
681.4631872632937
 40
687.158124283063
 40
691.5701634934508
 40
696.9413059199436
 40
702.8082819404702
 40
708.7527706774888
 40
715.6154036850268
 40
725.1571290769751
 40
733.2942032410207
 40
740.8128405128001
 40
748.8593012046455
 40
757.4508306973852
 40
765.038017548548
 40
775.822647731639
 40
787.3210255391829
 40
812.47436556014
 40
826.123159383718
 40
859.3946370750951
 40
875.1793431429239
 40
901.6500200022795
 40
925.2365894272538
 40
947.5551070956757
 40
970.6235196578004
 40
996.7143342068787
 40
1013.634518978769
 40
1046.454609379378
 40
1061.830623446206
 40
1082.517855490118
 40
1100.726142195335
 40
1131.961671617909
 40
1142.391603503297
 40
1155.657083142161
 40
1177.98608562542
 40
1186.523054839145
 40
1198.184955877065
 40
1213.62027520435
 40
1226.500136259688
 40
1253.034911771297
 40
1282.857923030004
 40
1282.857923030004
 40
1282.857923030004
 40
1282.857923030004
 10
379.8982482461564
 20
1605.839057001434
 30
0.0
 10
379.8359769098903
 20
1573.295806327033
 30
0.0
 10
379.7497205385044
 20
1508.079389546131
 30
0.0
 10
379.6713575730145
 20
1427.579662386794
 30
0.0
 10
379.6053960652069
 20
1372.437760888931
 30
0.0
 10
379.5616354049673
 20
1343.161099619071
 30
0.0
 10
379.5061037475855
 20
1311.328970339895
 30
0.0
 10
379.4067772105986
 20
1272.314092800593
 30
0.0
 10
379.2772849776962
 20
1230.242849071675
 30
0.0
 10
379.2267637350829
 20
1200.816919643289
 30
0.0
 10
379.2504447573361
 20
1180.994993813374
 30
0.0
 10
379.3198428805829
 20
1165.19092542743
 30
0.0
 10
379.4574686966558
 20
1150.493621689154
 30
0.0
 10
379.710209652884
 20
1134.892668297255
 30
0.0
 10
380.0951184198804
 20
1119.485210232879
 30
0.0
 10
380.6516256511483
 20
1105.59447338468
 30
0.0
 10
381.2893036283732
 20
1094.508752959532
 30
0.0
 10
381.932703962182
 20
1085.623043671525
 30
0.0
 10
382.7881757938937
 20
1076.642259582527
 30
0.0
 10
383.8415441341397
 20
1068.495274783941
 30
0.0
 10
384.8824360194569
 20
1062.260263167278
 30
0.0
 10
385.8986623697045
 20
1057.289715087748
 30
0.0
 10
386.923802832575
 20
1053.079293452057
 30
0.0
 10
388.0286881341877
 20
1049.247017806058
 30
0.0
 10
389.4852673277729
 20
1044.959599678206
 30
0.0
 10
391.114834260241
 20
1041.081092998812
 30
0.0
 10
393.1069951486505
 20
1037.281224912232
 30
0.0
 10
395.3316936012814
 20
1033.700570670426
 30
0.0
 10
398.3333101258578
 20
1029.889878656932
 30
0.0
 10
402.1796306371838
 20
1026.264531516007
 30
0.0
 10
406.1376330336139
 20
1023.518869630743
 30
0.0
 10
410.4297405687682
 20
1021.305236533335
 30
0.0
 10
415.1357185258493
 20
1019.479830371125
 30
0.0
 10
419.5182783011784
 20
1018.244699173843
 30
0.0
 10
423.8511153242889
 20
1017.317964811658
 30
0.0
 10
427.8050723984007
 20
1016.682447124836
 30
0.0
 10
432.9693959799576
 20
1016.166803076162
 30
0.0
 10
438.9160716679904
 20
1015.994124670726
 30
0.0
 10
444.6476669888436
 20
1016.345325899281
 30
0.0
 10
449.4954522223654
 20
1017.070514076521
 30
0.0
 10
453.7385574748639
 20
1018.016364340981
 30
0.0
 10
458.1968729677382
 20
1019.449541782585
 30
0.0
 10
462.8918242782241
 20
1021.611465080404
 30
0.0
 10
466.71325182319
 20
1024.087315908833
 30
0.0
 10
470.4418759617414
 20
1027.162712784643
 30
0.0
 10
474.0114227456587
 20
1030.867106491243
 30
0.0
 10
477.0185287097494
 20
1034.955417183946
 30
0.0
 10
479.5912893667022
 20
1039.193923832539
 30
0.0
 10
481.5044214419261
 20
1042.980817500777
 30
0.0
 10
483.4246166144825
 20
1047.699449161459
 30
0.0
 10
484.8512755817948
 20
1052.210965091736
 30
0.0
 10
486.0036921061659
 20
1057.243375415464
 30
0.0
 10
486.7555273378014
 20
1062.410986806175
 30
0.0
 10
487.0482744269252
 20
1068.137396589718
 30
0.0
 10
486.8225165635371
 20
1074.362816852162
 30
0.0
 10
486.0016394862217
 20
1081.77166728516
 30
0.0
 10
484.530002140798
 20
1089.823316289302
 30
0.0
 10
482.6232154645976
 20
1098.004327323442
 30
0.0
 10
480.6153078378113
 20
1105.646175044229
 30
0.0
 10
478.4170653078241
 20
1113.392804718142
 30
0.0
 10
476.1034333246312
 20
1121.129459422062
 30
0.0
 10
473.4538336898775
 20
1129.717867142667
 30
0.0
 10
470.455353143285
 20
1139.212422701781
 30
0.0
 10
465.624712406478
 20
1154.268599302874
 30
0.0
 10
460.4513415477588
 20
1170.217408822698
 30
0.0
 10
453.1321889086386
 20
1193.099897553347
 30
0.0
 10
446.9242367570599
 20
1213.059109357585
 30
0.0
 10
439.8096137801156
 20
1237.208925127608
 30
0.0
 10
433.9230473885054
 20
1258.353212670111
 30
0.0
 10
427.9261521300916
 20
1281.722531023252
 30
0.0
 10
422.6631457066666
 20
1304.104410605773
 30
0.0
 10
417.6927984520464
 20
1327.407474808188
 30
0.0
 10
413.5767412646527
 20
1349.047534013177
 30
0.0
 10
409.3480177706876
 20
1373.969130355173
 30
0.0
 10
406.2005204859212
 20
1395.447483146267
 30
0.0
 10
403.3505560312785
 20
1418.231556783147
 30
0.0
 10
401.3859072625794
 20
1436.21577209594
 30
0.0
 10
399.2179857232989
 20
1459.492675635842
 30
0.0
 10
397.7561033300419
 20
1479.398480490541
 30
0.0
 10
396.7093380568438
 20
1497.678992655226
 30
0.0
 10
395.9671182661706
 20
1513.00268377837
 30
0.0
 10
395.426839909923
 20
1527.703534767446
 30
0.0
 10
395.0068423701816
 20
1541.873283294895
 30
0.0
 10
394.7010681762508
 20
1553.747436467051
 30
0.0
 10
394.412569787355
 20
1567.070040194898
 30
0.0
 10
394.0955438953773
 20
1585.350651519435
 30
0.0
 10
393.8385592404009
 20
1608.428612380757
 30
0.0
 10
393.8265948978676
 20
1627.215053781058
 30
0.0
 10
393.8982918165813
 20
1637.155726225095
 30
0.0
  0
SPLINE
  5
1BF
330
157
100
AcDbEntity
  8
0
  6
Continuous
 62
     0
370
    30
100
AcDbSpline
210
0.0
220
0.0
230
1.0
 70
     8
 71
     3
 72
    95
 73
    91
 74
     0
 42
0.000000001
 43
0.0
 40
0.0023000661463387
 40
0.0023000661463387
 40
0.0023000661463387
 40
0.0023000661463387
 40
97.61447421810304
 40
195.6181212946122
 40
241.4630626824052
 40
263.0183195698717
 40
283.4419139683678
 40
336.965976137923
 40
380.0955784825197
 40
409.7267625082655
 40
425.3387894207557
 40
453.0086881146442
 40
465.5768189832003
 40
483.084089007214
 40
499.0204716106364
 40
508.7968498307685
 40
517.9132330469928
 40
530.3871273697531
 40
537.9293374856426
 40
544.8850696444202
 40
550.2673619301071
 40
556.273269203139
 40
565.3259423268838
 40
572.6424893424102
 40
576.4476731899075
 40
580.8355339041128
 40
587.8646769865092
 40
595.3206746254859
 40
603.2455708860937
 40
609.0992475449796
 40
615.5390278951053
 40
622.7764017851363
 40
630.2417270293731
 40
636.3486700806762
 40
641.8528423815314
 40
644.8525388246013
 40
647.8530917728884
 40
651.6000000985703
 40
660.5203382407437
 40
667.0398753314853
 40
671.246284690897
 40
674.7121627382213
 40
677.4615816989582
 40
680.193797471113
 40
684.9421179117884
 40
692.9941662739496
 40
700.1128970667354
 40
705.3261140801031
 40
711.2390418974385
 40
717.555754687765
 40
724.2227663037487
 40
729.3840525325693
 40
731.9199714991607
 40
736.9119689494523
 40
742.4400072178677
 40
749.4232644534693
 40
757.561414817344
 40
767.4263854768597
 40
776.1834213642776
 40
779.7295773516057
 40
784.5936385228838
 40
796.1584105354309
 40
801.5968178247921
 40
811.2571099137917
 40
822.0059855494202
 40
842.4360890346377
 40
855.0537338705639
 40
871.7883615271805
 40
889.5791235462815
 40
908.4049153698016
 40
925.9828291595659
 40
942.1924360565567
 40
961.1169790447916
 40
987.4183140711677
 40
1010.198107931445
 40
1033.643426832903
 40
1052.794825807638
 40
1085.045766238155
 40
1107.784355060197
 40
1138.511361915062
 40
1171.98333992717
 40
1192.660592037721
 40
1211.455070296347
 40
1225.94110261832
 40
1238.375563776199
 40
1251.566482800024
 40
1272.514469271312
 40
1294.250849818421
 40
1308.843066389525
 40
1326.818127247328
 40
1326.818127247328
 40
1326.818127247328
 40
1326.818127247328
 10
365.8982445943176
 20
1605.841357067943
 30
0.0
 10
365.8358939416466
 20
1573.304026132048
 30
0.0
 10
365.7489026862086
 20
1508.098804507117
 30
0.0
 10
365.6697134340409
 20
1427.611923740179
 30
0.0
 10
365.6039851289763
 20
1372.477347066919
 30
0.0
 10
365.5607318229771
 20
1343.2027813074
 30
0.0
 10
365.5060784448982
 20
1311.36852300421
 30
0.0
 10
365.4089701384567
 20
1272.342885128911
 30
0.0
 10
365.2830238328513
 20
1230.248130490006
 30
0.0
 10
365.2338865987246
 20
1200.79053687507
 30
0.0
 10
365.2621780515428
 20
1176.486179670513
 30
0.0
 10
365.3658647981212
 20
1157.869609314946
 30
0.0
 10
365.6282037890596
 20
1138.622875675316
 30
0.0
 10
365.9619334441483
 20
1123.289003544219
 30
0.0
 10
366.4732517660526
 20
1108.890916181714
 30
0.0
 10
367.0707343630409
 20
1097.296263172761
 30
0.0
 10
367.7708821953206
 20
1086.863878083191
 30
0.0
 10
368.6432704740914
 20
1077.190961139926
 30
0.0
 10
369.7380008692447
 20
1068.266315589869
 30
0.0
 10
370.7474341547258
 20
1061.71595016581
 30
0.0
 10
371.8832621000439
 20
1055.706816348263
 30
0.0
 10
373.406582018235
 20
1049.064139403056
 30
0.0
 10
375.5391649218118
 20
1041.908824802036
 30
0.0
 10
378.0945347572903
 20
1035.678568043202
 30
0.0
 10
380.4666552031446
 20
1031.081944265702
 30
0.0
 10
383.109542817517
 20
1026.745840036277
 30
0.0
 10
386.9481401980989
 20
1021.743678443129
 30
0.0
 10
392.2896393094292
 20
1016.494093403217
 30
0.0
 10
398.0172207517808
 20
1012.303641404103
 30
0.0
 10
403.9063753341823
 20
1009.009544670654
 30
0.0
 10
409.8879231435536
 20
1006.418069789691
 30
0.0
 10
416.6203653598011
 20
1004.300643405279
 30
0.0
 10
423.4279820776563
 20
1002.922871355736
 30
0.0
 10
429.7523405886419
 20
1002.218552163931
 30
0.0
 10
434.6210886239211
 20
1002.020226415688
 30
0.0
 10
438.4563048095612
 20
1002.047781834122
 30
0.0
 10
441.7032834066284
 20
1002.17588635321
 30
0.0
 10
446.9118427810047
 20
1002.571409705802
 30
0.0
 10
453.246824753862
 20
1003.522047178431
 30
0.0
 10
459.5883288056265
 20
1005.189892755678
 30
0.0
 10
464.0416517121009
 20
1006.795525812624
 30
0.0
 10
467.2197023421899
 20
1008.203298110752
 30
0.0
 10
469.866521013789
 20
1009.580726991427
 30
0.0
 10
472.7942426837265
 20
1011.331911256099
 30
0.0
 10
477.023313115291
 20
1014.329399881972
 30
0.0
 10
481.9425513956454
 20
1018.814805069835
 30
0.0
 10
486.3492892523406
 20
1024.000692227975
 30
0.0
 10
489.8376921762966
 20
1028.987897920164
 30
0.0
 10
492.7742628348443
 20
1034.012471870141
 30
0.0
 10
495.4536833211631
 20
1039.720570548362
 30
0.0
 10
497.5000084678268
 20
1045.419473475109
 30
0.0
 10
498.7432082191709
 20
1050.046367713902
 30
0.0
 10
499.6314311030402
 20
1054.182382146103
 30
0.0
 10
500.3375893246799
 20
1058.479004348631
 30
0.0
 10
500.8916599698001
 20
1064.290750117018
 30
0.0
 10
501.0118459818453
 20
1071.178821937478
 30
0.0
 10
500.4543568758862
 20
1079.496405641622
 30
0.0
 10
499.1227066447345
 20
1088.323282218023
 30
0.0
 10
497.5822733942114
 20
1095.552145640808
 30
0.0
 10
496.2473791923991
 20
1101.116767871957
 30
0.0
 10
494.6026013453092
 20
1107.568990768635
 30
0.0
 10
492.6421643926921
 20
1114.590125176635
 30
0.0
 10
490.1289527239021
 20
1123.115256976774
 30
0.0
 10
487.6109036482079
 20
1131.355082645041
 30
0.0
 10
483.5269661057112
 20
1144.341209133474
 30
0.0
 10
479.0479462095753
 20
1158.236087173402
 30
0.0
 10
473.9420418182787
 20
1174.025140905831
 30
0.0
 10
469.1361357202106
 20
1188.986589827009
 30
0.0
 10
463.7919982094833
 20
1205.9484586756
 30
0.0
 10
458.5119575029032
 20
1223.224680699348
 30
0.0
 10
453.5773003508795
 20
1240.054233190108
 30
0.0
 10
448.841324901486
 20
1256.974978127532
 30
0.0
 10
443.5982969736178
 20
1276.771559119045
 30
0.0
 10
438.2202003722718
 20
1298.794537456203
 30
0.0
 10
433.0209792511662
 20
1322.405719780305
 30
0.0
 10
428.7856539057709
 20
1343.783644815364
 30
0.0
 10
424.4215461645195
 20
1368.349248725076
 30
0.0
 10
420.6814285764942
 20
1392.780939839573
 30
0.0
 10
417.0505183933289
 20
1421.122946987154
 30
0.0
 10
414.0422272642628
 20
1449.948017261295
 30
0.0
 10
411.8344336224191
 20
1478.156321906989
 30
0.0
 10
410.4541738994491
 20
1502.432454577232
 30
0.0
 10
409.690780262916
 20
1520.402506080987
 30
0.0
 10
409.1863935365633
 20
1535.632571371355
 30
0.0
 10
408.8215230975546
 20
1548.99809872373
 30
0.0
 10
408.4619355962647
 20
1564.518420316131
 30
0.0
 10
408.1257727289194
 20
1583.140574604377
 30
0.0
 10
407.9107982230266
 20
1602.231697253846
 30
0.0
 10
407.8284579383732
 20
1620.332794482387
 30
0.0
 10
407.8546141729996
 20
1631.188649004938
 30
0.0
 10
407.8980293088214
 20
1637.180160700832
 30
0.0
  0
LINE
  5
1C0
330
157
100
AcDbEntity
  8
0
  6
Continuous
 62
     0
370
    30
100
AcDbLine
 10
412.398246
 20
1673.041371
 30
0.0
 11
413.557686
 21
1673.041371
 31
0.0
  0
LINE
  5
1C1
330
157
100
AcDbEntity
  8
0
  6
Continuous
 62
     0
370
    30
100
AcDbLine
 10
384.484763
 20
1673.041371
 30
0.0
 11
389.398246
 21
1673.041371
 31
0.0
  0
LINE
  5
1C2
330
157
100
AcDbEntity
  8
0
  6
Continuous
 62
     0
370
    30
100
AcDbLine
 10
413.557686
 20
1628.641371
 30
0.0
 11
411.057579
 21
1628.641371
 31
0.0
  0
LINE
  5
1C3
330
157
100
AcDbEntity
  8
0
  6
Continuous
 62
     0
370
    30
100
AcDbLine
 10
388.553088
 20
1628.641371
 30
0.0
 11
384.19257
 21
1628.641371
 31
0.0
  0
SPLINE
  5
1C4
330
157
100
AcDbEntity
  8
0
  6
Continuous
 62
     0
370
    30
100
AcDbSpline
210
0.0
220
0.0
230
1.0
 70
     8
 71
     7
 72
    16
 73
     8
 74
     0
 42
0.000000001
 43
0.0
 40
0.0
 40
0.0
 40
0.0
 40
0.0
 40
0.0
 40
0.0
 40
0.0
 40
0.0
 40
0.7320628382632238
 40
0.7320628382632238
 40
0.7320628382632238
 40
0.7320628382632238
 40
0.7320628382632238
 40
0.7320628382632238
 40
0.7320628382632238
 40
0.7320628382632238
 10
411.0575789305027
 20
1628.641370824688
 30
0.0
 10
410.4804556887832
 20
1628.641370824688
 30
0.0
 10
409.9033324470636
 20
1628.540920928939
 30
0.0
 10
409.3472461106426
 20
1628.33017714077
 30
0.0
 10
408.8408968657883
 20
1628.009931744451
 30
0.0
 10
408.4121844477517
 20
1627.595281336033
 30
0.0
 10
408.079604635366
 20
1627.110394817646
 30
0.0
 10
407.8502287826053
 20
1626.580828163631
 30
0.0
  0
ARC
  5
1C5
330
157
100
AcDbEntity
  8
0
  6
Continuous
 62
     0
370
    30
100
AcDbCircle
 10
393.062378
 20
1624.931462
 30
0.0
 40
3.709912668301854
100
AcDbArc
 50
77.660816
 51
90.082476
  0
LINE
  5
1C6
330
157
100
AcDbEntity
  8
0
  6
Continuous
 62
     0
370
    30
100
AcDbLine
 10
414.057686
 20
1635.341356
 30
0.0
 11
414.057686
 21
1629.141371
 31
0.0
  0
LINE
  5
1C7
330
157
100
AcDbEntity
  8
0
  6
Continuous
 62
     0
370
    30
100
AcDbLine
 10
414.057686
 20
1672.541371
 30
0.0
 11
414.057686
 21
1666.341356
 31
0.0
  0
ARC
  5
1C8
330
157
100
AcDbEntity
  8
0
  6
Continuous
 62
     0
370
    30
100
AcDbCircle
 10
413.557686
 20
1672.541371
 30
0.0
 40
0.4999999999992006
100
AcDbArc
 50
360.0
 51
90.0
  0
ARC
  5
1C9
330
157
100
AcDbEntity
  8
0
  6
Continuous
 62
     0
370
    30
100
AcDbCircle
 10
413.557706
 20
1629.141295
 30
0.0
 40
0.4999240846529822
100
AcDbArc
 50
269.997641
 51
353.108852
  0
LINE
  5
1CA
330
157
100
AcDbEntity
  8
0
  6
Continuous
 62
     0
370
     0
100
AcDbLine
 10
393.057038
 20
1628.641371
 30
0.0
 11
393.163288
 21
1628.687731
 31
0.0
  0
ARC
  5
1CB
330
157
100
AcDbEntity
  8
0
  6
Continuous
 62
     0
370
     0
100
AcDbCircle
 10
400.17425
 20
1604.049623
 30
0.0
 40
26.89239455435042
100
AcDbArc
 50
66.127973
 51
73.396067
  0
ARC
  5
1CC
330
157
100
AcDbEntity
  8
0
  6
Continuous
 62
     0
370
     0
100
AcDbCircle
 10
404.931972
 20
1601.699963
 30
0.0
 40
29.44217240941149
100
AcDbArc
 50
112.097203
 51
113.558506
  0
LINE
  5
1CD
330
157
100
AcDbEntity
  8
0
  6
Continuous
 62
     0
370
     0
100
AcDbLine
 10
413.557686
 20
1666.341356
 30
0.0
 11
413.557686
 21
1673.041371
 31
0.0
  0
LINE
  5
1CE
330
157
100
AcDbEntity
  8
0
  6
Continuous
 62
     0
370
     0
100
AcDbLine
 10
413.557686
 20
1628.641371
 30
0.0
 11
413.557686
 21
1635.341356
 31
0.0
  0
SPLINE
  5
1CF
330
157
100
AcDbEntity
  8
0
  6
Continuous
 62
     0
370
    30
100
AcDbSpline
210
0.0
220
0.0
230
1.0
 70
     8
 71
     3
 72
    11
 73
     7
 74
     0
 42
0.000000001
 43
0.0
 40
0.0
 40
0.0
 40
0.0
 40
0.0
 40
4.86596584551179
 40
8.82662855540262
 40
14.84997455396034
 40
17.69870357406955
 40
17.69870357406955
 40
17.69870357406955
 40
17.69870357406955
 10
384.4847632386155
 20
1673.041370824689
 30
0.0
 10
384.4849895379119
 20
1673.041370805582
 30
0.0
 10
384.4445182008312
 20
1672.715318764295
 30
0.0
 10
384.2593893522952
 20
1671.205251680798
 30
0.0
 10
383.9889949483579
 20
1669.002323415132
 30
0.0
 10
383.745421410892
 20
1667.019765302931
 30
0.0
 10
383.6620886076524
 20
1666.341356358486
 30
0.0
  0
SPLINE
  5
1D0
330
157
100
AcDbEntity
  8
0
  6
Continuous
 62
     0
370
     0
100
AcDbSpline
210
0.0
220
0.0
230
1.0
 70
     8
 71
     3
 72
    16
 73
    12
 74
     0
 42
0.000000001
 43
0.0
 40
0.0
 40
0.0
 40
0.0
 40
0.0
 40
0.6395753837123135
 40
0.9265900730179677
 40
1.335044186078413
 40
1.928327729755832
 40
2.404824764550634
 40
2.826259397373064
 40
3.217023697492708
 40
3.590682680088935
 40
3.956539635010865
 40
3.956539635010865
 40
3.956539635010865
 40
3.956539635010865
 10
388.5530875727086
 20
1628.641370824688
 30
0.0
 10
388.5550078687198
 20
1628.641370822177
 30
0.0
 10
388.594292020872
 20
1628.645974905383
 30
0.0
 10
388.7351797043588
 20
1628.660767847708
 30
0.0
 10
388.9270251054189
 20
1628.679969486036
 30
0.0
 10
389.2329788659429
 20
1628.707344654904
 30
0.0
 10
389.6155715412648
 20
1628.735245404722
 30
0.0
 10
389.9890391105379
 20
1628.756462203167
 30
0.0
 10
390.3595522142649
 20
1628.771517398616
 30
0.0
 10
390.7286953970635
 20
1628.780544286536
 30
0.0
 10
390.9755507587532
 20
1628.782586539924
 30
0.0
 10
391.0975030768305
 20
1628.782585697141
 30
0.0
  0
ARC
  5
1D1
330
157
100
AcDbEntity
  8
0
  6
Continuous
 62
     0
370
     0
100
AcDbCircle
 10
391.099043
 20
1606.51547
 30
0.0
 40
22.26711622853487
100
AcDbArc
 50
84.680898
 51
90.003962
  0
SPLINE
  5
1D2
330
157
100
AcDbEntity
  8
0
  6
Continuous
 62
     0
370
    30
100
AcDbSpline
210
0.0
220
0.0
230
1.0
 70
     8
 71
     3
 72
    23
 73
    19
 74
     0
 42
0.000000001
 43
0.0
 40
0.0018583451879052
 40
0.0018583451879052
 40
0.0018583451879052
 40
0.0018583451879052
 40
0.1542500375607436
 40
0.2687675085986883
 40
0.3831929278871519
 40
0.727746956023692
 40
0.9859682712420115
 40
1.244202415549291
 40
1.838573201404965
 40
2.135698823264323
 40
2.43275265304372
 40
3.027898107633689
 40
3.324948866777137
 40
3.621349968646611
 40
3.918188967266704
 40
4.214281030385266
 40
4.359733995030632
 40
4.505071907675423
 40
4.505071907675423
 40
4.505071907675423
 40
4.505071907675423
 10
388.5549579015941
 20
1628.641515423913
 30
0.0
 10
388.6055934019785
 20
1628.639222685655
 30
0.0
 10
388.6945812823961
 20
1628.635469232017
 30
0.0
 10
388.8215920196691
 20
1628.631225637279
 30
0.0
 10
389.0126914863661
 20
1628.625816166302
 30
0.0
 10
389.2517209244015
 20
1628.621590278585
 30
0.0
 10
389.5387207436075
 20
1628.61964441398
 30
0.0
 10
389.9089986651936
 20
1628.61966327463
 30
0.0
 10
390.2922282892273
 20
1628.622709864336
 30
0.0
 10
390.6883775018207
 20
1628.626796698333
 30
0.0
 10
391.0848048502338
 20
1628.630708417764
 30
0.0
 10
391.4811629912263
 20
1628.633378103343
 30
0.0
 10
391.8773040641531
 20
1628.635139275895
 30
0.0
 10
392.1740959274909
 20
1628.636086642694
 30
0.0
 10
392.4704600210571
 20
1628.636891556889
 30
0.0
 10
392.7167083804047
 20
1628.63786594068
 30
0.0
 10
392.9117034262574
 20
1628.639803666669
 30
0.0
 10
393.0091816610402
 20
1628.640249559694
 30
0.0
 10
393.0570394694803
 20
1628.641343381955
 30
0.0
  0
ARC
  5
1D3
330
157
100
AcDbEntity
  8
0
  6
Continuous
 62
     0
370
    30
100
AcDbCircle
 10
413.561273
 20
1629.141538
 30
0.0
 40
0.4964123107397146
100
AcDbArc
 50
353.031624
 51
359.980721
  0
ENDBLK
  5
1D5
330
157
100
AcDbEntity
  8
0
100
AcDbBlockEnd
  0
BLOCK
  5
240
330
1D7
100
AcDbEntity
  8
0
100
AcDbBlockBegin
  2
d
 70
     0
 10
-32.570404
 20
-0.000122
 30
0.0
  3
d
  1

  0
LINE
  5
1D8
330
1D7
100
AcDbEntity
  8
0
  6
Continuous
 62
     0
370
    30
100
AcDbLine
 10
-135.664373
 20
1744.680283
 30
0.0
 11
-137.664373
 21
1747.680283
 31
0.0
  0
LINE
  5
1D9
330
1D7
100
AcDbEntity
  8
0
  6
Continuous
 62
     0
370
    30
100
AcDbLine
 10
-137.664373
 20
1747.680283
 30
0.0
 11
-137.664373
 21
1773.222243
 31
0.0
  0
LINE
  5
1DA
330
1D7
100
AcDbEntity
  8
0
  6
Continuous
 62
     0
370
    30
100
AcDbLine
 10
-134.164373
 20
1744.680283
 30
0.0
 11
-134.664373
 21
1744.680283
 31
0.0
  0
LINE
  5
1DB
330
1D7
100
AcDbEntity
  8
0
  6
Continuous
 62
     0
370
    30
100
AcDbLine
 10
-134.664373
 20
1744.680283
 30
0.0
 11
-135.664373
 21
1744.680283
 31
0.0
  0
LINE
  5
1DC
330
1D7
100
AcDbEntity
  8
0
  6
Continuous
 62
     0
370
     0
100
AcDbLine
 10
-134.164373
 20
1776.180283
 30
0.0
 11
-134.664373
 21
1776.180283
 31
0.0
  0
LINE
  5
1DD
330
1D7
100
AcDbEntity
  8
0
  6
Continuous
 62
     0
370
     0
100
AcDbLine
 10
-134.664373
 20
1776.180283
 30
0.0
 11
-134.664373
 21
1744.680283
 31
0.0
  0
LINE
  5
1DE
330
1D7
100
AcDbEntity
  8
0
  6
Continuous
 62
     0
370
    30
100
AcDbLine
 10
-134.164373
 20
1776.180283
 30
0.0
 11
-134.164373
 21
1744.680283
 31
0.0
  0
LINE
  5
1DF
330
1D7
100
AcDbEntity
  8
0
  6
Continuous
 62
     0
370
    30
100
AcDbLine
 10
-134.164373
 20
1784.180283
 30
0.0
 11
-134.164373
 21
1776.180283
 31
0.0
  0
LINE
  5
1E0
330
1D7
100
AcDbEntity
  8
0
  6
Continuous
 62
     0
370
    30
100
AcDbLine
 10
-137.664373
 20
1784.680283
 30
0.0
 11
-134.664373
 21
1784.680283
 31
0.0
  0
LINE
  5
1E1
330
1D7
100
AcDbEntity
  8
0
  6
Continuous
 62
     0
370
     0
100
AcDbLine
 10
-137.664373
 20
1776.180283
 30
0.0
 11
-134.664373
 21
1776.180283
 31
0.0
  0
LINE
  5
1E2
330
1D7
100
AcDbEntity
  8
0
  6
Continuous
 62
     0
370
     0
100
AcDbLine
 10
-134.664373
 20
1784.680283
 30
0.0
 11
-134.664373
 21
1776.180283
 31
0.0
  0
ARC
  5
1E3
330
1D7
100
AcDbEntity
  8
0
  6
Continuous
 62
     0
370
    30
100
AcDbCircle
 10
-134.664373
 20
1784.180283
 30
0.0
 40
0.5
100
AcDbArc
 50
0.0
 51
90.0
  0
LINE
  5
1E4
330
1D7
100
AcDbEntity
  8
0
  6
Continuous
 62
     0
370
    30
100
AcDbLine
 10
-169.186128
 20
1673.180283
 30
0.0
 11
-169.186128
 21
1760.180283
 31
0.0
  0
LINE
  5
1E5
330
1D7
100
AcDbEntity
  8
0
  6
Continuous
 62
     0
370
    30
100
AcDbLine
 10
-170.770623
 20
1760.180283
 30
0.0
 11
-147.76032
 21
1760.180283
 31
0.0
  0
LINE
  5
1E6
330
1D7
100
AcDbEntity
  8
0
  6
Continuous
 62
     0
370
    30
100
AcDbLine
 10
-186.264373
 20
1788.180283
 30
0.0
 11
-186.264373
 21
1764.180283
 31
0.0
  0
LINE
  5
1E7
330
1D7
100
AcDbEntity
  8
0
  6
Continuous
 62
     0
370
    30
100
AcDbLine
 10
-137.664373
 20
1785.180283
 30
0.0
 11
-137.664373
 21
1773.222243
 31
0.0
  0
LINE
  5
1E8
330
1D7
100
AcDbEntity
  8
0
  6
Continuous
 62
     0
370
    30
100
AcDbLine
 10
-147.782224
 20
1673.180283
 30
0.0
 11
-170.782224
 21
1673.180283
 31
0.0
  0
LINE
  5
1E9
330
1D7
100
AcDbEntity
  8
0
  6
Continuous
 62
     0
370
    30
100
AcDbLine
 10
-170.782224
 20
1673.180283
 30
0.0
 11
-170.782224
 21
1673.041493
 31
0.0
  0
LINE
  5
1EA
330
1D7
100
AcDbEntity
  8
0
  6
Continuous
 62
     0
370
    30
100
AcDbLine
 10
-170.770623
 20
1760.180283
 30
0.0
 11
-170.770623
 21
1764.180283
 31
0.0
  0
SPLINE
  5
1EB
330
1D7
100
AcDbEntity
  8
0
  6
Continuous
 62
     0
370
    30
100
AcDbSpline
210
0.0
220
0.0
230
1.0
 70
     8
 71
     3
 72
    17
 73
    13
 74
     0
 42
0.000000001
 43
0.0
 40
0.8655205424727439
 40
0.8655205424727439
 40
0.8655205424727439
 40
0.8655205424727439
 40
1.839404007071455
 40
2.673106884942949
 40
3.683981567028515
 40
5.038704091578599
 40
7.442469398457746
 40
9.199229944207579
 40
11.45304524476668
 40
13.32646705420494
 40
14.80084976219521
 40
16.41622716199696
 40
16.41622716199696
 40
16.41622716199696
 40
16.41622716199696
 10
-155.4733185097722
 20
1771.387993852892
 30
0.0
 10
-155.1857424448449
 20
1771.275418287287
 30
0.0
 10
-154.6719334419039
 20
1771.032644163889
 30
0.0
 10
-153.9200422559164
 20
1770.598026876245
 30
0.0
 10
-153.1157446902027
 20
1770.066104724704
 30
0.0
 10
-151.9973983162726
 20
1769.239941517014
 30
0.0
 10
-150.8351682737209
 20
1768.286730242629
 30
0.0
 10
-149.6620979749664
 20
1767.272851440165
 30
0.0
 10
-148.7730655393086
 20
1766.477600776911
 30
0.0
 10
-148.1642882189857
 20
1765.923167895739
 30
0.0
 10
-147.8330696435475
 20
1765.618979450604
 30
0.0
 10
-147.7605615826102
 20
1765.552157329994
 30
0.0
 10
-147.7604179346253
 20
1765.552006735232
 30
0.0
  0
ARC
  5
1EC
330
1D7
100
AcDbEntity
  8
0
  6
Continuous
 62
     0
370
    30
100
AcDbCircle
 10
-150.330292
 20
1784.634818
 30
0.0
 40
14.21017519447412
100
AcDbArc
 50
241.706968
 51
248.781481
  0
SPLINE
  5
1ED
330
1D7
100
AcDbEntity
  8
0
  6
Continuous
 62
     0
370
    30
100
AcDbSpline
210
0.0
220
0.0
230
1.0
 70
     8
 71
     3
 72
    23
 73
    19
 74
     0
 42
0.000000001
 43
0.0
 40
0.0
 40
0.0
 40
0.0
 40
0.0
 40
1.678657853544623
 40
3.874573646148134
 40
6.215435818128351
 40
8.390643177826933
 40
10.79448285487984
 40
12.36258911970167
 40
14.65768741767781
 40
15.97768852243423
 40
17.16132614905511
 40
18.09320347128942
 40
19.07207312952277
 40
19.88598891767007
 40
20.63638172615725
 40
21.26351452250154
 40
22.26211593908337
 40
22.70410263216033
 40
22.70410263216033
 40
22.70410263216033
 40
22.70410263216033
 10
-170.7706234958283
 20
1764.180282769293
 30
0.0
 10
-170.7706235202467
 20
1764.180282769293
 30
0.0
 10
-170.675694043535
 20
1764.271331907236
 30
0.0
 10
-170.188290302162
 20
1764.738009279238
 30
0.0
 10
-169.3137101589651
 20
1765.570729115147
 30
0.0
 10
-168.1485298582493
 20
1766.668343451258
 30
0.0
 10
-166.9377550733845
 20
1767.789592930583
 30
0.0
 10
-165.5852726952748
 20
1769.006784905059
 30
0.0
 10
-164.3818008678815
 20
1770.047255122564
 30
0.0
 10
-163.1888439292684
 20
1770.994423144163
 30
0.0
 10
-162.285128767979
 20
1771.640664737455
 30
0.0
 10
-161.4190059872491
 20
1772.166625064701
 30
0.0
 10
-160.6003150715828
 20
1772.546440390647
 30
0.0
 10
-159.7776626721269
 20
1772.760690500781
 30
0.0
 10
-159.04268160691
 20
1772.785961059036
 30
0.0
 10
-158.2593596473798
 20
1772.652762285709
 30
0.0
 10
-157.6165010017489
 20
1772.406251137295
 30
0.0
 10
-157.1933826700858
 20
1772.191423944867
 30
0.0
 10
-157.0656586672003
 20
1772.122294227886
 30
0.0
  0
ARC
  5
1EE
330
1D7
100
AcDbEntity
  8
0
  6
Continuous
 62
     0
370
    30
100
AcDbCircle
 10
-157.065647
 20
1778.180283
 30
0.0
 40
10.0
100
AcDbArc
 50
80.837653
 51
90.0
  0
LINE
  5
1EF
330
1D7
100
AcDbEntity
  8
0
  6
Continuous
 62
     0
370
     0
100
AcDbLine
 10
-157.065647
 20
1788.180283
 30
0.0
 11
-157.065647
 21
1772.122289
 31
0.0
  0
LINE
  5
1F0
330
1D7
100
AcDbEntity
  8
0
  6
Continuous
 62
     0
370
     0
100
AcDbLine
 10
-155.473322
 20
1788.052694
 30
0.0
 11
-155.473322
 21
1771.387986
 31
0.0
  0
LINE
  5
1F1
330
1D7
100
AcDbEntity
  8
0
  6
Continuous
 62
     0
370
    30
100
AcDbLine
 10
-186.264373
 20
1788.180283
 30
0.0
 11
-157.065647
 21
1788.180283
 31
0.0
  0
LINE
  5
1F2
330
1D7
100
AcDbEntity
  8
0
  6
Continuous
 62
     0
370
    30
100
AcDbLine
 10
-155.473322
 20
1788.052694
 30
0.0
 11
-137.664373
 21
1785.180283
 31
0.0
  0
LINE
  5
1F3
330
1D7
100
AcDbEntity
  8
0
  6
Continuous
 62
     0
370
    30
100
AcDbLine
 10
-137.664373
 20
1767.180283
 30
0.0
 11
-147.760454
 21
1765.551883
 31
0.0
  0
LINE
  5
1F4
330
1D7
100
AcDbEntity
  8
0
  6
Continuous
 62
     0
370
    30
100
AcDbLine
 10
-186.264373
 20
1764.180283
 30
0.0
 11
-170.770623
 21
1764.180283
 31
0.0
  0
LINE
  5
1F5
330
1D7
100
AcDbEntity
  8
0
  6
Continuous
 62
     0
370
    30
100
AcDbLine
 10
-147.76032
 20
1760.180283
 30
0.0
 11
-147.76032
 21
1765.551919
 31
0.0
  0
LINE
  5
1F6
330
1D7
100
AcDbEntity
  8
0
  6
Continuous
 62
     0
370
    30
100
AcDbLine
 10
-147.782224
 20
1673.180283
 30
0.0
 11
-147.782224
 21
1673.041493
 31
0.0
  0
LINE
  5
1F7
330
1D7
100
AcDbEntity
  8
0
  6
Continuous
 62
     0
370
    30
100
AcDbLine
 10
-149.186118
 20
1673.180283
 30
0.0
 11
-149.186118
 21
1760.180283
 31
0.0
  0
LINE
  5
1F8
330
1D7
100
AcDbEntity
  8
0
  6
Continuous
 62
     0
370
     0
100
AcDbLine
 10
-94.175615
 20
1680.841492
 30
0.0
 11
-94.175615
 21
1664.105223
 31
0.0
  0
LINE
  5
1F9
330
1D7
100
AcDbEntity
  8
0
  6
Continuous
 62
     0
370
     0
100
AcDbLine
 10
-94.175615
 20
1664.105223
 30
0.0
 11
-94.175615
 21
1620.841492
 31
0.0
  0
LINE
  5
1FA
330
1D7
100
AcDbEntity
  8
0
  6
Continuous
 62
     0
370
     0
100
AcDbLine
 10
-98.175615
 20
1664.105223
 30
0.0
 11
-98.175615
 21
1620.841492
 31
0.0
  0
LINE
  5
1FB
330
1D7
100
AcDbEntity
  8
0
  6
Continuous
 62
     0
370
     0
100
AcDbLine
 10
-98.175615
 20
1680.841492
 30
0.0
 11
-98.175615
 21
1664.105223
 31
0.0
  0
LINE
  5
1FC
330
1D7
100
AcDbEntity
  8
0
  6
Continuous
 62
     0
370
    30
100
AcDbLine
 10
-98.675615
 20
1680.341492
 30
0.0
 11
-98.675615
 21
1663.88416
 31
0.0
  0
LINE
  5
1FD
330
1D7
100
AcDbEntity
  8
0
  6
Continuous
 62
     0
370
    30
100
AcDbLine
 10
-98.675615
 20
1663.88416
 30
0.0
 11
-98.675615
 21
1621.341492
 31
0.0
  0
LINE
  5
1FE
330
1D7
100
AcDbEntity
  8
0
  6
Continuous
 62
     0
370
    30
100
AcDbLine
 10
-93.675615
 20
1680.341492
 30
0.0
 11
-93.675615
 21
1663.88416
 31
0.0
  0
LINE
  5
1FF
330
1D7
100
AcDbEntity
  8
0
  6
Continuous
 62
     0
370
    30
100
AcDbLine
 10
-93.675615
 20
1663.88416
 30
0.0
 11
-93.675615
 21
1621.341492
 31
0.0
  0
ARC
  5
200
330
1D7
100
AcDbEntity
  8
0
  6
Continuous
 62
     0
370
    30
100
AcDbCircle
 10
-94.175618
 20
1680.341496
 30
0.0
 40
0.500002595772939
100
AcDbArc
 50
0.008193
 51
89.999704
  0
ARC
  5
201
330
1D7
100
AcDbEntity
  8
0
  6
Continuous
 62
     0
370
    30
100
AcDbCircle
 10
-94.175618
 20
1621.341514
 30
0.0
 40
0.5000023673730151
100
AcDbArc
 50
270.00027
 51
359.991754
  0
ARC
  5
202
330
1D7
100
AcDbEntity
  8
0
  6
Continuous
 62
     0
370
    30
100
AcDbCircle
 10
-98.175612
 20
1680.341496
 30
0.0
 40
0.5000028258224689
100
AcDbArc
 50
90.000323
 51
179.991781
  0
ARC
  5
203
330
1D7
100
AcDbEntity
  8
0
  6
Continuous
 62
     0
370
    30
100
AcDbCircle
 10
-98.175613
 20
1621.341514
 30
0.0
 40
0.5000025984599905
100
AcDbArc
 50
180.008273
 51
269.999703
  0
LINE
  5
204
330
1D7
100
AcDbEntity
  8
0
  6
Continuous
 62
     0
370
    30
100
AcDbLine
 10
-98.175615
 20
1620.841492
 30
0.0
 11
-94.175615
 21
1620.841492
 31
0.0
  0
LINE
  5
205
330
1D7
100
AcDbEntity
  8
0
  6
Continuous
 62
     0
370
    30
100
AcDbLine
 10
-98.175615
 20
1680.841492
 30
0.0
 11
-94.175615
 21
1680.841492
 31
0.0
  0
LINE
  5
206
330
1D7
100
AcDbEntity
  8
0
  6
Continuous
 62
     0
370
    30
100
AcDbLine
 10
-134.380167
 20
1629.241492
 30
0.0
 11
-134.380167
 21
1665.705826
 31
0.0
  0
LINE
  5
207
330
1D7
100
AcDbEntity
  8
0
  6
Continuous
 62
     0
370
    30
100
AcDbLine
 10
-134.380167
 20
1665.705826
 30
0.0
 11
-134.380167
 21
1672.441492
 31
0.0
  0
LINE
  5
208
330
1D7
100
AcDbEntity
  8
0
  6
Continuous
 62
     0
370
     0
100
AcDbLine
 10
-133.880167
 20
1666.049907
 30
0.0
 11
-133.880167
 21
1672.941492
 31
0.0
  0
LINE
  5
209
330
1D7
100
AcDbEntity
  8
0
  6
Continuous
 62
     0
370
     0
100
AcDbLine
 10
-133.880167
 20
1628.741492
 30
0.0
 11
-133.880167
 21
1666.049907
 31
0.0
  0
LINE
  5
20A
330
1D7
100
AcDbEntity
  8
0
  6
Continuous
 62
     0
370
    30
100
AcDbLine
 10
-98.675615
 20
1672.941492
 30
0.0
 11
-133.880167
 21
1672.941492
 31
0.0
  0
LINE
  5
20B
330
1D7
100
AcDbEntity
  8
0
  6
Continuous
 62
     0
370
    30
100
AcDbLine
 10
-98.675615
 20
1628.741492
 30
0.0
 11
-133.880167
 21
1628.741492
 31
0.0
  0
ARC
  5
20C
330
1D7
100
AcDbEntity
  8
0
  6
Continuous
 62
     0
370
    30
100
AcDbCircle
 10
-133.880165
 20
1629.241513
 30
0.0
 40
0.5000023775309315
100
AcDbArc
 50
180.005533
 51
269.999729
  0
ARC
  5
20D
330
1D7
100
AcDbEntity
  8
0
  6
Continuous
 62
     0
370
    30
100
AcDbCircle
 10
-133.880165
 20
1672.441469
 30
0.0
 40
0.5000023267214821
100
AcDbArc
 50
90.000265
 51
179.993508
  0
LINE
  5
20E
330
1D7
100
AcDbEntity
  8
0
  6
Continuous
 62
     0
370
    30
100
AcDbLine
 10
-134.480163
 20
1640.522703
 30
0.0
 11
-134.380164
 21
1640.553259
 31
0.0
  0
LINE
  5
20F
330
1D7
100
AcDbEntity
  8
0
  6
Continuous
 62
     0
370
     0
100
AcDbLine
 10
-173.782225
 20
1635.341478
 30
0.0
 11
-173.782225
 21
1650.841478
 31
0.0
  0
LINE
  5
210
330
1D7
100
AcDbEntity
  8
0
  6
Continuous
 62
     0
370
     0
100
AcDbLine
 10
-173.782225
 20
1650.841478
 30
0.0
 11
-173.782225
 21
1666.341478
 31
0.0
  0
LINE
  5
211
330
1D7
100
AcDbEntity
  8
0
  6
Continuous
 62
     0
370
    30
100
AcDbLine
 10
-174.782225
 20
1650.841478
 30
0.0
 11
-174.782225
 21
1665.341478
 31
0.0
  0
LINE
  5
212
330
1D7
100
AcDbEntity
  8
0
  6
Continuous
 62
     0
370
    30
100
AcDbLine
 10
-174.782225
 20
1636.341478
 30
0.0
 11
-174.782225
 21
1650.841478
 31
0.0
  0
ARC
  5
213
330
1D7
100
AcDbEntity
  8
0
  6
Continuous
 62
     0
370
    30
100
AcDbCircle
 10
-173.7822
 20
1636.341504
 30
0.0
 40
1.00002541554157
100
AcDbArc
 50
180.007186
 51
269.998544
  0
ARC
  5
214
330
1D7
100
AcDbEntity
  8
0
  6
Continuous
 62
     0
370
    30
100
AcDbCircle
 10
-173.7822
 20
1665.341453
 30
0.0
 40
1.00002541554274
100
AcDbArc
 50
90.001456
 51
179.992814
  0
LINE
  5
215
330
1D7
100
AcDbEntity
  8
0
  6
Continuous
 62
     0
370
    30
100
AcDbLine
 10
-134.380163
 20
1666.341478
 30
0.0
 11
-134.480162
 21
1666.341478
 31
0.0
  0
LINE
  5
216
330
1D7
100
AcDbEntity
  8
0
  6
Continuous
 62
     0
370
    30
100
AcDbLine
 10
-172.441664
 20
1666.341478
 30
0.0
 11
-173.782225
 21
1666.341478
 31
0.0
  0
LINE
  5
217
330
1D7
100
AcDbEntity
  8
0
  6
Continuous
 62
     0
370
    30
100
AcDbLine
 10
-172.441664
 20
1635.341478
 30
0.0
 11
-173.782225
 21
1635.341478
 31
0.0
  0
LINE
  5
218
330
1D7
100
AcDbEntity
  8
0
  6
Continuous
 62
     0
370
    30
100
AcDbLine
 10
-134.380164
 20
1634.841479
 30
0.0
 11
-134.480162
 21
1634.841479
 31
0.0
  0
LINE
  5
219
330
1D7
100
AcDbEntity
  8
0
  6
Continuous
 62
     0
370
     0
100
AcDbLine
 10
-123.067005
 20
1606.324902
 30
0.0
 11
-141.836231
 21
1606.324902
 31
0.0
  0
LINE
  5
21A
330
1D7
100
AcDbEntity
  8
0
  6
Continuous
 62
     0
370
     0
100
AcDbLine
 10
-120.728216
 20
1606.324902
 30
0.0
 11
-123.067005
 21
1606.324902
 31
0.0
  0
LINE
  5
21B
330
1D7
100
AcDbEntity
  8
0
  6
Continuous
 62
     0
370
    30
100
AcDbLine
 10
-123.45599
 20
1605.841479
 30
0.0
 11
-141.336506
 21
1605.841479
 31
0.0
  0
LINE
  5
21C
330
1D7
100
AcDbEntity
  8
0
  6
Continuous
 62
     0
370
    30
100
AcDbLine
 10
-121.227941
 20
1605.841479
 30
0.0
 11
-123.45599
 21
1605.841479
 31
0.0
  0
ARC
  5
21D
330
1D7
100
AcDbEntity
  8
0
  6
Continuous
 62
     0
370
    30
100
AcDbCircle
 10
-141.336469
 20
1606.341482
 30
0.0
 40
0.5000033224182912
100
AcDbArc
 50
181.900368
 51
269.999447
  0
ARC
  5
21E
330
1D7
100
AcDbEntity
  8
0
  6
Continuous
 62
     0
370
    30
100
AcDbCircle
 10
-121.227985
 20
1606.341482
 30
0.0
 40
0.5000031532393685
100
AcDbArc
 50
270.00057
 51
358.09965
  0
LINE
  5
21F
330
1D7
100
AcDbEntity
  8
0
  6
Continuous
 62
     0
370
    30
100
AcDbLine
 10
-119.984581
 20
1628.741492
 30
0.0
 11
-120.728216
 21
1606.324902
 31
0.0
  0
LINE
  5
220
330
1D7
100
AcDbEntity
  8
0
  6
Continuous
 62
     0
370
    30
100
AcDbLine
 10
-142.576549
 20
1628.641493
 30
0.0
 11
-141.836231
 21
1606.324902
 31
0.0
  0
LINE
  5
221
330
1D7
100
AcDbEntity
  8
0
  6
Continuous
 62
     0
370
    30
100
AcDbLine
 10
-134.480166
 20
1630.491493
 30
0.0
 11
-134.480166
 21
1670.749325
 31
0.0
  0
LINE
  5
222
330
1D7
100
AcDbEntity
  8
0
  6
Continuous
 62
     0
370
    30
100
AcDbLine
 10
-134.480166
 20
1670.74933
 30
0.0
 11
-134.480166
 21
1671.189935
 31
0.0
  0
ARC
  5
223
330
1D7
100
AcDbEntity
  8
0
  6
Continuous
 62
     0
370
    30
100
AcDbCircle
 10
-133.109714
 20
1650.735399
 30
0.0
 40
20.50194906708369
100
AcDbArc
 50
93.832792
 51
116.868876
  0
ARC
  5
224
330
1D7
100
AcDbEntity
  8
0
  6
Continuous
 62
     0
370
    30
100
AcDbCircle
 10
-133.110145
 20
1650.945736
 30
0.0
 40
20.50007391157047
100
AcDbArc
 50
257.054833
 51
266.168065
  0
LINE
  5
225
330
1D7
100
AcDbEntity
  8
0
  6
Continuous
 62
     0
370
    30
100
AcDbLine
 10
-138.282223
 20
1605.839179
 30
0.0
 11
-131.282224
 21
1605.841479
 31
0.0
  0
SPLINE
  5
226
330
1D7
100
AcDbEntity
  8
0
  6
Continuous
 62
     0
370
    30
100
AcDbSpline
210
0.0
220
0.0
230
1.0
 70
     8
 71
     3
 72
    93
 73
    89
 74
     0
 42
0.000000001
 43
0.0
 40
0.0
 40
0.0
 40
0.0
 40
0.0
 40
97.62993292520397
 40
195.6494033416863
 40
241.4992995014932
 40
263.055753292302
 40
283.4794848538406
 40
336.9958298435123
 40
380.1007507659302
 40
409.6938213925724
 40
425.2736803048542
 40
439.5665099321678
 40
457.106410056346
 40
469.3672657118925
 40
486.3752600247204
 40
503.3424476562777
 40
511.0708896631792
 40
519.6866563707946
 40
530.0684641754837
 40
538.1319873983825
 40
544.3271248789621
 40
549.0290864283094
 40
553.349723316098
 40
557.3248834465114
 40
560.9910950361484
 40
566.9303814289343
 40
569.9297846544674
 40
573.8557893717416
 40
579.565970692089
 40
584.4438718613794
 40
589.671070530445
 40
593.9764155287105
 40
598.9100588610441
 40
604.7949116838209
 40
607.6215898420951
 40
612.2000271071768
 40
616.8032386885387
 40
623.1848311588502
 40
630.0323753567627
 40
634.0079723642515
 40
637.8810846495652
 40
643.0653650051888
 40
648.0350224123076
 40
653.353830559241
 40
656.6886461438679
 40
662.5213363761934
 40
668.7499214807757
 40
671.8837491735176
 40
677.3901291008818
 40
681.4631872632937
 40
687.158124283063
 40
691.5701634934508
 40
696.9413059199436
 40
702.8082819404702
 40
708.7527706774888
 40
715.6154036850268
 40
725.1571290769751
 40
733.2942032410207
 40
740.8128405128001
 40
748.8593012046455
 40
757.4508306973852
 40
765.038017548548
 40
775.822647731639
 40
787.3210255391829
 40
812.47436556014
 40
826.123159383718
 40
859.3946370750951
 40
875.1793431429239
 40
901.6500200022795
 40
925.2365894272538
 40
947.5551070956757
 40
970.6235196578004
 40
996.7143342068787
 40
1013.634518978769
 40
1046.454609379378
 40
1061.830623446206
 40
1082.517855490118
 40
1100.726142195335
 40
1131.961671617909
 40
1142.391603503297
 40
1155.657083142161
 40
1177.98608562542
 40
1186.523054839145
 40
1198.184955877065
 40
1213.62027520435
 40
1226.500136259688
 40
1253.034911771297
 40
1274.257710151591
 40
1274.257710151591
 40
1274.257710151591
 40
1274.257710151591
 10
-138.2822233545152
 20
1605.839179071747
 30
0.0
 10
-138.2199520182492
 20
1573.295928397346
 30
0.0
 10
-138.1336956468633
 20
1508.079511616444
 30
0.0
 10
-138.0553326813734
 20
1427.579784457106
 30
0.0
 10
-137.9893711735658
 20
1372.437882959243
 30
0.0
 10
-137.9456105133262
 20
1343.161221689384
 30
0.0
 10
-137.8900788559444
 20
1311.329092410207
 30
0.0
 10
-137.7907523189574
 20
1272.314214870906
 30
0.0
 10
-137.6612600860551
 20
1230.242971141988
 30
0.0
 10
-137.6107388434418
 20
1200.817041713601
 30
0.0
 10
-137.634419865695
 20
1180.995115883687
 30
0.0
 10
-137.7038179889417
 20
1165.191047497743
 30
0.0
 10
-137.8414438050147
 20
1150.493743759466
 30
0.0
 10
-138.0941847612429
 20
1134.892790367568
 30
0.0
 10
-138.4790935282392
 20
1119.485332303191
 30
0.0
 10
-139.0356007595072
 20
1105.594595454992
 30
0.0
 10
-139.673278736732
 20
1094.508875029845
 30
0.0
 10
-140.3166790705408
 20
1085.623165741837
 30
0.0
 10
-141.1721509022526
 20
1076.64238165284
 30
0.0
 10
-142.2255192424985
 20
1068.495396854253
 30
0.0
 10
-143.2664111278158
 20
1062.26038523759
 30
0.0
 10
-144.2826374780634
 20
1057.289837158061
 30
0.0
 10
-145.3077779409338
 20
1053.079415522369
 30
0.0
 10
-146.4126632425466
 20
1049.247139876371
 30
0.0
 10
-147.8692424361317
 20
1044.959721748518
 30
0.0
 10
-149.4988093685998
 20
1041.081215069124
 30
0.0
 10
-151.4909702570094
 20
1037.281346982545
 30
0.0
 10
-153.7156687096403
 20
1033.700692740738
 30
0.0
 10
-156.7172852342166
 20
1029.890000727245
 30
0.0
 10
-160.5636057455426
 20
1026.26465358632
 30
0.0
 10
-164.5216081419727
 20
1023.518991701055
 30
0.0
 10
-168.813715677127
 20
1021.305358603647
 30
0.0
 10
-173.5196936342082
 20
1019.479952441437
 30
0.0
 10
-177.9022534095373
 20
1018.244821244155
 30
0.0
 10
-182.2350904326477
 20
1017.318086881971
 30
0.0
 10
-186.1890475067596
 20
1016.682569195149
 30
0.0
 10
-191.3533710883165
 20
1016.166925146474
 30
0.0
 10
-197.3000467763492
 20
1015.994246741038
 30
0.0
 10
-203.0316420972025
 20
1016.345447969593
 30
0.0
 10
-207.8794273307242
 20
1017.070636146834
 30
0.0
 10
-212.1225325832227
 20
1018.016486411294
 30
0.0
 10
-216.580848076097
 20
1019.449663852898
 30
0.0
 10
-221.2757993865829
 20
1021.611587150716
 30
0.0
 10
-225.0972269315489
 20
1024.087437979146
 30
0.0
 10
-228.8258510701002
 20
1027.162834854956
 30
0.0
 10
-232.3953978540176
 20
1030.867228561555
 30
0.0
 10
-235.4025038181082
 20
1034.955539254259
 30
0.0
 10
-237.975264475061
 20
1039.194045902851
 30
0.0
 10
-239.8883965502849
 20
1042.980939571089
 30
0.0
 10
-241.8085917228413
 20
1047.699571231772
 30
0.0
 10
-243.2352506901537
 20
1052.211087162049
 30
0.0
 10
-244.3876672145248
 20
1057.243497485777
 30
0.0
 10
-245.1395024461602
 20
1062.411108876488
 30
0.0
 10
-245.432249535284
 20
1068.13751866003
 30
0.0
 10
-245.2064916718959
 20
1074.362938922474
 30
0.0
 10
-244.3856145945806
 20
1081.771789355473
 30
0.0
 10
-242.9139772491569
 20
1089.823438359614
 30
0.0
 10
-241.0071905729565
 20
1098.004449393754
 30
0.0
 10
-238.9992829461702
 20
1105.646297114542
 30
0.0
 10
-236.801040416183
 20
1113.392926788454
 30
0.0
 10
-234.4874084329901
 20
1121.129581492374
 30
0.0
 10
-231.8378087982363
 20
1129.71798921298
 30
0.0
 10
-228.8393282516439
 20
1139.212544772093
 30
0.0
 10
-224.0086875148368
 20
1154.268721373187
 30
0.0
 10
-218.8353166561176
 20
1170.21753089301
 30
0.0
 10
-211.5161640169974
 20
1193.100019623659
 30
0.0
 10
-205.3082118654188
 20
1213.059231427898
 30
0.0
 10
-198.1935888884744
 20
1237.209047197921
 30
0.0
 10
-192.3070224968643
 20
1258.353334740424
 30
0.0
 10
-186.3101272384504
 20
1281.722653093565
 30
0.0
 10
-181.0471208150255
 20
1304.104532676085
 30
0.0
 10
-176.0767735604053
 20
1327.4075968785
 30
0.0
 10
-171.9607163730115
 20
1349.04765608349
 30
0.0
 10
-167.7319928790464
 20
1373.969252425486
 30
0.0
 10
-164.58449559428
 20
1395.447605216579
 30
0.0
 10
-161.7345311396373
 20
1418.23167885346
 30
0.0
 10
-159.7698823709382
 20
1436.215894166253
 30
0.0
 10
-157.6019608316577
 20
1459.492797706155
 30
0.0
 10
-156.1400784384007
 20
1479.398602560853
 30
0.0
 10
-155.0933131652027
 20
1497.679114725538
 30
0.0
 10
-154.3510933745294
 20
1513.002805848682
 30
0.0
 10
-153.8108150182818
 20
1527.703656837758
 30
0.0
 10
-153.3908174785404
 20
1541.873405365207
 30
0.0
 10
-153.0850432846097
 20
1553.747558537363
 30
0.0
 10
-152.7965448957138
 20
1567.070162265211
 30
0.0
 10
-152.4795190037362
 20
1585.350773589747
 30
0.0
 10
-152.2544551723101
 20
1605.562152722198
 30
0.0
 10
-152.2188140440066
 20
1621.481579914821
 30
0.0
 10
-152.2391597610691
 20
1628.555796479773
 30
0.0
  0
SPLINE
  5
227
330
1D7
100
AcDbEntity
  8
0
  6
Continuous
 62
     0
370
    30
100
AcDbSpline
210
0.0
220
0.0
230
1.0
 70
     8
 71
     3
 72
    95
 73
    91
 74
     0
 42
0.000000001
 43
0.0
 40
0.0023000661463426
 40
0.0023000661463426
 40
0.0023000661463426
 40
0.0023000661463426
 40
97.61447421810304
 40
195.6181212946122
 40
241.4630626824052
 40
263.0183195698717
 40
283.4419139683678
 40
336.965976137923
 40
380.0955784825197
 40
409.7267625082655
 40
425.3387894207557
 40
453.0086881146442
 40
465.5768189832003
 40
483.084089007214
 40
499.0204716106364
 40
508.7968498307685
 40
517.9132330469928
 40
530.3871273697531
 40
537.9293374856426
 40
544.8850696444202
 40
550.2673619301071
 40
556.273269203139
 40
565.3259423268838
 40
572.6424893424102
 40
576.4476731899075
 40
580.8355339041128
 40
587.8646769865092
 40
595.3206746254859
 40
603.2455708860937
 40
609.0992475449796
 40
615.5390278951053
 40
622.7764017851363
 40
630.2417270293731
 40
636.3486700806762
 40
641.8528423815314
 40
644.8525388246013
 40
647.8530917728884
 40
651.6000000985703
 40
660.5203382407437
 40
667.0398753314853
 40
671.246284690897
 40
674.7121627382213
 40
677.4615816989582
 40
680.193797471113
 40
684.9421179117884
 40
692.9941662739496
 40
700.1128970667354
 40
705.3261140801031
 40
711.2390418974385
 40
717.555754687765
 40
724.2227663037487
 40
729.3840525325693
 40
731.9199714991607
 40
736.9119689494523
 40
742.4400072178677
 40
749.4232644534693
 40
757.561414817344
 40
767.4263854768597
 40
776.1834213642776
 40
779.7295773516057
 40
784.5936385228838
 40
796.1584105354309
 40
801.5968178247921
 40
811.2571099137917
 40
822.0059855494202
 40
842.4360890346377
 40
855.0537338705639
 40
871.7883615271805
 40
889.5791235462815
 40
908.4049153698016
 40
925.9828291595659
 40
942.1924360565567
 40
961.1169790447916
 40
987.4183140711677
 40
1010.198107931445
 40
1033.643426832903
 40
1052.794825807638
 40
1085.045766238155
 40
1107.784355060197
 40
1138.511361915062
 40
1171.98333992717
 40
1192.660592037721
 40
1211.455070296347
 40
1225.94110261832
 40
1238.375563776199
 40
1251.566482800024
 40
1272.514469271312
 40
1294.250849818421
 40
1308.843066389525
 40
1316.218665150672
 40
1316.218665150672
 40
1316.218665150672
 40
1316.218665150672
 10
-124.2822197026765
 20
1605.841479138255
 30
0.0
 10
-124.2198690500055
 20
1573.30414820236
 30
0.0
 10
-124.1328777945674
 20
1508.098926577429
 30
0.0
 10
-124.0536885423998
 20
1427.612045810491
 30
0.0
 10
-123.9879602373351
 20
1372.477469137231
 30
0.0
 10
-123.9447069313359
 20
1343.202903377712
 30
0.0
 10
-123.890053553257
 20
1311.368645074523
 30
0.0
 10
-123.7929452468155
 20
1272.343007199224
 30
0.0
 10
-123.6669989412102
 20
1230.248252560318
 30
0.0
 10
-123.6178617070835
 20
1200.790658945383
 30
0.0
 10
-123.6461531599016
 20
1176.486301740825
 30
0.0
 10
-123.74983990648
 20
1157.869731385259
 30
0.0
 10
-124.0121788974185
 20
1138.622997745628
 30
0.0
 10
-124.3459085525072
 20
1123.289125614532
 30
0.0
 10
-124.8572268744114
 20
1108.891038252027
 30
0.0
 10
-125.4547094713998
 20
1097.296385243073
 30
0.0
 10
-126.1548573036795
 20
1086.864000153504
 30
0.0
 10
-127.0272455824503
 20
1077.191083210238
 30
0.0
 10
-128.1219759776035
 20
1068.266437660182
 30
0.0
 10
-129.1314092630846
 20
1061.716072236122
 30
0.0
 10
-130.2672372084027
 20
1055.706938418575
 30
0.0
 10
-131.7905571265939
 20
1049.064261473368
 30
0.0
 10
-133.9231400301707
 20
1041.908946872348
 30
0.0
 10
-136.4785098656492
 20
1035.678690113515
 30
0.0
 10
-138.8506303115034
 20
1031.082066336015
 30
0.0
 10
-141.4935179258759
 20
1026.745962106589
 30
0.0
 10
-145.3321153064578
 20
1021.743800513441
 30
0.0
 10
-150.673614417788
 20
1016.494215473529
 30
0.0
 10
-156.4011958601396
 20
1012.303763474416
 30
0.0
 10
-162.2903504425412
 20
1009.009666740966
 30
0.0
 10
-168.2718982519124
 20
1006.418191860004
 30
0.0
 10
-175.0043404681599
 20
1004.300765475591
 30
0.0
 10
-181.8119571860151
 20
1002.922993426049
 30
0.0
 10
-188.1363156970008
 20
1002.218674234243
 30
0.0
 10
-193.00506373228
 20
1002.020348486
 30
0.0
 10
-196.84027991792
 20
1002.047903904434
 30
0.0
 10
-200.0872585149872
 20
1002.176008423522
 30
0.0
 10
-205.2958178893635
 20
1002.571531776114
 30
0.0
 10
-211.6307998622208
 20
1003.522169248744
 30
0.0
 10
-217.9723039139853
 20
1005.19001482599
 30
0.0
 10
-222.4256268204597
 20
1006.795647882937
 30
0.0
 10
-225.6036774505488
 20
1008.203420181065
 30
0.0
 10
-228.2504961221478
 20
1009.580849061739
 30
0.0
 10
-231.1782177920853
 20
1011.332033326411
 30
0.0
 10
-235.4072882236498
 20
1014.329521952285
 30
0.0
 10
-240.3265265040043
 20
1018.814927140147
 30
0.0
 10
-244.7332643606994
 20
1024.000814298287
 30
0.0
 10
-248.2216672846555
 20
1028.988019990476
 30
0.0
 10
-251.1582379432031
 20
1034.012593940454
 30
0.0
 10
-253.837658429522
 20
1039.720692618674
 30
0.0
 10
-255.8839835761857
 20
1045.419595545422
 30
0.0
 10
-257.1271833275298
 20
1050.046489784215
 30
0.0
 10
-258.0154062113991
 20
1054.182504216416
 30
0.0
 10
-258.7215644330388
 20
1058.479126418943
 30
0.0
 10
-259.275635078159
 20
1064.290872187331
 30
0.0
 10
-259.3958210902042
 20
1071.17894400779
 30
0.0
 10
-258.8383319842451
 20
1079.496527711934
 30
0.0
 10
-257.5066817530934
 20
1088.323404288335
 30
0.0
 10
-255.9662485025702
 20
1095.552267711121
 30
0.0
 10
-254.631354300758
 20
1101.11688994227
 30
0.0
 10
-252.986576453668
 20
1107.569112838948
 30
0.0
 10
-251.0261395010509
 20
1114.590247246947
 30
0.0
 10
-248.5129278322609
 20
1123.115379047086
 30
0.0
 10
-245.9948787565667
 20
1131.355204715354
 30
0.0
 10
-241.91094121407
 20
1144.341331203787
 30
0.0
 10
-237.4319213179342
 20
1158.236209243715
 30
0.0
 10
-232.3260169266375
 20
1174.025262976143
 30
0.0
 10
-227.5201108285695
 20
1188.986711897321
 30
0.0
 10
-222.1759733178422
 20
1205.948580745912
 30
0.0
 10
-216.895932611262
 20
1223.22480276966
 30
0.0
 10
-211.9612754592383
 20
1240.054355260421
 30
0.0
 10
-207.2253000098448
 20
1256.975100197845
 30
0.0
 10
-201.9822720819766
 20
1276.771681189358
 30
0.0
 10
-196.6041754806307
 20
1298.794659526516
 30
0.0
 10
-191.404954359525
 20
1322.405841850618
 30
0.0
 10
-187.1696290141297
 20
1343.783766885676
 30
0.0
 10
-182.8055212728783
 20
1368.349370795388
 30
0.0
 10
-179.065403684853
 20
1392.781061909885
 30
0.0
 10
-175.4344935016877
 20
1421.123069057467
 30
0.0
 10
-172.4262023726216
 20
1449.948139331607
 30
0.0
 10
-170.218408730778
 20
1478.156443977302
 30
0.0
 10
-168.8381490078079
 20
1502.432576647544
 30
0.0
 10
-168.0747553712748
 20
1520.402628151299
 30
0.0
 10
-167.5703686449222
 20
1535.632693441667
 30
0.0
 10
-167.2054982059135
 20
1548.998220794043
 30
0.0
 10
-166.8459107046235
 20
1564.518542386443
 30
0.0
 10
-166.5097478372783
 20
1583.14069667469
 30
0.0
 10
-166.2947733313854
 20
1602.231819324159
 30
0.0
 10
-166.2285049424154
 20
1616.7997863524
 30
0.0
 10
-166.2295649343843
 20
1624.122418785306
 30
0.0
 10
-166.2342073878759
 20
1626.580950233943
 30
0.0
  0
LINE
  5
228
330
1D7
100
AcDbEntity
  8
0
  6
Continuous
 62
     0
370
    30
100
AcDbLine
 10
-142.868745
 20
1673.041493
 30
0.0
 11
-171.941668
 21
1673.041493
 31
0.0
  0
LINE
  5
229
330
1D7
100
AcDbEntity
  8
0
  6
Continuous
 62
     0
370
     0
100
AcDbLine
 10
-171.941668
 20
1673.041493
 30
0.0
 11
-171.941668
 21
1628.641493
 31
0.0
  0
LINE
  5
22A
330
1D7
100
AcDbEntity
  8
0
  6
Continuous
 62
     0
370
    30
100
AcDbLine
 10
-171.941668
 20
1628.641493
 30
0.0
 11
-169.441561
 21
1628.641493
 31
0.0
  0
SPLINE
  5
22B
330
1D7
100
AcDbEntity
  8
0
  6
Continuous
 62
     0
370
     0
100
AcDbSpline
210
0.0
220
0.0
230
1.0
 70
     8
 71
     3
 72
    16
 73
    12
 74
     0
 42
0.000000001
 43
0.0
 40
0.0
 40
0.0
 40
0.0
 40
0.0
 40
4.908470422339119
 40
7.107904849945938
 40
10.37242050733482
 40
13.08584009514441
 40
15.65087207372479
 40
18.34996071096714
 40
21.57200040297823
 40
23.70788421475139
 40
27.50988877527825
 40
27.50988877527825
 40
27.50988877527825
 40
27.50988877527825
 10
-169.4416677506517
 20
1628.641538280543
 30
0.0
 10
-169.4389975063519
 20
1628.64484670631
 30
0.0
 10
-168.7932456144608
 20
1628.946116074689
 30
0.0
 10
-166.7680821245996
 20
1629.684652325172
 30
0.0
 10
-164.5926390919734
 20
1630.300916178736
 30
0.0
 10
-161.8600986483232
 20
1630.699294852761
 30
0.0
 10
-159.1528313337514
 20
1630.708381785688
 30
0.0
 10
-156.4233626998702
 20
1630.329373253201
 30
0.0
 10
-154.252618490757
 20
1629.727935589835
 30
0.0
 10
-152.4107218864572
 20
1629.069396763482
 30
0.0
 10
-151.7308172306928
 20
1628.767847980908
 30
0.0
 10
-151.5415941956286
 20
1628.687347211812
 30
0.0
  0
LINE
  5
22C
330
1D7
100
AcDbEntity
  8
0
  6
Continuous
 62
     0
370
    30
100
AcDbLine
 10
-146.93707
 20
1628.641493
 30
0.0
 11
-137.417111
 21
1628.641493
 31
0.0
  0
SPLINE
  5
22D
330
1D7
100
AcDbEntity
  8
0
  6
Continuous
 62
     0
370
    30
100
AcDbSpline
210
0.0
220
0.0
230
1.0
 70
     8
 71
     3
 72
    23
 73
    19
 74
     0
 42
0.000000001
 43
0.0
 40
0.0
 40
0.0
 40
0.0
 40
0.0
 40
4.865965870112661
 40
8.826628581593257
 40
14.84997456937101
 40
19.64076852552481
 40
23.82927812684367
 40
27.68331271769733
 40
31.35398672114482
 40
34.94074450226737
 40
38.5275022833341
 40
42.19817628686539
 40
46.05221087804267
 40
50.24072047929496
 40
55.03151443633934
 40
61.05486042600901
 40
65.01552313694897
 40
69.88148900234154
 40
69.88148900234154
 40
69.88148900234154
 40
69.88148900234154
 10
-137.4171108365531
 20
1628.641492895001
 30
0.0
 10
-137.4168846794174
 20
1628.641492914108
 30
0.0
 10
-137.4573562741671
 20
1628.967544958047
 30
0.0
 10
-137.6424855373566
 20
1630.477612048576
 30
0.0
 10
-137.9538009294072
 20
1633.01392434043
 30
0.0
 10
-138.3866461501432
 20
1636.536522156703
 30
0.0
 10
-138.8227424411669
 20
1640.090057054719
 30
0.0
 10
-139.2617432805102
 20
1643.664040923447
 30
0.0
 10
-139.7018481778757
 20
1647.24995995779
 30
0.0
 10
-140.1429290632445
 20
1650.841493158718
 30
0.0
 10
-140.5840099233871
 20
1654.433026352837
 30
0.0
 10
-141.0241147431548
 20
1658.018945366294
 30
0.0
 10
-141.4631154462051
 20
1661.592929198259
 30
0.0
 10
-141.8992115286435
 20
1665.146464040075
 30
0.0
 10
-142.3320564367537
 20
1668.669061772307
 30
0.0
 10
-142.6433714537317
 20
1671.205373962673
 30
0.0
 10
-142.8285003029988
 20
1672.715440940285
 30
0.0
 10
-142.8689716396012
 20
1673.041492914108
 30
0.0
 10
-142.8687453405959
 20
1673.041492895001
 30
0.0
  0
SPLINE
  5
22E
330
1D7
100
AcDbEntity
  8
0
  6
Continuous
 62
     0
370
    30
100
AcDbSpline
210
0.0
220
0.0
230
1.0
 70
     8
 71
     7
 72
    16
 73
     8
 74
     0
 42
0.000000001
 43
0.0
 40
0.0
 40
0.0
 40
0.0
 40
0.0
 40
0.0
 40
0.0
 40
0.0
 40
0.0
 40
0.9999999999999968
 40
0.9999999999999968
 40
0.9999999999999968
 40
0.9999999999999968
 40
0.9999999999999968
 40
0.9999999999999968
 40
0.9999999999999968
 40
0.9999999999999968
 10
-169.4415610326843
 20
1628.641492895001
 30
0.0
 10
-168.6532089793432
 20
1628.641492895001
 30
0.0
 10
-167.8648569260021
 20
1628.454056998507
 30
0.0
 10
-167.1301261021779
 20
1628.054093719992
 30
0.0
 10
-166.5293199170277
 20
1627.453545210029
 30
0.0
 10
-166.1291689347852
 20
1626.718833066639
 30
0.0
 10
-165.9416677486766
 20
1625.930481013298
 30
0.0
 10
-165.9416677486766
 20
1625.142128959957
 30
0.0
  0
SPLINE
  5
22F
330
1D7
100
AcDbEntity
  8
0
  6
Continuous
 62
     0
370
     0
100
AcDbSpline
210
0.0
220
0.0
230
1.0
 70
     8
 71
     7
 72
    21
 73
    13
 74
     0
 42
0.000000001
 43
0.0
 40
0.0
 40
0.0
 40
0.0
 40
0.0
 40
0.0
 40
0.0
 40
0.0
 40
0.0
 40
0.500000383186774
 40
0.500000383186774
 40
0.500000383186774
 40
0.500000383186774
 40
0.500000383186774
 40
1.0
 40
1.0
 40
1.0
 40
1.0
 40
1.0
 40
1.0
 40
1.0
 40
1.0
 10
-165.9416677486766
 20
1625.142128959957
 30
0.0
 10
-165.941667802625
 20
1625.142128974496
 30
0.0
 10
-165.6185519686897
 20
1625.142128989034
 30
0.0
 10
-164.9723529349779
 20
1625.142129002377
 30
0.0
 10
-164.0427701069747
 20
1625.142129013328
 30
0.0
 10
-162.910062926897
 20
1625.14212902094
 30
0.0
 10
-160.4416733526764
 20
1625.142129028553
 30
0.0
 10
-157.9732808666791
 20
1625.14212902094
 30
0.0
 10
-156.8405707443538
 20
1625.142129013328
 30
0.0
 10
-155.9109849184462
 20
1625.142129002377
 30
0.0
 10
-155.2647844379732
 20
1625.142128989035
 30
0.0
 10
-154.9416678026468
 20
1625.142128974496
 30
0.0
 10
-154.9416677486984
 20
1625.142128959957
 30
0.0
  0
SPLINE
  5
230
330
1D7
100
AcDbEntity
  8
0
  6
Continuous
 62
     0
370
    30
100
AcDbSpline
210
0.0
220
0.0
230
1.0
 70
     8
 71
     7
 72
    16
 73
     8
 74
     0
 42
0.000000001
 43
0.0
 40
0.0
 40
0.0
 40
0.0
 40
0.0
 40
0.0
 40
0.0
 40
0.0
 40
0.0
 40
0.9999999999999968
 40
0.9999999999999968
 40
0.9999999999999968
 40
0.9999999999999968
 40
0.9999999999999968
 40
0.9999999999999968
 40
0.9999999999999968
 40
0.9999999999999968
 10
-154.9416677486984
 20
1625.142128959957
 30
0.0
 10
-154.9416677486984
 20
1625.930566002722
 30
0.0
 10
-154.7540998307244
 20
1626.719003045487
 30
0.0
 10
-154.3537718927023
 20
1627.453781065902
 30
0.0
 10
-153.7527174145264
 20
1628.054210614215
 30
0.0
 10
-153.017894089152
 20
1628.454083321462
 30
0.0
 10
-152.229457046387
 20
1628.641492895001
 30
0.0
 10
-151.4410200036219
 20
1628.641492895001
 30
0.0
  0
LINE
  5
231
330
1D7
100
AcDbEntity
  8
0
  6
Continuous
 62
     0
370
    30
100
AcDbLine
 10
-165.941668
 20
1625.142129
 30
0.0
 11
-165.941668
 21
1571.333083
 31
0.0
  0
LINE
  5
232
330
1D7
100
AcDbEntity
  8
0
  6
Continuous
 62
     0
370
     0
100
AcDbLine
 10
-165.941668
 20
1571.333083
 30
0.0
 11
-158.113815
 21
1571.333083
 31
0.0
  0
LINE
  5
233
330
1D7
100
AcDbEntity
  8
0
  6
Continuous
 62
     0
370
     0
100
AcDbLine
 10
-158.113815
 20
1571.333083
 30
0.0
 11
-154.941668
 21
1571.333083
 31
0.0
  0
LINE
  5
234
330
1D7
100
AcDbEntity
  8
0
  6
Continuous
 62
     0
370
    30
100
AcDbLine
 10
-154.941668
 20
1571.333083
 30
0.0
 11
-154.941668
 21
1625.142129
 31
0.0
  0
LINE
  5
235
330
1D7
100
AcDbEntity
  8
0
  6
Continuous
 62
     0
370
    30
100
AcDbLine
 10
-172.441668
 20
1629.141493
 30
0.0
 11
-172.441668
 21
1672.541493
 31
0.0
  0
ARC
  5
236
330
1D7
100
AcDbEntity
  8
0
  6
Continuous
 62
     0
370
    30
100
AcDbCircle
 10
-171.941668
 20
1672.541493
 30
0.0
 40
0.4999999999995595
100
AcDbArc
 50
90.0
 51
180.0
  0
ARC
  5
237
330
1D7
100
AcDbEntity
  8
0
  6
Continuous
 62
     0
370
    30
100
AcDbCircle
 10
-171.941688
 20
1629.141417
 30
0.0
 40
0.4999240846503258
100
AcDbArc
 50
186.891148
 51
270.002359
  0
LINE
  5
238
330
1D7
100
AcDbEntity
  8
0
  6
Continuous
 62
     0
370
    30
100
AcDbLine
 10
-158.325438
 20
1570.833083
 30
0.0
 11
-165.441668
 21
1570.833083
 31
0.0
  0
LINE
  5
239
330
1D7
100
AcDbEntity
  8
0
  6
Continuous
 62
     0
370
    30
100
AcDbLine
 10
-155.441668
 20
1570.833083
 30
0.0
 11
-158.325438
 21
1570.833083
 31
0.0
  0
ARC
  5
23A
330
1D7
100
AcDbEntity
  8
0
  6
Continuous
 62
     0
370
     0
100
AcDbCircle
 10
-149.465236
 20
1605.979939
 30
0.0
 40
22.80214114761703
100
AcDbArc
 50
83.634295
 51
95.224579
  0
LINE
  5
23B
330
1D7
100
AcDbEntity
  8
0
  6
Continuous
 62
     0
370
     0
100
AcDbLine
 10
-151.44102
 20
1628.641493
 30
0.0
 11
-151.54727
 21
1628.687854
 31
0.0
  0
SPLINE
  5
23C
330
1D7
100
AcDbEntity
  8
0
  6
Continuous
 62
     0
370
    30
100
AcDbSpline
210
0.0
220
0.0
230
1.0
 70
     8
 71
     3
 72
    23
 73
    19
 74
     0
 42
0.000000001
 43
0.0
 40
0.0
 40
0.0
 40
0.0
 40
0.0
 40
0.1542500375607436
 40
0.2687675085986883
 40
0.3831929278871519
 40
0.727746956023692
 40
0.9859682712420115
 40
1.244202415549291
 40
1.838573201404965
 40
2.135698823264323
 40
2.43275265304372
 40
3.027898107633689
 40
3.324948866777137
 40
3.621349968646611
 40
3.918188967266704
 40
4.214281030385266
 40
4.359733995030632
 40
4.505071907675423
 40
4.505071907675423
 40
4.505071907675423
 40
4.505071907675423
 10
-146.9370876518967
 20
1628.641721437423
 30
0.0
 10
-146.9883363499718
 20
1628.639397060499
 30
0.0
 10
-147.0779444267346
 20
1628.635611982499
 30
0.0
 10
-147.2055741212822
 20
1628.631347707592
 30
0.0
 10
-147.3966735880426
 20
1628.625938236615
 30
0.0
 10
-147.6357030259751
 20
1628.621712348897
 30
0.0
 10
-147.9227028451121
 20
1628.619766484293
 30
0.0
 10
-148.292980766697
 20
1628.619785344942
 30
0.0
 10
-148.6762103905275
 20
1628.622831934649
 30
0.0
 10
-149.0723596028464
 20
1628.626918768646
 30
0.0
 10
-149.4687869511919
 20
1628.630830488077
 30
0.0
 10
-149.8651450915861
 20
1628.633500173656
 30
0.0
 10
-150.2612861639438
 20
1628.635261346208
 30
0.0
 10
-150.5580780272678
 20
1628.636208713007
 30
0.0
 10
-150.8544421211914
 20
1628.637013627202
 30
0.0
 10
-151.1006904809736
 20
1628.637988010993
 30
0.0
 10
-151.2956855280197
 20
1628.639925736982
 30
0.0
 10
-151.3931637627228
 20
1628.640371630007
 30
0.0
 10
-151.4410215718139
 20
1628.641465452268
 30
0.0
  0
ARC
  5
23D
330
1D7
100
AcDbEntity
  8
0
  6
Continuous
 62
     0
370
    30
100
AcDbCircle
 10
-155.441849
 20
1571.333077
 30
0.0
 40
0.4999934063074775
100
AcDbArc
 50
270.033144
 51
0.000756
  0
SPLINE
  5
23E
330
1D7
100
AcDbEntity
  8
0
  6
Continuous
 62
     0
370
    30
100
AcDbSpline
210
0.0
220
0.0
230
1.0
 70
     8
 71
     3
 72
    18
 73
    14
 74
     0
 42
0.000000001
 43
0.0
 40
0.0
 40
0.0
 40
0.0
 40
0.0
 40
0.0226856642551978
 40
0.04542169077117
 40
0.093486759388809
 40
0.1416510743293655
 40
0.18982853613817
 40
0.2379598069457856
 40
0.3821687339512494
 40
0.4302146902601111
 40
0.5263539624939014
 40
0.6226276659304906
 40
0.7849105226141702
 40
0.7849105226141702
 40
0.7849105226141702
 40
0.7849105226141702
 10
-165.4418032237815
 20
1570.833083309942
 30
0.0
 10
-165.447342226274
 20
1570.833085301252
 30
0.0
 10
-165.4654230772338
 20
1570.833444027515
 30
0.0
 10
-165.4950407649439
 20
1570.835608123099
 30
0.0
 10
-165.5351287948368
 20
1570.841158513597
 30
0.0
 10
-165.5817615551107
 20
1570.852390739896
 30
0.0
 10
-165.6274483949546
 20
1570.86804854283
 30
0.0
 10
-165.7004664270709
 20
1570.90140391348
 30
0.0
 10
-165.7663715705427
 20
1570.948504769732
 30
0.0
 10
-165.8325208338089
 20
1571.018459168309
 30
0.0
 10
-165.8789196310513
 20
1571.084326766748
 30
0.0
 10
-165.9274350143208
 20
1571.192721569708
 30
0.0
 10
-165.9416239458389
 20
1571.279207175618
 30
0.0
 10
-165.941623944734
 20
1571.333083278435
 30
0.0
  0
ARC
  5
23F
330
1D7
100
AcDbEntity
  8
0
  6
Continuous
 62
     0
370
    30
100
AcDbCircle
 10
-171.945255
 20
1629.14166
 30
0.0
 40
0.4964123117115364
100
AcDbArc
 50
180.019279
 51
186.968376
  0
ENDBLK
  5
241
330
1D7
100
AcDbEntity
  8
0
100
AcDbBlockEnd
  0
ENDSEC
  0
SECTION
  2
ENTITIES
  0
INSERT
  5
EF
330
1F
100
AcDbEntity
  8
0
  6
Continuous
 62
     7
370
     0
100
AcDbBlockReference
  2
a
 10
37.8563
 20
141.461548
 30
0.0
  0
INSERT
  5
156
330
1F
100
AcDbEntity
  8
0
  6
Continuous
 62
     7
370
     0
100
AcDbBlockReference
  2
b
 10
37.856316
 20
638.617981
 30
0.0
  0
INSERT
  5
1D6
330
1F
100
AcDbEntity
  8
0
  6
Continuous
 62
     7
370
     0
100
AcDbBlockReference
  2
c
 10
37.8563
 20
141.461548
 30
0.0
  0
INSERT
  5
242
330
1F
100
AcDbEntity
  8
0
  6
Continuous
 62
     7
370
     0
100
AcDbBlockReference
  2
d
 10
-32.570404
 20
-0.000122
 30
0.0
  0
ENDSEC
  0
SECTION
  2
OBJECTS
  0
DICTIONARY
  5
C
330
0
100
AcDbDictionary
281
     1
  3
ACAD_GROUP
350
D
  3
ACAD_LAYOUT
350
1A
  3
ACAD_MATERIAL
350
43
  3
ACAD_MLEADERSTYLE
350
6B
  3
ACAD_MLINESTYLE
350
17
  3
ACAD_PLOTSETTINGS
350
19
  3
ACAD_PLOTSTYLENAME
350
E
  3
ACAD_SCALELIST
350
47
  3
ACAD_TABLESTYLE
350
69
  3
ACAD_VISUALSTYLE
350
2A
  3
AcDbVariableDictionary
350
243
  0
DICTIONARY
  5
24E
330
8
100
AcDbDictionary
280
     1
281
     1
  3
ACAD_XREC_ROUNDTRIP
360
24F
  0
DICTIONARY
  5
D
102
{ACAD_REACTORS
330
C
102
}
330
C
100
AcDbDictionary
281
     1
  0
DICTIONARY
  5
1A
102
{ACAD_REACTORS
330
C
102
}
330
C
100
AcDbDictionary
281
     1
  3
Layout1
350
1E
  3
Layout2
350
26
  3
Model
350
22
  0
DICTIONARY
  5
43
102
{ACAD_REACTORS
330
C
102
}
330
C
100
AcDbDictionary
281
     1
  3
ByBlock
350
45
  3
ByLayer
350
44
  3
Global
350
46
  0
DICTIONARY
  5
6B
102
{ACAD_REACTORS
330
C
102
}
330
C
100
AcDbDictionary
281
     1
  3
Standard
350
6C
  0
DICTIONARY
  5
17
102
{ACAD_REACTORS
330
C
102
}
330
C
100
AcDbDictionary
281
     1
  3
Standard
350
18
  0
DICTIONARY
  5
19
102
{ACAD_REACTORS
330
C
102
}
330
C
100
AcDbDictionary
281
     1
  0
ACDBDICTIONARYWDFLT
  5
E
102
{ACAD_REACTORS
330
C
102
}
330
C
100
AcDbDictionary
281
     1
  3
Normal
350
F
100
AcDbDictionaryWithDefault
340
F
  0
DICTIONARY
  5
47
102
{ACAD_REACTORS
330
C
102
}
330
C
100
AcDbDictionary
281
     1
  3
A0
350
48
  3
A1
350
49
  3
A2
350
4A
  3
A3
350
4B
  3
A4
350
4C
  3
A5
350
4D
  3
A6
350
4E
  3
A7
350
4F
  3
A8
350
50
  3
A9
350
51
  3
B0
350
52
  3
B1
350
53
  3
B2
350
54
  3
B3
350
55
  3
B4
350
56
  3
B5
350
57
  3
B6
350
58
  3
B7
350
59
  3
B8
350
5A
  3
B9
350
5B
  3
C0
350
5C
  3
C1
350
5D
  3
C2
350
5E
  3
C3
350
5F
  3
C4
350
60
  3
C5
350
61
  3
C6
350
62
  3
C7
350
63
  3
C8
350
64
  3
C9
350
65
  3
D0
350
66
  3
D1
350
67
  3
D2
350
68
  0
DICTIONARY
  5
69
102
{ACAD_REACTORS
330
C
102
}
330
C
100
AcDbDictionary
281
     1
  3
Standard
350
6A
  0
DICTIONARY
  5
2A
102
{ACAD_REACTORS
330
C
102
}
330
C
100
AcDbDictionary
281
     1
  3
2dWireframe
350
2F
  3
Basic
350
32
  3
Brighten
350
36
  3
ColorChange
350
3A
  3
Conceptual
350
34
  3
Dim
350
35
  3
EdgeColorOff
350
3D
  3
Facepattern
350
39
  3
Flat
350
2B
  3
FlatWithEdges
350
2C
  3
Gouraud
350
2D
  3
GouraudWithEdges
350
2E
  3
Hidden
350
31
  3
JitterOff
350
3B
  3
Linepattern
350
38
  3
OverhangOff
350
3C
  3
Realistic
350
33
  3
Shaded
350
42
  3
Shaded with edges
350
41
  3
Shades of Gray
350
3E
  3
Sketchy
350
3F
  3
Thicken
350
37
  3
Wireframe
350
30
  3
X-Ray
350
40
  0
DICTIONARY
  5
243
102
{ACAD_REACTORS
330
C
102
}
330
C
100
AcDbDictionary
281
     1
  3
CANNOSCALE
350
250
  3
CENTEREXE
350
24A
  3
CENTERLTYPEFILE
350
24B
  3
CMLEADERSTYLE
350
245
  3
CTABLESTYLE
350
244
  3
DIMASSOC
350
24C
  3
HIDETEXT
350
24D
  3
MSLTSCALE
350
251
  3
PSOLHEIGHT
350
247
  3
PSOLWIDTH
350
246
  0
XRECORD
  5
24F
102
{ACAD_REACTORS
330
24E
102
}
330
24E
100
AcDbXrecord
280
     1
102
VTR_0.000_0.000_1.000_1.000_VISUALSTYLE
340
2F
102
VTR_0.000_0.000_1.000_1.000_GRIDDISPLAY
 70
     3
102
VTR_0.000_0.000_1.000_1.000_GRIDMAJOR
 70
     5
102
VTR_0.000_0.000_1.000_1.000_DEFAULTLIGHTING
280
     1
102
VTR_0.000_0.000_1.000_1.000_DEFAULTLIGHTINGTYPE
 70
     1
102
VTR_0.000_0.000_1.000_1.000_BRIGHTNESS
141
0.0
102
VTR_0.000_0.000_1.000_1.000_CONTRAST
142
0.0
  0
LAYOUT
  5
1E
102
{ACAD_REACTORS
330
1A
102
}
330
1A
100
AcDbPlotSettings
  1

  2
none_device
  4

  6

 40
0.0
 41
0.0
 42
0.0
 43
0.0
 44
0.0
 45
0.0
 46
0.0
 47
0.0
 48
0.0
 49
0.0
140
0.0
141
0.0
142
1.0
143
1.0
 70
   688
 72
     1
 73
     0
 74
     5
  7

 75
    16
147
1.0
148
0.0
149
0.0
100
AcDbLayout
  1
Layout1
 70
     1
 71
     1
 10
0.0
 20
0.0
 11
420.0
 21
297.0
 12
0.0
 22
0.0
 32
0.0
 14
1.000000E+20
 24
1.000000E+20
 34
1.000000E+20
 15
-1.000000E+20
 25
-1.000000E+20
 35
-1.000000E+20
146
0.0
 13
0.0
 23
0.0
 33
0.0
 16
1.0
 26
0.0
 36
0.0
 17
0.0
 27
1.0
 37
0.0
 76
     0
330
1B
  0
LAYOUT
  5
26
102
{ACAD_REACTORS
330
1A
102
}
330
1A
100
AcDbPlotSettings
  1

  2
none_device
  4

  6

 40
0.0
 41
0.0
 42
0.0
 43
0.0
 44
0.0
 45
0.0
 46
0.0
 47
0.0
 48
0.0
 49
0.0
140
0.0
141
0.0
142
1.0
143
1.0
 70
   688
 72
     1
 73
     0
 74
     5
  7

 75
    16
147
1.0
148
0.0
149
0.0
100
AcDbLayout
  1
Layout2
 70
     1
 71
     2
 10
0.0
 20
0.0
 11
0.0
 21
0.0
 12
0.0
 22
0.0
 32
0.0
 14
0.0
 24
0.0
 34
0.0
 15
0.0
 25
0.0
 35
0.0
146
0.0
 13
0.0
 23
0.0
 33
0.0
 16
1.0
 26
0.0
 36
0.0
 17
0.0
 27
1.0
 37
0.0
 76
     0
330
23
  0
LAYOUT
  5
22
102
{ACAD_REACTORS
330
1A
102
}
330
1A
100
AcDbPlotSettings
  1

  2
none_device
  4
Letter_(8.50_x_11.00_Inches)
  6

 40
6.35
 41
6.35
 42
6.350005
 43
6.350005
 44
215.9
 45
279.4
 46
0.0
 47
0.0
 48
0.0
 49
0.0
140
0.0
141
0.0
142
1.0
143
1.0
 70
  1712
 72
     1
 73
     0
 74
     0
  7

 75
     0
147
1.0
148
0.0
149
0.0
100
AcDbLayout
  1
Model
 70
     1
 71
     0
 10
-259.316437
 20
591.952454
 11
500.932739
 21
1788.180298
 12
0.0
 22
0.0
 32
0.0
 14
-259.316437
 24
591.952454
 34
0.0
 15
500.932739
 25
1788.180298
 35
0.0
146
0.0
 13
0.0
 23
0.0
 33
0.0
 16
1.0
 26
0.0
 36
0.0
 17
0.0
 27
1.0
 37
0.0
 76
     0
330
1F
331
29
  0
MATERIAL
  5
45
102
{ACAD_REACTORS
330
43
102
}
102
{ACAD_XDICTIONARY
360
284
102
}
330
43
100
AcDbMaterial
  1
ByBlock
  0
MATERIAL
  5
44
102
{ACAD_REACTORS
330
43
102
}
102
{ACAD_XDICTIONARY
360
282
102
}
330
43
100
AcDbMaterial
  1
ByLayer
  0
MATERIAL
  5
46
102
{ACAD_REACTORS
330
43
102
}
102
{ACAD_XDICTIONARY
360
286
102
}
330
43
100
AcDbMaterial
  1
Global
  0
MLEADERSTYLE
  5
6C
102
{ACAD_REACTORS
330
6B
102
}
102
{ACAD_XDICTIONARY
360
289
102
}
330
6B
100
AcDbMLeaderStyle
170
     2
171
     1
172
     0
 90
        2
 40
0.0
 41
0.0
173
     1
 91
-1056964608
340
14
 92
       -2
290
     1
 42
2.0
291
     1
 43
8.0
  3
Standard
341
0
 44
4.0
300

342
11
174
     1
178
     6
175
     1
176
     0
 93
-1056964608
 45
4.0
292
     0
297
     0
 46
4.0
343
0
 94
-1056964608
 47
1.0
 49
1.0
140
1.0
293
     1
141
0.0
294
     1
177
     0
142
1.0
295
     0
296
     0
143
3.75
1001
ACAD_MLEADERVER
1070
     2
  0
MLINESTYLE
  5
18
102
{ACAD_REACTORS
330
17
102
}
330
17
100
AcDbMlineStyle
  2
Standard
 70
     0
  3

 62
   256
 51
90.0
 52
90.0
 71
     2
 49
0.5
 62
   256
  6
BYLAYER
 49
-0.5
 62
   256
  6
BYLAYER
  0
ACDBPLACEHOLDER
  5
F
102
{ACAD_REACTORS
330
E
102
}
330
E
  0
SCALE
  5
48
102
{ACAD_REACTORS
330
47
102
}
330
47
100
AcDbScale
 70
     0
300
1:1
140
1.0
141
1.0
290
     1
  0
SCALE
  5
49
102
{ACAD_REACTORS
330
47
102
}
330
47
100
AcDbScale
 70
     0
300
1:2
140
1.0
141
2.0
290
     0
  0
SCALE
  5
4A
102
{ACAD_REACTORS
330
47
102
}
330
47
100
AcDbScale
 70
     0
300
1:4
140
1.0
141
4.0
290
     0
  0
SCALE
  5
4B
102
{ACAD_REACTORS
330
47
102
}
330
47
100
AcDbScale
 70
     0
300
1:5
140
1.0
141
5.0
290
     0
  0
SCALE
  5
4C
102
{ACAD_REACTORS
330
47
102
}
330
47
100
AcDbScale
 70
     0
300
1:8
140
1.0
141
8.0
290
     0
  0
SCALE
  5
4D
102
{ACAD_REACTORS
330
47
102
}
330
47
100
AcDbScale
 70
     0
300
1:10
140
1.0
141
10.0
290
     0
  0
SCALE
  5
4E
102
{ACAD_REACTORS
330
47
102
}
330
47
100
AcDbScale
 70
     0
300
1:16
140
1.0
141
16.0
290
     0
  0
SCALE
  5
4F
102
{ACAD_REACTORS
330
47
102
}
330
47
100
AcDbScale
 70
     0
300
1:20
140
1.0
141
20.0
290
     0
  0
SCALE
  5
50
102
{ACAD_REACTORS
330
47
102
}
330
47
100
AcDbScale
 70
     0
300
1:30
140
1.0
141
30.0
290
     0
  0
SCALE
  5
51
102
{ACAD_REACTORS
330
47
102
}
330
47
100
AcDbScale
 70
     0
300
1:40
140
1.0
141
40.0
290
     0
  0
SCALE
  5
52
102
{ACAD_REACTORS
330
47
102
}
330
47
100
AcDbScale
 70
     0
300
1:50
140
1.0
141
50.0
290
     0
  0
SCALE
  5
53
102
{ACAD_REACTORS
330
47
102
}
330
47
100
AcDbScale
 70
     0
300
1:100
140
1.0
141
100.0
290
     0
  0
SCALE
  5
54
102
{ACAD_REACTORS
330
47
102
}
330
47
100
AcDbScale
 70
     0
300
2:1
140
2.0
141
1.0
290
     0
  0
SCALE
  5
55
102
{ACAD_REACTORS
330
47
102
}
330
47
100
AcDbScale
 70
     0
300
4:1
140
4.0
141
1.0
290
     0
  0
SCALE
  5
56
102
{ACAD_REACTORS
330
47
102
}
330
47
100
AcDbScale
 70
     0
300
8:1
140
8.0
141
1.0
290
     0
  0
SCALE
  5
57
102
{ACAD_REACTORS
330
47
102
}
330
47
100
AcDbScale
 70
     0
300
10:1
140
10.0
141
1.0
290
     0
  0
SCALE
  5
58
102
{ACAD_REACTORS
330
47
102
}
330
47
100
AcDbScale
 70
     0
300
100:1
140
100.0
141
1.0
290
     0
  0
SCALE
  5
59
102
{ACAD_REACTORS
330
47
102
}
330
47
100
AcDbScale
 70
     0
300
1/128" = 1'-0"
140
0.007812
141
12.0
290
     0
  0
SCALE
  5
5A
102
{ACAD_REACTORS
330
47
102
}
330
47
100
AcDbScale
 70
     0
300
1/64" = 1'-0"
140
0.015625
141
12.0
290
     0
  0
SCALE
  5
5B
102
{ACAD_REACTORS
330
47
102
}
330
47
100
AcDbScale
 70
     0
300
1/32" = 1'-0"
140
0.03125
141
12.0
290
     0
  0
SCALE
  5
5C
102
{ACAD_REACTORS
330
47
102
}
330
47
100
AcDbScale
 70
     0
300
1/16" = 1'-0"
140
0.0625
141
12.0
290
     0
  0
SCALE
  5
5D
102
{ACAD_REACTORS
330
47
102
}
330
47
100
AcDbScale
 70
     0
300
3/32" = 1'-0"
140
0.09375
141
12.0
290
     0
  0
SCALE
  5
5E
102
{ACAD_REACTORS
330
47
102
}
330
47
100
AcDbScale
 70
     0
300
1/8" = 1'-0"
140
0.125
141
12.0
290
     0
  0
SCALE
  5
5F
102
{ACAD_REACTORS
330
47
102
}
330
47
100
AcDbScale
 70
     0
300
3/16" = 1'-0"
140
0.1875
141
12.0
290
     0
  0
SCALE
  5
60
102
{ACAD_REACTORS
330
47
102
}
330
47
100
AcDbScale
 70
     0
300
1/4" = 1'-0"
140
0.25
141
12.0
290
     0
  0
SCALE
  5
61
102
{ACAD_REACTORS
330
47
102
}
330
47
100
AcDbScale
 70
     0
300
3/8" = 1'-0"
140
0.375
141
12.0
290
     0
  0
SCALE
  5
62
102
{ACAD_REACTORS
330
47
102
}
330
47
100
AcDbScale
 70
     0
300
1/2" = 1'-0"
140
0.5
141
12.0
290
     0
  0
SCALE
  5
63
102
{ACAD_REACTORS
330
47
102
}
330
47
100
AcDbScale
 70
     0
300
3/4" = 1'-0"
140
0.75
141
12.0
290
     0
  0
SCALE
  5
64
102
{ACAD_REACTORS
330
47
102
}
330
47
100
AcDbScale
 70
     0
300
1" = 1'-0"
140
1.0
141
12.0
290
     0
  0
SCALE
  5
65
102
{ACAD_REACTORS
330
47
102
}
330
47
100
AcDbScale
 70
     0
300
1-1/2" = 1'-0"
140
1.5
141
12.0
290
     0
  0
SCALE
  5
66
102
{ACAD_REACTORS
330
47
102
}
330
47
100
AcDbScale
 70
     0
300
3" = 1'-0"
140
3.0
141
12.0
290
     0
  0
SCALE
  5
67
102
{ACAD_REACTORS
330
47
102
}
330
47
100
AcDbScale
 70
     0
300
6" = 1'-0"
140
6.0
141
12.0
290
     0
  0
SCALE
  5
68
102
{ACAD_REACTORS
330
47
102
}
330
47
100
AcDbScale
 70
     0
300
1'-0" = 1'-0"
140
12.0
141
12.0
290
     0
  0
TABLESTYLE
  5
6A
102
{ACAD_REACTORS
330
69
102
}
330
69
100
AcDbTableStyle
  3
Standard
 70
     0
 71
     0
 40
1.5
 41
1.5
280
     0
281
     0
  7
Standard
140
4.5
170
     2
 62
     0
 63
   257
283
     0
274
    -2
284
     1
 64
     0
275
    -2
285
     1
 65
     0
276
    -2
286
     1
 66
     0
277
    -2
287
     1
 67
     0
278
    -2
288
     1
 68
     0
279
    -2
289
     1
 69
     0
  7
Standard
140
6.0
170
     5
 62
     0
 63
   257
283
     0
274
    -2
284
     1
 64
     0
275
    -2
285
     1
 65
     0
276
    -2
286
     1
 66
     0
277
    -2
287
     1
 67
     0
278
    -2
288
     1
 68
     0
279
    -2
289
     1
 69
     0
  7
Standard
140
4.5
170
     5
 62
     0
 63
   257
283
     0
274
    -2
284
     1
 64
     0
275
    -2
285
     1
 65
     0
276
    -2
286
     1
 66
     0
277
    -2
287
     1
 67
     0
278
    -2
288
     1
 68
     0
279
    -2
289
     1
 69
     0
  0
VISUALSTYLE
  5
2F
102
{ACAD_REACTORS
330
2A
102
}
102
{ACAD_XDICTIONARY
360
25A
102
}
330
2A
100
AcDbVisualStyle
  2
2dWireframe
 70
     4
 71
     0
 72
     2
 73
     0
 90
        0
 40
0.6
 41
30.0
 62
     5
 63
     7
 74
     1
 91
        4
 64
     7
 65
   257
 75
     1
175
     1
 42
1.0
 92
        0
 66
   257
 43
1.0
 76
     1
 77
     6
 78
     2
 67
     7
 79
     5
170
     0
171
     0
290
     0
174
     0
 93
        1
 44
0.0
173
     0
291
     0
 45
0.0
1001
ACAD
1000
AcDbSavedByObjectVersion
1070
     0
  0
VISUALSTYLE
  5
32
102
{ACAD_REACTORS
330
2A
102
}
102
{ACAD_XDICTIONARY
360
260
102
}
330
2A
100
AcDbVisualStyle
  2
Basic
 70
     7
 71
     1
 72
     0
 73
     1
 90
        0
 40
0.6
 41
30.0
 62
     5
 63
     7
 74
     0
 91
        4
 64
     7
 65
   257
 75
     1
175
     1
 42
1.0
 92
        8
 66
     7
 43
1.0
 76
     1
 77
     6
 78
     2
 67
     7
 79
     5
170
     0
171
     0
290
     0
174
     0
 93
        1
 44
0.0
173
     0
291
     1
 45
0.0
1001
ACAD
1000
AcDbSavedByObjectVersion
1070
     0
  0
VISUALSTYLE
  5
36
102
{ACAD_REACTORS
330
2A
102
}
102
{ACAD_XDICTIONARY
360
268
102
}
330
2A
100
AcDbVisualStyle
  2
Brighten
 70
    12
 71
     2
 72
     2
 73
     0
 90
        0
 40
0.6
 41
30.0
 62
     5
 63
     7
 74
     1
 91
        4
 64
     7
 65
   257
 75
     1
175
     1
 42
1.0
 92
        8
 66
     7
 43
1.0
 76
     1
 77
     6
 78
     2
 67
     7
 79
     5
170
     0
171
     0
290
     0
174
     0
 93
        1
 44
50.0
173
     0
291
     1
 45
0.0
1001
ACAD
1000
AcDbSavedByObjectVersion
1070
     0
  0
VISUALSTYLE
  5
3A
102
{ACAD_REACTORS
330
2A
102
}
102
{ACAD_XDICTIONARY
360
270
102
}
330
2A
100
AcDbVisualStyle
  2
ColorChange
 70
    16
 71
     2
 72
     2
 73
     3
 90
        0
 40
0.6
 41
30.0
 62
     5
 63
     8
 74
     1
 91
        4
 64
     7
 65
   257
 75
     1
175
     1
 42
1.0
 92
        8
 66
     8
 43
1.0
 76
     1
 77
     6
 78
     2
 67
     7
 79
     5
170
     0
171
     0
290
     0
174
     0
 93
        1
 44
0.0
173
     0
291
     1
 45
0.0
1001
ACAD
1000
AcDbSavedByObjectVersion
1070
     0
  0
VISUALSTYLE
  5
34
102
{ACAD_REACTORS
330
2A
102
}
102
{ACAD_XDICTIONARY
360
264
102
}
330
2A
100
AcDbVisualStyle
  2
Conceptual
 70
     9
 71
     3
 72
     2
 73
     0
 90
        0
 40
0.6
 41
30.0
 62
     5
 63
     7
 74
     2
 91
        2
 64
     7
 65
   257
 75
     1
175
     1
 42
179.0
 92
        8
 66
     7
 43
1.0
 76
     1
 77
     6
 78
     2
 67
     7
 79
     3
170
     0
171
     0
290
     0
174
     0
 93
        1
 44
0.0
173
     0
291
     0
 45
0.0
1001
ACAD
1000
AcDbSavedByObjectVersion
1070
     0
  0
VISUALSTYLE
  5
35
102
{ACAD_REACTORS
330
2A
102
}
102
{ACAD_XDICTIONARY
360
266
102
}
330
2A
100
AcDbVisualStyle
  2
Dim
 70
    11
 71
     2
 72
     2
 73
     0
 90
        0
 40
0.6
 41
30.0
 62
     5
 63
     7
 74
     1
 91
        4
 64
     7
 65
   257
 75
     1
175
     1
 42
1.0
 92
        8
 66
     7
 43
1.0
 76
     1
 77
     6
 78
     2
 67
     7
 79
     5
170
     0
171
     0
290
     0
174
     0
 93
        1
 44
-50.0
173
     0
291
     1
 45
0.0
1001
ACAD
1000
AcDbSavedByObjectVersion
1070
     0
  0
VISUALSTYLE
  5
3D
102
{ACAD_REACTORS
330
2A
102
}
102
{ACAD_XDICTIONARY
360
276
102
}
330
2A
100
AcDbVisualStyle
  2
EdgeColorOff
 70
    22
 71
     2
 72
     2
 73
     0
 90
        0
 40
0.6
 41
30.0
 62
     5
 63
     7
 74
     1
 91
        4
 64
     7
 65
   257
 75
     1
175
     1
 42
1.0
 92
        8
 66
     7
 43
1.0
 76
     1
 77
     6
 78
     2
 67
     7
 79
     5
170
     0
171
     0
290
     0
174
     0
 93
        1
 44
0.0
173
     0
291
     1
 45
0.0
1001
ACAD
1000
AcDbSavedByObjectVersion
1070
     0
  0
VISUALSTYLE
  5
39
102
{ACAD_REACTORS
330
2A
102
}
102
{ACAD_XDICTIONARY
360
26E
102
}
330
2A
100
AcDbVisualStyle
  2
Facepattern
 70
    15
 71
     2
 72
     2
 73
     0
 90
        0
 40
0.6
 41
30.0
 62
     5
 63
     7
 74
     1
 91
        4
 64
     7
 65
   257
 75
     1
175
     1
 42
1.0
 92
        8
 66
     7
 43
1.0
 76
     1
 77
     6
 78
     2
 67
     7
 79
     5
170
     0
171
     0
290
     0
174
     0
 93
        1
 44
0.0
173
     0
291
     1
 45
0.0
1001
ACAD
1000
AcDbSavedByObjectVersion
1070
     0
  0
VISUALSTYLE
  5
2B
102
{ACAD_REACTORS
330
2A
102
}
102
{ACAD_XDICTIONARY
360
252
102
}
330
2A
100
AcDbVisualStyle
  2
Flat
 70
     0
 71
     2
 72
     1
 73
     1
 90
        2
 40
0.6
 41
30.0
 62
     5
 63
     7
 74
     0
 91
        0
 64
     7
 65
   257
 75
     1
175
     1
 42
1.0
 92
        8
 66
     7
 43
1.0
 76
     1
 77
     6
 78
     2
 67
     7
 79
     5
170
     0
171
     0
290
     0
174
     0
 93
       13
 44
0.0
173
     0
291
     1
 45
0.0
1001
ACAD
1000
AcDbSavedByObjectVersion
1070
     0
  0
VISUALSTYLE
  5
2C
102
{ACAD_REACTORS
330
2A
102
}
102
{ACAD_XDICTIONARY
360
254
102
}
330
2A
100
AcDbVisualStyle
  2
FlatWithEdges
 70
     1
 71
     2
 72
     1
 73
     1
 90
        2
 40
0.6
 41
30.0
 62
     5
 63
     7
 74
     1
 91
        0
 64
     7
 65
   257
 75
     1
175
     1
 42
1.0
 92
        0
 66
   257
 43
1.0
 76
     1
 77
     6
 78
     2
 67
     7
 79
     5
170
     0
171
     0
290
     0
174
     0
 93
       13
 44
0.0
173
     0
291
     1
 45
0.0
1001
ACAD
1000
AcDbSavedByObjectVersion
1070
     0
  0
VISUALSTYLE
  5
2D
102
{ACAD_REACTORS
330
2A
102
}
102
{ACAD_XDICTIONARY
360
256
102
}
330
2A
100
AcDbVisualStyle
  2
Gouraud
 70
     2
 71
     2
 72
     2
 73
     1
 90
        2
 40
0.6
 41
30.0
 62
     5
 63
     7
 74
     0
 91
        0
 64
     7
 65
   257
 75
     1
175
     1
 42
1.0
 92
        0
 66
     7
 43
1.0
 76
     1
 77
     6
 78
     2
 67
     7
 79
     5
170
     0
171
     0
290
     0
174
     0
 93
       13
 44
0.0
173
     0
291
     1
 45
0.0
1001
ACAD
1000
AcDbSavedByObjectVersion
1070
     0
  0
VISUALSTYLE
  5
2E
102
{ACAD_REACTORS
330
2A
102
}
102
{ACAD_XDICTIONARY
360
258
102
}
330
2A
100
AcDbVisualStyle
  2
GouraudWithEdges
 70
     3
 71
     2
 72
     2
 73
     1
 90
        2
 40
0.6
 41
30.0
 62
     5
 63
     7
 74
     1
 91
        0
 64
     7
 65
   257
 75
     1
175
     1
 42
1.0
 92
        0
 66
   257
 43
1.0
 76
     1
 77
     6
 78
     2
 67
     7
 79
     5
170
     0
171
     0
290
     0
174
     0
 93
       13
 44
0.0
173
     0
291
     1
 45
0.0
1001
ACAD
1000
AcDbSavedByObjectVersion
1070
     0
  0
VISUALSTYLE
  5
31
102
{ACAD_REACTORS
330
2A
102
}
102
{ACAD_XDICTIONARY
360
25E
102
}
330
2A
100
AcDbVisualStyle
  2
Hidden
 70
     6
 71
     1
 72
     2
 73
     2
 90
        0
 40
0.6
 41
30.0
 62
     5
 63
     7
 74
     2
 91
        2
 64
     7
 65
   257
 75
     2
175
     1
 42
40.0
 92
        0
 66
   257
 43
1.0
 76
     1
 77
     6
 78
     2
 67
     7
 79
     3
170
     0
171
     0
290
     0
174
     0
 93
        1
 44
0.0
173
     0
291
     0
 45
0.0
1001
ACAD
1000
AcDbSavedByObjectVersion
1070
     0
  0
VISUALSTYLE
  5
3B
102
{ACAD_REACTORS
330
2A
102
}
102
{ACAD_XDICTIONARY
360
272
102
}
330
2A
100
AcDbVisualStyle
  2
JitterOff
 70
    20
 71
     2
 72
     2
 73
     0
 90
        0
 40
0.6
 41
30.0
 62
     5
 63
     7
 74
     1
 91
        4
 64
     7
 65
   257
 75
     1
175
     1
 42
1.0
 92
       10
 66
     7
 43
1.0
 76
     1
 77
     6
 78
     2
 67
     7
 79
     5
170
     0
171
     0
290
     0
174
     0
 93
        1
 44
0.0
173
     0
291
     1
 45
0.0
1001
ACAD
1000
AcDbSavedByObjectVersion
1070
     0
  0
VISUALSTYLE
  5
38
102
{ACAD_REACTORS
330
2A
102
}
102
{ACAD_XDICTIONARY
360
26C
102
}
330
2A
100
AcDbVisualStyle
  2
Linepattern
 70
    14
 71
     2
 72
     2
 73
     0
 90
        0
 40
0.6
 41
30.0
 62
     5
 63
     7
 74
     1
 91
        4
 64
     7
 65
   257
 75
     7
175
     7
 42
1.0
 92
        8
 66
     7
 43
1.0
 76
     1
 77
     6
 78
     2
 67
     7
 79
     5
170
     0
171
     0
290
     0
174
     0
 93
        1
 44
0.0
173
     0
291
     1
 45
0.0
1001
ACAD
1000
AcDbSavedByObjectVersion
1070
     0
  0
VISUALSTYLE
  5
3C
102
{ACAD_REACTORS
330
2A
102
}
102
{ACAD_XDICTIONARY
360
274
102
}
330
2A
100
AcDbVisualStyle
  2
OverhangOff
 70
    21
 71
     2
 72
     2
 73
     0
 90
        0
 40
0.6
 41
30.0
 62
     5
 63
     7
 74
     1
 91
        4
 64
     7
 65
   257
 75
     1
175
     1
 42
1.0
 92
        9
 66
     7
 43
1.0
 76
     1
 77
     6
 78
     2
 67
     7
 79
     5
170
     0
171
     0
290
     0
174
     0
 93
        1
 44
0.0
173
     0
291
     1
 45
0.0
1001
ACAD
1000
AcDbSavedByObjectVersion
1070
     0
  0
VISUALSTYLE
  5
33
102
{ACAD_REACTORS
330
2A
102
}
102
{ACAD_XDICTIONARY
360
262
102
}
330
2A
100
AcDbVisualStyle
  2
Realistic
 70
     8
 71
     2
 72
     3
 73
     0
 90
        2
 40
0.6
 41
30.0
 62
     5
 63
     7
 74
     0
 91
        0
 64
     7
 65
   257
 75
     1
175
     1
 42
1.0
 92
        8
 66
   257
 43
1.0
 76
     1
 77
     6
 78
     2
 67
     7
 79
     3
170
     0
171
     0
290
     0
174
     0
 93
       13
 44
0.0
173
     0
291
     0
 45
0.0
1001
ACAD
1000
AcDbSavedByObjectVersion
1070
     0
  0
VISUALSTYLE
  5
42
102
{ACAD_REACTORS
330
2A
102
}
102
{ACAD_XDICTIONARY
360
280
102
}
330
2A
100
AcDbVisualStyle
  2
Shaded
 70
    27
 71
     2
 72
     2
 73
     1
 90
        2
 40
0.6
 41
30.0
 62
     5
 63
     7
 74
     0
 91
        4
 64
     7
 65
   257
 75
     1
175
     1
 42
1.0
 92
        8
 66
   257
 43
1.0
 76
     1
 77
     6
 78
     2
 67
     8
 79
     3
170
     0
171
     0
290
     0
174
     0
 93
        5
 44
0.0
173
     0
291
     0
 45
0.0
1001
ACAD
1000
AcDbSavedByObjectVersion
1070
     0
  0
VISUALSTYLE
  5
41
102
{ACAD_REACTORS
330
2A
102
}
102
{ACAD_XDICTIONARY
360
27E
102
}
330
2A
100
AcDbVisualStyle
  2
Shaded with edges
 70
    26
 71
     2
 72
     2
 73
     1
 90
        2
 40
0.6
 41
30.0
 62
     5
 63
     7
 74
     1
 91
       10
 64
     7
 65
   257
 75
     2
175
     1
 42
1.0
 92
        8
 66
   257
 43
1.0
 76
     1
 77
     6
 78
     2
 67
     7
 79
     3
170
     0
171
     0
290
     0
174
     0
 93
        5
 44
0.0
173
     0
291
     0
 45
0.0
1001
ACAD
1000
AcDbSavedByObjectVersion
1070
     0
  0
VISUALSTYLE
  5
3E
102
{ACAD_REACTORS
330
2A
102
}
102
{ACAD_XDICTIONARY
360
278
102
}
330
2A
100
AcDbVisualStyle
  2
Shades of Gray
 70
    23
 71
     2
 72
     2
 73
     3
 90
        0
 40
0.6
 41
30.0
 62
     5
 63
     7
 74
     2
 91
        2
 64
     7
 65
     7
 75
     1
175
     1
 42
40.0
 92
        8
 66
     7
 43
1.0
 76
     1
 77
     6
 78
     2
 67
     7
 79
     3
170
     0
171
     0
290
     0
174
     0
 93
        1
 44
0.0
173
     0
291
     0
 45
0.0
1001
ACAD
1000
AcDbSavedByObjectVersion
1070
     0
  0
VISUALSTYLE
  5
3F
102
{ACAD_REACTORS
330
2A
102
}
102
{ACAD_XDICTIONARY
360
27A
102
}
330
2A
100
AcDbVisualStyle
  2
Sketchy
 70
    24
 71
     1
 72
     2
 73
     2
 90
        0
 40
0.6
 41
30.0
 62
     5
 63
     7
 74
     2
 91
        2
 64
     7
 65
     7
 75
     1
175
     1
 42
40.0
 92
       11
 66
     7
 43
1.0
 76
     1
 77
     6
 78
     2
 67
     7
 79
     6
170
     0
171
     0
290
     0
174
     0
 93
        1
 44
0.0
173
     0
291
     0
 45
0.0
1001
ACAD
1000
AcDbSavedByObjectVersion
1070
     0
  0
VISUALSTYLE
  5
37
102
{ACAD_REACTORS
330
2A
102
}
102
{ACAD_XDICTIONARY
360
26A
102
}
330
2A
100
AcDbVisualStyle
  2
Thicken
 70
    13
 71
     2
 72
     2
 73
     0
 90
        0
 40
0.6
 41
30.0
 62
     5
 63
     7
 74
     1
 91
        4
 64
     7
 65
   257
 75
     1
175
     1
 42
1.0
 92
       12
 66
     7
 43
1.0
 76
     1
 77
     6
 78
     2
 67
     7
 79
     5
170
     0
171
     0
290
     0
174
     0
 93
        1
 44
0.0
173
     0
291
     1
 45
0.0
1001
ACAD
1000
AcDbSavedByObjectVersion
1070
     0
  0
VISUALSTYLE
  5
30
102
{ACAD_REACTORS
330
2A
102
}
102
{ACAD_XDICTIONARY
360
25C
102
}
330
2A
100
AcDbVisualStyle
  2
Wireframe
 70
     5
 71
     0
 72
     2
 73
     0
 90
        0
 40
0.6
 41
30.0
 62
     5
 63
     7
 74
     1
 91
        4
 64
     7
 65
   257
 75
     1
175
     1
 42
1.0
 92
        0
 66
   257
 43
1.0
 76
     1
 77
     6
 78
     2
 67
     7
 79
     3
170
     0
171
     0
290
     0
174
     0
 93
        1
 44
0.0
173
     0
291
     0
 45
0.0
1001
ACAD
1000
AcDbSavedByObjectVersion
1070
     0
  0
VISUALSTYLE
  5
40
102
{ACAD_REACTORS
330
2A
102
}
102
{ACAD_XDICTIONARY
360
27C
102
}
330
2A
100
AcDbVisualStyle
  2
X-Ray
 70
    25
 71
     2
 72
     2
 73
     1
 90
        1
 40
0.5
 41
30.0
 62
     5
 63
     7
 74
     1
 91
        0
 64
     7
 65
   257
 75
     1
175
     1
 42
1.0
 92
        8
 66
     7
 43
1.0
 76
     1
 77
     6
 78
     2
 67
     7
 79
     3
170
     0
171
     0
290
     0
174
     0
 93
       13
 44
0.0
173
     0
291
     0
 45
0.0
1001
ACAD
1000
AcDbSavedByObjectVersion
1070
     0
  0
DICTIONARYVAR
  5
250
102
{ACAD_REACTORS
330
243
102
}
330
243
100
DictionaryVariables
280
     0
  1
1:1
  0
DICTIONARYVAR
  5
24A
102
{ACAD_REACTORS
330
243
102
}
330
243
100
DictionaryVariables
280
     0
  1
3.500000
  0
DICTIONARYVAR
  5
24B
102
{ACAD_REACTORS
330
243
102
}
330
243
100
DictionaryVariables
280
     0
  1
acadiso.lin
  0
DICTIONARYVAR
  5
245
102
{ACAD_REACTORS
330
243
102
}
330
243
100
DictionaryVariables
280
     0
  1
Standard
  0
DICTIONARYVAR
  5
244
102
{ACAD_REACTORS
330
243
102
}
330
243
100
DictionaryVariables
280
     0
  1
Standard
  0
DICTIONARYVAR
  5
24C
102
{ACAD_REACTORS
330
243
102
}
330
243
100
DictionaryVariables
280
     0
  1
2
  0
DICTIONARYVAR
  5
24D
102
{ACAD_REACTORS
330
243
102
}
330
243
100
DictionaryVariables
280
     0
  1
1
  0
DICTIONARYVAR
  5
251
102
{ACAD_REACTORS
330
243
102
}
330
243
100
DictionaryVariables
280
     0
  1
1
  0
DICTIONARYVAR
  5
247
102
{ACAD_REACTORS
330
243
102
}
330
243
100
DictionaryVariables
280
     0
  1
80.000000
  0
DICTIONARYVAR
  5
246
102
{ACAD_REACTORS
330
243
102
}
330
243
100
DictionaryVariables
280
     0
  1
5.000000
  0
DICTIONARY
  5
284
330
45
100
AcDbDictionary
280
     1
281
     1
  3
ACAD_XREC_ROUNDTRIP
360
285
  0
DICTIONARY
  5
282
330
44
100
AcDbDictionary
280
     1
281
     1
  3
ACAD_XREC_ROUNDTRIP
360
283
  0
DICTIONARY
  5
286
330
46
100
AcDbDictionary
280
     1
281
     1
  3
ACAD_XREC_ROUNDTRIP
360
287
  0
DICTIONARY
  5
289
330
6C
100
AcDbDictionary
280
     1
281
     1
  3
ACAD_XREC_ROUNDTRIP
360
28A
  0
DICTIONARY
  5
25A
330
2F
100
AcDbDictionary
280
     1
281
     1
  3
ACAD_XREC_ROUNDTRIP
360
25B
  0
DICTIONARY
  5
260
330
32
100
AcDbDictionary
280
     1
281
     1
  3
ACAD_XREC_ROUNDTRIP
360
261
  0
DICTIONARY
  5
268
330
36
100
AcDbDictionary
280
     1
281
     1
  3
ACAD_XREC_ROUNDTRIP
360
269
  0
DICTIONARY
  5
270
330
3A
100
AcDbDictionary
280
     1
281
     1
  3
ACAD_XREC_ROUNDTRIP
360
271
  0
DICTIONARY
  5
264
330
34
100
AcDbDictionary
280
     1
281
     1
  3
ACAD_XREC_ROUNDTRIP
360
265
  0
DICTIONARY
  5
266
330
35
100
AcDbDictionary
280
     1
281
     1
  3
ACAD_XREC_ROUNDTRIP
360
267
  0
DICTIONARY
  5
276
330
3D
100
AcDbDictionary
280
     1
281
     1
  3
ACAD_XREC_ROUNDTRIP
360
277
  0
DICTIONARY
  5
26E
330
39
100
AcDbDictionary
280
     1
281
     1
  3
ACAD_XREC_ROUNDTRIP
360
26F
  0
DICTIONARY
  5
252
330
2B
100
AcDbDictionary
280
     1
281
     1
  3
ACAD_XREC_ROUNDTRIP
360
253
  0
DICTIONARY
  5
254
330
2C
100
AcDbDictionary
280
     1
281
     1
  3
ACAD_XREC_ROUNDTRIP
360
255
  0
DICTIONARY
  5
256
330
2D
100
AcDbDictionary
280
     1
281
     1
  3
ACAD_XREC_ROUNDTRIP
360
257
  0
DICTIONARY
  5
258
330
2E
100
AcDbDictionary
280
     1
281
     1
  3
ACAD_XREC_ROUNDTRIP
360
259
  0
DICTIONARY
  5
25E
330
31
100
AcDbDictionary
280
     1
281
     1
  3
ACAD_XREC_ROUNDTRIP
360
25F
  0
DICTIONARY
  5
272
330
3B
100
AcDbDictionary
280
     1
281
     1
  3
ACAD_XREC_ROUNDTRIP
360
273
  0
DICTIONARY
  5
26C
330
38
100
AcDbDictionary
280
     1
281
     1
  3
ACAD_XREC_ROUNDTRIP
360
26D
  0
DICTIONARY
  5
274
330
3C
100
AcDbDictionary
280
     1
281
     1
  3
ACAD_XREC_ROUNDTRIP
360
275
  0
DICTIONARY
  5
262
330
33
100
AcDbDictionary
280
     1
281
     1
  3
ACAD_XREC_ROUNDTRIP
360
263
  0
DICTIONARY
  5
280
330
42
100
AcDbDictionary
280
     1
281
     1
  3
ACAD_XREC_ROUNDTRIP
360
281
  0
DICTIONARY
  5
27E
330
41
100
AcDbDictionary
280
     1
281
     1
  3
ACAD_XREC_ROUNDTRIP
360
27F
  0
DICTIONARY
  5
278
330
3E
100
AcDbDictionary
280
     1
281
     1
  3
ACAD_XREC_ROUNDTRIP
360
279
  0
DICTIONARY
  5
27A
330
3F
100
AcDbDictionary
280
     1
281
     1
  3
ACAD_XREC_ROUNDTRIP
360
27B
  0
DICTIONARY
  5
26A
330
37
100
AcDbDictionary
280
     1
281
     1
  3
ACAD_XREC_ROUNDTRIP
360
26B
  0
DICTIONARY
  5
25C
330
30
100
AcDbDictionary
280
     1
281
     1
  3
ACAD_XREC_ROUNDTRIP
360
25D
  0
DICTIONARY
  5
27C
330
40
100
AcDbDictionary
280
     1
281
     1
  3
ACAD_XREC_ROUNDTRIP
360
27D
  0
XRECORD
  5
285
102
{ACAD_REACTORS
330
284
102
}
330
284
100
AcDbXrecord
280
     1
102
MATERIAL
148
0.0
149
0.0
149
0.0
 93
        0
 94
      127
282
     0
 72
     1
 77
     1
171
     1
175
     1
179
     1
273
     0
  0
XRECORD
  5
283
102
{ACAD_REACTORS
330
282
102
}
330
282
100
AcDbXrecord
280
     1
102
MATERIAL
148
0.0
149
0.0
149
0.0
 93
        0
 94
      127
282
     0
 72
     1
 77
     1
171
     1
175
     1
179
     1
273
     0
  0
XRECORD
  5
287
102
{ACAD_REACTORS
330
286
102
}
330
286
100
AcDbXrecord
280
     1
102
MATERIAL
148
0.0
149
0.0
149
0.0
 93
        0
 94
      127
282
     0
 72
     1
 77
     1
171
     1
175
     1
179
     1
273
     0
  0
XRECORD
  5
28A
102
{ACAD_REACTORS
330
289
102
}
330
289
100
AcDbXrecord
280
     1
102
ACAD_ROUNDTRIP_2010_MLEADER_STYLE
  0
XRECORD
  5
25B
102
{ACAD_REACTORS
330
25A
102
}
330
25A
100
AcDbXrecord
280
     1
102
RTVSPropertyOp0
 70
     1
102
RTVSPropertyOp1
 70
     1
102
RTVSPropertyOp2
 70
     1
102
RTVSPropertyOp3
 70
     1
102
RTVSPropertyOp4
 70
     1
102
RTVSPropertyOp5
 70
     1
102
RTVSPropertyOp6
 70
     1
102
RTVSPropertyOp7
 70
     1
102
RTVSPropertyOp8
 70
     1
102
RTVSPropertyOp9
 70
     1
102
RTVSPropertyOp10
 70
     1
102
RTVSPropertyOp11
 70
     1
102
RTVSPropertyOp12
 70
     1
102
RTVSPropertyOp13
 70
     1
102
RTVSPropertyOp14
 70
     1
102
RTVSPropertyOp15
 70
     1
102
RTVSPropertyOp16
 70
     1
102
RTVSPropertyOp17
 70
     1
102
RTVSPropertyOp18
 70
     1
102
RTVSPropertyOp19
 70
     1
102
RTVSPropertyOp20
 70
     1
102
RTVSPropertyOp21
 70
     1
102
RTVSPropertyOp22
 70
     1
102
RTVSPropertyOp23
 70
     1
102
RTVSPropertyOp24
 70
     1
102
RTVSPropertyOp25
 70
     1
102
RTVSPropertyOp26
 70
     1
102
RTVSPropertyOp27
 70
     1
102
RTVSPropertyOp28
 70
     1
102
RTVSPropertyOp29
 70
     1
102
RTVSPropertyOp30
 70
     1
102
RTVSPropertyOp31
 70
     1
102
RTVSPropertyOp32
 70
     1
102
RTVSPropertyOp33
 70
     1
102
RTVSPropertyOp34
 70
     1
102
RTVSPropertyOp35
 70
     1
102
RTVSPropertyOp36
 70
     1
102
RTVSPropertyOp37
 70
     1
102
RTVSPropertyOp38
 70
     1
102
RTVSPropertyOp39
 70
     1
102
RTVSPropertyOp40
 70
     1
102
RTVSPropertyOp41
 70
     1
102
RTVSPropertyOp42
 70
     1
102
RTVSPropertyOp43
 70
     1
102
RTVSPropertyOp44
 70
     1
102
RTVSPropertyOp45
 70
     1
102
RTVSPropertyOp46
 70
     1
102
RTVSPropertyOp47
 70
     1
102
RTVSPropertyOp48
 70
     1
102
RTVSPropertyOp49
 70
     1
102
RTVSPropertyOp50
 70
     1
102
RTVSPropertyOp51
 70
     0
102
RTVSPropertyOp52
 70
     0
102
RTVSPropertyOp53
 70
     1
102
RTVSPropertyOp54
 70
     1
102
RTVSPropertyOp55
 70
     1
102
RTVSPropertyOp56
 70
     1
102
RTVSPropertyOp57
 70
     1
102
RTVSPost2010Prop28
280
     1
102
RTVSPost2010PropOp28
 70
     1
102
RTVSPost2010Prop29
280
     1
102
RTVSPost2010PropOp29
 70
     1
102
RTVSPost2010Prop30
280
     0
102
RTVSPost2010PropOp30
 70
     1
102
RTVSPost2010Prop31
280
     0
102
RTVSPost2010PropOp31
 70
     1
102
RTVSPost2010Prop32
280
     0
102
RTVSPost2010PropOp32
 70
     1
102
RTVSPost2010Prop33
280
     0
102
RTVSPost2010PropOp33
 70
     1
102
RTVSPost2010Prop34
280
     0
102
RTVSPost2010PropOp34
 70
     1
102
RTVSPost2010Prop35
280
     0
102
RTVSPost2010PropOp35
 70
     1
102
RTVSPost2010Prop36
280
     0
102
RTVSPost2010PropOp36
 70
     1
102
RTVSPost2010Prop37
 90
       50
102
RTVSPost2010PropOp37
 70
     1
102
RTVSPost2010Prop38
140
0.0
102
RTVSPost2010PropOp38
 70
     1
102
RTVSPost2010Prop39
140
1.0
102
RTVSPost2010PropOp39
 70
     1
102
RTVSPost2010Prop40
 90
        0
102
RTVSPost2010PropOp40
 70
     1
102
RTVSPost2010Prop41ColorIndex
 90
       18
102
RTVSPost2010Prop41ColorRGB
 90
        0
102
RTVSPost2010PropOp41
 70
     1
102
RTVSPost2010Prop42
 90
       50
102
RTVSPost2010PropOp42
 70
     1
102
RTVSPost2010Prop43
 90
        3
102
RTVSPost2010PropOp43
 70
     1
102
RTVSPost2010Prop44ColorIndex
 90
        5
102
RTVSPost2010Prop44ColorRGB
 90
      255
102
RTVSPost2010PropOp44
 70
     1
102
RTVSPost2010Prop45
280
     0
102
RTVSPost2010PropOp45
 70
     1
102
RTVSPost2010Prop46
 90
       50
102
RTVSPost2010PropOp46
 70
     1
102
RTVSPost2010Prop47
 90
       50
102
RTVSPost2010PropOp47
 70
     1
102
RTVSPost2010Prop48
 90
       50
102
RTVSPost2010PropOp48
 70
     1
102
RTVSPost2010Prop49
280
     0
102
RTVSPost2010PropOp49
 70
     1
102
RTVSPost2010Prop50
 90
       50
102
RTVSPost2010PropOp50
 70
     1
102
RTVSPost2010Prop51ColorIndex
 90
      256
102
RTVSPost2010Prop51ColorRGB
 90
-16777216
102
RTVSPost2010PropOp51
 70
     0
102
RTVSPost2010Prop52
140
1.0
102
RTVSPost2010PropOp52
 70
     0
102
RTVSPost2010Prop53
 90
        2
102
RTVSPost2010PropOp53
 70
     1
102
RTVSPost2010Prop54
  1
strokes_ogs.tif
102
RTVSPost2010PropOp54
 70
     1
102
RTVSPost2010Prop55
280
     0
102
RTVSPost2010PropOp55
 70
     1
102
RTVSPost2010Prop56
140
1.0
102
RTVSPost2010PropOp56
 70
     1
102
RTVSPost2010Prop57
140
1.0
102
RTVSPost2010PropOp57
 70
     1
  0
XRECORD
  5
261
102
{ACAD_REACTORS
330
260
102
}
330
260
100
AcDbXrecord
280
     1
102
RTVSPropertyOp0
 70
     1
102
RTVSPropertyOp1
 70
     1
102
RTVSPropertyOp2
 70
     1
102
RTVSPropertyOp3
 70
     1
102
RTVSPropertyOp4
 70
     1
102
RTVSPropertyOp5
 70
     1
102
RTVSPropertyOp6
 70
     1
102
RTVSPropertyOp7
 70
     1
102
RTVSPropertyOp8
 70
     1
102
RTVSPropertyOp9
 70
     1
102
RTVSPropertyOp10
 70
     1
102
RTVSPropertyOp11
 70
     1
102
RTVSPropertyOp12
 70
     1
102
RTVSPropertyOp13
 70
     1
102
RTVSPropertyOp14
 70
     1
102
RTVSPropertyOp15
 70
     1
102
RTVSPropertyOp16
 70
     1
102
RTVSPropertyOp17
 70
     1
102
RTVSPropertyOp18
 70
     1
102
RTVSPropertyOp19
 70
     1
102
RTVSPropertyOp20
 70
     1
102
RTVSPropertyOp21
 70
     1
102
RTVSPropertyOp22
 70
     1
102
RTVSPropertyOp23
 70
     1
102
RTVSPropertyOp24
 70
     1
102
RTVSPropertyOp25
 70
     1
102
RTVSPropertyOp26
 70
     1
102
RTVSPropertyOp27
 70
     1
102
RTVSPropertyOp28
 70
     1
102
RTVSPropertyOp29
 70
     1
102
RTVSPropertyOp30
 70
     1
102
RTVSPropertyOp31
 70
     1
102
RTVSPropertyOp32
 70
     1
102
RTVSPropertyOp33
 70
     1
102
RTVSPropertyOp34
 70
     1
102
RTVSPropertyOp35
 70
     1
102
RTVSPropertyOp36
 70
     1
102
RTVSPropertyOp37
 70
     1
102
RTVSPropertyOp38
 70
     1
102
RTVSPropertyOp39
 70
     1
102
RTVSPropertyOp40
 70
     1
102
RTVSPropertyOp41
 70
     1
102
RTVSPropertyOp42
 70
     1
102
RTVSPropertyOp43
 70
     1
102
RTVSPropertyOp44
 70
     1
102
RTVSPropertyOp45
 70
     1
102
RTVSPropertyOp46
 70
     1
102
RTVSPropertyOp47
 70
     1
102
RTVSPropertyOp48
 70
     1
102
RTVSPropertyOp49
 70
     1
102
RTVSPropertyOp50
 70
     1
102
RTVSPropertyOp51
 70
     0
102
RTVSPropertyOp52
 70
     0
102
RTVSPropertyOp53
 70
     1
102
RTVSPropertyOp54
 70
     1
102
RTVSPropertyOp55
 70
     1
102
RTVSPropertyOp56
 70
     1
102
RTVSPropertyOp57
 70
     1
102
RTVSPost2010Prop28
280
     0
102
RTVSPost2010PropOp28
 70
     1
102
RTVSPost2010Prop29
280
     1
102
RTVSPost2010PropOp29
 70
     1
102
RTVSPost2010Prop30
280
     1
102
RTVSPost2010PropOp30
 70
     1
102
RTVSPost2010Prop31
280
     0
102
RTVSPost2010PropOp31
 70
     1
102
RTVSPost2010Prop32
280
     0
102
RTVSPost2010PropOp32
 70
     1
102
RTVSPost2010Prop33
280
     0
102
RTVSPost2010PropOp33
 70
     1
102
RTVSPost2010Prop34
280
     0
102
RTVSPost2010PropOp34
 70
     1
102
RTVSPost2010Prop35
280
     0
102
RTVSPost2010PropOp35
 70
     1
102
RTVSPost2010Prop36
280
     0
102
RTVSPost2010PropOp36
 70
     1
102
RTVSPost2010Prop37
 90
       50
102
RTVSPost2010PropOp37
 70
     1
102
RTVSPost2010Prop38
140
0.0
102
RTVSPost2010PropOp38
 70
     1
102
RTVSPost2010Prop39
140
1.0
102
RTVSPost2010PropOp39
 70
     1
102
RTVSPost2010Prop40
 90
        0
102
RTVSPost2010PropOp40
 70
     1
102
RTVSPost2010Prop41ColorIndex
 90
       18
102
RTVSPost2010Prop41ColorRGB
 90
        0
102
RTVSPost2010PropOp41
 70
     1
102
RTVSPost2010Prop42
 90
       50
102
RTVSPost2010PropOp42
 70
     1
102
RTVSPost2010Prop43
 90
        3
102
RTVSPost2010PropOp43
 70
     1
102
RTVSPost2010Prop44ColorIndex
 90
        5
102
RTVSPost2010Prop44ColorRGB
 90
      255
102
RTVSPost2010PropOp44
 70
     1
102
RTVSPost2010Prop45
280
     0
102
RTVSPost2010PropOp45
 70
     1
102
RTVSPost2010Prop46
 90
       50
102
RTVSPost2010PropOp46
 70
     1
102
RTVSPost2010Prop47
 90
       50
102
RTVSPost2010PropOp47
 70
     1
102
RTVSPost2010Prop48
 90
       50
102
RTVSPost2010PropOp48
 70
     1
102
RTVSPost2010Prop49
280
     0
102
RTVSPost2010PropOp49
 70
     1
102
RTVSPost2010Prop50
 90
       50
102
RTVSPost2010PropOp50
 70
     1
102
RTVSPost2010Prop51ColorIndex
 90
      256
102
RTVSPost2010Prop51ColorRGB
 90
-16777216
102
RTVSPost2010PropOp51
 70
     0
102
RTVSPost2010Prop52
140
1.0
102
RTVSPost2010PropOp52
 70
     0
102
RTVSPost2010Prop53
 90
        2
102
RTVSPost2010PropOp53
 70
     1
102
RTVSPost2010Prop54
  1
strokes_ogs.tif
102
RTVSPost2010PropOp54
 70
     1
102
RTVSPost2010Prop55
280
     0
102
RTVSPost2010PropOp55
 70
     1
102
RTVSPost2010Prop56
140
1.0
102
RTVSPost2010PropOp56
 70
     1
102
RTVSPost2010Prop57
140
1.0
102
RTVSPost2010PropOp57
 70
     1
  0
XRECORD
  5
269
102
{ACAD_REACTORS
330
268
102
}
330
268
100
AcDbXrecord
280
     1
102
RTVSPropertyOp0
 70
     1
102
RTVSPropertyOp1
 70
     1
102
RTVSPropertyOp2
 70
     1
102
RTVSPropertyOp3
 70
     1
102
RTVSPropertyOp4
 70
     1
102
RTVSPropertyOp5
 70
     1
102
RTVSPropertyOp6
 70
     1
102
RTVSPropertyOp7
 70
     1
102
RTVSPropertyOp8
 70
     1
102
RTVSPropertyOp9
 70
     1
102
RTVSPropertyOp10
 70
     1
102
RTVSPropertyOp11
 70
     1
102
RTVSPropertyOp12
 70
     1
102
RTVSPropertyOp13
 70
     1
102
RTVSPropertyOp14
 70
     1
102
RTVSPropertyOp15
 70
     1
102
RTVSPropertyOp16
 70
     1
102
RTVSPropertyOp17
 70
     1
102
RTVSPropertyOp18
 70
     1
102
RTVSPropertyOp19
 70
     1
102
RTVSPropertyOp20
 70
     1
102
RTVSPropertyOp21
 70
     1
102
RTVSPropertyOp22
 70
     1
102
RTVSPropertyOp23
 70
     1
102
RTVSPropertyOp24
 70
     1
102
RTVSPropertyOp25
 70
     1
102
RTVSPropertyOp26
 70
     1
102
RTVSPropertyOp27
 70
     1
102
RTVSPropertyOp28
 70
     1
102
RTVSPropertyOp29
 70
     1
102
RTVSPropertyOp30
 70
     1
102
RTVSPropertyOp31
 70
     1
102
RTVSPropertyOp32
 70
     1
102
RTVSPropertyOp33
 70
     1
102
RTVSPropertyOp34
 70
     1
102
RTVSPropertyOp35
 70
     1
102
RTVSPropertyOp36
 70
     1
102
RTVSPropertyOp37
 70
     1
102
RTVSPropertyOp38
 70
     1
102
RTVSPropertyOp39
 70
     1
102
RTVSPropertyOp40
 70
     1
102
RTVSPropertyOp41
 70
     1
102
RTVSPropertyOp42
 70
     1
102
RTVSPropertyOp43
 70
     1
102
RTVSPropertyOp44
 70
     1
102
RTVSPropertyOp45
 70
     1
102
RTVSPropertyOp46
 70
     1
102
RTVSPropertyOp47
 70
     1
102
RTVSPropertyOp48
 70
     1
102
RTVSPropertyOp49
 70
     1
102
RTVSPropertyOp50
 70
     1
102
RTVSPropertyOp51
 70
     0
102
RTVSPropertyOp52
 70
     0
102
RTVSPropertyOp53
 70
     1
102
RTVSPropertyOp54
 70
     1
102
RTVSPropertyOp55
 70
     1
102
RTVSPropertyOp56
 70
     1
102
RTVSPropertyOp57
 70
     1
102
RTVSPost2010Prop28
280
     0
102
RTVSPost2010PropOp28
 70
     1
102
RTVSPost2010Prop29
280
     1
102
RTVSPost2010PropOp29
 70
     1
102
RTVSPost2010Prop30
280
     1
102
RTVSPost2010PropOp30
 70
     1
102
RTVSPost2010Prop31
280
     0
102
RTVSPost2010PropOp31
 70
     1
102
RTVSPost2010Prop32
280
     0
102
RTVSPost2010PropOp32
 70
     1
102
RTVSPost2010Prop33
280
     0
102
RTVSPost2010PropOp33
 70
     1
102
RTVSPost2010Prop34
280
     0
102
RTVSPost2010PropOp34
 70
     1
102
RTVSPost2010Prop35
280
     0
102
RTVSPost2010PropOp35
 70
     1
102
RTVSPost2010Prop36
280
     0
102
RTVSPost2010PropOp36
 70
     1
102
RTVSPost2010Prop37
 90
       50
102
RTVSPost2010PropOp37
 70
     1
102
RTVSPost2010Prop38
140
0.0
102
RTVSPost2010PropOp38
 70
     1
102
RTVSPost2010Prop39
140
1.0
102
RTVSPost2010PropOp39
 70
     1
102
RTVSPost2010Prop40
 90
        0
102
RTVSPost2010PropOp40
 70
     1
102
RTVSPost2010Prop41ColorIndex
 90
       18
102
RTVSPost2010Prop41ColorRGB
 90
        0
102
RTVSPost2010PropOp41
 70
     1
102
RTVSPost2010Prop42
 90
       50
102
RTVSPost2010PropOp42
 70
     1
102
RTVSPost2010Prop43
 90
        3
102
RTVSPost2010PropOp43
 70
     1
102
RTVSPost2010Prop44ColorIndex
 90
        5
102
RTVSPost2010Prop44ColorRGB
 90
      255
102
RTVSPost2010PropOp44
 70
     1
102
RTVSPost2010Prop45
280
     0
102
RTVSPost2010PropOp45
 70
     1
102
RTVSPost2010Prop46
 90
       50
102
RTVSPost2010PropOp46
 70
     1
102
RTVSPost2010Prop47
 90
       50
102
RTVSPost2010PropOp47
 70
     1
102
RTVSPost2010Prop48
 90
       50
102
RTVSPost2010PropOp48
 70
     1
102
RTVSPost2010Prop49
280
     0
102
RTVSPost2010PropOp49
 70
     1
102
RTVSPost2010Prop50
 90
       50
102
RTVSPost2010PropOp50
 70
     1
102
RTVSPost2010Prop51ColorIndex
 90
      256
102
RTVSPost2010Prop51ColorRGB
 90
-16777216
102
RTVSPost2010PropOp51
 70
     0
102
RTVSPost2010Prop52
140
1.0
102
RTVSPost2010PropOp52
 70
     0
102
RTVSPost2010Prop53
 90
        2
102
RTVSPost2010PropOp53
 70
     1
102
RTVSPost2010Prop54
  1
strokes_ogs.tif
102
RTVSPost2010PropOp54
 70
     1
102
RTVSPost2010Prop55
280
     0
102
RTVSPost2010PropOp55
 70
     1
102
RTVSPost2010Prop56
140
1.0
102
RTVSPost2010PropOp56
 70
     1
102
RTVSPost2010Prop57
140
1.0
102
RTVSPost2010PropOp57
 70
     1
  0
XRECORD
  5
271
102
{ACAD_REACTORS
330
270
102
}
330
270
100
AcDbXrecord
280
     1
102
RTVSPropertyOp0
 70
     1
102
RTVSPropertyOp1
 70
     1
102
RTVSPropertyOp2
 70
     1
102
RTVSPropertyOp3
 70
     1
102
RTVSPropertyOp4
 70
     1
102
RTVSPropertyOp5
 70
     1
102
RTVSPropertyOp6
 70
     1
102
RTVSPropertyOp7
 70
     1
102
RTVSPropertyOp8
 70
     1
102
RTVSPropertyOp9
 70
     1
102
RTVSPropertyOp10
 70
     1
102
RTVSPropertyOp11
 70
     1
102
RTVSPropertyOp12
 70
     1
102
RTVSPropertyOp13
 70
     1
102
RTVSPropertyOp14
 70
     1
102
RTVSPropertyOp15
 70
     1
102
RTVSPropertyOp16
 70
     1
102
RTVSPropertyOp17
 70
     1
102
RTVSPropertyOp18
 70
     1
102
RTVSPropertyOp19
 70
     1
102
RTVSPropertyOp20
 70
     1
102
RTVSPropertyOp21
 70
     1
102
RTVSPropertyOp22
 70
     1
102
RTVSPropertyOp23
 70
     1
102
RTVSPropertyOp24
 70
     1
102
RTVSPropertyOp25
 70
     1
102
RTVSPropertyOp26
 70
     1
102
RTVSPropertyOp27
 70
     1
102
RTVSPropertyOp28
 70
     1
102
RTVSPropertyOp29
 70
     1
102
RTVSPropertyOp30
 70
     1
102
RTVSPropertyOp31
 70
     1
102
RTVSPropertyOp32
 70
     1
102
RTVSPropertyOp33
 70
     1
102
RTVSPropertyOp34
 70
     1
102
RTVSPropertyOp35
 70
     1
102
RTVSPropertyOp36
 70
     1
102
RTVSPropertyOp37
 70
     1
102
RTVSPropertyOp38
 70
     1
102
RTVSPropertyOp39
 70
     1
102
RTVSPropertyOp40
 70
     1
102
RTVSPropertyOp41
 70
     1
102
RTVSPropertyOp42
 70
     1
102
RTVSPropertyOp43
 70
     1
102
RTVSPropertyOp44
 70
     1
102
RTVSPropertyOp45
 70
     1
102
RTVSPropertyOp46
 70
     1
102
RTVSPropertyOp47
 70
     1
102
RTVSPropertyOp48
 70
     1
102
RTVSPropertyOp49
 70
     1
102
RTVSPropertyOp50
 70
     1
102
RTVSPropertyOp51
 70
     0
102
RTVSPropertyOp52
 70
     0
102
RTVSPropertyOp53
 70
     1
102
RTVSPropertyOp54
 70
     1
102
RTVSPropertyOp55
 70
     1
102
RTVSPropertyOp56
 70
     1
102
RTVSPropertyOp57
 70
     1
102
RTVSPost2010Prop28
280
     0
102
RTVSPost2010PropOp28
 70
     1
102
RTVSPost2010Prop29
280
     1
102
RTVSPost2010PropOp29
 70
     1
102
RTVSPost2010Prop30
280
     1
102
RTVSPost2010PropOp30
 70
     1
102
RTVSPost2010Prop31
280
     0
102
RTVSPost2010PropOp31
 70
     1
102
RTVSPost2010Prop32
280
     0
102
RTVSPost2010PropOp32
 70
     1
102
RTVSPost2010Prop33
280
     0
102
RTVSPost2010PropOp33
 70
     1
102
RTVSPost2010Prop34
280
     0
102
RTVSPost2010PropOp34
 70
     1
102
RTVSPost2010Prop35
280
     0
102
RTVSPost2010PropOp35
 70
     1
102
RTVSPost2010Prop36
280
     0
102
RTVSPost2010PropOp36
 70
     1
102
RTVSPost2010Prop37
 90
       50
102
RTVSPost2010PropOp37
 70
     1
102
RTVSPost2010Prop38
140
0.0
102
RTVSPost2010PropOp38
 70
     1
102
RTVSPost2010Prop39
140
1.0
102
RTVSPost2010PropOp39
 70
     1
102
RTVSPost2010Prop40
 90
        0
102
RTVSPost2010PropOp40
 70
     1
102
RTVSPost2010Prop41ColorIndex
 90
       18
102
RTVSPost2010Prop41ColorRGB
 90
        0
102
RTVSPost2010PropOp41
 70
     1
102
RTVSPost2010Prop42
 90
       50
102
RTVSPost2010PropOp42
 70
     1
102
RTVSPost2010Prop43
 90
        3
102
RTVSPost2010PropOp43
 70
     1
102
RTVSPost2010Prop44ColorIndex
 90
        5
102
RTVSPost2010Prop44ColorRGB
 90
      255
102
RTVSPost2010PropOp44
 70
     1
102
RTVSPost2010Prop45
280
     0
102
RTVSPost2010PropOp45
 70
     1
102
RTVSPost2010Prop46
 90
       50
102
RTVSPost2010PropOp46
 70
     1
102
RTVSPost2010Prop47
 90
       50
102
RTVSPost2010PropOp47
 70
     1
102
RTVSPost2010Prop48
 90
       50
102
RTVSPost2010PropOp48
 70
     1
102
RTVSPost2010Prop49
280
     0
102
RTVSPost2010PropOp49
 70
     1
102
RTVSPost2010Prop50
 90
       50
102
RTVSPost2010PropOp50
 70
     1
102
RTVSPost2010Prop51ColorIndex
 90
      256
102
RTVSPost2010Prop51ColorRGB
 90
-16777216
102
RTVSPost2010PropOp51
 70
     0
102
RTVSPost2010Prop52
140
1.0
102
RTVSPost2010PropOp52
 70
     0
102
RTVSPost2010Prop53
 90
        2
102
RTVSPost2010PropOp53
 70
     1
102
RTVSPost2010Prop54
  1
strokes_ogs.tif
102
RTVSPost2010PropOp54
 70
     1
102
RTVSPost2010Prop55
280
     0
102
RTVSPost2010PropOp55
 70
     1
102
RTVSPost2010Prop56
140
1.0
102
RTVSPost2010PropOp56
 70
     1
102
RTVSPost2010Prop57
140
1.0
102
RTVSPost2010PropOp57
 70
     1
  0
XRECORD
  5
265
102
{ACAD_REACTORS
330
264
102
}
330
264
100
AcDbXrecord
280
     1
102
RTVSPropertyOp0
 70
     1
102
RTVSPropertyOp1
 70
     1
102
RTVSPropertyOp2
 70
     1
102
RTVSPropertyOp3
 70
     1
102
RTVSPropertyOp4
 70
     1
102
RTVSPropertyOp5
 70
     1
102
RTVSPropertyOp6
 70
     1
102
RTVSPropertyOp7
 70
     1
102
RTVSPropertyOp8
 70
     1
102
RTVSPropertyOp9
 70
     1
102
RTVSPropertyOp10
 70
     1
102
RTVSPropertyOp11
 70
     1
102
RTVSPropertyOp12
 70
     1
102
RTVSPropertyOp13
 70
     1
102
RTVSPropertyOp14
 70
     1
102
RTVSPropertyOp15
 70
     1
102
RTVSPropertyOp16
 70
     1
102
RTVSPropertyOp17
 70
     1
102
RTVSPropertyOp18
 70
     1
102
RTVSPropertyOp19
 70
     1
102
RTVSPropertyOp20
 70
     1
102
RTVSPropertyOp21
 70
     1
102
RTVSPropertyOp22
 70
     1
102
RTVSPropertyOp23
 70
     1
102
RTVSPropertyOp24
 70
     1
102
RTVSPropertyOp25
 70
     1
102
RTVSPropertyOp26
 70
     1
102
RTVSPropertyOp27
 70
     1
102
RTVSPropertyOp28
 70
     1
102
RTVSPropertyOp29
 70
     1
102
RTVSPropertyOp30
 70
     1
102
RTVSPropertyOp31
 70
     1
102
RTVSPropertyOp32
 70
     1
102
RTVSPropertyOp33
 70
     1
102
RTVSPropertyOp34
 70
     1
102
RTVSPropertyOp35
 70
     1
102
RTVSPropertyOp36
 70
     1
102
RTVSPropertyOp37
 70
     1
102
RTVSPropertyOp38
 70
     1
102
RTVSPropertyOp39
 70
     1
102
RTVSPropertyOp40
 70
     1
102
RTVSPropertyOp41
 70
     1
102
RTVSPropertyOp42
 70
     1
102
RTVSPropertyOp43
 70
     1
102
RTVSPropertyOp44
 70
     1
102
RTVSPropertyOp45
 70
     1
102
RTVSPropertyOp46
 70
     1
102
RTVSPropertyOp47
 70
     1
102
RTVSPropertyOp48
 70
     1
102
RTVSPropertyOp49
 70
     1
102
RTVSPropertyOp50
 70
     1
102
RTVSPropertyOp51
 70
     0
102
RTVSPropertyOp52
 70
     0
102
RTVSPropertyOp53
 70
     1
102
RTVSPropertyOp54
 70
     1
102
RTVSPropertyOp55
 70
     1
102
RTVSPropertyOp56
 70
     1
102
RTVSPropertyOp57
 70
     1
102
RTVSPost2010Prop28
280
     0
102
RTVSPost2010PropOp28
 70
     1
102
RTVSPost2010Prop29
280
     1
102
RTVSPost2010PropOp29
 70
     1
102
RTVSPost2010Prop30
280
     1
102
RTVSPost2010PropOp30
 70
     1
102
RTVSPost2010Prop31
280
     0
102
RTVSPost2010PropOp31
 70
     1
102
RTVSPost2010Prop32
280
     0
102
RTVSPost2010PropOp32
 70
     1
102
RTVSPost2010Prop33
280
     0
102
RTVSPost2010PropOp33
 70
     1
102
RTVSPost2010Prop34
280
     0
102
RTVSPost2010PropOp34
 70
     1
102
RTVSPost2010Prop35
280
     0
102
RTVSPost2010PropOp35
 70
     1
102
RTVSPost2010Prop36
280
     0
102
RTVSPost2010PropOp36
 70
     1
102
RTVSPost2010Prop37
 90
       50
102
RTVSPost2010PropOp37
 70
     1
102
RTVSPost2010Prop38
140
0.0
102
RTVSPost2010PropOp38
 70
     1
102
RTVSPost2010Prop39
140
1.0
102
RTVSPost2010PropOp39
 70
     1
102
RTVSPost2010Prop40
 90
        0
102
RTVSPost2010PropOp40
 70
     1
102
RTVSPost2010Prop41ColorIndex
 90
       18
102
RTVSPost2010Prop41ColorRGB
 90
        0
102
RTVSPost2010PropOp41
 70
     1
102
RTVSPost2010Prop42
 90
       50
102
RTVSPost2010PropOp42
 70
     1
102
RTVSPost2010Prop43
 90
        3
102
RTVSPost2010PropOp43
 70
     1
102
RTVSPost2010Prop44ColorIndex
 90
        5
102
RTVSPost2010Prop44ColorRGB
 90
      255
102
RTVSPost2010PropOp44
 70
     1
102
RTVSPost2010Prop45
280
     0
102
RTVSPost2010PropOp45
 70
     1
102
RTVSPost2010Prop46
 90
       50
102
RTVSPost2010PropOp46
 70
     1
102
RTVSPost2010Prop47
 90
       50
102
RTVSPost2010PropOp47
 70
     1
102
RTVSPost2010Prop48
 90
       50
102
RTVSPost2010PropOp48
 70
     1
102
RTVSPost2010Prop49
280
     0
102
RTVSPost2010PropOp49
 70
     1
102
RTVSPost2010Prop50
 90
       50
102
RTVSPost2010PropOp50
 70
     1
102
RTVSPost2010Prop51ColorIndex
 90
      256
102
RTVSPost2010Prop51ColorRGB
 90
-16777216
102
RTVSPost2010PropOp51
 70
     0
102
RTVSPost2010Prop52
140
1.0
102
RTVSPost2010PropOp52
 70
     0
102
RTVSPost2010Prop53
 90
        2
102
RTVSPost2010PropOp53
 70
     1
102
RTVSPost2010Prop54
  1
strokes_ogs.tif
102
RTVSPost2010PropOp54
 70
     1
102
RTVSPost2010Prop55
280
     0
102
RTVSPost2010PropOp55
 70
     1
102
RTVSPost2010Prop56
140
1.0
102
RTVSPost2010PropOp56
 70
     1
102
RTVSPost2010Prop57
140
1.0
102
RTVSPost2010PropOp57
 70
     1
  0
XRECORD
  5
267
102
{ACAD_REACTORS
330
266
102
}
330
266
100
AcDbXrecord
280
     1
102
RTVSPropertyOp0
 70
     1
102
RTVSPropertyOp1
 70
     1
102
RTVSPropertyOp2
 70
     1
102
RTVSPropertyOp3
 70
     1
102
RTVSPropertyOp4
 70
     1
102
RTVSPropertyOp5
 70
     1
102
RTVSPropertyOp6
 70
     1
102
RTVSPropertyOp7
 70
     1
102
RTVSPropertyOp8
 70
     1
102
RTVSPropertyOp9
 70
     1
102
RTVSPropertyOp10
 70
     1
102
RTVSPropertyOp11
 70
     1
102
RTVSPropertyOp12
 70
     1
102
RTVSPropertyOp13
 70
     1
102
RTVSPropertyOp14
 70
     1
102
RTVSPropertyOp15
 70
     1
102
RTVSPropertyOp16
 70
     1
102
RTVSPropertyOp17
 70
     1
102
RTVSPropertyOp18
 70
     1
102
RTVSPropertyOp19
 70
     1
102
RTVSPropertyOp20
 70
     1
102
RTVSPropertyOp21
 70
     1
102
RTVSPropertyOp22
 70
     1
102
RTVSPropertyOp23
 70
     1
102
RTVSPropertyOp24
 70
     1
102
RTVSPropertyOp25
 70
     1
102
RTVSPropertyOp26
 70
     1
102
RTVSPropertyOp27
 70
     1
102
RTVSPropertyOp28
 70
     1
102
RTVSPropertyOp29
 70
     1
102
RTVSPropertyOp30
 70
     1
102
RTVSPropertyOp31
 70
     1
102
RTVSPropertyOp32
 70
     1
102
RTVSPropertyOp33
 70
     1
102
RTVSPropertyOp34
 70
     1
102
RTVSPropertyOp35
 70
     1
102
RTVSPropertyOp36
 70
     1
102
RTVSPropertyOp37
 70
     1
102
RTVSPropertyOp38
 70
     1
102
RTVSPropertyOp39
 70
     1
102
RTVSPropertyOp40
 70
     1
102
RTVSPropertyOp41
 70
     1
102
RTVSPropertyOp42
 70
     1
102
RTVSPropertyOp43
 70
     1
102
RTVSPropertyOp44
 70
     1
102
RTVSPropertyOp45
 70
     1
102
RTVSPropertyOp46
 70
     1
102
RTVSPropertyOp47
 70
     1
102
RTVSPropertyOp48
 70
     1
102
RTVSPropertyOp49
 70
     1
102
RTVSPropertyOp50
 70
     1
102
RTVSPropertyOp51
 70
     0
102
RTVSPropertyOp52
 70
     0
102
RTVSPropertyOp53
 70
     1
102
RTVSPropertyOp54
 70
     1
102
RTVSPropertyOp55
 70
     1
102
RTVSPropertyOp56
 70
     1
102
RTVSPropertyOp57
 70
     1
102
RTVSPost2010Prop28
280
     0
102
RTVSPost2010PropOp28
 70
     1
102
RTVSPost2010Prop29
280
     1
102
RTVSPost2010PropOp29
 70
     1
102
RTVSPost2010Prop30
280
     1
102
RTVSPost2010PropOp30
 70
     1
102
RTVSPost2010Prop31
280
     0
102
RTVSPost2010PropOp31
 70
     1
102
RTVSPost2010Prop32
280
     0
102
RTVSPost2010PropOp32
 70
     1
102
RTVSPost2010Prop33
280
     0
102
RTVSPost2010PropOp33
 70
     1
102
RTVSPost2010Prop34
280
     0
102
RTVSPost2010PropOp34
 70
     1
102
RTVSPost2010Prop35
280
     0
102
RTVSPost2010PropOp35
 70
     1
102
RTVSPost2010Prop36
280
     0
102
RTVSPost2010PropOp36
 70
     1
102
RTVSPost2010Prop37
 90
       50
102
RTVSPost2010PropOp37
 70
     1
102
RTVSPost2010Prop38
140
0.0
102
RTVSPost2010PropOp38
 70
     1
102
RTVSPost2010Prop39
140
1.0
102
RTVSPost2010PropOp39
 70
     1
102
RTVSPost2010Prop40
 90
        0
102
RTVSPost2010PropOp40
 70
     1
102
RTVSPost2010Prop41ColorIndex
 90
       18
102
RTVSPost2010Prop41ColorRGB
 90
        0
102
RTVSPost2010PropOp41
 70
     1
102
RTVSPost2010Prop42
 90
       50
102
RTVSPost2010PropOp42
 70
     1
102
RTVSPost2010Prop43
 90
        3
102
RTVSPost2010PropOp43
 70
     1
102
RTVSPost2010Prop44ColorIndex
 90
        5
102
RTVSPost2010Prop44ColorRGB
 90
      255
102
RTVSPost2010PropOp44
 70
     1
102
RTVSPost2010Prop45
280
     0
102
RTVSPost2010PropOp45
 70
     1
102
RTVSPost2010Prop46
 90
       50
102
RTVSPost2010PropOp46
 70
     1
102
RTVSPost2010Prop47
 90
       50
102
RTVSPost2010PropOp47
 70
     1
102
RTVSPost2010Prop48
 90
       50
102
RTVSPost2010PropOp48
 70
     1
102
RTVSPost2010Prop49
280
     0
102
RTVSPost2010PropOp49
 70
     1
102
RTVSPost2010Prop50
 90
       50
102
RTVSPost2010PropOp50
 70
     1
102
RTVSPost2010Prop51ColorIndex
 90
      256
102
RTVSPost2010Prop51ColorRGB
 90
-16777216
102
RTVSPost2010PropOp51
 70
     0
102
RTVSPost2010Prop52
140
1.0
102
RTVSPost2010PropOp52
 70
     0
102
RTVSPost2010Prop53
 90
        2
102
RTVSPost2010PropOp53
 70
     1
102
RTVSPost2010Prop54
  1
strokes_ogs.tif
102
RTVSPost2010PropOp54
 70
     1
102
RTVSPost2010Prop55
280
     0
102
RTVSPost2010PropOp55
 70
     1
102
RTVSPost2010Prop56
140
1.0
102
RTVSPost2010PropOp56
 70
     1
102
RTVSPost2010Prop57
140
1.0
102
RTVSPost2010PropOp57
 70
     1
  0
XRECORD
  5
277
102
{ACAD_REACTORS
330
276
102
}
330
276
100
AcDbXrecord
280
     1
102
RTVSPropertyOp0
 70
     0
102
RTVSPropertyOp1
 70
     0
102
RTVSPropertyOp2
 70
     0
102
RTVSPropertyOp3
 70
     0
102
RTVSPropertyOp4
 70
     0
102
RTVSPropertyOp5
 70
     0
102
RTVSPropertyOp6
 70
     0
102
RTVSPropertyOp7
 70
     0
102
RTVSPropertyOp8
 70
     0
102
RTVSPropertyOp9
 70
     0
102
RTVSPropertyOp10
 70
     0
102
RTVSPropertyOp11
 70
     0
102
RTVSPropertyOp12
 70
     0
102
RTVSPropertyOp13
 70
     0
102
RTVSPropertyOp14
 70
     2
102
RTVSPropertyOp15
 70
     0
102
RTVSPropertyOp16
 70
     0
102
RTVSPropertyOp17
 70
     0
102
RTVSPropertyOp18
 70
     0
102
RTVSPropertyOp19
 70
     0
102
RTVSPropertyOp20
 70
     0
102
RTVSPropertyOp21
 70
     0
102
RTVSPropertyOp22
 70
     0
102
RTVSPropertyOp23
 70
     0
102
RTVSPropertyOp24
 70
     0
102
RTVSPropertyOp25
 70
     0
102
RTVSPropertyOp26
 70
     0
102
RTVSPropertyOp27
 70
     0
102
RTVSPropertyOp28
 70
     0
102
RTVSPropertyOp29
 70
     0
102
RTVSPropertyOp30
 70
     0
102
RTVSPropertyOp31
 70
     0
102
RTVSPropertyOp32
 70
     0
102
RTVSPropertyOp33
 70
     0
102
RTVSPropertyOp34
 70
     0
102
RTVSPropertyOp35
 70
     0
102
RTVSPropertyOp36
 70
     0
102
RTVSPropertyOp37
 70
     0
102
RTVSPropertyOp38
 70
     0
102
RTVSPropertyOp39
 70
     0
102
RTVSPropertyOp40
 70
     0
102
RTVSPropertyOp41
 70
     0
102
RTVSPropertyOp42
 70
     0
102
RTVSPropertyOp43
 70
     0
102
RTVSPropertyOp44
 70
     0
102
RTVSPropertyOp45
 70
     0
102
RTVSPropertyOp46
 70
     0
102
RTVSPropertyOp47
 70
     0
102
RTVSPropertyOp48
 70
     0
102
RTVSPropertyOp49
 70
     0
102
RTVSPropertyOp50
 70
     0
102
RTVSPropertyOp51
 70
     0
102
RTVSPropertyOp52
 70
     0
102
RTVSPropertyOp53
 70
     0
102
RTVSPropertyOp54
 70
     0
102
RTVSPropertyOp55
 70
     0
102
RTVSPropertyOp56
 70
     0
102
RTVSPropertyOp57
 70
     0
102
RTVSPost2010Prop28
280
     0
102
RTVSPost2010PropOp28
 70
     0
102
RTVSPost2010Prop29
280
     1
102
RTVSPost2010PropOp29
 70
     0
102
RTVSPost2010Prop30
280
     1
102
RTVSPost2010PropOp30
 70
     0
102
RTVSPost2010Prop31
280
     0
102
RTVSPost2010PropOp31
 70
     0
102
RTVSPost2010Prop32
280
     0
102
RTVSPost2010PropOp32
 70
     0
102
RTVSPost2010Prop33
280
     0
102
RTVSPost2010PropOp33
 70
     0
102
RTVSPost2010Prop34
280
     0
102
RTVSPost2010PropOp34
 70
     0
102
RTVSPost2010Prop35
280
     0
102
RTVSPost2010PropOp35
 70
     0
102
RTVSPost2010Prop36
280
     0
102
RTVSPost2010PropOp36
 70
     0
102
RTVSPost2010Prop37
 90
       50
102
RTVSPost2010PropOp37
 70
     0
102
RTVSPost2010Prop38
140
0.0
102
RTVSPost2010PropOp38
 70
     0
102
RTVSPost2010Prop39
140
1.0
102
RTVSPost2010PropOp39
 70
     0
102
RTVSPost2010Prop40
 90
        0
102
RTVSPost2010PropOp40
 70
     0
102
RTVSPost2010Prop41ColorIndex
 90
       18
102
RTVSPost2010Prop41ColorRGB
 90
        0
102
RTVSPost2010PropOp41
 70
     0
102
RTVSPost2010Prop42
 90
       50
102
RTVSPost2010PropOp42
 70
     0
102
RTVSPost2010Prop43
 90
        3
102
RTVSPost2010PropOp43
 70
     0
102
RTVSPost2010Prop44ColorIndex
 90
        5
102
RTVSPost2010Prop44ColorRGB
 90
      255
102
RTVSPost2010PropOp44
 70
     0
102
RTVSPost2010Prop45
280
     0
102
RTVSPost2010PropOp45
 70
     0
102
RTVSPost2010Prop46
 90
       50
102
RTVSPost2010PropOp46
 70
     0
102
RTVSPost2010Prop47
 90
       50
102
RTVSPost2010PropOp47
 70
     0
102
RTVSPost2010Prop48
 90
       50
102
RTVSPost2010PropOp48
 70
     0
102
RTVSPost2010Prop49
280
     0
102
RTVSPost2010PropOp49
 70
     0
102
RTVSPost2010Prop50
 90
       50
102
RTVSPost2010PropOp50
 70
     0
102
RTVSPost2010Prop51ColorIndex
 90
      256
102
RTVSPost2010Prop51ColorRGB
 90
-16777216
102
RTVSPost2010PropOp51
 70
     0
102
RTVSPost2010Prop52
140
1.0
102
RTVSPost2010PropOp52
 70
     0
102
RTVSPost2010Prop53
 90
        2
102
RTVSPost2010PropOp53
 70
     0
102
RTVSPost2010Prop54
  1
strokes_ogs.tif
102
RTVSPost2010PropOp54
 70
     0
102
RTVSPost2010Prop55
280
     0
102
RTVSPost2010PropOp55
 70
     0
102
RTVSPost2010Prop56
140
1.0
102
RTVSPost2010PropOp56
 70
     0
102
RTVSPost2010Prop57
140
1.0
102
RTVSPost2010PropOp57
 70
     0
  0
XRECORD
  5
26F
102
{ACAD_REACTORS
330
26E
102
}
330
26E
100
AcDbXrecord
280
     1
102
RTVSPropertyOp0
 70
     1
102
RTVSPropertyOp1
 70
     1
102
RTVSPropertyOp2
 70
     1
102
RTVSPropertyOp3
 70
     1
102
RTVSPropertyOp4
 70
     1
102
RTVSPropertyOp5
 70
     1
102
RTVSPropertyOp6
 70
     1
102
RTVSPropertyOp7
 70
     1
102
RTVSPropertyOp8
 70
     1
102
RTVSPropertyOp9
 70
     1
102
RTVSPropertyOp10
 70
     1
102
RTVSPropertyOp11
 70
     1
102
RTVSPropertyOp12
 70
     1
102
RTVSPropertyOp13
 70
     1
102
RTVSPropertyOp14
 70
     1
102
RTVSPropertyOp15
 70
     1
102
RTVSPropertyOp16
 70
     1
102
RTVSPropertyOp17
 70
     1
102
RTVSPropertyOp18
 70
     1
102
RTVSPropertyOp19
 70
     1
102
RTVSPropertyOp20
 70
     1
102
RTVSPropertyOp21
 70
     1
102
RTVSPropertyOp22
 70
     1
102
RTVSPropertyOp23
 70
     1
102
RTVSPropertyOp24
 70
     1
102
RTVSPropertyOp25
 70
     1
102
RTVSPropertyOp26
 70
     1
102
RTVSPropertyOp27
 70
     1
102
RTVSPropertyOp28
 70
     1
102
RTVSPropertyOp29
 70
     1
102
RTVSPropertyOp30
 70
     1
102
RTVSPropertyOp31
 70
     1
102
RTVSPropertyOp32
 70
     1
102
RTVSPropertyOp33
 70
     1
102
RTVSPropertyOp34
 70
     1
102
RTVSPropertyOp35
 70
     1
102
RTVSPropertyOp36
 70
     1
102
RTVSPropertyOp37
 70
     1
102
RTVSPropertyOp38
 70
     1
102
RTVSPropertyOp39
 70
     1
102
RTVSPropertyOp40
 70
     1
102
RTVSPropertyOp41
 70
     1
102
RTVSPropertyOp42
 70
     1
102
RTVSPropertyOp43
 70
     1
102
RTVSPropertyOp44
 70
     1
102
RTVSPropertyOp45
 70
     1
102
RTVSPropertyOp46
 70
     1
102
RTVSPropertyOp47
 70
     1
102
RTVSPropertyOp48
 70
     1
102
RTVSPropertyOp49
 70
     1
102
RTVSPropertyOp50
 70
     1
102
RTVSPropertyOp51
 70
     0
102
RTVSPropertyOp52
 70
     0
102
RTVSPropertyOp53
 70
     1
102
RTVSPropertyOp54
 70
     1
102
RTVSPropertyOp55
 70
     1
102
RTVSPropertyOp56
 70
     1
102
RTVSPropertyOp57
 70
     1
102
RTVSPost2010Prop28
280
     0
102
RTVSPost2010PropOp28
 70
     1
102
RTVSPost2010Prop29
280
     1
102
RTVSPost2010PropOp29
 70
     1
102
RTVSPost2010Prop30
280
     1
102
RTVSPost2010PropOp30
 70
     1
102
RTVSPost2010Prop31
280
     0
102
RTVSPost2010PropOp31
 70
     1
102
RTVSPost2010Prop32
280
     0
102
RTVSPost2010PropOp32
 70
     1
102
RTVSPost2010Prop33
280
     0
102
RTVSPost2010PropOp33
 70
     1
102
RTVSPost2010Prop34
280
     0
102
RTVSPost2010PropOp34
 70
     1
102
RTVSPost2010Prop35
280
     0
102
RTVSPost2010PropOp35
 70
     1
102
RTVSPost2010Prop36
280
     0
102
RTVSPost2010PropOp36
 70
     1
102
RTVSPost2010Prop37
 90
       50
102
RTVSPost2010PropOp37
 70
     1
102
RTVSPost2010Prop38
140
0.0
102
RTVSPost2010PropOp38
 70
     1
102
RTVSPost2010Prop39
140
1.0
102
RTVSPost2010PropOp39
 70
     1
102
RTVSPost2010Prop40
 90
        0
102
RTVSPost2010PropOp40
 70
     1
102
RTVSPost2010Prop41ColorIndex
 90
       18
102
RTVSPost2010Prop41ColorRGB
 90
        0
102
RTVSPost2010PropOp41
 70
     1
102
RTVSPost2010Prop42
 90
       50
102
RTVSPost2010PropOp42
 70
     1
102
RTVSPost2010Prop43
 90
        3
102
RTVSPost2010PropOp43
 70
     1
102
RTVSPost2010Prop44ColorIndex
 90
        5
102
RTVSPost2010Prop44ColorRGB
 90
      255
102
RTVSPost2010PropOp44
 70
     1
102
RTVSPost2010Prop45
280
     0
102
RTVSPost2010PropOp45
 70
     1
102
RTVSPost2010Prop46
 90
       50
102
RTVSPost2010PropOp46
 70
     1
102
RTVSPost2010Prop47
 90
       50
102
RTVSPost2010PropOp47
 70
     1
102
RTVSPost2010Prop48
 90
       50
102
RTVSPost2010PropOp48
 70
     1
102
RTVSPost2010Prop49
280
     0
102
RTVSPost2010PropOp49
 70
     1
102
RTVSPost2010Prop50
 90
       50
102
RTVSPost2010PropOp50
 70
     1
102
RTVSPost2010Prop51ColorIndex
 90
      256
102
RTVSPost2010Prop51ColorRGB
 90
-16777216
102
RTVSPost2010PropOp51
 70
     0
102
RTVSPost2010Prop52
140
1.0
102
RTVSPost2010PropOp52
 70
     0
102
RTVSPost2010Prop53
 90
        2
102
RTVSPost2010PropOp53
 70
     1
102
RTVSPost2010Prop54
  1
strokes_ogs.tif
102
RTVSPost2010PropOp54
 70
     1
102
RTVSPost2010Prop55
280
     0
102
RTVSPost2010PropOp55
 70
     1
102
RTVSPost2010Prop56
140
1.0
102
RTVSPost2010PropOp56
 70
     1
102
RTVSPost2010Prop57
140
1.0
102
RTVSPost2010PropOp57
 70
     1
  0
XRECORD
  5
253
102
{ACAD_REACTORS
330
252
102
}
330
252
100
AcDbXrecord
280
     1
102
RTVSPropertyOp0
 70
     1
102
RTVSPropertyOp1
 70
     1
102
RTVSPropertyOp2
 70
     1
102
RTVSPropertyOp3
 70
     1
102
RTVSPropertyOp4
 70
     1
102
RTVSPropertyOp5
 70
     1
102
RTVSPropertyOp6
 70
     1
102
RTVSPropertyOp7
 70
     1
102
RTVSPropertyOp8
 70
     1
102
RTVSPropertyOp9
 70
     1
102
RTVSPropertyOp10
 70
     1
102
RTVSPropertyOp11
 70
     1
102
RTVSPropertyOp12
 70
     1
102
RTVSPropertyOp13
 70
     1
102
RTVSPropertyOp14
 70
     1
102
RTVSPropertyOp15
 70
     1
102
RTVSPropertyOp16
 70
     1
102
RTVSPropertyOp17
 70
     1
102
RTVSPropertyOp18
 70
     1
102
RTVSPropertyOp19
 70
     1
102
RTVSPropertyOp20
 70
     1
102
RTVSPropertyOp21
 70
     1
102
RTVSPropertyOp22
 70
     1
102
RTVSPropertyOp23
 70
     1
102
RTVSPropertyOp24
 70
     1
102
RTVSPropertyOp25
 70
     1
102
RTVSPropertyOp26
 70
     1
102
RTVSPropertyOp27
 70
     1
102
RTVSPropertyOp28
 70
     1
102
RTVSPropertyOp29
 70
     1
102
RTVSPropertyOp30
 70
     1
102
RTVSPropertyOp31
 70
     1
102
RTVSPropertyOp32
 70
     1
102
RTVSPropertyOp33
 70
     1
102
RTVSPropertyOp34
 70
     1
102
RTVSPropertyOp35
 70
     1
102
RTVSPropertyOp36
 70
     1
102
RTVSPropertyOp37
 70
     1
102
RTVSPropertyOp38
 70
     1
102
RTVSPropertyOp39
 70
     1
102
RTVSPropertyOp40
 70
     1
102
RTVSPropertyOp41
 70
     1
102
RTVSPropertyOp42
 70
     1
102
RTVSPropertyOp43
 70
     1
102
RTVSPropertyOp44
 70
     1
102
RTVSPropertyOp45
 70
     1
102
RTVSPropertyOp46
 70
     1
102
RTVSPropertyOp47
 70
     1
102
RTVSPropertyOp48
 70
     1
102
RTVSPropertyOp49
 70
     1
102
RTVSPropertyOp50
 70
     1
102
RTVSPropertyOp51
 70
     0
102
RTVSPropertyOp52
 70
     0
102
RTVSPropertyOp53
 70
     1
102
RTVSPropertyOp54
 70
     1
102
RTVSPropertyOp55
 70
     1
102
RTVSPropertyOp56
 70
     1
102
RTVSPropertyOp57
 70
     1
102
RTVSPost2010Prop28
280
     0
102
RTVSPost2010PropOp28
 70
     1
102
RTVSPost2010Prop29
280
     1
102
RTVSPost2010PropOp29
 70
     1
102
RTVSPost2010Prop30
280
     1
102
RTVSPost2010PropOp30
 70
     1
102
RTVSPost2010Prop31
280
     0
102
RTVSPost2010PropOp31
 70
     1
102
RTVSPost2010Prop32
280
     0
102
RTVSPost2010PropOp32
 70
     1
102
RTVSPost2010Prop33
280
     0
102
RTVSPost2010PropOp33
 70
     1
102
RTVSPost2010Prop34
280
     0
102
RTVSPost2010PropOp34
 70
     1
102
RTVSPost2010Prop35
280
     0
102
RTVSPost2010PropOp35
 70
     1
102
RTVSPost2010Prop36
280
     0
102
RTVSPost2010PropOp36
 70
     1
102
RTVSPost2010Prop37
 90
       50
102
RTVSPost2010PropOp37
 70
     1
102
RTVSPost2010Prop38
140
0.0
102
RTVSPost2010PropOp38
 70
     1
102
RTVSPost2010Prop39
140
1.0
102
RTVSPost2010PropOp39
 70
     1
102
RTVSPost2010Prop40
 90
        0
102
RTVSPost2010PropOp40
 70
     1
102
RTVSPost2010Prop41ColorIndex
 90
       18
102
RTVSPost2010Prop41ColorRGB
 90
        0
102
RTVSPost2010PropOp41
 70
     1
102
RTVSPost2010Prop42
 90
       50
102
RTVSPost2010PropOp42
 70
     1
102
RTVSPost2010Prop43
 90
        3
102
RTVSPost2010PropOp43
 70
     1
102
RTVSPost2010Prop44ColorIndex
 90
        5
102
RTVSPost2010Prop44ColorRGB
 90
      255
102
RTVSPost2010PropOp44
 70
     1
102
RTVSPost2010Prop45
280
     0
102
RTVSPost2010PropOp45
 70
     1
102
RTVSPost2010Prop46
 90
       50
102
RTVSPost2010PropOp46
 70
     1
102
RTVSPost2010Prop47
 90
       50
102
RTVSPost2010PropOp47
 70
     1
102
RTVSPost2010Prop48
 90
       50
102
RTVSPost2010PropOp48
 70
     1
102
RTVSPost2010Prop49
280
     0
102
RTVSPost2010PropOp49
 70
     1
102
RTVSPost2010Prop50
 90
       50
102
RTVSPost2010PropOp50
 70
     1
102
RTVSPost2010Prop51ColorIndex
 90
      256
102
RTVSPost2010Prop51ColorRGB
 90
-16777216
102
RTVSPost2010PropOp51
 70
     0
102
RTVSPost2010Prop52
140
1.0
102
RTVSPost2010PropOp52
 70
     0
102
RTVSPost2010Prop53
 90
        2
102
RTVSPost2010PropOp53
 70
     1
102
RTVSPost2010Prop54
  1
strokes_ogs.tif
102
RTVSPost2010PropOp54
 70
     1
102
RTVSPost2010Prop55
280
     0
102
RTVSPost2010PropOp55
 70
     1
102
RTVSPost2010Prop56
140
1.0
102
RTVSPost2010PropOp56
 70
     1
102
RTVSPost2010Prop57
140
1.0
102
RTVSPost2010PropOp57
 70
     1
  0
XRECORD
  5
255
102
{ACAD_REACTORS
330
254
102
}
330
254
100
AcDbXrecord
280
     1
102
RTVSPropertyOp0
 70
     1
102
RTVSPropertyOp1
 70
     1
102
RTVSPropertyOp2
 70
     1
102
RTVSPropertyOp3
 70
     1
102
RTVSPropertyOp4
 70
     1
102
RTVSPropertyOp5
 70
     1
102
RTVSPropertyOp6
 70
     1
102
RTVSPropertyOp7
 70
     1
102
RTVSPropertyOp8
 70
     1
102
RTVSPropertyOp9
 70
     1
102
RTVSPropertyOp10
 70
     1
102
RTVSPropertyOp11
 70
     1
102
RTVSPropertyOp12
 70
     1
102
RTVSPropertyOp13
 70
     1
102
RTVSPropertyOp14
 70
     1
102
RTVSPropertyOp15
 70
     1
102
RTVSPropertyOp16
 70
     1
102
RTVSPropertyOp17
 70
     1
102
RTVSPropertyOp18
 70
     1
102
RTVSPropertyOp19
 70
     1
102
RTVSPropertyOp20
 70
     1
102
RTVSPropertyOp21
 70
     1
102
RTVSPropertyOp22
 70
     1
102
RTVSPropertyOp23
 70
     1
102
RTVSPropertyOp24
 70
     1
102
RTVSPropertyOp25
 70
     1
102
RTVSPropertyOp26
 70
     1
102
RTVSPropertyOp27
 70
     1
102
RTVSPropertyOp28
 70
     1
102
RTVSPropertyOp29
 70
     1
102
RTVSPropertyOp30
 70
     1
102
RTVSPropertyOp31
 70
     1
102
RTVSPropertyOp32
 70
     1
102
RTVSPropertyOp33
 70
     1
102
RTVSPropertyOp34
 70
     1
102
RTVSPropertyOp35
 70
     1
102
RTVSPropertyOp36
 70
     1
102
RTVSPropertyOp37
 70
     1
102
RTVSPropertyOp38
 70
     1
102
RTVSPropertyOp39
 70
     1
102
RTVSPropertyOp40
 70
     1
102
RTVSPropertyOp41
 70
     1
102
RTVSPropertyOp42
 70
     1
102
RTVSPropertyOp43
 70
     1
102
RTVSPropertyOp44
 70
     1
102
RTVSPropertyOp45
 70
     1
102
RTVSPropertyOp46
 70
     1
102
RTVSPropertyOp47
 70
     1
102
RTVSPropertyOp48
 70
     1
102
RTVSPropertyOp49
 70
     1
102
RTVSPropertyOp50
 70
     1
102
RTVSPropertyOp51
 70
     0
102
RTVSPropertyOp52
 70
     0
102
RTVSPropertyOp53
 70
     1
102
RTVSPropertyOp54
 70
     1
102
RTVSPropertyOp55
 70
     1
102
RTVSPropertyOp56
 70
     1
102
RTVSPropertyOp57
 70
     1
102
RTVSPost2010Prop28
280
     0
102
RTVSPost2010PropOp28
 70
     1
102
RTVSPost2010Prop29
280
     1
102
RTVSPost2010PropOp29
 70
     1
102
RTVSPost2010Prop30
280
     1
102
RTVSPost2010PropOp30
 70
     1
102
RTVSPost2010Prop31
280
     0
102
RTVSPost2010PropOp31
 70
     1
102
RTVSPost2010Prop32
280
     0
102
RTVSPost2010PropOp32
 70
     1
102
RTVSPost2010Prop33
280
     0
102
RTVSPost2010PropOp33
 70
     1
102
RTVSPost2010Prop34
280
     0
102
RTVSPost2010PropOp34
 70
     1
102
RTVSPost2010Prop35
280
     0
102
RTVSPost2010PropOp35
 70
     1
102
RTVSPost2010Prop36
280
     0
102
RTVSPost2010PropOp36
 70
     1
102
RTVSPost2010Prop37
 90
       50
102
RTVSPost2010PropOp37
 70
     1
102
RTVSPost2010Prop38
140
0.0
102
RTVSPost2010PropOp38
 70
     1
102
RTVSPost2010Prop39
140
1.0
102
RTVSPost2010PropOp39
 70
     1
102
RTVSPost2010Prop40
 90
        0
102
RTVSPost2010PropOp40
 70
     1
102
RTVSPost2010Prop41ColorIndex
 90
       18
102
RTVSPost2010Prop41ColorRGB
 90
        0
102
RTVSPost2010PropOp41
 70
     1
102
RTVSPost2010Prop42
 90
       50
102
RTVSPost2010PropOp42
 70
     1
102
RTVSPost2010Prop43
 90
        3
102
RTVSPost2010PropOp43
 70
     1
102
RTVSPost2010Prop44ColorIndex
 90
        5
102
RTVSPost2010Prop44ColorRGB
 90
      255
102
RTVSPost2010PropOp44
 70
     1
102
RTVSPost2010Prop45
280
     0
102
RTVSPost2010PropOp45
 70
     1
102
RTVSPost2010Prop46
 90
       50
102
RTVSPost2010PropOp46
 70
     1
102
RTVSPost2010Prop47
 90
       50
102
RTVSPost2010PropOp47
 70
     1
102
RTVSPost2010Prop48
 90
       50
102
RTVSPost2010PropOp48
 70
     1
102
RTVSPost2010Prop49
280
     0
102
RTVSPost2010PropOp49
 70
     1
102
RTVSPost2010Prop50
 90
       50
102
RTVSPost2010PropOp50
 70
     1
102
RTVSPost2010Prop51ColorIndex
 90
      256
102
RTVSPost2010Prop51ColorRGB
 90
-16777216
102
RTVSPost2010PropOp51
 70
     0
102
RTVSPost2010Prop52
140
1.0
102
RTVSPost2010PropOp52
 70
     0
102
RTVSPost2010Prop53
 90
        2
102
RTVSPost2010PropOp53
 70
     1
102
RTVSPost2010Prop54
  1
strokes_ogs.tif
102
RTVSPost2010PropOp54
 70
     1
102
RTVSPost2010Prop55
280
     0
102
RTVSPost2010PropOp55
 70
     1
102
RTVSPost2010Prop56
140
1.0
102
RTVSPost2010PropOp56
 70
     1
102
RTVSPost2010Prop57
140
1.0
102
RTVSPost2010PropOp57
 70
     1
  0
XRECORD
  5
257
102
{ACAD_REACTORS
330
256
102
}
330
256
100
AcDbXrecord
280
     1
102
RTVSPropertyOp0
 70
     1
102
RTVSPropertyOp1
 70
     1
102
RTVSPropertyOp2
 70
     1
102
RTVSPropertyOp3
 70
     1
102
RTVSPropertyOp4
 70
     1
102
RTVSPropertyOp5
 70
     1
102
RTVSPropertyOp6
 70
     1
102
RTVSPropertyOp7
 70
     1
102
RTVSPropertyOp8
 70
     1
102
RTVSPropertyOp9
 70
     1
102
RTVSPropertyOp10
 70
     1
102
RTVSPropertyOp11
 70
     1
102
RTVSPropertyOp12
 70
     1
102
RTVSPropertyOp13
 70
     1
102
RTVSPropertyOp14
 70
     1
102
RTVSPropertyOp15
 70
     1
102
RTVSPropertyOp16
 70
     1
102
RTVSPropertyOp17
 70
     1
102
RTVSPropertyOp18
 70
     1
102
RTVSPropertyOp19
 70
     1
102
RTVSPropertyOp20
 70
     1
102
RTVSPropertyOp21
 70
     1
102
RTVSPropertyOp22
 70
     1
102
RTVSPropertyOp23
 70
     1
102
RTVSPropertyOp24
 70
     1
102
RTVSPropertyOp25
 70
     1
102
RTVSPropertyOp26
 70
     1
102
RTVSPropertyOp27
 70
     1
102
RTVSPropertyOp28
 70
     1
102
RTVSPropertyOp29
 70
     1
102
RTVSPropertyOp30
 70
     1
102
RTVSPropertyOp31
 70
     1
102
RTVSPropertyOp32
 70
     1
102
RTVSPropertyOp33
 70
     1
102
RTVSPropertyOp34
 70
     1
102
RTVSPropertyOp35
 70
     1
102
RTVSPropertyOp36
 70
     1
102
RTVSPropertyOp37
 70
     1
102
RTVSPropertyOp38
 70
     1
102
RTVSPropertyOp39
 70
     1
102
RTVSPropertyOp40
 70
     1
102
RTVSPropertyOp41
 70
     1
102
RTVSPropertyOp42
 70
     1
102
RTVSPropertyOp43
 70
     1
102
RTVSPropertyOp44
 70
     1
102
RTVSPropertyOp45
 70
     1
102
RTVSPropertyOp46
 70
     1
102
RTVSPropertyOp47
 70
     1
102
RTVSPropertyOp48
 70
     1
102
RTVSPropertyOp49
 70
     1
102
RTVSPropertyOp50
 70
     1
102
RTVSPropertyOp51
 70
     0
102
RTVSPropertyOp52
 70
     0
102
RTVSPropertyOp53
 70
     1
102
RTVSPropertyOp54
 70
     1
102
RTVSPropertyOp55
 70
     1
102
RTVSPropertyOp56
 70
     1
102
RTVSPropertyOp57
 70
     1
102
RTVSPost2010Prop28
280
     0
102
RTVSPost2010PropOp28
 70
     1
102
RTVSPost2010Prop29
280
     1
102
RTVSPost2010PropOp29
 70
     1
102
RTVSPost2010Prop30
280
     1
102
RTVSPost2010PropOp30
 70
     1
102
RTVSPost2010Prop31
280
     0
102
RTVSPost2010PropOp31
 70
     1
102
RTVSPost2010Prop32
280
     0
102
RTVSPost2010PropOp32
 70
     1
102
RTVSPost2010Prop33
280
     0
102
RTVSPost2010PropOp33
 70
     1
102
RTVSPost2010Prop34
280
     0
102
RTVSPost2010PropOp34
 70
     1
102
RTVSPost2010Prop35
280
     0
102
RTVSPost2010PropOp35
 70
     1
102
RTVSPost2010Prop36
280
     0
102
RTVSPost2010PropOp36
 70
     1
102
RTVSPost2010Prop37
 90
       50
102
RTVSPost2010PropOp37
 70
     1
102
RTVSPost2010Prop38
140
0.0
102
RTVSPost2010PropOp38
 70
     1
102
RTVSPost2010Prop39
140
1.0
102
RTVSPost2010PropOp39
 70
     1
102
RTVSPost2010Prop40
 90
        0
102
RTVSPost2010PropOp40
 70
     1
102
RTVSPost2010Prop41ColorIndex
 90
       18
102
RTVSPost2010Prop41ColorRGB
 90
        0
102
RTVSPost2010PropOp41
 70
     1
102
RTVSPost2010Prop42
 90
       50
102
RTVSPost2010PropOp42
 70
     1
102
RTVSPost2010Prop43
 90
        3
102
RTVSPost2010PropOp43
 70
     1
102
RTVSPost2010Prop44ColorIndex
 90
        5
102
RTVSPost2010Prop44ColorRGB
 90
      255
102
RTVSPost2010PropOp44
 70
     1
102
RTVSPost2010Prop45
280
     0
102
RTVSPost2010PropOp45
 70
     1
102
RTVSPost2010Prop46
 90
       50
102
RTVSPost2010PropOp46
 70
     1
102
RTVSPost2010Prop47
 90
       50
102
RTVSPost2010PropOp47
 70
     1
102
RTVSPost2010Prop48
 90
       50
102
RTVSPost2010PropOp48
 70
     1
102
RTVSPost2010Prop49
280
     0
102
RTVSPost2010PropOp49
 70
     1
102
RTVSPost2010Prop50
 90
       50
102
RTVSPost2010PropOp50
 70
     1
102
RTVSPost2010Prop51ColorIndex
 90
      256
102
RTVSPost2010Prop51ColorRGB
 90
-16777216
102
RTVSPost2010PropOp51
 70
     0
102
RTVSPost2010Prop52
140
1.0
102
RTVSPost2010PropOp52
 70
     0
102
RTVSPost2010Prop53
 90
        2
102
RTVSPost2010PropOp53
 70
     1
102
RTVSPost2010Prop54
  1
strokes_ogs.tif
102
RTVSPost2010PropOp54
 70
     1
102
RTVSPost2010Prop55
280
     0
102
RTVSPost2010PropOp55
 70
     1
102
RTVSPost2010Prop56
140
1.0
102
RTVSPost2010PropOp56
 70
     1
102
RTVSPost2010Prop57
140
1.0
102
RTVSPost2010PropOp57
 70
     1
  0
XRECORD
  5
259
102
{ACAD_REACTORS
330
258
102
}
330
258
100
AcDbXrecord
280
     1
102
RTVSPropertyOp0
 70
     1
102
RTVSPropertyOp1
 70
     1
102
RTVSPropertyOp2
 70
     1
102
RTVSPropertyOp3
 70
     1
102
RTVSPropertyOp4
 70
     1
102
RTVSPropertyOp5
 70
     1
102
RTVSPropertyOp6
 70
     1
102
RTVSPropertyOp7
 70
     1
102
RTVSPropertyOp8
 70
     1
102
RTVSPropertyOp9
 70
     1
102
RTVSPropertyOp10
 70
     1
102
RTVSPropertyOp11
 70
     1
102
RTVSPropertyOp12
 70
     1
102
RTVSPropertyOp13
 70
     1
102
RTVSPropertyOp14
 70
     1
102
RTVSPropertyOp15
 70
     1
102
RTVSPropertyOp16
 70
     1
102
RTVSPropertyOp17
 70
     1
102
RTVSPropertyOp18
 70
     1
102
RTVSPropertyOp19
 70
     1
102
RTVSPropertyOp20
 70
     1
102
RTVSPropertyOp21
 70
     1
102
RTVSPropertyOp22
 70
     1
102
RTVSPropertyOp23
 70
     1
102
RTVSPropertyOp24
 70
     1
102
RTVSPropertyOp25
 70
     1
102
RTVSPropertyOp26
 70
     1
102
RTVSPropertyOp27
 70
     1
102
RTVSPropertyOp28
 70
     1
102
RTVSPropertyOp29
 70
     1
102
RTVSPropertyOp30
 70
     1
102
RTVSPropertyOp31
 70
     1
102
RTVSPropertyOp32
 70
     1
102
RTVSPropertyOp33
 70
     1
102
RTVSPropertyOp34
 70
     1
102
RTVSPropertyOp35
 70
     1
102
RTVSPropertyOp36
 70
     1
102
RTVSPropertyOp37
 70
     1
102
RTVSPropertyOp38
 70
     1
102
RTVSPropertyOp39
 70
     1
102
RTVSPropertyOp40
 70
     1
102
RTVSPropertyOp41
 70
     1
102
RTVSPropertyOp42
 70
     1
102
RTVSPropertyOp43
 70
     1
102
RTVSPropertyOp44
 70
     1
102
RTVSPropertyOp45
 70
     1
102
RTVSPropertyOp46
 70
     1
102
RTVSPropertyOp47
 70
     1
102
RTVSPropertyOp48
 70
     1
102
RTVSPropertyOp49
 70
     1
102
RTVSPropertyOp50
 70
     1
102
RTVSPropertyOp51
 70
     0
102
RTVSPropertyOp52
 70
     0
102
RTVSPropertyOp53
 70
     1
102
RTVSPropertyOp54
 70
     1
102
RTVSPropertyOp55
 70
     1
102
RTVSPropertyOp56
 70
     1
102
RTVSPropertyOp57
 70
     1
102
RTVSPost2010Prop28
280
     0
102
RTVSPost2010PropOp28
 70
     1
102
RTVSPost2010Prop29
280
     1
102
RTVSPost2010PropOp29
 70
     1
102
RTVSPost2010Prop30
280
     1
102
RTVSPost2010PropOp30
 70
     1
102
RTVSPost2010Prop31
280
     0
102
RTVSPost2010PropOp31
 70
     1
102
RTVSPost2010Prop32
280
     0
102
RTVSPost2010PropOp32
 70
     1
102
RTVSPost2010Prop33
280
     0
102
RTVSPost2010PropOp33
 70
     1
102
RTVSPost2010Prop34
280
     0
102
RTVSPost2010PropOp34
 70
     1
102
RTVSPost2010Prop35
280
     0
102
RTVSPost2010PropOp35
 70
     1
102
RTVSPost2010Prop36
280
     0
102
RTVSPost2010PropOp36
 70
     1
102
RTVSPost2010Prop37
 90
       50
102
RTVSPost2010PropOp37
 70
     1
102
RTVSPost2010Prop38
140
0.0
102
RTVSPost2010PropOp38
 70
     1
102
RTVSPost2010Prop39
140
1.0
102
RTVSPost2010PropOp39
 70
     1
102
RTVSPost2010Prop40
 90
        0
102
RTVSPost2010PropOp40
 70
     1
102
RTVSPost2010Prop41ColorIndex
 90
       18
102
RTVSPost2010Prop41ColorRGB
 90
        0
102
RTVSPost2010PropOp41
 70
     1
102
RTVSPost2010Prop42
 90
       50
102
RTVSPost2010PropOp42
 70
     1
102
RTVSPost2010Prop43
 90
        3
102
RTVSPost2010PropOp43
 70
     1
102
RTVSPost2010Prop44ColorIndex
 90
        5
102
RTVSPost2010Prop44ColorRGB
 90
      255
102
RTVSPost2010PropOp44
 70
     1
102
RTVSPost2010Prop45
280
     0
102
RTVSPost2010PropOp45
 70
     1
102
RTVSPost2010Prop46
 90
       50
102
RTVSPost2010PropOp46
 70
     1
102
RTVSPost2010Prop47
 90
       50
102
RTVSPost2010PropOp47
 70
     1
102
RTVSPost2010Prop48
 90
       50
102
RTVSPost2010PropOp48
 70
     1
102
RTVSPost2010Prop49
280
     0
102
RTVSPost2010PropOp49
 70
     1
102
RTVSPost2010Prop50
 90
       50
102
RTVSPost2010PropOp50
 70
     1
102
RTVSPost2010Prop51ColorIndex
 90
      256
102
RTVSPost2010Prop51ColorRGB
 90
-16777216
102
RTVSPost2010PropOp51
 70
     0
102
RTVSPost2010Prop52
140
1.0
102
RTVSPost2010PropOp52
 70
     0
102
RTVSPost2010Prop53
 90
        2
102
RTVSPost2010PropOp53
 70
     1
102
RTVSPost2010Prop54
  1
strokes_ogs.tif
102
RTVSPost2010PropOp54
 70
     1
102
RTVSPost2010Prop55
280
     0
102
RTVSPost2010PropOp55
 70
     1
102
RTVSPost2010Prop56
140
1.0
102
RTVSPost2010PropOp56
 70
     1
102
RTVSPost2010Prop57
140
1.0
102
RTVSPost2010PropOp57
 70
     1
  0
XRECORD
  5
25F
102
{ACAD_REACTORS
330
25E
102
}
330
25E
100
AcDbXrecord
280
     1
102
RTVSPropertyOp0
 70
     1
102
RTVSPropertyOp1
 70
     1
102
RTVSPropertyOp2
 70
     1
102
RTVSPropertyOp3
 70
     1
102
RTVSPropertyOp4
 70
     1
102
RTVSPropertyOp5
 70
     1
102
RTVSPropertyOp6
 70
     1
102
RTVSPropertyOp7
 70
     1
102
RTVSPropertyOp8
 70
     1
102
RTVSPropertyOp9
 70
     1
102
RTVSPropertyOp10
 70
     1
102
RTVSPropertyOp11
 70
     1
102
RTVSPropertyOp12
 70
     1
102
RTVSPropertyOp13
 70
     1
102
RTVSPropertyOp14
 70
     1
102
RTVSPropertyOp15
 70
     1
102
RTVSPropertyOp16
 70
     1
102
RTVSPropertyOp17
 70
     1
102
RTVSPropertyOp18
 70
     1
102
RTVSPropertyOp19
 70
     1
102
RTVSPropertyOp20
 70
     1
102
RTVSPropertyOp21
 70
     1
102
RTVSPropertyOp22
 70
     1
102
RTVSPropertyOp23
 70
     1
102
RTVSPropertyOp24
 70
     1
102
RTVSPropertyOp25
 70
     1
102
RTVSPropertyOp26
 70
     1
102
RTVSPropertyOp27
 70
     1
102
RTVSPropertyOp28
 70
     1
102
RTVSPropertyOp29
 70
     1
102
RTVSPropertyOp30
 70
     1
102
RTVSPropertyOp31
 70
     1
102
RTVSPropertyOp32
 70
     1
102
RTVSPropertyOp33
 70
     1
102
RTVSPropertyOp34
 70
     1
102
RTVSPropertyOp35
 70
     1
102
RTVSPropertyOp36
 70
     1
102
RTVSPropertyOp37
 70
     1
102
RTVSPropertyOp38
 70
     1
102
RTVSPropertyOp39
 70
     1
102
RTVSPropertyOp40
 70
     1
102
RTVSPropertyOp41
 70
     1
102
RTVSPropertyOp42
 70
     1
102
RTVSPropertyOp43
 70
     1
102
RTVSPropertyOp44
 70
     1
102
RTVSPropertyOp45
 70
     1
102
RTVSPropertyOp46
 70
     1
102
RTVSPropertyOp47
 70
     1
102
RTVSPropertyOp48
 70
     1
102
RTVSPropertyOp49
 70
     1
102
RTVSPropertyOp50
 70
     1
102
RTVSPropertyOp51
 70
     0
102
RTVSPropertyOp52
 70
     0
102
RTVSPropertyOp53
 70
     1
102
RTVSPropertyOp54
 70
     1
102
RTVSPropertyOp55
 70
     1
102
RTVSPropertyOp56
 70
     1
102
RTVSPropertyOp57
 70
     1
102
RTVSPost2010Prop28
280
     0
102
RTVSPost2010PropOp28
 70
     1
102
RTVSPost2010Prop29
280
     1
102
RTVSPost2010PropOp29
 70
     1
102
RTVSPost2010Prop30
280
     1
102
RTVSPost2010PropOp30
 70
     1
102
RTVSPost2010Prop31
280
     0
102
RTVSPost2010PropOp31
 70
     1
102
RTVSPost2010Prop32
280
     0
102
RTVSPost2010PropOp32
 70
     1
102
RTVSPost2010Prop33
280
     0
102
RTVSPost2010PropOp33
 70
     1
102
RTVSPost2010Prop34
280
     0
102
RTVSPost2010PropOp34
 70
     1
102
RTVSPost2010Prop35
280
     0
102
RTVSPost2010PropOp35
 70
     1
102
RTVSPost2010Prop36
280
     0
102
RTVSPost2010PropOp36
 70
     1
102
RTVSPost2010Prop37
 90
       50
102
RTVSPost2010PropOp37
 70
     1
102
RTVSPost2010Prop38
140
0.0
102
RTVSPost2010PropOp38
 70
     1
102
RTVSPost2010Prop39
140
1.0
102
RTVSPost2010PropOp39
 70
     1
102
RTVSPost2010Prop40
 90
        0
102
RTVSPost2010PropOp40
 70
     1
102
RTVSPost2010Prop41ColorIndex
 90
       18
102
RTVSPost2010Prop41ColorRGB
 90
        0
102
RTVSPost2010PropOp41
 70
     1
102
RTVSPost2010Prop42
 90
       50
102
RTVSPost2010PropOp42
 70
     1
102
RTVSPost2010Prop43
 90
        3
102
RTVSPost2010PropOp43
 70
     1
102
RTVSPost2010Prop44ColorIndex
 90
        5
102
RTVSPost2010Prop44ColorRGB
 90
      255
102
RTVSPost2010PropOp44
 70
     1
102
RTVSPost2010Prop45
280
     0
102
RTVSPost2010PropOp45
 70
     1
102
RTVSPost2010Prop46
 90
       50
102
RTVSPost2010PropOp46
 70
     1
102
RTVSPost2010Prop47
 90
       50
102
RTVSPost2010PropOp47
 70
     1
102
RTVSPost2010Prop48
 90
       50
102
RTVSPost2010PropOp48
 70
     1
102
RTVSPost2010Prop49
280
     0
102
RTVSPost2010PropOp49
 70
     1
102
RTVSPost2010Prop50
 90
       50
102
RTVSPost2010PropOp50
 70
     1
102
RTVSPost2010Prop51ColorIndex
 90
      256
102
RTVSPost2010Prop51ColorRGB
 90
-16777216
102
RTVSPost2010PropOp51
 70
     0
102
RTVSPost2010Prop52
140
1.0
102
RTVSPost2010PropOp52
 70
     0
102
RTVSPost2010Prop53
 90
        2
102
RTVSPost2010PropOp53
 70
     1
102
RTVSPost2010Prop54
  1
strokes_ogs.tif
102
RTVSPost2010PropOp54
 70
     1
102
RTVSPost2010Prop55
280
     0
102
RTVSPost2010PropOp55
 70
     1
102
RTVSPost2010Prop56
140
1.0
102
RTVSPost2010PropOp56
 70
     1
102
RTVSPost2010Prop57
140
1.0
102
RTVSPost2010PropOp57
 70
     1
  0
XRECORD
  5
273
102
{ACAD_REACTORS
330
272
102
}
330
272
100
AcDbXrecord
280
     1
102
RTVSPropertyOp0
 70
     0
102
RTVSPropertyOp1
 70
     0
102
RTVSPropertyOp2
 70
     0
102
RTVSPropertyOp3
 70
     0
102
RTVSPropertyOp4
 70
     0
102
RTVSPropertyOp5
 70
     0
102
RTVSPropertyOp6
 70
     0
102
RTVSPropertyOp7
 70
     0
102
RTVSPropertyOp8
 70
     0
102
RTVSPropertyOp9
 70
     0
102
RTVSPropertyOp10
 70
     0
102
RTVSPropertyOp11
 70
     0
102
RTVSPropertyOp12
 70
     0
102
RTVSPropertyOp13
 70
     0
102
RTVSPropertyOp14
 70
     2
102
RTVSPropertyOp15
 70
     0
102
RTVSPropertyOp16
 70
     0
102
RTVSPropertyOp17
 70
     0
102
RTVSPropertyOp18
 70
     0
102
RTVSPropertyOp19
 70
     0
102
RTVSPropertyOp20
 70
     0
102
RTVSPropertyOp21
 70
     0
102
RTVSPropertyOp22
 70
     0
102
RTVSPropertyOp23
 70
     0
102
RTVSPropertyOp24
 70
     0
102
RTVSPropertyOp25
 70
     0
102
RTVSPropertyOp26
 70
     0
102
RTVSPropertyOp27
 70
     0
102
RTVSPropertyOp28
 70
     0
102
RTVSPropertyOp29
 70
     0
102
RTVSPropertyOp30
 70
     0
102
RTVSPropertyOp31
 70
     0
102
RTVSPropertyOp32
 70
     0
102
RTVSPropertyOp33
 70
     0
102
RTVSPropertyOp34
 70
     0
102
RTVSPropertyOp35
 70
     0
102
RTVSPropertyOp36
 70
     0
102
RTVSPropertyOp37
 70
     0
102
RTVSPropertyOp38
 70
     0
102
RTVSPropertyOp39
 70
     0
102
RTVSPropertyOp40
 70
     0
102
RTVSPropertyOp41
 70
     0
102
RTVSPropertyOp42
 70
     0
102
RTVSPropertyOp43
 70
     0
102
RTVSPropertyOp44
 70
     0
102
RTVSPropertyOp45
 70
     0
102
RTVSPropertyOp46
 70
     0
102
RTVSPropertyOp47
 70
     0
102
RTVSPropertyOp48
 70
     0
102
RTVSPropertyOp49
 70
     0
102
RTVSPropertyOp50
 70
     0
102
RTVSPropertyOp51
 70
     0
102
RTVSPropertyOp52
 70
     0
102
RTVSPropertyOp53
 70
     0
102
RTVSPropertyOp54
 70
     0
102
RTVSPropertyOp55
 70
     0
102
RTVSPropertyOp56
 70
     0
102
RTVSPropertyOp57
 70
     0
102
RTVSPost2010Prop28
280
     0
102
RTVSPost2010PropOp28
 70
     0
102
RTVSPost2010Prop29
280
     1
102
RTVSPost2010PropOp29
 70
     0
102
RTVSPost2010Prop30
280
     1
102
RTVSPost2010PropOp30
 70
     0
102
RTVSPost2010Prop31
280
     0
102
RTVSPost2010PropOp31
 70
     0
102
RTVSPost2010Prop32
280
     0
102
RTVSPost2010PropOp32
 70
     0
102
RTVSPost2010Prop33
280
     0
102
RTVSPost2010PropOp33
 70
     0
102
RTVSPost2010Prop34
280
     0
102
RTVSPost2010PropOp34
 70
     0
102
RTVSPost2010Prop35
280
     0
102
RTVSPost2010PropOp35
 70
     0
102
RTVSPost2010Prop36
280
     0
102
RTVSPost2010PropOp36
 70
     0
102
RTVSPost2010Prop37
 90
       50
102
RTVSPost2010PropOp37
 70
     0
102
RTVSPost2010Prop38
140
0.0
102
RTVSPost2010PropOp38
 70
     0
102
RTVSPost2010Prop39
140
1.0
102
RTVSPost2010PropOp39
 70
     0
102
RTVSPost2010Prop40
 90
        0
102
RTVSPost2010PropOp40
 70
     0
102
RTVSPost2010Prop41ColorIndex
 90
       18
102
RTVSPost2010Prop41ColorRGB
 90
        0
102
RTVSPost2010PropOp41
 70
     0
102
RTVSPost2010Prop42
 90
       50
102
RTVSPost2010PropOp42
 70
     0
102
RTVSPost2010Prop43
 90
        3
102
RTVSPost2010PropOp43
 70
     0
102
RTVSPost2010Prop44ColorIndex
 90
        5
102
RTVSPost2010Prop44ColorRGB
 90
      255
102
RTVSPost2010PropOp44
 70
     0
102
RTVSPost2010Prop45
280
     0
102
RTVSPost2010PropOp45
 70
     0
102
RTVSPost2010Prop46
 90
       50
102
RTVSPost2010PropOp46
 70
     0
102
RTVSPost2010Prop47
 90
       50
102
RTVSPost2010PropOp47
 70
     0
102
RTVSPost2010Prop48
 90
       50
102
RTVSPost2010PropOp48
 70
     0
102
RTVSPost2010Prop49
280
     0
102
RTVSPost2010PropOp49
 70
     0
102
RTVSPost2010Prop50
 90
       50
102
RTVSPost2010PropOp50
 70
     0
102
RTVSPost2010Prop51ColorIndex
 90
      256
102
RTVSPost2010Prop51ColorRGB
 90
-16777216
102
RTVSPost2010PropOp51
 70
     0
102
RTVSPost2010Prop52
140
1.0
102
RTVSPost2010PropOp52
 70
     0
102
RTVSPost2010Prop53
 90
        2
102
RTVSPost2010PropOp53
 70
     0
102
RTVSPost2010Prop54
  1
strokes_ogs.tif
102
RTVSPost2010PropOp54
 70
     0
102
RTVSPost2010Prop55
280
     0
102
RTVSPost2010PropOp55
 70
     0
102
RTVSPost2010Prop56
140
1.0
102
RTVSPost2010PropOp56
 70
     0
102
RTVSPost2010Prop57
140
1.0
102
RTVSPost2010PropOp57
 70
     0
  0
XRECORD
  5
26D
102
{ACAD_REACTORS
330
26C
102
}
330
26C
100
AcDbXrecord
280
     1
102
RTVSPropertyOp0
 70
     1
102
RTVSPropertyOp1
 70
     1
102
RTVSPropertyOp2
 70
     1
102
RTVSPropertyOp3
 70
     1
102
RTVSPropertyOp4
 70
     1
102
RTVSPropertyOp5
 70
     1
102
RTVSPropertyOp6
 70
     1
102
RTVSPropertyOp7
 70
     1
102
RTVSPropertyOp8
 70
     1
102
RTVSPropertyOp9
 70
     1
102
RTVSPropertyOp10
 70
     1
102
RTVSPropertyOp11
 70
     1
102
RTVSPropertyOp12
 70
     1
102
RTVSPropertyOp13
 70
     1
102
RTVSPropertyOp14
 70
     1
102
RTVSPropertyOp15
 70
     1
102
RTVSPropertyOp16
 70
     1
102
RTVSPropertyOp17
 70
     1
102
RTVSPropertyOp18
 70
     1
102
RTVSPropertyOp19
 70
     1
102
RTVSPropertyOp20
 70
     1
102
RTVSPropertyOp21
 70
     1
102
RTVSPropertyOp22
 70
     1
102
RTVSPropertyOp23
 70
     1
102
RTVSPropertyOp24
 70
     1
102
RTVSPropertyOp25
 70
     1
102
RTVSPropertyOp26
 70
     1
102
RTVSPropertyOp27
 70
     1
102
RTVSPropertyOp28
 70
     1
102
RTVSPropertyOp29
 70
     1
102
RTVSPropertyOp30
 70
     1
102
RTVSPropertyOp31
 70
     1
102
RTVSPropertyOp32
 70
     1
102
RTVSPropertyOp33
 70
     1
102
RTVSPropertyOp34
 70
     1
102
RTVSPropertyOp35
 70
     1
102
RTVSPropertyOp36
 70
     1
102
RTVSPropertyOp37
 70
     1
102
RTVSPropertyOp38
 70
     1
102
RTVSPropertyOp39
 70
     1
102
RTVSPropertyOp40
 70
     1
102
RTVSPropertyOp41
 70
     1
102
RTVSPropertyOp42
 70
     1
102
RTVSPropertyOp43
 70
     1
102
RTVSPropertyOp44
 70
     1
102
RTVSPropertyOp45
 70
     1
102
RTVSPropertyOp46
 70
     1
102
RTVSPropertyOp47
 70
     1
102
RTVSPropertyOp48
 70
     1
102
RTVSPropertyOp49
 70
     1
102
RTVSPropertyOp50
 70
     1
102
RTVSPropertyOp51
 70
     0
102
RTVSPropertyOp52
 70
     0
102
RTVSPropertyOp53
 70
     1
102
RTVSPropertyOp54
 70
     1
102
RTVSPropertyOp55
 70
     1
102
RTVSPropertyOp56
 70
     1
102
RTVSPropertyOp57
 70
     1
102
RTVSPost2010Prop28
280
     0
102
RTVSPost2010PropOp28
 70
     1
102
RTVSPost2010Prop29
280
     1
102
RTVSPost2010PropOp29
 70
     1
102
RTVSPost2010Prop30
280
     1
102
RTVSPost2010PropOp30
 70
     1
102
RTVSPost2010Prop31
280
     0
102
RTVSPost2010PropOp31
 70
     1
102
RTVSPost2010Prop32
280
     0
102
RTVSPost2010PropOp32
 70
     1
102
RTVSPost2010Prop33
280
     0
102
RTVSPost2010PropOp33
 70
     1
102
RTVSPost2010Prop34
280
     0
102
RTVSPost2010PropOp34
 70
     1
102
RTVSPost2010Prop35
280
     0
102
RTVSPost2010PropOp35
 70
     1
102
RTVSPost2010Prop36
280
     0
102
RTVSPost2010PropOp36
 70
     1
102
RTVSPost2010Prop37
 90
       50
102
RTVSPost2010PropOp37
 70
     1
102
RTVSPost2010Prop38
140
0.0
102
RTVSPost2010PropOp38
 70
     1
102
RTVSPost2010Prop39
140
1.0
102
RTVSPost2010PropOp39
 70
     1
102
RTVSPost2010Prop40
 90
        0
102
RTVSPost2010PropOp40
 70
     1
102
RTVSPost2010Prop41ColorIndex
 90
       18
102
RTVSPost2010Prop41ColorRGB
 90
        0
102
RTVSPost2010PropOp41
 70
     1
102
RTVSPost2010Prop42
 90
       50
102
RTVSPost2010PropOp42
 70
     1
102
RTVSPost2010Prop43
 90
        3
102
RTVSPost2010PropOp43
 70
     1
102
RTVSPost2010Prop44ColorIndex
 90
        5
102
RTVSPost2010Prop44ColorRGB
 90
      255
102
RTVSPost2010PropOp44
 70
     1
102
RTVSPost2010Prop45
280
     0
102
RTVSPost2010PropOp45
 70
     1
102
RTVSPost2010Prop46
 90
       50
102
RTVSPost2010PropOp46
 70
     1
102
RTVSPost2010Prop47
 90
       50
102
RTVSPost2010PropOp47
 70
     1
102
RTVSPost2010Prop48
 90
       50
102
RTVSPost2010PropOp48
 70
     1
102
RTVSPost2010Prop49
280
     0
102
RTVSPost2010PropOp49
 70
     1
102
RTVSPost2010Prop50
 90
       50
102
RTVSPost2010PropOp50
 70
     1
102
RTVSPost2010Prop51ColorIndex
 90
      256
102
RTVSPost2010Prop51ColorRGB
 90
-16777216
102
RTVSPost2010PropOp51
 70
     0
102
RTVSPost2010Prop52
140
1.0
102
RTVSPost2010PropOp52
 70
     0
102
RTVSPost2010Prop53
 90
        2
102
RTVSPost2010PropOp53
 70
     1
102
RTVSPost2010Prop54
  1
strokes_ogs.tif
102
RTVSPost2010PropOp54
 70
     1
102
RTVSPost2010Prop55
280
     0
102
RTVSPost2010PropOp55
 70
     1
102
RTVSPost2010Prop56
140
1.0
102
RTVSPost2010PropOp56
 70
     1
102
RTVSPost2010Prop57
140
1.0
102
RTVSPost2010PropOp57
 70
     1
  0
XRECORD
  5
275
102
{ACAD_REACTORS
330
274
102
}
330
274
100
AcDbXrecord
280
     1
102
RTVSPropertyOp0
 70
     0
102
RTVSPropertyOp1
 70
     0
102
RTVSPropertyOp2
 70
     0
102
RTVSPropertyOp3
 70
     0
102
RTVSPropertyOp4
 70
     0
102
RTVSPropertyOp5
 70
     0
102
RTVSPropertyOp6
 70
     0
102
RTVSPropertyOp7
 70
     0
102
RTVSPropertyOp8
 70
     0
102
RTVSPropertyOp9
 70
     0
102
RTVSPropertyOp10
 70
     0
102
RTVSPropertyOp11
 70
     0
102
RTVSPropertyOp12
 70
     0
102
RTVSPropertyOp13
 70
     0
102
RTVSPropertyOp14
 70
     2
102
RTVSPropertyOp15
 70
     0
102
RTVSPropertyOp16
 70
     0
102
RTVSPropertyOp17
 70
     0
102
RTVSPropertyOp18
 70
     0
102
RTVSPropertyOp19
 70
     0
102
RTVSPropertyOp20
 70
     0
102
RTVSPropertyOp21
 70
     0
102
RTVSPropertyOp22
 70
     0
102
RTVSPropertyOp23
 70
     0
102
RTVSPropertyOp24
 70
     0
102
RTVSPropertyOp25
 70
     0
102
RTVSPropertyOp26
 70
     0
102
RTVSPropertyOp27
 70
     0
102
RTVSPropertyOp28
 70
     0
102
RTVSPropertyOp29
 70
     0
102
RTVSPropertyOp30
 70
     0
102
RTVSPropertyOp31
 70
     0
102
RTVSPropertyOp32
 70
     0
102
RTVSPropertyOp33
 70
     0
102
RTVSPropertyOp34
 70
     0
102
RTVSPropertyOp35
 70
     0
102
RTVSPropertyOp36
 70
     0
102
RTVSPropertyOp37
 70
     0
102
RTVSPropertyOp38
 70
     0
102
RTVSPropertyOp39
 70
     0
102
RTVSPropertyOp40
 70
     0
102
RTVSPropertyOp41
 70
     0
102
RTVSPropertyOp42
 70
     0
102
RTVSPropertyOp43
 70
     0
102
RTVSPropertyOp44
 70
     0
102
RTVSPropertyOp45
 70
     0
102
RTVSPropertyOp46
 70
     0
102
RTVSPropertyOp47
 70
     0
102
RTVSPropertyOp48
 70
     0
102
RTVSPropertyOp49
 70
     0
102
RTVSPropertyOp50
 70
     0
102
RTVSPropertyOp51
 70
     0
102
RTVSPropertyOp52
 70
     0
102
RTVSPropertyOp53
 70
     0
102
RTVSPropertyOp54
 70
     0
102
RTVSPropertyOp55
 70
     0
102
RTVSPropertyOp56
 70
     0
102
RTVSPropertyOp57
 70
     0
102
RTVSPost2010Prop28
280
     0
102
RTVSPost2010PropOp28
 70
     0
102
RTVSPost2010Prop29
280
     1
102
RTVSPost2010PropOp29
 70
     0
102
RTVSPost2010Prop30
280
     1
102
RTVSPost2010PropOp30
 70
     0
102
RTVSPost2010Prop31
280
     0
102
RTVSPost2010PropOp31
 70
     0
102
RTVSPost2010Prop32
280
     0
102
RTVSPost2010PropOp32
 70
     0
102
RTVSPost2010Prop33
280
     0
102
RTVSPost2010PropOp33
 70
     0
102
RTVSPost2010Prop34
280
     0
102
RTVSPost2010PropOp34
 70
     0
102
RTVSPost2010Prop35
280
     0
102
RTVSPost2010PropOp35
 70
     0
102
RTVSPost2010Prop36
280
     0
102
RTVSPost2010PropOp36
 70
     0
102
RTVSPost2010Prop37
 90
       50
102
RTVSPost2010PropOp37
 70
     0
102
RTVSPost2010Prop38
140
0.0
102
RTVSPost2010PropOp38
 70
     0
102
RTVSPost2010Prop39
140
1.0
102
RTVSPost2010PropOp39
 70
     0
102
RTVSPost2010Prop40
 90
        0
102
RTVSPost2010PropOp40
 70
     0
102
RTVSPost2010Prop41ColorIndex
 90
       18
102
RTVSPost2010Prop41ColorRGB
 90
        0
102
RTVSPost2010PropOp41
 70
     0
102
RTVSPost2010Prop42
 90
       50
102
RTVSPost2010PropOp42
 70
     0
102
RTVSPost2010Prop43
 90
        3
102
RTVSPost2010PropOp43
 70
     0
102
RTVSPost2010Prop44ColorIndex
 90
        5
102
RTVSPost2010Prop44ColorRGB
 90
      255
102
RTVSPost2010PropOp44
 70
     0
102
RTVSPost2010Prop45
280
     0
102
RTVSPost2010PropOp45
 70
     0
102
RTVSPost2010Prop46
 90
       50
102
RTVSPost2010PropOp46
 70
     0
102
RTVSPost2010Prop47
 90
       50
102
RTVSPost2010PropOp47
 70
     0
102
RTVSPost2010Prop48
 90
       50
102
RTVSPost2010PropOp48
 70
     0
102
RTVSPost2010Prop49
280
     0
102
RTVSPost2010PropOp49
 70
     0
102
RTVSPost2010Prop50
 90
       50
102
RTVSPost2010PropOp50
 70
     0
102
RTVSPost2010Prop51ColorIndex
 90
      256
102
RTVSPost2010Prop51ColorRGB
 90
-16777216
102
RTVSPost2010PropOp51
 70
     0
102
RTVSPost2010Prop52
140
1.0
102
RTVSPost2010PropOp52
 70
     0
102
RTVSPost2010Prop53
 90
        2
102
RTVSPost2010PropOp53
 70
     0
102
RTVSPost2010Prop54
  1
strokes_ogs.tif
102
RTVSPost2010PropOp54
 70
     0
102
RTVSPost2010Prop55
280
     0
102
RTVSPost2010PropOp55
 70
     0
102
RTVSPost2010Prop56
140
1.0
102
RTVSPost2010PropOp56
 70
     0
102
RTVSPost2010Prop57
140
1.0
102
RTVSPost2010PropOp57
 70
     0
  0
XRECORD
  5
263
102
{ACAD_REACTORS
330
262
102
}
330
262
100
AcDbXrecord
280
     1
102
RTVSPropertyOp0
 70
     1
102
RTVSPropertyOp1
 70
     1
102
RTVSPropertyOp2
 70
     1
102
RTVSPropertyOp3
 70
     1
102
RTVSPropertyOp4
 70
     1
102
RTVSPropertyOp5
 70
     1
102
RTVSPropertyOp6
 70
     1
102
RTVSPropertyOp7
 70
     1
102
RTVSPropertyOp8
 70
     1
102
RTVSPropertyOp9
 70
     1
102
RTVSPropertyOp10
 70
     1
102
RTVSPropertyOp11
 70
     1
102
RTVSPropertyOp12
 70
     1
102
RTVSPropertyOp13
 70
     1
102
RTVSPropertyOp14
 70
     1
102
RTVSPropertyOp15
 70
     1
102
RTVSPropertyOp16
 70
     1
102
RTVSPropertyOp17
 70
     1
102
RTVSPropertyOp18
 70
     1
102
RTVSPropertyOp19
 70
     1
102
RTVSPropertyOp20
 70
     1
102
RTVSPropertyOp21
 70
     1
102
RTVSPropertyOp22
 70
     1
102
RTVSPropertyOp23
 70
     1
102
RTVSPropertyOp24
 70
     1
102
RTVSPropertyOp25
 70
     1
102
RTVSPropertyOp26
 70
     1
102
RTVSPropertyOp27
 70
     1
102
RTVSPropertyOp28
 70
     1
102
RTVSPropertyOp29
 70
     1
102
RTVSPropertyOp30
 70
     1
102
RTVSPropertyOp31
 70
     1
102
RTVSPropertyOp32
 70
     1
102
RTVSPropertyOp33
 70
     1
102
RTVSPropertyOp34
 70
     1
102
RTVSPropertyOp35
 70
     1
102
RTVSPropertyOp36
 70
     1
102
RTVSPropertyOp37
 70
     1
102
RTVSPropertyOp38
 70
     1
102
RTVSPropertyOp39
 70
     1
102
RTVSPropertyOp40
 70
     1
102
RTVSPropertyOp41
 70
     1
102
RTVSPropertyOp42
 70
     1
102
RTVSPropertyOp43
 70
     1
102
RTVSPropertyOp44
 70
     1
102
RTVSPropertyOp45
 70
     1
102
RTVSPropertyOp46
 70
     1
102
RTVSPropertyOp47
 70
     1
102
RTVSPropertyOp48
 70
     1
102
RTVSPropertyOp49
 70
     1
102
RTVSPropertyOp50
 70
     1
102
RTVSPropertyOp51
 70
     0
102
RTVSPropertyOp52
 70
     0
102
RTVSPropertyOp53
 70
     1
102
RTVSPropertyOp54
 70
     1
102
RTVSPropertyOp55
 70
     1
102
RTVSPropertyOp56
 70
     1
102
RTVSPropertyOp57
 70
     1
102
RTVSPost2010Prop28
280
     0
102
RTVSPost2010PropOp28
 70
     1
102
RTVSPost2010Prop29
280
     1
102
RTVSPost2010PropOp29
 70
     1
102
RTVSPost2010Prop30
280
     1
102
RTVSPost2010PropOp30
 70
     1
102
RTVSPost2010Prop31
280
     0
102
RTVSPost2010PropOp31
 70
     1
102
RTVSPost2010Prop32
280
     0
102
RTVSPost2010PropOp32
 70
     1
102
RTVSPost2010Prop33
280
     0
102
RTVSPost2010PropOp33
 70
     1
102
RTVSPost2010Prop34
280
     0
102
RTVSPost2010PropOp34
 70
     1
102
RTVSPost2010Prop35
280
     0
102
RTVSPost2010PropOp35
 70
     1
102
RTVSPost2010Prop36
280
     0
102
RTVSPost2010PropOp36
 70
     1
102
RTVSPost2010Prop37
 90
       50
102
RTVSPost2010PropOp37
 70
     1
102
RTVSPost2010Prop38
140
0.0
102
RTVSPost2010PropOp38
 70
     1
102
RTVSPost2010Prop39
140
1.0
102
RTVSPost2010PropOp39
 70
     1
102
RTVSPost2010Prop40
 90
        0
102
RTVSPost2010PropOp40
 70
     1
102
RTVSPost2010Prop41ColorIndex
 90
       18
102
RTVSPost2010Prop41ColorRGB
 90
        0
102
RTVSPost2010PropOp41
 70
     1
102
RTVSPost2010Prop42
 90
       50
102
RTVSPost2010PropOp42
 70
     1
102
RTVSPost2010Prop43
 90
        3
102
RTVSPost2010PropOp43
 70
     1
102
RTVSPost2010Prop44ColorIndex
 90
        5
102
RTVSPost2010Prop44ColorRGB
 90
      255
102
RTVSPost2010PropOp44
 70
     1
102
RTVSPost2010Prop45
280
     0
102
RTVSPost2010PropOp45
 70
     1
102
RTVSPost2010Prop46
 90
       50
102
RTVSPost2010PropOp46
 70
     1
102
RTVSPost2010Prop47
 90
       50
102
RTVSPost2010PropOp47
 70
     1
102
RTVSPost2010Prop48
 90
       50
102
RTVSPost2010PropOp48
 70
     1
102
RTVSPost2010Prop49
280
     0
102
RTVSPost2010PropOp49
 70
     1
102
RTVSPost2010Prop50
 90
       50
102
RTVSPost2010PropOp50
 70
     1
102
RTVSPost2010Prop51ColorIndex
 90
      256
102
RTVSPost2010Prop51ColorRGB
 90
-16777216
102
RTVSPost2010PropOp51
 70
     0
102
RTVSPost2010Prop52
140
1.0
102
RTVSPost2010PropOp52
 70
     0
102
RTVSPost2010Prop53
 90
        2
102
RTVSPost2010PropOp53
 70
     1
102
RTVSPost2010Prop54
  1
strokes_ogs.tif
102
RTVSPost2010PropOp54
 70
     1
102
RTVSPost2010Prop55
280
     0
102
RTVSPost2010PropOp55
 70
     1
102
RTVSPost2010Prop56
140
1.0
102
RTVSPost2010PropOp56
 70
     1
102
RTVSPost2010Prop57
140
1.0
102
RTVSPost2010PropOp57
 70
     1
  0
XRECORD
  5
281
102
{ACAD_REACTORS
330
280
102
}
330
280
100
AcDbXrecord
280
     1
102
RTVSPropertyOp0
 70
     1
102
RTVSPropertyOp1
 70
     1
102
RTVSPropertyOp2
 70
     1
102
RTVSPropertyOp3
 70
     1
102
RTVSPropertyOp4
 70
     1
102
RTVSPropertyOp5
 70
     1
102
RTVSPropertyOp6
 70
     1
102
RTVSPropertyOp7
 70
     1
102
RTVSPropertyOp8
 70
     1
102
RTVSPropertyOp9
 70
     1
102
RTVSPropertyOp10
 70
     1
102
RTVSPropertyOp11
 70
     1
102
RTVSPropertyOp12
 70
     1
102
RTVSPropertyOp13
 70
     1
102
RTVSPropertyOp14
 70
     1
102
RTVSPropertyOp15
 70
     1
102
RTVSPropertyOp16
 70
     1
102
RTVSPropertyOp17
 70
     1
102
RTVSPropertyOp18
 70
     1
102
RTVSPropertyOp19
 70
     1
102
RTVSPropertyOp20
 70
     1
102
RTVSPropertyOp21
 70
     1
102
RTVSPropertyOp22
 70
     1
102
RTVSPropertyOp23
 70
     1
102
RTVSPropertyOp24
 70
     1
102
RTVSPropertyOp25
 70
     1
102
RTVSPropertyOp26
 70
     1
102
RTVSPropertyOp27
 70
     1
102
RTVSPropertyOp28
 70
     1
102
RTVSPropertyOp29
 70
     1
102
RTVSPropertyOp30
 70
     1
102
RTVSPropertyOp31
 70
     1
102
RTVSPropertyOp32
 70
     1
102
RTVSPropertyOp33
 70
     1
102
RTVSPropertyOp34
 70
     1
102
RTVSPropertyOp35
 70
     1
102
RTVSPropertyOp36
 70
     1
102
RTVSPropertyOp37
 70
     1
102
RTVSPropertyOp38
 70
     1
102
RTVSPropertyOp39
 70
     1
102
RTVSPropertyOp40
 70
     1
102
RTVSPropertyOp41
 70
     1
102
RTVSPropertyOp42
 70
     1
102
RTVSPropertyOp43
 70
     1
102
RTVSPropertyOp44
 70
     1
102
RTVSPropertyOp45
 70
     1
102
RTVSPropertyOp46
 70
     1
102
RTVSPropertyOp47
 70
     1
102
RTVSPropertyOp48
 70
     1
102
RTVSPropertyOp49
 70
     1
102
RTVSPropertyOp50
 70
     1
102
RTVSPropertyOp51
 70
     0
102
RTVSPropertyOp52
 70
     0
102
RTVSPropertyOp53
 70
     1
102
RTVSPropertyOp54
 70
     1
102
RTVSPropertyOp55
 70
     1
102
RTVSPropertyOp56
 70
     1
102
RTVSPropertyOp57
 70
     1
102
RTVSPost2010Prop28
280
     0
102
RTVSPost2010PropOp28
 70
     1
102
RTVSPost2010Prop29
280
     1
102
RTVSPost2010PropOp29
 70
     1
102
RTVSPost2010Prop30
280
     1
102
RTVSPost2010PropOp30
 70
     1
102
RTVSPost2010Prop31
280
     0
102
RTVSPost2010PropOp31
 70
     1
102
RTVSPost2010Prop32
280
     0
102
RTVSPost2010PropOp32
 70
     1
102
RTVSPost2010Prop33
280
     0
102
RTVSPost2010PropOp33
 70
     1
102
RTVSPost2010Prop34
280
     0
102
RTVSPost2010PropOp34
 70
     1
102
RTVSPost2010Prop35
280
     0
102
RTVSPost2010PropOp35
 70
     1
102
RTVSPost2010Prop36
280
     0
102
RTVSPost2010PropOp36
 70
     1
102
RTVSPost2010Prop37
 90
       50
102
RTVSPost2010PropOp37
 70
     1
102
RTVSPost2010Prop38
140
0.0
102
RTVSPost2010PropOp38
 70
     1
102
RTVSPost2010Prop39
140
1.0
102
RTVSPost2010PropOp39
 70
     1
102
RTVSPost2010Prop40
 90
        0
102
RTVSPost2010PropOp40
 70
     1
102
RTVSPost2010Prop41ColorIndex
 90
       18
102
RTVSPost2010Prop41ColorRGB
 90
        0
102
RTVSPost2010PropOp41
 70
     1
102
RTVSPost2010Prop42
 90
       50
102
RTVSPost2010PropOp42
 70
     1
102
RTVSPost2010Prop43
 90
        3
102
RTVSPost2010PropOp43
 70
     1
102
RTVSPost2010Prop44ColorIndex
 90
        5
102
RTVSPost2010Prop44ColorRGB
 90
      255
102
RTVSPost2010PropOp44
 70
     1
102
RTVSPost2010Prop45
280
     0
102
RTVSPost2010PropOp45
 70
     1
102
RTVSPost2010Prop46
 90
       50
102
RTVSPost2010PropOp46
 70
     1
102
RTVSPost2010Prop47
 90
       50
102
RTVSPost2010PropOp47
 70
     1
102
RTVSPost2010Prop48
 90
       50
102
RTVSPost2010PropOp48
 70
     1
102
RTVSPost2010Prop49
280
     0
102
RTVSPost2010PropOp49
 70
     1
102
RTVSPost2010Prop50
 90
       50
102
RTVSPost2010PropOp50
 70
     1
102
RTVSPost2010Prop51ColorIndex
 90
      256
102
RTVSPost2010Prop51ColorRGB
 90
-16777216
102
RTVSPost2010PropOp51
 70
     0
102
RTVSPost2010Prop52
140
1.0
102
RTVSPost2010PropOp52
 70
     0
102
RTVSPost2010Prop53
 90
        2
102
RTVSPost2010PropOp53
 70
     1
102
RTVSPost2010Prop54
  1
strokes_ogs.tif
102
RTVSPost2010PropOp54
 70
     1
102
RTVSPost2010Prop55
280
     0
102
RTVSPost2010PropOp55
 70
     1
102
RTVSPost2010Prop56
140
1.0
102
RTVSPost2010PropOp56
 70
     1
102
RTVSPost2010Prop57
140
1.0
102
RTVSPost2010PropOp57
 70
     1
  0
XRECORD
  5
27F
102
{ACAD_REACTORS
330
27E
102
}
330
27E
100
AcDbXrecord
280
     1
102
RTVSPropertyOp0
 70
     1
102
RTVSPropertyOp1
 70
     1
102
RTVSPropertyOp2
 70
     1
102
RTVSPropertyOp3
 70
     1
102
RTVSPropertyOp4
 70
     1
102
RTVSPropertyOp5
 70
     1
102
RTVSPropertyOp6
 70
     1
102
RTVSPropertyOp7
 70
     1
102
RTVSPropertyOp8
 70
     1
102
RTVSPropertyOp9
 70
     1
102
RTVSPropertyOp10
 70
     1
102
RTVSPropertyOp11
 70
     1
102
RTVSPropertyOp12
 70
     1
102
RTVSPropertyOp13
 70
     1
102
RTVSPropertyOp14
 70
     1
102
RTVSPropertyOp15
 70
     1
102
RTVSPropertyOp16
 70
     1
102
RTVSPropertyOp17
 70
     1
102
RTVSPropertyOp18
 70
     1
102
RTVSPropertyOp19
 70
     1
102
RTVSPropertyOp20
 70
     1
102
RTVSPropertyOp21
 70
     1
102
RTVSPropertyOp22
 70
     1
102
RTVSPropertyOp23
 70
     1
102
RTVSPropertyOp24
 70
     1
102
RTVSPropertyOp25
 70
     1
102
RTVSPropertyOp26
 70
     1
102
RTVSPropertyOp27
 70
     1
102
RTVSPropertyOp28
 70
     1
102
RTVSPropertyOp29
 70
     1
102
RTVSPropertyOp30
 70
     1
102
RTVSPropertyOp31
 70
     1
102
RTVSPropertyOp32
 70
     1
102
RTVSPropertyOp33
 70
     1
102
RTVSPropertyOp34
 70
     1
102
RTVSPropertyOp35
 70
     1
102
RTVSPropertyOp36
 70
     1
102
RTVSPropertyOp37
 70
     1
102
RTVSPropertyOp38
 70
     1
102
RTVSPropertyOp39
 70
     1
102
RTVSPropertyOp40
 70
     1
102
RTVSPropertyOp41
 70
     1
102
RTVSPropertyOp42
 70
     1
102
RTVSPropertyOp43
 70
     1
102
RTVSPropertyOp44
 70
     1
102
RTVSPropertyOp45
 70
     1
102
RTVSPropertyOp46
 70
     1
102
RTVSPropertyOp47
 70
     1
102
RTVSPropertyOp48
 70
     1
102
RTVSPropertyOp49
 70
     1
102
RTVSPropertyOp50
 70
     1
102
RTVSPropertyOp51
 70
     0
102
RTVSPropertyOp52
 70
     0
102
RTVSPropertyOp53
 70
     1
102
RTVSPropertyOp54
 70
     1
102
RTVSPropertyOp55
 70
     1
102
RTVSPropertyOp56
 70
     1
102
RTVSPropertyOp57
 70
     1
102
RTVSPost2010Prop28
280
     0
102
RTVSPost2010PropOp28
 70
     1
102
RTVSPost2010Prop29
280
     1
102
RTVSPost2010PropOp29
 70
     1
102
RTVSPost2010Prop30
280
     1
102
RTVSPost2010PropOp30
 70
     1
102
RTVSPost2010Prop31
280
     0
102
RTVSPost2010PropOp31
 70
     1
102
RTVSPost2010Prop32
280
     0
102
RTVSPost2010PropOp32
 70
     1
102
RTVSPost2010Prop33
280
     0
102
RTVSPost2010PropOp33
 70
     1
102
RTVSPost2010Prop34
280
     0
102
RTVSPost2010PropOp34
 70
     1
102
RTVSPost2010Prop35
280
     0
102
RTVSPost2010PropOp35
 70
     1
102
RTVSPost2010Prop36
280
     0
102
RTVSPost2010PropOp36
 70
     1
102
RTVSPost2010Prop37
 90
       50
102
RTVSPost2010PropOp37
 70
     1
102
RTVSPost2010Prop38
140
0.0
102
RTVSPost2010PropOp38
 70
     1
102
RTVSPost2010Prop39
140
1.0
102
RTVSPost2010PropOp39
 70
     1
102
RTVSPost2010Prop40
 90
        0
102
RTVSPost2010PropOp40
 70
     1
102
RTVSPost2010Prop41ColorIndex
 90
       18
102
RTVSPost2010Prop41ColorRGB
 90
        0
102
RTVSPost2010PropOp41
 70
     1
102
RTVSPost2010Prop42
 90
       50
102
RTVSPost2010PropOp42
 70
     1
102
RTVSPost2010Prop43
 90
        3
102
RTVSPost2010PropOp43
 70
     1
102
RTVSPost2010Prop44ColorIndex
 90
        5
102
RTVSPost2010Prop44ColorRGB
 90
      255
102
RTVSPost2010PropOp44
 70
     1
102
RTVSPost2010Prop45
280
     0
102
RTVSPost2010PropOp45
 70
     1
102
RTVSPost2010Prop46
 90
       50
102
RTVSPost2010PropOp46
 70
     1
102
RTVSPost2010Prop47
 90
       50
102
RTVSPost2010PropOp47
 70
     1
102
RTVSPost2010Prop48
 90
       50
102
RTVSPost2010PropOp48
 70
     1
102
RTVSPost2010Prop49
280
     0
102
RTVSPost2010PropOp49
 70
     1
102
RTVSPost2010Prop50
 90
       50
102
RTVSPost2010PropOp50
 70
     1
102
RTVSPost2010Prop51ColorIndex
 90
      256
102
RTVSPost2010Prop51ColorRGB
 90
-16777216
102
RTVSPost2010PropOp51
 70
     0
102
RTVSPost2010Prop52
140
1.0
102
RTVSPost2010PropOp52
 70
     0
102
RTVSPost2010Prop53
 90
        2
102
RTVSPost2010PropOp53
 70
     1
102
RTVSPost2010Prop54
  1
strokes_ogs.tif
102
RTVSPost2010PropOp54
 70
     1
102
RTVSPost2010Prop55
280
     0
102
RTVSPost2010PropOp55
 70
     1
102
RTVSPost2010Prop56
140
1.0
102
RTVSPost2010PropOp56
 70
     1
102
RTVSPost2010Prop57
140
1.0
102
RTVSPost2010PropOp57
 70
     1
  0
XRECORD
  5
279
102
{ACAD_REACTORS
330
278
102
}
330
278
100
AcDbXrecord
280
     1
102
RTVSPropertyOp0
 70
     1
102
RTVSPropertyOp1
 70
     1
102
RTVSPropertyOp2
 70
     1
102
RTVSPropertyOp3
 70
     1
102
RTVSPropertyOp4
 70
     1
102
RTVSPropertyOp5
 70
     1
102
RTVSPropertyOp6
 70
     1
102
RTVSPropertyOp7
 70
     1
102
RTVSPropertyOp8
 70
     1
102
RTVSPropertyOp9
 70
     1
102
RTVSPropertyOp10
 70
     1
102
RTVSPropertyOp11
 70
     1
102
RTVSPropertyOp12
 70
     1
102
RTVSPropertyOp13
 70
     1
102
RTVSPropertyOp14
 70
     1
102
RTVSPropertyOp15
 70
     1
102
RTVSPropertyOp16
 70
     1
102
RTVSPropertyOp17
 70
     1
102
RTVSPropertyOp18
 70
     1
102
RTVSPropertyOp19
 70
     1
102
RTVSPropertyOp20
 70
     1
102
RTVSPropertyOp21
 70
     1
102
RTVSPropertyOp22
 70
     1
102
RTVSPropertyOp23
 70
     1
102
RTVSPropertyOp24
 70
     1
102
RTVSPropertyOp25
 70
     1
102
RTVSPropertyOp26
 70
     1
102
RTVSPropertyOp27
 70
     1
102
RTVSPropertyOp28
 70
     1
102
RTVSPropertyOp29
 70
     1
102
RTVSPropertyOp30
 70
     1
102
RTVSPropertyOp31
 70
     1
102
RTVSPropertyOp32
 70
     1
102
RTVSPropertyOp33
 70
     1
102
RTVSPropertyOp34
 70
     1
102
RTVSPropertyOp35
 70
     1
102
RTVSPropertyOp36
 70
     1
102
RTVSPropertyOp37
 70
     1
102
RTVSPropertyOp38
 70
     1
102
RTVSPropertyOp39
 70
     1
102
RTVSPropertyOp40
 70
     1
102
RTVSPropertyOp41
 70
     1
102
RTVSPropertyOp42
 70
     1
102
RTVSPropertyOp43
 70
     1
102
RTVSPropertyOp44
 70
     1
102
RTVSPropertyOp45
 70
     1
102
RTVSPropertyOp46
 70
     1
102
RTVSPropertyOp47
 70
     1
102
RTVSPropertyOp48
 70
     1
102
RTVSPropertyOp49
 70
     1
102
RTVSPropertyOp50
 70
     1
102
RTVSPropertyOp51
 70
     0
102
RTVSPropertyOp52
 70
     0
102
RTVSPropertyOp53
 70
     1
102
RTVSPropertyOp54
 70
     1
102
RTVSPropertyOp55
 70
     1
102
RTVSPropertyOp56
 70
     1
102
RTVSPropertyOp57
 70
     1
102
RTVSPost2010Prop28
280
     0
102
RTVSPost2010PropOp28
 70
     1
102
RTVSPost2010Prop29
280
     1
102
RTVSPost2010PropOp29
 70
     1
102
RTVSPost2010Prop30
280
     1
102
RTVSPost2010PropOp30
 70
     1
102
RTVSPost2010Prop31
280
     0
102
RTVSPost2010PropOp31
 70
     1
102
RTVSPost2010Prop32
280
     0
102
RTVSPost2010PropOp32
 70
     1
102
RTVSPost2010Prop33
280
     0
102
RTVSPost2010PropOp33
 70
     1
102
RTVSPost2010Prop34
280
     0
102
RTVSPost2010PropOp34
 70
     1
102
RTVSPost2010Prop35
280
     0
102
RTVSPost2010PropOp35
 70
     1
102
RTVSPost2010Prop36
280
     0
102
RTVSPost2010PropOp36
 70
     1
102
RTVSPost2010Prop37
 90
       50
102
RTVSPost2010PropOp37
 70
     1
102
RTVSPost2010Prop38
140
0.0
102
RTVSPost2010PropOp38
 70
     1
102
RTVSPost2010Prop39
140
1.0
102
RTVSPost2010PropOp39
 70
     1
102
RTVSPost2010Prop40
 90
        0
102
RTVSPost2010PropOp40
 70
     1
102
RTVSPost2010Prop41ColorIndex
 90
       18
102
RTVSPost2010Prop41ColorRGB
 90
        0
102
RTVSPost2010PropOp41
 70
     1
102
RTVSPost2010Prop42
 90
       50
102
RTVSPost2010PropOp42
 70
     1
102
RTVSPost2010Prop43
 90
        3
102
RTVSPost2010PropOp43
 70
     1
102
RTVSPost2010Prop44ColorIndex
 90
        5
102
RTVSPost2010Prop44ColorRGB
 90
      255
102
RTVSPost2010PropOp44
 70
     1
102
RTVSPost2010Prop45
280
     0
102
RTVSPost2010PropOp45
 70
     1
102
RTVSPost2010Prop46
 90
       50
102
RTVSPost2010PropOp46
 70
     1
102
RTVSPost2010Prop47
 90
       50
102
RTVSPost2010PropOp47
 70
     1
102
RTVSPost2010Prop48
 90
       50
102
RTVSPost2010PropOp48
 70
     1
102
RTVSPost2010Prop49
280
     0
102
RTVSPost2010PropOp49
 70
     1
102
RTVSPost2010Prop50
 90
       50
102
RTVSPost2010PropOp50
 70
     1
102
RTVSPost2010Prop51ColorIndex
 90
      256
102
RTVSPost2010Prop51ColorRGB
 90
-16777216
102
RTVSPost2010PropOp51
 70
     0
102
RTVSPost2010Prop52
140
1.0
102
RTVSPost2010PropOp52
 70
     0
102
RTVSPost2010Prop53
 90
        2
102
RTVSPost2010PropOp53
 70
     1
102
RTVSPost2010Prop54
  1
strokes_ogs.tif
102
RTVSPost2010PropOp54
 70
     1
102
RTVSPost2010Prop55
280
     0
102
RTVSPost2010PropOp55
 70
     1
102
RTVSPost2010Prop56
140
1.0
102
RTVSPost2010PropOp56
 70
     1
102
RTVSPost2010Prop57
140
1.0
102
RTVSPost2010PropOp57
 70
     1
  0
XRECORD
  5
27B
102
{ACAD_REACTORS
330
27A
102
}
330
27A
100
AcDbXrecord
280
     1
102
RTVSPropertyOp0
 70
     1
102
RTVSPropertyOp1
 70
     1
102
RTVSPropertyOp2
 70
     1
102
RTVSPropertyOp3
 70
     1
102
RTVSPropertyOp4
 70
     1
102
RTVSPropertyOp5
 70
     1
102
RTVSPropertyOp6
 70
     1
102
RTVSPropertyOp7
 70
     1
102
RTVSPropertyOp8
 70
     1
102
RTVSPropertyOp9
 70
     1
102
RTVSPropertyOp10
 70
     1
102
RTVSPropertyOp11
 70
     1
102
RTVSPropertyOp12
 70
     1
102
RTVSPropertyOp13
 70
     1
102
RTVSPropertyOp14
 70
     1
102
RTVSPropertyOp15
 70
     1
102
RTVSPropertyOp16
 70
     1
102
RTVSPropertyOp17
 70
     1
102
RTVSPropertyOp18
 70
     1
102
RTVSPropertyOp19
 70
     1
102
RTVSPropertyOp20
 70
     1
102
RTVSPropertyOp21
 70
     1
102
RTVSPropertyOp22
 70
     1
102
RTVSPropertyOp23
 70
     1
102
RTVSPropertyOp24
 70
     1
102
RTVSPropertyOp25
 70
     1
102
RTVSPropertyOp26
 70
     1
102
RTVSPropertyOp27
 70
     1
102
RTVSPropertyOp28
 70
     1
102
RTVSPropertyOp29
 70
     1
102
RTVSPropertyOp30
 70
     1
102
RTVSPropertyOp31
 70
     1
102
RTVSPropertyOp32
 70
     1
102
RTVSPropertyOp33
 70
     1
102
RTVSPropertyOp34
 70
     1
102
RTVSPropertyOp35
 70
     1
102
RTVSPropertyOp36
 70
     1
102
RTVSPropertyOp37
 70
     1
102
RTVSPropertyOp38
 70
     1
102
RTVSPropertyOp39
 70
     1
102
RTVSPropertyOp40
 70
     1
102
RTVSPropertyOp41
 70
     1
102
RTVSPropertyOp42
 70
     1
102
RTVSPropertyOp43
 70
     1
102
RTVSPropertyOp44
 70
     1
102
RTVSPropertyOp45
 70
     1
102
RTVSPropertyOp46
 70
     1
102
RTVSPropertyOp47
 70
     1
102
RTVSPropertyOp48
 70
     1
102
RTVSPropertyOp49
 70
     1
102
RTVSPropertyOp50
 70
     1
102
RTVSPropertyOp51
 70
     0
102
RTVSPropertyOp52
 70
     0
102
RTVSPropertyOp53
 70
     1
102
RTVSPropertyOp54
 70
     1
102
RTVSPropertyOp55
 70
     1
102
RTVSPropertyOp56
 70
     1
102
RTVSPropertyOp57
 70
     1
102
RTVSPost2010Prop28
280
     0
102
RTVSPost2010PropOp28
 70
     1
102
RTVSPost2010Prop29
280
     1
102
RTVSPost2010PropOp29
 70
     1
102
RTVSPost2010Prop30
280
     1
102
RTVSPost2010PropOp30
 70
     1
102
RTVSPost2010Prop31
280
     0
102
RTVSPost2010PropOp31
 70
     1
102
RTVSPost2010Prop32
280
     0
102
RTVSPost2010PropOp32
 70
     1
102
RTVSPost2010Prop33
280
     0
102
RTVSPost2010PropOp33
 70
     1
102
RTVSPost2010Prop34
280
     0
102
RTVSPost2010PropOp34
 70
     1
102
RTVSPost2010Prop35
280
     0
102
RTVSPost2010PropOp35
 70
     1
102
RTVSPost2010Prop36
280
     0
102
RTVSPost2010PropOp36
 70
     1
102
RTVSPost2010Prop37
 90
       50
102
RTVSPost2010PropOp37
 70
     1
102
RTVSPost2010Prop38
140
0.0
102
RTVSPost2010PropOp38
 70
     1
102
RTVSPost2010Prop39
140
1.0
102
RTVSPost2010PropOp39
 70
     1
102
RTVSPost2010Prop40
 90
        0
102
RTVSPost2010PropOp40
 70
     1
102
RTVSPost2010Prop41ColorIndex
 90
       18
102
RTVSPost2010Prop41ColorRGB
 90
        0
102
RTVSPost2010PropOp41
 70
     1
102
RTVSPost2010Prop42
 90
       50
102
RTVSPost2010PropOp42
 70
     1
102
RTVSPost2010Prop43
 90
        3
102
RTVSPost2010PropOp43
 70
     1
102
RTVSPost2010Prop44ColorIndex
 90
        5
102
RTVSPost2010Prop44ColorRGB
 90
      255
102
RTVSPost2010PropOp44
 70
     1
102
RTVSPost2010Prop45
280
     0
102
RTVSPost2010PropOp45
 70
     1
102
RTVSPost2010Prop46
 90
       50
102
RTVSPost2010PropOp46
 70
     1
102
RTVSPost2010Prop47
 90
       50
102
RTVSPost2010PropOp47
 70
     1
102
RTVSPost2010Prop48
 90
       50
102
RTVSPost2010PropOp48
 70
     1
102
RTVSPost2010Prop49
280
     0
102
RTVSPost2010PropOp49
 70
     1
102
RTVSPost2010Prop50
 90
       50
102
RTVSPost2010PropOp50
 70
     1
102
RTVSPost2010Prop51ColorIndex
 90
      256
102
RTVSPost2010Prop51ColorRGB
 90
-16777216
102
RTVSPost2010PropOp51
 70
     0
102
RTVSPost2010Prop52
140
1.0
102
RTVSPost2010PropOp52
 70
     0
102
RTVSPost2010Prop53
 90
        2
102
RTVSPost2010PropOp53
 70
     1
102
RTVSPost2010Prop54
  1
strokes_ogs.tif
102
RTVSPost2010PropOp54
 70
     1
102
RTVSPost2010Prop55
280
     0
102
RTVSPost2010PropOp55
 70
     1
102
RTVSPost2010Prop56
140
1.0
102
RTVSPost2010PropOp56
 70
     1
102
RTVSPost2010Prop57
140
1.0
102
RTVSPost2010PropOp57
 70
     1
  0
XRECORD
  5
26B
102
{ACAD_REACTORS
330
26A
102
}
330
26A
100
AcDbXrecord
280
     1
102
RTVSPropertyOp0
 70
     1
102
RTVSPropertyOp1
 70
     1
102
RTVSPropertyOp2
 70
     1
102
RTVSPropertyOp3
 70
     1
102
RTVSPropertyOp4
 70
     1
102
RTVSPropertyOp5
 70
     1
102
RTVSPropertyOp6
 70
     1
102
RTVSPropertyOp7
 70
     1
102
RTVSPropertyOp8
 70
     1
102
RTVSPropertyOp9
 70
     1
102
RTVSPropertyOp10
 70
     1
102
RTVSPropertyOp11
 70
     1
102
RTVSPropertyOp12
 70
     1
102
RTVSPropertyOp13
 70
     1
102
RTVSPropertyOp14
 70
     1
102
RTVSPropertyOp15
 70
     1
102
RTVSPropertyOp16
 70
     1
102
RTVSPropertyOp17
 70
     1
102
RTVSPropertyOp18
 70
     1
102
RTVSPropertyOp19
 70
     1
102
RTVSPropertyOp20
 70
     1
102
RTVSPropertyOp21
 70
     1
102
RTVSPropertyOp22
 70
     1
102
RTVSPropertyOp23
 70
     1
102
RTVSPropertyOp24
 70
     1
102
RTVSPropertyOp25
 70
     1
102
RTVSPropertyOp26
 70
     1
102
RTVSPropertyOp27
 70
     1
102
RTVSPropertyOp28
 70
     1
102
RTVSPropertyOp29
 70
     1
102
RTVSPropertyOp30
 70
     1
102
RTVSPropertyOp31
 70
     1
102
RTVSPropertyOp32
 70
     1
102
RTVSPropertyOp33
 70
     1
102
RTVSPropertyOp34
 70
     1
102
RTVSPropertyOp35
 70
     1
102
RTVSPropertyOp36
 70
     1
102
RTVSPropertyOp37
 70
     1
102
RTVSPropertyOp38
 70
     1
102
RTVSPropertyOp39
 70
     1
102
RTVSPropertyOp40
 70
     1
102
RTVSPropertyOp41
 70
     1
102
RTVSPropertyOp42
 70
     1
102
RTVSPropertyOp43
 70
     1
102
RTVSPropertyOp44
 70
     1
102
RTVSPropertyOp45
 70
     1
102
RTVSPropertyOp46
 70
     1
102
RTVSPropertyOp47
 70
     1
102
RTVSPropertyOp48
 70
     1
102
RTVSPropertyOp49
 70
     1
102
RTVSPropertyOp50
 70
     1
102
RTVSPropertyOp51
 70
     0
102
RTVSPropertyOp52
 70
     0
102
RTVSPropertyOp53
 70
     1
102
RTVSPropertyOp54
 70
     1
102
RTVSPropertyOp55
 70
     1
102
RTVSPropertyOp56
 70
     1
102
RTVSPropertyOp57
 70
     1
102
RTVSPost2010Prop28
280
     0
102
RTVSPost2010PropOp28
 70
     1
102
RTVSPost2010Prop29
280
     1
102
RTVSPost2010PropOp29
 70
     1
102
RTVSPost2010Prop30
280
     1
102
RTVSPost2010PropOp30
 70
     1
102
RTVSPost2010Prop31
280
     0
102
RTVSPost2010PropOp31
 70
     1
102
RTVSPost2010Prop32
280
     0
102
RTVSPost2010PropOp32
 70
     1
102
RTVSPost2010Prop33
280
     0
102
RTVSPost2010PropOp33
 70
     1
102
RTVSPost2010Prop34
280
     0
102
RTVSPost2010PropOp34
 70
     1
102
RTVSPost2010Prop35
280
     0
102
RTVSPost2010PropOp35
 70
     1
102
RTVSPost2010Prop36
280
     0
102
RTVSPost2010PropOp36
 70
     1
102
RTVSPost2010Prop37
 90
       50
102
RTVSPost2010PropOp37
 70
     1
102
RTVSPost2010Prop38
140
0.0
102
RTVSPost2010PropOp38
 70
     1
102
RTVSPost2010Prop39
140
1.0
102
RTVSPost2010PropOp39
 70
     1
102
RTVSPost2010Prop40
 90
        0
102
RTVSPost2010PropOp40
 70
     1
102
RTVSPost2010Prop41ColorIndex
 90
       18
102
RTVSPost2010Prop41ColorRGB
 90
        0
102
RTVSPost2010PropOp41
 70
     1
102
RTVSPost2010Prop42
 90
       50
102
RTVSPost2010PropOp42
 70
     1
102
RTVSPost2010Prop43
 90
        3
102
RTVSPost2010PropOp43
 70
     1
102
RTVSPost2010Prop44ColorIndex
 90
        5
102
RTVSPost2010Prop44ColorRGB
 90
      255
102
RTVSPost2010PropOp44
 70
     1
102
RTVSPost2010Prop45
280
     0
102
RTVSPost2010PropOp45
 70
     1
102
RTVSPost2010Prop46
 90
       50
102
RTVSPost2010PropOp46
 70
     1
102
RTVSPost2010Prop47
 90
       50
102
RTVSPost2010PropOp47
 70
     1
102
RTVSPost2010Prop48
 90
       50
102
RTVSPost2010PropOp48
 70
     1
102
RTVSPost2010Prop49
280
     0
102
RTVSPost2010PropOp49
 70
     1
102
RTVSPost2010Prop50
 90
       50
102
RTVSPost2010PropOp50
 70
     1
102
RTVSPost2010Prop51ColorIndex
 90
      256
102
RTVSPost2010Prop51ColorRGB
 90
-16777216
102
RTVSPost2010PropOp51
 70
     0
102
RTVSPost2010Prop52
140
1.0
102
RTVSPost2010PropOp52
 70
     0
102
RTVSPost2010Prop53
 90
        2
102
RTVSPost2010PropOp53
 70
     1
102
RTVSPost2010Prop54
  1
strokes_ogs.tif
102
RTVSPost2010PropOp54
 70
     1
102
RTVSPost2010Prop55
280
     0
102
RTVSPost2010PropOp55
 70
     1
102
RTVSPost2010Prop56
140
1.0
102
RTVSPost2010PropOp56
 70
     1
102
RTVSPost2010Prop57
140
1.0
102
RTVSPost2010PropOp57
 70
     1
  0
XRECORD
  5
25D
102
{ACAD_REACTORS
330
25C
102
}
330
25C
100
AcDbXrecord
280
     1
102
RTVSPropertyOp0
 70
     1
102
RTVSPropertyOp1
 70
     1
102
RTVSPropertyOp2
 70
     1
102
RTVSPropertyOp3
 70
     1
102
RTVSPropertyOp4
 70
     1
102
RTVSPropertyOp5
 70
     1
102
RTVSPropertyOp6
 70
     1
102
RTVSPropertyOp7
 70
     1
102
RTVSPropertyOp8
 70
     1
102
RTVSPropertyOp9
 70
     1
102
RTVSPropertyOp10
 70
     1
102
RTVSPropertyOp11
 70
     1
102
RTVSPropertyOp12
 70
     1
102
RTVSPropertyOp13
 70
     1
102
RTVSPropertyOp14
 70
     1
102
RTVSPropertyOp15
 70
     1
102
RTVSPropertyOp16
 70
     1
102
RTVSPropertyOp17
 70
     1
102
RTVSPropertyOp18
 70
     1
102
RTVSPropertyOp19
 70
     1
102
RTVSPropertyOp20
 70
     1
102
RTVSPropertyOp21
 70
     1
102
RTVSPropertyOp22
 70
     1
102
RTVSPropertyOp23
 70
     1
102
RTVSPropertyOp24
 70
     1
102
RTVSPropertyOp25
 70
     1
102
RTVSPropertyOp26
 70
     1
102
RTVSPropertyOp27
 70
     1
102
RTVSPropertyOp28
 70
     1
102
RTVSPropertyOp29
 70
     1
102
RTVSPropertyOp30
 70
     1
102
RTVSPropertyOp31
 70
     1
102
RTVSPropertyOp32
 70
     1
102
RTVSPropertyOp33
 70
     1
102
RTVSPropertyOp34
 70
     1
102
RTVSPropertyOp35
 70
     1
102
RTVSPropertyOp36
 70
     1
102
RTVSPropertyOp37
 70
     1
102
RTVSPropertyOp38
 70
     1
102
RTVSPropertyOp39
 70
     1
102
RTVSPropertyOp40
 70
     1
102
RTVSPropertyOp41
 70
     1
102
RTVSPropertyOp42
 70
     1
102
RTVSPropertyOp43
 70
     1
102
RTVSPropertyOp44
 70
     1
102
RTVSPropertyOp45
 70
     1
102
RTVSPropertyOp46
 70
     1
102
RTVSPropertyOp47
 70
     1
102
RTVSPropertyOp48
 70
     1
102
RTVSPropertyOp49
 70
     1
102
RTVSPropertyOp50
 70
     1
102
RTVSPropertyOp51
 70
     0
102
RTVSPropertyOp52
 70
     0
102
RTVSPropertyOp53
 70
     1
102
RTVSPropertyOp54
 70
     1
102
RTVSPropertyOp55
 70
     1
102
RTVSPropertyOp56
 70
     1
102
RTVSPropertyOp57
 70
     1
102
RTVSPost2010Prop28
280
     0
102
RTVSPost2010PropOp28
 70
     1
102
RTVSPost2010Prop29
280
     1
102
RTVSPost2010PropOp29
 70
     1
102
RTVSPost2010Prop30
280
     1
102
RTVSPost2010PropOp30
 70
     1
102
RTVSPost2010Prop31
280
     0
102
RTVSPost2010PropOp31
 70
     1
102
RTVSPost2010Prop32
280
     0
102
RTVSPost2010PropOp32
 70
     1
102
RTVSPost2010Prop33
280
     0
102
RTVSPost2010PropOp33
 70
     1
102
RTVSPost2010Prop34
280
     0
102
RTVSPost2010PropOp34
 70
     1
102
RTVSPost2010Prop35
280
     0
102
RTVSPost2010PropOp35
 70
     1
102
RTVSPost2010Prop36
280
     0
102
RTVSPost2010PropOp36
 70
     1
102
RTVSPost2010Prop37
 90
       50
102
RTVSPost2010PropOp37
 70
     1
102
RTVSPost2010Prop38
140
0.0
102
RTVSPost2010PropOp38
 70
     1
102
RTVSPost2010Prop39
140
1.0
102
RTVSPost2010PropOp39
 70
     1
102
RTVSPost2010Prop40
 90
        0
102
RTVSPost2010PropOp40
 70
     1
102
RTVSPost2010Prop41ColorIndex
 90
       18
102
RTVSPost2010Prop41ColorRGB
 90
        0
102
RTVSPost2010PropOp41
 70
     1
102
RTVSPost2010Prop42
 90
       50
102
RTVSPost2010PropOp42
 70
     1
102
RTVSPost2010Prop43
 90
        3
102
RTVSPost2010PropOp43
 70
     1
102
RTVSPost2010Prop44ColorIndex
 90
        5
102
RTVSPost2010Prop44ColorRGB
 90
      255
102
RTVSPost2010PropOp44
 70
     1
102
RTVSPost2010Prop45
280
     0
102
RTVSPost2010PropOp45
 70
     1
102
RTVSPost2010Prop46
 90
       50
102
RTVSPost2010PropOp46
 70
     1
102
RTVSPost2010Prop47
 90
       50
102
RTVSPost2010PropOp47
 70
     1
102
RTVSPost2010Prop48
 90
       50
102
RTVSPost2010PropOp48
 70
     1
102
RTVSPost2010Prop49
280
     0
102
RTVSPost2010PropOp49
 70
     1
102
RTVSPost2010Prop50
 90
       50
102
RTVSPost2010PropOp50
 70
     1
102
RTVSPost2010Prop51ColorIndex
 90
      256
102
RTVSPost2010Prop51ColorRGB
 90
-16777216
102
RTVSPost2010PropOp51
 70
     0
102
RTVSPost2010Prop52
140
1.0
102
RTVSPost2010PropOp52
 70
     0
102
RTVSPost2010Prop53
 90
        2
102
RTVSPost2010PropOp53
 70
     1
102
RTVSPost2010Prop54
  1
strokes_ogs.tif
102
RTVSPost2010PropOp54
 70
     1
102
RTVSPost2010Prop55
280
     0
102
RTVSPost2010PropOp55
 70
     1
102
RTVSPost2010Prop56
140
1.0
102
RTVSPost2010PropOp56
 70
     1
102
RTVSPost2010Prop57
140
1.0
102
RTVSPost2010PropOp57
 70
     1
  0
XRECORD
  5
27D
102
{ACAD_REACTORS
330
27C
102
}
330
27C
100
AcDbXrecord
280
     1
102
RTVSPropertyOp0
 70
     1
102
RTVSPropertyOp1
 70
     1
102
RTVSPropertyOp2
 70
     1
102
RTVSPropertyOp3
 70
     1
102
RTVSPropertyOp4
 70
     1
102
RTVSPropertyOp5
 70
     1
102
RTVSPropertyOp6
 70
     1
102
RTVSPropertyOp7
 70
     1
102
RTVSPropertyOp8
 70
     1
102
RTVSPropertyOp9
 70
     1
102
RTVSPropertyOp10
 70
     1
102
RTVSPropertyOp11
 70
     1
102
RTVSPropertyOp12
 70
     1
102
RTVSPropertyOp13
 70
     1
102
RTVSPropertyOp14
 70
     1
102
RTVSPropertyOp15
 70
     1
102
RTVSPropertyOp16
 70
     1
102
RTVSPropertyOp17
 70
     1
102
RTVSPropertyOp18
 70
     1
102
RTVSPropertyOp19
 70
     1
102
RTVSPropertyOp20
 70
     1
102
RTVSPropertyOp21
 70
     1
102
RTVSPropertyOp22
 70
     1
102
RTVSPropertyOp23
 70
     1
102
RTVSPropertyOp24
 70
     1
102
RTVSPropertyOp25
 70
     1
102
RTVSPropertyOp26
 70
     1
102
RTVSPropertyOp27
 70
     1
102
RTVSPropertyOp28
 70
     1
102
RTVSPropertyOp29
 70
     1
102
RTVSPropertyOp30
 70
     1
102
RTVSPropertyOp31
 70
     1
102
RTVSPropertyOp32
 70
     1
102
RTVSPropertyOp33
 70
     1
102
RTVSPropertyOp34
 70
     1
102
RTVSPropertyOp35
 70
     1
102
RTVSPropertyOp36
 70
     1
102
RTVSPropertyOp37
 70
     1
102
RTVSPropertyOp38
 70
     1
102
RTVSPropertyOp39
 70
     1
102
RTVSPropertyOp40
 70
     1
102
RTVSPropertyOp41
 70
     1
102
RTVSPropertyOp42
 70
     1
102
RTVSPropertyOp43
 70
     1
102
RTVSPropertyOp44
 70
     1
102
RTVSPropertyOp45
 70
     1
102
RTVSPropertyOp46
 70
     1
102
RTVSPropertyOp47
 70
     1
102
RTVSPropertyOp48
 70
     1
102
RTVSPropertyOp49
 70
     1
102
RTVSPropertyOp50
 70
     1
102
RTVSPropertyOp51
 70
     0
102
RTVSPropertyOp52
 70
     0
102
RTVSPropertyOp53
 70
     1
102
RTVSPropertyOp54
 70
     1
102
RTVSPropertyOp55
 70
     1
102
RTVSPropertyOp56
 70
     1
102
RTVSPropertyOp57
 70
     1
102
RTVSPost2010Prop28
280
     0
102
RTVSPost2010PropOp28
 70
     1
102
RTVSPost2010Prop29
280
     1
102
RTVSPost2010PropOp29
 70
     1
102
RTVSPost2010Prop30
280
     1
102
RTVSPost2010PropOp30
 70
     1
102
RTVSPost2010Prop31
280
     0
102
RTVSPost2010PropOp31
 70
     1
102
RTVSPost2010Prop32
280
     0
102
RTVSPost2010PropOp32
 70
     1
102
RTVSPost2010Prop33
280
     0
102
RTVSPost2010PropOp33
 70
     1
102
RTVSPost2010Prop34
280
     0
102
RTVSPost2010PropOp34
 70
     1
102
RTVSPost2010Prop35
280
     0
102
RTVSPost2010PropOp35
 70
     1
102
RTVSPost2010Prop36
280
     0
102
RTVSPost2010PropOp36
 70
     1
102
RTVSPost2010Prop37
 90
       50
102
RTVSPost2010PropOp37
 70
     1
102
RTVSPost2010Prop38
140
0.0
102
RTVSPost2010PropOp38
 70
     1
102
RTVSPost2010Prop39
140
1.0
102
RTVSPost2010PropOp39
 70
     1
102
RTVSPost2010Prop40
 90
        0
102
RTVSPost2010PropOp40
 70
     1
102
RTVSPost2010Prop41ColorIndex
 90
       18
102
RTVSPost2010Prop41ColorRGB
 90
        0
102
RTVSPost2010PropOp41
 70
     1
102
RTVSPost2010Prop42
 90
       50
102
RTVSPost2010PropOp42
 70
     1
102
RTVSPost2010Prop43
 90
        3
102
RTVSPost2010PropOp43
 70
     1
102
RTVSPost2010Prop44ColorIndex
 90
        5
102
RTVSPost2010Prop44ColorRGB
 90
      255
102
RTVSPost2010PropOp44
 70
     1
102
RTVSPost2010Prop45
280
     0
102
RTVSPost2010PropOp45
 70
     1
102
RTVSPost2010Prop46
 90
       50
102
RTVSPost2010PropOp46
 70
     1
102
RTVSPost2010Prop47
 90
       50
102
RTVSPost2010PropOp47
 70
     1
102
RTVSPost2010Prop48
 90
       50
102
RTVSPost2010PropOp48
 70
     1
102
RTVSPost2010Prop49
280
     0
102
RTVSPost2010PropOp49
 70
     1
102
RTVSPost2010Prop50
 90
       50
102
RTVSPost2010PropOp50
 70
     1
102
RTVSPost2010Prop51ColorIndex
 90
      256
102
RTVSPost2010Prop51ColorRGB
 90
-16777216
102
RTVSPost2010PropOp51
 70
     0
102
RTVSPost2010Prop52
140
1.0
102
RTVSPost2010PropOp52
 70
     0
102
RTVSPost2010Prop53
 90
        2
102
RTVSPost2010PropOp53
 70
     1
102
RTVSPost2010Prop54
  1
strokes_ogs.tif
102
RTVSPost2010PropOp54
 70
     1
102
RTVSPost2010Prop55
280
     0
102
RTVSPost2010PropOp55
 70
     1
102
RTVSPost2010Prop56
140
1.0
102
RTVSPost2010PropOp56
 70
     1
102
RTVSPost2010Prop57
140
1.0
102
RTVSPost2010PropOp57
 70
     1
  0
ENDSEC
  0
EOF
