  0
SECTION
  2
HEADER
  9
$ACADVER
  1
AC1024
  9
$ACADMAINTVER
 70
     6
  9
$DWGCODEPAGE
  3
ANSI_1252
  9
$INSBASE
 10
0.0
 20
0.0
 30
0.0
  9
$EXTMIN
 10
1.000000E+20
 20
1.000000E+20
 30
1.000000E+20
  9
$EXTMAX
 10
-1.000000E+20
 20
-1.000000E+20
 30
-1.000000E+20
  9
$LIMMIN
 10
0.0
 20
0.0
  9
$LIMMAX
 10
420.0
 20
297.0
  9
$ORTHOMODE
 70
     0
  9
$REGENMODE
 70
     1
  9
$FILLMODE
 70
     1
  9
$QTEXTMODE
 70
     0
  9
$MIRRTEXT
 70
     1
  9
$LTSCALE
 40
1.0
  9
$ATTMODE
 70
     1
  9
$TEXTSIZE
 40
2.5
  9
$TRACEWID
 40
1.0
  9
$TEXTSTYLE
  7
Standard
  9
$CLAYER
  8
0
  9
$CELTYPE
  6
ByLayer
  9
$CECOLOR
 62
   256
  9
$CELTSCALE
 40
1.0
  9
$DISPSILH
 70
     0
  9
$DIMSCALE
 40
1.0
  9
$DIMASZ
 40
2.5
  9
$DIMEXO
 40
0.625
  9
$DIMDLI
 40
3.75
  9
$DIMRND
 40
0.0
  9
$DIMDLE
 40
0.0
  9
$DIMEXE
 40
1.25
  9
$DIMTP
 40
0.0
  9
$DIMTM
 40
0.0
  9
$DIMTXT
 40
2.5
  9
$DIMCEN
 40
2.5
  9
$DIMTSZ
 40
0.0
  9
$DIMTOL
 70
     0
  9
$DIMLIM
 70
     0
  9
$DIMTIH
 70
     0
  9
$DIMTOH
 70
     0
  9
$DIMSE1
 70
     0
  9
$DIMSE2
 70
     0
  9
$DIMTAD
 70
     1
  9
$DIMZIN
 70
     8
  9
$DIMBLK
  1

  9
$DIMASO
 70
     1
  9
$DIMSHO
 70
     1
  9
$DIMPOST
  1

  9
$DIMAPOST
  1

  9
$DIMALT
 70
     0
  9
$DIMALTD
 70
     3
  9
$DIMALTF
 40
0.03937
  9
$DIMLFAC
 40
1.0
  9
$DIMTOFL
 70
     1
  9
$DIMTVP
 40
0.0
  9
$DIMTIX
 70
     0
  9
$DIMSOXD
 70
     0
  9
$DIMSAH
 70
     0
  9
$DIMBLK1
  1

  9
$DIMBLK2
  1

  9
$DIMSTYLE
  2
ISO-25
  9
$DIMCLRD
 70
     0
  9
$DIMCLRE
 70
     0
  9
$DIMCLRT
 70
     0
  9
$DIMTFAC
 40
1.0
  9
$DIMGAP
 40
0.625
  9
$DIMJUST
 70
     0
  9
$DIMSD1
 70
     0
  9
$DIMSD2
 70
     0
  9
$DIMTOLJ
 70
     0
  9
$DIMTZIN
 70
     8
  9
$DIMALTZ
 70
     0
  9
$DIMALTTZ
 70
     0
  9
$DIMUPT
 70
     0
  9
$DIMDEC
 70
     2
  9
$DIMTDEC
 70
     2
  9
$DIMALTU
 70
     2
  9
$DIMALTTD
 70
     3
  9
$DIMTXSTY
  7
Standard
  9
$DIMAUNIT
 70
     0
  9
$DIMADEC
 70
     0
  9
$DIMALTRND
 40
0.0
  9
$DIMAZIN
 70
     0
  9
$DIMDSEP
 70
    44
  9
$DIMATFIT
 70
     3
  9
$DIMFRAC
 70
     0
  9
$DIMLDRBLK
  1

  9
$DIMLUNIT
 70
     2
  9
$DIMLWD
 70
    -2
  9
$DIMLWE
 70
    -2
  9
$DIMTMOVE
 70
     0
  9
$DIMFXL
 40
1.0
  9
$DIMFXLON
 70
     0
  9
$DIMJOGANG
 40
0.785398
  9
$DIMTFILL
 70
     0
  9
$DIMTFILLCLR
 70
     0
  9
$DIMARCSYM
 70
     0
  9
$DIMLTYPE
  6

  9
$DIMLTEX1
  6

  9
$DIMLTEX2
  6

  9
$DIMTXTDIRECTION
 70
     0
  9
$LUNITS
 70
     2
  9
$LUPREC
 70
     4
  9
$SKETCHINC
 40
1.0
  9
$FILLETRAD
 40
10.0
  9
$AUNITS
 70
     0
  9
$AUPREC
 70
     0
  9
$MENU
  1
.
  9
$ELEVATION
 40
0.0
  9
$PELEVATION
 40
0.0
  9
$THICKNESS
 40
0.0
  9
$LIMCHECK
 70
     0
  9
$CHAMFERA
 40
0.0
  9
$CHAMFERB
 40
0.0
  9
$CHAMFERC
 40
0.0
  9
$CHAMFERD
 40
0.0
  9
$SKPOLY
 70
     0
  9
$TDCREATE
 40
2458673.640298553
  9
$TDUCREATE
 40
2458673.55696522
  9
$TDUPDATE
 40
2458673.640299097
  9
$TDUUPDATE
 40
2458673.556965764
  9
$TDINDWG
 40
0.0000000116
  9
$TDUSRTIMER
 40
0.0000000116
  9
$USRTIMER
 70
     1
  9
$ANGBASE
 50
0.0
  9
$ANGDIR
 70
     0
  9
$PDMODE
 70
     0
  9
$PDSIZE
 40
0.0
  9
$PLINEWID
 40
0.0
  9
$SPLFRAME
 70
     0
  9
$SPLINETYPE
 70
     6
  9
$SPLINESEGS
 70
     8
  9
$HANDSEED
  5
270
  9
$SURFTAB1
 70
     6
  9
$SURFTAB2
 70
     6
  9
$SURFTYPE
 70
     6
  9
$SURFU
 70
     6
  9
$SURFV
 70
     6
  9
$UCSBASE
  2

  9
$UCSNAME
  2

  9
$UCSORG
 10
0.0
 20
0.0
 30
0.0
  9
$UCSXDIR
 10
1.0
 20
0.0
 30
0.0
  9
$UCSYDIR
 10
0.0
 20
1.0
 30
0.0
  9
$UCSORTHOREF
  2

  9
$UCSORTHOVIEW
 70
     0
  9
$UCSORGTOP
 10
0.0
 20
0.0
 30
0.0
  9
$UCSORGBOTTOM
 10
0.0
 20
0.0
 30
0.0
  9
$UCSORGLEFT
 10
0.0
 20
0.0
 30
0.0
  9
$UCSORGRIGHT
 10
0.0
 20
0.0
 30
0.0
  9
$UCSORGFRONT
 10
0.0
 20
0.0
 30
0.0
  9
$UCSORGBACK
 10
0.0
 20
0.0
 30
0.0
  9
$PUCSBASE
  2

  9
$PUCSNAME
  2

  9
$PUCSORG
 10
0.0
 20
0.0
 30
0.0
  9
$PUCSXDIR
 10
1.0
 20
0.0
 30
0.0
  9
$PUCSYDIR
 10
0.0
 20
1.0
 30
0.0
  9
$PUCSORTHOREF
  2

  9
$PUCSORTHOVIEW
 70
     0
  9
$PUCSORGTOP
 10
0.0
 20
0.0
 30
0.0
  9
$PUCSORGBOTTOM
 10
0.0
 20
0.0
 30
0.0
  9
$PUCSORGLEFT
 10
0.0
 20
0.0
 30
0.0
  9
$PUCSORGRIGHT
 10
0.0
 20
0.0
 30
0.0
  9
$PUCSORGFRONT
 10
0.0
 20
0.0
 30
0.0
  9
$PUCSORGBACK
 10
0.0
 20
0.0
 30
0.0
  9
$USERI1
 70
     0
  9
$USERI2
 70
     0
  9
$USERI3
 70
     0
  9
$USERI4
 70
     0
  9
$USERI5
 70
     0
  9
$USERR1
 40
0.0
  9
$USERR2
 40
0.0
  9
$USERR3
 40
0.0
  9
$USERR4
 40
0.0
  9
$USERR5
 40
0.0
  9
$WORLDVIEW
 70
     1
  9
$SHADEDGE
 70
     3
  9
$SHADEDIF
 70
    70
  9
$TILEMODE
 70
     1
  9
$MAXACTVP
 70
    64
  9
$PINSBASE
 10
0.0
 20
0.0
 30
0.0
  9
$PLIMCHECK
 70
     0
  9
$PEXTMIN
 10
1.000000E+20
 20
1.000000E+20
 30
1.000000E+20
  9
$PEXTMAX
 10
-1.000000E+20
 20
-1.000000E+20
 30
-1.000000E+20
  9
$PLIMMIN
 10
0.0
 20
0.0
  9
$PLIMMAX
 10
420.0
 20
297.0
  9
$UNITMODE
 70
     0
  9
$VISRETAIN
 70
     1
  9
$PLINEGEN
 70
     0
  9
$PSLTSCALE
 70
     1
  9
$TREEDEPTH
 70
  3020
  9
$CMLSTYLE
  2
Standard
  9
$CMLJUST
 70
     0
  9
$CMLSCALE
 40
20.0
  9
$PROXYGRAPHICS
 70
     1
  9
$MEASUREMENT
 70
     1
  9
$CELWEIGHT
370
    -1
  9
$ENDCAPS
280
     0
  9
$JOINSTYLE
280
     0
  9
$LWDISPLAY
290
     0
  9
$INSUNITS
 70
     4
  9
$HYPERLINKBASE
  1

  9
$STYLESHEET
  1

  9
$XEDIT
290
     1
  9
$CEPSNTYPE
380
     0
  9
$PSTYLEMODE
290
     1
  9
$FINGERPRINTGUID
  2
{EDD12103-BA4E-4BA9-B0D8-D4058DF21B9B}
  9
$VERSIONGUID
  2
{FAEB1C32-E019-11D5-929B-00C0DF256EC4}
  9
$EXTNAMES
290
     1
  9
$PSVPSCALE
 40
0.0
  9
$OLESTARTUP
290
     0
  9
$SORTENTS
280
   127
  9
$INDEXCTL
280
     0
  9
$HIDETEXT
280
     1
  9
$XCLIPFRAME
280
     2
  9
$HALOGAP
280
     0
  9
$OBSCOLOR
 70
   257
  9
$OBSLTYPE
280
     0
  9
$INTERSECTIONDISPLAY
280
     0
  9
$INTERSECTIONCOLOR
 70
   257
  9
$DIMASSOC
280
     2
  9
$PROJECTNAME
  1

  9
$CAMERADISPLAY
290
     0
  9
$LENSLENGTH
 40
50.0
  9
$CAMERAHEIGHT
 40
0.0
  9
$STEPSPERSEC
 40
2.0
  9
$STEPSIZE
 40
6.0
  9
$3DDWFPREC
 40
2.0
  9
$PSOLWIDTH
 40
5.0
  9
$PSOLHEIGHT
 40
80.0
  9
$LOFTANG1
 40
1.570796
  9
$LOFTANG2
 40
1.570796
  9
$LOFTMAG1
 40
0.0
  9
$LOFTMAG2
 40
0.0
  9
$LOFTPARAM
 70
     7
  9
$LOFTNORMALS
280
     1
  9
$LATITUDE
 40
37.795
  9
$LONGITUDE
 40
-122.394
  9
$NORTHDIRECTION
 40
0.0
  9
$TIMEZONE
 70
 -8000
  9
$LIGHTGLYPHDISPLAY
280
     1
  9
$TILEMODELIGHTSYNCH
280
     1
  9
$CMATERIAL
347
44
  9
$SOLIDHIST
280
     0
  9
$SHOWHIST
280
     1
  9
$DWFFRAME
280
     2
  9
$DGNFRAME
280
     2
  9
$REALWORLDSCALE
290
     1
  9
$INTERFERECOLOR
 62
   256
  9
$CSHADOW
280
     0
  9
$SHADOWPLANELOCATION
 40
0.0
  0
ENDSEC
  0
SECTION
  2
CLASSES
  0
CLASS
  1
ACDBDICTIONARYWDFLT
  2
AcDbDictionaryWithDefault
  3
ObjectDBX Classes
 90
        0
 91
        4
280
     0
281
     0
  0
CLASS
  1
VISUALSTYLE
  2
AcDbVisualStyle
  3
ObjectDBX Classes
 90
     4095
 91
        4
280
     0
281
     0
  0
CLASS
  1
MATERIAL
  2
AcDbMaterial
  3
ObjectDBX Classes
 90
     1153
 91
        4
280
     0
281
     0
  0
CLASS
  1
SCALE
  2
AcDbScale
  3
ObjectDBX Classes
 90
     1153
 91
        4
280
     0
281
     0
  0
CLASS
  1
TABLESTYLE
  2
AcDbTableStyle
  3
ObjectDBX Classes
 90
     4095
 91
        4
280
     0
281
     0
  0
CLASS
  1
MLEADERSTYLE
  2
AcDbMLeaderStyle
  3
ACDB_MLEADERSTYLE_CLASS
 90
     4095
 91
        4
280
     0
281
     0
  0
CLASS
  1
SUN
  2
AcDbSun
  3
SCENEOE
 90
     1153
 91
        4
280
     0
281
     0
  0
CLASS
  1
DICTIONARYVAR
  2
AcDbDictionaryVar
  3
ObjectDBX Classes
 90
        0
 91
        4
280
     0
281
     0
  0
CLASS
  1
CELLSTYLEMAP
  2
AcDbCellStyleMap
  3
ObjectDBX Classes
 90
     1152
 91
        4
280
     0
281
     0
  0
ENDSEC
  0
SECTION
  2
TABLES
  0
TABLE
  2
VPORT
  5
8
330
0
100
AcDbSymbolTable
 70
     1
  0
VPORT
  5
29
330
8
100
AcDbSymbolTableRecord
100
AcDbViewportTableRecord
  2
*Active
 70
     0
 10
0.0
 20
0.0
 11
1.0
 21
1.0
 12
344.186916
 22
148.5
 13
0.0
 23
0.0
 14
10.0
 24
10.0
 15
10.0
 25
10.0
 16
0.0
 26
0.0
 36
1.0
 17
0.0
 27
0.0
 37
0.0
 40
297.0
 41
1.972973
 42
50.0
 43
0.0
 44
0.0
 50
0.0
 51
0.0
 71
     0
 72
   100
 73
     1
 74
     3
 75
     0
 76
     0
 77
     0
 78
     0
281
     0
 65
     1
110
0.0
120
0.0
130
0.0
111
1.0
121
0.0
131
0.0
112
0.0
122
1.0
132
0.0
 79
     0
146
0.0
348
2F
 60
     3
 61
     5
292
     1
282
     1
141
0.0
142
0.0
 63
   250
361
6D
  0
ENDTAB
  0
TABLE
  2
LTYPE
  5
5
330
0
100
AcDbSymbolTable
 70
     1
  0
LTYPE
  5
14
330
5
100
AcDbSymbolTableRecord
100
AcDbLinetypeTableRecord
  2
ByBlock
 70
     0
  3

 72
    65
 73
     0
 40
0.0
  0
LTYPE
  5
15
330
5
100
AcDbSymbolTableRecord
100
AcDbLinetypeTableRecord
  2
ByLayer
 70
     0
  3

 72
    65
 73
     0
 40
0.0
  0
LTYPE
  5
16
330
5
100
AcDbSymbolTableRecord
100
AcDbLinetypeTableRecord
  2
Continuous
 70
     0
  3
Solid line
 72
    65
 73
     0
 40
0.0
  0
ENDTAB
  0
TABLE
  2
LAYER
  5
2
330
0
100
AcDbSymbolTable
 70
     1
  0
LAYER
  5
10
330
2
100
AcDbSymbolTableRecord
100
AcDbLayerTableRecord
  2
0
 70
     0
 62
   106
  6
Continuous
370
     0
390
F
347
46
  0
ENDTAB
  0
TABLE
  2
STYLE
  5
3
330
0
100
AcDbSymbolTable
 70
     4
  0
STYLE
  5
11
330
3
100
AcDbSymbolTableRecord
100
AcDbTextStyleTableRecord
  2
Standard
 70
     0
 40
0.0
 41
1.0
 50
0.0
 71
     0
 42
2.5
  3
txt
  4

  0
STYLE
  5
6E
330
3
100
AcDbSymbolTableRecord
100
AcDbTextStyleTableRecord
  2
Default
 70
     0
 40
0.0
 41
1.0
 50
0.0
 71
     0
 42
2.5
  3

  4

1001
ACAD
1000
txt
1071
        0
  0
STYLE
  5
6F
330
3
100
AcDbSymbolTableRecord
100
AcDbTextStyleTableRecord
  2
ISO
 70
     0
 40
0.0
 41
1.0
 50
0.0
 71
     0
 42
2.5
  3

  4

1001
ACAD
1000
txt
1071
        0
  0
STYLE
  5
70
330
3
100
AcDbSymbolTableRecord
100
AcDbTextStyleTableRecord
  2
zucchetti
 70
     0
 40
0.0
 41
1.0
 50
0.0
 71
     0
 42
2.5
  3

  4

1001
ACAD
1000
Arial
1071
        0
  0
ENDTAB
  0
TABLE
  2
VIEW
  5
6
330
0
100
AcDbSymbolTable
 70
     0
  0
ENDTAB
  0
TABLE
  2
UCS
  5
7
330
0
100
AcDbSymbolTable
 70
     0
  0
ENDTAB
  0
TABLE
  2
APPID
  5
9
330
0
100
AcDbSymbolTable
 70
     1
  0
APPID
  5
12
330
9
100
AcDbSymbolTableRecord
100
AcDbRegAppTableRecord
  2
ACAD
 70
     0
  0
ENDTAB
  0
TABLE
  2
DIMSTYLE
  5
A
330
0
100
AcDbSymbolTable
 70
     4
100
AcDbDimStyleTable
  0
DIMSTYLE
105
27
330
A
100
AcDbSymbolTableRecord
100
AcDbDimStyleTableRecord
  2
ISO-25
 70
     0
 41
2.5
 42
0.625
 43
3.75
 44
1.25
 73
     0
 74
     0
 77
     1
 78
     8
140
2.5
141
2.5
143
0.03937
147
0.625
171
     3
172
     1
178
     0
271
     2
272
     2
274
     3
278
    44
283
     0
284
     8
340
11
  0
DIMSTYLE
105
71
330
A
100
AcDbSymbolTableRecord
100
AcDbDimStyleTableRecord
  2
Default
 70
     0
  3
<>
 41
4.375
 42
1.05
 44
2.1
 49
10.01
 73
     0
 74
     0
 77
     1
 78
     8
140
3.5
146
0.4
147
1.75
172
     1
271
     2
178
     3
271
     2
272
     3
284
     8
340
6E
341
72
342
72
  0
DIMSTYLE
105
79
330
A
100
AcDbSymbolTableRecord
100
AcDbDimStyleTableRecord
  2
ISO
 70
     0
  3
<>
 41
4.375
 42
1.05
 44
2.1
 49
10.01
 73
     0
 74
     0
 77
     1
 78
     8
140
3.5
146
0.4
147
1.75
172
     1
271
     2
178
     3
271
     2
272
     3
284
     8
340
6F
341
72
342
72
  0
DIMSTYLE
105
7A
330
A
100
AcDbSymbolTableRecord
100
AcDbDimStyleTableRecord
  2
zucchetti
 70
     0
  3
<>
 41
3.0
 42
0.9
 44
1.8
 49
8.58
 73
     0
 74
     0
 77
     1
 78
     8
140
3.0
146
0.6
147
1.5
172
     1
176
     3
177
     3
271
     2
178
     3
271
     2
272
     2
284
     8
340
70
  0
ENDTAB
  0
TABLE
  2
BLOCK_RECORD
  5
1
330
0
100
AcDbSymbolTable
 70
     6
  0
BLOCK_RECORD
  5
1F
330
1
100
AcDbSymbolTableRecord
100
AcDbBlockTableRecord
  2
*Model_Space
340
22
 70
     0
280
     1
281
     0
  0
BLOCK_RECORD
  5
1B
330
1
100
AcDbSymbolTableRecord
100
AcDbBlockTableRecord
  2
*Paper_Space
340
1E
 70
     0
280
     1
281
     0
  0
BLOCK_RECORD
  5
23
330
1
100
AcDbSymbolTableRecord
100
AcDbBlockTableRecord
  2
*Paper_Space0
340
26
 70
     0
280
     1
281
     0
  0
BLOCK_RECORD
  5
72
330
1
100
AcDbSymbolTableRecord
100
AcDbBlockTableRecord
  2
_CLOSED
340
0
 70
     0
280
     1
281
     0
  0
BLOCK_RECORD
  5
7B
330
1
100
AcDbSymbolTableRecord
100
AcDbBlockTableRecord
  2
a
340
0
102
{BLKREFS
331
EE
102
}
 70
     0
280
     1
281
     0
  0
BLOCK_RECORD
  5
EF
330
1
100
AcDbSymbolTableRecord
100
AcDbBlockTableRecord
  2
b
340
0
102
{BLKREFS
331
122
102
}
 70
     0
280
     1
281
     0
  0
BLOCK_RECORD
  5
123
330
1
100
AcDbSymbolTableRecord
100
AcDbBlockTableRecord
  2
c
340
0
102
{BLKREFS
331
1AC
102
}
 70
     0
280
     1
281
     0
  0
BLOCK_RECORD
  5
1AD
330
1
100
AcDbSymbolTableRecord
100
AcDbBlockTableRecord
  2
d
340
0
102
{BLKREFS
331
236
102
}
 70
     0
280
     1
281
     0
  0
ENDTAB
  0
ENDSEC
  0
SECTION
  2
BLOCKS
  0
BLOCK
  5
20
330
1F
100
AcDbEntity
  8
0
100
AcDbBlockBegin
  2
*Model_Space
 70
     0
 10
0.0
 20
0.0
 30
0.0
  3
*Model_Space
  1

  0
ENDBLK
  5
21
330
1F
100
AcDbEntity
  8
0
100
AcDbBlockEnd
  0
BLOCK
  5
1C
330
1B
100
AcDbEntity
 67
     1
  8
0
100
AcDbBlockBegin
  2
*Paper_Space
 70
     0
 10
0.0
 20
0.0
 30
0.0
  3
*Paper_Space
  1

  0
ENDBLK
  5
1D
330
1B
100
AcDbEntity
 67
     1
  8
0
100
AcDbBlockEnd
  0
BLOCK
  5
24
330
23
100
AcDbEntity
  8
0
100
AcDbBlockBegin
  2
*Paper_Space0
 70
     0
 10
0.0
 20
0.0
 30
0.0
  3
*Paper_Space0
  1

  0
ENDBLK
  5
25
330
23
100
AcDbEntity
  8
0
100
AcDbBlockEnd
  0
BLOCK
  5
73
330
72
100
AcDbEntity
  8
0
100
AcDbBlockBegin
  2
_CLOSED
 70
     0
 10
0.0
 20
0.0
 30
0.0
  3
_CLOSED
  1

  0
LINE
  5
75
330
72
100
AcDbEntity
  8
0
  6
ByBlock
 62
     0
370
    -2
100
AcDbLine
 10
-1.0
 20
0.166667
 30
0.0
 11
0.0
 21
0.0
 31
0.0
  0
LINE
  5
76
330
72
100
AcDbEntity
  8
0
  6
ByBlock
 62
     0
370
    -2
100
AcDbLine
 10
0.0
 20
0.0
 30
0.0
 11
-1.0
 21
-0.166667
 31
0.0
  0
LINE
  5
77
330
72
100
AcDbEntity
  8
0
  6
ByBlock
 62
     0
370
    -2
100
AcDbLine
 10
-1.0
 20
0.166667
 30
0.0
 11
-1.0
 21
-0.166667
 31
0.0
  0
LINE
  5
78
330
72
100
AcDbEntity
  8
0
  6
ByBlock
 62
     0
370
    -2
100
AcDbLine
 10
0.0
 20
0.0
 30
0.0
 11
-1.0
 21
0.0
 31
0.0
  0
ENDBLK
  5
74
330
72
100
AcDbEntity
  8
0
100
AcDbBlockEnd
  0
BLOCK
  5
EC
330
7B
100
AcDbEntity
  8
0
100
AcDbBlockBegin
  2
a
 70
     0
 10
20.711779
 20
107.891479
 30
0.0
  3
a
  1

  0
LINE
  5
7C
330
7B
100
AcDbEntity
  8
0
  6
Continuous
 62
     0
370
    30
100
AcDbLine
 10
138.691986
 20
903.674866
 30
0.0
 11
138.691986
 21
823.674866
 31
0.0
  0
LINE
  5
7D
330
7B
100
AcDbEntity
  8
0
  6
Continuous
 62
     0
370
    30
100
AcDbLine
 10
58.691986
 20
903.674866
 30
0.0
 11
138.691986
 21
903.674866
 31
0.0
  0
LINE
  5
7E
330
7B
100
AcDbEntity
  8
0
  6
Continuous
 62
     0
370
    30
100
AcDbLine
 10
58.691986
 20
823.674866
 30
0.0
 11
58.691986
 21
903.674866
 31
0.0
  0
LINE
  5
7F
330
7B
100
AcDbEntity
  8
0
  6
Continuous
 62
     0
370
    30
100
AcDbLine
 10
138.691986
 20
823.674866
 30
0.0
 11
58.691986
 21
823.674866
 31
0.0
  0
LWPOLYLINE
  5
80
330
7B
100
AcDbEntity
  8
0
  6
Continuous
 62
     0
370
     0
100
AcDbPolyline
 90
       18
 70
     0
 43
0.0
 10
98.691986
 20
887.174866
 10
98.073257
 20
887.153198
 10
97.460457
 20
887.09021
 10
96.863701
 20
886.988586
 10
96.290817
 20
886.852478
 10
95.745598
 20
886.687561
 10
95.231377
 20
886.499756
 10
94.750168
 20
886.295044
 10
94.303444
 20
886.079651
 10
93.892876
 20
885.859497
 10
93.520432
 20
885.640381
 10
93.188179
 20
885.428223
 10
92.898529
 20
885.230286
 10
92.654045
 20
885.054321
 10
92.457741
 20
884.907288
 10
92.313103
 20
884.795166
 10
92.223488
 20
884.723633
 10
92.191986
 20
884.697937
  0
LWPOLYLINE
  5
81
330
7B
100
AcDbEntity
  8
0
  6
Continuous
 62
     0
370
     0
100
AcDbPolyline
 90
       18
 70
     0
 43
0.0
 10
105.19194
 20
884.697937
 10
105.16172
 20
884.722595
 10
105.073311
 20
884.793213
 10
104.92981
 20
884.904541
 10
104.734558
 20
885.050903
 10
104.491035
 20
885.226318
 10
104.202286
 20
885.423828
 10
103.870888
 20
885.635803
 10
103.499283
 20
885.854858
 10
103.089523
 20
886.075012
 10
102.6436
 20
886.290649
 10
102.163147
 20
886.495667
 10
101.649597
 20
886.683899
 10
101.10495
 20
886.849243
 10
100.532555
 20
886.985901
 10
99.936234
 20
887.088257
 10
99.323685
 20
887.152161
 10
98.691986
 20
887.174866
  0
LINE
  5
82
330
7B
100
AcDbEntity
  8
0
  6
Continuous
 62
     0
370
     0
100
AcDbLine
 10
98.691986
 20
898.674877
 30
0.0
 11
92.191986
 21
898.674877
 31
0.0
  0
LINE
  5
83
330
7B
100
AcDbEntity
  8
0
  6
Continuous
 62
     0
370
     0
100
AcDbLine
 10
105.191986
 20
898.674877
 30
0.0
 11
98.691986
 21
898.674877
 31
0.0
  0
LINE
  5
84
330
7B
100
AcDbEntity
  8
0
  6
Continuous
 62
     0
370
    30
100
AcDbLine
 10
98.691986
 20
899.174877
 30
0.0
 11
104.692068
 21
899.174877
 31
0.0
  0
LINE
  5
85
330
7B
100
AcDbEntity
  8
0
  6
Continuous
 62
     0
370
    30
100
AcDbLine
 10
92.691905
 20
899.174877
 30
0.0
 11
98.691986
 21
899.174877
 31
0.0
  0
ARC
  5
86
330
7B
100
AcDbEntity
  8
0
  6
Continuous
 62
     0
370
    30
100
AcDbCircle
 10
98.691986
 20
863.674877
 30
0.0
 40
19.5
100
AcDbArc
 50
90.0
 51
270.0
  0
ARC
  5
87
330
7B
100
AcDbEntity
  8
0
  6
Continuous
 62
     0
370
    30
100
AcDbCircle
 10
98.691986
 20
863.674877
 30
0.0
 40
19.5
100
AcDbArc
 50
270.0
 51
90.0
  0
ARC
  5
88
330
7B
100
AcDbEntity
  8
0
  6
Continuous
 62
     0
370
     0
100
AcDbCircle
 10
98.692245
 20
863.674877
 30
0.0
 40
19.00000000175915
100
AcDbArc
 50
269.99922
 51
90.00078
  0
ARC
  5
89
330
7B
100
AcDbEntity
  8
0
  6
Continuous
 62
     0
370
     0
100
AcDbCircle
 10
98.691728
 20
863.674877
 30
0.0
 40
19.00000000175916
100
AcDbArc
 50
89.99922
 51
270.00078
  0
ARC
  5
8A
330
7B
100
AcDbEntity
  8
0
  6
Continuous
 62
     0
370
    30
100
AcDbCircle
 10
104.691984
 20
898.674874
 30
0.0
 40
0.5000028044144678
100
AcDbArc
 50
0.000321
 51
89.974932
  0
ARC
  5
8B
330
7B
100
AcDbEntity
  8
0
  6
Continuous
 62
     0
370
    30
100
AcDbCircle
 10
92.69199
 20
898.674874
 30
0.0
 40
0.5000034945572271
100
AcDbArc
 50
90.025147
 51
179.9996
  0
LINE
  5
8C
330
7B
100
AcDbEntity
  8
0
  6
Continuous
 62
     0
370
    30
100
AcDbLine
 10
92.191986
 20
884.697321
 30
0.0
 11
92.191986
 21
898.674877
 31
0.0
  0
LINE
  5
8D
330
7B
100
AcDbEntity
  8
0
  6
Continuous
 62
     0
370
    30
100
AcDbLine
 10
105.191986
 20
898.674877
 30
0.0
 11
105.191986
 21
884.697321
 31
0.0
  0
ARC
  5
8E
330
7B
100
AcDbEntity
  8
0
  6
Continuous
 62
     0
370
    30
100
AcDbCircle
 10
88.191957
 20
884.698683
 30
0.0
 40
4.000029629711813
100
AcDbArc
 50
297.117429
 51
359.989103
  0
ARC
  5
8F
330
7B
100
AcDbEntity
  8
0
  6
Continuous
 62
     0
370
    30
100
AcDbCircle
 10
109.19195
 20
884.698753
 30
0.0
 40
4.000009080169269
100
AcDbArc
 50
180.01183
 51
242.852295
  0
LWPOLYLINE
  5
90
330
7B
100
AcDbEntity
  8
0
  6
Continuous
 62
     0
370
    30
100
AcDbPolyline
 90
        4
 70
     0
 43
0.0
 10
107.354996
 20
881.145508
 10
107.347435
 20
881.149414
 10
107.358795
 20
881.143555
 10
107.368401
 20
881.138611
  0
LINE
  5
91
330
7B
100
AcDbEntity
  8
0
  6
Continuous
 62
     0
370
    30
100
AcDbLine
 10
107.30552
 20
881.170375
 30
0.0
 11
107.351017
 21
881.147554
 31
0.0
  0
LWPOLYLINE
  5
92
330
7B
100
AcDbEntity
  8
0
  6
Continuous
 62
     0
370
    30
100
AcDbPolyline
 90
        9
 70
     0
 43
0.0
 10
90.166656
 20
881.213684
 10
90.120773
 20
881.191223
 10
90.083931
 20
881.173035
 10
90.05629
 20
881.159302
 10
90.038086
 20
881.150085
 10
90.02993
 20
881.145935
 10
90.03553
 20
881.148865
 10
90.024658
 20
881.14325
 10
90.015251
 20
881.138367
  0
LINE
  5
93
330
7B
100
AcDbEntity
  8
0
  6
Continuous
 62
     0
370
    30
100
AcDbLine
 10
148.691986
 20
684.674863
 30
0.0
 11
48.691986
 21
684.674863
 31
0.0
  0
LINE
  5
94
330
7B
100
AcDbEntity
  8
0
  6
Continuous
 62
     0
370
    30
100
AcDbLine
 10
148.691986
 20
801.674863
 30
0.0
 11
148.691986
 21
684.674863
 31
0.0
  0
LINE
  5
95
330
7B
100
AcDbEntity
  8
0
  6
Continuous
 62
     0
370
    30
100
AcDbLine
 10
48.691986
 20
801.674863
 30
0.0
 11
148.691986
 21
801.674863
 31
0.0
  0
LINE
  5
96
330
7B
100
AcDbEntity
  8
0
  6
Continuous
 62
     0
370
    30
100
AcDbLine
 10
48.691986
 20
684.674863
 30
0.0
 11
48.691986
 21
801.674863
 31
0.0
  0
LINE
  5
97
330
7B
100
AcDbEntity
  8
0
  6
Continuous
 62
     0
370
    30
100
AcDbLine
 10
98.692282
 20
773.504065
 30
0.0
 11
102.142329
 21
773.504065
 31
0.0
  0
LINE
  5
98
330
7B
100
AcDbEntity
  8
0
  6
Continuous
 62
     0
370
    30
100
AcDbLine
 10
95.242235
 20
773.504065
 30
0.0
 11
98.692282
 21
773.504065
 31
0.0
  0
LWPOLYLINE
  5
99
330
7B
100
AcDbEntity
  8
0
  6
Continuous
 62
     0
370
    30
100
AcDbPolyline
 90
       13
 70
     0
 43
0.0
 10
98.692284
 20
773.004089
 10
99.204483
 20
773.00415
 10
99.711853
 20
773.004211
 10
100.203499
 20
773.004333
 10
100.666679
 20
773.0047
 10
101.093369
 20
773.004883
 10
101.478622
 20
773.004639
 10
101.815765
 20
773.004272
 10
102.099182
 20
773.004089
 10
102.326675
 20
773.004089
 10
102.49559
 20
773.00415
 10
102.602242
 20
773.00415
 10
102.642273
 20
773.004089
  0
LWPOLYLINE
  5
9A
330
7B
100
AcDbEntity
  8
0
  6
Continuous
 62
     0
370
    30
100
AcDbPolyline
 90
       13
 70
     0
 43
0.0
 10
94.742294
 20
773.004089
 10
94.777466
 20
773.00415
 10
94.879753
 20
773.00415
 10
95.044579
 20
773.004089
 10
95.268211
 20
773.004089
 10
95.547905
 20
773.004211
 10
95.881546
 20
773.004578
 10
96.263779
 20
773.004883
 10
96.687828
 20
773.0047
 10
97.148705
 20
773.004395
 10
97.638817
 20
773.004211
 10
98.145531
 20
773.00415
 10
98.692284
 20
773.004089
  0
ARC
  5
9B
330
7B
100
AcDbEntity
  8
0
  6
Continuous
 62
     0
370
    30
100
AcDbCircle
 10
98.692578
 20
743.674065
 30
0.0
 40
21.50000000203893
100
AcDbArc
 50
269.999211
 51
90.000789
  0
ARC
  5
9C
330
7B
100
AcDbEntity
  8
0
  6
Continuous
 62
     0
370
    30
100
AcDbCircle
 10
98.691989
 20
743.674065
 30
0.0
 40
21.50000000199057
100
AcDbArc
 50
89.99922
 51
270.00078
  0
LWPOLYLINE
  5
9D
330
7B
100
AcDbEntity
  8
0
  6
Continuous
 62
     0
370
    30
100
AcDbPolyline
 90
       54
 70
     0
 43
0.0
 10
98.692284
 20
721.674072
 10
99.993164
 20
721.713318
 10
101.291412
 20
721.830322
 10
102.582184
 20
722.023743
 10
103.859489
 20
722.292603
 10
105.117897
 20
722.635742
 10
106.353226
 20
723.052246
 10
107.561462
 20
723.541138
 10
108.738579
 20
724.10144
 10
109.880501
 20
724.731323
 10
110.983093
 20
725.427734
 10
112.042206
 20
726.187683
 10
113.053749
 20
727.00824
 10
114.014191
 20
727.886658
 10
114.920456
 20
728.820618
 10
115.77005
 20
729.80719
 10
116.560707
 20
730.842834
 10
117.289612
 20
731.923828
 10
117.953751
 20
733.046204
 10
118.550125
 20
734.205994
 10
119.076088
 20
735.399109
 10
119.530167
 20
736.621277
 10
119.911148
 20
737.868103
 10
120.217812
 20
739.135376
 10
120.449097
 20
740.418579
 10
120.604195
 20
741.713135
 10
120.682327
 20
743.014587
 10
120.682732
 20
744.318359
 10
120.605431
 20
745.619812
 10
120.451164
 20
746.91449
 10
120.220741
 20
748.197876
 10
119.91497
 20
749.465332
 10
119.53492
 20
750.712463
 10
119.081795
 20
751.934998
 10
118.556801
 20
753.12854
 10
117.961372
 20
754.288757
 10
117.298126
 20
755.411682
 10
116.570015
 20
756.493225
 10
115.780029
 20
757.529419
 10
114.930954
 20
758.516418
 10
114.02507
 20
759.450745
 10
113.064926
 20
760.329529
 10
112.053711
 20
761.150391
 10
110.995026
 20
761.910889
 10
109.89296
 20
762.608093
 10
108.751617
 20
763.239014
 10
107.575119
 20
763.80072
 10
106.3675
 20
764.291199
 10
105.132698
 20
764.709229
 10
103.87468
 20
765.053589
 10
102.597557
 20
765.323181
 10
101.306808
 20
765.517029
 10
100.00853
 20
765.634216
 10
98.692284
 20
765.674072
  0
LWPOLYLINE
  5
9E
330
7B
100
AcDbEntity
  8
0
  6
Continuous
 62
     0
370
    30
100
AcDbPolyline
 90
       54
 70
     0
 43
0.0
 10
98.692284
 20
765.674072
 10
97.391388
 20
765.635193
 10
96.093056
 20
765.51886
 10
94.802177
 20
765.325928
 10
93.524864
 20
765.057251
 10
92.266594
 20
764.713745
 10
91.031494
 20
764.29657
 10
89.823532
 20
763.806946
 10
88.646645
 20
763.246033
 10
87.50486
 20
762.615967
 10
86.402306
 20
761.919495
 10
85.343086
 20
761.159729
 10
84.331291
 20
760.339539
 10
83.370522
 20
759.461487
 10
82.463982
 20
758.527771
 10
81.61422
 20
757.541382
 10
80.823517
 20
756.505737
 10
80.094666
 20
755.424683
 10
79.430634
 20
754.302246
 10
78.834389
 20
753.142395
 10
78.308548
 20
751.949219
 10
77.854568
 20
750.727051
 10
77.473648
 20
749.480164
 10
77.167
 20
748.212952
 10
76.935677
 20
746.929749
 10
76.78051
 20
745.635193
 10
76.702293
 20
744.33374
 10
76.701782
 20
743.029968
 10
76.778992
 20
741.728516
 10
76.933189
 20
740.433777
 10
77.163574
 20
739.150452
 10
77.46936
 20
737.882996
 10
77.849472
 20
736.635864
 10
78.302696
 20
735.413391
 10
78.827812
 20
734.21991
 10
79.423363
 20
733.059692
 10
80.086723
 20
731.936829
 10
80.81488
 20
730.855347
 10
81.604828
 20
729.819092
 10
82.453743
 20
728.83197
 10
83.359352
 20
727.8974
 10
84.319168
 20
727.01825
 10
85.330124
 20
726.197083
 10
86.388702
 20
725.43634
 10
87.490799
 20
724.739136
 10
88.632286
 20
724.108459
 10
89.809006
 20
723.547363
 10
91.016899
 20
723.057617
 10
92.251938
 20
722.640259
 10
93.510094
 20
722.296204
 10
94.787201
 20
722.026489
 10
96.07785
 20
721.832153
 10
97.376045
 20
721.714294
 10
98.692284
 20
721.674072
  0
LWPOLYLINE
  5
9F
330
7B
100
AcDbEntity
  8
0
  6
Continuous
 62
     0
370
    30
100
AcDbPolyline
 90
       14
 70
     0
 43
0.0
 10
93.941635
 20
722.193115
 10
93.977135
 20
722.185303
 10
94.080132
 20
722.162964
 10
94.248474
 20
722.127563
 10
94.481644
 20
722.08075
 10
94.77697
 20
722.025269
 10
95.127869
 20
721.964722
 10
95.527122
 20
721.902893
 10
95.972664
 20
721.842834
 10
96.45974
 20
721.787659
 10
96.978439
 20
721.740906
 10
97.525734
 20
721.705139
 10
98.091202
 20
721.682312
 10
98.692284
 20
721.674072
  0
LWPOLYLINE
  5
A0
330
7B
100
AcDbEntity
  8
0
  6
Continuous
 62
     0
370
    30
100
AcDbPolyline
 90
       14
 70
     0
 43
0.0
 10
98.692284
 20
721.674072
 10
99.263702
 20
721.681519
 10
99.829735
 20
721.703613
 10
100.378311
 20
721.73877
 10
100.898575
 20
721.784973
 10
101.387489
 20
721.839783
 10
101.835396
 20
721.899719
 10
102.237076
 20
721.961548
 10
102.59063
 20
722.022217
 10
102.889053
 20
722.078064
 10
103.125542
 20
722.125366
 10
103.297287
 20
722.161438
 10
103.403687
 20
722.184448
 10
103.442932
 20
722.193115
  0
LWPOLYLINE
  5
A1
330
7B
100
AcDbEntity
  8
0
  6
Continuous
 62
     0
370
    30
100
AcDbPolyline
 90
       10
 70
     0
 43
0.0
 10
102.792503
 20
765.288574
 10
102.762268
 20
765.294312
 10
102.674133
 20
765.31073
 10
102.529846
 20
765.336792
 10
102.329926
 20
765.371277
 10
102.076393
 20
765.41217
 10
101.775475
 20
765.45697
 10
101.433617
 20
765.502747
 10
101.049065
 20
765.547363
 10
100.560707
 20
765.593872
  0
LWPOLYLINE
  5
A2
330
7B
100
AcDbEntity
  8
0
  6
Continuous
 62
     0
370
    30
100
AcDbPolyline
 90
       12
 70
     0
 43
0.0
 10
97.906738
 20
765.659851
 10
97.408882
 20
765.635925
 10
96.927559
 20
765.602356
 10
96.475555
 20
765.561829
 10
96.065346
 20
765.516846
 10
95.70118
 20
765.469849
 10
95.380112
 20
765.423279
 10
95.106941
 20
765.379944
 10
94.889595
 20
765.342957
 10
94.730789
 20
765.314453
 10
94.631195
 20
765.296021
 10
94.591896
 20
765.288574
  0
LINE
  5
A3
330
7B
100
AcDbEntity
  8
0
  6
Continuous
 62
     0
370
    30
100
AcDbLine
 10
94.742282
 20
773.004065
 30
0.0
 11
94.742282
 21
765.316819
 31
0.0
  0
LINE
  5
A4
330
7B
100
AcDbEntity
  8
0
  6
Continuous
 62
     0
370
    30
100
AcDbLine
 10
102.642282
 20
773.004065
 30
0.0
 11
102.642282
 21
765.316823
 31
0.0
  0
LINE
  5
A5
330
7B
100
AcDbEntity
  8
0
  6
Continuous
 62
     0
370
    30
100
AcDbLine
 10
102.142483
 20
773.503882
 30
0.0
 11
102.642231
 21
773.004137
 31
0.0
  0
LINE
  5
A6
330
7B
100
AcDbEntity
  8
0
  6
Continuous
 62
     0
370
    30
100
AcDbLine
 10
94.742332
 20
773.004137
 30
0.0
 11
95.24208
 21
773.503882
 31
0.0
  0
LINE
  5
A7
330
7B
100
AcDbEntity
  8
0
  6
Continuous
 62
     0
370
    30
100
AcDbLine
 10
138.691986
 20
1003.674866
 30
0.0
 11
138.691986
 21
923.674866
 31
0.0
  0
LINE
  5
A8
330
7B
100
AcDbEntity
  8
0
  6
Continuous
 62
     0
370
    30
100
AcDbLine
 10
58.691986
 20
1003.674866
 30
0.0
 11
138.691986
 21
1003.674866
 31
0.0
  0
LINE
  5
A9
330
7B
100
AcDbEntity
  8
0
  6
Continuous
 62
     0
370
    30
100
AcDbLine
 10
58.691986
 20
923.674866
 30
0.0
 11
58.691986
 21
1003.674866
 31
0.0
  0
LINE
  5
AA
330
7B
100
AcDbEntity
  8
0
  6
Continuous
 62
     0
370
    30
100
AcDbLine
 10
138.691986
 20
923.674866
 30
0.0
 11
58.691986
 21
923.674866
 31
0.0
  0
LWPOLYLINE
  5
AB
330
7B
100
AcDbEntity
  8
0
  6
Continuous
 62
     0
370
     0
100
AcDbPolyline
 90
       18
 70
     0
 43
0.0
 10
98.691986
 20
987.174866
 10
98.073257
 20
987.153198
 10
97.460457
 20
987.09021
 10
96.863701
 20
986.988586
 10
96.290817
 20
986.852478
 10
95.745598
 20
986.687561
 10
95.231377
 20
986.499756
 10
94.750168
 20
986.295044
 10
94.303444
 20
986.079651
 10
93.892876
 20
985.859497
 10
93.520432
 20
985.640381
 10
93.188179
 20
985.428223
 10
92.898529
 20
985.230286
 10
92.654045
 20
985.054321
 10
92.457741
 20
984.907288
 10
92.313103
 20
984.795166
 10
92.223488
 20
984.723633
 10
92.191986
 20
984.697937
  0
LWPOLYLINE
  5
AC
330
7B
100
AcDbEntity
  8
0
  6
Continuous
 62
     0
370
     0
100
AcDbPolyline
 90
       18
 70
     0
 43
0.0
 10
105.19194
 20
984.697937
 10
105.16172
 20
984.722595
 10
105.073311
 20
984.793213
 10
104.92981
 20
984.904541
 10
104.734558
 20
985.050903
 10
104.491035
 20
985.226318
 10
104.202286
 20
985.423828
 10
103.870888
 20
985.635803
 10
103.499283
 20
985.854858
 10
103.089523
 20
986.075012
 10
102.6436
 20
986.290649
 10
102.163147
 20
986.495667
 10
101.649597
 20
986.683899
 10
101.10495
 20
986.849243
 10
100.532555
 20
986.985901
 10
99.936234
 20
987.088257
 10
99.323685
 20
987.152161
 10
98.691986
 20
987.174866
  0
LINE
  5
AD
330
7B
100
AcDbEntity
  8
0
  6
Continuous
 62
     0
370
     0
100
AcDbLine
 10
98.691986
 20
998.674877
 30
0.0
 11
92.191986
 21
998.674877
 31
0.0
  0
LINE
  5
AE
330
7B
100
AcDbEntity
  8
0
  6
Continuous
 62
     0
370
     0
100
AcDbLine
 10
105.191986
 20
998.674877
 30
0.0
 11
98.691986
 21
998.674877
 31
0.0
  0
LINE
  5
AF
330
7B
100
AcDbEntity
  8
0
  6
Continuous
 62
     0
370
    30
100
AcDbLine
 10
98.691986
 20
999.174877
 30
0.0
 11
104.692068
 21
999.174877
 31
0.0
  0
LINE
  5
B0
330
7B
100
AcDbEntity
  8
0
  6
Continuous
 62
     0
370
    30
100
AcDbLine
 10
92.691905
 20
999.174877
 30
0.0
 11
98.691986
 21
999.174877
 31
0.0
  0
ARC
  5
B1
330
7B
100
AcDbEntity
  8
0
  6
Continuous
 62
     0
370
    30
100
AcDbCircle
 10
98.691986
 20
963.674877
 30
0.0
 40
19.50000000000001
100
AcDbArc
 50
90.0
 51
270.0
  0
ARC
  5
B2
330
7B
100
AcDbEntity
  8
0
  6
Continuous
 62
     0
370
    30
100
AcDbCircle
 10
98.691986
 20
963.674877
 30
0.0
 40
19.50000000000001
100
AcDbArc
 50
270.0
 51
90.0
  0
ARC
  5
B3
330
7B
100
AcDbEntity
  8
0
  6
Continuous
 62
     0
370
     0
100
AcDbCircle
 10
98.692245
 20
963.674877
 30
0.0
 40
19.00000000175913
100
AcDbArc
 50
269.99922
 51
90.00078
  0
ARC
  5
B4
330
7B
100
AcDbEntity
  8
0
  6
Continuous
 62
     0
370
     0
100
AcDbCircle
 10
98.691728
 20
963.674877
 30
0.0
 40
19.00000000175913
100
AcDbArc
 50
89.99922
 51
270.00078
  0
ARC
  5
B5
330
7B
100
AcDbEntity
  8
0
  6
Continuous
 62
     0
370
    30
100
AcDbCircle
 10
104.691984
 20
998.674874
 30
0.0
 40
0.5000028044128053
100
AcDbArc
 50
0.000321
 51
89.974932
  0
ARC
  5
B6
330
7B
100
AcDbEntity
  8
0
  6
Continuous
 62
     0
370
    30
100
AcDbCircle
 10
92.69199
 20
998.674874
 30
0.0
 40
0.5000034945590035
100
AcDbArc
 50
90.025147
 51
179.9996
  0
LINE
  5
B7
330
7B
100
AcDbEntity
  8
0
  6
Continuous
 62
     0
370
    30
100
AcDbLine
 10
92.191986
 20
984.697321
 30
0.0
 11
92.191986
 21
998.674877
 31
0.0
  0
LINE
  5
B8
330
7B
100
AcDbEntity
  8
0
  6
Continuous
 62
     0
370
    30
100
AcDbLine
 10
105.191986
 20
998.674877
 30
0.0
 11
105.191986
 21
984.697321
 31
0.0
  0
ARC
  5
B9
330
7B
100
AcDbEntity
  8
0
  6
Continuous
 62
     0
370
    30
100
AcDbCircle
 10
88.191957
 20
984.698683
 30
0.0
 40
4.000029629715588
100
AcDbArc
 50
297.117429
 51
359.989103
  0
ARC
  5
BA
330
7B
100
AcDbEntity
  8
0
  6
Continuous
 62
     0
370
    30
100
AcDbCircle
 10
109.19195
 20
984.698753
 30
0.0
 40
4.000009080166085
100
AcDbArc
 50
180.01183
 51
242.852295
  0
LWPOLYLINE
  5
BB
330
7B
100
AcDbEntity
  8
0
  6
Continuous
 62
     0
370
    30
100
AcDbPolyline
 90
        4
 70
     0
 43
0.0
 10
107.354996
 20
981.145508
 10
107.347435
 20
981.149414
 10
107.358795
 20
981.143555
 10
107.368401
 20
981.138611
  0
LINE
  5
BC
330
7B
100
AcDbEntity
  8
0
  6
Continuous
 62
     0
370
    30
100
AcDbLine
 10
107.30552
 20
981.170375
 30
0.0
 11
107.351017
 21
981.147554
 31
0.0
  0
LWPOLYLINE
  5
BD
330
7B
100
AcDbEntity
  8
0
  6
Continuous
 62
     0
370
    30
100
AcDbPolyline
 90
        9
 70
     0
 43
0.0
 10
90.166656
 20
981.213684
 10
90.120773
 20
981.191223
 10
90.083931
 20
981.173035
 10
90.05629
 20
981.159302
 10
90.038086
 20
981.150085
 10
90.02993
 20
981.145935
 10
90.03553
 20
981.148865
 10
90.024658
 20
981.14325
 10
90.015251
 20
981.138367
  0
LINE
  5
BE
330
7B
100
AcDbEntity
  8
0
  6
Continuous
 62
     0
370
    30
100
AcDbLine
 10
138.691986
 20
1103.674866
 30
0.0
 11
138.691986
 21
1023.674866
 31
0.0
  0
LINE
  5
BF
330
7B
100
AcDbEntity
  8
0
  6
Continuous
 62
     0
370
    30
100
AcDbLine
 10
58.691986
 20
1103.674866
 30
0.0
 11
138.691986
 21
1103.674866
 31
0.0
  0
LINE
  5
C0
330
7B
100
AcDbEntity
  8
0
  6
Continuous
 62
     0
370
    30
100
AcDbLine
 10
58.691986
 20
1023.674866
 30
0.0
 11
58.691986
 21
1103.674866
 31
0.0
  0
LINE
  5
C1
330
7B
100
AcDbEntity
  8
0
  6
Continuous
 62
     0
370
    30
100
AcDbLine
 10
138.691986
 20
1023.674866
 30
0.0
 11
58.691986
 21
1023.674866
 31
0.0
  0
LWPOLYLINE
  5
C2
330
7B
100
AcDbEntity
  8
0
  6
Continuous
 62
     0
370
     0
100
AcDbPolyline
 90
       18
 70
     0
 43
0.0
 10
98.691986
 20
1087.174927
 10
98.073257
 20
1087.153198
 10
97.460457
 20
1087.09021
 10
96.863701
 20
1086.988647
 10
96.290817
 20
1086.852539
 10
95.745598
 20
1086.687622
 10
95.231377
 20
1086.499756
 10
94.750168
 20
1086.295044
 10
94.303444
 20
1086.07959
 10
93.892876
 20
1085.859497
 10
93.520432
 20
1085.640381
 10
93.188179
 20
1085.428223
 10
92.898529
 20
1085.230225
 10
92.654045
 20
1085.054321
 10
92.457741
 20
1084.907349
 10
92.313103
 20
1084.795166
 10
92.223488
 20
1084.723633
 10
92.191986
 20
1084.697876
  0
LWPOLYLINE
  5
C3
330
7B
100
AcDbEntity
  8
0
  6
Continuous
 62
     0
370
     0
100
AcDbPolyline
 90
       18
 70
     0
 43
0.0
 10
105.19194
 20
1084.697876
 10
105.16172
 20
1084.722656
 10
105.073311
 20
1084.793213
 10
104.92981
 20
1084.904541
 10
104.734558
 20
1085.050903
 10
104.491035
 20
1085.226318
 10
104.202286
 20
1085.423828
 10
103.870888
 20
1085.635742
 10
103.499283
 20
1085.854858
 10
103.089523
 20
1086.075073
 10
102.6436
 20
1086.290649
 10
102.163147
 20
1086.495728
 10
101.649597
 20
1086.68396
 10
101.10495
 20
1086.849243
 10
100.532555
 20
1086.985962
 10
99.936234
 20
1087.088257
 10
99.323685
 20
1087.152222
 10
98.691986
 20
1087.174927
  0
LINE
  5
C4
330
7B
100
AcDbEntity
  8
0
  6
Continuous
 62
     0
370
     0
100
AcDbLine
 10
98.691986
 20
1098.674877
 30
0.0
 11
92.191986
 21
1098.674877
 31
0.0
  0
LINE
  5
C5
330
7B
100
AcDbEntity
  8
0
  6
Continuous
 62
     0
370
     0
100
AcDbLine
 10
105.191986
 20
1098.674877
 30
0.0
 11
98.691986
 21
1098.674877
 31
0.0
  0
LINE
  5
C6
330
7B
100
AcDbEntity
  8
0
  6
Continuous
 62
     0
370
    30
100
AcDbLine
 10
98.691986
 20
1099.174877
 30
0.0
 11
104.692068
 21
1099.174877
 31
0.0
  0
LINE
  5
C7
330
7B
100
AcDbEntity
  8
0
  6
Continuous
 62
     0
370
    30
100
AcDbLine
 10
92.691905
 20
1099.174877
 30
0.0
 11
98.691986
 21
1099.174877
 31
0.0
  0
ARC
  5
C8
330
7B
100
AcDbEntity
  8
0
  6
Continuous
 62
     0
370
    30
100
AcDbCircle
 10
98.691986
 20
1063.674877
 30
0.0
 40
19.49999999999997
100
AcDbArc
 50
90.0
 51
270.0
  0
ARC
  5
C9
330
7B
100
AcDbEntity
  8
0
  6
Continuous
 62
     0
370
    30
100
AcDbCircle
 10
98.691986
 20
1063.674877
 30
0.0
 40
19.49999999999997
100
AcDbArc
 50
270.0
 51
90.0
  0
ARC
  5
CA
330
7B
100
AcDbEntity
  8
0
  6
Continuous
 62
     0
370
     0
100
AcDbCircle
 10
98.692245
 20
1063.674877
 30
0.0
 40
19.00000000175908
100
AcDbArc
 50
269.99922
 51
90.00078
  0
ARC
  5
CB
330
7B
100
AcDbEntity
  8
0
  6
Continuous
 62
     0
370
     0
100
AcDbCircle
 10
98.691728
 20
1063.674877
 30
0.0
 40
19.00000000175906
100
AcDbArc
 50
89.99922
 51
270.00078
  0
ARC
  5
CC
330
7B
100
AcDbEntity
  8
0
  6
Continuous
 62
     0
370
    30
100
AcDbCircle
 10
104.691984
 20
1098.674874
 30
0.0
 40
0.5000028044104028
100
AcDbArc
 50
0.000321
 51
89.974932
  0
ARC
  5
CD
330
7B
100
AcDbEntity
  8
0
  6
Continuous
 62
     0
370
    30
100
AcDbCircle
 10
92.69199
 20
1098.674874
 30
0.0
 40
0.5000034945542561
100
AcDbArc
 50
90.025147
 51
179.9996
  0
LINE
  5
CE
330
7B
100
AcDbEntity
  8
0
  6
Continuous
 62
     0
370
    30
100
AcDbLine
 10
92.191986
 20
1084.697321
 30
0.0
 11
92.191986
 21
1098.674877
 31
0.0
  0
LINE
  5
CF
330
7B
100
AcDbEntity
  8
0
  6
Continuous
 62
     0
370
    30
100
AcDbLine
 10
105.191986
 20
1098.674877
 30
0.0
 11
105.191986
 21
1084.697321
 31
0.0
  0
ARC
  5
D0
330
7B
100
AcDbEntity
  8
0
  6
Continuous
 62
     0
370
    30
100
AcDbCircle
 10
88.191957
 20
1084.698683
 30
0.0
 40
4.000029629710133
100
AcDbArc
 50
297.117429
 51
359.989103
  0
ARC
  5
D1
330
7B
100
AcDbEntity
  8
0
  6
Continuous
 62
     0
370
    30
100
AcDbCircle
 10
109.19195
 20
1084.698753
 30
0.0
 40
4.000009080163077
100
AcDbArc
 50
180.01183
 51
242.852295
  0
LWPOLYLINE
  5
D2
330
7B
100
AcDbEntity
  8
0
  6
Continuous
 62
     0
370
    30
100
AcDbPolyline
 90
        4
 70
     0
 43
0.0
 10
107.354996
 20
1081.145508
 10
107.347435
 20
1081.149414
 10
107.358795
 20
1081.143555
 10
107.368401
 20
1081.13855
  0
LINE
  5
D3
330
7B
100
AcDbEntity
  8
0
  6
Continuous
 62
     0
370
    30
100
AcDbLine
 10
107.30552
 20
1081.170375
 30
0.0
 11
107.351017
 21
1081.147554
 31
0.0
  0
LWPOLYLINE
  5
D4
330
7B
100
AcDbEntity
  8
0
  6
Continuous
 62
     0
370
    30
100
AcDbPolyline
 90
        9
 70
     0
 43
0.0
 10
90.166656
 20
1081.213623
 10
90.120773
 20
1081.191284
 10
90.083931
 20
1081.173096
 10
90.05629
 20
1081.159302
 10
90.038086
 20
1081.150146
 10
90.02993
 20
1081.145996
 10
90.03553
 20
1081.148804
 10
90.024658
 20
1081.143188
 10
90.015251
 20
1081.138306
  0
LINE
  5
D5
330
7B
100
AcDbEntity
  8
0
  6
Continuous
 62
     0
370
    30
100
AcDbLine
 10
138.691986
 20
1203.674866
 30
0.0
 11
138.691986
 21
1123.674866
 31
0.0
  0
LINE
  5
D6
330
7B
100
AcDbEntity
  8
0
  6
Continuous
 62
     0
370
    30
100
AcDbLine
 10
58.691986
 20
1203.674866
 30
0.0
 11
138.691986
 21
1203.674866
 31
0.0
  0
LINE
  5
D7
330
7B
100
AcDbEntity
  8
0
  6
Continuous
 62
     0
370
    30
100
AcDbLine
 10
58.691986
 20
1123.674866
 30
0.0
 11
58.691986
 21
1203.674866
 31
0.0
  0
LINE
  5
D8
330
7B
100
AcDbEntity
  8
0
  6
Continuous
 62
     0
370
    30
100
AcDbLine
 10
138.691986
 20
1123.674866
 30
0.0
 11
58.691986
 21
1123.674866
 31
0.0
  0
LWPOLYLINE
  5
D9
330
7B
100
AcDbEntity
  8
0
  6
Continuous
 62
     0
370
     0
100
AcDbPolyline
 90
       18
 70
     0
 43
0.0
 10
98.691986
 20
1187.174927
 10
98.073257
 20
1187.153198
 10
97.460457
 20
1187.09021
 10
96.863701
 20
1186.988647
 10
96.290817
 20
1186.852539
 10
95.745598
 20
1186.687622
 10
95.231377
 20
1186.499756
 10
94.750168
 20
1186.295044
 10
94.303444
 20
1186.07959
 10
93.892876
 20
1185.859497
 10
93.520432
 20
1185.640381
 10
93.188179
 20
1185.428223
 10
92.898529
 20
1185.230225
 10
92.654045
 20
1185.054321
 10
92.457741
 20
1184.907349
 10
92.313103
 20
1184.795166
 10
92.223488
 20
1184.723633
 10
92.191986
 20
1184.697876
  0
LWPOLYLINE
  5
DA
330
7B
100
AcDbEntity
  8
0
  6
Continuous
 62
     0
370
     0
100
AcDbPolyline
 90
       18
 70
     0
 43
0.0
 10
105.19194
 20
1184.697876
 10
105.16172
 20
1184.722656
 10
105.073311
 20
1184.793213
 10
104.92981
 20
1184.904541
 10
104.734558
 20
1185.050903
 10
104.491035
 20
1185.226318
 10
104.202286
 20
1185.423828
 10
103.870888
 20
1185.635742
 10
103.499283
 20
1185.854858
 10
103.089523
 20
1186.075073
 10
102.6436
 20
1186.290649
 10
102.163147
 20
1186.495728
 10
101.649597
 20
1186.68396
 10
101.10495
 20
1186.849243
 10
100.532555
 20
1186.985962
 10
99.936234
 20
1187.088257
 10
99.323685
 20
1187.152222
 10
98.691986
 20
1187.174927
  0
LINE
  5
DB
330
7B
100
AcDbEntity
  8
0
  6
Continuous
 62
     0
370
     0
100
AcDbLine
 10
98.691986
 20
1198.674877
 30
0.0
 11
92.191986
 21
1198.674877
 31
0.0
  0
LINE
  5
DC
330
7B
100
AcDbEntity
  8
0
  6
Continuous
 62
     0
370
     0
100
AcDbLine
 10
105.191986
 20
1198.674877
 30
0.0
 11
98.691986
 21
1198.674877
 31
0.0
  0
LINE
  5
DD
330
7B
100
AcDbEntity
  8
0
  6
Continuous
 62
     0
370
    30
100
AcDbLine
 10
98.691986
 20
1199.174877
 30
0.0
 11
104.692068
 21
1199.174877
 31
0.0
  0
LINE
  5
DE
330
7B
100
AcDbEntity
  8
0
  6
Continuous
 62
     0
370
    30
100
AcDbLine
 10
92.691905
 20
1199.174877
 30
0.0
 11
98.691986
 21
1199.174877
 31
0.0
  0
ARC
  5
DF
330
7B
100
AcDbEntity
  8
0
  6
Continuous
 62
     0
370
    30
100
AcDbCircle
 10
98.691986
 20
1163.674877
 30
0.0
 40
19.49999999999997
100
AcDbArc
 50
90.0
 51
270.0
  0
ARC
  5
E0
330
7B
100
AcDbEntity
  8
0
  6
Continuous
 62
     0
370
    30
100
AcDbCircle
 10
98.691986
 20
1163.674877
 30
0.0
 40
19.49999999999997
100
AcDbArc
 50
270.0
 51
90.0
  0
ARC
  5
E1
330
7B
100
AcDbEntity
  8
0
  6
Continuous
 62
     0
370
     0
100
AcDbCircle
 10
98.692245
 20
1163.674877
 30
0.0
 40
19.00000000175908
100
AcDbArc
 50
269.99922
 51
90.00078
  0
ARC
  5
E2
330
7B
100
AcDbEntity
  8
0
  6
Continuous
 62
     0
370
     0
100
AcDbCircle
 10
98.691728
 20
1163.674877
 30
0.0
 40
19.00000000175908
100
AcDbArc
 50
89.99922
 51
270.00078
  0
ARC
  5
E3
330
7B
100
AcDbEntity
  8
0
  6
Continuous
 62
     0
370
    30
100
AcDbCircle
 10
104.691984
 20
1198.674874
 30
0.0
 40
0.500002804370435
100
AcDbArc
 50
0.000321
 51
89.974932
  0
ARC
  5
E4
330
7B
100
AcDbEntity
  8
0
  6
Continuous
 62
     0
370
    30
100
AcDbCircle
 10
92.69199
 20
1198.674874
 30
0.0
 40
0.5000034945726236
100
AcDbArc
 50
90.025147
 51
179.9996
  0
LINE
  5
E5
330
7B
100
AcDbEntity
  8
0
  6
Continuous
 62
     0
370
    30
100
AcDbLine
 10
92.191986
 20
1184.697321
 30
0.0
 11
92.191986
 21
1198.674877
 31
0.0
  0
LINE
  5
E6
330
7B
100
AcDbEntity
  8
0
  6
Continuous
 62
     0
370
    30
100
AcDbLine
 10
105.191986
 20
1198.674877
 30
0.0
 11
105.191986
 21
1184.697321
 31
0.0
  0
ARC
  5
E7
330
7B
100
AcDbEntity
  8
0
  6
Continuous
 62
     0
370
    30
100
AcDbCircle
 10
88.191957
 20
1184.698683
 30
0.0
 40
4.000029629705223
100
AcDbArc
 50
297.117429
 51
359.989103
  0
ARC
  5
E8
330
7B
100
AcDbEntity
  8
0
  6
Continuous
 62
     0
370
    30
100
AcDbCircle
 10
109.19195
 20
1184.698753
 30
0.0
 40
4.000009080182338
100
AcDbArc
 50
180.01183
 51
242.852295
  0
LWPOLYLINE
  5
E9
330
7B
100
AcDbEntity
  8
0
  6
Continuous
 62
     0
370
    30
100
AcDbPolyline
 90
        4
 70
     0
 43
0.0
 10
107.354996
 20
1181.145508
 10
107.347435
 20
1181.149414
 10
107.358795
 20
1181.143555
 10
107.368401
 20
1181.13855
  0
LINE
  5
EA
330
7B
100
AcDbEntity
  8
0
  6
Continuous
 62
     0
370
    30
100
AcDbLine
 10
107.30552
 20
1181.170375
 30
0.0
 11
107.351017
 21
1181.147554
 31
0.0
  0
LWPOLYLINE
  5
EB
330
7B
100
AcDbEntity
  8
0
  6
Continuous
 62
     0
370
    30
100
AcDbPolyline
 90
        9
 70
     0
 43
0.0
 10
90.166656
 20
1181.213623
 10
90.120773
 20
1181.191284
 10
90.083931
 20
1181.173096
 10
90.05629
 20
1181.159302
 10
90.038086
 20
1181.150146
 10
90.02993
 20
1181.145996
 10
90.03553
 20
1181.148804
 10
90.024658
 20
1181.143188
 10
90.015251
 20
1181.138306
  0
ENDBLK
  5
ED
330
7B
100
AcDbEntity
  8
0
100
AcDbBlockEnd
  0
BLOCK
  5
120
330
EF
100
AcDbEntity
  8
0
100
AcDbBlockBegin
  2
b
 70
     0
 10
20.711779
 20
516.963837
 30
0.0
  3
b
  1

  0
LINE
  5
F0
330
EF
100
AcDbEntity
  8
0
  6
Continuous
 62
     0
370
    30
100
AcDbLine
 10
148.691986
 20
564.194237
 30
0.0
 11
148.691986
 21
549.694237
 31
0.0
  0
LINE
  5
F1
330
EF
100
AcDbEntity
  8
0
  6
Continuous
 62
     0
370
    30
100
AcDbLine
 10
58.691986
 20
564.194237
 30
0.0
 11
48.691986
 21
564.194237
 31
0.0
  0
LINE
  5
F2
330
EF
100
AcDbEntity
  8
0
  6
Continuous
 62
     0
370
    30
100
AcDbLine
 10
148.691986
 20
564.194237
 30
0.0
 11
138.691986
 21
564.194237
 31
0.0
  0
LINE
  5
F3
330
EF
100
AcDbEntity
  8
0
  6
Continuous
 62
     0
370
    30
100
AcDbLine
 10
48.691986
 20
564.194237
 30
0.0
 11
48.691986
 21
549.694237
 31
0.0
  0
LINE
  5
F4
330
EF
100
AcDbEntity
  8
0
  6
Continuous
 62
     0
370
    30
100
AcDbLine
 10
138.691986
 20
549.694237
 30
0.0
 11
148.691986
 21
549.694237
 31
0.0
  0
LINE
  5
F5
330
EF
100
AcDbEntity
  8
0
  6
Continuous
 62
     0
370
    30
100
AcDbLine
 10
48.691986
 20
549.694237
 30
0.0
 11
58.691986
 21
549.694237
 31
0.0
  0
LINE
  5
F6
330
EF
100
AcDbEntity
  8
0
  6
Continuous
 62
     0
370
    30
100
AcDbLine
 10
117.691986
 20
549.194241
 30
0.0
 11
117.691986
 21
548.344244
 31
0.0
  0
LINE
  5
F7
330
EF
100
AcDbEntity
  8
0
  6
Continuous
 62
     0
370
    30
100
AcDbLine
 10
79.691986
 20
549.194241
 30
0.0
 11
79.691986
 21
548.344244
 31
0.0
  0
ARC
  5
F8
330
EF
100
AcDbEntity
  8
0
  6
Continuous
 62
     0
370
    30
100
AcDbCircle
 10
98.692312
 20
505.774196
 30
0.0
 40
3.449939342428887
100
AcDbArc
 50
269.999503
 51
9.510819
  0
ARC
  5
F9
330
EF
100
AcDbEntity
  8
0
  6
Continuous
 62
     0
370
    30
100
AcDbCircle
 10
98.692252
 20
505.774196
 30
0.0
 40
3.449939342429464
100
AcDbArc
 50
170.489181
 51
270.000497
  0
LWPOLYLINE
  5
FA
330
EF
100
AcDbEntity
  8
0
  6
Continuous
 62
     0
370
    30
100
AcDbPolyline
 90
       14
 70
     0
 43
0.0
 10
98.692284
 20
501.824249
 10
99.208679
 20
501.8591
 10
99.720085
 20
501.962067
 10
100.215302
 20
502.13028
 10
100.681297
 20
502.360382
 10
101.110031
 20
502.649414
 10
101.496407
 20
502.993866
 10
101.833534
 20
503.387054
 10
102.11586
 20
503.821014
 10
102.341202
 20
504.28714
 10
102.506744
 20
504.777679
 10
102.608658
 20
505.285461
 10
102.642235
 20
505.802063
 10
102.6007
 20
506.344238
  0
LWPOLYLINE
  5
FB
330
EF
100
AcDbEntity
  8
0
  6
Continuous
 62
     0
370
    30
100
AcDbPolyline
 90
       14
 70
     0
 43
0.0
 10
94.783859
 20
506.344238
 10
94.742531
 20
505.828094
 10
94.772545
 20
505.311279
 10
94.871147
 20
504.802856
 10
95.033585
 20
504.311279
 10
95.256004
 20
503.84375
 10
95.535515
 20
503.407959
 10
95.86998
 20
503.012512
 10
96.254059
 20
502.665466
 10
96.680794
 20
502.373535
 10
97.14505
 20
502.140381
 10
97.639091
 20
501.968994
 10
98.150009
 20
501.862671
 10
98.692284
 20
501.824249
  0
LINE
  5
FC
330
EF
100
AcDbEntity
  8
0
  6
Continuous
 62
     0
370
    30
100
AcDbLine
 10
120.192578
 20
496.774258
 30
0.0
 11
98.692282
 21
496.774257
 31
0.0
  0
LINE
  5
FD
330
EF
100
AcDbEntity
  8
0
  6
Continuous
 62
     0
370
    30
100
AcDbLine
 10
98.692282
 20
496.774257
 30
0.0
 11
77.191989
 21
496.774258
 31
0.0
  0
LINE
  5
FE
330
EF
100
AcDbEntity
  8
0
  6
Continuous
 62
     0
370
    30
100
AcDbLine
 10
120.692281
 20
497.274257
 30
0.0
 11
98.692282
 21
497.274257
 31
0.0
  0
LINE
  5
FF
330
EF
100
AcDbEntity
  8
0
  6
Continuous
 62
     0
370
    30
100
AcDbLine
 10
98.692282
 20
497.274257
 30
0.0
 11
76.692282
 21
497.274257
 31
0.0
  0
LINE
  5
100
330
EF
100
AcDbEntity
  8
0
  6
Continuous
 62
     0
370
    30
100
AcDbLine
 10
120.692282
 20
546.774258
 30
0.0
 11
118.191986
 21
546.774257
 31
0.0
  0
LINE
  5
101
330
EF
100
AcDbEntity
  8
0
  6
Continuous
 62
     0
370
    30
100
AcDbLine
 10
79.191986
 20
546.774257
 30
0.0
 11
76.692282
 21
546.774258
 31
0.0
  0
LWPOLYLINE
  5
102
330
EF
100
AcDbEntity
  8
0
  6
Continuous
 62
     0
370
     0
100
AcDbPolyline
 90
       14
 70
     0
 43
0.0
 10
102.751808
 20
506.344238
 10
102.792343
 20
505.809845
 10
102.761215
 20
505.274841
 10
102.661385
 20
504.748444
 10
102.494934
 20
504.239807
 10
102.262779
 20
503.758148
 10
101.968536
 20
503.312134
 10
101.621658
 20
502.907043
 10
101.225983
 20
502.548523
 10
100.778549
 20
502.243591
 10
100.288162
 20
501.998474
 10
99.769997
 20
501.819061
 10
99.238922
 20
501.710968
 10
98.692314
 20
501.674652
  0
LWPOLYLINE
  5
103
330
EF
100
AcDbEntity
  8
0
  6
Continuous
 62
     0
370
     0
100
AcDbPolyline
 90
       14
 70
     0
 43
0.0
 10
98.692314
 20
501.674652
 10
98.157181
 20
501.709473
 10
97.625938
 20
501.815979
 10
97.107315
 20
501.993896
 10
96.616158
 20
502.23764
 10
96.167656
 20
502.541382
 10
95.770897
 20
502.898865
 10
95.422943
 20
503.303009
 10
95.127419
 20
503.748169
 10
94.893959
 20
504.229218
 10
94.726151
 20
504.737396
 10
94.624794
 20
505.263489
 10
94.591972
 20
505.798431
 10
94.63266
 20
506.344238
  0
ARC
  5
104
330
EF
100
AcDbEntity
  8
0
  6
Continuous
 62
     0
370
    30
100
AcDbCircle
 10
98.687205
 20
505.775668
 30
0.0
 40
3.954583865217811
100
AcDbArc
 50
311.35748
 51
358.273555
  0
ARC
  5
105
330
EF
100
AcDbEntity
  8
0
  6
Continuous
 62
     0
370
    30
100
AcDbCircle
 10
98.69517
 20
505.774883
 30
0.0
 40
3.95254839638723
100
AcDbArc
 50
171.800094
 51
228.658442
  0
LINE
  5
106
330
EF
100
AcDbEntity
  8
0
  6
Continuous
 62
     0
370
    30
100
AcDbLine
 10
120.692282
 20
546.774258
 30
0.0
 11
120.692282
 21
497.274257
 31
0.0
  0
LINE
  5
107
330
EF
100
AcDbEntity
  8
0
  6
Continuous
 62
     0
370
    30
100
AcDbLine
 10
76.692282
 20
546.774258
 30
0.0
 11
76.692282
 21
497.274257
 31
0.0
  0
LINE
  5
108
330
EF
100
AcDbEntity
  8
0
  6
Continuous
 62
     0
370
    30
100
AcDbLine
 10
120.19267
 20
496.774646
 30
0.0
 11
120.692282
 21
497.274258
 31
0.0
  0
LINE
  5
109
330
EF
100
AcDbEntity
  8
0
  6
Continuous
 62
     0
370
    30
100
AcDbLine
 10
76.692282
 20
497.274258
 30
0.0
 11
77.191895
 21
496.774645
 31
0.0
  0
LINE
  5
10A
330
EF
100
AcDbEntity
  8
0
  6
Continuous
 62
     0
370
    30
100
AcDbLine
 10
138.691986
 20
564.19422
 30
0.0
 11
138.691986
 21
549.19422
 31
0.0
  0
LINE
  5
10B
330
EF
100
AcDbEntity
  8
0
  6
Continuous
 62
     0
370
    30
100
AcDbLine
 10
138.691986
 20
564.19422
 30
0.0
 11
58.691986
 21
564.19422
 31
0.0
  0
LINE
  5
10C
330
EF
100
AcDbEntity
  8
0
  6
Continuous
 62
     0
370
    30
100
AcDbLine
 10
58.691986
 20
564.19422
 30
0.0
 11
58.691986
 21
549.19422
 31
0.0
  0
LINE
  5
10D
330
EF
100
AcDbEntity
  8
0
  6
Continuous
 62
     0
370
    30
100
AcDbLine
 10
58.691986
 20
549.19422
 30
0.0
 11
138.691986
 21
549.19422
 31
0.0
  0
LINE
  5
10E
330
EF
100
AcDbEntity
  8
0
  6
Continuous
 62
     0
370
    30
100
AcDbLine
 10
106.691986
 20
549.194222
 30
0.0
 11
106.691986
 21
548.344225
 31
0.0
  0
LWPOLYLINE
  5
10F
330
EF
100
AcDbEntity
  8
0
  6
Continuous
 62
     0
370
     0
100
AcDbPolyline
 90
       41
 70
     0
 43
0.0
 10
98.691986
 20
510.844238
 10
99.453949
 20
510.88504
 10
100.209526
 20
511.005585
 10
100.947441
 20
511.202484
 10
101.657494
 20
511.471497
 10
102.334839
 20
511.806702
 10
102.97551
 20
512.201843
 10
103.5765
 20
512.651001
 10
104.136292
 20
513.148376
 10
104.653542
 20
513.688477
 10
105.127312
 20
514.266479
 10
105.557083
 20
514.878601
 10
105.942352
 20
515.520996
 10
106.282883
 20
516.190125
 10
106.578575
 20
516.88269
 10
106.829323
 20
517.595276
 10
107.03508
 20
518.324646
 10
107.19577
 20
519.067444
 10
107.311287
 20
519.820496
 10
107.381104
 20
520.580383
 10
107.404587
 20
521.343689
 10
107.381325
 20
522.106995
 10
107.311737
 20
522.866943
 10
107.196457
 20
523.620056
 10
107.035965
 20
524.362915
 10
106.830315
 20
525.092285
 10
106.579498
 20
525.804932
 10
106.283577
 20
526.497375
 10
105.942841
 20
527.166504
 10
105.557571
 20
527.808838
 10
105.12812
 20
528.421021
 10
104.654877
 20
528.999329
 10
104.138252
 20
529.5401
 10
103.578964
 20
530.038147
 10
102.977966
 20
530.487122
 10
102.336456
 20
530.880676
 10
101.657867
 20
531.213562
 10
100.94693
 20
531.481323
 10
100.209091
 20
531.679321
 10
99.454018
 20
531.802124
 10
98.691994
 20
531.844238
  0
LWPOLYLINE
  5
110
330
EF
100
AcDbEntity
  8
0
  6
Continuous
 62
     0
370
     0
100
AcDbPolyline
 90
       41
 70
     0
 43
0.0
 10
98.691994
 20
531.844238
 10
97.93013
 20
531.802307
 10
97.175018
 20
531.679626
 10
96.437126
 20
531.481689
 10
95.726166
 20
531.213928
 10
95.047569
 20
530.880981
 10
94.406097
 20
530.487427
 10
93.805168
 20
530.038391
 10
93.245941
 20
529.540283
 10
92.729347
 20
528.999512
 10
92.256081
 20
528.421204
 10
91.826576
 20
527.809021
 10
91.441254
 20
527.166748
 10
91.100471
 20
526.49762
 10
90.80452
 20
525.805115
 10
90.55368
 20
525.092529
 10
90.348015
 20
524.363159
 10
90.187508
 20
523.620239
 10
90.072197
 20
522.867126
 10
90.002586
 20
522.107239
 10
89.979301
 20
521.343933
 10
90.002792
 20
520.580566
 10
90.072617
 20
519.820679
 10
90.188148
 20
519.067627
 10
90.348846
 20
518.324829
 10
90.554596
 20
517.595459
 10
90.805344
 20
516.882874
 10
91.101021
 20
516.190308
 10
91.441536
 20
515.521118
 10
91.826805
 20
514.878662
 10
92.256569
 20
514.266541
 10
92.730347
 20
513.688538
 10
93.247604
 20
513.148438
 10
93.807404
 20
512.651062
 10
94.408379
 20
512.201904
 10
95.049026
 20
511.806671
 10
95.726341
 20
511.471405
 10
96.436371
 20
511.202332
 10
97.174301
 20
511.005463
 10
97.929901
 20
510.884949
 10
98.691986
 20
510.844238
  0
ARC
  5
111
330
EF
100
AcDbEntity
  8
0
  6
Continuous
 62
     0
370
    30
100
AcDbCircle
 10
98.691986
 20
521.344224
 30
0.0
 40
6.5
100
AcDbArc
 50
90.0
 51
270.0
  0
ARC
  5
112
330
EF
100
AcDbEntity
  8
0
  6
Continuous
 62
     0
370
    30
100
AcDbCircle
 10
98.691986
 20
521.344224
 30
0.0
 40
6.5
100
AcDbArc
 50
270.0
 51
90.0
  0
ARC
  5
113
330
EF
100
AcDbEntity
  8
0
  6
Continuous
 62
     0
370
     0
100
AcDbCircle
 10
98.692068
 20
521.344224
 30
0.0
 40
6.000000000555501
100
AcDbArc
 50
269.99922
 51
90.00078
  0
ARC
  5
114
330
EF
100
AcDbEntity
  8
0
  6
Continuous
 62
     0
370
     0
100
AcDbCircle
 10
98.691905
 20
521.344224
 30
0.0
 40
6.000000000555509
100
AcDbArc
 50
89.99922
 51
270.00078
  0
LINE
  5
115
330
EF
100
AcDbEntity
  8
0
  6
Continuous
 62
     0
370
     0
100
AcDbLine
 10
79.191986
 20
506.844225
 30
0.0
 11
98.691986
 21
506.844224
 31
0.0
  0
LINE
  5
116
330
EF
100
AcDbEntity
  8
0
  6
Continuous
 62
     0
370
     0
100
AcDbLine
 10
98.691986
 20
506.844224
 30
0.0
 11
118.191986
 21
506.844225
 31
0.0
  0
LINE
  5
117
330
EF
100
AcDbEntity
  8
0
  6
Continuous
 62
     0
370
    30
100
AcDbLine
 10
118.191986
 20
548.344225
 30
0.0
 11
98.691986
 21
548.344224
 31
0.0
  0
LINE
  5
118
330
EF
100
AcDbEntity
  8
0
  6
Continuous
 62
     0
370
    30
100
AcDbLine
 10
98.691986
 20
548.344224
 30
0.0
 11
79.191986
 21
548.344225
 31
0.0
  0
LINE
  5
119
330
EF
100
AcDbEntity
  8
0
  6
Continuous
 62
     0
370
    30
100
AcDbLine
 10
117.692245
 20
506.344225
 30
0.0
 11
98.691986
 21
506.344225
 31
0.0
  0
LINE
  5
11A
330
EF
100
AcDbEntity
  8
0
  6
Continuous
 62
     0
370
    30
100
AcDbLine
 10
98.691986
 20
506.344225
 30
0.0
 11
79.691728
 21
506.344225
 31
0.0
  0
ARC
  5
11B
330
EF
100
AcDbEntity
  8
0
  6
Continuous
 62
     0
370
    30
100
AcDbCircle
 10
79.691989
 20
506.844228
 30
0.0
 40
0.5000029309082601
100
AcDbArc
 50
180.000337
 51
269.921302
  0
ARC
  5
11C
330
EF
100
AcDbEntity
  8
0
  6
Continuous
 62
     0
370
    30
100
AcDbCircle
 10
117.691984
 20
506.844228
 30
0.0
 40
0.5000029309051203
100
AcDbArc
 50
270.078698
 51
359.999663
  0
LINE
  5
11D
330
EF
100
AcDbEntity
  8
0
  6
Continuous
 62
     0
370
    30
100
AcDbLine
 10
79.191986
 20
506.844225
 30
0.0
 11
79.191986
 21
548.344226
 31
0.0
  0
LINE
  5
11E
330
EF
100
AcDbEntity
  8
0
  6
Continuous
 62
     0
370
    30
100
AcDbLine
 10
118.191986
 20
506.844225
 30
0.0
 11
118.191986
 21
548.344226
 31
0.0
  0
LINE
  5
11F
330
EF
100
AcDbEntity
  8
0
  6
Continuous
 62
     0
370
    30
100
AcDbLine
 10
90.691986
 20
549.194222
 30
0.0
 11
90.691986
 21
548.344225
 31
0.0
  0
ENDBLK
  5
121
330
EF
100
AcDbEntity
  8
0
100
AcDbBlockEnd
  0
BLOCK
  5
1AA
330
123
100
AcDbEntity
  8
0
100
AcDbBlockBegin
  2
c
 70
     0
 10
47.877184
 20
107.891479
 30
0.0
  3
c
  1

  0
LINE
  5
124
330
123
100
AcDbEntity
  8
0
  6
Continuous
 62
     0
370
    30
100
AcDbLine
 10
272.440727
 20
903.674805
 30
0.0
 11
287.440727
 21
903.674805
 31
0.0
  0
LINE
  5
125
330
123
100
AcDbEntity
  8
0
  6
Continuous
 62
     0
370
    30
100
AcDbLine
 10
272.440727
 20
903.674805
 30
0.0
 11
272.440727
 21
823.674805
 31
0.0
  0
LINE
  5
126
330
123
100
AcDbEntity
  8
0
  6
Continuous
 62
     0
370
    30
100
AcDbLine
 10
272.440727
 20
823.674805
 30
0.0
 11
287.440727
 21
823.674805
 31
0.0
  0
LINE
  5
127
330
123
100
AcDbEntity
  8
0
  6
Continuous
 62
     0
370
    30
100
AcDbLine
 10
287.440727
 20
823.674805
 30
0.0
 11
287.440727
 21
903.674805
 31
0.0
  0
ARC
  5
128
330
123
100
AcDbEntity
  8
0
  6
Continuous
 62
     0
370
    30
100
AcDbCircle
 10
325.790722
 20
887.174816
 30
0.0
 40
3.999999999999268
100
AcDbArc
 50
180.0
 51
270.0
  0
LWPOLYLINE
  5
129
330
123
100
AcDbEntity
  8
0
  6
Continuous
 62
     0
370
     0
100
AcDbPolyline
 90
       34
 70
     0
 43
0.0
 10
321.79071
 20
887.174805
 10
321.759003
 20
887.151794
 10
321.665436
 20
887.084961
 10
321.51239
 20
886.977295
 10
321.303192
 20
886.833496
 10
321.042206
 20
886.659912
 10
320.733612
 20
886.462891
 10
320.38092
 20
886.249207
 10
319.987457
 20
886.025513
 10
319.555481
 20
885.798279
 10
319.086304
 20
885.573853
 10
318.581329
 20
885.359009
 10
318.042389
 20
885.162109
 10
317.47168
 20
884.991516
 10
316.873505
 20
884.854187
 10
316.253113
 20
884.756653
 10
315.618347
 20
884.704834
 10
314.978668
 20
884.704224
 10
314.343628
 20
884.754761
 10
313.722809
 20
884.851257
 10
313.124054
 20
884.987732
 10
312.552765
 20
885.157654
 10
312.013214
 20
885.353882
 10
311.507477
 20
885.568237
 10
311.03717
 20
885.792419
 10
310.60376
 20
886.019653
 10
310.208588
 20
886.243958
 10
309.85434
 20
886.458496
 10
309.545013
 20
886.655762
 10
309.284485
 20
886.828674
 10
309.075653
 20
886.971924
 10
308.921234
 20
887.080627
 10
308.824829
 20
887.149841
 10
308.79071
 20
887.174805
  0
LWPOLYLINE
  5
12A
330
123
100
AcDbEntity
  8
0
  6
Continuous
 62
     0
370
     0
100
AcDbPolyline
 90
       43
 70
     0
 43
0.0
 10
304.790741
 20
883.174805
 10
304.828735
 20
883.160522
 10
304.940155
 20
883.119324
 10
305.120239
 20
883.053833
 10
305.364258
 20
882.966736
 10
305.668121
 20
882.860901
 10
306.027954
 20
882.739014
 10
306.439545
 20
882.604065
 10
306.897583
 20
882.459778
 10
307.396484
 20
882.309998
 10
307.931091
 20
882.158447
 10
308.497955
 20
882.008179
 10
309.093903
 20
881.862
 10
309.715881
 20
881.722656
 10
310.360962
 20
881.592896
 10
311.026276
 20
881.475281
 10
311.708984
 20
881.372192
 10
312.406189
 20
881.284973
 10
313.115112
 20
881.214966
 10
313.832855
 20
881.163269
 10
314.556519
 20
881.131287
 10
315.283173
 20
881.120117
 10
316.009827
 20
881.130737
 10
316.733551
 20
881.162292
 10
317.451447
 20
881.213623
 10
318.160522
 20
881.283386
 10
318.857971
 20
881.370422
 10
319.540985
 20
881.473389
 10
320.206757
 20
881.590881
 10
320.852386
 20
881.720581
 10
321.475006
 20
881.859741
 10
322.071594
 20
882.005615
 10
322.639008
 20
882.155457
 10
323.17395
 20
882.306458
 10
323.672913
 20
882.455627
 10
324.131378
 20
882.59967
 10
324.544495
 20
882.735107
 10
324.907349
 20
882.858398
 10
325.214661
 20
882.965942
 10
325.460968
 20
883.054138
 10
325.641327
 20
883.119751
 10
325.752197
 20
883.160522
 10
325.79071
 20
883.174805
  0
LINE
  5
12B
330
123
100
AcDbEntity
  8
0
  6
Continuous
 62
     0
370
    30
100
AcDbLine
 10
321.790722
 20
887.174816
 30
0.0
 11
321.790722
 21
898.674816
 31
0.0
  0
LWPOLYLINE
  5
12C
330
123
100
AcDbEntity
  8
0
  6
Continuous
 62
     0
370
     0
100
AcDbPolyline
 90
       30
 70
     0
 43
0.0
 10
321.79071
 20
898.674805
 10
321.758606
 20
898.674805
 10
321.657898
 20
898.674805
 10
321.483124
 20
898.674805
 10
321.230927
 20
898.674805
 10
320.900574
 20
898.674805
 10
320.494324
 20
898.674805
 10
320.017517
 20
898.674805
 10
319.478455
 20
898.674805
 10
318.887817
 20
898.674805
 10
318.258179
 20
898.674805
 10
317.602936
 20
898.674805
 10
316.935577
 20
898.674805
 10
316.268738
 20
898.674805
 10
315.6138
 20
898.674805
 10
314.973999
 20
898.674805
 10
314.319214
 20
898.674805
 10
313.652466
 20
898.674805
 10
312.985046
 20
898.674805
 10
312.32962
 20
898.674805
 10
311.699646
 20
898.674805
 10
311.108582
 20
898.674805
 10
310.568939
 20
898.674805
 10
310.091492
 20
898.674805
 10
309.684509
 20
898.674805
 10
309.353394
 20
898.674805
 10
309.100433
 20
898.674805
 10
308.924896
 20
898.674805
 10
308.823456
 20
898.674805
 10
308.79071
 20
898.674805
  0
LWPOLYLINE
  5
12D
330
123
100
AcDbEntity
  8
0
  6
Continuous
 62
     0
370
    30
100
AcDbPolyline
 90
       29
 70
     0
 43
0.0
 10
309.29071
 20
899.174805
 10
309.328369
 20
899.174805
 10
309.440796
 20
899.174805
 10
309.626556
 20
899.174805
 10
309.883606
 20
899.174805
 10
310.208252
 20
899.174805
 10
310.59671
 20
899.174805
 10
311.044189
 20
899.174805
 10
311.544769
 20
899.174805
 10
312.092438
 20
899.174805
 10
312.680267
 20
899.174805
 10
313.300751
 20
899.174805
 10
313.946259
 20
899.174805
 10
314.608643
 20
899.174805
 10
315.279572
 20
899.174805
 10
315.950592
 20
899.174805
 10
316.613403
 20
899.174805
 10
317.259613
 20
899.174805
 10
317.881042
 20
899.174805
 10
318.470093
 20
899.174805
 10
319.019196
 20
899.174805
 10
319.521454
 20
899.174805
 10
319.970795
 20
899.174805
 10
320.361298
 20
899.174805
 10
320.688141
 20
899.174805
 10
320.947449
 20
899.174805
 10
321.135651
 20
899.174805
 10
321.250519
 20
899.174805
 10
321.29071
 20
899.174805
  0
LINE
  5
12E
330
123
100
AcDbEntity
  8
0
  6
Continuous
 62
     0
370
    30
100
AcDbLine
 10
288.290722
 20
844.174816
 30
0.0
 11
313.390722
 21
844.174816
 31
0.0
  0
LWPOLYLINE
  5
12F
330
123
100
AcDbEntity
  8
0
  6
Continuous
 62
     0
370
     0
100
AcDbPolyline
 90
       27
 70
     0
 43
0.0
 10
313.390717
 20
844.174805
 10
313.428864
 20
844.18457
 10
313.540161
 20
844.213318
 10
313.724518
 20
844.259216
 10
313.977386
 20
844.319702
 10
314.29245
 20
844.391602
 10
314.670929
 20
844.470215
 10
315.107147
 20
844.551208
 10
315.589111
 20
844.630859
 10
316.112335
 20
844.704163
 10
316.672821
 20
844.766174
 10
317.26123
 20
844.813293
 10
317.868286
 20
844.84314
 10
318.484863
 20
844.85376
 10
319.101532
 20
844.843506
 10
319.708832
 20
844.814026
 10
320.297699
 20
844.767212
 10
320.858795
 20
844.705444
 10
321.382782
 20
844.632324
 10
321.865509
 20
844.552734
 10
322.302704
 20
844.471741
 10
322.682404
 20
844.393066
 10
322.998627
 20
844.320984
 10
323.252716
 20
844.260254
 10
323.438416
 20
844.21405
 10
323.551147
 20
844.184937
 10
323.590729
 20
844.174805
  0
LINE
  5
130
330
123
100
AcDbEntity
  8
0
  6
Continuous
 62
     0
370
    30
100
AcDbLine
 10
323.590722
 20
844.174816
 30
0.0
 11
329.790722
 21
844.174816
 31
0.0
  0
LINE
  5
131
330
123
100
AcDbEntity
  8
0
  6
Continuous
 62
     0
370
     0
100
AcDbLine
 10
329.790722
 20
844.174816
 30
0.0
 11
329.790722
 21
883.174816
 31
0.0
  0
LINE
  5
132
330
123
100
AcDbEntity
  8
0
  6
Continuous
 62
     0
370
    30
100
AcDbLine
 10
288.290722
 20
883.174816
 30
0.0
 11
288.290722
 21
844.174816
 31
0.0
  0
LWPOLYLINE
  5
133
330
123
100
AcDbEntity
  8
0
  6
Continuous
 62
     0
370
    30
100
AcDbPolyline
 90
       50
 70
     0
 43
0.0
 10
330.29071
 20
882.674805
 10
330.29071
 20
882.635864
 10
330.29071
 20
882.51886
 10
330.29071
 20
882.324585
 10
330.29071
 20
882.053894
 10
330.29071
 20
881.707703
 10
330.29071
 20
881.287109
 10
330.29071
 20
880.794128
 10
330.29071
 20
880.231201
 10
330.29071
 20
879.600403
 10
330.29071
 20
878.904175
 10
330.29071
 20
878.14502
 10
330.29071
 20
877.326477
 10
330.29071
 20
876.452026
 10
330.29071
 20
875.52533
 10
330.29071
 20
874.549805
 10
330.29071
 20
873.529419
 10
330.29071
 20
872.468628
 10
330.29071
 20
871.371826
 10
330.29071
 20
870.243469
 10
330.29071
 20
869.088135
 10
330.29071
 20
867.910461
 10
330.29071
 20
866.715393
 10
330.29071
 20
865.507812
 10
330.29071
 20
864.292847
 10
330.29071
 20
863.075317
 10
330.29071
 20
861.860229
 10
330.29071
 20
860.652527
 10
330.29071
 20
859.457214
 10
330.29071
 20
858.279236
 10
330.29071
 20
857.123474
 10
330.29071
 20
855.994751
 10
330.29071
 20
854.8974
 10
330.29071
 20
853.835999
 10
330.29071
 20
852.815002
 10
330.29071
 20
851.838806
 10
330.29071
 20
850.911255
 10
330.29071
 20
850.036011
 10
330.29071
 20
849.216614
 10
330.29071
 20
848.456543
 10
330.29071
 20
847.759277
 10
330.29071
 20
847.127502
 10
330.29071
 20
846.563538
 10
330.29071
 20
846.069519
 10
330.29071
 20
845.647766
 10
330.29071
 20
845.300415
 10
330.29071
 20
845.028625
 10
330.29071
 20
844.833191
 10
330.29071
 20
844.714966
 10
330.29071
 20
844.674805
  0
ARC
  5
134
330
123
100
AcDbEntity
  8
0
  6
Continuous
 62
     0
370
    30
100
AcDbCircle
 10
329.790722
 20
844.674816
 30
0.0
 40
0.5000000000017195
100
AcDbArc
 50
270.0
 51
0.0
  0
ARC
  5
135
330
123
100
AcDbEntity
  8
0
  6
Continuous
 62
     0
370
    30
100
AcDbCircle
 10
321.290722
 20
898.674816
 30
0.0
 40
0.5000000000060751
100
AcDbArc
 50
0.0
 51
90.0
  0
LINE
  5
136
330
123
100
AcDbEntity
  8
0
  6
Continuous
 62
     0
370
    30
100
AcDbLine
 10
313.390722
 20
844.174816
 30
0.0
 11
323.590722
 21
844.174816
 31
0.0
  0
ARC
  5
137
330
123
100
AcDbEntity
  8
0
  6
Continuous
 62
     0
370
    30
100
AcDbCircle
 10
309.290726
 20
898.674813
 30
0.0
 40
0.5000034422863466
100
AcDbArc
 50
90.000394
 51
179.999606
  0
ARC
  5
138
330
123
100
AcDbEntity
  8
0
  6
Continuous
 62
     0
370
    30
100
AcDbCircle
 10
329.790719
 20
882.674813
 30
0.0
 40
0.5000034422852027
100
AcDbArc
 50
0.000394
 51
89.999606
  0
LINE
  5
139
330
123
100
AcDbEntity
  8
0
  6
Continuous
 62
     0
370
    30
100
AcDbLine
 10
329.790723
 20
883.174816
 30
0.0
 11
325.790722
 21
883.174816
 31
0.0
  0
LINE
  5
13A
330
123
100
AcDbEntity
  8
0
  6
Continuous
 62
     0
370
    30
100
AcDbLine
 10
288.290722
 20
883.174816
 30
0.0
 11
304.790728
 21
883.174816
 31
0.0
  0
LINE
  5
13B
330
123
100
AcDbEntity
  8
0
  6
Continuous
 62
     0
370
    30
100
AcDbLine
 10
308.790722
 20
887.174816
 30
0.0
 11
308.790722
 21
898.674816
 31
0.0
  0
ARC
  5
13C
330
123
100
AcDbEntity
  8
0
  6
Continuous
 62
     0
370
    30
100
AcDbCircle
 10
304.790703
 20
887.174828
 30
0.0
 40
4.00001912800411
100
AcDbArc
 50
270.00035
 51
359.999828
  0
LINE
  5
13D
330
123
100
AcDbEntity
  8
0
  6
Continuous
 62
     0
370
    30
100
AcDbLine
 10
287.440725
 20
871.674902
 30
0.0
 11
288.290722
 21
871.674902
 31
0.0
  0
LINE
  5
13E
330
123
100
AcDbEntity
  8
0
  6
Continuous
 62
     0
370
    30
100
AcDbLine
 10
287.440725
 20
855.674902
 30
0.0
 11
288.290722
 21
855.674902
 31
0.0
  0
LINE
  5
13F
330
123
100
AcDbEntity
  8
0
  6
Continuous
 62
     0
370
    30
100
AcDbLine
 10
286.940729
 20
684.674802
 30
0.0
 11
272.440729
 21
684.674802
 31
0.0
  0
LINE
  5
140
330
123
100
AcDbEntity
  8
0
  6
Continuous
 62
     0
370
    30
100
AcDbLine
 10
272.440729
 20
801.674802
 30
0.0
 11
286.940729
 21
801.674802
 31
0.0
  0
LINE
  5
141
330
123
100
AcDbEntity
  8
0
  6
Continuous
 62
     0
370
    30
100
AcDbLine
 10
286.940729
 20
684.674802
 30
0.0
 11
286.940729
 21
801.674802
 31
0.0
  0
LINE
  5
142
330
123
100
AcDbEntity
  8
0
  6
Continuous
 62
     0
370
    30
100
AcDbLine
 10
272.440729
 20
801.674802
 30
0.0
 11
272.440729
 21
684.674802
 31
0.0
  0
LINE
  5
143
330
123
100
AcDbEntity
  8
0
  6
Continuous
 62
     0
370
    30
100
AcDbLine
 10
286.940727
 20
762.674564
 30
0.0
 11
289.860708
 21
762.674564
 31
0.0
  0
LINE
  5
144
330
123
100
AcDbEntity
  8
0
  6
Continuous
 62
     0
370
    30
100
AcDbLine
 10
286.940727
 20
724.674564
 30
0.0
 11
289.860708
 21
724.674564
 31
0.0
  0
LWPOLYLINE
  5
145
330
123
100
AcDbEntity
  8
0
  6
Continuous
 62
     0
370
    30
100
AcDbPolyline
 90
       22
 70
     0
 43
0.0
 10
327.410706
 20
773.504028
 10
327.449188
 20
773.504028
 10
327.563629
 20
773.504028
 10
327.751709
 20
773.504028
 10
328.008942
 20
773.504028
 10
328.329865
 20
773.504028
 10
328.707153
 20
773.504028
 10
329.132477
 20
773.504028
 10
329.596313
 20
773.504028
 10
330.088318
 20
773.504028
 10
330.597565
 20
773.504028
 10
331.112671
 20
773.504028
 10
331.622162
 20
773.504028
 10
332.114655
 20
773.504028
 10
332.579224
 20
773.504028
 10
333.005493
 20
773.504028
 10
333.383911
 20
773.504028
 10
333.706146
 20
773.504028
 10
333.964813
 20
773.504028
 10
334.15448
 20
773.504028
 10
334.270538
 20
773.504028
 10
334.310699
 20
773.504028
  0
LINE
  5
146
330
123
100
AcDbEntity
  8
0
  6
Continuous
 62
     0
370
    30
100
AcDbLine
 10
334.310708
 20
773.504004
 30
0.0
 11
334.810708
 21
773.004004
 31
0.0
  0
LWPOLYLINE
  5
147
330
123
100
AcDbEntity
  8
0
  6
Continuous
 62
     0
370
    30
100
AcDbPolyline
 90
       24
 70
     0
 43
0.0
 10
326.910706
 20
773.004028
 10
326.948944
 20
773.004028
 10
327.061859
 20
773.004028
 10
327.244537
 20
773.004028
 10
327.491577
 20
773.004028
 10
327.799774
 20
773.004028
 10
328.166077
 20
773.004028
 10
328.583405
 20
773.004028
 10
329.043091
 20
773.004028
 10
329.535645
 20
773.004028
 10
330.052338
 20
773.004028
 10
330.584381
 20
773.004028
 10
331.12146
 20
773.004028
 10
331.65329
 20
773.004089
 10
332.170074
 20
773.004028
 10
332.663361
 20
773.004028
 10
333.124939
 20
773.004089
 10
333.545288
 20
773.004456
 10
333.915283
 20
773.004761
 10
334.226929
 20
773.0047
 10
334.475708
 20
773.004333
 10
334.658325
 20
773.00415
 10
334.771088
 20
773.004089
 10
334.810699
 20
773.004028
  0
LWPOLYLINE
  5
148
330
123
100
AcDbEntity
  8
0
  6
Continuous
 62
     0
370
    30
100
AcDbPolyline
 90
       53
 70
     0
 43
0.0
 10
339.860718
 20
765.174011
 10
339.860718
 20
765.134888
 10
339.860718
 20
765.017212
 10
339.860718
 20
764.821899
 10
339.860718
 20
764.549622
 10
339.860718
 20
764.201233
 10
339.860718
 20
763.777649
 10
339.860718
 20
763.280579
 10
339.860718
 20
762.712219
 10
339.860718
 20
762.074707
 10
339.860718
 20
761.370178
 10
339.860718
 20
760.60083
 10
339.860718
 20
759.76947
 10
339.860718
 20
758.879578
 10
339.860718
 20
757.934387
 10
339.860718
 20
756.937317
 10
339.860718
 20
755.891724
 10
339.860718
 20
754.801392
 10
339.860718
 20
753.670471
 10
339.860718
 20
752.503235
 10
339.860718
 20
751.303955
 10
339.860718
 20
750.076782
 10
339.860718
 20
748.826111
 10
339.860718
 20
747.556641
 10
339.860718
 20
746.27301
 10
339.860718
 20
744.97998
 10
339.860718
 20
743.682251
 10
339.860718
 20
742.38446
 10
339.860718
 20
741.09137
 10
339.860718
 20
739.807617
 10
339.860718
 20
738.537903
 10
339.860718
 20
737.286987
 10
339.860718
 20
736.059509
 10
339.860718
 20
734.859802
 10
339.860718
 20
733.692139
 10
339.860718
 20
732.56073
 10
339.860718
 20
731.469849
 10
339.860718
 20
730.423706
 10
339.860718
 20
729.425964
 10
339.860718
 20
728.480103
 10
339.860718
 20
727.589478
 10
339.860718
 20
726.757385
 10
339.860718
 20
725.987183
 10
339.860718
 20
725.28186
 10
339.860718
 20
724.643433
 10
339.860718
 20
724.074219
 10
339.860718
 20
723.576233
 10
339.860718
 20
723.151672
 10
339.860718
 20
722.802307
 10
339.860718
 20
722.529114
 10
339.860718
 20
722.332764
 10
339.860718
 20
722.214172
 10
339.860718
 20
722.174011
  0
LINE
  5
149
330
123
100
AcDbEntity
  8
0
  6
Continuous
 62
     0
370
    30
100
AcDbLine
 10
339.860708
 20
722.174004
 30
0.0
 11
339.360708
 21
721.674004
 31
0.0
  0
LINE
  5
14A
330
123
100
AcDbEntity
  8
0
  6
Continuous
 62
     0
370
    30
100
AcDbLine
 10
339.360708
 20
765.674004
 30
0.0
 11
339.360708
 21
721.674004
 31
0.0
  0
LINE
  5
14B
330
123
100
AcDbEntity
  8
0
  6
Continuous
 62
     0
370
    30
100
AcDbLine
 10
326.110708
 20
721.674004
 30
0.0
 11
289.860708
 21
721.674004
 31
0.0
  0
LINE
  5
14C
330
123
100
AcDbEntity
  8
0
  6
Continuous
 62
     0
370
    30
100
AcDbLine
 10
289.860708
 20
765.674004
 30
0.0
 11
289.860708
 21
721.674004
 31
0.0
  0
LWPOLYLINE
  5
14D
330
123
100
AcDbEntity
  8
0
  6
Continuous
 62
     0
370
     0
100
AcDbPolyline
 90
       26
 70
     0
 43
0.0
 10
326.110718
 20
721.674011
 10
326.148468
 20
721.682129
 10
326.262299
 20
721.706116
 10
326.448517
 20
721.744202
 10
326.701874
 20
721.793945
 10
327.018555
 20
721.852539
 10
327.399536
 20
721.915833
 10
327.834961
 20
721.980347
 10
328.314606
 20
722.04248
 10
328.835052
 20
722.097839
 10
329.389282
 20
722.142639
 10
329.967255
 20
722.174194
 10
330.559631
 20
722.190857
 10
331.156891
 20
722.190918
 10
331.749359
 20
722.174377
 10
332.327484
 20
722.142944
 10
332.881927
 20
722.098267
 10
333.40271
 20
722.042969
 10
333.88269
 20
721.980896
 10
334.318512
 20
721.916382
 10
334.699982
 20
721.853088
 10
335.017181
 20
721.794434
 10
335.271057
 20
721.744568
 10
335.457855
 20
721.706421
 10
335.572296
 20
721.682251
 10
335.610718
 20
721.674011
  0
LINE
  5
14E
330
123
100
AcDbEntity
  8
0
  6
Continuous
 62
     0
370
    30
100
AcDbLine
 10
335.610708
 20
721.674004
 30
0.0
 11
339.360708
 21
721.674004
 31
0.0
  0
LWPOLYLINE
  5
14F
330
123
100
AcDbEntity
  8
0
  6
Continuous
 62
     0
370
     0
100
AcDbPolyline
 90
       25
 70
     0
 43
0.0
 10
334.960297
 20
765.674011
 10
334.925873
 20
765.667542
 10
334.820496
 20
765.64801
 10
334.64447
 20
765.616577
 10
334.403198
 20
765.576294
 10
334.102417
 20
765.530029
 10
333.748352
 20
765.480896
 10
333.34787
 20
765.431519
 10
332.906616
 20
765.385132
 10
332.429596
 20
765.345337
 10
331.925293
 20
765.31488
 10
331.40274
 20
765.295471
 10
330.870972
 20
765.288513
 10
330.338989
 20
765.294983
 10
329.815918
 20
765.313904
 10
329.31076
 20
765.343994
 10
328.832581
 20
765.383484
 10
328.389801
 20
765.429626
 10
327.98761
 20
765.478943
 10
327.631561
 20
765.528198
 10
327.328644
 20
765.574585
 10
327.085022
 20
765.615173
 10
326.906372
 20
765.646973
 10
326.798126
 20
765.666992
 10
326.760712
 20
765.674011
  0
LINE
  5
150
330
123
100
AcDbEntity
  8
0
  6
Continuous
 62
     0
370
    30
100
AcDbLine
 10
334.810708
 20
765.674004
 30
0.0
 11
334.810708
 21
773.004004
 31
0.0
  0
LWPOLYLINE
  5
151
330
123
100
AcDbEntity
  8
0
  6
Continuous
 62
     0
370
    30
100
AcDbPolyline
 90
       24
 70
     0
 43
0.0
 10
326.910706
 20
765.674011
 10
326.947906
 20
765.667175
 10
327.057739
 20
765.647827
 10
327.237701
 20
765.617615
 10
327.485016
 20
765.578186
 10
327.7948
 20
765.532532
 10
328.160858
 20
765.484192
 10
328.577087
 20
765.436707
 10
329.036102
 20
765.393494
 10
329.529144
 20
765.357483
 10
330.047333
 20
765.331787
 10
330.581421
 20
765.318665
 10
331.120972
 20
765.31842
 10
331.655457
 20
765.331116
 10
332.174438
 20
765.356445
 10
332.668549
 20
765.39209
 10
333.128876
 20
765.43512
 10
333.5466
 20
765.482422
 10
333.914368
 20
765.530762
 10
334.226227
 20
765.576599
 10
334.476257
 20
765.616394
 10
334.659271
 20
765.647156
 10
334.771606
 20
765.666931
 10
334.810699
 20
765.674011
  0
LINE
  5
152
330
123
100
AcDbEntity
  8
0
  6
Continuous
 62
     0
370
    30
100
AcDbLine
 10
334.810708
 20
765.674004
 30
0.0
 11
334.960311
 21
765.674004
 31
0.0
  0
LINE
  5
153
330
123
100
AcDbEntity
  8
0
  6
Continuous
 62
     0
370
    30
100
AcDbLine
 10
326.910708
 20
773.004004
 30
0.0
 11
326.910708
 21
765.674004
 31
0.0
  0
LINE
  5
154
330
123
100
AcDbEntity
  8
0
  6
Continuous
 62
     0
370
    30
100
AcDbLine
 10
335.610708
 20
721.674004
 30
0.0
 11
326.110708
 21
721.674004
 31
0.0
  0
LINE
  5
155
330
123
100
AcDbEntity
  8
0
  6
Continuous
 62
     0
370
    30
100
AcDbLine
 10
289.860708
 20
765.674004
 30
0.0
 11
326.760708
 21
765.674004
 31
0.0
  0
LINE
  5
156
330
123
100
AcDbEntity
  8
0
  6
Continuous
 62
     0
370
    30
100
AcDbLine
 10
339.360709
 20
765.674004
 30
0.0
 11
334.960311
 21
765.674004
 31
0.0
  0
LINE
  5
157
330
123
100
AcDbEntity
  8
0
  6
Continuous
 62
     0
370
    30
100
AcDbLine
 10
339.860708
 20
765.174004
 30
0.0
 11
339.360708
 21
765.674004
 31
0.0
  0
LINE
  5
158
330
123
100
AcDbEntity
  8
0
  6
Continuous
 62
     0
370
    30
100
AcDbLine
 10
326.910708
 20
773.004004
 30
0.0
 11
327.410708
 21
773.504004
 31
0.0
  0
LINE
  5
159
330
123
100
AcDbEntity
  8
0
  6
Continuous
 62
     0
370
    30
100
AcDbLine
 10
272.440727
 20
1003.674805
 30
0.0
 11
287.440727
 21
1003.674805
 31
0.0
  0
LINE
  5
15A
330
123
100
AcDbEntity
  8
0
  6
Continuous
 62
     0
370
    30
100
AcDbLine
 10
272.440727
 20
1003.674805
 30
0.0
 11
272.440727
 21
923.674805
 31
0.0
  0
LINE
  5
15B
330
123
100
AcDbEntity
  8
0
  6
Continuous
 62
     0
370
    30
100
AcDbLine
 10
272.440727
 20
923.674805
 30
0.0
 11
287.440727
 21
923.674805
 31
0.0
  0
LINE
  5
15C
330
123
100
AcDbEntity
  8
0
  6
Continuous
 62
     0
370
    30
100
AcDbLine
 10
287.440727
 20
923.674805
 30
0.0
 11
287.440727
 21
1003.674805
 31
0.0
  0
ARC
  5
15D
330
123
100
AcDbEntity
  8
0
  6
Continuous
 62
     0
370
    30
100
AcDbCircle
 10
325.790722
 20
987.174816
 30
0.0
 40
3.999999999997861
100
AcDbArc
 50
180.0
 51
270.0
  0
LWPOLYLINE
  5
15E
330
123
100
AcDbEntity
  8
0
  6
Continuous
 62
     0
370
     0
100
AcDbPolyline
 90
       34
 70
     0
 43
0.0
 10
321.79071
 20
987.174805
 10
321.759003
 20
987.151794
 10
321.665436
 20
987.084961
 10
321.51239
 20
986.977295
 10
321.303192
 20
986.833496
 10
321.042206
 20
986.659912
 10
320.733612
 20
986.462891
 10
320.38092
 20
986.249207
 10
319.987457
 20
986.025513
 10
319.555481
 20
985.798279
 10
319.086304
 20
985.573853
 10
318.581329
 20
985.359009
 10
318.042389
 20
985.162109
 10
317.47168
 20
984.991516
 10
316.873505
 20
984.854187
 10
316.253113
 20
984.756653
 10
315.618347
 20
984.704834
 10
314.978668
 20
984.704224
 10
314.343628
 20
984.754761
 10
313.722809
 20
984.851257
 10
313.124054
 20
984.987732
 10
312.552765
 20
985.157654
 10
312.013214
 20
985.353882
 10
311.507477
 20
985.568237
 10
311.03717
 20
985.792419
 10
310.60376
 20
986.019653
 10
310.208588
 20
986.243958
 10
309.85434
 20
986.458496
 10
309.545013
 20
986.655762
 10
309.284485
 20
986.828674
 10
309.075653
 20
986.971924
 10
308.921234
 20
987.080627
 10
308.824829
 20
987.149841
 10
308.79071
 20
987.174805
  0
LWPOLYLINE
  5
15F
330
123
100
AcDbEntity
  8
0
  6
Continuous
 62
     0
370
     0
100
AcDbPolyline
 90
       43
 70
     0
 43
0.0
 10
304.790741
 20
983.174805
 10
304.828735
 20
983.160522
 10
304.940155
 20
983.119324
 10
305.120239
 20
983.053833
 10
305.364258
 20
982.966736
 10
305.668121
 20
982.860901
 10
306.027954
 20
982.739014
 10
306.439545
 20
982.604065
 10
306.897583
 20
982.459778
 10
307.396484
 20
982.309998
 10
307.931091
 20
982.158447
 10
308.497955
 20
982.008179
 10
309.093903
 20
981.862
 10
309.715881
 20
981.722656
 10
310.360962
 20
981.592896
 10
311.026276
 20
981.475281
 10
311.708984
 20
981.372192
 10
312.406189
 20
981.284973
 10
313.115112
 20
981.214966
 10
313.832855
 20
981.163269
 10
314.556519
 20
981.131287
 10
315.283173
 20
981.120117
 10
316.009827
 20
981.130737
 10
316.733551
 20
981.162292
 10
317.451447
 20
981.213623
 10
318.160522
 20
981.283386
 10
318.857971
 20
981.370422
 10
319.540985
 20
981.473389
 10
320.206757
 20
981.590881
 10
320.852386
 20
981.720581
 10
321.475006
 20
981.859741
 10
322.071594
 20
982.005615
 10
322.639008
 20
982.155457
 10
323.17395
 20
982.306458
 10
323.672913
 20
982.455627
 10
324.131378
 20
982.59967
 10
324.544495
 20
982.735107
 10
324.907349
 20
982.858398
 10
325.214661
 20
982.965942
 10
325.460968
 20
983.054138
 10
325.641327
 20
983.119751
 10
325.752197
 20
983.160522
 10
325.79071
 20
983.174805
  0
LINE
  5
160
330
123
100
AcDbEntity
  8
0
  6
Continuous
 62
     0
370
    30
100
AcDbLine
 10
321.790722
 20
987.174816
 30
0.0
 11
321.790722
 21
998.674816
 31
0.0
  0
LWPOLYLINE
  5
161
330
123
100
AcDbEntity
  8
0
  6
Continuous
 62
     0
370
     0
100
AcDbPolyline
 90
       30
 70
     0
 43
0.0
 10
321.79071
 20
998.674805
 10
321.758606
 20
998.674805
 10
321.657898
 20
998.674805
 10
321.483124
 20
998.674805
 10
321.230927
 20
998.674805
 10
320.900574
 20
998.674805
 10
320.494324
 20
998.674805
 10
320.017517
 20
998.674805
 10
319.478455
 20
998.674805
 10
318.887817
 20
998.674805
 10
318.258179
 20
998.674805
 10
317.602936
 20
998.674805
 10
316.935577
 20
998.674805
 10
316.268738
 20
998.674805
 10
315.6138
 20
998.674805
 10
314.973999
 20
998.674805
 10
314.319214
 20
998.674805
 10
313.652466
 20
998.674805
 10
312.985046
 20
998.674805
 10
312.32962
 20
998.674805
 10
311.699646
 20
998.674805
 10
311.108582
 20
998.674805
 10
310.568939
 20
998.674805
 10
310.091492
 20
998.674805
 10
309.684509
 20
998.674805
 10
309.353394
 20
998.674805
 10
309.100433
 20
998.674805
 10
308.924896
 20
998.674805
 10
308.823456
 20
998.674805
 10
308.79071
 20
998.674805
  0
LWPOLYLINE
  5
162
330
123
100
AcDbEntity
  8
0
  6
Continuous
 62
     0
370
    30
100
AcDbPolyline
 90
       29
 70
     0
 43
0.0
 10
309.29071
 20
999.174805
 10
309.328369
 20
999.174805
 10
309.440796
 20
999.174805
 10
309.626556
 20
999.174805
 10
309.883606
 20
999.174805
 10
310.208252
 20
999.174805
 10
310.59671
 20
999.174805
 10
311.044189
 20
999.174805
 10
311.544769
 20
999.174805
 10
312.092438
 20
999.174805
 10
312.680267
 20
999.174805
 10
313.300751
 20
999.174805
 10
313.946259
 20
999.174805
 10
314.608643
 20
999.174805
 10
315.279572
 20
999.174805
 10
315.950592
 20
999.174805
 10
316.613403
 20
999.174805
 10
317.259613
 20
999.174805
 10
317.881042
 20
999.174805
 10
318.470093
 20
999.174805
 10
319.019196
 20
999.174805
 10
319.521454
 20
999.174805
 10
319.970795
 20
999.174805
 10
320.361298
 20
999.174805
 10
320.688141
 20
999.174805
 10
320.947449
 20
999.174805
 10
321.135651
 20
999.174805
 10
321.250519
 20
999.174805
 10
321.29071
 20
999.174805
  0
LINE
  5
163
330
123
100
AcDbEntity
  8
0
  6
Continuous
 62
     0
370
    30
100
AcDbLine
 10
288.290722
 20
944.174816
 30
0.0
 11
313.390722
 21
944.174816
 31
0.0
  0
LWPOLYLINE
  5
164
330
123
100
AcDbEntity
  8
0
  6
Continuous
 62
     0
370
     0
100
AcDbPolyline
 90
       27
 70
     0
 43
0.0
 10
313.390717
 20
944.174805
 10
313.428864
 20
944.18457
 10
313.540161
 20
944.213318
 10
313.724518
 20
944.259216
 10
313.977386
 20
944.319702
 10
314.29245
 20
944.391602
 10
314.670929
 20
944.470215
 10
315.107147
 20
944.551208
 10
315.589111
 20
944.630859
 10
316.112335
 20
944.704163
 10
316.672821
 20
944.766174
 10
317.26123
 20
944.813293
 10
317.868286
 20
944.84314
 10
318.484863
 20
944.85376
 10
319.101532
 20
944.843506
 10
319.708832
 20
944.814026
 10
320.297699
 20
944.767212
 10
320.858795
 20
944.705444
 10
321.382782
 20
944.632324
 10
321.865509
 20
944.552734
 10
322.302704
 20
944.471741
 10
322.682404
 20
944.393066
 10
322.998627
 20
944.320984
 10
323.252716
 20
944.260254
 10
323.438416
 20
944.21405
 10
323.551147
 20
944.184937
 10
323.590729
 20
944.174805
  0
LINE
  5
165
330
123
100
AcDbEntity
  8
0
  6
Continuous
 62
     0
370
    30
100
AcDbLine
 10
323.590722
 20
944.174816
 30
0.0
 11
329.790722
 21
944.174816
 31
0.0
  0
LINE
  5
166
330
123
100
AcDbEntity
  8
0
  6
Continuous
 62
     0
370
     0
100
AcDbLine
 10
329.790722
 20
944.174816
 30
0.0
 11
329.790722
 21
983.174816
 31
0.0
  0
LINE
  5
167
330
123
100
AcDbEntity
  8
0
  6
Continuous
 62
     0
370
    30
100
AcDbLine
 10
288.290722
 20
983.174816
 30
0.0
 11
288.290722
 21
944.174816
 31
0.0
  0
LWPOLYLINE
  5
168
330
123
100
AcDbEntity
  8
0
  6
Continuous
 62
     0
370
    30
100
AcDbPolyline
 90
       50
 70
     0
 43
0.0
 10
330.29071
 20
982.674805
 10
330.29071
 20
982.635864
 10
330.29071
 20
982.51886
 10
330.29071
 20
982.324585
 10
330.29071
 20
982.053894
 10
330.29071
 20
981.707703
 10
330.29071
 20
981.287109
 10
330.29071
 20
980.794128
 10
330.29071
 20
980.231201
 10
330.29071
 20
979.600403
 10
330.29071
 20
978.904175
 10
330.29071
 20
978.14502
 10
330.29071
 20
977.326477
 10
330.29071
 20
976.452026
 10
330.29071
 20
975.52533
 10
330.29071
 20
974.549805
 10
330.29071
 20
973.529419
 10
330.29071
 20
972.468628
 10
330.29071
 20
971.371826
 10
330.29071
 20
970.243469
 10
330.29071
 20
969.088135
 10
330.29071
 20
967.910461
 10
330.29071
 20
966.715393
 10
330.29071
 20
965.507812
 10
330.29071
 20
964.292847
 10
330.29071
 20
963.075317
 10
330.29071
 20
961.860229
 10
330.29071
 20
960.652527
 10
330.29071
 20
959.457214
 10
330.29071
 20
958.279236
 10
330.29071
 20
957.123474
 10
330.29071
 20
955.994751
 10
330.29071
 20
954.8974
 10
330.29071
 20
953.835999
 10
330.29071
 20
952.815002
 10
330.29071
 20
951.838806
 10
330.29071
 20
950.911255
 10
330.29071
 20
950.036011
 10
330.29071
 20
949.216614
 10
330.29071
 20
948.456543
 10
330.29071
 20
947.759277
 10
330.29071
 20
947.127502
 10
330.29071
 20
946.563538
 10
330.29071
 20
946.069519
 10
330.29071
 20
945.647766
 10
330.29071
 20
945.300415
 10
330.29071
 20
945.028625
 10
330.29071
 20
944.833191
 10
330.29071
 20
944.714966
 10
330.29071
 20
944.674805
  0
ARC
  5
169
330
123
100
AcDbEntity
  8
0
  6
Continuous
 62
     0
370
    30
100
AcDbCircle
 10
329.790722
 20
944.674816
 30
0.0
 40
0.4999999999905498
100
AcDbArc
 50
270.0
 51
0.0
  0
ARC
  5
16A
330
123
100
AcDbEntity
  8
0
  6
Continuous
 62
     0
370
    30
100
AcDbCircle
 10
321.290722
 20
998.674816
 30
0.0
 40
0.4999999999765237
100
AcDbArc
 50
360.0
 51
90.0
  0
LINE
  5
16B
330
123
100
AcDbEntity
  8
0
  6
Continuous
 62
     0
370
    30
100
AcDbLine
 10
313.390722
 20
944.174816
 30
0.0
 11
323.590722
 21
944.174816
 31
0.0
  0
ARC
  5
16C
330
123
100
AcDbEntity
  8
0
  6
Continuous
 62
     0
370
    30
100
AcDbCircle
 10
309.290726
 20
998.674813
 30
0.0
 40
0.5000034422838597
100
AcDbArc
 50
90.000394
 51
179.999606
  0
ARC
  5
16D
330
123
100
AcDbEntity
  8
0
  6
Continuous
 62
     0
370
    30
100
AcDbCircle
 10
329.790719
 20
982.674813
 30
0.0
 40
0.5000034422816997
100
AcDbArc
 50
0.000394
 51
89.999606
  0
LINE
  5
16E
330
123
100
AcDbEntity
  8
0
  6
Continuous
 62
     0
370
    30
100
AcDbLine
 10
329.790723
 20
983.174816
 30
0.0
 11
325.790722
 21
983.174816
 31
0.0
  0
LINE
  5
16F
330
123
100
AcDbEntity
  8
0
  6
Continuous
 62
     0
370
    30
100
AcDbLine
 10
288.290722
 20
983.174816
 30
0.0
 11
304.790728
 21
983.174816
 31
0.0
  0
LINE
  5
170
330
123
100
AcDbEntity
  8
0
  6
Continuous
 62
     0
370
    30
100
AcDbLine
 10
308.790722
 20
987.174816
 30
0.0
 11
308.790722
 21
998.674816
 31
0.0
  0
ARC
  5
171
330
123
100
AcDbEntity
  8
0
  6
Continuous
 62
     0
370
    30
100
AcDbCircle
 10
304.790703
 20
987.174828
 30
0.0
 40
4.000019128003016
100
AcDbArc
 50
270.00035
 51
359.999828
  0
LINE
  5
172
330
123
100
AcDbEntity
  8
0
  6
Continuous
 62
     0
370
    30
100
AcDbLine
 10
287.440725
 20
971.674902
 30
0.0
 11
288.290722
 21
971.674902
 31
0.0
  0
LINE
  5
173
330
123
100
AcDbEntity
  8
0
  6
Continuous
 62
     0
370
    30
100
AcDbLine
 10
287.440725
 20
955.674902
 30
0.0
 11
288.290722
 21
955.674902
 31
0.0
  0
LINE
  5
174
330
123
100
AcDbEntity
  8
0
  6
Continuous
 62
     0
370
    30
100
AcDbLine
 10
272.440727
 20
1103.674805
 30
0.0
 11
287.440727
 21
1103.674805
 31
0.0
  0
LINE
  5
175
330
123
100
AcDbEntity
  8
0
  6
Continuous
 62
     0
370
    30
100
AcDbLine
 10
272.440727
 20
1103.674805
 30
0.0
 11
272.440727
 21
1023.674805
 31
0.0
  0
LINE
  5
176
330
123
100
AcDbEntity
  8
0
  6
Continuous
 62
     0
370
    30
100
AcDbLine
 10
272.440727
 20
1023.674805
 30
0.0
 11
287.440727
 21
1023.674805
 31
0.0
  0
LINE
  5
177
330
123
100
AcDbEntity
  8
0
  6
Continuous
 62
     0
370
    30
100
AcDbLine
 10
287.440727
 20
1023.674805
 30
0.0
 11
287.440727
 21
1103.674805
 31
0.0
  0
ARC
  5
178
330
123
100
AcDbEntity
  8
0
  6
Continuous
 62
     0
370
    30
100
AcDbCircle
 10
325.790722
 20
1087.174816
 30
0.0
 40
4.000000000001954
100
AcDbArc
 50
180.0
 51
270.0
  0
LWPOLYLINE
  5
179
330
123
100
AcDbEntity
  8
0
  6
Continuous
 62
     0
370
     0
100
AcDbPolyline
 90
       34
 70
     0
 43
0.0
 10
321.79071
 20
1087.174805
 10
321.759003
 20
1087.151855
 10
321.665436
 20
1087.084961
 10
321.51239
 20
1086.977295
 10
321.303192
 20
1086.833496
 10
321.042206
 20
1086.659912
 10
320.733612
 20
1086.462891
 10
320.38092
 20
1086.249146
 10
319.987457
 20
1086.025513
 10
319.555481
 20
1085.79834
 10
319.086304
 20
1085.573853
 10
318.581329
 20
1085.359009
 10
318.042389
 20
1085.162109
 10
317.47168
 20
1084.991455
 10
316.873505
 20
1084.854126
 10
316.253113
 20
1084.756592
 10
315.618347
 20
1084.704834
 10
314.978668
 20
1084.704224
 10
314.343628
 20
1084.754761
 10
313.722809
 20
1084.851196
 10
313.124054
 20
1084.987671
 10
312.552765
 20
1085.157593
 10
312.013214
 20
1085.353882
 10
311.507477
 20
1085.568237
 10
311.03717
 20
1085.792358
 10
310.60376
 20
1086.019653
 10
310.208588
 20
1086.244019
 10
309.85434
 20
1086.458496
 10
309.545013
 20
1086.655762
 10
309.284485
 20
1086.828735
 10
309.075653
 20
1086.971924
 10
308.921234
 20
1087.080566
 10
308.824829
 20
1087.149902
 10
308.79071
 20
1087.174805
  0
LWPOLYLINE
  5
17A
330
123
100
AcDbEntity
  8
0
  6
Continuous
 62
     0
370
     0
100
AcDbPolyline
 90
       43
 70
     0
 43
0.0
 10
304.790741
 20
1083.174805
 10
304.828735
 20
1083.160522
 10
304.940155
 20
1083.119263
 10
305.120239
 20
1083.053833
 10
305.364258
 20
1082.966797
 10
305.668121
 20
1082.86084
 10
306.027954
 20
1082.739014
 10
306.439545
 20
1082.604004
 10
306.897583
 20
1082.459717
 10
307.396484
 20
1082.309937
 10
307.931091
 20
1082.158447
 10
308.497955
 20
1082.008179
 10
309.093903
 20
1081.861938
 10
309.715881
 20
1081.722656
 10
310.360962
 20
1081.592896
 10
311.026276
 20
1081.475342
 10
311.708984
 20
1081.372192
 10
312.406189
 20
1081.285034
 10
313.115112
 20
1081.214966
 10
313.832855
 20
1081.16333
 10
314.556519
 20
1081.131226
 10
315.283173
 20
1081.120117
 10
316.009827
 20
1081.130737
 10
316.733551
 20
1081.162354
 10
317.451447
 20
1081.213623
 10
318.160522
 20
1081.283447
 10
318.857971
 20
1081.370361
 10
319.540985
 20
1081.473389
 10
320.206757
 20
1081.590942
 10
320.852386
 20
1081.720581
 10
321.475006
 20
1081.859741
 10
322.071594
 20
1082.005615
 10
322.639008
 20
1082.155518
 10
323.17395
 20
1082.306396
 10
323.672913
 20
1082.455688
 10
324.131378
 20
1082.599731
 10
324.544495
 20
1082.735107
 10
324.907349
 20
1082.858398
 10
325.214661
 20
1082.965942
 10
325.460968
 20
1083.054199
 10
325.641327
 20
1083.119751
 10
325.752197
 20
1083.160522
 10
325.79071
 20
1083.174805
  0
LINE
  5
17B
330
123
100
AcDbEntity
  8
0
  6
Continuous
 62
     0
370
    30
100
AcDbLine
 10
321.790722
 20
1087.174816
 30
0.0
 11
321.790722
 21
1098.674816
 31
0.0
  0
LWPOLYLINE
  5
17C
330
123
100
AcDbEntity
  8
0
  6
Continuous
 62
     0
370
     0
100
AcDbPolyline
 90
       30
 70
     0
 43
0.0
 10
321.79071
 20
1098.674805
 10
321.758606
 20
1098.674805
 10
321.657898
 20
1098.674805
 10
321.483124
 20
1098.674805
 10
321.230927
 20
1098.674805
 10
320.900574
 20
1098.674805
 10
320.494324
 20
1098.674805
 10
320.017517
 20
1098.674805
 10
319.478455
 20
1098.674805
 10
318.887817
 20
1098.674805
 10
318.258179
 20
1098.674805
 10
317.602936
 20
1098.674805
 10
316.935577
 20
1098.674805
 10
316.268738
 20
1098.674805
 10
315.6138
 20
1098.674805
 10
314.973999
 20
1098.674805
 10
314.319214
 20
1098.674805
 10
313.652466
 20
1098.674805
 10
312.985046
 20
1098.674805
 10
312.32962
 20
1098.674805
 10
311.699646
 20
1098.674805
 10
311.108582
 20
1098.674805
 10
310.568939
 20
1098.674805
 10
310.091492
 20
1098.674805
 10
309.684509
 20
1098.674805
 10
309.353394
 20
1098.674805
 10
309.100433
 20
1098.674805
 10
308.924896
 20
1098.674805
 10
308.823456
 20
1098.674805
 10
308.79071
 20
1098.674805
  0
LWPOLYLINE
  5
17D
330
123
100
AcDbEntity
  8
0
  6
Continuous
 62
     0
370
    30
100
AcDbPolyline
 90
       29
 70
     0
 43
0.0
 10
309.29071
 20
1099.174805
 10
309.328369
 20
1099.174805
 10
309.440796
 20
1099.174805
 10
309.626556
 20
1099.174805
 10
309.883606
 20
1099.174805
 10
310.208252
 20
1099.174805
 10
310.59671
 20
1099.174805
 10
311.044189
 20
1099.174805
 10
311.544769
 20
1099.174805
 10
312.092438
 20
1099.174805
 10
312.680267
 20
1099.174805
 10
313.300751
 20
1099.174805
 10
313.946259
 20
1099.174805
 10
314.608643
 20
1099.174805
 10
315.279572
 20
1099.174805
 10
315.950592
 20
1099.174805
 10
316.613403
 20
1099.174805
 10
317.259613
 20
1099.174805
 10
317.881042
 20
1099.174805
 10
318.470093
 20
1099.174805
 10
319.019196
 20
1099.174805
 10
319.521454
 20
1099.174805
 10
319.970795
 20
1099.174805
 10
320.361298
 20
1099.174805
 10
320.688141
 20
1099.174805
 10
320.947449
 20
1099.174805
 10
321.135651
 20
1099.174805
 10
321.250519
 20
1099.174805
 10
321.29071
 20
1099.174805
  0
LINE
  5
17E
330
123
100
AcDbEntity
  8
0
  6
Continuous
 62
     0
370
    30
100
AcDbLine
 10
288.290722
 20
1044.174816
 30
0.0
 11
313.390722
 21
1044.174816
 31
0.0
  0
LWPOLYLINE
  5
17F
330
123
100
AcDbEntity
  8
0
  6
Continuous
 62
     0
370
     0
100
AcDbPolyline
 90
       27
 70
     0
 43
0.0
 10
313.390717
 20
1044.174805
 10
313.428864
 20
1044.18457
 10
313.540161
 20
1044.213257
 10
313.724518
 20
1044.259277
 10
313.977386
 20
1044.319702
 10
314.29245
 20
1044.391602
 10
314.670929
 20
1044.470215
 10
315.107147
 20
1044.551147
 10
315.589111
 20
1044.630859
 10
316.112335
 20
1044.704102
 10
316.672821
 20
1044.766235
 10
317.26123
 20
1044.813232
 10
317.868286
 20
1044.84314
 10
318.484863
 20
1044.85376
 10
319.101532
 20
1044.843506
 10
319.708832
 20
1044.813965
 10
320.297699
 20
1044.767212
 10
320.858795
 20
1044.705444
 10
321.382782
 20
1044.632324
 10
321.865509
 20
1044.552734
 10
322.302704
 20
1044.47168
 10
322.682404
 20
1044.393066
 10
322.998627
 20
1044.321045
 10
323.252716
 20
1044.260254
 10
323.438416
 20
1044.213989
 10
323.551147
 20
1044.184937
 10
323.590729
 20
1044.174805
  0
LINE
  5
180
330
123
100
AcDbEntity
  8
0
  6
Continuous
 62
     0
370
    30
100
AcDbLine
 10
323.590722
 20
1044.174816
 30
0.0
 11
329.790722
 21
1044.174816
 31
0.0
  0
LINE
  5
181
330
123
100
AcDbEntity
  8
0
  6
Continuous
 62
     0
370
     0
100
AcDbLine
 10
329.790722
 20
1044.174816
 30
0.0
 11
329.790722
 21
1083.174816
 31
0.0
  0
LINE
  5
182
330
123
100
AcDbEntity
  8
0
  6
Continuous
 62
     0
370
    30
100
AcDbLine
 10
288.290722
 20
1083.174816
 30
0.0
 11
288.290722
 21
1044.174816
 31
0.0
  0
LWPOLYLINE
  5
183
330
123
100
AcDbEntity
  8
0
  6
Continuous
 62
     0
370
    30
100
AcDbPolyline
 90
       50
 70
     0
 43
0.0
 10
330.29071
 20
1082.674805
 10
330.29071
 20
1082.635864
 10
330.29071
 20
1082.518799
 10
330.29071
 20
1082.324585
 10
330.29071
 20
1082.053955
 10
330.29071
 20
1081.707642
 10
330.29071
 20
1081.287109
 10
330.29071
 20
1080.794189
 10
330.29071
 20
1080.231201
 10
330.29071
 20
1079.600464
 10
330.29071
 20
1078.904175
 10
330.29071
 20
1078.14502
 10
330.29071
 20
1077.326538
 10
330.29071
 20
1076.452026
 10
330.29071
 20
1075.525269
 10
330.29071
 20
1074.549805
 10
330.29071
 20
1073.529419
 10
330.29071
 20
1072.468628
 10
330.29071
 20
1071.371826
 10
330.29071
 20
1070.24353
 10
330.29071
 20
1069.088135
 10
330.29071
 20
1067.910522
 10
330.29071
 20
1066.715332
 10
330.29071
 20
1065.507812
 10
330.29071
 20
1064.292847
 10
330.29071
 20
1063.075317
 10
330.29071
 20
1061.860229
 10
330.29071
 20
1060.652466
 10
330.29071
 20
1059.457153
 10
330.29071
 20
1058.279175
 10
330.29071
 20
1057.123535
 10
330.29071
 20
1055.994751
 10
330.29071
 20
1054.897461
 10
330.29071
 20
1053.83606
 10
330.29071
 20
1052.814941
 10
330.29071
 20
1051.838745
 10
330.29071
 20
1050.911255
 10
330.29071
 20
1050.036011
 10
330.29071
 20
1049.216553
 10
330.29071
 20
1048.456543
 10
330.29071
 20
1047.759277
 10
330.29071
 20
1047.127563
 10
330.29071
 20
1046.563477
 10
330.29071
 20
1046.069458
 10
330.29071
 20
1045.647827
 10
330.29071
 20
1045.300415
 10
330.29071
 20
1045.028564
 10
330.29071
 20
1044.83313
 10
330.29071
 20
1044.714966
 10
330.29071
 20
1044.674805
  0
ARC
  5
184
330
123
100
AcDbEntity
  8
0
  6
Continuous
 62
     0
370
    30
100
AcDbCircle
 10
329.790722
 20
1044.674816
 30
0.0
 40
0.4999999999987068
100
AcDbArc
 50
270.0
 51
360.0
  0
ARC
  5
185
330
123
100
AcDbEntity
  8
0
  6
Continuous
 62
     0
370
    30
100
AcDbCircle
 10
321.290722
 20
1098.674816
 30
0.0
 40
0.5000000000333955
100
AcDbArc
 50
0.0
 51
90.0
  0
LINE
  5
186
330
123
100
AcDbEntity
  8
0
  6
Continuous
 62
     0
370
    30
100
AcDbLine
 10
313.390722
 20
1044.174816
 30
0.0
 11
323.590722
 21
1044.174816
 31
0.0
  0
ARC
  5
187
330
123
100
AcDbEntity
  8
0
  6
Continuous
 62
     0
370
    30
100
AcDbCircle
 10
309.290726
 20
1098.674813
 30
0.0
 40
0.5000034422953137
100
AcDbArc
 50
90.000394
 51
179.999606
  0
ARC
  5
188
330
123
100
AcDbEntity
  8
0
  6
Continuous
 62
     0
370
    30
100
AcDbCircle
 10
329.790719
 20
1082.674813
 30
0.0
 40
0.500003442275788
100
AcDbArc
 50
0.000394
 51
89.999606
  0
LINE
  5
189
330
123
100
AcDbEntity
  8
0
  6
Continuous
 62
     0
370
    30
100
AcDbLine
 10
329.790723
 20
1083.174816
 30
0.0
 11
325.790722
 21
1083.174816
 31
0.0
  0
LINE
  5
18A
330
123
100
AcDbEntity
  8
0
  6
Continuous
 62
     0
370
    30
100
AcDbLine
 10
288.290722
 20
1083.174816
 30
0.0
 11
304.790728
 21
1083.174816
 31
0.0
  0
LINE
  5
18B
330
123
100
AcDbEntity
  8
0
  6
Continuous
 62
     0
370
    30
100
AcDbLine
 10
308.790722
 20
1087.174816
 30
0.0
 11
308.790722
 21
1098.674816
 31
0.0
  0
ARC
  5
18C
330
123
100
AcDbEntity
  8
0
  6
Continuous
 62
     0
370
    30
100
AcDbCircle
 10
304.790703
 20
1087.174828
 30
0.0
 40
4.000019128004999
100
AcDbArc
 50
270.00035
 51
359.999828
  0
LINE
  5
18D
330
123
100
AcDbEntity
  8
0
  6
Continuous
 62
     0
370
    30
100
AcDbLine
 10
287.440725
 20
1071.674902
 30
0.0
 11
288.290722
 21
1071.674902
 31
0.0
  0
LINE
  5
18E
330
123
100
AcDbEntity
  8
0
  6
Continuous
 62
     0
370
    30
100
AcDbLine
 10
287.440725
 20
1055.674902
 30
0.0
 11
288.290722
 21
1055.674902
 31
0.0
  0
LINE
  5
18F
330
123
100
AcDbEntity
  8
0
  6
Continuous
 62
     0
370
    30
100
AcDbLine
 10
272.440727
 20
1203.674805
 30
0.0
 11
287.440727
 21
1203.674805
 31
0.0
  0
LINE
  5
190
330
123
100
AcDbEntity
  8
0
  6
Continuous
 62
     0
370
    30
100
AcDbLine
 10
272.440727
 20
1203.674805
 30
0.0
 11
272.440727
 21
1123.674805
 31
0.0
  0
LINE
  5
191
330
123
100
AcDbEntity
  8
0
  6
Continuous
 62
     0
370
    30
100
AcDbLine
 10
272.440727
 20
1123.674805
 30
0.0
 11
287.440727
 21
1123.674805
 31
0.0
  0
LINE
  5
192
330
123
100
AcDbEntity
  8
0
  6
Continuous
 62
     0
370
    30
100
AcDbLine
 10
287.440727
 20
1123.674805
 30
0.0
 11
287.440727
 21
1203.674805
 31
0.0
  0
ARC
  5
193
330
123
100
AcDbEntity
  8
0
  6
Continuous
 62
     0
370
    30
100
AcDbCircle
 10
325.790722
 20
1187.174816
 30
0.0
 40
4.000000000008519
100
AcDbArc
 50
180.0
 51
270.0
  0
LWPOLYLINE
  5
194
330
123
100
AcDbEntity
  8
0
  6
Continuous
 62
     0
370
     0
100
AcDbPolyline
 90
       34
 70
     0
 43
0.0
 10
321.79071
 20
1187.174805
 10
321.759003
 20
1187.151855
 10
321.665436
 20
1187.084961
 10
321.51239
 20
1186.977295
 10
321.303192
 20
1186.833496
 10
321.042206
 20
1186.659912
 10
320.733612
 20
1186.462891
 10
320.38092
 20
1186.249146
 10
319.987457
 20
1186.025513
 10
319.555481
 20
1185.79834
 10
319.086304
 20
1185.573853
 10
318.581329
 20
1185.359009
 10
318.042389
 20
1185.162109
 10
317.47168
 20
1184.991455
 10
316.873505
 20
1184.854126
 10
316.253113
 20
1184.756592
 10
315.618347
 20
1184.704834
 10
314.978668
 20
1184.704224
 10
314.343628
 20
1184.754761
 10
313.722809
 20
1184.851196
 10
313.124054
 20
1184.987671
 10
312.552765
 20
1185.157593
 10
312.013214
 20
1185.353882
 10
311.507477
 20
1185.568237
 10
311.03717
 20
1185.792358
 10
310.60376
 20
1186.019653
 10
310.208588
 20
1186.244019
 10
309.85434
 20
1186.458496
 10
309.545013
 20
1186.655762
 10
309.284485
 20
1186.828735
 10
309.075653
 20
1186.971924
 10
308.921234
 20
1187.080566
 10
308.824829
 20
1187.149902
 10
308.79071
 20
1187.174805
  0
LWPOLYLINE
  5
195
330
123
100
AcDbEntity
  8
0
  6
Continuous
 62
     0
370
     0
100
AcDbPolyline
 90
       43
 70
     0
 43
0.0
 10
304.790741
 20
1183.174805
 10
304.828735
 20
1183.160522
 10
304.940155
 20
1183.119263
 10
305.120239
 20
1183.053833
 10
305.364258
 20
1182.966797
 10
305.668121
 20
1182.86084
 10
306.027954
 20
1182.739014
 10
306.439545
 20
1182.604004
 10
306.897583
 20
1182.459717
 10
307.396484
 20
1182.309937
 10
307.931091
 20
1182.158447
 10
308.497955
 20
1182.008179
 10
309.093903
 20
1181.861938
 10
309.715881
 20
1181.722656
 10
310.360962
 20
1181.592896
 10
311.026276
 20
1181.475342
 10
311.708984
 20
1181.372192
 10
312.406189
 20
1181.285034
 10
313.115112
 20
1181.214966
 10
313.832855
 20
1181.16333
 10
314.556519
 20
1181.131226
 10
315.283173
 20
1181.120117
 10
316.009827
 20
1181.130737
 10
316.733551
 20
1181.162354
 10
317.451447
 20
1181.213623
 10
318.160522
 20
1181.283447
 10
318.857971
 20
1181.370361
 10
319.540985
 20
1181.473389
 10
320.206757
 20
1181.590942
 10
320.852386
 20
1181.720581
 10
321.475006
 20
1181.859741
 10
322.071594
 20
1182.005615
 10
322.639008
 20
1182.155518
 10
323.17395
 20
1182.306396
 10
323.672913
 20
1182.455688
 10
324.131378
 20
1182.599731
 10
324.544495
 20
1182.735107
 10
324.907349
 20
1182.858398
 10
325.214661
 20
1182.965942
 10
325.460968
 20
1183.054199
 10
325.641327
 20
1183.119751
 10
325.752197
 20
1183.160522
 10
325.79071
 20
1183.174805
  0
LINE
  5
196
330
123
100
AcDbEntity
  8
0
  6
Continuous
 62
     0
370
    30
100
AcDbLine
 10
321.790722
 20
1187.174816
 30
0.0
 11
321.790722
 21
1198.674816
 31
0.0
  0
LWPOLYLINE
  5
197
330
123
100
AcDbEntity
  8
0
  6
Continuous
 62
     0
370
     0
100
AcDbPolyline
 90
       30
 70
     0
 43
0.0
 10
321.79071
 20
1198.674805
 10
321.758606
 20
1198.674805
 10
321.657898
 20
1198.674805
 10
321.483124
 20
1198.674805
 10
321.230927
 20
1198.674805
 10
320.900574
 20
1198.674805
 10
320.494324
 20
1198.674805
 10
320.017517
 20
1198.674805
 10
319.478455
 20
1198.674805
 10
318.887817
 20
1198.674805
 10
318.258179
 20
1198.674805
 10
317.602936
 20
1198.674805
 10
316.935577
 20
1198.674805
 10
316.268738
 20
1198.674805
 10
315.6138
 20
1198.674805
 10
314.973999
 20
1198.674805
 10
314.319214
 20
1198.674805
 10
313.652466
 20
1198.674805
 10
312.985046
 20
1198.674805
 10
312.32962
 20
1198.674805
 10
311.699646
 20
1198.674805
 10
311.108582
 20
1198.674805
 10
310.568939
 20
1198.674805
 10
310.091492
 20
1198.674805
 10
309.684509
 20
1198.674805
 10
309.353394
 20
1198.674805
 10
309.100433
 20
1198.674805
 10
308.924896
 20
1198.674805
 10
308.823456
 20
1198.674805
 10
308.79071
 20
1198.674805
  0
LWPOLYLINE
  5
198
330
123
100
AcDbEntity
  8
0
  6
Continuous
 62
     0
370
    30
100
AcDbPolyline
 90
       29
 70
     0
 43
0.0
 10
309.29071
 20
1199.174805
 10
309.328369
 20
1199.174805
 10
309.440796
 20
1199.174805
 10
309.626556
 20
1199.174805
 10
309.883606
 20
1199.174805
 10
310.208252
 20
1199.174805
 10
310.59671
 20
1199.174805
 10
311.044189
 20
1199.174805
 10
311.544769
 20
1199.174805
 10
312.092438
 20
1199.174805
 10
312.680267
 20
1199.174805
 10
313.300751
 20
1199.174805
 10
313.946259
 20
1199.174805
 10
314.608643
 20
1199.174805
 10
315.279572
 20
1199.174805
 10
315.950592
 20
1199.174805
 10
316.613403
 20
1199.174805
 10
317.259613
 20
1199.174805
 10
317.881042
 20
1199.174805
 10
318.470093
 20
1199.174805
 10
319.019196
 20
1199.174805
 10
319.521454
 20
1199.174805
 10
319.970795
 20
1199.174805
 10
320.361298
 20
1199.174805
 10
320.688141
 20
1199.174805
 10
320.947449
 20
1199.174805
 10
321.135651
 20
1199.174805
 10
321.250519
 20
1199.174805
 10
321.29071
 20
1199.174805
  0
LINE
  5
199
330
123
100
AcDbEntity
  8
0
  6
Continuous
 62
     0
370
    30
100
AcDbLine
 10
288.290722
 20
1144.174816
 30
0.0
 11
313.390722
 21
1144.174816
 31
0.0
  0
LWPOLYLINE
  5
19A
330
123
100
AcDbEntity
  8
0
  6
Continuous
 62
     0
370
     0
100
AcDbPolyline
 90
       27
 70
     0
 43
0.0
 10
313.390717
 20
1144.174805
 10
313.428864
 20
1144.18457
 10
313.540161
 20
1144.213257
 10
313.724518
 20
1144.259277
 10
313.977386
 20
1144.319702
 10
314.29245
 20
1144.391602
 10
314.670929
 20
1144.470215
 10
315.107147
 20
1144.551147
 10
315.589111
 20
1144.630859
 10
316.112335
 20
1144.704102
 10
316.672821
 20
1144.766235
 10
317.26123
 20
1144.813232
 10
317.868286
 20
1144.84314
 10
318.484863
 20
1144.85376
 10
319.101532
 20
1144.843506
 10
319.708832
 20
1144.813965
 10
320.297699
 20
1144.767212
 10
320.858795
 20
1144.705444
 10
321.382782
 20
1144.632324
 10
321.865509
 20
1144.552734
 10
322.302704
 20
1144.47168
 10
322.682404
 20
1144.393066
 10
322.998627
 20
1144.321045
 10
323.252716
 20
1144.260254
 10
323.438416
 20
1144.213989
 10
323.551147
 20
1144.184937
 10
323.590729
 20
1144.174805
  0
LINE
  5
19B
330
123
100
AcDbEntity
  8
0
  6
Continuous
 62
     0
370
    30
100
AcDbLine
 10
323.590722
 20
1144.174816
 30
0.0
 11
329.790722
 21
1144.174816
 31
0.0
  0
LINE
  5
19C
330
123
100
AcDbEntity
  8
0
  6
Continuous
 62
     0
370
     0
100
AcDbLine
 10
329.790722
 20
1144.174816
 30
0.0
 11
329.790722
 21
1183.174816
 31
0.0
  0
LINE
  5
19D
330
123
100
AcDbEntity
  8
0
  6
Continuous
 62
     0
370
    30
100
AcDbLine
 10
288.290722
 20
1183.174816
 30
0.0
 11
288.290722
 21
1144.174816
 31
0.0
  0
LWPOLYLINE
  5
19E
330
123
100
AcDbEntity
  8
0
  6
Continuous
 62
     0
370
    30
100
AcDbPolyline
 90
       50
 70
     0
 43
0.0
 10
330.29071
 20
1182.674805
 10
330.29071
 20
1182.635864
 10
330.29071
 20
1182.518799
 10
330.29071
 20
1182.324585
 10
330.29071
 20
1182.053955
 10
330.29071
 20
1181.707642
 10
330.29071
 20
1181.287109
 10
330.29071
 20
1180.794189
 10
330.29071
 20
1180.231201
 10
330.29071
 20
1179.600464
 10
330.29071
 20
1178.904175
 10
330.29071
 20
1178.14502
 10
330.29071
 20
1177.326538
 10
330.29071
 20
1176.452026
 10
330.29071
 20
1175.525269
 10
330.29071
 20
1174.549805
 10
330.29071
 20
1173.529419
 10
330.29071
 20
1172.468628
 10
330.29071
 20
1171.371826
 10
330.29071
 20
1170.24353
 10
330.29071
 20
1169.088135
 10
330.29071
 20
1167.910522
 10
330.29071
 20
1166.715332
 10
330.29071
 20
1165.507812
 10
330.29071
 20
1164.292847
 10
330.29071
 20
1163.075317
 10
330.29071
 20
1161.860229
 10
330.29071
 20
1160.652466
 10
330.29071
 20
1159.457153
 10
330.29071
 20
1158.279175
 10
330.29071
 20
1157.123535
 10
330.29071
 20
1155.994751
 10
330.29071
 20
1154.897461
 10
330.29071
 20
1153.83606
 10
330.29071
 20
1152.814941
 10
330.29071
 20
1151.838745
 10
330.29071
 20
1150.911255
 10
330.29071
 20
1150.036011
 10
330.29071
 20
1149.216553
 10
330.29071
 20
1148.456543
 10
330.29071
 20
1147.759277
 10
330.29071
 20
1147.127563
 10
330.29071
 20
1146.563477
 10
330.29071
 20
1146.069458
 10
330.29071
 20
1145.647827
 10
330.29071
 20
1145.300415
 10
330.29071
 20
1145.028564
 10
330.29071
 20
1144.83313
 10
330.29071
 20
1144.714966
 10
330.29071
 20
1144.674805
  0
ARC
  5
19F
330
123
100
AcDbEntity
  8
0
  6
Continuous
 62
     0
370
    30
100
AcDbCircle
 10
329.790722
 20
1144.674816
 30
0.0
 40
0.5000000000209042
100
AcDbArc
 50
270.0
 51
360.0
  0
ARC
  5
1A0
330
123
100
AcDbEntity
  8
0
  6
Continuous
 62
     0
370
    30
100
AcDbCircle
 10
321.290722
 20
1198.674816
 30
0.0
 40
0.4999999999786837
100
AcDbArc
 50
360.0
 51
90.0
  0
LINE
  5
1A1
330
123
100
AcDbEntity
  8
0
  6
Continuous
 62
     0
370
    30
100
AcDbLine
 10
313.390722
 20
1144.174816
 30
0.0
 11
323.590722
 21
1144.174816
 31
0.0
  0
ARC
  5
1A2
330
123
100
AcDbEntity
  8
0
  6
Continuous
 62
     0
370
    30
100
AcDbCircle
 10
309.290726
 20
1198.674813
 30
0.0
 40
0.5000034422820976
100
AcDbArc
 50
90.000394
 51
179.999606
  0
ARC
  5
1A3
330
123
100
AcDbEntity
  8
0
  6
Continuous
 62
     0
370
    30
100
AcDbCircle
 10
329.790719
 20
1182.674813
 30
0.0
 40
0.5000034422827584
100
AcDbArc
 50
0.000394
 51
89.999606
  0
LINE
  5
1A4
330
123
100
AcDbEntity
  8
0
  6
Continuous
 62
     0
370
    30
100
AcDbLine
 10
329.790723
 20
1183.174816
 30
0.0
 11
325.790722
 21
1183.174816
 31
0.0
  0
LINE
  5
1A5
330
123
100
AcDbEntity
  8
0
  6
Continuous
 62
     0
370
    30
100
AcDbLine
 10
288.290722
 20
1183.174816
 30
0.0
 11
304.790728
 21
1183.174816
 31
0.0
  0
LINE
  5
1A6
330
123
100
AcDbEntity
  8
0
  6
Continuous
 62
     0
370
    30
100
AcDbLine
 10
308.790722
 20
1187.174816
 30
0.0
 11
308.790722
 21
1198.674816
 31
0.0
  0
ARC
  5
1A7
330
123
100
AcDbEntity
  8
0
  6
Continuous
 62
     0
370
    30
100
AcDbCircle
 10
304.790703
 20
1187.174828
 30
0.0
 40
4.000019128003123
100
AcDbArc
 50
270.00035
 51
359.999828
  0
LINE
  5
1A8
330
123
100
AcDbEntity
  8
0
  6
Continuous
 62
     0
370
    30
100
AcDbLine
 10
287.440725
 20
1171.674902
 30
0.0
 11
288.290722
 21
1171.674902
 31
0.0
  0
LINE
  5
1A9
330
123
100
AcDbEntity
  8
0
  6
Continuous
 62
     0
370
    30
100
AcDbLine
 10
287.440725
 20
1155.674902
 30
0.0
 11
288.290722
 21
1155.674902
 31
0.0
  0
ENDBLK
  5
1AB
330
123
100
AcDbEntity
  8
0
100
AcDbBlockEnd
  0
BLOCK
  5
234
330
1AD
100
AcDbEntity
  8
0
100
AcDbBlockBegin
  2
d
 70
     0
 10
-60.938568
 20
0.0
 30
0.0
  3
d
  1

  0
LINE
  5
1AE
330
1AD
100
AcDbEntity
  8
0
  6
Continuous
 62
     0
370
    30
100
AcDbLine
 10
-101.095507
 20
823.674927
 30
0.0
 11
-101.095507
 21
903.674927
 31
0.0
  0
LINE
  5
1AF
330
1AD
100
AcDbEntity
  8
0
  6
Continuous
 62
     0
370
    30
100
AcDbLine
 10
-101.095507
 20
903.674927
 30
0.0
 11
-116.095507
 21
903.674927
 31
0.0
  0
LINE
  5
1B0
330
1AD
100
AcDbEntity
  8
0
  6
Continuous
 62
     0
370
    30
100
AcDbLine
 10
-116.095507
 20
903.674927
 30
0.0
 11
-116.095507
 21
823.674927
 31
0.0
  0
LINE
  5
1B1
330
1AD
100
AcDbEntity
  8
0
  6
Continuous
 62
     0
370
    30
100
AcDbLine
 10
-116.095507
 20
823.674927
 30
0.0
 11
-101.095507
 21
823.674927
 31
0.0
  0
ARC
  5
1B2
330
1AD
100
AcDbEntity
  8
0
  6
Continuous
 62
     0
370
    30
100
AcDbCircle
 10
-154.445502
 20
887.174938
 30
0.0
 40
3.99999999999951
100
AcDbArc
 50
270.0
 51
360.0
  0
LWPOLYLINE
  5
1B3
330
1AD
100
AcDbEntity
  8
0
  6
Continuous
 62
     0
370
     0
100
AcDbPolyline
 90
       34
 70
     0
 43
0.0
 10
-137.445496
 20
887.174927
 10
-137.478119
 20
887.151062
 10
-137.57312
 20
887.082825
 10
-137.726196
 20
886.974976
 10
-137.933792
 20
886.832458
 10
-138.19313
 20
886.660217
 10
-138.501328
 20
886.46344
 10
-138.854584
 20
886.249207
 10
-139.24884
 20
886.025085
 10
-139.681381
 20
885.797852
 10
-140.150833
 20
885.573547
 10
-140.655762
 20
885.358887
 10
-141.194519
 20
885.162109
 10
-141.765121
 20
884.991455
 10
-142.363266
 20
884.854126
 10
-142.983658
 20
884.756653
 10
-143.618469
 20
884.704956
 10
-144.258148
 20
884.704346
 10
-144.893127
 20
884.755005
 10
-145.513947
 20
884.851562
 10
-146.112701
 20
884.987976
 10
-146.684113
 20
885.157898
 10
-147.223831
 20
885.354248
 10
-147.729599
 20
885.568726
 10
-148.199631
 20
885.79303
 10
-148.632507
 20
886.020264
 10
-149.026932
 20
886.244202
 10
-149.380646
 20
886.458252
 10
-149.690323
 20
886.655701
 10
-149.952408
 20
886.829834
 10
-150.162766
 20
886.974304
 10
-150.317154
 20
887.082764
 10
-150.412216
 20
887.150696
 10
-150.445496
 20
887.174927
  0
LWPOLYLINE
  5
1B4
330
1AD
100
AcDbEntity
  8
0
  6
Continuous
 62
     0
370
     0
100
AcDbPolyline
 90
       43
 70
     0
 43
0.0
 10
-154.445496
 20
883.174927
 10
-154.408493
 20
883.161194
 10
-154.299103
 20
883.120911
 10
-154.120239
 20
883.055847
 10
-153.87532
 20
882.968079
 10
-153.569366
 20
882.860962
 10
-153.207733
 20
882.738037
 10
-152.795685
 20
882.602844
 10
-152.33815
 20
882.458923
 10
-151.840027
 20
882.309814
 10
-151.305832
 20
882.158875
 10
-150.739105
 20
882.008972
 10
-150.143112
 20
881.862976
 10
-149.521057
 20
881.723633
 10
-148.8759
 20
881.593689
 10
-148.210541
 20
881.475952
 10
-147.527878
 20
881.37262
 10
-146.830719
 20
881.285278
 10
-146.121872
 20
881.215149
 10
-145.404175
 20
881.163452
 10
-144.680527
 20
881.13147
 10
-143.953903
 20
881.120361
 10
-143.227249
 20
881.130981
 10
-142.503494
 20
881.162537
 10
-141.785583
 20
881.213806
 10
-141.076462
 20
881.283386
 10
-140.378952
 20
881.370239
 10
-139.695923
 20
881.473022
 10
-139.030212
 20
881.590332
 10
-138.384659
 20
881.71991
 10
-137.762131
 20
881.859009
 10
-137.165543
 20
882.005066
 10
-136.597992
 20
882.155212
 10
-136.062622
 20
882.306702
 10
-135.562927
 20
882.456421
 10
-135.104019
 20
882.600769
 10
-134.691437
 20
882.735901
 10
-134.330505
 20
882.858093
 10
-134.025391
 20
882.964355
 10
-133.780014
 20
883.051941
 10
-133.598404
 20
883.117981
 10
-133.485321
 20
883.159912
 10
-133.445511
 20
883.174927
  0
LINE
  5
1B5
330
1AD
100
AcDbEntity
  8
0
  6
Continuous
 62
     0
370
    30
100
AcDbLine
 10
-150.445502
 20
887.174938
 30
0.0
 11
-150.445502
 21
898.674938
 31
0.0
  0
LINE
  5
1B6
330
1AD
100
AcDbEntity
  8
0
  6
Continuous
 62
     0
370
     0
100
AcDbLine
 10
-137.445502
 20
898.674938
 30
0.0
 11
-150.445502
 21
898.674938
 31
0.0
  0
LWPOLYLINE
  5
1B7
330
1AD
100
AcDbEntity
  8
0
  6
Continuous
 62
     0
370
    30
100
AcDbPolyline
 90
       29
 70
     0
 43
0.0
 10
-149.945496
 20
899.174927
 10
-149.907852
 20
899.174927
 10
-149.795425
 20
899.174927
 10
-149.60965
 20
899.174927
 10
-149.352631
 20
899.174927
 10
-149.027969
 20
899.174927
 10
-148.639526
 20
899.174927
 10
-148.192047
 20
899.174927
 10
-147.691437
 20
899.174927
 10
-147.143784
 20
899.174927
 10
-146.555939
 20
899.174927
 10
-145.935471
 20
899.174927
 10
-145.289963
 20
899.174927
 10
-144.627579
 20
899.174927
 10
-143.956665
 20
899.174927
 10
-143.285614
 20
899.174927
 10
-142.622818
 20
899.174927
 10
-141.976608
 20
899.174927
 10
-141.355179
 20
899.174927
 10
-140.766144
 20
899.174927
 10
-140.217026
 20
899.174927
 10
-139.714767
 20
899.174927
 10
-139.265427
 20
899.174927
 10
-138.874924
 20
899.174927
 10
-138.548096
 20
899.174927
 10
-138.288757
 20
899.174927
 10
-138.100586
 20
899.174927
 10
-137.985703
 20
899.174927
 10
-137.945496
 20
899.174927
  0
LINE
  5
1B8
330
1AD
100
AcDbEntity
  8
0
  6
Continuous
 62
     0
370
    30
100
AcDbLine
 10
-116.945502
 20
844.174938
 30
0.0
 11
-142.045502
 21
844.174938
 31
0.0
  0
LINE
  5
1B9
330
1AD
100
AcDbEntity
  8
0
  6
Continuous
 62
     0
370
    30
100
AcDbLine
 10
-152.245502
 20
844.174938
 30
0.0
 11
-158.445502
 21
844.174938
 31
0.0
  0
LINE
  5
1BA
330
1AD
100
AcDbEntity
  8
0
  6
Continuous
 62
     0
370
     0
100
AcDbLine
 10
-158.445502
 20
883.174938
 30
0.0
 11
-158.445502
 21
844.174938
 31
0.0
  0
LWPOLYLINE
  5
1BB
330
1AD
100
AcDbEntity
  8
0
  6
Continuous
 62
     0
370
     0
100
AcDbPolyline
 90
       27
 70
     0
 43
0.0
 10
-152.245499
 20
844.174927
 10
-152.207352
 20
844.184692
 10
-152.096024
 20
844.21344
 10
-151.911667
 20
844.259338
 10
-151.658798
 20
844.319824
 10
-151.343765
 20
844.391724
 10
-150.965256
 20
844.470337
 10
-150.529022
 20
844.551331
 10
-150.047073
 20
844.630981
 10
-149.52388
 20
844.704285
 10
-148.963379
 20
844.766296
 10
-148.374969
 20
844.813416
 10
-147.767914
 20
844.843262
 10
-147.151337
 20
844.853882
 10
-146.534668
 20
844.843628
 10
-145.927353
 20
844.814148
 10
-145.338501
 20
844.767334
 10
-144.777405
 20
844.705566
 10
-144.253403
 20
844.632446
 10
-143.770645
 20
844.552856
 10
-143.333466
 20
844.471863
 10
-142.953781
 20
844.393188
 10
-142.637589
 20
844.321106
 10
-142.383469
 20
844.260376
 10
-142.197754
 20
844.214172
 10
-142.085052
 20
844.185059
 10
-142.045502
 20
844.174927
  0
LINE
  5
1BC
330
1AD
100
AcDbEntity
  8
0
  6
Continuous
 62
     0
370
    30
100
AcDbLine
 10
-116.945502
 20
844.174938
 30
0.0
 11
-116.945502
 21
883.174938
 31
0.0
  0
LWPOLYLINE
  5
1BD
330
1AD
100
AcDbEntity
  8
0
  6
Continuous
 62
     0
370
    30
100
AcDbPolyline
 90
       50
 70
     0
 43
0.0
 10
-158.945496
 20
844.674927
 10
-158.945496
 20
844.713867
 10
-158.945496
 20
844.830933
 10
-158.945496
 20
845.025208
 10
-158.945496
 20
845.295837
 10
-158.945496
 20
845.642029
 10
-158.945496
 20
846.062683
 10
-158.945496
 20
846.555603
 10
-158.945496
 20
847.118591
 10
-158.945496
 20
847.749329
 10
-158.945496
 20
848.445557
 10
-158.945496
 20
849.204712
 10
-158.945496
 20
850.023254
 10
-158.945496
 20
850.897705
 10
-158.945496
 20
851.824463
 10
-158.945496
 20
852.799927
 10
-158.945496
 20
853.820312
 10
-158.945496
 20
854.881165
 10
-158.945496
 20
855.977966
 10
-158.945496
 20
857.106262
 10
-158.945496
 20
858.261597
 10
-158.945496
 20
859.43927
 10
-158.945496
 20
860.634399
 10
-158.945496
 20
861.841919
 10
-158.945496
 20
863.056946
 10
-158.945496
 20
864.274475
 10
-158.945496
 20
865.489563
 10
-158.945496
 20
866.697266
 10
-158.945496
 20
867.892578
 10
-158.945496
 20
869.070557
 10
-158.945496
 20
870.226257
 10
-158.945496
 20
871.355042
 10
-158.945496
 20
872.452332
 10
-158.945496
 20
873.513733
 10
-158.945496
 20
874.534729
 10
-158.945496
 20
875.510986
 10
-158.945496
 20
876.438477
 10
-158.945496
 20
877.313721
 10
-158.945496
 20
878.133179
 10
-158.945496
 20
878.89325
 10
-158.945496
 20
879.590454
 10
-158.945496
 20
880.222229
 10
-158.945496
 20
880.786255
 10
-158.945496
 20
881.280273
 10
-158.945496
 20
881.701965
 10
-158.945496
 20
882.049316
 10
-158.945496
 20
882.321167
 10
-158.945496
 20
882.516602
 10
-158.945496
 20
882.634766
 10
-158.945496
 20
882.674927
  0
ARC
  5
1BE
330
1AD
100
AcDbEntity
  8
0
  6
Continuous
 62
     0
370
    30
100
AcDbCircle
 10
-158.445502
 20
844.674938
 30
0.0
 40
0.4999999999957581
100
AcDbArc
 50
180.0
 51
270.0
  0
ARC
  5
1BF
330
1AD
100
AcDbEntity
  8
0
  6
Continuous
 62
     0
370
    30
100
AcDbCircle
 10
-149.945502
 20
898.674938
 30
0.0
 40
0.5000000000063309
100
AcDbArc
 50
90.0
 51
180.0
  0
LINE
  5
1C0
330
1AD
100
AcDbEntity
  8
0
  6
Continuous
 62
     0
370
    30
100
AcDbLine
 10
-142.045502
 20
844.174938
 30
0.0
 11
-152.245502
 21
844.174938
 31
0.0
  0
ARC
  5
1C1
330
1AD
100
AcDbEntity
  8
0
  6
Continuous
 62
     0
370
    30
100
AcDbCircle
 10
-137.945505
 20
898.674935
 30
0.0
 40
0.5000034422885564
100
AcDbArc
 50
0.000394
 51
89.999606
  0
ARC
  5
1C2
330
1AD
100
AcDbEntity
  8
0
  6
Continuous
 62
     0
370
    30
100
AcDbCircle
 10
-158.445498
 20
882.674935
 30
0.0
 40
0.5000034422854585
100
AcDbArc
 50
90.000394
 51
179.999606
  0
LINE
  5
1C3
330
1AD
100
AcDbEntity
  8
0
  6
Continuous
 62
     0
370
    30
100
AcDbLine
 10
-158.445502
 20
883.174938
 30
0.0
 11
-154.445502
 21
883.174938
 31
0.0
  0
LINE
  5
1C4
330
1AD
100
AcDbEntity
  8
0
  6
Continuous
 62
     0
370
    30
100
AcDbLine
 10
-116.945501
 20
883.174938
 30
0.0
 11
-133.445508
 21
883.174938
 31
0.0
  0
LINE
  5
1C5
330
1AD
100
AcDbEntity
  8
0
  6
Continuous
 62
     0
370
    30
100
AcDbLine
 10
-137.445502
 20
887.174938
 30
0.0
 11
-137.445502
 21
898.674938
 31
0.0
  0
ARC
  5
1C6
330
1AD
100
AcDbEntity
  8
0
  6
Continuous
 62
     0
370
    30
100
AcDbCircle
 10
-133.445483
 20
887.17495
 30
0.0
 40
4.000019128057338
100
AcDbArc
 50
180.000172
 51
269.99965
  0
LINE
  5
1C7
330
1AD
100
AcDbEntity
  8
0
  6
Continuous
 62
     0
370
    30
100
AcDbLine
 10
-116.095505
 20
871.675024
 30
0.0
 11
-116.945502
 21
871.675024
 31
0.0
  0
LINE
  5
1C8
330
1AD
100
AcDbEntity
  8
0
  6
Continuous
 62
     0
370
    30
100
AcDbLine
 10
-116.095505
 20
855.675024
 30
0.0
 11
-116.945502
 21
855.675024
 31
0.0
  0
LINE
  5
1C9
330
1AD
100
AcDbEntity
  8
0
  6
Continuous
 62
     0
370
    30
100
AcDbLine
 10
-101.095508
 20
684.674924
 30
0.0
 11
-115.595508
 21
684.674924
 31
0.0
  0
LINE
  5
1CA
330
1AD
100
AcDbEntity
  8
0
  6
Continuous
 62
     0
370
    30
100
AcDbLine
 10
-101.095508
 20
684.674924
 30
0.0
 11
-101.095508
 21
801.674924
 31
0.0
  0
LINE
  5
1CB
330
1AD
100
AcDbEntity
  8
0
  6
Continuous
 62
     0
370
    30
100
AcDbLine
 10
-101.095508
 20
801.674924
 30
0.0
 11
-115.595508
 21
801.674924
 31
0.0
  0
LINE
  5
1CC
330
1AD
100
AcDbEntity
  8
0
  6
Continuous
 62
     0
370
    30
100
AcDbLine
 10
-115.595508
 20
801.674924
 30
0.0
 11
-115.595508
 21
684.674924
 31
0.0
  0
LINE
  5
1CD
330
1AD
100
AcDbEntity
  8
0
  6
Continuous
 62
     0
370
    30
100
AcDbLine
 10
-115.595506
 20
762.674686
 30
0.0
 11
-118.515488
 21
762.674686
 31
0.0
  0
LINE
  5
1CE
330
1AD
100
AcDbEntity
  8
0
  6
Continuous
 62
     0
370
    30
100
AcDbLine
 10
-115.595506
 20
724.674686
 30
0.0
 11
-118.515488
 21
724.674686
 31
0.0
  0
LWPOLYLINE
  5
1CF
330
1AD
100
AcDbEntity
  8
0
  6
Continuous
 62
     0
370
    30
100
AcDbPolyline
 90
       22
 70
     0
 43
0.0
 10
-162.965485
 20
773.50415
 10
-162.927017
 20
773.50415
 10
-162.812576
 20
773.50415
 10
-162.624481
 20
773.50415
 10
-162.367249
 20
773.50415
 10
-162.046326
 20
773.50415
 10
-161.669037
 20
773.50415
 10
-161.243713
 20
773.50415
 10
-160.779892
 20
773.50415
 10
-160.287872
 20
773.50415
 10
-159.778625
 20
773.50415
 10
-159.263535
 20
773.50415
 10
-158.754044
 20
773.50415
 10
-158.261536
 20
773.50415
 10
-157.796982
 20
773.50415
 10
-157.370712
 20
773.50415
 10
-156.992294
 20
773.50415
 10
-156.670059
 20
773.50415
 10
-156.411377
 20
773.50415
 10
-156.221725
 20
773.50415
 10
-156.105652
 20
773.50415
 10
-156.065491
 20
773.50415
  0
LINE
  5
1D0
330
1AD
100
AcDbEntity
  8
0
  6
Continuous
 62
     0
370
    30
100
AcDbLine
 10
-162.965488
 20
773.504126
 30
0.0
 11
-163.465488
 21
773.004126
 31
0.0
  0
LWPOLYLINE
  5
1D1
330
1AD
100
AcDbEntity
  8
0
  6
Continuous
 62
     0
370
    30
100
AcDbPolyline
 90
       24
 70
     0
 43
0.0
 10
-163.465485
 20
773.00415
 10
-163.427994
 20
773.004211
 10
-163.317261
 20
773.004272
 10
-163.136566
 20
773.004456
 10
-162.889603
 20
773.004822
 10
-162.579681
 20
773.004944
 10
-162.211227
 20
773.004578
 10
-161.792175
 20
773.004211
 10
-161.331604
 20
773.00415
 10
-160.839096
 20
773.00415
 10
-160.322891
 20
773.004211
 10
-159.791336
 20
773.00415
 10
-159.254257
 20
773.00415
 10
-158.721939
 20
773.00415
 10
-158.204697
 20
773.00415
 10
-157.711349
 20
773.00415
 10
-157.25061
 20
773.00415
 10
-156.831955
 20
773.00415
 10
-156.464096
 20
773.00415
 10
-156.154205
 20
773.00415
 10
-155.905426
 20
773.00415
 10
-155.72084
 20
773.00415
 10
-155.605896
 20
773.00415
 10
-155.565491
 20
773.00415
  0
LWPOLYLINE
  5
1D2
330
1AD
100
AcDbEntity
  8
0
  6
Continuous
 62
     0
370
    30
100
AcDbPolyline
 90
       53
 70
     0
 43
0.0
 10
-168.515488
 20
722.174133
 10
-168.515488
 20
722.213257
 10
-168.515488
 20
722.330872
 10
-168.515488
 20
722.526245
 10
-168.515488
 20
722.798523
 10
-168.515488
 20
723.146912
 10
-168.515488
 20
723.570496
 10
-168.515488
 20
724.067566
 10
-168.515488
 20
724.635925
 10
-168.515488
 20
725.273438
 10
-168.515488
 20
725.977966
 10
-168.515488
 20
726.747314
 10
-168.515488
 20
727.578613
 10
-168.515488
 20
728.468567
 10
-168.515488
 20
729.413757
 10
-168.515488
 20
730.410828
 10
-168.515488
 20
731.456421
 10
-168.515488
 20
732.546753
 10
-168.515488
 20
733.677612
 10
-168.515488
 20
734.844849
 10
-168.515488
 20
736.044189
 10
-168.515488
 20
737.271362
 10
-168.515488
 20
738.521973
 10
-168.515488
 20
739.791443
 10
-168.515488
 20
741.075073
 10
-168.515488
 20
742.368103
 10
-168.515488
 20
743.665894
 10
-168.515488
 20
744.963684
 10
-168.515488
 20
746.256775
 10
-168.515488
 20
747.540527
 10
-168.515488
 20
748.810242
 10
-168.515488
 20
750.061157
 10
-168.515488
 20
751.288635
 10
-168.515488
 20
752.488342
 10
-168.515488
 20
753.656006
 10
-168.515488
 20
754.787415
 10
-168.515488
 20
755.878235
 10
-168.515488
 20
756.924438
 10
-168.515488
 20
757.922119
 10
-168.515488
 20
758.867981
 10
-168.515488
 20
759.758667
 10
-168.515488
 20
760.590759
 10
-168.515488
 20
761.360901
 10
-168.515488
 20
762.066284
 10
-168.515488
 20
762.704651
 10
-168.515488
 20
763.273926
 10
-168.515488
 20
763.771912
 10
-168.515488
 20
764.196472
 10
-168.515488
 20
764.545776
 10
-168.515488
 20
764.819031
 10
-168.515488
 20
765.015381
 10
-168.515488
 20
765.133972
 10
-168.515488
 20
765.174133
  0
LINE
  5
1D3
330
1AD
100
AcDbEntity
  8
0
  6
Continuous
 62
     0
370
    30
100
AcDbLine
 10
-168.515488
 20
722.174126
 30
0.0
 11
-168.015488
 21
721.674126
 31
0.0
  0
LINE
  5
1D4
330
1AD
100
AcDbEntity
  8
0
  6
Continuous
 62
     0
370
    30
100
AcDbLine
 10
-168.015488
 20
721.674126
 30
0.0
 11
-168.015488
 21
765.674126
 31
0.0
  0
LINE
  5
1D5
330
1AD
100
AcDbEntity
  8
0
  6
Continuous
 62
     0
370
    30
100
AcDbLine
 10
-154.765488
 20
721.674126
 30
0.0
 11
-118.515488
 21
721.674126
 31
0.0
  0
LINE
  5
1D6
330
1AD
100
AcDbEntity
  8
0
  6
Continuous
 62
     0
370
    30
100
AcDbLine
 10
-118.515488
 20
721.674126
 30
0.0
 11
-118.515488
 21
765.674126
 31
0.0
  0
LINE
  5
1D7
330
1AD
100
AcDbEntity
  8
0
  6
Continuous
 62
     0
370
    30
100
AcDbLine
 10
-164.265488
 20
721.674126
 30
0.0
 11
-168.015488
 21
721.674126
 31
0.0
  0
LWPOLYLINE
  5
1D8
330
1AD
100
AcDbEntity
  8
0
  6
Continuous
 62
     0
370
     0
100
AcDbPolyline
 90
       26
 70
     0
 43
0.0
 10
-164.265488
 20
721.674133
 10
-164.227722
 20
721.682251
 10
-164.113876
 20
721.706238
 10
-163.927658
 20
721.744324
 10
-163.674316
 20
721.794067
 10
-163.357635
 20
721.852661
 10
-162.976654
 20
721.915955
 10
-162.541245
 20
721.980469
 10
-162.061584
 20
722.042603
 10
-161.541138
 20
722.097961
 10
-160.986908
 20
722.142761
 10
-160.408951
 20
722.174316
 10
-159.816559
 20
722.190979
 10
-159.219299
 20
722.19104
 10
-158.626831
 20
722.1745
 10
-158.048706
 20
722.143066
 10
-157.494263
 20
722.098389
 10
-156.973495
 20
722.043091
 10
-156.4935
 20
721.981018
 10
-156.057693
 20
721.916504
 10
-155.676224
 20
721.85321
 10
-155.358994
 20
721.794556
 10
-155.105118
 20
721.74469
 10
-154.918304
 20
721.706543
 10
-154.803864
 20
721.682373
 10
-154.765488
 20
721.674133
  0
LWPOLYLINE
  5
1D9
330
1AD
100
AcDbEntity
  8
0
  6
Continuous
 62
     0
370
     0
100
AcDbPolyline
 90
       25
 70
     0
 43
0.0
 10
-155.415482
 20
765.674133
 10
-155.450165
 20
765.667664
 10
-155.555649
 20
765.648132
 10
-155.731659
 20
765.616699
 10
-155.972885
 20
765.576416
 10
-156.273605
 20
765.530212
 10
-156.627731
 20
765.481018
 10
-157.028198
 20
765.431641
 10
-157.46936
 20
765.385254
 10
-157.946335
 20
765.345459
 10
-158.450668
 20
765.315002
 10
-158.973236
 20
765.295654
 10
-159.505035
 20
765.288635
 10
-160.037033
 20
765.295105
 10
-160.560104
 20
765.314026
 10
-161.065292
 20
765.344116
 10
-161.543503
 20
765.383545
 10
-161.986267
 20
765.429749
 10
-162.388428
 20
765.479065
 10
-162.744431
 20
765.52832
 10
-163.047363
 20
765.574707
 10
-163.291061
 20
765.615295
 10
-163.469757
 20
765.647095
 10
-163.577942
 20
765.667114
 10
-163.615097
 20
765.674133
  0
LINE
  5
1DA
330
1AD
100
AcDbEntity
  8
0
  6
Continuous
 62
     0
370
    30
100
AcDbLine
 10
-163.465488
 20
765.674126
 30
0.0
 11
-163.465488
 21
773.004126
 31
0.0
  0
LWPOLYLINE
  5
1DB
330
1AD
100
AcDbEntity
  8
0
  6
Continuous
 62
     0
370
    30
100
AcDbPolyline
 90
       24
 70
     0
 43
0.0
 10
-163.465485
 20
765.674133
 10
-163.429001
 20
765.667419
 10
-163.319229
 20
765.648071
 10
-163.138657
 20
765.617737
 10
-162.890915
 20
765.578308
 10
-162.581146
 20
765.532654
 10
-162.21524
 20
765.484314
 10
-161.799179
 20
765.436829
 10
-161.340195
 20
765.393616
 10
-160.847107
 20
765.357605
 10
-160.328857
 20
765.331909
 10
-159.794754
 20
765.318787
 10
-159.255188
 20
765.318542
 10
-158.720749
 20
765.331238
 10
-158.201828
 20
765.356506
 10
-157.707748
 20
765.392212
 10
-157.247375
 20
765.435242
 10
-156.829514
 20
765.482605
 10
-156.461563
 20
765.530945
 10
-156.149719
 20
765.576782
 10
-155.900101
 20
765.616455
 10
-155.717697
 20
765.647095
 10
-155.605331
 20
765.666809
 10
-155.565491
 20
765.674133
  0
LINE
  5
1DC
330
1AD
100
AcDbEntity
  8
0
  6
Continuous
 62
     0
370
    30
100
AcDbLine
 10
-163.465488
 20
765.674126
 30
0.0
 11
-163.61509
 21
765.674126
 31
0.0
  0
LINE
  5
1DD
330
1AD
100
AcDbEntity
  8
0
  6
Continuous
 62
     0
370
    30
100
AcDbLine
 10
-155.565488
 20
773.004126
 30
0.0
 11
-155.565488
 21
765.674126
 31
0.0
  0
LINE
  5
1DE
330
1AD
100
AcDbEntity
  8
0
  6
Continuous
 62
     0
370
    30
100
AcDbLine
 10
-164.265488
 20
721.674126
 30
0.0
 11
-154.765488
 21
721.674126
 31
0.0
  0
LINE
  5
1DF
330
1AD
100
AcDbEntity
  8
0
  6
Continuous
 62
     0
370
    30
100
AcDbLine
 10
-118.515487
 20
765.674126
 30
0.0
 11
-155.415488
 21
765.674126
 31
0.0
  0
LINE
  5
1E0
330
1AD
100
AcDbEntity
  8
0
  6
Continuous
 62
     0
370
    30
100
AcDbLine
 10
-168.015488
 20
765.674126
 30
0.0
 11
-163.61509
 21
765.674126
 31
0.0
  0
LINE
  5
1E1
330
1AD
100
AcDbEntity
  8
0
  6
Continuous
 62
     0
370
    30
100
AcDbLine
 10
-168.515488
 20
765.174126
 30
0.0
 11
-168.015488
 21
765.674126
 31
0.0
  0
LINE
  5
1E2
330
1AD
100
AcDbEntity
  8
0
  6
Continuous
 62
     0
370
    30
100
AcDbLine
 10
-155.565488
 20
773.004126
 30
0.0
 11
-156.065488
 21
773.504126
 31
0.0
  0
LINE
  5
1E3
330
1AD
100
AcDbEntity
  8
0
  6
Continuous
 62
     0
370
    30
100
AcDbLine
 10
-101.095507
 20
923.674927
 30
0.0
 11
-101.095507
 21
1003.674927
 31
0.0
  0
LINE
  5
1E4
330
1AD
100
AcDbEntity
  8
0
  6
Continuous
 62
     0
370
    30
100
AcDbLine
 10
-101.095507
 20
1003.674927
 30
0.0
 11
-116.095507
 21
1003.674927
 31
0.0
  0
LINE
  5
1E5
330
1AD
100
AcDbEntity
  8
0
  6
Continuous
 62
     0
370
    30
100
AcDbLine
 10
-116.095507
 20
1003.674927
 30
0.0
 11
-116.095507
 21
923.674927
 31
0.0
  0
LINE
  5
1E6
330
1AD
100
AcDbEntity
  8
0
  6
Continuous
 62
     0
370
    30
100
AcDbLine
 10
-116.095507
 20
923.674927
 30
0.0
 11
-101.095507
 21
923.674927
 31
0.0
  0
ARC
  5
1E7
330
1AD
100
AcDbEntity
  8
0
  6
Continuous
 62
     0
370
    30
100
AcDbCircle
 10
-154.445502
 20
987.174938
 30
0.0
 40
3.999999999998629
100
AcDbArc
 50
270.0
 51
360.0
  0
LWPOLYLINE
  5
1E8
330
1AD
100
AcDbEntity
  8
0
  6
Continuous
 62
     0
370
     0
100
AcDbPolyline
 90
       34
 70
     0
 43
0.0
 10
-137.445496
 20
987.174927
 10
-137.478119
 20
987.151062
 10
-137.57312
 20
987.082825
 10
-137.726196
 20
986.974976
 10
-137.933792
 20
986.832458
 10
-138.19313
 20
986.660217
 10
-138.501328
 20
986.46344
 10
-138.854584
 20
986.249207
 10
-139.24884
 20
986.025085
 10
-139.681381
 20
985.797852
 10
-140.150833
 20
985.573547
 10
-140.655762
 20
985.358887
 10
-141.194519
 20
985.162109
 10
-141.765121
 20
984.991455
 10
-142.363266
 20
984.854126
 10
-142.983658
 20
984.756653
 10
-143.618469
 20
984.704956
 10
-144.258148
 20
984.704346
 10
-144.893127
 20
984.755005
 10
-145.513947
 20
984.851562
 10
-146.112701
 20
984.987976
 10
-146.684113
 20
985.157898
 10
-147.223831
 20
985.354248
 10
-147.729599
 20
985.568726
 10
-148.199631
 20
985.79303
 10
-148.632507
 20
986.020264
 10
-149.026932
 20
986.244202
 10
-149.380646
 20
986.458252
 10
-149.690323
 20
986.655701
 10
-149.952408
 20
986.829834
 10
-150.162766
 20
986.974304
 10
-150.317154
 20
987.082764
 10
-150.412216
 20
987.150696
 10
-150.445496
 20
987.174927
  0
LWPOLYLINE
  5
1E9
330
1AD
100
AcDbEntity
  8
0
  6
Continuous
 62
     0
370
     0
100
AcDbPolyline
 90
       43
 70
     0
 43
0.0
 10
-154.445496
 20
983.174927
 10
-154.408493
 20
983.161194
 10
-154.299103
 20
983.120911
 10
-154.120239
 20
983.055847
 10
-153.87532
 20
982.968079
 10
-153.569366
 20
982.860962
 10
-153.207733
 20
982.738037
 10
-152.795685
 20
982.602844
 10
-152.33815
 20
982.458923
 10
-151.840027
 20
982.309814
 10
-151.305832
 20
982.158875
 10
-150.739105
 20
982.008972
 10
-150.143112
 20
981.862976
 10
-149.521057
 20
981.723633
 10
-148.8759
 20
981.593689
 10
-148.210541
 20
981.475952
 10
-147.527878
 20
981.37262
 10
-146.830719
 20
981.285278
 10
-146.121872
 20
981.215149
 10
-145.404175
 20
981.163452
 10
-144.680527
 20
981.13147
 10
-143.953903
 20
981.120361
 10
-143.227249
 20
981.130981
 10
-142.503494
 20
981.162537
 10
-141.785583
 20
981.213806
 10
-141.076462
 20
981.283386
 10
-140.378952
 20
981.370239
 10
-139.695923
 20
981.473022
 10
-139.030212
 20
981.590332
 10
-138.384659
 20
981.71991
 10
-137.762131
 20
981.859009
 10
-137.165543
 20
982.005066
 10
-136.597992
 20
982.155212
 10
-136.062622
 20
982.306702
 10
-135.562927
 20
982.456421
 10
-135.104019
 20
982.600769
 10
-134.691437
 20
982.735901
 10
-134.330505
 20
982.858093
 10
-134.025391
 20
982.964355
 10
-133.780014
 20
983.051941
 10
-133.598404
 20
983.117981
 10
-133.485321
 20
983.159912
 10
-133.445511
 20
983.174927
  0
LINE
  5
1EA
330
1AD
100
AcDbEntity
  8
0
  6
Continuous
 62
     0
370
    30
100
AcDbLine
 10
-150.445502
 20
987.174938
 30
0.0
 11
-150.445502
 21
998.674938
 31
0.0
  0
LINE
  5
1EB
330
1AD
100
AcDbEntity
  8
0
  6
Continuous
 62
     0
370
     0
100
AcDbLine
 10
-137.445502
 20
998.674938
 30
0.0
 11
-150.445502
 21
998.674938
 31
0.0
  0
LWPOLYLINE
  5
1EC
330
1AD
100
AcDbEntity
  8
0
  6
Continuous
 62
     0
370
    30
100
AcDbPolyline
 90
       29
 70
     0
 43
0.0
 10
-149.945496
 20
999.174927
 10
-149.907852
 20
999.174927
 10
-149.795425
 20
999.174927
 10
-149.60965
 20
999.174927
 10
-149.352631
 20
999.174927
 10
-149.027969
 20
999.174927
 10
-148.639526
 20
999.174927
 10
-148.192047
 20
999.174927
 10
-147.691437
 20
999.174927
 10
-147.143784
 20
999.174927
 10
-146.555939
 20
999.174927
 10
-145.935471
 20
999.174927
 10
-145.289963
 20
999.174927
 10
-144.627579
 20
999.174927
 10
-143.956665
 20
999.174927
 10
-143.285614
 20
999.174927
 10
-142.622818
 20
999.174927
 10
-141.976608
 20
999.174927
 10
-141.355179
 20
999.174927
 10
-140.766144
 20
999.174927
 10
-140.217026
 20
999.174927
 10
-139.714767
 20
999.174927
 10
-139.265427
 20
999.174927
 10
-138.874924
 20
999.174927
 10
-138.548096
 20
999.174927
 10
-138.288757
 20
999.174927
 10
-138.100586
 20
999.174927
 10
-137.985703
 20
999.174927
 10
-137.945496
 20
999.174927
  0
LINE
  5
1ED
330
1AD
100
AcDbEntity
  8
0
  6
Continuous
 62
     0
370
    30
100
AcDbLine
 10
-116.945502
 20
944.174938
 30
0.0
 11
-142.045502
 21
944.174938
 31
0.0
  0
LINE
  5
1EE
330
1AD
100
AcDbEntity
  8
0
  6
Continuous
 62
     0
370
    30
100
AcDbLine
 10
-152.245502
 20
944.174938
 30
0.0
 11
-158.445502
 21
944.174938
 31
0.0
  0
LINE
  5
1EF
330
1AD
100
AcDbEntity
  8
0
  6
Continuous
 62
     0
370
     0
100
AcDbLine
 10
-158.445502
 20
983.174938
 30
0.0
 11
-158.445502
 21
944.174938
 31
0.0
  0
LWPOLYLINE
  5
1F0
330
1AD
100
AcDbEntity
  8
0
  6
Continuous
 62
     0
370
     0
100
AcDbPolyline
 90
       27
 70
     0
 43
0.0
 10
-152.245499
 20
944.174927
 10
-152.207352
 20
944.184692
 10
-152.096024
 20
944.21344
 10
-151.911667
 20
944.259338
 10
-151.658798
 20
944.319824
 10
-151.343765
 20
944.391724
 10
-150.965256
 20
944.470337
 10
-150.529022
 20
944.551331
 10
-150.047073
 20
944.630981
 10
-149.52388
 20
944.704285
 10
-148.963379
 20
944.766296
 10
-148.374969
 20
944.813416
 10
-147.767914
 20
944.843262
 10
-147.151337
 20
944.853882
 10
-146.534668
 20
944.843628
 10
-145.927353
 20
944.814148
 10
-145.338501
 20
944.767334
 10
-144.777405
 20
944.705566
 10
-144.253403
 20
944.632446
 10
-143.770645
 20
944.552856
 10
-143.333466
 20
944.471863
 10
-142.953781
 20
944.393188
 10
-142.637589
 20
944.321106
 10
-142.383469
 20
944.260376
 10
-142.197754
 20
944.214172
 10
-142.085052
 20
944.185059
 10
-142.045502
 20
944.174927
  0
LINE
  5
1F1
330
1AD
100
AcDbEntity
  8
0
  6
Continuous
 62
     0
370
    30
100
AcDbLine
 10
-116.945502
 20
944.174938
 30
0.0
 11
-116.945502
 21
983.174938
 31
0.0
  0
LWPOLYLINE
  5
1F2
330
1AD
100
AcDbEntity
  8
0
  6
Continuous
 62
     0
370
    30
100
AcDbPolyline
 90
       50
 70
     0
 43
0.0
 10
-158.945496
 20
944.674927
 10
-158.945496
 20
944.713867
 10
-158.945496
 20
944.830933
 10
-158.945496
 20
945.025208
 10
-158.945496
 20
945.295837
 10
-158.945496
 20
945.642029
 10
-158.945496
 20
946.062683
 10
-158.945496
 20
946.555603
 10
-158.945496
 20
947.118591
 10
-158.945496
 20
947.749329
 10
-158.945496
 20
948.445557
 10
-158.945496
 20
949.204712
 10
-158.945496
 20
950.023254
 10
-158.945496
 20
950.897705
 10
-158.945496
 20
951.824463
 10
-158.945496
 20
952.799927
 10
-158.945496
 20
953.820312
 10
-158.945496
 20
954.881165
 10
-158.945496
 20
955.977966
 10
-158.945496
 20
957.106262
 10
-158.945496
 20
958.261597
 10
-158.945496
 20
959.43927
 10
-158.945496
 20
960.634399
 10
-158.945496
 20
961.841919
 10
-158.945496
 20
963.056946
 10
-158.945496
 20
964.274475
 10
-158.945496
 20
965.489563
 10
-158.945496
 20
966.697266
 10
-158.945496
 20
967.892578
 10
-158.945496
 20
969.070557
 10
-158.945496
 20
970.226257
 10
-158.945496
 20
971.355042
 10
-158.945496
 20
972.452332
 10
-158.945496
 20
973.513733
 10
-158.945496
 20
974.534729
 10
-158.945496
 20
975.510986
 10
-158.945496
 20
976.438477
 10
-158.945496
 20
977.313721
 10
-158.945496
 20
978.133179
 10
-158.945496
 20
978.89325
 10
-158.945496
 20
979.590454
 10
-158.945496
 20
980.222229
 10
-158.945496
 20
980.786255
 10
-158.945496
 20
981.280273
 10
-158.945496
 20
981.701965
 10
-158.945496
 20
982.049316
 10
-158.945496
 20
982.321167
 10
-158.945496
 20
982.516602
 10
-158.945496
 20
982.634766
 10
-158.945496
 20
982.674927
  0
ARC
  5
1F3
330
1AD
100
AcDbEntity
  8
0
  6
Continuous
 62
     0
370
    30
100
AcDbCircle
 10
-158.445502
 20
944.674938
 30
0.0
 40
0.4999999999889511
100
AcDbArc
 50
180.0
 51
270.0
  0
ARC
  5
1F4
330
1AD
100
AcDbEntity
  8
0
  6
Continuous
 62
     0
370
    30
100
AcDbCircle
 10
-149.945502
 20
998.674938
 30
0.0
 40
0.4999999999987494
100
AcDbArc
 50
90.0
 51
180.0
  0
LINE
  5
1F5
330
1AD
100
AcDbEntity
  8
0
  6
Continuous
 62
     0
370
    30
100
AcDbLine
 10
-142.045502
 20
944.174938
 30
0.0
 11
-152.245502
 21
944.174938
 31
0.0
  0
ARC
  5
1F6
330
1AD
100
AcDbEntity
  8
0
  6
Continuous
 62
     0
370
    30
100
AcDbCircle
 10
-137.945505
 20
998.674935
 30
0.0
 40
0.5000034422743455
100
AcDbArc
 50
0.000394
 51
89.999606
  0
ARC
  5
1F7
330
1AD
100
AcDbEntity
  8
0
  6
Continuous
 62
     0
370
    30
100
AcDbCircle
 10
-158.445498
 20
982.674935
 30
0.0
 40
0.5000034422888762
100
AcDbArc
 50
90.000394
 51
179.999606
  0
LINE
  5
1F8
330
1AD
100
AcDbEntity
  8
0
  6
Continuous
 62
     0
370
    30
100
AcDbLine
 10
-158.445502
 20
983.174938
 30
0.0
 11
-154.445502
 21
983.174938
 31
0.0
  0
LINE
  5
1F9
330
1AD
100
AcDbEntity
  8
0
  6
Continuous
 62
     0
370
    30
100
AcDbLine
 10
-116.945501
 20
983.174938
 30
0.0
 11
-133.445508
 21
983.174938
 31
0.0
  0
LINE
  5
1FA
330
1AD
100
AcDbEntity
  8
0
  6
Continuous
 62
     0
370
    30
100
AcDbLine
 10
-137.445502
 20
987.174938
 30
0.0
 11
-137.445502
 21
998.674938
 31
0.0
  0
ARC
  5
1FB
330
1AD
100
AcDbEntity
  8
0
  6
Continuous
 62
     0
370
    30
100
AcDbCircle
 10
-133.445483
 20
987.17495
 30
0.0
 40
4.000019128057381
100
AcDbArc
 50
180.000172
 51
269.99965
  0
LINE
  5
1FC
330
1AD
100
AcDbEntity
  8
0
  6
Continuous
 62
     0
370
    30
100
AcDbLine
 10
-116.095505
 20
971.675024
 30
0.0
 11
-116.945502
 21
971.675024
 31
0.0
  0
LINE
  5
1FD
330
1AD
100
AcDbEntity
  8
0
  6
Continuous
 62
     0
370
    30
100
AcDbLine
 10
-116.095505
 20
955.675024
 30
0.0
 11
-116.945502
 21
955.675024
 31
0.0
  0
LINE
  5
1FE
330
1AD
100
AcDbEntity
  8
0
  6
Continuous
 62
     0
370
    30
100
AcDbLine
 10
-101.095507
 20
1023.674927
 30
0.0
 11
-101.095507
 21
1103.674927
 31
0.0
  0
LINE
  5
1FF
330
1AD
100
AcDbEntity
  8
0
  6
Continuous
 62
     0
370
    30
100
AcDbLine
 10
-101.095507
 20
1103.674927
 30
0.0
 11
-116.095507
 21
1103.674927
 31
0.0
  0
LINE
  5
200
330
1AD
100
AcDbEntity
  8
0
  6
Continuous
 62
     0
370
    30
100
AcDbLine
 10
-116.095507
 20
1103.674927
 30
0.0
 11
-116.095507
 21
1023.674927
 31
0.0
  0
LINE
  5
201
330
1AD
100
AcDbEntity
  8
0
  6
Continuous
 62
     0
370
    30
100
AcDbLine
 10
-116.095507
 20
1023.674927
 30
0.0
 11
-101.095507
 21
1023.674927
 31
0.0
  0
ARC
  5
202
330
1AD
100
AcDbEntity
  8
0
  6
Continuous
 62
     0
370
    30
100
AcDbCircle
 10
-154.445502
 20
1087.174938
 30
0.0
 40
4.000000000002778
100
AcDbArc
 50
270.0
 51
360.0
  0
LWPOLYLINE
  5
203
330
1AD
100
AcDbEntity
  8
0
  6
Continuous
 62
     0
370
     0
100
AcDbPolyline
 90
       34
 70
     0
 43
0.0
 10
-137.445496
 20
1087.174927
 10
-137.478119
 20
1087.151123
 10
-137.57312
 20
1087.082764
 10
-137.726196
 20
1086.974976
 10
-137.933792
 20
1086.83252
 10
-138.19313
 20
1086.660156
 10
-138.501328
 20
1086.463501
 10
-138.854584
 20
1086.249268
 10
-139.24884
 20
1086.025146
 10
-139.681381
 20
1085.797852
 10
-140.150833
 20
1085.573608
 10
-140.655762
 20
1085.358887
 10
-141.194519
 20
1085.162109
 10
-141.765121
 20
1084.991455
 10
-142.363266
 20
1084.854126
 10
-142.983658
 20
1084.756592
 10
-143.618469
 20
1084.704956
 10
-144.258148
 20
1084.704346
 10
-144.893127
 20
1084.755005
 10
-145.513947
 20
1084.851562
 10
-146.112701
 20
1084.988037
 10
-146.684113
 20
1085.157837
 10
-147.223831
 20
1085.354248
 10
-147.729599
 20
1085.568726
 10
-148.199631
 20
1085.792969
 10
-148.632507
 20
1086.020264
 10
-149.026932
 20
1086.244141
 10
-149.380646
 20
1086.458252
 10
-149.690323
 20
1086.655762
 10
-149.952408
 20
1086.829834
 10
-150.162766
 20
1086.974243
 10
-150.317154
 20
1087.082764
 10
-150.412216
 20
1087.150757
 10
-150.445496
 20
1087.174927
  0
LWPOLYLINE
  5
204
330
1AD
100
AcDbEntity
  8
0
  6
Continuous
 62
     0
370
     0
100
AcDbPolyline
 90
       43
 70
     0
 43
0.0
 10
-154.445496
 20
1083.174927
 10
-154.408493
 20
1083.161133
 10
-154.299103
 20
1083.12085
 10
-154.120239
 20
1083.055786
 10
-153.87532
 20
1082.96814
 10
-153.569366
 20
1082.860962
 10
-153.207733
 20
1082.738037
 10
-152.795685
 20
1082.602783
 10
-152.33815
 20
1082.458984
 10
-151.840027
 20
1082.309814
 10
-151.305832
 20
1082.158813
 10
-150.739105
 20
1082.008911
 10
-150.143112
 20
1081.862915
 10
-149.521057
 20
1081.723633
 10
-148.8759
 20
1081.59375
 10
-148.210541
 20
1081.475952
 10
-147.527878
 20
1081.372681
 10
-146.830719
 20
1081.285278
 10
-146.121872
 20
1081.215088
 10
-145.404175
 20
1081.163452
 10
-144.680527
 20
1081.13147
 10
-143.953903
 20
1081.120361
 10
-143.227249
 20
1081.130981
 10
-142.503494
 20
1081.162598
 10
-141.785583
 20
1081.213745
 10
-141.076462
 20
1081.283447
 10
-140.378952
 20
1081.370239
 10
-139.695923
 20
1081.473022
 10
-139.030212
 20
1081.590332
 10
-138.384659
 20
1081.719849
 10
-137.762131
 20
1081.859009
 10
-137.165543
 20
1082.005005
 10
-136.597992
 20
1082.155273
 10
-136.062622
 20
1082.306641
 10
-135.562927
 20
1082.456421
 10
-135.104019
 20
1082.60083
 10
-134.691437
 20
1082.735962
 10
-134.330505
 20
1082.858154
 10
-134.025391
 20
1082.964355
 10
-133.780014
 20
1083.05188
 10
-133.598404
 20
1083.118042
 10
-133.485321
 20
1083.159912
 10
-133.445511
 20
1083.174927
  0
LINE
  5
205
330
1AD
100
AcDbEntity
  8
0
  6
Continuous
 62
     0
370
    30
100
AcDbLine
 10
-150.445502
 20
1087.174938
 30
0.0
 11
-150.445502
 21
1098.674938
 31
0.0
  0
LINE
  5
206
330
1AD
100
AcDbEntity
  8
0
  6
Continuous
 62
     0
370
     0
100
AcDbLine
 10
-137.445502
 20
1098.674938
 30
0.0
 11
-150.445502
 21
1098.674938
 31
0.0
  0
LWPOLYLINE
  5
207
330
1AD
100
AcDbEntity
  8
0
  6
Continuous
 62
     0
370
    30
100
AcDbPolyline
 90
       29
 70
     0
 43
0.0
 10
-149.945496
 20
1099.174927
 10
-149.907852
 20
1099.174927
 10
-149.795425
 20
1099.174927
 10
-149.60965
 20
1099.174927
 10
-149.352631
 20
1099.174927
 10
-149.027969
 20
1099.174927
 10
-148.639526
 20
1099.174927
 10
-148.192047
 20
1099.174927
 10
-147.691437
 20
1099.174927
 10
-147.143784
 20
1099.174927
 10
-146.555939
 20
1099.174927
 10
-145.935471
 20
1099.174927
 10
-145.289963
 20
1099.174927
 10
-144.627579
 20
1099.174927
 10
-143.956665
 20
1099.174927
 10
-143.285614
 20
1099.174927
 10
-142.622818
 20
1099.174927
 10
-141.976608
 20
1099.174927
 10
-141.355179
 20
1099.174927
 10
-140.766144
 20
1099.174927
 10
-140.217026
 20
1099.174927
 10
-139.714767
 20
1099.174927
 10
-139.265427
 20
1099.174927
 10
-138.874924
 20
1099.174927
 10
-138.548096
 20
1099.174927
 10
-138.288757
 20
1099.174927
 10
-138.100586
 20
1099.174927
 10
-137.985703
 20
1099.174927
 10
-137.945496
 20
1099.174927
  0
LINE
  5
208
330
1AD
100
AcDbEntity
  8
0
  6
Continuous
 62
     0
370
    30
100
AcDbLine
 10
-116.945502
 20
1044.174938
 30
0.0
 11
-142.045502
 21
1044.174938
 31
0.0
  0
LINE
  5
209
330
1AD
100
AcDbEntity
  8
0
  6
Continuous
 62
     0
370
    30
100
AcDbLine
 10
-152.245502
 20
1044.174938
 30
0.0
 11
-158.445502
 21
1044.174938
 31
0.0
  0
LINE
  5
20A
330
1AD
100
AcDbEntity
  8
0
  6
Continuous
 62
     0
370
     0
100
AcDbLine
 10
-158.445502
 20
1083.174938
 30
0.0
 11
-158.445502
 21
1044.174938
 31
0.0
  0
LWPOLYLINE
  5
20B
330
1AD
100
AcDbEntity
  8
0
  6
Continuous
 62
     0
370
     0
100
AcDbPolyline
 90
       27
 70
     0
 43
0.0
 10
-152.245499
 20
1044.174927
 10
-152.207352
 20
1044.184692
 10
-152.096024
 20
1044.213379
 10
-151.911667
 20
1044.259399
 10
-151.658798
 20
1044.319824
 10
-151.343765
 20
1044.391724
 10
-150.965256
 20
1044.470337
 10
-150.529022
 20
1044.55127
 10
-150.047073
 20
1044.630981
 10
-149.52388
 20
1044.704346
 10
-148.963379
 20
1044.766357
 10
-148.374969
 20
1044.813354
 10
-147.767914
 20
1044.843262
 10
-147.151337
 20
1044.853882
 10
-146.534668
 20
1044.843628
 10
-145.927353
 20
1044.814087
 10
-145.338501
 20
1044.767334
 10
-144.777405
 20
1044.705566
 10
-144.253403
 20
1044.632446
 10
-143.770645
 20
1044.552856
 10
-143.333466
 20
1044.471802
 10
-142.953781
 20
1044.393188
 10
-142.637589
 20
1044.321167
 10
-142.383469
 20
1044.260376
 10
-142.197754
 20
1044.214111
 10
-142.085052
 20
1044.185059
 10
-142.045502
 20
1044.174927
  0
LINE
  5
20C
330
1AD
100
AcDbEntity
  8
0
  6
Continuous
 62
     0
370
    30
100
AcDbLine
 10
-116.945502
 20
1044.174938
 30
0.0
 11
-116.945502
 21
1083.174938
 31
0.0
  0
LWPOLYLINE
  5
20D
330
1AD
100
AcDbEntity
  8
0
  6
Continuous
 62
     0
370
    30
100
AcDbPolyline
 90
       50
 70
     0
 43
0.0
 10
-158.945496
 20
1044.674927
 10
-158.945496
 20
1044.713867
 10
-158.945496
 20
1044.830933
 10
-158.945496
 20
1045.025146
 10
-158.945496
 20
1045.295898
 10
-158.945496
 20
1045.64209
 10
-158.945496
 20
1046.062622
 10
-158.945496
 20
1046.555664
 10
-158.945496
 20
1047.11853
 10
-158.945496
 20
1047.749268
 10
-158.945496
 20
1048.445557
 10
-158.945496
 20
1049.204712
 10
-158.945496
 20
1050.023315
 10
-158.945496
 20
1050.897705
 10
-158.945496
 20
1051.824463
 10
-158.945496
 20
1052.799927
 10
-158.945496
 20
1053.820312
 10
-158.945496
 20
1054.881104
 10
-158.945496
 20
1055.977905
 10
-158.945496
 20
1057.106323
 10
-158.945496
 20
1058.261597
 10
-158.945496
 20
1059.439331
 10
-158.945496
 20
1060.634399
 10
-158.945496
 20
1061.841919
 10
-158.945496
 20
1063.056885
 10
-158.945496
 20
1064.274414
 10
-158.945496
 20
1065.489502
 10
-158.945496
 20
1066.697266
 10
-158.945496
 20
1067.892578
 10
-158.945496
 20
1069.070557
 10
-158.945496
 20
1070.226318
 10
-158.945496
 20
1071.35498
 10
-158.945496
 20
1072.452393
 10
-158.945496
 20
1073.513794
 10
-158.945496
 20
1074.53479
 10
-158.945496
 20
1075.510986
 10
-158.945496
 20
1076.438477
 10
-158.945496
 20
1077.313721
 10
-158.945496
 20
1078.133179
 10
-158.945496
 20
1078.893188
 10
-158.945496
 20
1079.590454
 10
-158.945496
 20
1080.222168
 10
-158.945496
 20
1080.786255
 10
-158.945496
 20
1081.280273
 10
-158.945496
 20
1081.702026
 10
-158.945496
 20
1082.049316
 10
-158.945496
 20
1082.321167
 10
-158.945496
 20
1082.516602
 10
-158.945496
 20
1082.634766
 10
-158.945496
 20
1082.674927
  0
ARC
  5
20E
330
1AD
100
AcDbEntity
  8
0
  6
Continuous
 62
     0
370
    30
100
AcDbCircle
 10
-158.445502
 20
1044.674938
 30
0.0
 40
0.4999999999970797
100
AcDbArc
 50
180.0
 51
270.0
  0
ARC
  5
20F
330
1AD
100
AcDbEntity
  8
0
  6
Continuous
 62
     0
370
    30
100
AcDbCircle
 10
-149.945502
 20
1098.674938
 30
0.0
 40
0.500000000020492
100
AcDbArc
 50
90.0
 51
180.0
  0
LINE
  5
210
330
1AD
100
AcDbEntity
  8
0
  6
Continuous
 62
     0
370
    30
100
AcDbLine
 10
-142.045502
 20
1044.174938
 30
0.0
 11
-152.245502
 21
1044.174938
 31
0.0
  0
ARC
  5
211
330
1AD
100
AcDbEntity
  8
0
  6
Continuous
 62
     0
370
    30
100
AcDbCircle
 10
-137.945505
 20
1098.674935
 30
0.0
 40
0.5000034422906596
100
AcDbArc
 50
0.000394
 51
89.999606
  0
ARC
  5
212
330
1AD
100
AcDbEntity
  8
0
  6
Continuous
 62
     0
370
    30
100
AcDbCircle
 10
-158.445498
 20
1082.674935
 30
0.0
 40
0.5000034422741394
100
AcDbArc
 50
90.000394
 51
179.999606
  0
LINE
  5
213
330
1AD
100
AcDbEntity
  8
0
  6
Continuous
 62
     0
370
    30
100
AcDbLine
 10
-158.445502
 20
1083.174938
 30
0.0
 11
-154.445502
 21
1083.174938
 31
0.0
  0
LINE
  5
214
330
1AD
100
AcDbEntity
  8
0
  6
Continuous
 62
     0
370
    30
100
AcDbLine
 10
-116.945501
 20
1083.174938
 30
0.0
 11
-133.445508
 21
1083.174938
 31
0.0
  0
LINE
  5
215
330
1AD
100
AcDbEntity
  8
0
  6
Continuous
 62
     0
370
    30
100
AcDbLine
 10
-137.445502
 20
1087.174938
 30
0.0
 11
-137.445502
 21
1098.674938
 31
0.0
  0
ARC
  5
216
330
1AD
100
AcDbEntity
  8
0
  6
Continuous
 62
     0
370
    30
100
AcDbCircle
 10
-133.445483
 20
1087.17495
 30
0.0
 40
4.000019128057814
100
AcDbArc
 50
180.000172
 51
269.99965
  0
LINE
  5
217
330
1AD
100
AcDbEntity
  8
0
  6
Continuous
 62
     0
370
    30
100
AcDbLine
 10
-116.095505
 20
1071.675024
 30
0.0
 11
-116.945502
 21
1071.675024
 31
0.0
  0
LINE
  5
218
330
1AD
100
AcDbEntity
  8
0
  6
Continuous
 62
     0
370
    30
100
AcDbLine
 10
-116.095505
 20
1055.675024
 30
0.0
 11
-116.945502
 21
1055.675024
 31
0.0
  0
LINE
  5
219
330
1AD
100
AcDbEntity
  8
0
  6
Continuous
 62
     0
370
    30
100
AcDbLine
 10
-101.095507
 20
1123.674927
 30
0.0
 11
-101.095507
 21
1203.674927
 31
0.0
  0
LINE
  5
21A
330
1AD
100
AcDbEntity
  8
0
  6
Continuous
 62
     0
370
    30
100
AcDbLine
 10
-101.095507
 20
1203.674927
 30
0.0
 11
-116.095507
 21
1203.674927
 31
0.0
  0
LINE
  5
21B
330
1AD
100
AcDbEntity
  8
0
  6
Continuous
 62
     0
370
    30
100
AcDbLine
 10
-116.095507
 20
1203.674927
 30
0.0
 11
-116.095507
 21
1123.674927
 31
0.0
  0
LINE
  5
21C
330
1AD
100
AcDbEntity
  8
0
  6
Continuous
 62
     0
370
    30
100
AcDbLine
 10
-116.095507
 20
1123.674927
 30
0.0
 11
-101.095507
 21
1123.674927
 31
0.0
  0
ARC
  5
21D
330
1AD
100
AcDbEntity
  8
0
  6
Continuous
 62
     0
370
    30
100
AcDbCircle
 10
-154.445502
 20
1187.174938
 30
0.0
 40
4.000000000002892
100
AcDbArc
 50
270.0
 51
360.0
  0
LWPOLYLINE
  5
21E
330
1AD
100
AcDbEntity
  8
0
  6
Continuous
 62
     0
370
     0
100
AcDbPolyline
 90
       34
 70
     0
 43
0.0
 10
-137.445496
 20
1187.174927
 10
-137.478119
 20
1187.151123
 10
-137.57312
 20
1187.082764
 10
-137.726196
 20
1186.974976
 10
-137.933792
 20
1186.83252
 10
-138.19313
 20
1186.660156
 10
-138.501328
 20
1186.463501
 10
-138.854584
 20
1186.249268
 10
-139.24884
 20
1186.025146
 10
-139.681381
 20
1185.797852
 10
-140.150833
 20
1185.573608
 10
-140.655762
 20
1185.358887
 10
-141.194519
 20
1185.162109
 10
-141.765121
 20
1184.991455
 10
-142.363266
 20
1184.854126
 10
-142.983658
 20
1184.756592
 10
-143.618469
 20
1184.704956
 10
-144.258148
 20
1184.704346
 10
-144.893127
 20
1184.755005
 10
-145.513947
 20
1184.851562
 10
-146.112701
 20
1184.988037
 10
-146.684113
 20
1185.157837
 10
-147.223831
 20
1185.354248
 10
-147.729599
 20
1185.568726
 10
-148.199631
 20
1185.792969
 10
-148.632507
 20
1186.020264
 10
-149.026932
 20
1186.244141
 10
-149.380646
 20
1186.458252
 10
-149.690323
 20
1186.655762
 10
-149.952408
 20
1186.829834
 10
-150.162766
 20
1186.974243
 10
-150.317154
 20
1187.082764
 10
-150.412216
 20
1187.150757
 10
-150.445496
 20
1187.174927
  0
LWPOLYLINE
  5
21F
330
1AD
100
AcDbEntity
  8
0
  6
Continuous
 62
     0
370
     0
100
AcDbPolyline
 90
       43
 70
     0
 43
0.0
 10
-154.445496
 20
1183.174927
 10
-154.408493
 20
1183.161133
 10
-154.299103
 20
1183.12085
 10
-154.120239
 20
1183.055786
 10
-153.87532
 20
1182.96814
 10
-153.569366
 20
1182.860962
 10
-153.207733
 20
1182.738037
 10
-152.795685
 20
1182.602783
 10
-152.33815
 20
1182.458984
 10
-151.840027
 20
1182.309814
 10
-151.305832
 20
1182.158813
 10
-150.739105
 20
1182.008911
 10
-150.143112
 20
1181.862915
 10
-149.521057
 20
1181.723633
 10
-148.8759
 20
1181.59375
 10
-148.210541
 20
1181.475952
 10
-147.527878
 20
1181.372681
 10
-146.830719
 20
1181.285278
 10
-146.121872
 20
1181.215088
 10
-145.404175
 20
1181.163452
 10
-144.680527
 20
1181.13147
 10
-143.953903
 20
1181.120361
 10
-143.227249
 20
1181.130981
 10
-142.503494
 20
1181.162598
 10
-141.785583
 20
1181.213745
 10
-141.076462
 20
1181.283447
 10
-140.378952
 20
1181.370239
 10
-139.695923
 20
1181.473022
 10
-139.030212
 20
1181.590332
 10
-138.384659
 20
1181.719849
 10
-137.762131
 20
1181.859009
 10
-137.165543
 20
1182.005005
 10
-136.597992
 20
1182.155273
 10
-136.062622
 20
1182.306641
 10
-135.562927
 20
1182.456421
 10
-135.104019
 20
1182.60083
 10
-134.691437
 20
1182.735962
 10
-134.330505
 20
1182.858154
 10
-134.025391
 20
1182.964355
 10
-133.780014
 20
1183.05188
 10
-133.598404
 20
1183.118042
 10
-133.485321
 20
1183.159912
 10
-133.445511
 20
1183.174927
  0
LINE
  5
220
330
1AD
100
AcDbEntity
  8
0
  6
Continuous
 62
     0
370
    30
100
AcDbLine
 10
-150.445502
 20
1187.174938
 30
0.0
 11
-150.445502
 21
1198.674938
 31
0.0
  0
LINE
  5
221
330
1AD
100
AcDbEntity
  8
0
  6
Continuous
 62
     0
370
     0
100
AcDbLine
 10
-137.445502
 20
1198.674938
 30
0.0
 11
-150.445502
 21
1198.674938
 31
0.0
  0
LWPOLYLINE
  5
222
330
1AD
100
AcDbEntity
  8
0
  6
Continuous
 62
     0
370
    30
100
AcDbPolyline
 90
       29
 70
     0
 43
0.0
 10
-149.945496
 20
1199.174927
 10
-149.907852
 20
1199.174927
 10
-149.795425
 20
1199.174927
 10
-149.60965
 20
1199.174927
 10
-149.352631
 20
1199.174927
 10
-149.027969
 20
1199.174927
 10
-148.639526
 20
1199.174927
 10
-148.192047
 20
1199.174927
 10
-147.691437
 20
1199.174927
 10
-147.143784
 20
1199.174927
 10
-146.555939
 20
1199.174927
 10
-145.935471
 20
1199.174927
 10
-145.289963
 20
1199.174927
 10
-144.627579
 20
1199.174927
 10
-143.956665
 20
1199.174927
 10
-143.285614
 20
1199.174927
 10
-142.622818
 20
1199.174927
 10
-141.976608
 20
1199.174927
 10
-141.355179
 20
1199.174927
 10
-140.766144
 20
1199.174927
 10
-140.217026
 20
1199.174927
 10
-139.714767
 20
1199.174927
 10
-139.265427
 20
1199.174927
 10
-138.874924
 20
1199.174927
 10
-138.548096
 20
1199.174927
 10
-138.288757
 20
1199.174927
 10
-138.100586
 20
1199.174927
 10
-137.985703
 20
1199.174927
 10
-137.945496
 20
1199.174927
  0
LINE
  5
223
330
1AD
100
AcDbEntity
  8
0
  6
Continuous
 62
     0
370
    30
100
AcDbLine
 10
-116.945502
 20
1144.174938
 30
0.0
 11
-142.045502
 21
1144.174938
 31
0.0
  0
LINE
  5
224
330
1AD
100
AcDbEntity
  8
0
  6
Continuous
 62
     0
370
    30
100
AcDbLine
 10
-152.245502
 20
1144.174938
 30
0.0
 11
-158.445502
 21
1144.174938
 31
0.0
  0
LINE
  5
225
330
1AD
100
AcDbEntity
  8
0
  6
Continuous
 62
     0
370
     0
100
AcDbLine
 10
-158.445502
 20
1183.174938
 30
0.0
 11
-158.445502
 21
1144.174938
 31
0.0
  0
LWPOLYLINE
  5
226
330
1AD
100
AcDbEntity
  8
0
  6
Continuous
 62
     0
370
     0
100
AcDbPolyline
 90
       27
 70
     0
 43
0.0
 10
-152.245499
 20
1144.174927
 10
-152.207352
 20
1144.184692
 10
-152.096024
 20
1144.213379
 10
-151.911667
 20
1144.259399
 10
-151.658798
 20
1144.319824
 10
-151.343765
 20
1144.391724
 10
-150.965256
 20
1144.470337
 10
-150.529022
 20
1144.55127
 10
-150.047073
 20
1144.630981
 10
-149.52388
 20
1144.704346
 10
-148.963379
 20
1144.766357
 10
-148.374969
 20
1144.813354
 10
-147.767914
 20
1144.843262
 10
-147.151337
 20
1144.853882
 10
-146.534668
 20
1144.843628
 10
-145.927353
 20
1144.814087
 10
-145.338501
 20
1144.767334
 10
-144.777405
 20
1144.705566
 10
-144.253403
 20
1144.632446
 10
-143.770645
 20
1144.552856
 10
-143.333466
 20
1144.471802
 10
-142.953781
 20
1144.393188
 10
-142.637589
 20
1144.321167
 10
-142.383469
 20
1144.260376
 10
-142.197754
 20
1144.214111
 10
-142.085052
 20
1144.185059
 10
-142.045502
 20
1144.174927
  0
LINE
  5
227
330
1AD
100
AcDbEntity
  8
0
  6
Continuous
 62
     0
370
    30
100
AcDbLine
 10
-116.945502
 20
1144.174938
 30
0.0
 11
-116.945502
 21
1183.174938
 31
0.0
  0
LWPOLYLINE
  5
228
330
1AD
100
AcDbEntity
  8
0
  6
Continuous
 62
     0
370
    30
100
AcDbPolyline
 90
       50
 70
     0
 43
0.0
 10
-158.945496
 20
1144.674927
 10
-158.945496
 20
1144.713867
 10
-158.945496
 20
1144.830933
 10
-158.945496
 20
1145.025146
 10
-158.945496
 20
1145.295898
 10
-158.945496
 20
1145.64209
 10
-158.945496
 20
1146.062622
 10
-158.945496
 20
1146.555664
 10
-158.945496
 20
1147.11853
 10
-158.945496
 20
1147.749268
 10
-158.945496
 20
1148.445557
 10
-158.945496
 20
1149.204712
 10
-158.945496
 20
1150.023315
 10
-158.945496
 20
1150.897705
 10
-158.945496
 20
1151.824463
 10
-158.945496
 20
1152.799927
 10
-158.945496
 20
1153.820312
 10
-158.945496
 20
1154.881104
 10
-158.945496
 20
1155.977905
 10
-158.945496
 20
1157.106323
 10
-158.945496
 20
1158.261597
 10
-158.945496
 20
1159.439331
 10
-158.945496
 20
1160.634399
 10
-158.945496
 20
1161.841919
 10
-158.945496
 20
1163.056885
 10
-158.945496
 20
1164.274414
 10
-158.945496
 20
1165.489502
 10
-158.945496
 20
1166.697266
 10
-158.945496
 20
1167.892578
 10
-158.945496
 20
1169.070557
 10
-158.945496
 20
1170.226318
 10
-158.945496
 20
1171.35498
 10
-158.945496
 20
1172.452393
 10
-158.945496
 20
1173.513794
 10
-158.945496
 20
1174.53479
 10
-158.945496
 20
1175.510986
 10
-158.945496
 20
1176.438477
 10
-158.945496
 20
1177.313721
 10
-158.945496
 20
1178.133179
 10
-158.945496
 20
1178.893188
 10
-158.945496
 20
1179.590454
 10
-158.945496
 20
1180.222168
 10
-158.945496
 20
1180.786255
 10
-158.945496
 20
1181.280273
 10
-158.945496
 20
1181.702026
 10
-158.945496
 20
1182.049316
 10
-158.945496
 20
1182.321167
 10
-158.945496
 20
1182.516602
 10
-158.945496
 20
1182.634766
 10
-158.945496
 20
1182.674927
  0
ARC
  5
229
330
1AD
100
AcDbEntity
  8
0
  6
Continuous
 62
     0
370
    30
100
AcDbCircle
 10
-158.445502
 20
1144.674938
 30
0.0
 40
0.500000000036728
100
AcDbArc
 50
180.0
 51
270.0
  0
ARC
  5
22A
330
1AD
100
AcDbEntity
  8
0
  6
Continuous
 62
     0
370
    30
100
AcDbCircle
 10
-149.945502
 20
1198.674938
 30
0.0
 40
0.5000000000009095
100
AcDbArc
 50
90.0
 51
180.0
  0
LINE
  5
22B
330
1AD
100
AcDbEntity
  8
0
  6
Continuous
 62
     0
370
    30
100
AcDbLine
 10
-142.045502
 20
1144.174938
 30
0.0
 11
-152.245502
 21
1144.174938
 31
0.0
  0
ARC
  5
22C
330
1AD
100
AcDbEntity
  8
0
  6
Continuous
 62
     0
370
    30
100
AcDbCircle
 10
-137.945505
 20
1198.674935
 30
0.0
 40
0.5000034422526596
100
AcDbArc
 50
0.000394
 51
89.999606
  0
ARC
  5
22D
330
1AD
100
AcDbEntity
  8
0
  6
Continuous
 62
     0
370
    30
100
AcDbCircle
 10
-158.445498
 20
1182.674935
 30
0.0
 40
0.5000034422315918
100
AcDbArc
 50
90.000394
 51
179.999606
  0
LINE
  5
22E
330
1AD
100
AcDbEntity
  8
0
  6
Continuous
 62
     0
370
    30
100
AcDbLine
 10
-158.445502
 20
1183.174938
 30
0.0
 11
-154.445502
 21
1183.174938
 31
0.0
  0
LINE
  5
22F
330
1AD
100
AcDbEntity
  8
0
  6
Continuous
 62
     0
370
    30
100
AcDbLine
 10
-116.945501
 20
1183.174938
 30
0.0
 11
-133.445508
 21
1183.174938
 31
0.0
  0
LINE
  5
230
330
1AD
100
AcDbEntity
  8
0
  6
Continuous
 62
     0
370
    30
100
AcDbLine
 10
-137.445502
 20
1187.174938
 30
0.0
 11
-137.445502
 21
1198.674938
 31
0.0
  0
ARC
  5
231
330
1AD
100
AcDbEntity
  8
0
  6
Continuous
 62
     0
370
    30
100
AcDbCircle
 10
-133.445483
 20
1187.17495
 30
0.0
 40
4.000019128062759
100
AcDbArc
 50
180.000172
 51
269.99965
  0
LINE
  5
232
330
1AD
100
AcDbEntity
  8
0
  6
Continuous
 62
     0
370
    30
100
AcDbLine
 10
-116.095505
 20
1171.675024
 30
0.0
 11
-116.945502
 21
1171.675024
 31
0.0
  0
LINE
  5
233
330
1AD
100
AcDbEntity
  8
0
  6
Continuous
 62
     0
370
    30
100
AcDbLine
 10
-116.095505
 20
1155.675024
 30
0.0
 11
-116.945502
 21
1155.675024
 31
0.0
  0
ENDBLK
  5
235
330
1AD
100
AcDbEntity
  8
0
100
AcDbBlockEnd
  0
ENDSEC
  0
SECTION
  2
ENTITIES
  0
INSERT
  5
EE
330
1F
100
AcDbEntity
  8
0
  6
Continuous
 62
     7
420
 16250871
370
     0
100
AcDbBlockReference
  2
a
 10
20.711779
 20
107.891479
 30
0.0
  0
INSERT
  5
122
330
1F
100
AcDbEntity
  8
0
  6
Continuous
 62
     7
420
 16250871
370
     0
100
AcDbBlockReference
  2
b
 10
20.711779
 20
516.963837
 30
0.0
  0
INSERT
  5
1AC
330
1F
100
AcDbEntity
  8
0
  6
Continuous
 62
     7
420
 16250871
370
     0
100
AcDbBlockReference
  2
c
 10
47.877184
 20
107.891479
 30
0.0
  0
INSERT
  5
236
330
1F
100
AcDbEntity
  8
0
  6
Continuous
 62
     7
420
 16250871
370
     0
100
AcDbBlockReference
  2
d
 10
-60.938568
 20
0.0
 30
0.0
  0
ENDSEC
  0
SECTION
  2
OBJECTS
  0
DICTIONARY
  5
C
330
0
100
AcDbDictionary
281
     1
  3
ACAD_DETAILVIEWSTYLE
350
26E
  3
ACAD_GROUP
350
D
  3
ACAD_LAYOUT
350
1A
  3
ACAD_MATERIAL
350
43
  3
ACAD_MLEADERSTYLE
350
6B
  3
ACAD_MLINESTYLE
350
17
  3
ACAD_PLOTSETTINGS
350
19
  3
ACAD_PLOTSTYLENAME
350
E
  3
ACAD_SCALELIST
350
47
  3
ACAD_SECTIONVIEWSTYLE
350
26F
  3
ACAD_TABLESTYLE
350
69
  3
ACAD_VISUALSTYLE
350
2A
  3
ACDB_RECOMPOSE_DATA
350
26B
  3
AcDbVariableDictionary
350
237
  0
SUN
  5
6D
330
29
100
AcDbSun
 90
        1
290
     0
 63
     7
421
 16777215
 40
1.0
291
     1
 91
  2455826
 92
 54000000
292
     0
 70
     2
 71
   256
280
     1
  0
DICTIONARY
  5
26E
102
{ACAD_REACTORS
330
C
102
}
330
C
100
AcDbDictionary
281
     1
  0
DICTIONARY
  5
D
102
{ACAD_REACTORS
330
C
102
}
330
C
100
AcDbDictionary
281
     1
  0
DICTIONARY
  5
1A
102
{ACAD_REACTORS
330
C
102
}
330
C
100
AcDbDictionary
281
     1
  3
Layout1
350
1E
  3
Layout2
350
26
  3
Model
350
22
  0
DICTIONARY
  5
43
102
{ACAD_REACTORS
330
C
102
}
330
C
100
AcDbDictionary
281
     1
  3
ByBlock
350
45
  3
ByLayer
350
44
  3
Global
350
46
  0
DICTIONARY
  5
6B
102
{ACAD_REACTORS
330
C
102
}
330
C
100
AcDbDictionary
281
     1
  3
Standard
350
6C
  0
DICTIONARY
  5
17
102
{ACAD_REACTORS
330
C
102
}
330
C
100
AcDbDictionary
281
     1
  3
Standard
350
18
  0
DICTIONARY
  5
19
102
{ACAD_REACTORS
330
C
102
}
330
C
100
AcDbDictionary
281
     1
  0
ACDBDICTIONARYWDFLT
  5
E
102
{ACAD_REACTORS
330
C
102
}
330
C
100
AcDbDictionary
281
     1
  3
Normal
350
F
100
AcDbDictionaryWithDefault
340
F
  0
DICTIONARY
  5
47
102
{ACAD_REACTORS
330
C
102
}
330
C
100
AcDbDictionary
281
     1
  3
A0
350
48
  3
A1
350
49
  3
A2
350
4A
  3
A3
350
4B
  3
A4
350
4C
  3
A5
350
4D
  3
A6
350
4E
  3
A7
350
4F
  3
A8
350
50
  3
A9
350
51
  3
B0
350
52
  3
B1
350
53
  3
B2
350
54
  3
B3
350
55
  3
B4
350
56
  3
B5
350
57
  3
B6
350
58
  3
B7
350
59
  3
B8
350
5A
  3
B9
350
5B
  3
C0
350
5C
  3
C1
350
5D
  3
C2
350
5E
  3
C3
350
5F
  3
C4
350
60
  3
C5
350
61
  3
C6
350
62
  3
C7
350
63
  3
C8
350
64
  3
C9
350
65
  3
D0
350
66
  3
D1
350
67
  3
D2
350
68
  0
DICTIONARY
  5
26F
102
{ACAD_REACTORS
330
C
102
}
330
C
100
AcDbDictionary
281
     1
  0
DICTIONARY
  5
69
102
{ACAD_REACTORS
330
C
102
}
330
C
100
AcDbDictionary
281
     1
  3
Standard
350
6A
  0
DICTIONARY
  5
2A
102
{ACAD_REACTORS
330
C
102
}
330
C
100
AcDbDictionary
281
     1
  3
2dWireframe
350
2F
  3
Basic
350
32
  3
Brighten
350
36
  3
ColorChange
350
3A
  3
Conceptual
350
34
  3
Dim
350
35
  3
EdgeColorOff
350
3D
  3
Facepattern
350
39
  3
Flat
350
2B
  3
FlatWithEdges
350
2C
  3
Gouraud
350
2D
  3
GouraudWithEdges
350
2E
  3
Hidden
350
31
  3
JitterOff
350
3B
  3
Linepattern
350
38
  3
OverhangOff
350
3C
  3
Realistic
350
33
  3
Shaded
350
42
  3
Shaded with edges
350
41
  3
Shades of Gray
350
3E
  3
Sketchy
350
3F
  3
Thicken
350
37
  3
Wireframe
350
30
  3
X-Ray
350
40
  0
XRECORD
  5
26B
102
{ACAD_REACTORS
330
C
102
}
330
C
100
AcDbXrecord
280
     1
 90
        1
330
6A
  0
DICTIONARY
  5
237
102
{ACAD_REACTORS
330
C
102
}
330
C
100
AcDbDictionary
281
     1
  3
CANNOSCALE
350
238
  3
CMLEADERSTYLE
350
26D
  3
CTABLESTYLE
350
26C
  0
LAYOUT
  5
1E
102
{ACAD_REACTORS
330
1A
102
}
330
1A
100
AcDbPlotSettings
  1

  2
none_device
  4

  6

 40
0.0
 41
0.0
 42
0.0
 43
0.0
 44
0.0
 45
0.0
 46
0.0
 47
0.0
 48
0.0
 49
0.0
140
0.0
141
0.0
142
1.0
143
1.0
 70
   688
 72
     1
 73
     0
 74
     5
  7

 75
    16
 76
     0
 77
     2
 78
   300
147
1.0
148
0.0
149
0.0
100
AcDbLayout
  1
Layout1
 70
     1
 71
     1
 10
0.0
 20
0.0
 11
420.0
 21
297.0
 12
0.0
 22
0.0
 32
0.0
 14
1.000000E+20
 24
1.000000E+20
 34
1.000000E+20
 15
-1.000000E+20
 25
-1.000000E+20
 35
-1.000000E+20
146
0.0
 13
0.0
 23
0.0
 33
0.0
 16
1.0
 26
0.0
 36
0.0
 17
0.0
 27
1.0
 37
0.0
 76
     0
330
1B
  0
LAYOUT
  5
26
102
{ACAD_REACTORS
330
1A
102
}
330
1A
100
AcDbPlotSettings
  1

  2
none_device
  4

  6

 40
0.0
 41
0.0
 42
0.0
 43
0.0
 44
0.0
 45
0.0
 46
0.0
 47
0.0
 48
0.0
 49
0.0
140
0.0
141
0.0
142
1.0
143
1.0
 70
   688
 72
     1
 73
     0
 74
     5
  7

 75
    16
 76
     0
 77
     2
 78
   300
147
1.0
148
0.0
149
0.0
100
AcDbLayout
  1
Layout2
 70
     1
 71
     2
 10
0.0
 20
0.0
 11
0.0
 21
0.0
 12
0.0
 22
0.0
 32
0.0
 14
0.0
 24
0.0
 34
0.0
 15
0.0
 25
0.0
 35
0.0
146
0.0
 13
0.0
 23
0.0
 33
0.0
 16
1.0
 26
0.0
 36
0.0
 17
0.0
 27
1.0
 37
0.0
 76
     0
330
23
  0
LAYOUT
  5
22
102
{ACAD_REACTORS
330
1A
102
}
330
1A
100
AcDbPlotSettings
  1

  2
none_device
  4
Letter_(8.50_x_11.00_Inches)
  6

 40
6.35
 41
6.35
 42
6.350005
 43
6.350005
 44
215.9
 45
279.4
 46
0.0
 47
0.0
 48
0.0
 49
0.0
140
0.0
141
0.0
142
1.0
143
1.0
 70
  1712
 72
     1
 73
     0
 74
     0
  7

 75
     0
 76
     0
 77
     2
 78
   300
147
1.0
148
0.0
149
0.0
100
AcDbLayout
  1
Model
 70
     1
 71
     0
 10
0.0
 20
0.0
 11
420.0
 21
297.0
 12
0.0
 22
0.0
 32
0.0
 14
1.000000E+20
 24
1.000000E+20
 34
1.000000E+20
 15
-1.000000E+20
 25
-1.000000E+20
 35
-1.000000E+20
146
0.0
 13
0.0
 23
0.0
 33
0.0
 16
1.0
 26
0.0
 36
0.0
 17
0.0
 27
1.0
 37
0.0
 76
     0
330
1F
331
29
  0
MATERIAL
  5
45
102
{ACAD_REACTORS
330
43
102
}
330
43
100
AcDbMaterial
  1
ByBlock
 72
     1
 94
      127
  0
MATERIAL
  5
44
102
{ACAD_REACTORS
330
43
102
}
330
43
100
AcDbMaterial
  1
ByLayer
 72
     1
 94
      127
  0
MATERIAL
  5
46
102
{ACAD_REACTORS
330
43
102
}
330
43
100
AcDbMaterial
  1
Global
 72
     1
 94
      127
  0
MLEADERSTYLE
  5
6C
102
{ACAD_REACTORS
330
6B
102
}
330
6B
100
AcDbMLeaderStyle
179
     2
170
     2
171
     1
172
     0
 90
        2
 40
0.0
 41
0.0
173
     1
 91
-1056964608
340
14
 92
       -2
290
     1
 42
2.0
291
     1
 43
8.0
  3
Standard
341
0
 44
4.0
300

342
11
174
     1
178
     6
175
     1
176
     0
 93
-1056964608
 45
4.0
292
     0
297
     0
 46
4.0
343
0
 94
-1056964608
 47
1.0
 49
1.0
140
1.0
293
     1
141
0.0
294
     1
177
     0
142
1.0
295
     0
296
     0
143
3.75
271
     0
272
     9
273
     9
  0
MLINESTYLE
  5
18
102
{ACAD_REACTORS
330
17
102
}
330
17
100
AcDbMlineStyle
  2
Standard
 70
     0
  3

 62
   256
 51
90.0
 52
90.0
 71
     2
 49
0.5
 62
   256
  6
BYLAYER
 49
-0.5
 62
   256
  6
BYLAYER
  0
ACDBPLACEHOLDER
  5
F
102
{ACAD_REACTORS
330
E
102
}
330
E
  0
SCALE
  5
48
102
{ACAD_REACTORS
330
47
102
}
330
47
100
AcDbScale
 70
     0
300
1:1
140
1.0
141
1.0
290
     1
  0
SCALE
  5
49
102
{ACAD_REACTORS
330
47
102
}
330
47
100
AcDbScale
 70
     0
300
1:2
140
1.0
141
2.0
290
     0
  0
SCALE
  5
4A
102
{ACAD_REACTORS
330
47
102
}
330
47
100
AcDbScale
 70
     0
300
1:4
140
1.0
141
4.0
290
     0
  0
SCALE
  5
4B
102
{ACAD_REACTORS
330
47
102
}
330
47
100
AcDbScale
 70
     0
300
1:5
140
1.0
141
5.0
290
     0
  0
SCALE
  5
4C
102
{ACAD_REACTORS
330
47
102
}
330
47
100
AcDbScale
 70
     0
300
1:8
140
1.0
141
8.0
290
     0
  0
SCALE
  5
4D
102
{ACAD_REACTORS
330
47
102
}
330
47
100
AcDbScale
 70
     0
300
1:10
140
1.0
141
10.0
290
     0
  0
SCALE
  5
4E
102
{ACAD_REACTORS
330
47
102
}
330
47
100
AcDbScale
 70
     0
300
1:16
140
1.0
141
16.0
290
     0
  0
SCALE
  5
4F
102
{ACAD_REACTORS
330
47
102
}
330
47
100
AcDbScale
 70
     0
300
1:20
140
1.0
141
20.0
290
     0
  0
SCALE
  5
50
102
{ACAD_REACTORS
330
47
102
}
330
47
100
AcDbScale
 70
     0
300
1:30
140
1.0
141
30.0
290
     0
  0
SCALE
  5
51
102
{ACAD_REACTORS
330
47
102
}
330
47
100
AcDbScale
 70
     0
300
1:40
140
1.0
141
40.0
290
     0
  0
SCALE
  5
52
102
{ACAD_REACTORS
330
47
102
}
330
47
100
AcDbScale
 70
     0
300
1:50
140
1.0
141
50.0
290
     0
  0
SCALE
  5
53
102
{ACAD_REACTORS
330
47
102
}
330
47
100
AcDbScale
 70
     0
300
1:100
140
1.0
141
100.0
290
     0
  0
SCALE
  5
54
102
{ACAD_REACTORS
330
47
102
}
330
47
100
AcDbScale
 70
     0
300
2:1
140
2.0
141
1.0
290
     0
  0
SCALE
  5
55
102
{ACAD_REACTORS
330
47
102
}
330
47
100
AcDbScale
 70
     0
300
4:1
140
4.0
141
1.0
290
     0
  0
SCALE
  5
56
102
{ACAD_REACTORS
330
47
102
}
330
47
100
AcDbScale
 70
     0
300
8:1
140
8.0
141
1.0
290
     0
  0
SCALE
  5
57
102
{ACAD_REACTORS
330
47
102
}
330
47
100
AcDbScale
 70
     0
300
10:1
140
10.0
141
1.0
290
     0
  0
SCALE
  5
58
102
{ACAD_REACTORS
330
47
102
}
330
47
100
AcDbScale
 70
     0
300
100:1
140
100.0
141
1.0
290
     0
  0
SCALE
  5
59
102
{ACAD_REACTORS
330
47
102
}
330
47
100
AcDbScale
 70
     0
300
1/128" = 1'-0"
140
0.007812
141
12.0
290
     0
  0
SCALE
  5
5A
102
{ACAD_REACTORS
330
47
102
}
330
47
100
AcDbScale
 70
     0
300
1/64" = 1'-0"
140
0.015625
141
12.0
290
     0
  0
SCALE
  5
5B
102
{ACAD_REACTORS
330
47
102
}
330
47
100
AcDbScale
 70
     0
300
1/32" = 1'-0"
140
0.03125
141
12.0
290
     0
  0
SCALE
  5
5C
102
{ACAD_REACTORS
330
47
102
}
330
47
100
AcDbScale
 70
     0
300
1/16" = 1'-0"
140
0.0625
141
12.0
290
     0
  0
SCALE
  5
5D
102
{ACAD_REACTORS
330
47
102
}
330
47
100
AcDbScale
 70
     0
300
3/32" = 1'-0"
140
0.09375
141
12.0
290
     0
  0
SCALE
  5
5E
102
{ACAD_REACTORS
330
47
102
}
330
47
100
AcDbScale
 70
     0
300
1/8" = 1'-0"
140
0.125
141
12.0
290
     0
  0
SCALE
  5
5F
102
{ACAD_REACTORS
330
47
102
}
330
47
100
AcDbScale
 70
     0
300
3/16" = 1'-0"
140
0.1875
141
12.0
290
     0
  0
SCALE
  5
60
102
{ACAD_REACTORS
330
47
102
}
330
47
100
AcDbScale
 70
     0
300
1/4" = 1'-0"
140
0.25
141
12.0
290
     0
  0
SCALE
  5
61
102
{ACAD_REACTORS
330
47
102
}
330
47
100
AcDbScale
 70
     0
300
3/8" = 1'-0"
140
0.375
141
12.0
290
     0
  0
SCALE
  5
62
102
{ACAD_REACTORS
330
47
102
}
330
47
100
AcDbScale
 70
     0
300
1/2" = 1'-0"
140
0.5
141
12.0
290
     0
  0
SCALE
  5
63
102
{ACAD_REACTORS
330
47
102
}
330
47
100
AcDbScale
 70
     0
300
3/4" = 1'-0"
140
0.75
141
12.0
290
     0
  0
SCALE
  5
64
102
{ACAD_REACTORS
330
47
102
}
330
47
100
AcDbScale
 70
     0
300
1" = 1'-0"
140
1.0
141
12.0
290
     0
  0
SCALE
  5
65
102
{ACAD_REACTORS
330
47
102
}
330
47
100
AcDbScale
 70
     0
300
1-1/2" = 1'-0"
140
1.5
141
12.0
290
     0
  0
SCALE
  5
66
102
{ACAD_REACTORS
330
47
102
}
330
47
100
AcDbScale
 70
     0
300
3" = 1'-0"
140
3.0
141
12.0
290
     0
  0
SCALE
  5
67
102
{ACAD_REACTORS
330
47
102
}
330
47
100
AcDbScale
 70
     0
300
6" = 1'-0"
140
6.0
141
12.0
290
     0
  0
SCALE
  5
68
102
{ACAD_REACTORS
330
47
102
}
330
47
100
AcDbScale
 70
     0
300
1'-0" = 1'-0"
140
12.0
141
12.0
290
     0
  0
TABLESTYLE
  5
6A
102
{ACAD_REACTORS
330
69
102
}
102
{ACAD_XDICTIONARY
360
269
102
}
330
69
100
AcDbTableStyle
  3
Standard
 70
     0
 71
     0
 40
0.06
 41
0.06
280
     0
281
     0
  7
Standard
140
4.5
170
     2
 62
     0
 63
   257
283
     0
 90
        4
 91
        0
  1

274
    -2
284
     1
 64
     0
275
    -2
285
     1
 65
     0
276
    -2
286
     1
 66
     0
277
    -2
287
     1
 67
     0
278
    -2
288
     1
 68
     0
279
    -2
289
     1
 69
     0
  7
Standard
140
6.0
170
     5
 62
     0
 63
   257
283
     0
 90
        4
 91
        0
  1

274
    -2
284
     1
 64
     0
275
    -2
285
     1
 65
     0
276
    -2
286
     1
 66
     0
277
    -2
287
     1
 67
     0
278
    -2
288
     1
 68
     0
279
    -2
289
     1
 69
     0
  7
Standard
140
4.5
170
     5
 62
     0
 63
   257
283
     0
 90
        4
 91
        0
  1

274
    -2
284
     1
 64
     0
275
    -2
285
     1
 65
     0
276
    -2
286
     1
 66
     0
277
    -2
287
     1
 67
     0
278
    -2
288
     1
 68
     0
279
    -2
289
     1
 69
     0
  0
VISUALSTYLE
  5
2F
102
{ACAD_REACTORS
330
2A
102
}
102
{ACAD_XDICTIONARY
360
241
102
}
330
2A
100
AcDbVisualStyle
  2
2dWireframe
 70
     4
177
     2
291
     0
 71
     0
176
     1
 72
     2
176
     1
 73
     0
176
     1
 90
        0
176
     1
 40
0.6
176
     1
 41
30.0
176
     1
 62
     5
 63
     7
421
 16777215
176
     1
 74
     1
176
     1
 91
        4
176
     1
 64
     7
176
     1
 65
   257
176
     1
 75
     1
176
     1
175
     1
176
     1
 42
1.0
176
     1
 92
        0
176
     1
 66
   257
176
     1
 43
1.0
176
     1
 76
     1
176
     1
 77
     6
176
     1
 78
     2
176
     1
 67
     7
176
     1
 79
     5
176
     1
170
     0
176
     1
171
     0
176
     1
290
     0
176
     1
 93
        1
176
     1
 44
0.0
176
     1
173
     0
176
     1
  0
VISUALSTYLE
  5
32
102
{ACAD_REACTORS
330
2A
102
}
102
{ACAD_XDICTIONARY
360
247
102
}
330
2A
100
AcDbVisualStyle
  2
Basic
 70
     7
177
     2
291
     1
 71
     1
176
     1
 72
     0
176
     1
 73
     1
176
     1
 90
        0
176
     1
 40
0.6
176
     1
 41
30.0
176
     1
 62
     5
 63
     7
421
 16777215
176
     1
 74
     0
176
     1
 91
        4
176
     1
 64
     7
176
     1
 65
   257
176
     1
 75
     1
176
     1
175
     1
176
     1
 42
1.0
176
     1
 92
        8
176
     1
 66
     7
176
     1
 43
1.0
176
     1
 76
     1
176
     1
 77
     6
176
     1
 78
     2
176
     1
 67
     7
176
     1
 79
     5
176
     1
170
     0
176
     1
171
     0
176
     1
290
     0
176
     1
 93
        1
176
     1
 44
0.0
176
     1
173
     0
176
     1
  0
VISUALSTYLE
  5
36
102
{ACAD_REACTORS
330
2A
102
}
102
{ACAD_XDICTIONARY
360
24F
102
}
330
2A
100
AcDbVisualStyle
  2
Brighten
 70
    12
177
     2
291
     1
 71
     2
176
     1
 72
     2
176
     1
 73
     0
176
     1
 90
        0
176
     1
 40
0.6
176
     1
 41
30.0
176
     1
 62
     5
 63
     7
421
 16777215
176
     1
 74
     1
176
     1
 91
        4
176
     1
 64
     7
176
     1
 65
   257
176
     1
 75
     1
176
     1
175
     1
176
     1
 42
1.0
176
     1
 92
        8
176
     1
 66
     7
176
     1
 43
1.0
176
     1
 76
     1
176
     1
 77
     6
176
     1
 78
     2
176
     1
 67
     7
176
     1
 79
     5
176
     1
170
     0
176
     1
171
     0
176
     1
290
     0
176
     1
 93
        1
176
     1
 44
50.0
176
     1
173
     0
176
     1
  0
VISUALSTYLE
  5
3A
102
{ACAD_REACTORS
330
2A
102
}
102
{ACAD_XDICTIONARY
360
257
102
}
330
2A
100
AcDbVisualStyle
  2
ColorChange
 70
    16
177
     2
291
     1
 71
     2
176
     1
 72
     2
176
     1
 73
     3
176
     1
 90
        0
176
     1
 40
0.6
176
     1
 41
30.0
176
     1
 62
     5
 63
     8
421
  8421504
176
     1
 74
     1
176
     1
 91
        4
176
     1
 64
     7
176
     1
 65
   257
176
     1
 75
     1
176
     1
175
     1
176
     1
 42
1.0
176
     1
 92
        8
176
     1
 66
     8
424
  8421504
176
     1
 43
1.0
176
     1
 76
     1
176
     1
 77
     6
176
     1
 78
     2
176
     1
 67
     7
176
     1
 79
     5
176
     1
170
     0
176
     1
171
     0
176
     1
290
     0
176
     1
 93
        1
176
     1
 44
0.0
176
     1
173
     0
176
     1
  0
VISUALSTYLE
  5
34
102
{ACAD_REACTORS
330
2A
102
}
102
{ACAD_XDICTIONARY
360
24B
102
}
330
2A
100
AcDbVisualStyle
  2
Conceptual
 70
     9
177
     2
291
     0
 71
     3
176
     1
 72
     2
176
     1
 73
     0
176
     1
 90
        0
176
     1
 40
0.6
176
     1
 41
30.0
176
     1
 62
     5
 63
     7
421
 16777215
176
     1
 74
     2
176
     1
 91
        2
176
     1
 64
     7
176
     1
 65
   257
176
     1
 75
     1
176
     1
175
     1
176
     1
 42
179.0
176
     1
 92
        8
176
     1
 66
     7
176
     1
 43
1.0
176
     1
 76
     1
176
     1
 77
     6
176
     1
 78
     2
176
     1
 67
     7
176
     1
 79
     3
176
     1
170
     0
176
     1
171
     0
176
     1
290
     0
176
     1
 93
        1
176
     1
 44
0.0
176
     1
173
     0
176
     1
  0
VISUALSTYLE
  5
35
102
{ACAD_REACTORS
330
2A
102
}
102
{ACAD_XDICTIONARY
360
24D
102
}
330
2A
100
AcDbVisualStyle
  2
Dim
 70
    11
177
     2
291
     1
 71
     2
176
     1
 72
     2
176
     1
 73
     0
176
     1
 90
        0
176
     1
 40
0.6
176
     1
 41
30.0
176
     1
 62
     5
 63
     7
421
 16777215
176
     1
 74
     1
176
     1
 91
        4
176
     1
 64
     7
176
     1
 65
   257
176
     1
 75
     1
176
     1
175
     1
176
     1
 42
1.0
176
     1
 92
        8
176
     1
 66
     7
176
     1
 43
1.0
176
     1
 76
     1
176
     1
 77
     6
176
     1
 78
     2
176
     1
 67
     7
176
     1
 79
     5
176
     1
170
     0
176
     1
171
     0
176
     1
290
     0
176
     1
 93
        1
176
     1
 44
-50.0
176
     1
173
     0
176
     1
  0
VISUALSTYLE
  5
3D
102
{ACAD_REACTORS
330
2A
102
}
102
{ACAD_XDICTIONARY
360
25D
102
}
330
2A
100
AcDbVisualStyle
  2
EdgeColorOff
 70
    22
177
     2
291
     1
 71
     2
176
     0
 72
     2
176
     0
 73
     0
176
     0
 90
        0
176
     0
 40
0.6
176
     0
 41
30.0
176
     0
 62
     5
 63
     7
421
 16777215
176
     0
 74
     1
176
     0
 91
        4
176
     0
 64
     7
176
     0
 65
   257
176
     0
 75
     1
176
     0
175
     1
176
     0
 42
1.0
176
     0
 92
        8
176
     2
 66
     7
176
     0
 43
1.0
176
     0
 76
     1
176
     0
 77
     6
176
     0
 78
     2
176
     0
 67
     7
176
     0
 79
     5
176
     0
170
     0
176
     0
171
     0
176
     0
290
     0
176
     0
 93
        1
176
     0
 44
0.0
176
     0
173
     0
176
     0
  0
VISUALSTYLE
  5
39
102
{ACAD_REACTORS
330
2A
102
}
102
{ACAD_XDICTIONARY
360
255
102
}
330
2A
100
AcDbVisualStyle
  2
Facepattern
 70
    15
177
     2
291
     1
 71
     2
176
     1
 72
     2
176
     1
 73
     0
176
     1
 90
        0
176
     1
 40
0.6
176
     1
 41
30.0
176
     1
 62
     5
 63
     7
421
 16777215
176
     1
 74
     1
176
     1
 91
        4
176
     1
 64
     7
176
     1
 65
   257
176
     1
 75
     1
176
     1
175
     1
176
     1
 42
1.0
176
     1
 92
        8
176
     1
 66
     7
176
     1
 43
1.0
176
     1
 76
     1
176
     1
 77
     6
176
     1
 78
     2
176
     1
 67
     7
176
     1
 79
     5
176
     1
170
     0
176
     1
171
     0
176
     1
290
     0
176
     1
 93
        1
176
     1
 44
0.0
176
     1
173
     0
176
     1
  0
VISUALSTYLE
  5
2B
102
{ACAD_REACTORS
330
2A
102
}
102
{ACAD_XDICTIONARY
360
239
102
}
330
2A
100
AcDbVisualStyle
  2
Flat
 70
     0
177
     2
291
     1
 71
     2
176
     1
 72
     1
176
     1
 73
     1
176
     1
 90
        2
176
     1
 40
0.6
176
     1
 41
30.0
176
     1
 62
     5
 63
     7
421
 16777215
176
     1
 74
     0
176
     1
 91
        0
176
     1
 64
     7
176
     1
 65
   257
176
     1
 75
     1
176
     1
175
     1
176
     1
 42
1.0
176
     1
 92
        8
176
     1
 66
     7
176
     1
 43
1.0
176
     1
 76
     1
176
     1
 77
     6
176
     1
 78
     2
176
     1
 67
     7
176
     1
 79
     5
176
     1
170
     0
176
     1
171
     0
176
     1
290
     0
176
     1
 93
       13
176
     1
 44
0.0
176
     1
173
     0
176
     1
  0
VISUALSTYLE
  5
2C
102
{ACAD_REACTORS
330
2A
102
}
102
{ACAD_XDICTIONARY
360
23B
102
}
330
2A
100
AcDbVisualStyle
  2
FlatWithEdges
 70
     1
177
     2
291
     1
 71
     2
176
     1
 72
     1
176
     1
 73
     1
176
     1
 90
        2
176
     1
 40
0.6
176
     1
 41
30.0
176
     1
 62
     5
 63
     7
421
 16777215
176
     1
 74
     1
176
     1
 91
        0
176
     1
 64
     7
176
     1
 65
   257
176
     1
 75
     1
176
     1
175
     1
176
     1
 42
1.0
176
     1
 92
        0
176
     1
 66
   257
176
     1
 43
1.0
176
     1
 76
     1
176
     1
 77
     6
176
     1
 78
     2
176
     1
 67
     7
176
     1
 79
     5
176
     1
170
     0
176
     1
171
     0
176
     1
290
     0
176
     1
 93
       13
176
     1
 44
0.0
176
     1
173
     0
176
     1
  0
VISUALSTYLE
  5
2D
102
{ACAD_REACTORS
330
2A
102
}
102
{ACAD_XDICTIONARY
360
23D
102
}
330
2A
100
AcDbVisualStyle
  2
Gouraud
 70
     2
177
     2
291
     1
 71
     2
176
     1
 72
     2
176
     1
 73
     1
176
     1
 90
        2
176
     1
 40
0.6
176
     1
 41
30.0
176
     1
 62
     5
 63
     7
421
 16777215
176
     1
 74
     0
176
     1
 91
        0
176
     1
 64
     7
176
     1
 65
   257
176
     1
 75
     1
176
     1
175
     1
176
     1
 42
1.0
176
     1
 92
        0
176
     1
 66
     7
176
     1
 43
1.0
176
     1
 76
     1
176
     1
 77
     6
176
     1
 78
     2
176
     1
 67
     7
176
     1
 79
     5
176
     1
170
     0
176
     1
171
     0
176
     1
290
     0
176
     1
 93
       13
176
     1
 44
0.0
176
     1
173
     0
176
     1
  0
VISUALSTYLE
  5
2E
102
{ACAD_REACTORS
330
2A
102
}
102
{ACAD_XDICTIONARY
360
23F
102
}
330
2A
100
AcDbVisualStyle
  2
GouraudWithEdges
 70
     3
177
     2
291
     1
 71
     2
176
     1
 72
     2
176
     1
 73
     1
176
     1
 90
        2
176
     1
 40
0.6
176
     1
 41
30.0
176
     1
 62
     5
 63
     7
421
 16777215
176
     1
 74
     1
176
     1
 91
        0
176
     1
 64
     7
176
     1
 65
   257
176
     1
 75
     1
176
     1
175
     1
176
     1
 42
1.0
176
     1
 92
        0
176
     1
 66
   257
176
     1
 43
1.0
176
     1
 76
     1
176
     1
 77
     6
176
     1
 78
     2
176
     1
 67
     7
176
     1
 79
     5
176
     1
170
     0
176
     1
171
     0
176
     1
290
     0
176
     1
 93
       13
176
     1
 44
0.0
176
     1
173
     0
176
     1
  0
VISUALSTYLE
  5
31
102
{ACAD_REACTORS
330
2A
102
}
102
{ACAD_XDICTIONARY
360
245
102
}
330
2A
100
AcDbVisualStyle
  2
Hidden
 70
     6
177
     2
291
     0
 71
     1
176
     1
 72
     2
176
     1
 73
     2
176
     1
 90
        0
176
     1
 40
0.6
176
     1
 41
30.0
176
     1
 62
     5
 63
     7
421
 16777215
176
     1
 74
     2
176
     1
 91
        2
176
     1
 64
     7
176
     1
 65
   257
176
     1
 75
     2
176
     1
175
     1
176
     1
 42
40.0
176
     1
 92
        0
176
     1
 66
   257
176
     1
 43
1.0
176
     1
 76
     1
176
     1
 77
     6
176
     1
 78
     2
176
     1
 67
     7
176
     1
 79
     3
176
     1
170
     0
176
     1
171
     0
176
     1
290
     0
176
     1
 93
        1
176
     1
 44
0.0
176
     1
173
     0
176
     1
  0
VISUALSTYLE
  5
3B
102
{ACAD_REACTORS
330
2A
102
}
102
{ACAD_XDICTIONARY
360
259
102
}
330
2A
100
AcDbVisualStyle
  2
JitterOff
 70
    20
177
     2
291
     1
 71
     2
176
     0
 72
     2
176
     0
 73
     0
176
     0
 90
        0
176
     0
 40
0.6
176
     0
 41
30.0
176
     0
 62
     5
 63
     7
421
 16777215
176
     0
 74
     1
176
     0
 91
        4
176
     0
 64
     7
176
     0
 65
   257
176
     0
 75
     1
176
     0
175
     1
176
     0
 42
1.0
176
     0
 92
       10
176
     2
 66
     7
176
     0
 43
1.0
176
     0
 76
     1
176
     0
 77
     6
176
     0
 78
     2
176
     0
 67
     7
176
     0
 79
     5
176
     0
170
     0
176
     0
171
     0
176
     0
290
     0
176
     0
 93
        1
176
     0
 44
0.0
176
     0
173
     0
176
     0
  0
VISUALSTYLE
  5
38
102
{ACAD_REACTORS
330
2A
102
}
102
{ACAD_XDICTIONARY
360
253
102
}
330
2A
100
AcDbVisualStyle
  2
Linepattern
 70
    14
177
     2
291
     1
 71
     2
176
     1
 72
     2
176
     1
 73
     0
176
     1
 90
        0
176
     1
 40
0.6
176
     1
 41
30.0
176
     1
 62
     5
 63
     7
421
 16777215
176
     1
 74
     1
176
     1
 91
        4
176
     1
 64
     7
176
     1
 65
   257
176
     1
 75
     7
176
     1
175
     7
176
     1
 42
1.0
176
     1
 92
        8
176
     1
 66
     7
176
     1
 43
1.0
176
     1
 76
     1
176
     1
 77
     6
176
     1
 78
     2
176
     1
 67
     7
176
     1
 79
     5
176
     1
170
     0
176
     1
171
     0
176
     1
290
     0
176
     1
 93
        1
176
     1
 44
0.0
176
     1
173
     0
176
     1
  0
VISUALSTYLE
  5
3C
102
{ACAD_REACTORS
330
2A
102
}
102
{ACAD_XDICTIONARY
360
25B
102
}
330
2A
100
AcDbVisualStyle
  2
OverhangOff
 70
    21
177
     2
291
     1
 71
     2
176
     0
 72
     2
176
     0
 73
     0
176
     0
 90
        0
176
     0
 40
0.6
176
     0
 41
30.0
176
     0
 62
     5
 63
     7
421
 16777215
176
     0
 74
     1
176
     0
 91
        4
176
     0
 64
     7
176
     0
 65
   257
176
     0
 75
     1
176
     0
175
     1
176
     0
 42
1.0
176
     0
 92
        9
176
     2
 66
     7
176
     0
 43
1.0
176
     0
 76
     1
176
     0
 77
     6
176
     0
 78
     2
176
     0
 67
     7
176
     0
 79
     5
176
     0
170
     0
176
     0
171
     0
176
     0
290
     0
176
     0
 93
        1
176
     0
 44
0.0
176
     0
173
     0
176
     0
  0
VISUALSTYLE
  5
33
102
{ACAD_REACTORS
330
2A
102
}
102
{ACAD_XDICTIONARY
360
249
102
}
330
2A
100
AcDbVisualStyle
  2
Realistic
 70
     8
177
     2
291
     0
 71
     2
176
     1
 72
     3
176
     1
 73
     0
176
     1
 90
        2
176
     1
 40
0.6
176
     1
 41
30.0
176
     1
 62
     5
 63
     7
421
 16777215
176
     1
 74
     0
176
     1
 91
        0
176
     1
 64
     7
176
     1
 65
   257
176
     1
 75
     1
176
     1
175
     1
176
     1
 42
1.0
176
     1
 92
        8
176
     1
 66
   257
176
     1
 43
1.0
176
     1
 76
     1
176
     1
 77
     6
176
     1
 78
     2
176
     1
 67
     7
176
     1
 79
     3
176
     1
170
     0
176
     1
171
     0
176
     1
290
     0
176
     1
 93
       13
176
     1
 44
0.0
176
     1
173
     0
176
     1
  0
VISUALSTYLE
  5
42
102
{ACAD_REACTORS
330
2A
102
}
102
{ACAD_XDICTIONARY
360
267
102
}
330
2A
100
AcDbVisualStyle
  2
Shaded
 70
    27
177
     2
291
     0
 71
     2
176
     1
 72
     2
176
     1
 73
     1
176
     1
 90
        2
176
     1
 40
0.6
176
     1
 41
30.0
176
     1
 62
     5
 63
     7
421
 16777215
176
     1
 74
     0
176
     1
 91
        4
176
     1
 64
     7
176
     1
 65
   257
176
     1
 75
     1
176
     1
175
     1
176
     1
 42
1.0
176
     1
 92
        8
176
     1
 66
   257
176
     1
 43
1.0
176
     1
 76
     1
176
     1
 77
     6
176
     1
 78
     2
176
     1
 67
     8
425
  7895160
176
     1
 79
     3
176
     1
170
     0
176
     1
171
     0
176
     1
290
     0
176
     1
 93
        5
176
     1
 44
0.0
176
     1
173
     0
176
     1
  0
VISUALSTYLE
  5
41
102
{ACAD_REACTORS
330
2A
102
}
102
{ACAD_XDICTIONARY
360
265
102
}
330
2A
100
AcDbVisualStyle
  2
Shaded with edges
 70
    26
177
     2
291
     0
 71
     2
176
     1
 72
     2
176
     1
 73
     1
176
     1
 90
        2
176
     1
 40
0.6
176
     1
 41
30.0
176
     1
 62
     5
 63
     7
421
 16777215
176
     1
 74
     1
176
     1
 91
       10
176
     1
 64
     7
176
     1
 65
   257
176
     1
 75
     2
176
     1
175
     1
176
     1
 42
1.0
176
     1
 92
        8
176
     1
 66
   257
176
     1
 43
1.0
176
     1
 76
     1
176
     1
 77
     6
176
     1
 78
     2
176
     1
 67
     7
176
     1
 79
     3
176
     1
170
     0
176
     1
171
     0
176
     1
290
     0
176
     1
 93
        5
176
     1
 44
0.0
176
     1
173
     0
176
     1
  0
VISUALSTYLE
  5
3E
102
{ACAD_REACTORS
330
2A
102
}
102
{ACAD_XDICTIONARY
360
25F
102
}
330
2A
100
AcDbVisualStyle
  2
Shades of Gray
 70
    23
177
     2
291
     0
 71
     2
176
     1
 72
     2
176
     1
 73
     3
176
     1
 90
        0
176
     1
 40
0.6
176
     1
 41
30.0
176
     1
 62
     5
 63
     7
421
 16777215
176
     1
 74
     2
176
     1
 91
        2
176
     1
 64
     7
176
     1
 65
     7
176
     1
 75
     1
176
     1
175
     1
176
     1
 42
40.0
176
     1
 92
        8
176
     1
 66
     7
176
     1
 43
1.0
176
     1
 76
     1
176
     1
 77
     6
176
     1
 78
     2
176
     1
 67
     7
176
     1
 79
     3
176
     1
170
     0
176
     1
171
     0
176
     1
290
     0
176
     1
 93
        1
176
     1
 44
0.0
176
     1
173
     0
176
     1
  0
VISUALSTYLE
  5
3F
102
{ACAD_REACTORS
330
2A
102
}
102
{ACAD_XDICTIONARY
360
261
102
}
330
2A
100
AcDbVisualStyle
  2
Sketchy
 70
    24
177
     2
291
     0
 71
     1
176
     1
 72
     2
176
     1
 73
     2
176
     1
 90
        0
176
     1
 40
0.6
176
     1
 41
30.0
176
     1
 62
     5
 63
     7
421
 16777215
176
     1
 74
     2
176
     1
 91
        2
176
     1
 64
     7
176
     1
 65
     7
176
     1
 75
     1
176
     1
175
     1
176
     1
 42
40.0
176
     1
 92
       11
176
     1
 66
     7
176
     1
 43
1.0
176
     1
 76
     1
176
     1
 77
     6
176
     1
 78
     2
176
     1
 67
     7
176
     1
 79
     6
176
     1
170
     0
176
     1
171
     0
176
     1
290
     0
176
     1
 93
        1
176
     1
 44
0.0
176
     1
173
     0
176
     1
  0
VISUALSTYLE
  5
37
102
{ACAD_REACTORS
330
2A
102
}
102
{ACAD_XDICTIONARY
360
251
102
}
330
2A
100
AcDbVisualStyle
  2
Thicken
 70
    13
177
     2
291
     1
 71
     2
176
     1
 72
     2
176
     1
 73
     0
176
     1
 90
        0
176
     1
 40
0.6
176
     1
 41
30.0
176
     1
 62
     5
 63
     7
421
 16777215
176
     1
 74
     1
176
     1
 91
        4
176
     1
 64
     7
176
     1
 65
   257
176
     1
 75
     1
176
     1
175
     1
176
     1
 42
1.0
176
     1
 92
       12
176
     1
 66
     7
176
     1
 43
1.0
176
     1
 76
     1
176
     1
 77
     6
176
     1
 78
     2
176
     1
 67
     7
176
     1
 79
     5
176
     1
170
     0
176
     1
171
     0
176
     1
290
     0
176
     1
 93
        1
176
     1
 44
0.0
176
     1
173
     0
176
     1
  0
VISUALSTYLE
  5
30
102
{ACAD_REACTORS
330
2A
102
}
102
{ACAD_XDICTIONARY
360
243
102
}
330
2A
100
AcDbVisualStyle
  2
Wireframe
 70
     5
177
     2
291
     0
 71
     0
176
     1
 72
     2
176
     1
 73
     0
176
     1
 90
        0
176
     1
 40
0.6
176
     1
 41
30.0
176
     1
 62
     5
 63
     7
421
 16777215
176
     1
 74
     1
176
     1
 91
        4
176
     1
 64
     7
176
     1
 65
   257
176
     1
 75
     1
176
     1
175
     1
176
     1
 42
1.0
176
     1
 92
        0
176
     1
 66
   257
176
     1
 43
1.0
176
     1
 76
     1
176
     1
 77
     6
176
     1
 78
     2
176
     1
 67
     7
176
     1
 79
     3
176
     1
170
     0
176
     1
171
     0
176
     1
290
     0
176
     1
 93
        1
176
     1
 44
0.0
176
     1
173
     0
176
     1
  0
VISUALSTYLE
  5
40
102
{ACAD_REACTORS
330
2A
102
}
102
{ACAD_XDICTIONARY
360
263
102
}
330
2A
100
AcDbVisualStyle
  2
X-Ray
 70
    25
177
     2
291
     0
 71
     2
176
     1
 72
     2
176
     1
 73
     1
176
     1
 90
        1
176
     1
 40
0.5
176
     1
 41
30.0
176
     1
 62
     5
 63
     7
421
 16777215
176
     1
 74
     1
176
     1
 91
        0
176
     1
 64
     7
176
     1
 65
   257
176
     1
 75
     1
176
     1
175
     1
176
     1
 42
1.0
176
     1
 92
        8
176
     1
 66
     7
176
     1
 43
1.0
176
     1
 76
     1
176
     1
 77
     6
176
     1
 78
     2
176
     1
 67
     7
176
     1
 79
     3
176
     1
170
     0
176
     1
171
     0
176
     1
290
     0
176
     1
 93
       13
176
     1
 44
0.0
176
     1
173
     0
176
     1
  0
DICTIONARYVAR
  5
238
102
{ACAD_REACTORS
330
237
102
}
330
237
100
DictionaryVariables
280
     0
  1
1:1
  0
DICTIONARYVAR
  5
26D
102
{ACAD_REACTORS
330
237
102
}
330
237
100
DictionaryVariables
280
     0
  1
Standard
  0
DICTIONARYVAR
  5
26C
102
{ACAD_REACTORS
330
237
102
}
330
237
100
DictionaryVariables
280
     0
  1
Standard
  0
DICTIONARY
  5
269
330
6A
100
AcDbDictionary
280
     1
281
     1
  3
ACAD_ROUNDTRIP_2008_TABLESTYLE_CELLSTYLEMAP
360
26A
  0
DICTIONARY
  5
241
330
2F
100
AcDbDictionary
280
     1
281
     1
  3
ACAD_XREC_ROUNDTRIP
360
242
  0
DICTIONARY
  5
247
330
32
100
AcDbDictionary
280
     1
281
     1
  3
ACAD_XREC_ROUNDTRIP
360
248
  0
DICTIONARY
  5
24F
330
36
100
AcDbDictionary
280
     1
281
     1
  3
ACAD_XREC_ROUNDTRIP
360
250
  0
DICTIONARY
  5
257
330
3A
100
AcDbDictionary
280
     1
281
     1
  3
ACAD_XREC_ROUNDTRIP
360
258
  0
DICTIONARY
  5
24B
330
34
100
AcDbDictionary
280
     1
281
     1
  3
ACAD_XREC_ROUNDTRIP
360
24C
  0
DICTIONARY
  5
24D
330
35
100
AcDbDictionary
280
     1
281
     1
  3
ACAD_XREC_ROUNDTRIP
360
24E
  0
DICTIONARY
  5
25D
330
3D
100
AcDbDictionary
280
     1
281
     1
  3
ACAD_XREC_ROUNDTRIP
360
25E
  0
DICTIONARY
  5
255
330
39
100
AcDbDictionary
280
     1
281
     1
  3
ACAD_XREC_ROUNDTRIP
360
256
  0
DICTIONARY
  5
239
330
2B
100
AcDbDictionary
280
     1
281
     1
  3
ACAD_XREC_ROUNDTRIP
360
23A
  0
DICTIONARY
  5
23B
330
2C
100
AcDbDictionary
280
     1
281
     1
  3
ACAD_XREC_ROUNDTRIP
360
23C
  0
DICTIONARY
  5
23D
330
2D
100
AcDbDictionary
280
     1
281
     1
  3
ACAD_XREC_ROUNDTRIP
360
23E
  0
DICTIONARY
  5
23F
330
2E
100
AcDbDictionary
280
     1
281
     1
  3
ACAD_XREC_ROUNDTRIP
360
240
  0
DICTIONARY
  5
245
330
31
100
AcDbDictionary
280
     1
281
     1
  3
ACAD_XREC_ROUNDTRIP
360
246
  0
DICTIONARY
  5
259
330
3B
100
AcDbDictionary
280
     1
281
     1
  3
ACAD_XREC_ROUNDTRIP
360
25A
  0
DICTIONARY
  5
253
330
38
100
AcDbDictionary
280
     1
281
     1
  3
ACAD_XREC_ROUNDTRIP
360
254
  0
DICTIONARY
  5
25B
330
3C
100
AcDbDictionary
280
     1
281
     1
  3
ACAD_XREC_ROUNDTRIP
360
25C
  0
DICTIONARY
  5
249
330
33
100
AcDbDictionary
280
     1
281
     1
  3
ACAD_XREC_ROUNDTRIP
360
24A
  0
DICTIONARY
  5
267
330
42
100
AcDbDictionary
280
     1
281
     1
  3
ACAD_XREC_ROUNDTRIP
360
268
  0
DICTIONARY
  5
265
330
41
100
AcDbDictionary
280
     1
281
     1
  3
ACAD_XREC_ROUNDTRIP
360
266
  0
DICTIONARY
  5
25F
330
3E
100
AcDbDictionary
280
     1
281
     1
  3
ACAD_XREC_ROUNDTRIP
360
260
  0
DICTIONARY
  5
261
330
3F
100
AcDbDictionary
280
     1
281
     1
  3
ACAD_XREC_ROUNDTRIP
360
262
  0
DICTIONARY
  5
251
330
37
100
AcDbDictionary
280
     1
281
     1
  3
ACAD_XREC_ROUNDTRIP
360
252
  0
DICTIONARY
  5
243
330
30
100
AcDbDictionary
280
     1
281
     1
  3
ACAD_XREC_ROUNDTRIP
360
244
  0
DICTIONARY
  5
263
330
40
100
AcDbDictionary
280
     1
281
     1
  3
ACAD_XREC_ROUNDTRIP
360
264
  0
CELLSTYLEMAP
  5
26A
102
{ACAD_REACTORS
330
269
102
}
330
269
100
AcDbCellStyleMap
 90
        3
300
CELLSTYLE
  1
TABLEFORMAT_BEGIN
 90
        5
170
     1
 91
        0
 92
    32768
 62
   257
 93
        1
300
CONTENTFORMAT
  1
CONTENTFORMAT_BEGIN
 90
        0
 91
        0
 92
        4
 93
        0
300

 40
0.0
140
1.0
 94
        5
 62
     0
340
11
144
6.0
309
CONTENTFORMAT_END
171
     1
301
MARGIN
  1
CELLMARGIN_BEGIN
 40
1.5
 40
1.5
 40
1.5
 40
1.5
 40
1.5
 40
1.5
309
CELLMARGIN_END
 94
        6
 95
        1
302
GRIDFORMAT
  1
GRIDFORMAT_BEGIN
 90
        0
 91
        1
 62
     0
 92
       -2
340
14
 93
        0
 40
0.045
309
GRIDFORMAT_END
 95
        2
302
GRIDFORMAT
  1
GRIDFORMAT_BEGIN
 90
        0
 91
        1
 62
     0
 92
       -2
340
14
 93
        0
 40
0.045
309
GRIDFORMAT_END
 95
        4
302
GRIDFORMAT
  1
GRIDFORMAT_BEGIN
 90
        0
 91
        1
 62
     0
 92
       -2
340
14
 93
        0
 40
0.045
309
GRIDFORMAT_END
 95
        8
302
GRIDFORMAT
  1
GRIDFORMAT_BEGIN
 90
        0
 91
        1
 62
     0
 92
       -2
340
14
 93
        0
 40
0.045
309
GRIDFORMAT_END
 95
       16
302
GRIDFORMAT
  1
GRIDFORMAT_BEGIN
 90
        0
 91
        1
 62
     0
 92
       -2
340
14
 93
        0
 40
0.045
309
GRIDFORMAT_END
 95
       32
302
GRIDFORMAT
  1
GRIDFORMAT_BEGIN
 90
        0
 91
        1
 62
     0
 92
       -2
340
14
 93
        0
 40
0.045
309
GRIDFORMAT_END
309
TABLEFORMAT_END
  1
CELLSTYLE_BEGIN
 90
        1
 91
        1
300
_TITLE
309
CELLSTYLE_END
300
CELLSTYLE
  1
TABLEFORMAT_BEGIN
 90
        5
170
     1
 91
        0
 92
        0
 62
   257
 93
        1
300
CONTENTFORMAT
  1
CONTENTFORMAT_BEGIN
 90
        0
 91
        0
 92
        4
 93
        0
300

 40
0.0
140
1.0
 94
        5
 62
     0
340
11
144
4.5
309
CONTENTFORMAT_END
171
     1
301
MARGIN
  1
CELLMARGIN_BEGIN
 40
1.5
 40
1.5
 40
1.5
 40
1.5
 40
1.5
 40
1.5
309
CELLMARGIN_END
 94
        6
 95
        1
302
GRIDFORMAT
  1
GRIDFORMAT_BEGIN
 90
        0
 91
        1
 62
     0
 92
       -2
340
14
 93
        0
 40
0.045
309
GRIDFORMAT_END
 95
        2
302
GRIDFORMAT
  1
GRIDFORMAT_BEGIN
 90
        0
 91
        1
 62
     0
 92
       -2
340
14
 93
        0
 40
0.045
309
GRIDFORMAT_END
 95
        4
302
GRIDFORMAT
  1
GRIDFORMAT_BEGIN
 90
        0
 91
        1
 62
     0
 92
       -2
340
14
 93
        0
 40
0.045
309
GRIDFORMAT_END
 95
        8
302
GRIDFORMAT
  1
GRIDFORMAT_BEGIN
 90
        0
 91
        1
 62
     0
 92
       -2
340
14
 93
        0
 40
0.045
309
GRIDFORMAT_END
 95
       16
302
GRIDFORMAT
  1
GRIDFORMAT_BEGIN
 90
        0
 91
        1
 62
     0
 92
       -2
340
14
 93
        0
 40
0.045
309
GRIDFORMAT_END
 95
       32
302
GRIDFORMAT
  1
GRIDFORMAT_BEGIN
 90
        0
 91
        1
 62
     0
 92
       -2
340
14
 93
        0
 40
0.045
309
GRIDFORMAT_END
309
TABLEFORMAT_END
  1
CELLSTYLE_BEGIN
 90
        2
 91
        1
300
_HEADER
309
CELLSTYLE_END
300
CELLSTYLE
  1
TABLEFORMAT_BEGIN
 90
        5
170
     1
 91
        0
 92
        0
 62
   257
 93
        1
300
CONTENTFORMAT
  1
CONTENTFORMAT_BEGIN
 90
        0
 91
        0
 92
        4
 93
        0
300

 40
0.0
140
1.0
 94
        2
 62
     0
340
11
144
4.5
309
CONTENTFORMAT_END
171
     1
301
MARGIN
  1
CELLMARGIN_BEGIN
 40
1.5
 40
1.5
 40
1.5
 40
1.5
 40
1.5
 40
1.5
309
CELLMARGIN_END
 94
        6
 95
        1
302
GRIDFORMAT
  1
GRIDFORMAT_BEGIN
 90
        0
 91
        1
 62
     0
 92
       -2
340
14
 93
        0
 40
0.045
309
GRIDFORMAT_END
 95
        2
302
GRIDFORMAT
  1
GRIDFORMAT_BEGIN
 90
        0
 91
        1
 62
     0
 92
       -2
340
14
 93
        0
 40
0.045
309
GRIDFORMAT_END
 95
        4
302
GRIDFORMAT
  1
GRIDFORMAT_BEGIN
 90
        0
 91
        1
 62
     0
 92
       -2
340
14
 93
        0
 40
0.045
309
GRIDFORMAT_END
 95
        8
302
GRIDFORMAT
  1
GRIDFORMAT_BEGIN
 90
        0
 91
        1
 62
     0
 92
       -2
340
14
 93
        0
 40
0.045
309
GRIDFORMAT_END
 95
       16
302
GRIDFORMAT
  1
GRIDFORMAT_BEGIN
 90
        0
 91
        1
 62
     0
 92
       -2
340
14
 93
        0
 40
0.045
309
GRIDFORMAT_END
 95
       32
302
GRIDFORMAT
  1
GRIDFORMAT_BEGIN
 90
        0
 91
        1
 62
     0
 92
       -2
340
14
 93
        0
 40
0.045
309
GRIDFORMAT_END
309
TABLEFORMAT_END
  1
CELLSTYLE_BEGIN
 90
        3
 91
        2
300
_DATA
309
CELLSTYLE_END
  0
XRECORD
  5
242
102
{ACAD_REACTORS
330
241
102
}
330
241
100
AcDbXrecord
280
     1
102
RTVSPost2010Prop28
280
     1
102
RTVSPost2010PropOp28
 70
     1
102
RTVSPost2010Prop29
280
     1
102
RTVSPost2010PropOp29
 70
     1
102
RTVSPost2010Prop30
280
     0
102
RTVSPost2010PropOp30
 70
     1
102
RTVSPost2010Prop31
280
     0
102
RTVSPost2010PropOp31
 70
     1
102
RTVSPost2010Prop32
280
     0
102
RTVSPost2010PropOp32
 70
     1
102
RTVSPost2010Prop33
280
     0
102
RTVSPost2010PropOp33
 70
     1
102
RTVSPost2010Prop34
280
     0
102
RTVSPost2010PropOp34
 70
     1
102
RTVSPost2010Prop35
280
     0
102
RTVSPost2010PropOp35
 70
     1
102
RTVSPost2010Prop36
280
     0
102
RTVSPost2010PropOp36
 70
     1
102
RTVSPost2010Prop37
 90
       50
102
RTVSPost2010PropOp37
 70
     1
102
RTVSPost2010Prop38
140
0.0
102
RTVSPost2010PropOp38
 70
     1
102
RTVSPost2010Prop39
140
1.0
102
RTVSPost2010PropOp39
 70
     1
102
RTVSPost2010Prop40
 90
        0
102
RTVSPost2010PropOp40
 70
     1
102
RTVSPost2010Prop41ColorIndex
 90
       18
102
RTVSPost2010Prop41ColorRGB
 90
        0
102
RTVSPost2010PropOp41
 70
     1
102
RTVSPost2010Prop42
 90
       50
102
RTVSPost2010PropOp42
 70
     1
102
RTVSPost2010Prop43
 90
        3
102
RTVSPost2010PropOp43
 70
     1
102
RTVSPost2010Prop44ColorIndex
 90
        5
102
RTVSPost2010Prop44ColorRGB
 90
      255
102
RTVSPost2010PropOp44
 70
     1
102
RTVSPost2010Prop45
280
     0
102
RTVSPost2010PropOp45
 70
     1
102
RTVSPost2010Prop46
 90
       50
102
RTVSPost2010PropOp46
 70
     1
102
RTVSPost2010Prop47
 90
       50
102
RTVSPost2010PropOp47
 70
     1
102
RTVSPost2010Prop48
 90
       50
102
RTVSPost2010PropOp48
 70
     1
102
RTVSPost2010Prop49
280
     0
102
RTVSPost2010PropOp49
 70
     1
102
RTVSPost2010Prop50
 90
       50
102
RTVSPost2010PropOp50
 70
     1
102
RTVSPost2010Prop51ColorIndex
 90
      256
102
RTVSPost2010Prop51ColorRGB
 90
-16777216
102
RTVSPost2010PropOp51
 70
     0
102
RTVSPost2010Prop52
140
1.0
102
RTVSPost2010PropOp52
 70
     0
102
RTVSPost2010Prop53
 90
        2
102
RTVSPost2010PropOp53
 70
     1
102
RTVSPost2010Prop54
  1
strokes_ogs.tif
102
RTVSPost2010PropOp54
 70
     1
102
RTVSPost2010Prop55
280
     0
102
RTVSPost2010PropOp55
 70
     1
102
RTVSPost2010Prop56
140
1.0
102
RTVSPost2010PropOp56
 70
     1
102
RTVSPost2010Prop57
140
1.0
102
RTVSPost2010PropOp57
 70
     1
  0
XRECORD
  5
248
102
{ACAD_REACTORS
330
247
102
}
330
247
100
AcDbXrecord
280
     1
102
RTVSPost2010Prop28
280
     0
102
RTVSPost2010PropOp28
 70
     1
102
RTVSPost2010Prop29
280
     1
102
RTVSPost2010PropOp29
 70
     1
102
RTVSPost2010Prop30
280
     1
102
RTVSPost2010PropOp30
 70
     1
102
RTVSPost2010Prop31
280
     0
102
RTVSPost2010PropOp31
 70
     1
102
RTVSPost2010Prop32
280
     0
102
RTVSPost2010PropOp32
 70
     1
102
RTVSPost2010Prop33
280
     0
102
RTVSPost2010PropOp33
 70
     1
102
RTVSPost2010Prop34
280
     0
102
RTVSPost2010PropOp34
 70
     1
102
RTVSPost2010Prop35
280
     0
102
RTVSPost2010PropOp35
 70
     1
102
RTVSPost2010Prop36
280
     0
102
RTVSPost2010PropOp36
 70
     1
102
RTVSPost2010Prop37
 90
       50
102
RTVSPost2010PropOp37
 70
     1
102
RTVSPost2010Prop38
140
0.0
102
RTVSPost2010PropOp38
 70
     1
102
RTVSPost2010Prop39
140
1.0
102
RTVSPost2010PropOp39
 70
     1
102
RTVSPost2010Prop40
 90
        0
102
RTVSPost2010PropOp40
 70
     1
102
RTVSPost2010Prop41ColorIndex
 90
       18
102
RTVSPost2010Prop41ColorRGB
 90
        0
102
RTVSPost2010PropOp41
 70
     1
102
RTVSPost2010Prop42
 90
       50
102
RTVSPost2010PropOp42
 70
     1
102
RTVSPost2010Prop43
 90
        3
102
RTVSPost2010PropOp43
 70
     1
102
RTVSPost2010Prop44ColorIndex
 90
        5
102
RTVSPost2010Prop44ColorRGB
 90
      255
102
RTVSPost2010PropOp44
 70
     1
102
RTVSPost2010Prop45
280
     0
102
RTVSPost2010PropOp45
 70
     1
102
RTVSPost2010Prop46
 90
       50
102
RTVSPost2010PropOp46
 70
     1
102
RTVSPost2010Prop47
 90
       50
102
RTVSPost2010PropOp47
 70
     1
102
RTVSPost2010Prop48
 90
       50
102
RTVSPost2010PropOp48
 70
     1
102
RTVSPost2010Prop49
280
     0
102
RTVSPost2010PropOp49
 70
     1
102
RTVSPost2010Prop50
 90
       50
102
RTVSPost2010PropOp50
 70
     1
102
RTVSPost2010Prop51ColorIndex
 90
      256
102
RTVSPost2010Prop51ColorRGB
 90
-16777216
102
RTVSPost2010PropOp51
 70
     0
102
RTVSPost2010Prop52
140
1.0
102
RTVSPost2010PropOp52
 70
     0
102
RTVSPost2010Prop53
 90
        2
102
RTVSPost2010PropOp53
 70
     1
102
RTVSPost2010Prop54
  1
strokes_ogs.tif
102
RTVSPost2010PropOp54
 70
     1
102
RTVSPost2010Prop55
280
     0
102
RTVSPost2010PropOp55
 70
     1
102
RTVSPost2010Prop56
140
1.0
102
RTVSPost2010PropOp56
 70
     1
102
RTVSPost2010Prop57
140
1.0
102
RTVSPost2010PropOp57
 70
     1
  0
XRECORD
  5
250
102
{ACAD_REACTORS
330
24F
102
}
330
24F
100
AcDbXrecord
280
     1
102
RTVSPost2010Prop28
280
     0
102
RTVSPost2010PropOp28
 70
     1
102
RTVSPost2010Prop29
280
     1
102
RTVSPost2010PropOp29
 70
     1
102
RTVSPost2010Prop30
280
     1
102
RTVSPost2010PropOp30
 70
     1
102
RTVSPost2010Prop31
280
     0
102
RTVSPost2010PropOp31
 70
     1
102
RTVSPost2010Prop32
280
     0
102
RTVSPost2010PropOp32
 70
     1
102
RTVSPost2010Prop33
280
     0
102
RTVSPost2010PropOp33
 70
     1
102
RTVSPost2010Prop34
280
     0
102
RTVSPost2010PropOp34
 70
     1
102
RTVSPost2010Prop35
280
     0
102
RTVSPost2010PropOp35
 70
     1
102
RTVSPost2010Prop36
280
     0
102
RTVSPost2010PropOp36
 70
     1
102
RTVSPost2010Prop37
 90
       50
102
RTVSPost2010PropOp37
 70
     1
102
RTVSPost2010Prop38
140
0.0
102
RTVSPost2010PropOp38
 70
     1
102
RTVSPost2010Prop39
140
1.0
102
RTVSPost2010PropOp39
 70
     1
102
RTVSPost2010Prop40
 90
        0
102
RTVSPost2010PropOp40
 70
     1
102
RTVSPost2010Prop41ColorIndex
 90
       18
102
RTVSPost2010Prop41ColorRGB
 90
        0
102
RTVSPost2010PropOp41
 70
     1
102
RTVSPost2010Prop42
 90
       50
102
RTVSPost2010PropOp42
 70
     1
102
RTVSPost2010Prop43
 90
        3
102
RTVSPost2010PropOp43
 70
     1
102
RTVSPost2010Prop44ColorIndex
 90
        5
102
RTVSPost2010Prop44ColorRGB
 90
      255
102
RTVSPost2010PropOp44
 70
     1
102
RTVSPost2010Prop45
280
     0
102
RTVSPost2010PropOp45
 70
     1
102
RTVSPost2010Prop46
 90
       50
102
RTVSPost2010PropOp46
 70
     1
102
RTVSPost2010Prop47
 90
       50
102
RTVSPost2010PropOp47
 70
     1
102
RTVSPost2010Prop48
 90
       50
102
RTVSPost2010PropOp48
 70
     1
102
RTVSPost2010Prop49
280
     0
102
RTVSPost2010PropOp49
 70
     1
102
RTVSPost2010Prop50
 90
       50
102
RTVSPost2010PropOp50
 70
     1
102
RTVSPost2010Prop51ColorIndex
 90
      256
102
RTVSPost2010Prop51ColorRGB
 90
-16777216
102
RTVSPost2010PropOp51
 70
     0
102
RTVSPost2010Prop52
140
1.0
102
RTVSPost2010PropOp52
 70
     0
102
RTVSPost2010Prop53
 90
        2
102
RTVSPost2010PropOp53
 70
     1
102
RTVSPost2010Prop54
  1
strokes_ogs.tif
102
RTVSPost2010PropOp54
 70
     1
102
RTVSPost2010Prop55
280
     0
102
RTVSPost2010PropOp55
 70
     1
102
RTVSPost2010Prop56
140
1.0
102
RTVSPost2010PropOp56
 70
     1
102
RTVSPost2010Prop57
140
1.0
102
RTVSPost2010PropOp57
 70
     1
  0
XRECORD
  5
258
102
{ACAD_REACTORS
330
257
102
}
330
257
100
AcDbXrecord
280
     1
102
RTVSPost2010Prop28
280
     0
102
RTVSPost2010PropOp28
 70
     1
102
RTVSPost2010Prop29
280
     1
102
RTVSPost2010PropOp29
 70
     1
102
RTVSPost2010Prop30
280
     1
102
RTVSPost2010PropOp30
 70
     1
102
RTVSPost2010Prop31
280
     0
102
RTVSPost2010PropOp31
 70
     1
102
RTVSPost2010Prop32
280
     0
102
RTVSPost2010PropOp32
 70
     1
102
RTVSPost2010Prop33
280
     0
102
RTVSPost2010PropOp33
 70
     1
102
RTVSPost2010Prop34
280
     0
102
RTVSPost2010PropOp34
 70
     1
102
RTVSPost2010Prop35
280
     0
102
RTVSPost2010PropOp35
 70
     1
102
RTVSPost2010Prop36
280
     0
102
RTVSPost2010PropOp36
 70
     1
102
RTVSPost2010Prop37
 90
       50
102
RTVSPost2010PropOp37
 70
     1
102
RTVSPost2010Prop38
140
0.0
102
RTVSPost2010PropOp38
 70
     1
102
RTVSPost2010Prop39
140
1.0
102
RTVSPost2010PropOp39
 70
     1
102
RTVSPost2010Prop40
 90
        0
102
RTVSPost2010PropOp40
 70
     1
102
RTVSPost2010Prop41ColorIndex
 90
       18
102
RTVSPost2010Prop41ColorRGB
 90
        0
102
RTVSPost2010PropOp41
 70
     1
102
RTVSPost2010Prop42
 90
       50
102
RTVSPost2010PropOp42
 70
     1
102
RTVSPost2010Prop43
 90
        3
102
RTVSPost2010PropOp43
 70
     1
102
RTVSPost2010Prop44ColorIndex
 90
        5
102
RTVSPost2010Prop44ColorRGB
 90
      255
102
RTVSPost2010PropOp44
 70
     1
102
RTVSPost2010Prop45
280
     0
102
RTVSPost2010PropOp45
 70
     1
102
RTVSPost2010Prop46
 90
       50
102
RTVSPost2010PropOp46
 70
     1
102
RTVSPost2010Prop47
 90
       50
102
RTVSPost2010PropOp47
 70
     1
102
RTVSPost2010Prop48
 90
       50
102
RTVSPost2010PropOp48
 70
     1
102
RTVSPost2010Prop49
280
     0
102
RTVSPost2010PropOp49
 70
     1
102
RTVSPost2010Prop50
 90
       50
102
RTVSPost2010PropOp50
 70
     1
102
RTVSPost2010Prop51ColorIndex
 90
      256
102
RTVSPost2010Prop51ColorRGB
 90
-16777216
102
RTVSPost2010PropOp51
 70
     0
102
RTVSPost2010Prop52
140
1.0
102
RTVSPost2010PropOp52
 70
     0
102
RTVSPost2010Prop53
 90
        2
102
RTVSPost2010PropOp53
 70
     1
102
RTVSPost2010Prop54
  1
strokes_ogs.tif
102
RTVSPost2010PropOp54
 70
     1
102
RTVSPost2010Prop55
280
     0
102
RTVSPost2010PropOp55
 70
     1
102
RTVSPost2010Prop56
140
1.0
102
RTVSPost2010PropOp56
 70
     1
102
RTVSPost2010Prop57
140
1.0
102
RTVSPost2010PropOp57
 70
     1
  0
XRECORD
  5
24C
102
{ACAD_REACTORS
330
24B
102
}
330
24B
100
AcDbXrecord
280
     1
102
RTVSPost2010Prop28
280
     0
102
RTVSPost2010PropOp28
 70
     1
102
RTVSPost2010Prop29
280
     1
102
RTVSPost2010PropOp29
 70
     1
102
RTVSPost2010Prop30
280
     1
102
RTVSPost2010PropOp30
 70
     1
102
RTVSPost2010Prop31
280
     0
102
RTVSPost2010PropOp31
 70
     1
102
RTVSPost2010Prop32
280
     0
102
RTVSPost2010PropOp32
 70
     1
102
RTVSPost2010Prop33
280
     0
102
RTVSPost2010PropOp33
 70
     1
102
RTVSPost2010Prop34
280
     0
102
RTVSPost2010PropOp34
 70
     1
102
RTVSPost2010Prop35
280
     0
102
RTVSPost2010PropOp35
 70
     1
102
RTVSPost2010Prop36
280
     0
102
RTVSPost2010PropOp36
 70
     1
102
RTVSPost2010Prop37
 90
       50
102
RTVSPost2010PropOp37
 70
     1
102
RTVSPost2010Prop38
140
0.0
102
RTVSPost2010PropOp38
 70
     1
102
RTVSPost2010Prop39
140
1.0
102
RTVSPost2010PropOp39
 70
     1
102
RTVSPost2010Prop40
 90
        0
102
RTVSPost2010PropOp40
 70
     1
102
RTVSPost2010Prop41ColorIndex
 90
       18
102
RTVSPost2010Prop41ColorRGB
 90
        0
102
RTVSPost2010PropOp41
 70
     1
102
RTVSPost2010Prop42
 90
       50
102
RTVSPost2010PropOp42
 70
     1
102
RTVSPost2010Prop43
 90
        3
102
RTVSPost2010PropOp43
 70
     1
102
RTVSPost2010Prop44ColorIndex
 90
        5
102
RTVSPost2010Prop44ColorRGB
 90
      255
102
RTVSPost2010PropOp44
 70
     1
102
RTVSPost2010Prop45
280
     0
102
RTVSPost2010PropOp45
 70
     1
102
RTVSPost2010Prop46
 90
       50
102
RTVSPost2010PropOp46
 70
     1
102
RTVSPost2010Prop47
 90
       50
102
RTVSPost2010PropOp47
 70
     1
102
RTVSPost2010Prop48
 90
       50
102
RTVSPost2010PropOp48
 70
     1
102
RTVSPost2010Prop49
280
     0
102
RTVSPost2010PropOp49
 70
     1
102
RTVSPost2010Prop50
 90
       50
102
RTVSPost2010PropOp50
 70
     1
102
RTVSPost2010Prop51ColorIndex
 90
      256
102
RTVSPost2010Prop51ColorRGB
 90
-16777216
102
RTVSPost2010PropOp51
 70
     0
102
RTVSPost2010Prop52
140
1.0
102
RTVSPost2010PropOp52
 70
     0
102
RTVSPost2010Prop53
 90
        2
102
RTVSPost2010PropOp53
 70
     1
102
RTVSPost2010Prop54
  1
strokes_ogs.tif
102
RTVSPost2010PropOp54
 70
     1
102
RTVSPost2010Prop55
280
     0
102
RTVSPost2010PropOp55
 70
     1
102
RTVSPost2010Prop56
140
1.0
102
RTVSPost2010PropOp56
 70
     1
102
RTVSPost2010Prop57
140
1.0
102
RTVSPost2010PropOp57
 70
     1
  0
XRECORD
  5
24E
102
{ACAD_REACTORS
330
24D
102
}
330
24D
100
AcDbXrecord
280
     1
102
RTVSPost2010Prop28
280
     0
102
RTVSPost2010PropOp28
 70
     1
102
RTVSPost2010Prop29
280
     1
102
RTVSPost2010PropOp29
 70
     1
102
RTVSPost2010Prop30
280
     1
102
RTVSPost2010PropOp30
 70
     1
102
RTVSPost2010Prop31
280
     0
102
RTVSPost2010PropOp31
 70
     1
102
RTVSPost2010Prop32
280
     0
102
RTVSPost2010PropOp32
 70
     1
102
RTVSPost2010Prop33
280
     0
102
RTVSPost2010PropOp33
 70
     1
102
RTVSPost2010Prop34
280
     0
102
RTVSPost2010PropOp34
 70
     1
102
RTVSPost2010Prop35
280
     0
102
RTVSPost2010PropOp35
 70
     1
102
RTVSPost2010Prop36
280
     0
102
RTVSPost2010PropOp36
 70
     1
102
RTVSPost2010Prop37
 90
       50
102
RTVSPost2010PropOp37
 70
     1
102
RTVSPost2010Prop38
140
0.0
102
RTVSPost2010PropOp38
 70
     1
102
RTVSPost2010Prop39
140
1.0
102
RTVSPost2010PropOp39
 70
     1
102
RTVSPost2010Prop40
 90
        0
102
RTVSPost2010PropOp40
 70
     1
102
RTVSPost2010Prop41ColorIndex
 90
       18
102
RTVSPost2010Prop41ColorRGB
 90
        0
102
RTVSPost2010PropOp41
 70
     1
102
RTVSPost2010Prop42
 90
       50
102
RTVSPost2010PropOp42
 70
     1
102
RTVSPost2010Prop43
 90
        3
102
RTVSPost2010PropOp43
 70
     1
102
RTVSPost2010Prop44ColorIndex
 90
        5
102
RTVSPost2010Prop44ColorRGB
 90
      255
102
RTVSPost2010PropOp44
 70
     1
102
RTVSPost2010Prop45
280
     0
102
RTVSPost2010PropOp45
 70
     1
102
RTVSPost2010Prop46
 90
       50
102
RTVSPost2010PropOp46
 70
     1
102
RTVSPost2010Prop47
 90
       50
102
RTVSPost2010PropOp47
 70
     1
102
RTVSPost2010Prop48
 90
       50
102
RTVSPost2010PropOp48
 70
     1
102
RTVSPost2010Prop49
280
     0
102
RTVSPost2010PropOp49
 70
     1
102
RTVSPost2010Prop50
 90
       50
102
RTVSPost2010PropOp50
 70
     1
102
RTVSPost2010Prop51ColorIndex
 90
      256
102
RTVSPost2010Prop51ColorRGB
 90
-16777216
102
RTVSPost2010PropOp51
 70
     0
102
RTVSPost2010Prop52
140
1.0
102
RTVSPost2010PropOp52
 70
     0
102
RTVSPost2010Prop53
 90
        2
102
RTVSPost2010PropOp53
 70
     1
102
RTVSPost2010Prop54
  1
strokes_ogs.tif
102
RTVSPost2010PropOp54
 70
     1
102
RTVSPost2010Prop55
280
     0
102
RTVSPost2010PropOp55
 70
     1
102
RTVSPost2010Prop56
140
1.0
102
RTVSPost2010PropOp56
 70
     1
102
RTVSPost2010Prop57
140
1.0
102
RTVSPost2010PropOp57
 70
     1
  0
XRECORD
  5
25E
102
{ACAD_REACTORS
330
25D
102
}
330
25D
100
AcDbXrecord
280
     1
102
RTVSPost2010Prop28
280
     0
102
RTVSPost2010PropOp28
 70
     0
102
RTVSPost2010Prop29
280
     1
102
RTVSPost2010PropOp29
 70
     0
102
RTVSPost2010Prop30
280
     1
102
RTVSPost2010PropOp30
 70
     0
102
RTVSPost2010Prop31
280
     0
102
RTVSPost2010PropOp31
 70
     0
102
RTVSPost2010Prop32
280
     0
102
RTVSPost2010PropOp32
 70
     0
102
RTVSPost2010Prop33
280
     0
102
RTVSPost2010PropOp33
 70
     0
102
RTVSPost2010Prop34
280
     0
102
RTVSPost2010PropOp34
 70
     0
102
RTVSPost2010Prop35
280
     0
102
RTVSPost2010PropOp35
 70
     0
102
RTVSPost2010Prop36
280
     0
102
RTVSPost2010PropOp36
 70
     0
102
RTVSPost2010Prop37
 90
       50
102
RTVSPost2010PropOp37
 70
     0
102
RTVSPost2010Prop38
140
0.0
102
RTVSPost2010PropOp38
 70
     0
102
RTVSPost2010Prop39
140
1.0
102
RTVSPost2010PropOp39
 70
     0
102
RTVSPost2010Prop40
 90
        0
102
RTVSPost2010PropOp40
 70
     0
102
RTVSPost2010Prop41ColorIndex
 90
       18
102
RTVSPost2010Prop41ColorRGB
 90
        0
102
RTVSPost2010PropOp41
 70
     0
102
RTVSPost2010Prop42
 90
       50
102
RTVSPost2010PropOp42
 70
     0
102
RTVSPost2010Prop43
 90
        3
102
RTVSPost2010PropOp43
 70
     0
102
RTVSPost2010Prop44ColorIndex
 90
        5
102
RTVSPost2010Prop44ColorRGB
 90
      255
102
RTVSPost2010PropOp44
 70
     0
102
RTVSPost2010Prop45
280
     0
102
RTVSPost2010PropOp45
 70
     0
102
RTVSPost2010Prop46
 90
       50
102
RTVSPost2010PropOp46
 70
     0
102
RTVSPost2010Prop47
 90
       50
102
RTVSPost2010PropOp47
 70
     0
102
RTVSPost2010Prop48
 90
       50
102
RTVSPost2010PropOp48
 70
     0
102
RTVSPost2010Prop49
280
     0
102
RTVSPost2010PropOp49
 70
     0
102
RTVSPost2010Prop50
 90
       50
102
RTVSPost2010PropOp50
 70
     0
102
RTVSPost2010Prop51ColorIndex
 90
      256
102
RTVSPost2010Prop51ColorRGB
 90
-16777216
102
RTVSPost2010PropOp51
 70
     0
102
RTVSPost2010Prop52
140
1.0
102
RTVSPost2010PropOp52
 70
     0
102
RTVSPost2010Prop53
 90
        2
102
RTVSPost2010PropOp53
 70
     0
102
RTVSPost2010Prop54
  1
strokes_ogs.tif
102
RTVSPost2010PropOp54
 70
     0
102
RTVSPost2010Prop55
280
     0
102
RTVSPost2010PropOp55
 70
     0
102
RTVSPost2010Prop56
140
1.0
102
RTVSPost2010PropOp56
 70
     0
102
RTVSPost2010Prop57
140
1.0
102
RTVSPost2010PropOp57
 70
     0
  0
XRECORD
  5
256
102
{ACAD_REACTORS
330
255
102
}
330
255
100
AcDbXrecord
280
     1
102
RTVSPost2010Prop28
280
     0
102
RTVSPost2010PropOp28
 70
     1
102
RTVSPost2010Prop29
280
     1
102
RTVSPost2010PropOp29
 70
     1
102
RTVSPost2010Prop30
280
     1
102
RTVSPost2010PropOp30
 70
     1
102
RTVSPost2010Prop31
280
     0
102
RTVSPost2010PropOp31
 70
     1
102
RTVSPost2010Prop32
280
     0
102
RTVSPost2010PropOp32
 70
     1
102
RTVSPost2010Prop33
280
     0
102
RTVSPost2010PropOp33
 70
     1
102
RTVSPost2010Prop34
280
     0
102
RTVSPost2010PropOp34
 70
     1
102
RTVSPost2010Prop35
280
     0
102
RTVSPost2010PropOp35
 70
     1
102
RTVSPost2010Prop36
280
     0
102
RTVSPost2010PropOp36
 70
     1
102
RTVSPost2010Prop37
 90
       50
102
RTVSPost2010PropOp37
 70
     1
102
RTVSPost2010Prop38
140
0.0
102
RTVSPost2010PropOp38
 70
     1
102
RTVSPost2010Prop39
140
1.0
102
RTVSPost2010PropOp39
 70
     1
102
RTVSPost2010Prop40
 90
        0
102
RTVSPost2010PropOp40
 70
     1
102
RTVSPost2010Prop41ColorIndex
 90
       18
102
RTVSPost2010Prop41ColorRGB
 90
        0
102
RTVSPost2010PropOp41
 70
     1
102
RTVSPost2010Prop42
 90
       50
102
RTVSPost2010PropOp42
 70
     1
102
RTVSPost2010Prop43
 90
        3
102
RTVSPost2010PropOp43
 70
     1
102
RTVSPost2010Prop44ColorIndex
 90
        5
102
RTVSPost2010Prop44ColorRGB
 90
      255
102
RTVSPost2010PropOp44
 70
     1
102
RTVSPost2010Prop45
280
     0
102
RTVSPost2010PropOp45
 70
     1
102
RTVSPost2010Prop46
 90
       50
102
RTVSPost2010PropOp46
 70
     1
102
RTVSPost2010Prop47
 90
       50
102
RTVSPost2010PropOp47
 70
     1
102
RTVSPost2010Prop48
 90
       50
102
RTVSPost2010PropOp48
 70
     1
102
RTVSPost2010Prop49
280
     0
102
RTVSPost2010PropOp49
 70
     1
102
RTVSPost2010Prop50
 90
       50
102
RTVSPost2010PropOp50
 70
     1
102
RTVSPost2010Prop51ColorIndex
 90
      256
102
RTVSPost2010Prop51ColorRGB
 90
-16777216
102
RTVSPost2010PropOp51
 70
     0
102
RTVSPost2010Prop52
140
1.0
102
RTVSPost2010PropOp52
 70
     0
102
RTVSPost2010Prop53
 90
        2
102
RTVSPost2010PropOp53
 70
     1
102
RTVSPost2010Prop54
  1
strokes_ogs.tif
102
RTVSPost2010PropOp54
 70
     1
102
RTVSPost2010Prop55
280
     0
102
RTVSPost2010PropOp55
 70
     1
102
RTVSPost2010Prop56
140
1.0
102
RTVSPost2010PropOp56
 70
     1
102
RTVSPost2010Prop57
140
1.0
102
RTVSPost2010PropOp57
 70
     1
  0
XRECORD
  5
23A
102
{ACAD_REACTORS
330
239
102
}
330
239
100
AcDbXrecord
280
     1
102
RTVSPost2010Prop28
280
     0
102
RTVSPost2010PropOp28
 70
     1
102
RTVSPost2010Prop29
280
     1
102
RTVSPost2010PropOp29
 70
     1
102
RTVSPost2010Prop30
280
     1
102
RTVSPost2010PropOp30
 70
     1
102
RTVSPost2010Prop31
280
     0
102
RTVSPost2010PropOp31
 70
     1
102
RTVSPost2010Prop32
280
     0
102
RTVSPost2010PropOp32
 70
     1
102
RTVSPost2010Prop33
280
     0
102
RTVSPost2010PropOp33
 70
     1
102
RTVSPost2010Prop34
280
     0
102
RTVSPost2010PropOp34
 70
     1
102
RTVSPost2010Prop35
280
     0
102
RTVSPost2010PropOp35
 70
     1
102
RTVSPost2010Prop36
280
     0
102
RTVSPost2010PropOp36
 70
     1
102
RTVSPost2010Prop37
 90
       50
102
RTVSPost2010PropOp37
 70
     1
102
RTVSPost2010Prop38
140
0.0
102
RTVSPost2010PropOp38
 70
     1
102
RTVSPost2010Prop39
140
1.0
102
RTVSPost2010PropOp39
 70
     1
102
RTVSPost2010Prop40
 90
        0
102
RTVSPost2010PropOp40
 70
     1
102
RTVSPost2010Prop41ColorIndex
 90
       18
102
RTVSPost2010Prop41ColorRGB
 90
        0
102
RTVSPost2010PropOp41
 70
     1
102
RTVSPost2010Prop42
 90
       50
102
RTVSPost2010PropOp42
 70
     1
102
RTVSPost2010Prop43
 90
        3
102
RTVSPost2010PropOp43
 70
     1
102
RTVSPost2010Prop44ColorIndex
 90
        5
102
RTVSPost2010Prop44ColorRGB
 90
      255
102
RTVSPost2010PropOp44
 70
     1
102
RTVSPost2010Prop45
280
     0
102
RTVSPost2010PropOp45
 70
     1
102
RTVSPost2010Prop46
 90
       50
102
RTVSPost2010PropOp46
 70
     1
102
RTVSPost2010Prop47
 90
       50
102
RTVSPost2010PropOp47
 70
     1
102
RTVSPost2010Prop48
 90
       50
102
RTVSPost2010PropOp48
 70
     1
102
RTVSPost2010Prop49
280
     0
102
RTVSPost2010PropOp49
 70
     1
102
RTVSPost2010Prop50
 90
       50
102
RTVSPost2010PropOp50
 70
     1
102
RTVSPost2010Prop51ColorIndex
 90
      256
102
RTVSPost2010Prop51ColorRGB
 90
-16777216
102
RTVSPost2010PropOp51
 70
     0
102
RTVSPost2010Prop52
140
1.0
102
RTVSPost2010PropOp52
 70
     0
102
RTVSPost2010Prop53
 90
        2
102
RTVSPost2010PropOp53
 70
     1
102
RTVSPost2010Prop54
  1
strokes_ogs.tif
102
RTVSPost2010PropOp54
 70
     1
102
RTVSPost2010Prop55
280
     0
102
RTVSPost2010PropOp55
 70
     1
102
RTVSPost2010Prop56
140
1.0
102
RTVSPost2010PropOp56
 70
     1
102
RTVSPost2010Prop57
140
1.0
102
RTVSPost2010PropOp57
 70
     1
  0
XRECORD
  5
23C
102
{ACAD_REACTORS
330
23B
102
}
330
23B
100
AcDbXrecord
280
     1
102
RTVSPost2010Prop28
280
     0
102
RTVSPost2010PropOp28
 70
     1
102
RTVSPost2010Prop29
280
     1
102
RTVSPost2010PropOp29
 70
     1
102
RTVSPost2010Prop30
280
     1
102
RTVSPost2010PropOp30
 70
     1
102
RTVSPost2010Prop31
280
     0
102
RTVSPost2010PropOp31
 70
     1
102
RTVSPost2010Prop32
280
     0
102
RTVSPost2010PropOp32
 70
     1
102
RTVSPost2010Prop33
280
     0
102
RTVSPost2010PropOp33
 70
     1
102
RTVSPost2010Prop34
280
     0
102
RTVSPost2010PropOp34
 70
     1
102
RTVSPost2010Prop35
280
     0
102
RTVSPost2010PropOp35
 70
     1
102
RTVSPost2010Prop36
280
     0
102
RTVSPost2010PropOp36
 70
     1
102
RTVSPost2010Prop37
 90
       50
102
RTVSPost2010PropOp37
 70
     1
102
RTVSPost2010Prop38
140
0.0
102
RTVSPost2010PropOp38
 70
     1
102
RTVSPost2010Prop39
140
1.0
102
RTVSPost2010PropOp39
 70
     1
102
RTVSPost2010Prop40
 90
        0
102
RTVSPost2010PropOp40
 70
     1
102
RTVSPost2010Prop41ColorIndex
 90
       18
102
RTVSPost2010Prop41ColorRGB
 90
        0
102
RTVSPost2010PropOp41
 70
     1
102
RTVSPost2010Prop42
 90
       50
102
RTVSPost2010PropOp42
 70
     1
102
RTVSPost2010Prop43
 90
        3
102
RTVSPost2010PropOp43
 70
     1
102
RTVSPost2010Prop44ColorIndex
 90
        5
102
RTVSPost2010Prop44ColorRGB
 90
      255
102
RTVSPost2010PropOp44
 70
     1
102
RTVSPost2010Prop45
280
     0
102
RTVSPost2010PropOp45
 70
     1
102
RTVSPost2010Prop46
 90
       50
102
RTVSPost2010PropOp46
 70
     1
102
RTVSPost2010Prop47
 90
       50
102
RTVSPost2010PropOp47
 70
     1
102
RTVSPost2010Prop48
 90
       50
102
RTVSPost2010PropOp48
 70
     1
102
RTVSPost2010Prop49
280
     0
102
RTVSPost2010PropOp49
 70
     1
102
RTVSPost2010Prop50
 90
       50
102
RTVSPost2010PropOp50
 70
     1
102
RTVSPost2010Prop51ColorIndex
 90
      256
102
RTVSPost2010Prop51ColorRGB
 90
-16777216
102
RTVSPost2010PropOp51
 70
     0
102
RTVSPost2010Prop52
140
1.0
102
RTVSPost2010PropOp52
 70
     0
102
RTVSPost2010Prop53
 90
        2
102
RTVSPost2010PropOp53
 70
     1
102
RTVSPost2010Prop54
  1
strokes_ogs.tif
102
RTVSPost2010PropOp54
 70
     1
102
RTVSPost2010Prop55
280
     0
102
RTVSPost2010PropOp55
 70
     1
102
RTVSPost2010Prop56
140
1.0
102
RTVSPost2010PropOp56
 70
     1
102
RTVSPost2010Prop57
140
1.0
102
RTVSPost2010PropOp57
 70
     1
  0
XRECORD
  5
23E
102
{ACAD_REACTORS
330
23D
102
}
330
23D
100
AcDbXrecord
280
     1
102
RTVSPost2010Prop28
280
     0
102
RTVSPost2010PropOp28
 70
     1
102
RTVSPost2010Prop29
280
     1
102
RTVSPost2010PropOp29
 70
     1
102
RTVSPost2010Prop30
280
     1
102
RTVSPost2010PropOp30
 70
     1
102
RTVSPost2010Prop31
280
     0
102
RTVSPost2010PropOp31
 70
     1
102
RTVSPost2010Prop32
280
     0
102
RTVSPost2010PropOp32
 70
     1
102
RTVSPost2010Prop33
280
     0
102
RTVSPost2010PropOp33
 70
     1
102
RTVSPost2010Prop34
280
     0
102
RTVSPost2010PropOp34
 70
     1
102
RTVSPost2010Prop35
280
     0
102
RTVSPost2010PropOp35
 70
     1
102
RTVSPost2010Prop36
280
     0
102
RTVSPost2010PropOp36
 70
     1
102
RTVSPost2010Prop37
 90
       50
102
RTVSPost2010PropOp37
 70
     1
102
RTVSPost2010Prop38
140
0.0
102
RTVSPost2010PropOp38
 70
     1
102
RTVSPost2010Prop39
140
1.0
102
RTVSPost2010PropOp39
 70
     1
102
RTVSPost2010Prop40
 90
        0
102
RTVSPost2010PropOp40
 70
     1
102
RTVSPost2010Prop41ColorIndex
 90
       18
102
RTVSPost2010Prop41ColorRGB
 90
        0
102
RTVSPost2010PropOp41
 70
     1
102
RTVSPost2010Prop42
 90
       50
102
RTVSPost2010PropOp42
 70
     1
102
RTVSPost2010Prop43
 90
        3
102
RTVSPost2010PropOp43
 70
     1
102
RTVSPost2010Prop44ColorIndex
 90
        5
102
RTVSPost2010Prop44ColorRGB
 90
      255
102
RTVSPost2010PropOp44
 70
     1
102
RTVSPost2010Prop45
280
     0
102
RTVSPost2010PropOp45
 70
     1
102
RTVSPost2010Prop46
 90
       50
102
RTVSPost2010PropOp46
 70
     1
102
RTVSPost2010Prop47
 90
       50
102
RTVSPost2010PropOp47
 70
     1
102
RTVSPost2010Prop48
 90
       50
102
RTVSPost2010PropOp48
 70
     1
102
RTVSPost2010Prop49
280
     0
102
RTVSPost2010PropOp49
 70
     1
102
RTVSPost2010Prop50
 90
       50
102
RTVSPost2010PropOp50
 70
     1
102
RTVSPost2010Prop51ColorIndex
 90
      256
102
RTVSPost2010Prop51ColorRGB
 90
-16777216
102
RTVSPost2010PropOp51
 70
     0
102
RTVSPost2010Prop52
140
1.0
102
RTVSPost2010PropOp52
 70
     0
102
RTVSPost2010Prop53
 90
        2
102
RTVSPost2010PropOp53
 70
     1
102
RTVSPost2010Prop54
  1
strokes_ogs.tif
102
RTVSPost2010PropOp54
 70
     1
102
RTVSPost2010Prop55
280
     0
102
RTVSPost2010PropOp55
 70
     1
102
RTVSPost2010Prop56
140
1.0
102
RTVSPost2010PropOp56
 70
     1
102
RTVSPost2010Prop57
140
1.0
102
RTVSPost2010PropOp57
 70
     1
  0
XRECORD
  5
240
102
{ACAD_REACTORS
330
23F
102
}
330
23F
100
AcDbXrecord
280
     1
102
RTVSPost2010Prop28
280
     0
102
RTVSPost2010PropOp28
 70
     1
102
RTVSPost2010Prop29
280
     1
102
RTVSPost2010PropOp29
 70
     1
102
RTVSPost2010Prop30
280
     1
102
RTVSPost2010PropOp30
 70
     1
102
RTVSPost2010Prop31
280
     0
102
RTVSPost2010PropOp31
 70
     1
102
RTVSPost2010Prop32
280
     0
102
RTVSPost2010PropOp32
 70
     1
102
RTVSPost2010Prop33
280
     0
102
RTVSPost2010PropOp33
 70
     1
102
RTVSPost2010Prop34
280
     0
102
RTVSPost2010PropOp34
 70
     1
102
RTVSPost2010Prop35
280
     0
102
RTVSPost2010PropOp35
 70
     1
102
RTVSPost2010Prop36
280
     0
102
RTVSPost2010PropOp36
 70
     1
102
RTVSPost2010Prop37
 90
       50
102
RTVSPost2010PropOp37
 70
     1
102
RTVSPost2010Prop38
140
0.0
102
RTVSPost2010PropOp38
 70
     1
102
RTVSPost2010Prop39
140
1.0
102
RTVSPost2010PropOp39
 70
     1
102
RTVSPost2010Prop40
 90
        0
102
RTVSPost2010PropOp40
 70
     1
102
RTVSPost2010Prop41ColorIndex
 90
       18
102
RTVSPost2010Prop41ColorRGB
 90
        0
102
RTVSPost2010PropOp41
 70
     1
102
RTVSPost2010Prop42
 90
       50
102
RTVSPost2010PropOp42
 70
     1
102
RTVSPost2010Prop43
 90
        3
102
RTVSPost2010PropOp43
 70
     1
102
RTVSPost2010Prop44ColorIndex
 90
        5
102
RTVSPost2010Prop44ColorRGB
 90
      255
102
RTVSPost2010PropOp44
 70
     1
102
RTVSPost2010Prop45
280
     0
102
RTVSPost2010PropOp45
 70
     1
102
RTVSPost2010Prop46
 90
       50
102
RTVSPost2010PropOp46
 70
     1
102
RTVSPost2010Prop47
 90
       50
102
RTVSPost2010PropOp47
 70
     1
102
RTVSPost2010Prop48
 90
       50
102
RTVSPost2010PropOp48
 70
     1
102
RTVSPost2010Prop49
280
     0
102
RTVSPost2010PropOp49
 70
     1
102
RTVSPost2010Prop50
 90
       50
102
RTVSPost2010PropOp50
 70
     1
102
RTVSPost2010Prop51ColorIndex
 90
      256
102
RTVSPost2010Prop51ColorRGB
 90
-16777216
102
RTVSPost2010PropOp51
 70
     0
102
RTVSPost2010Prop52
140
1.0
102
RTVSPost2010PropOp52
 70
     0
102
RTVSPost2010Prop53
 90
        2
102
RTVSPost2010PropOp53
 70
     1
102
RTVSPost2010Prop54
  1
strokes_ogs.tif
102
RTVSPost2010PropOp54
 70
     1
102
RTVSPost2010Prop55
280
     0
102
RTVSPost2010PropOp55
 70
     1
102
RTVSPost2010Prop56
140
1.0
102
RTVSPost2010PropOp56
 70
     1
102
RTVSPost2010Prop57
140
1.0
102
RTVSPost2010PropOp57
 70
     1
  0
XRECORD
  5
246
102
{ACAD_REACTORS
330
245
102
}
330
245
100
AcDbXrecord
280
     1
102
RTVSPost2010Prop28
280
     0
102
RTVSPost2010PropOp28
 70
     1
102
RTVSPost2010Prop29
280
     1
102
RTVSPost2010PropOp29
 70
     1
102
RTVSPost2010Prop30
280
     1
102
RTVSPost2010PropOp30
 70
     1
102
RTVSPost2010Prop31
280
     0
102
RTVSPost2010PropOp31
 70
     1
102
RTVSPost2010Prop32
280
     0
102
RTVSPost2010PropOp32
 70
     1
102
RTVSPost2010Prop33
280
     0
102
RTVSPost2010PropOp33
 70
     1
102
RTVSPost2010Prop34
280
     0
102
RTVSPost2010PropOp34
 70
     1
102
RTVSPost2010Prop35
280
     0
102
RTVSPost2010PropOp35
 70
     1
102
RTVSPost2010Prop36
280
     0
102
RTVSPost2010PropOp36
 70
     1
102
RTVSPost2010Prop37
 90
       50
102
RTVSPost2010PropOp37
 70
     1
102
RTVSPost2010Prop38
140
0.0
102
RTVSPost2010PropOp38
 70
     1
102
RTVSPost2010Prop39
140
1.0
102
RTVSPost2010PropOp39
 70
     1
102
RTVSPost2010Prop40
 90
        0
102
RTVSPost2010PropOp40
 70
     1
102
RTVSPost2010Prop41ColorIndex
 90
       18
102
RTVSPost2010Prop41ColorRGB
 90
        0
102
RTVSPost2010PropOp41
 70
     1
102
RTVSPost2010Prop42
 90
       50
102
RTVSPost2010PropOp42
 70
     1
102
RTVSPost2010Prop43
 90
        3
102
RTVSPost2010PropOp43
 70
     1
102
RTVSPost2010Prop44ColorIndex
 90
        5
102
RTVSPost2010Prop44ColorRGB
 90
      255
102
RTVSPost2010PropOp44
 70
     1
102
RTVSPost2010Prop45
280
     0
102
RTVSPost2010PropOp45
 70
     1
102
RTVSPost2010Prop46
 90
       50
102
RTVSPost2010PropOp46
 70
     1
102
RTVSPost2010Prop47
 90
       50
102
RTVSPost2010PropOp47
 70
     1
102
RTVSPost2010Prop48
 90
       50
102
RTVSPost2010PropOp48
 70
     1
102
RTVSPost2010Prop49
280
     0
102
RTVSPost2010PropOp49
 70
     1
102
RTVSPost2010Prop50
 90
       50
102
RTVSPost2010PropOp50
 70
     1
102
RTVSPost2010Prop51ColorIndex
 90
      256
102
RTVSPost2010Prop51ColorRGB
 90
-16777216
102
RTVSPost2010PropOp51
 70
     0
102
RTVSPost2010Prop52
140
1.0
102
RTVSPost2010PropOp52
 70
     0
102
RTVSPost2010Prop53
 90
        2
102
RTVSPost2010PropOp53
 70
     1
102
RTVSPost2010Prop54
  1
strokes_ogs.tif
102
RTVSPost2010PropOp54
 70
     1
102
RTVSPost2010Prop55
280
     0
102
RTVSPost2010PropOp55
 70
     1
102
RTVSPost2010Prop56
140
1.0
102
RTVSPost2010PropOp56
 70
     1
102
RTVSPost2010Prop57
140
1.0
102
RTVSPost2010PropOp57
 70
     1
  0
XRECORD
  5
25A
102
{ACAD_REACTORS
330
259
102
}
330
259
100
AcDbXrecord
280
     1
102
RTVSPost2010Prop28
280
     0
102
RTVSPost2010PropOp28
 70
     0
102
RTVSPost2010Prop29
280
     1
102
RTVSPost2010PropOp29
 70
     0
102
RTVSPost2010Prop30
280
     1
102
RTVSPost2010PropOp30
 70
     0
102
RTVSPost2010Prop31
280
     0
102
RTVSPost2010PropOp31
 70
     0
102
RTVSPost2010Prop32
280
     0
102
RTVSPost2010PropOp32
 70
     0
102
RTVSPost2010Prop33
280
     0
102
RTVSPost2010PropOp33
 70
     0
102
RTVSPost2010Prop34
280
     0
102
RTVSPost2010PropOp34
 70
     0
102
RTVSPost2010Prop35
280
     0
102
RTVSPost2010PropOp35
 70
     0
102
RTVSPost2010Prop36
280
     0
102
RTVSPost2010PropOp36
 70
     0
102
RTVSPost2010Prop37
 90
       50
102
RTVSPost2010PropOp37
 70
     0
102
RTVSPost2010Prop38
140
0.0
102
RTVSPost2010PropOp38
 70
     0
102
RTVSPost2010Prop39
140
1.0
102
RTVSPost2010PropOp39
 70
     0
102
RTVSPost2010Prop40
 90
        0
102
RTVSPost2010PropOp40
 70
     0
102
RTVSPost2010Prop41ColorIndex
 90
       18
102
RTVSPost2010Prop41ColorRGB
 90
        0
102
RTVSPost2010PropOp41
 70
     0
102
RTVSPost2010Prop42
 90
       50
102
RTVSPost2010PropOp42
 70
     0
102
RTVSPost2010Prop43
 90
        3
102
RTVSPost2010PropOp43
 70
     0
102
RTVSPost2010Prop44ColorIndex
 90
        5
102
RTVSPost2010Prop44ColorRGB
 90
      255
102
RTVSPost2010PropOp44
 70
     0
102
RTVSPost2010Prop45
280
     0
102
RTVSPost2010PropOp45
 70
     0
102
RTVSPost2010Prop46
 90
       50
102
RTVSPost2010PropOp46
 70
     0
102
RTVSPost2010Prop47
 90
       50
102
RTVSPost2010PropOp47
 70
     0
102
RTVSPost2010Prop48
 90
       50
102
RTVSPost2010PropOp48
 70
     0
102
RTVSPost2010Prop49
280
     0
102
RTVSPost2010PropOp49
 70
     0
102
RTVSPost2010Prop50
 90
       50
102
RTVSPost2010PropOp50
 70
     0
102
RTVSPost2010Prop51ColorIndex
 90
      256
102
RTVSPost2010Prop51ColorRGB
 90
-16777216
102
RTVSPost2010PropOp51
 70
     0
102
RTVSPost2010Prop52
140
1.0
102
RTVSPost2010PropOp52
 70
     0
102
RTVSPost2010Prop53
 90
        2
102
RTVSPost2010PropOp53
 70
     0
102
RTVSPost2010Prop54
  1
strokes_ogs.tif
102
RTVSPost2010PropOp54
 70
     0
102
RTVSPost2010Prop55
280
     0
102
RTVSPost2010PropOp55
 70
     0
102
RTVSPost2010Prop56
140
1.0
102
RTVSPost2010PropOp56
 70
     0
102
RTVSPost2010Prop57
140
1.0
102
RTVSPost2010PropOp57
 70
     0
  0
XRECORD
  5
254
102
{ACAD_REACTORS
330
253
102
}
330
253
100
AcDbXrecord
280
     1
102
RTVSPost2010Prop28
280
     0
102
RTVSPost2010PropOp28
 70
     1
102
RTVSPost2010Prop29
280
     1
102
RTVSPost2010PropOp29
 70
     1
102
RTVSPost2010Prop30
280
     1
102
RTVSPost2010PropOp30
 70
     1
102
RTVSPost2010Prop31
280
     0
102
RTVSPost2010PropOp31
 70
     1
102
RTVSPost2010Prop32
280
     0
102
RTVSPost2010PropOp32
 70
     1
102
RTVSPost2010Prop33
280
     0
102
RTVSPost2010PropOp33
 70
     1
102
RTVSPost2010Prop34
280
     0
102
RTVSPost2010PropOp34
 70
     1
102
RTVSPost2010Prop35
280
     0
102
RTVSPost2010PropOp35
 70
     1
102
RTVSPost2010Prop36
280
     0
102
RTVSPost2010PropOp36
 70
     1
102
RTVSPost2010Prop37
 90
       50
102
RTVSPost2010PropOp37
 70
     1
102
RTVSPost2010Prop38
140
0.0
102
RTVSPost2010PropOp38
 70
     1
102
RTVSPost2010Prop39
140
1.0
102
RTVSPost2010PropOp39
 70
     1
102
RTVSPost2010Prop40
 90
        0
102
RTVSPost2010PropOp40
 70
     1
102
RTVSPost2010Prop41ColorIndex
 90
       18
102
RTVSPost2010Prop41ColorRGB
 90
        0
102
RTVSPost2010PropOp41
 70
     1
102
RTVSPost2010Prop42
 90
       50
102
RTVSPost2010PropOp42
 70
     1
102
RTVSPost2010Prop43
 90
        3
102
RTVSPost2010PropOp43
 70
     1
102
RTVSPost2010Prop44ColorIndex
 90
        5
102
RTVSPost2010Prop44ColorRGB
 90
      255
102
RTVSPost2010PropOp44
 70
     1
102
RTVSPost2010Prop45
280
     0
102
RTVSPost2010PropOp45
 70
     1
102
RTVSPost2010Prop46
 90
       50
102
RTVSPost2010PropOp46
 70
     1
102
RTVSPost2010Prop47
 90
       50
102
RTVSPost2010PropOp47
 70
     1
102
RTVSPost2010Prop48
 90
       50
102
RTVSPost2010PropOp48
 70
     1
102
RTVSPost2010Prop49
280
     0
102
RTVSPost2010PropOp49
 70
     1
102
RTVSPost2010Prop50
 90
       50
102
RTVSPost2010PropOp50
 70
     1
102
RTVSPost2010Prop51ColorIndex
 90
      256
102
RTVSPost2010Prop51ColorRGB
 90
-16777216
102
RTVSPost2010PropOp51
 70
     0
102
RTVSPost2010Prop52
140
1.0
102
RTVSPost2010PropOp52
 70
     0
102
RTVSPost2010Prop53
 90
        2
102
RTVSPost2010PropOp53
 70
     1
102
RTVSPost2010Prop54
  1
strokes_ogs.tif
102
RTVSPost2010PropOp54
 70
     1
102
RTVSPost2010Prop55
280
     0
102
RTVSPost2010PropOp55
 70
     1
102
RTVSPost2010Prop56
140
1.0
102
RTVSPost2010PropOp56
 70
     1
102
RTVSPost2010Prop57
140
1.0
102
RTVSPost2010PropOp57
 70
     1
  0
XRECORD
  5
25C
102
{ACAD_REACTORS
330
25B
102
}
330
25B
100
AcDbXrecord
280
     1
102
RTVSPost2010Prop28
280
     0
102
RTVSPost2010PropOp28
 70
     0
102
RTVSPost2010Prop29
280
     1
102
RTVSPost2010PropOp29
 70
     0
102
RTVSPost2010Prop30
280
     1
102
RTVSPost2010PropOp30
 70
     0
102
RTVSPost2010Prop31
280
     0
102
RTVSPost2010PropOp31
 70
     0
102
RTVSPost2010Prop32
280
     0
102
RTVSPost2010PropOp32
 70
     0
102
RTVSPost2010Prop33
280
     0
102
RTVSPost2010PropOp33
 70
     0
102
RTVSPost2010Prop34
280
     0
102
RTVSPost2010PropOp34
 70
     0
102
RTVSPost2010Prop35
280
     0
102
RTVSPost2010PropOp35
 70
     0
102
RTVSPost2010Prop36
280
     0
102
RTVSPost2010PropOp36
 70
     0
102
RTVSPost2010Prop37
 90
       50
102
RTVSPost2010PropOp37
 70
     0
102
RTVSPost2010Prop38
140
0.0
102
RTVSPost2010PropOp38
 70
     0
102
RTVSPost2010Prop39
140
1.0
102
RTVSPost2010PropOp39
 70
     0
102
RTVSPost2010Prop40
 90
        0
102
RTVSPost2010PropOp40
 70
     0
102
RTVSPost2010Prop41ColorIndex
 90
       18
102
RTVSPost2010Prop41ColorRGB
 90
        0
102
RTVSPost2010PropOp41
 70
     0
102
RTVSPost2010Prop42
 90
       50
102
RTVSPost2010PropOp42
 70
     0
102
RTVSPost2010Prop43
 90
        3
102
RTVSPost2010PropOp43
 70
     0
102
RTVSPost2010Prop44ColorIndex
 90
        5
102
RTVSPost2010Prop44ColorRGB
 90
      255
102
RTVSPost2010PropOp44
 70
     0
102
RTVSPost2010Prop45
280
     0
102
RTVSPost2010PropOp45
 70
     0
102
RTVSPost2010Prop46
 90
       50
102
RTVSPost2010PropOp46
 70
     0
102
RTVSPost2010Prop47
 90
       50
102
RTVSPost2010PropOp47
 70
     0
102
RTVSPost2010Prop48
 90
       50
102
RTVSPost2010PropOp48
 70
     0
102
RTVSPost2010Prop49
280
     0
102
RTVSPost2010PropOp49
 70
     0
102
RTVSPost2010Prop50
 90
       50
102
RTVSPost2010PropOp50
 70
     0
102
RTVSPost2010Prop51ColorIndex
 90
      256
102
RTVSPost2010Prop51ColorRGB
 90
-16777216
102
RTVSPost2010PropOp51
 70
     0
102
RTVSPost2010Prop52
140
1.0
102
RTVSPost2010PropOp52
 70
     0
102
RTVSPost2010Prop53
 90
        2
102
RTVSPost2010PropOp53
 70
     0
102
RTVSPost2010Prop54
  1
strokes_ogs.tif
102
RTVSPost2010PropOp54
 70
     0
102
RTVSPost2010Prop55
280
     0
102
RTVSPost2010PropOp55
 70
     0
102
RTVSPost2010Prop56
140
1.0
102
RTVSPost2010PropOp56
 70
     0
102
RTVSPost2010Prop57
140
1.0
102
RTVSPost2010PropOp57
 70
     0
  0
XRECORD
  5
24A
102
{ACAD_REACTORS
330
249
102
}
330
249
100
AcDbXrecord
280
     1
102
RTVSPost2010Prop28
280
     0
102
RTVSPost2010PropOp28
 70
     1
102
RTVSPost2010Prop29
280
     1
102
RTVSPost2010PropOp29
 70
     1
102
RTVSPost2010Prop30
280
     1
102
RTVSPost2010PropOp30
 70
     1
102
RTVSPost2010Prop31
280
     0
102
RTVSPost2010PropOp31
 70
     1
102
RTVSPost2010Prop32
280
     0
102
RTVSPost2010PropOp32
 70
     1
102
RTVSPost2010Prop33
280
     0
102
RTVSPost2010PropOp33
 70
     1
102
RTVSPost2010Prop34
280
     0
102
RTVSPost2010PropOp34
 70
     1
102
RTVSPost2010Prop35
280
     0
102
RTVSPost2010PropOp35
 70
     1
102
RTVSPost2010Prop36
280
     0
102
RTVSPost2010PropOp36
 70
     1
102
RTVSPost2010Prop37
 90
       50
102
RTVSPost2010PropOp37
 70
     1
102
RTVSPost2010Prop38
140
0.0
102
RTVSPost2010PropOp38
 70
     1
102
RTVSPost2010Prop39
140
1.0
102
RTVSPost2010PropOp39
 70
     1
102
RTVSPost2010Prop40
 90
        0
102
RTVSPost2010PropOp40
 70
     1
102
RTVSPost2010Prop41ColorIndex
 90
       18
102
RTVSPost2010Prop41ColorRGB
 90
        0
102
RTVSPost2010PropOp41
 70
     1
102
RTVSPost2010Prop42
 90
       50
102
RTVSPost2010PropOp42
 70
     1
102
RTVSPost2010Prop43
 90
        3
102
RTVSPost2010PropOp43
 70
     1
102
RTVSPost2010Prop44ColorIndex
 90
        5
102
RTVSPost2010Prop44ColorRGB
 90
      255
102
RTVSPost2010PropOp44
 70
     1
102
RTVSPost2010Prop45
280
     0
102
RTVSPost2010PropOp45
 70
     1
102
RTVSPost2010Prop46
 90
       50
102
RTVSPost2010PropOp46
 70
     1
102
RTVSPost2010Prop47
 90
       50
102
RTVSPost2010PropOp47
 70
     1
102
RTVSPost2010Prop48
 90
       50
102
RTVSPost2010PropOp48
 70
     1
102
RTVSPost2010Prop49
280
     0
102
RTVSPost2010PropOp49
 70
     1
102
RTVSPost2010Prop50
 90
       50
102
RTVSPost2010PropOp50
 70
     1
102
RTVSPost2010Prop51ColorIndex
 90
      256
102
RTVSPost2010Prop51ColorRGB
 90
-16777216
102
RTVSPost2010PropOp51
 70
     0
102
RTVSPost2010Prop52
140
1.0
102
RTVSPost2010PropOp52
 70
     0
102
RTVSPost2010Prop53
 90
        2
102
RTVSPost2010PropOp53
 70
     1
102
RTVSPost2010Prop54
  1
strokes_ogs.tif
102
RTVSPost2010PropOp54
 70
     1
102
RTVSPost2010Prop55
280
     0
102
RTVSPost2010PropOp55
 70
     1
102
RTVSPost2010Prop56
140
1.0
102
RTVSPost2010PropOp56
 70
     1
102
RTVSPost2010Prop57
140
1.0
102
RTVSPost2010PropOp57
 70
     1
  0
XRECORD
  5
268
102
{ACAD_REACTORS
330
267
102
}
330
267
100
AcDbXrecord
280
     1
102
RTVSPost2010Prop28
280
     0
102
RTVSPost2010PropOp28
 70
     1
102
RTVSPost2010Prop29
280
     1
102
RTVSPost2010PropOp29
 70
     1
102
RTVSPost2010Prop30
280
     1
102
RTVSPost2010PropOp30
 70
     1
102
RTVSPost2010Prop31
280
     0
102
RTVSPost2010PropOp31
 70
     1
102
RTVSPost2010Prop32
280
     0
102
RTVSPost2010PropOp32
 70
     1
102
RTVSPost2010Prop33
280
     0
102
RTVSPost2010PropOp33
 70
     1
102
RTVSPost2010Prop34
280
     0
102
RTVSPost2010PropOp34
 70
     1
102
RTVSPost2010Prop35
280
     0
102
RTVSPost2010PropOp35
 70
     1
102
RTVSPost2010Prop36
280
     0
102
RTVSPost2010PropOp36
 70
     1
102
RTVSPost2010Prop37
 90
       50
102
RTVSPost2010PropOp37
 70
     1
102
RTVSPost2010Prop38
140
0.0
102
RTVSPost2010PropOp38
 70
     1
102
RTVSPost2010Prop39
140
1.0
102
RTVSPost2010PropOp39
 70
     1
102
RTVSPost2010Prop40
 90
        0
102
RTVSPost2010PropOp40
 70
     1
102
RTVSPost2010Prop41ColorIndex
 90
       18
102
RTVSPost2010Prop41ColorRGB
 90
        0
102
RTVSPost2010PropOp41
 70
     1
102
RTVSPost2010Prop42
 90
       50
102
RTVSPost2010PropOp42
 70
     1
102
RTVSPost2010Prop43
 90
        3
102
RTVSPost2010PropOp43
 70
     1
102
RTVSPost2010Prop44ColorIndex
 90
        5
102
RTVSPost2010Prop44ColorRGB
 90
      255
102
RTVSPost2010PropOp44
 70
     1
102
RTVSPost2010Prop45
280
     0
102
RTVSPost2010PropOp45
 70
     1
102
RTVSPost2010Prop46
 90
       50
102
RTVSPost2010PropOp46
 70
     1
102
RTVSPost2010Prop47
 90
       50
102
RTVSPost2010PropOp47
 70
     1
102
RTVSPost2010Prop48
 90
       50
102
RTVSPost2010PropOp48
 70
     1
102
RTVSPost2010Prop49
280
     0
102
RTVSPost2010PropOp49
 70
     1
102
RTVSPost2010Prop50
 90
       50
102
RTVSPost2010PropOp50
 70
     1
102
RTVSPost2010Prop51ColorIndex
 90
      256
102
RTVSPost2010Prop51ColorRGB
 90
-16777216
102
RTVSPost2010PropOp51
 70
     0
102
RTVSPost2010Prop52
140
1.0
102
RTVSPost2010PropOp52
 70
     0
102
RTVSPost2010Prop53
 90
        2
102
RTVSPost2010PropOp53
 70
     1
102
RTVSPost2010Prop54
  1
strokes_ogs.tif
102
RTVSPost2010PropOp54
 70
     1
102
RTVSPost2010Prop55
280
     0
102
RTVSPost2010PropOp55
 70
     1
102
RTVSPost2010Prop56
140
1.0
102
RTVSPost2010PropOp56
 70
     1
102
RTVSPost2010Prop57
140
1.0
102
RTVSPost2010PropOp57
 70
     1
  0
XRECORD
  5
266
102
{ACAD_REACTORS
330
265
102
}
330
265
100
AcDbXrecord
280
     1
102
RTVSPost2010Prop28
280
     0
102
RTVSPost2010PropOp28
 70
     1
102
RTVSPost2010Prop29
280
     1
102
RTVSPost2010PropOp29
 70
     1
102
RTVSPost2010Prop30
280
     1
102
RTVSPost2010PropOp30
 70
     1
102
RTVSPost2010Prop31
280
     0
102
RTVSPost2010PropOp31
 70
     1
102
RTVSPost2010Prop32
280
     0
102
RTVSPost2010PropOp32
 70
     1
102
RTVSPost2010Prop33
280
     0
102
RTVSPost2010PropOp33
 70
     1
102
RTVSPost2010Prop34
280
     0
102
RTVSPost2010PropOp34
 70
     1
102
RTVSPost2010Prop35
280
     0
102
RTVSPost2010PropOp35
 70
     1
102
RTVSPost2010Prop36
280
     0
102
RTVSPost2010PropOp36
 70
     1
102
RTVSPost2010Prop37
 90
       50
102
RTVSPost2010PropOp37
 70
     1
102
RTVSPost2010Prop38
140
0.0
102
RTVSPost2010PropOp38
 70
     1
102
RTVSPost2010Prop39
140
1.0
102
RTVSPost2010PropOp39
 70
     1
102
RTVSPost2010Prop40
 90
        0
102
RTVSPost2010PropOp40
 70
     1
102
RTVSPost2010Prop41ColorIndex
 90
       18
102
RTVSPost2010Prop41ColorRGB
 90
        0
102
RTVSPost2010PropOp41
 70
     1
102
RTVSPost2010Prop42
 90
       50
102
RTVSPost2010PropOp42
 70
     1
102
RTVSPost2010Prop43
 90
        3
102
RTVSPost2010PropOp43
 70
     1
102
RTVSPost2010Prop44ColorIndex
 90
        5
102
RTVSPost2010Prop44ColorRGB
 90
      255
102
RTVSPost2010PropOp44
 70
     1
102
RTVSPost2010Prop45
280
     0
102
RTVSPost2010PropOp45
 70
     1
102
RTVSPost2010Prop46
 90
       50
102
RTVSPost2010PropOp46
 70
     1
102
RTVSPost2010Prop47
 90
       50
102
RTVSPost2010PropOp47
 70
     1
102
RTVSPost2010Prop48
 90
       50
102
RTVSPost2010PropOp48
 70
     1
102
RTVSPost2010Prop49
280
     0
102
RTVSPost2010PropOp49
 70
     1
102
RTVSPost2010Prop50
 90
       50
102
RTVSPost2010PropOp50
 70
     1
102
RTVSPost2010Prop51ColorIndex
 90
      256
102
RTVSPost2010Prop51ColorRGB
 90
-16777216
102
RTVSPost2010PropOp51
 70
     0
102
RTVSPost2010Prop52
140
1.0
102
RTVSPost2010PropOp52
 70
     0
102
RTVSPost2010Prop53
 90
        2
102
RTVSPost2010PropOp53
 70
     1
102
RTVSPost2010Prop54
  1
strokes_ogs.tif
102
RTVSPost2010PropOp54
 70
     1
102
RTVSPost2010Prop55
280
     0
102
RTVSPost2010PropOp55
 70
     1
102
RTVSPost2010Prop56
140
1.0
102
RTVSPost2010PropOp56
 70
     1
102
RTVSPost2010Prop57
140
1.0
102
RTVSPost2010PropOp57
 70
     1
  0
XRECORD
  5
260
102
{ACAD_REACTORS
330
25F
102
}
330
25F
100
AcDbXrecord
280
     1
102
RTVSPost2010Prop28
280
     0
102
RTVSPost2010PropOp28
 70
     1
102
RTVSPost2010Prop29
280
     1
102
RTVSPost2010PropOp29
 70
     1
102
RTVSPost2010Prop30
280
     1
102
RTVSPost2010PropOp30
 70
     1
102
RTVSPost2010Prop31
280
     0
102
RTVSPost2010PropOp31
 70
     1
102
RTVSPost2010Prop32
280
     0
102
RTVSPost2010PropOp32
 70
     1
102
RTVSPost2010Prop33
280
     0
102
RTVSPost2010PropOp33
 70
     1
102
RTVSPost2010Prop34
280
     0
102
RTVSPost2010PropOp34
 70
     1
102
RTVSPost2010Prop35
280
     0
102
RTVSPost2010PropOp35
 70
     1
102
RTVSPost2010Prop36
280
     0
102
RTVSPost2010PropOp36
 70
     1
102
RTVSPost2010Prop37
 90
       50
102
RTVSPost2010PropOp37
 70
     1
102
RTVSPost2010Prop38
140
0.0
102
RTVSPost2010PropOp38
 70
     1
102
RTVSPost2010Prop39
140
1.0
102
RTVSPost2010PropOp39
 70
     1
102
RTVSPost2010Prop40
 90
        0
102
RTVSPost2010PropOp40
 70
     1
102
RTVSPost2010Prop41ColorIndex
 90
       18
102
RTVSPost2010Prop41ColorRGB
 90
        0
102
RTVSPost2010PropOp41
 70
     1
102
RTVSPost2010Prop42
 90
       50
102
RTVSPost2010PropOp42
 70
     1
102
RTVSPost2010Prop43
 90
        3
102
RTVSPost2010PropOp43
 70
     1
102
RTVSPost2010Prop44ColorIndex
 90
        5
102
RTVSPost2010Prop44ColorRGB
 90
      255
102
RTVSPost2010PropOp44
 70
     1
102
RTVSPost2010Prop45
280
     0
102
RTVSPost2010PropOp45
 70
     1
102
RTVSPost2010Prop46
 90
       50
102
RTVSPost2010PropOp46
 70
     1
102
RTVSPost2010Prop47
 90
       50
102
RTVSPost2010PropOp47
 70
     1
102
RTVSPost2010Prop48
 90
       50
102
RTVSPost2010PropOp48
 70
     1
102
RTVSPost2010Prop49
280
     0
102
RTVSPost2010PropOp49
 70
     1
102
RTVSPost2010Prop50
 90
       50
102
RTVSPost2010PropOp50
 70
     1
102
RTVSPost2010Prop51ColorIndex
 90
      256
102
RTVSPost2010Prop51ColorRGB
 90
-16777216
102
RTVSPost2010PropOp51
 70
     0
102
RTVSPost2010Prop52
140
1.0
102
RTVSPost2010PropOp52
 70
     0
102
RTVSPost2010Prop53
 90
        2
102
RTVSPost2010PropOp53
 70
     1
102
RTVSPost2010Prop54
  1
strokes_ogs.tif
102
RTVSPost2010PropOp54
 70
     1
102
RTVSPost2010Prop55
280
     0
102
RTVSPost2010PropOp55
 70
     1
102
RTVSPost2010Prop56
140
1.0
102
RTVSPost2010PropOp56
 70
     1
102
RTVSPost2010Prop57
140
1.0
102
RTVSPost2010PropOp57
 70
     1
  0
XRECORD
  5
262
102
{ACAD_REACTORS
330
261
102
}
330
261
100
AcDbXrecord
280
     1
102
RTVSPost2010Prop28
280
     0
102
RTVSPost2010PropOp28
 70
     1
102
RTVSPost2010Prop29
280
     1
102
RTVSPost2010PropOp29
 70
     1
102
RTVSPost2010Prop30
280
     1
102
RTVSPost2010PropOp30
 70
     1
102
RTVSPost2010Prop31
280
     0
102
RTVSPost2010PropOp31
 70
     1
102
RTVSPost2010Prop32
280
     0
102
RTVSPost2010PropOp32
 70
     1
102
RTVSPost2010Prop33
280
     0
102
RTVSPost2010PropOp33
 70
     1
102
RTVSPost2010Prop34
280
     0
102
RTVSPost2010PropOp34
 70
     1
102
RTVSPost2010Prop35
280
     0
102
RTVSPost2010PropOp35
 70
     1
102
RTVSPost2010Prop36
280
     0
102
RTVSPost2010PropOp36
 70
     1
102
RTVSPost2010Prop37
 90
       50
102
RTVSPost2010PropOp37
 70
     1
102
RTVSPost2010Prop38
140
0.0
102
RTVSPost2010PropOp38
 70
     1
102
RTVSPost2010Prop39
140
1.0
102
RTVSPost2010PropOp39
 70
     1
102
RTVSPost2010Prop40
 90
        0
102
RTVSPost2010PropOp40
 70
     1
102
RTVSPost2010Prop41ColorIndex
 90
       18
102
RTVSPost2010Prop41ColorRGB
 90
        0
102
RTVSPost2010PropOp41
 70
     1
102
RTVSPost2010Prop42
 90
       50
102
RTVSPost2010PropOp42
 70
     1
102
RTVSPost2010Prop43
 90
        3
102
RTVSPost2010PropOp43
 70
     1
102
RTVSPost2010Prop44ColorIndex
 90
        5
102
RTVSPost2010Prop44ColorRGB
 90
      255
102
RTVSPost2010PropOp44
 70
     1
102
RTVSPost2010Prop45
280
     0
102
RTVSPost2010PropOp45
 70
     1
102
RTVSPost2010Prop46
 90
       50
102
RTVSPost2010PropOp46
 70
     1
102
RTVSPost2010Prop47
 90
       50
102
RTVSPost2010PropOp47
 70
     1
102
RTVSPost2010Prop48
 90
       50
102
RTVSPost2010PropOp48
 70
     1
102
RTVSPost2010Prop49
280
     0
102
RTVSPost2010PropOp49
 70
     1
102
RTVSPost2010Prop50
 90
       50
102
RTVSPost2010PropOp50
 70
     1
102
RTVSPost2010Prop51ColorIndex
 90
      256
102
RTVSPost2010Prop51ColorRGB
 90
-16777216
102
RTVSPost2010PropOp51
 70
     0
102
RTVSPost2010Prop52
140
1.0
102
RTVSPost2010PropOp52
 70
     0
102
RTVSPost2010Prop53
 90
        2
102
RTVSPost2010PropOp53
 70
     1
102
RTVSPost2010Prop54
  1
strokes_ogs.tif
102
RTVSPost2010PropOp54
 70
     1
102
RTVSPost2010Prop55
280
     0
102
RTVSPost2010PropOp55
 70
     1
102
RTVSPost2010Prop56
140
1.0
102
RTVSPost2010PropOp56
 70
     1
102
RTVSPost2010Prop57
140
1.0
102
RTVSPost2010PropOp57
 70
     1
  0
XRECORD
  5
252
102
{ACAD_REACTORS
330
251
102
}
330
251
100
AcDbXrecord
280
     1
102
RTVSPost2010Prop28
280
     0
102
RTVSPost2010PropOp28
 70
     1
102
RTVSPost2010Prop29
280
     1
102
RTVSPost2010PropOp29
 70
     1
102
RTVSPost2010Prop30
280
     1
102
RTVSPost2010PropOp30
 70
     1
102
RTVSPost2010Prop31
280
     0
102
RTVSPost2010PropOp31
 70
     1
102
RTVSPost2010Prop32
280
     0
102
RTVSPost2010PropOp32
 70
     1
102
RTVSPost2010Prop33
280
     0
102
RTVSPost2010PropOp33
 70
     1
102
RTVSPost2010Prop34
280
     0
102
RTVSPost2010PropOp34
 70
     1
102
RTVSPost2010Prop35
280
     0
102
RTVSPost2010PropOp35
 70
     1
102
RTVSPost2010Prop36
280
     0
102
RTVSPost2010PropOp36
 70
     1
102
RTVSPost2010Prop37
 90
       50
102
RTVSPost2010PropOp37
 70
     1
102
RTVSPost2010Prop38
140
0.0
102
RTVSPost2010PropOp38
 70
     1
102
RTVSPost2010Prop39
140
1.0
102
RTVSPost2010PropOp39
 70
     1
102
RTVSPost2010Prop40
 90
        0
102
RTVSPost2010PropOp40
 70
     1
102
RTVSPost2010Prop41ColorIndex
 90
       18
102
RTVSPost2010Prop41ColorRGB
 90
        0
102
RTVSPost2010PropOp41
 70
     1
102
RTVSPost2010Prop42
 90
       50
102
RTVSPost2010PropOp42
 70
     1
102
RTVSPost2010Prop43
 90
        3
102
RTVSPost2010PropOp43
 70
     1
102
RTVSPost2010Prop44ColorIndex
 90
        5
102
RTVSPost2010Prop44ColorRGB
 90
      255
102
RTVSPost2010PropOp44
 70
     1
102
RTVSPost2010Prop45
280
     0
102
RTVSPost2010PropOp45
 70
     1
102
RTVSPost2010Prop46
 90
       50
102
RTVSPost2010PropOp46
 70
     1
102
RTVSPost2010Prop47
 90
       50
102
RTVSPost2010PropOp47
 70
     1
102
RTVSPost2010Prop48
 90
       50
102
RTVSPost2010PropOp48
 70
     1
102
RTVSPost2010Prop49
280
     0
102
RTVSPost2010PropOp49
 70
     1
102
RTVSPost2010Prop50
 90
       50
102
RTVSPost2010PropOp50
 70
     1
102
RTVSPost2010Prop51ColorIndex
 90
      256
102
RTVSPost2010Prop51ColorRGB
 90
-16777216
102
RTVSPost2010PropOp51
 70
     0
102
RTVSPost2010Prop52
140
1.0
102
RTVSPost2010PropOp52
 70
     0
102
RTVSPost2010Prop53
 90
        2
102
RTVSPost2010PropOp53
 70
     1
102
RTVSPost2010Prop54
  1
strokes_ogs.tif
102
RTVSPost2010PropOp54
 70
     1
102
RTVSPost2010Prop55
280
     0
102
RTVSPost2010PropOp55
 70
     1
102
RTVSPost2010Prop56
140
1.0
102
RTVSPost2010PropOp56
 70
     1
102
RTVSPost2010Prop57
140
1.0
102
RTVSPost2010PropOp57
 70
     1
  0
XRECORD
  5
244
102
{ACAD_REACTORS
330
243
102
}
330
243
100
AcDbXrecord
280
     1
102
RTVSPost2010Prop28
280
     0
102
RTVSPost2010PropOp28
 70
     1
102
RTVSPost2010Prop29
280
     1
102
RTVSPost2010PropOp29
 70
     1
102
RTVSPost2010Prop30
280
     1
102
RTVSPost2010PropOp30
 70
     1
102
RTVSPost2010Prop31
280
     0
102
RTVSPost2010PropOp31
 70
     1
102
RTVSPost2010Prop32
280
     0
102
RTVSPost2010PropOp32
 70
     1
102
RTVSPost2010Prop33
280
     0
102
RTVSPost2010PropOp33
 70
     1
102
RTVSPost2010Prop34
280
     0
102
RTVSPost2010PropOp34
 70
     1
102
RTVSPost2010Prop35
280
     0
102
RTVSPost2010PropOp35
 70
     1
102
RTVSPost2010Prop36
280
     0
102
RTVSPost2010PropOp36
 70
     1
102
RTVSPost2010Prop37
 90
       50
102
RTVSPost2010PropOp37
 70
     1
102
RTVSPost2010Prop38
140
0.0
102
RTVSPost2010PropOp38
 70
     1
102
RTVSPost2010Prop39
140
1.0
102
RTVSPost2010PropOp39
 70
     1
102
RTVSPost2010Prop40
 90
        0
102
RTVSPost2010PropOp40
 70
     1
102
RTVSPost2010Prop41ColorIndex
 90
       18
102
RTVSPost2010Prop41ColorRGB
 90
        0
102
RTVSPost2010PropOp41
 70
     1
102
RTVSPost2010Prop42
 90
       50
102
RTVSPost2010PropOp42
 70
     1
102
RTVSPost2010Prop43
 90
        3
102
RTVSPost2010PropOp43
 70
     1
102
RTVSPost2010Prop44ColorIndex
 90
        5
102
RTVSPost2010Prop44ColorRGB
 90
      255
102
RTVSPost2010PropOp44
 70
     1
102
RTVSPost2010Prop45
280
     0
102
RTVSPost2010PropOp45
 70
     1
102
RTVSPost2010Prop46
 90
       50
102
RTVSPost2010PropOp46
 70
     1
102
RTVSPost2010Prop47
 90
       50
102
RTVSPost2010PropOp47
 70
     1
102
RTVSPost2010Prop48
 90
       50
102
RTVSPost2010PropOp48
 70
     1
102
RTVSPost2010Prop49
280
     0
102
RTVSPost2010PropOp49
 70
     1
102
RTVSPost2010Prop50
 90
       50
102
RTVSPost2010PropOp50
 70
     1
102
RTVSPost2010Prop51ColorIndex
 90
      256
102
RTVSPost2010Prop51ColorRGB
 90
-16777216
102
RTVSPost2010PropOp51
 70
     0
102
RTVSPost2010Prop52
140
1.0
102
RTVSPost2010PropOp52
 70
     0
102
RTVSPost2010Prop53
 90
        2
102
RTVSPost2010PropOp53
 70
     1
102
RTVSPost2010Prop54
  1
strokes_ogs.tif
102
RTVSPost2010PropOp54
 70
     1
102
RTVSPost2010Prop55
280
     0
102
RTVSPost2010PropOp55
 70
     1
102
RTVSPost2010Prop56
140
1.0
102
RTVSPost2010PropOp56
 70
     1
102
RTVSPost2010Prop57
140
1.0
102
RTVSPost2010PropOp57
 70
     1
  0
XRECORD
  5
264
102
{ACAD_REACTORS
330
263
102
}
330
263
100
AcDbXrecord
280
     1
102
RTVSPost2010Prop28
280
     0
102
RTVSPost2010PropOp28
 70
     1
102
RTVSPost2010Prop29
280
     1
102
RTVSPost2010PropOp29
 70
     1
102
RTVSPost2010Prop30
280
     1
102
RTVSPost2010PropOp30
 70
     1
102
RTVSPost2010Prop31
280
     0
102
RTVSPost2010PropOp31
 70
     1
102
RTVSPost2010Prop32
280
     0
102
RTVSPost2010PropOp32
 70
     1
102
RTVSPost2010Prop33
280
     0
102
RTVSPost2010PropOp33
 70
     1
102
RTVSPost2010Prop34
280
     0
102
RTVSPost2010PropOp34
 70
     1
102
RTVSPost2010Prop35
280
     0
102
RTVSPost2010PropOp35
 70
     1
102
RTVSPost2010Prop36
280
     0
102
RTVSPost2010PropOp36
 70
     1
102
RTVSPost2010Prop37
 90
       50
102
RTVSPost2010PropOp37
 70
     1
102
RTVSPost2010Prop38
140
0.0
102
RTVSPost2010PropOp38
 70
     1
102
RTVSPost2010Prop39
140
1.0
102
RTVSPost2010PropOp39
 70
     1
102
RTVSPost2010Prop40
 90
        0
102
RTVSPost2010PropOp40
 70
     1
102
RTVSPost2010Prop41ColorIndex
 90
       18
102
RTVSPost2010Prop41ColorRGB
 90
        0
102
RTVSPost2010PropOp41
 70
     1
102
RTVSPost2010Prop42
 90
       50
102
RTVSPost2010PropOp42
 70
     1
102
RTVSPost2010Prop43
 90
        3
102
RTVSPost2010PropOp43
 70
     1
102
RTVSPost2010Prop44ColorIndex
 90
        5
102
RTVSPost2010Prop44ColorRGB
 90
      255
102
RTVSPost2010PropOp44
 70
     1
102
RTVSPost2010Prop45
280
     0
102
RTVSPost2010PropOp45
 70
     1
102
RTVSPost2010Prop46
 90
       50
102
RTVSPost2010PropOp46
 70
     1
102
RTVSPost2010Prop47
 90
       50
102
RTVSPost2010PropOp47
 70
     1
102
RTVSPost2010Prop48
 90
       50
102
RTVSPost2010PropOp48
 70
     1
102
RTVSPost2010Prop49
280
     0
102
RTVSPost2010PropOp49
 70
     1
102
RTVSPost2010Prop50
 90
       50
102
RTVSPost2010PropOp50
 70
     1
102
RTVSPost2010Prop51ColorIndex
 90
      256
102
RTVSPost2010Prop51ColorRGB
 90
-16777216
102
RTVSPost2010PropOp51
 70
     0
102
RTVSPost2010Prop52
140
1.0
102
RTVSPost2010PropOp52
 70
     0
102
RTVSPost2010Prop53
 90
        2
102
RTVSPost2010PropOp53
 70
     1
102
RTVSPost2010Prop54
  1
strokes_ogs.tif
102
RTVSPost2010PropOp54
 70
     1
102
RTVSPost2010Prop55
280
     0
102
RTVSPost2010PropOp55
 70
     1
102
RTVSPost2010Prop56
140
1.0
102
RTVSPost2010PropOp56
 70
     1
102
RTVSPost2010Prop57
140
1.0
102
RTVSPost2010PropOp57
 70
     1
  0
ENDSEC
  0
EOF
