  0
SECTION
  2
HEADER
  9
$ACADVER
  1
AC1024
  9
$ACADMAINTVER
 70
     6
  9
$DWGCODEPAGE
  3
ANSI_1252
  9
$INSBASE
 10
0.0
 20
0.0
 30
0.0
  9
$EXTMIN
 10
1.000000E+20
 20
1.000000E+20
 30
1.000000E+20
  9
$EXTMAX
 10
-1.000000E+20
 20
-1.000000E+20
 30
-1.000000E+20
  9
$LIMMIN
 10
0.0
 20
0.0
  9
$LIMMAX
 10
420.0
 20
297.0
  9
$ORTHOMODE
 70
     0
  9
$REGENMODE
 70
     1
  9
$FILLMODE
 70
     1
  9
$QTEXTMODE
 70
     0
  9
$MIRRTEXT
 70
     1
  9
$LTSCALE
 40
1.0
  9
$ATTMODE
 70
     1
  9
$TEXTSIZE
 40
2.5
  9
$TRACEWID
 40
1.0
  9
$TEXTSTYLE
  7
Standard
  9
$CLAYER
  8
0
  9
$CELTYPE
  6
ByLayer
  9
$CECOLOR
 62
   256
  9
$CELTSCALE
 40
1.0
  9
$DISPSILH
 70
     0
  9
$DIMSCALE
 40
1.0
  9
$DIMASZ
 40
2.5
  9
$DIMEXO
 40
0.625
  9
$DIMDLI
 40
3.75
  9
$DIMRND
 40
0.0
  9
$DIMDLE
 40
0.0
  9
$DIMEXE
 40
1.25
  9
$DIMTP
 40
0.0
  9
$DIMTM
 40
0.0
  9
$DIMTXT
 40
2.5
  9
$DIMCEN
 40
2.5
  9
$DIMTSZ
 40
0.0
  9
$DIMTOL
 70
     0
  9
$DIMLIM
 70
     0
  9
$DIMTIH
 70
     0
  9
$DIMTOH
 70
     0
  9
$DIMSE1
 70
     0
  9
$DIMSE2
 70
     0
  9
$DIMTAD
 70
     1
  9
$DIMZIN
 70
     8
  9
$DIMBLK
  1

  9
$DIMASO
 70
     1
  9
$DIMSHO
 70
     1
  9
$DIMPOST
  1

  9
$DIMAPOST
  1

  9
$DIMALT
 70
     0
  9
$DIMALTD
 70
     3
  9
$DIMALTF
 40
0.03937
  9
$DIMLFAC
 40
1.0
  9
$DIMTOFL
 70
     1
  9
$DIMTVP
 40
0.0
  9
$DIMTIX
 70
     0
  9
$DIMSOXD
 70
     0
  9
$DIMSAH
 70
     0
  9
$DIMBLK1
  1

  9
$DIMBLK2
  1

  9
$DIMSTYLE
  2
ISO-25
  9
$DIMCLRD
 70
     0
  9
$DIMCLRE
 70
     0
  9
$DIMCLRT
 70
     0
  9
$DIMTFAC
 40
1.0
  9
$DIMGAP
 40
0.625
  9
$DIMJUST
 70
     0
  9
$DIMSD1
 70
     0
  9
$DIMSD2
 70
     0
  9
$DIMTOLJ
 70
     0
  9
$DIMTZIN
 70
     8
  9
$DIMALTZ
 70
     0
  9
$DIMALTTZ
 70
     0
  9
$DIMUPT
 70
     0
  9
$DIMDEC
 70
     2
  9
$DIMTDEC
 70
     2
  9
$DIMALTU
 70
     2
  9
$DIMALTTD
 70
     3
  9
$DIMTXSTY
  7
Standard
  9
$DIMAUNIT
 70
     0
  9
$DIMADEC
 70
     0
  9
$DIMALTRND
 40
0.0
  9
$DIMAZIN
 70
     0
  9
$DIMDSEP
 70
    44
  9
$DIMATFIT
 70
     3
  9
$DIMFRAC
 70
     0
  9
$DIMLDRBLK
  1

  9
$DIMLUNIT
 70
     2
  9
$DIMLWD
 70
    -2
  9
$DIMLWE
 70
    -2
  9
$DIMTMOVE
 70
     0
  9
$DIMFXL
 40
1.0
  9
$DIMFXLON
 70
     0
  9
$DIMJOGANG
 40
0.785398
  9
$DIMTFILL
 70
     0
  9
$DIMTFILLCLR
 70
     0
  9
$DIMARCSYM
 70
     0
  9
$DIMLTYPE
  6

  9
$DIMLTEX1
  6

  9
$DIMLTEX2
  6

  9
$DIMTXTDIRECTION
 70
     0
  9
$LUNITS
 70
     2
  9
$LUPREC
 70
     4
  9
$SKETCHINC
 40
1.0
  9
$FILLETRAD
 40
10.0
  9
$AUNITS
 70
     0
  9
$AUPREC
 70
     0
  9
$MENU
  1
.
  9
$ELEVATION
 40
0.0
  9
$PELEVATION
 40
0.0
  9
$THICKNESS
 40
0.0
  9
$LIMCHECK
 70
     0
  9
$CHAMFERA
 40
0.0
  9
$CHAMFERB
 40
0.0
  9
$CHAMFERC
 40
0.0
  9
$CHAMFERD
 40
0.0
  9
$SKPOLY
 70
     0
  9
$TDCREATE
 40
2458673.630567292
  9
$TDUCREATE
 40
2458673.547233958
  9
$TDUPDATE
 40
2458673.630567836
  9
$TDUUPDATE
 40
2458673.547234502
  9
$TDINDWG
 40
0.0000000116
  9
$TDUSRTIMER
 40
0.0000000116
  9
$USRTIMER
 70
     1
  9
$ANGBASE
 50
0.0
  9
$ANGDIR
 70
     0
  9
$PDMODE
 70
     0
  9
$PDSIZE
 40
0.0
  9
$PLINEWID
 40
0.0
  9
$SPLFRAME
 70
     0
  9
$SPLINETYPE
 70
     6
  9
$SPLINESEGS
 70
     8
  9
$HANDSEED
  5
223
  9
$SURFTAB1
 70
     6
  9
$SURFTAB2
 70
     6
  9
$SURFTYPE
 70
     6
  9
$SURFU
 70
     6
  9
$SURFV
 70
     6
  9
$UCSBASE
  2

  9
$UCSNAME
  2

  9
$UCSORG
 10
0.0
 20
0.0
 30
0.0
  9
$UCSXDIR
 10
1.0
 20
0.0
 30
0.0
  9
$UCSYDIR
 10
0.0
 20
1.0
 30
0.0
  9
$UCSORTHOREF
  2

  9
$UCSORTHOVIEW
 70
     0
  9
$UCSORGTOP
 10
0.0
 20
0.0
 30
0.0
  9
$UCSORGBOTTOM
 10
0.0
 20
0.0
 30
0.0
  9
$UCSORGLEFT
 10
0.0
 20
0.0
 30
0.0
  9
$UCSORGRIGHT
 10
0.0
 20
0.0
 30
0.0
  9
$UCSORGFRONT
 10
0.0
 20
0.0
 30
0.0
  9
$UCSORGBACK
 10
0.0
 20
0.0
 30
0.0
  9
$PUCSBASE
  2

  9
$PUCSNAME
  2

  9
$PUCSORG
 10
0.0
 20
0.0
 30
0.0
  9
$PUCSXDIR
 10
1.0
 20
0.0
 30
0.0
  9
$PUCSYDIR
 10
0.0
 20
1.0
 30
0.0
  9
$PUCSORTHOREF
  2

  9
$PUCSORTHOVIEW
 70
     0
  9
$PUCSORGTOP
 10
0.0
 20
0.0
 30
0.0
  9
$PUCSORGBOTTOM
 10
0.0
 20
0.0
 30
0.0
  9
$PUCSORGLEFT
 10
0.0
 20
0.0
 30
0.0
  9
$PUCSORGRIGHT
 10
0.0
 20
0.0
 30
0.0
  9
$PUCSORGFRONT
 10
0.0
 20
0.0
 30
0.0
  9
$PUCSORGBACK
 10
0.0
 20
0.0
 30
0.0
  9
$USERI1
 70
     0
  9
$USERI2
 70
     0
  9
$USERI3
 70
     0
  9
$USERI4
 70
     0
  9
$USERI5
 70
     0
  9
$USERR1
 40
0.0
  9
$USERR2
 40
0.0
  9
$USERR3
 40
0.0
  9
$USERR4
 40
0.0
  9
$USERR5
 40
0.0
  9
$WORLDVIEW
 70
     1
  9
$SHADEDGE
 70
     3
  9
$SHADEDIF
 70
    70
  9
$TILEMODE
 70
     1
  9
$MAXACTVP
 70
    64
  9
$PINSBASE
 10
0.0
 20
0.0
 30
0.0
  9
$PLIMCHECK
 70
     0
  9
$PEXTMIN
 10
1.000000E+20
 20
1.000000E+20
 30
1.000000E+20
  9
$PEXTMAX
 10
-1.000000E+20
 20
-1.000000E+20
 30
-1.000000E+20
  9
$PLIMMIN
 10
0.0
 20
0.0
  9
$PLIMMAX
 10
420.0
 20
297.0
  9
$UNITMODE
 70
     0
  9
$VISRETAIN
 70
     1
  9
$PLINEGEN
 70
     0
  9
$PSLTSCALE
 70
     1
  9
$TREEDEPTH
 70
  3020
  9
$CMLSTYLE
  2
Standard
  9
$CMLJUST
 70
     0
  9
$CMLSCALE
 40
20.0
  9
$PROXYGRAPHICS
 70
     1
  9
$MEASUREMENT
 70
     1
  9
$CELWEIGHT
370
    -1
  9
$ENDCAPS
280
     0
  9
$JOINSTYLE
280
     0
  9
$LWDISPLAY
290
     0
  9
$INSUNITS
 70
     4
  9
$HYPERLINKBASE
  1

  9
$STYLESHEET
  1

  9
$XEDIT
290
     1
  9
$CEPSNTYPE
380
     0
  9
$PSTYLEMODE
290
     1
  9
$FINGERPRINTGUID
  2
{DE87ECFB-993C-4818-BCAE-81C5EA4CD38C}
  9
$VERSIONGUID
  2
{FAEB1C32-E019-11D5-929B-00C0DF256EC4}
  9
$EXTNAMES
290
     1
  9
$PSVPSCALE
 40
0.0
  9
$OLESTARTUP
290
     0
  9
$SORTENTS
280
   127
  9
$INDEXCTL
280
     0
  9
$HIDETEXT
280
     1
  9
$XCLIPFRAME
280
     2
  9
$HALOGAP
280
     0
  9
$OBSCOLOR
 70
   257
  9
$OBSLTYPE
280
     0
  9
$INTERSECTIONDISPLAY
280
     0
  9
$INTERSECTIONCOLOR
 70
   257
  9
$DIMASSOC
280
     2
  9
$PROJECTNAME
  1

  9
$CAMERADISPLAY
290
     0
  9
$LENSLENGTH
 40
50.0
  9
$CAMERAHEIGHT
 40
0.0
  9
$STEPSPERSEC
 40
2.0
  9
$STEPSIZE
 40
6.0
  9
$3DDWFPREC
 40
2.0
  9
$PSOLWIDTH
 40
5.0
  9
$PSOLHEIGHT
 40
80.0
  9
$LOFTANG1
 40
1.570796
  9
$LOFTANG2
 40
1.570796
  9
$LOFTMAG1
 40
0.0
  9
$LOFTMAG2
 40
0.0
  9
$LOFTPARAM
 70
     7
  9
$LOFTNORMALS
280
     1
  9
$LATITUDE
 40
37.795
  9
$LONGITUDE
 40
-122.394
  9
$NORTHDIRECTION
 40
0.0
  9
$TIMEZONE
 70
 -8000
  9
$LIGHTGLYPHDISPLAY
280
     1
  9
$TILEMODELIGHTSYNCH
280
     1
  9
$CMATERIAL
347
44
  9
$SOLIDHIST
280
     0
  9
$SHOWHIST
280
     1
  9
$DWFFRAME
280
     2
  9
$DGNFRAME
280
     2
  9
$REALWORLDSCALE
290
     1
  9
$INTERFERECOLOR
 62
   256
  9
$CSHADOW
280
     0
  9
$SHADOWPLANELOCATION
 40
0.0
  0
ENDSEC
  0
SECTION
  2
CLASSES
  0
CLASS
  1
ACDBDICTIONARYWDFLT
  2
AcDbDictionaryWithDefault
  3
ObjectDBX Classes
 90
        0
 91
        4
280
     0
281
     0
  0
CLASS
  1
VISUALSTYLE
  2
AcDbVisualStyle
  3
ObjectDBX Classes
 90
     4095
 91
        4
280
     0
281
     0
  0
CLASS
  1
MATERIAL
  2
AcDbMaterial
  3
ObjectDBX Classes
 90
     1153
 91
        4
280
     0
281
     0
  0
CLASS
  1
SCALE
  2
AcDbScale
  3
ObjectDBX Classes
 90
     1153
 91
        4
280
     0
281
     0
  0
CLASS
  1
TABLESTYLE
  2
AcDbTableStyle
  3
ObjectDBX Classes
 90
     4095
 91
        4
280
     0
281
     0
  0
CLASS
  1
MLEADERSTYLE
  2
AcDbMLeaderStyle
  3
ACDB_MLEADERSTYLE_CLASS
 90
     4095
 91
        4
280
     0
281
     0
  0
CLASS
  1
SUN
  2
AcDbSun
  3
SCENEOE
 90
     1153
 91
        4
280
     0
281
     0
  0
CLASS
  1
DICTIONARYVAR
  2
AcDbDictionaryVar
  3
ObjectDBX Classes
 90
        0
 91
        4
280
     0
281
     0
  0
CLASS
  1
CELLSTYLEMAP
  2
AcDbCellStyleMap
  3
ObjectDBX Classes
 90
     1152
 91
        4
280
     0
281
     0
  0
ENDSEC
  0
SECTION
  2
TABLES
  0
TABLE
  2
VPORT
  5
8
330
0
100
AcDbSymbolTable
 70
     1
  0
VPORT
  5
29
330
8
100
AcDbSymbolTableRecord
100
AcDbViewportTableRecord
  2
*Active
 70
     0
 10
0.0
 20
0.0
 11
1.0
 21
1.0
 12
344.186916
 22
148.5
 13
0.0
 23
0.0
 14
10.0
 24
10.0
 15
10.0
 25
10.0
 16
0.0
 26
0.0
 36
1.0
 17
0.0
 27
0.0
 37
0.0
 40
297.0
 41
1.972973
 42
50.0
 43
0.0
 44
0.0
 50
0.0
 51
0.0
 71
     0
 72
   100
 73
     1
 74
     3
 75
     0
 76
     0
 77
     0
 78
     0
281
     0
 65
     1
110
0.0
120
0.0
130
0.0
111
1.0
121
0.0
131
0.0
112
0.0
122
1.0
132
0.0
 79
     0
146
0.0
348
2F
 60
     3
 61
     5
292
     1
282
     1
141
0.0
142
0.0
 63
   250
361
6D
  0
ENDTAB
  0
TABLE
  2
LTYPE
  5
5
330
0
100
AcDbSymbolTable
 70
     1
  0
LTYPE
  5
14
330
5
100
AcDbSymbolTableRecord
100
AcDbLinetypeTableRecord
  2
ByBlock
 70
     0
  3

 72
    65
 73
     0
 40
0.0
  0
LTYPE
  5
15
330
5
100
AcDbSymbolTableRecord
100
AcDbLinetypeTableRecord
  2
ByLayer
 70
     0
  3

 72
    65
 73
     0
 40
0.0
  0
LTYPE
  5
16
330
5
100
AcDbSymbolTableRecord
100
AcDbLinetypeTableRecord
  2
Continuous
 70
     0
  3
Solid line
 72
    65
 73
     0
 40
0.0
  0
ENDTAB
  0
TABLE
  2
LAYER
  5
2
330
0
100
AcDbSymbolTable
 70
     1
  0
LAYER
  5
10
330
2
100
AcDbSymbolTableRecord
100
AcDbLayerTableRecord
  2
0
 70
     0
 62
   106
  6
Continuous
370
     0
390
F
347
46
  0
ENDTAB
  0
TABLE
  2
STYLE
  5
3
330
0
100
AcDbSymbolTable
 70
     4
  0
STYLE
  5
11
330
3
100
AcDbSymbolTableRecord
100
AcDbTextStyleTableRecord
  2
Standard
 70
     0
 40
0.0
 41
1.0
 50
0.0
 71
     0
 42
2.5
  3
txt
  4

  0
STYLE
  5
6E
330
3
100
AcDbSymbolTableRecord
100
AcDbTextStyleTableRecord
  2
Default
 70
     0
 40
0.0
 41
1.0
 50
0.0
 71
     0
 42
2.5
  3

  4

1001
ACAD
1000
txt
1071
        0
  0
STYLE
  5
6F
330
3
100
AcDbSymbolTableRecord
100
AcDbTextStyleTableRecord
  2
ISO
 70
     0
 40
0.0
 41
1.0
 50
0.0
 71
     0
 42
2.5
  3

  4

1001
ACAD
1000
txt
1071
        0
  0
STYLE
  5
70
330
3
100
AcDbSymbolTableRecord
100
AcDbTextStyleTableRecord
  2
zucchetti
 70
     0
 40
0.0
 41
1.0
 50
0.0
 71
     0
 42
2.5
  3

  4

1001
ACAD
1000
Arial
1071
        0
  0
ENDTAB
  0
TABLE
  2
VIEW
  5
6
330
0
100
AcDbSymbolTable
 70
     0
  0
ENDTAB
  0
TABLE
  2
UCS
  5
7
330
0
100
AcDbSymbolTable
 70
     0
  0
ENDTAB
  0
TABLE
  2
APPID
  5
9
330
0
100
AcDbSymbolTable
 70
     1
  0
APPID
  5
12
330
9
100
AcDbSymbolTableRecord
100
AcDbRegAppTableRecord
  2
ACAD
 70
     0
  0
ENDTAB
  0
TABLE
  2
DIMSTYLE
  5
A
330
0
100
AcDbSymbolTable
 70
     4
100
AcDbDimStyleTable
  0
DIMSTYLE
105
27
330
A
100
AcDbSymbolTableRecord
100
AcDbDimStyleTableRecord
  2
ISO-25
 70
     0
 41
2.5
 42
0.625
 43
3.75
 44
1.25
 73
     0
 74
     0
 77
     1
 78
     8
140
2.5
141
2.5
143
0.03937
147
0.625
171
     3
172
     1
178
     0
271
     2
272
     2
274
     3
278
    44
283
     0
284
     8
340
11
  0
DIMSTYLE
105
71
330
A
100
AcDbSymbolTableRecord
100
AcDbDimStyleTableRecord
  2
Default
 70
     0
  3
<>
 41
4.375
 42
1.05
 44
2.1
 49
10.01
 73
     0
 74
     0
 77
     1
 78
     8
140
3.5
146
0.4
147
1.75
172
     1
271
     2
178
     3
271
     2
272
     3
284
     8
340
6E
341
72
342
72
  0
DIMSTYLE
105
79
330
A
100
AcDbSymbolTableRecord
100
AcDbDimStyleTableRecord
  2
ISO
 70
     0
  3
<>
 41
4.375
 42
1.05
 44
2.1
 49
10.01
 73
     0
 74
     0
 77
     1
 78
     8
140
3.5
146
0.4
147
1.75
172
     1
271
     2
178
     3
271
     2
272
     3
284
     8
340
6F
341
72
342
72
  0
DIMSTYLE
105
7A
330
A
100
AcDbSymbolTableRecord
100
AcDbDimStyleTableRecord
  2
zucchetti
 70
     0
  3
<>
 41
3.0
 42
0.9
 44
1.8
 49
8.58
 73
     0
 74
     0
 77
     1
 78
     8
140
3.0
146
0.6
147
1.5
172
     1
176
     3
177
     3
271
     2
178
     3
271
     2
272
     2
284
     8
340
70
  0
ENDTAB
  0
TABLE
  2
BLOCK_RECORD
  5
1
330
0
100
AcDbSymbolTable
 70
     6
  0
BLOCK_RECORD
  5
1F
330
1
100
AcDbSymbolTableRecord
100
AcDbBlockTableRecord
  2
*Model_Space
340
22
 70
     0
280
     1
281
     0
  0
BLOCK_RECORD
  5
1B
330
1
100
AcDbSymbolTableRecord
100
AcDbBlockTableRecord
  2
*Paper_Space
340
1E
 70
     0
280
     1
281
     0
  0
BLOCK_RECORD
  5
23
330
1
100
AcDbSymbolTableRecord
100
AcDbBlockTableRecord
  2
*Paper_Space0
340
26
 70
     0
280
     1
281
     0
  0
BLOCK_RECORD
  5
72
330
1
100
AcDbSymbolTableRecord
100
AcDbBlockTableRecord
  2
_CLOSED
340
0
 70
     0
280
     1
281
     0
  0
BLOCK_RECORD
  5
7B
330
1
100
AcDbSymbolTableRecord
100
AcDbBlockTableRecord
  2
a
340
0
102
{BLKREFS
331
D7
102
}
 70
     0
280
     1
281
     0
  0
BLOCK_RECORD
  5
D8
330
1
100
AcDbSymbolTableRecord
100
AcDbBlockTableRecord
  2
b
340
0
102
{BLKREFS
331
10B
102
}
 70
     0
280
     1
281
     0
  0
BLOCK_RECORD
  5
10C
330
1
100
AcDbSymbolTableRecord
100
AcDbBlockTableRecord
  2
c
340
0
102
{BLKREFS
331
17A
102
}
 70
     0
280
     1
281
     0
  0
BLOCK_RECORD
  5
17B
330
1
100
AcDbSymbolTableRecord
100
AcDbBlockTableRecord
  2
d
340
0
102
{BLKREFS
331
1E9
102
}
 70
     0
280
     1
281
     0
  0
ENDTAB
  0
ENDSEC
  0
SECTION
  2
BLOCKS
  0
BLOCK
  5
20
330
1F
100
AcDbEntity
  8
0
100
AcDbBlockBegin
  2
*Model_Space
 70
     0
 10
0.0
 20
0.0
 30
0.0
  3
*Model_Space
  1

  0
ENDBLK
  5
21
330
1F
100
AcDbEntity
  8
0
100
AcDbBlockEnd
  0
BLOCK
  5
1C
330
1B
100
AcDbEntity
 67
     1
  8
0
100
AcDbBlockBegin
  2
*Paper_Space
 70
     0
 10
0.0
 20
0.0
 30
0.0
  3
*Paper_Space
  1

  0
ENDBLK
  5
1D
330
1B
100
AcDbEntity
 67
     1
  8
0
100
AcDbBlockEnd
  0
BLOCK
  5
24
330
23
100
AcDbEntity
  8
0
100
AcDbBlockBegin
  2
*Paper_Space0
 70
     0
 10
0.0
 20
0.0
 30
0.0
  3
*Paper_Space0
  1

  0
ENDBLK
  5
25
330
23
100
AcDbEntity
  8
0
100
AcDbBlockEnd
  0
BLOCK
  5
73
330
72
100
AcDbEntity
  8
0
100
AcDbBlockBegin
  2
_CLOSED
 70
     0
 10
0.0
 20
0.0
 30
0.0
  3
_CLOSED
  1

  0
LINE
  5
75
330
72
100
AcDbEntity
  8
0
  6
ByBlock
 62
     0
370
    -2
100
AcDbLine
 10
-1.0
 20
0.166667
 30
0.0
 11
0.0
 21
0.0
 31
0.0
  0
LINE
  5
76
330
72
100
AcDbEntity
  8
0
  6
ByBlock
 62
     0
370
    -2
100
AcDbLine
 10
0.0
 20
0.0
 30
0.0
 11
-1.0
 21
-0.166667
 31
0.0
  0
LINE
  5
77
330
72
100
AcDbEntity
  8
0
  6
ByBlock
 62
     0
370
    -2
100
AcDbLine
 10
-1.0
 20
0.166667
 30
0.0
 11
-1.0
 21
-0.166667
 31
0.0
  0
LINE
  5
78
330
72
100
AcDbEntity
  8
0
  6
ByBlock
 62
     0
370
    -2
100
AcDbLine
 10
0.0
 20
0.0
 30
0.0
 11
-1.0
 21
0.0
 31
0.0
  0
ENDBLK
  5
74
330
72
100
AcDbEntity
  8
0
100
AcDbBlockEnd
  0
BLOCK
  5
D5
330
7B
100
AcDbEntity
  8
0
100
AcDbBlockBegin
  2
a
 70
     0
 10
14.697206
 20
95.704857
 30
0.0
  3
a
  1

  0
LINE
  5
7C
330
7B
100
AcDbEntity
  8
0
  6
Continuous
 62
     0
370
    30
100
AcDbLine
 10
132.677414
 20
792.228539
 30
0.0
 11
132.677414
 21
712.228539
 31
0.0
  0
LINE
  5
7D
330
7B
100
AcDbEntity
  8
0
  6
Continuous
 62
     0
370
    30
100
AcDbLine
 10
52.677414
 20
792.228539
 30
0.0
 11
132.677414
 21
792.228539
 31
0.0
  0
LINE
  5
7E
330
7B
100
AcDbEntity
  8
0
  6
Continuous
 62
     0
370
    30
100
AcDbLine
 10
52.677414
 20
712.228539
 30
0.0
 11
52.677414
 21
792.228539
 31
0.0
  0
LINE
  5
7F
330
7B
100
AcDbEntity
  8
0
  6
Continuous
 62
     0
370
    30
100
AcDbLine
 10
132.677414
 20
712.228539
 30
0.0
 11
52.677414
 21
712.228539
 31
0.0
  0
LWPOLYLINE
  5
80
330
7B
100
AcDbEntity
  8
0
  6
Continuous
 62
     0
370
     0
100
AcDbPolyline
 90
       18
 70
     0
 43
0.0
 10
92.677414
 20
775.728577
 10
92.058685
 20
775.706848
 10
91.445885
 20
775.64386
 10
90.849129
 20
775.542297
 10
90.276245
 20
775.406128
 10
89.731026
 20
775.241272
 10
89.216805
 20
775.053406
 10
88.735596
 20
774.848755
 10
88.288872
 20
774.633301
 10
87.878304
 20
774.413208
 10
87.505859
 20
774.194092
 10
87.173607
 20
773.981873
 10
86.883957
 20
773.783936
 10
86.639473
 20
773.608032
 10
86.443169
 20
773.460999
 10
86.298531
 20
773.348816
 10
86.208916
 20
773.277344
 10
86.177414
 20
773.251587
  0
LWPOLYLINE
  5
81
330
7B
100
AcDbEntity
  8
0
  6
Continuous
 62
     0
370
     0
100
AcDbPolyline
 90
       18
 70
     0
 43
0.0
 10
99.177368
 20
773.251587
 10
99.147148
 20
773.276306
 10
99.058739
 20
773.346924
 10
98.915237
 20
773.458252
 10
98.719986
 20
773.604614
 10
98.476463
 20
773.779968
 10
98.187714
 20
773.977539
 10
97.856316
 20
774.189453
 10
97.484711
 20
774.408508
 10
97.074951
 20
774.628723
 10
96.629028
 20
774.84436
 10
96.148575
 20
775.049377
 10
95.635025
 20
775.23761
 10
95.090378
 20
775.402954
 10
94.517982
 20
775.539551
 10
93.921661
 20
775.641907
 10
93.309113
 20
775.705811
 10
92.677414
 20
775.728577
  0
LINE
  5
82
330
7B
100
AcDbEntity
  8
0
  6
Continuous
 62
     0
370
     0
100
AcDbLine
 10
92.677414
 20
787.22855
 30
0.0
 11
86.177414
 21
787.22855
 31
0.0
  0
LINE
  5
83
330
7B
100
AcDbEntity
  8
0
  6
Continuous
 62
     0
370
     0
100
AcDbLine
 10
99.177414
 20
787.22855
 30
0.0
 11
92.677414
 21
787.22855
 31
0.0
  0
LINE
  5
84
330
7B
100
AcDbEntity
  8
0
  6
Continuous
 62
     0
370
    30
100
AcDbLine
 10
92.677414
 20
787.72855
 30
0.0
 11
98.677496
 21
787.72855
 31
0.0
  0
LINE
  5
85
330
7B
100
AcDbEntity
  8
0
  6
Continuous
 62
     0
370
    30
100
AcDbLine
 10
86.677333
 20
787.72855
 30
0.0
 11
92.677414
 21
787.72855
 31
0.0
  0
ARC
  5
86
330
7B
100
AcDbEntity
  8
0
  6
Continuous
 62
     0
370
    30
100
AcDbCircle
 10
92.677414
 20
752.22855
 30
0.0
 40
19.5
100
AcDbArc
 50
90.0
 51
270.0
  0
ARC
  5
87
330
7B
100
AcDbEntity
  8
0
  6
Continuous
 62
     0
370
    30
100
AcDbCircle
 10
92.677414
 20
752.22855
 30
0.0
 40
19.5
100
AcDbArc
 50
270.0
 51
90.0
  0
ARC
  5
88
330
7B
100
AcDbEntity
  8
0
  6
Continuous
 62
     0
370
     0
100
AcDbCircle
 10
92.677673
 20
752.22855
 30
0.0
 40
19.00000000175915
100
AcDbArc
 50
269.99922
 51
90.00078
  0
ARC
  5
89
330
7B
100
AcDbEntity
  8
0
  6
Continuous
 62
     0
370
     0
100
AcDbCircle
 10
92.677156
 20
752.22855
 30
0.0
 40
19.00000000175916
100
AcDbArc
 50
89.99922
 51
270.00078
  0
ARC
  5
8A
330
7B
100
AcDbEntity
  8
0
  6
Continuous
 62
     0
370
    30
100
AcDbCircle
 10
98.677412
 20
787.228547
 30
0.0
 40
0.5000028044144678
100
AcDbArc
 50
0.000321
 51
89.974932
  0
ARC
  5
8B
330
7B
100
AcDbEntity
  8
0
  6
Continuous
 62
     0
370
    30
100
AcDbCircle
 10
86.677418
 20
787.228547
 30
0.0
 40
0.5000034945572271
100
AcDbArc
 50
90.025147
 51
179.9996
  0
LINE
  5
8C
330
7B
100
AcDbEntity
  8
0
  6
Continuous
 62
     0
370
    30
100
AcDbLine
 10
86.177414
 20
773.250994
 30
0.0
 11
86.177414
 21
787.22855
 31
0.0
  0
LINE
  5
8D
330
7B
100
AcDbEntity
  8
0
  6
Continuous
 62
     0
370
    30
100
AcDbLine
 10
99.177414
 20
787.22855
 30
0.0
 11
99.177414
 21
773.250994
 31
0.0
  0
ARC
  5
8E
330
7B
100
AcDbEntity
  8
0
  6
Continuous
 62
     0
370
    30
100
AcDbCircle
 10
82.177385
 20
773.252355
 30
0.0
 40
4.000029629710506
100
AcDbArc
 50
297.117429
 51
359.989103
  0
ARC
  5
8F
330
7B
100
AcDbEntity
  8
0
  6
Continuous
 62
     0
370
    30
100
AcDbCircle
 10
103.177378
 20
773.252426
 30
0.0
 40
4.000009080168839
100
AcDbArc
 50
180.01183
 51
242.852295
  0
LWPOLYLINE
  5
90
330
7B
100
AcDbEntity
  8
0
  6
Continuous
 62
     0
370
    30
100
AcDbPolyline
 90
        4
 70
     0
 43
0.0
 10
101.340424
 20
769.699219
 10
101.332863
 20
769.703125
 10
101.344223
 20
769.697266
 10
101.353828
 20
769.692261
  0
LINE
  5
91
330
7B
100
AcDbEntity
  8
0
  6
Continuous
 62
     0
370
    30
100
AcDbLine
 10
101.290947
 20
769.724048
 30
0.0
 11
101.336445
 21
769.701226
 31
0.0
  0
LWPOLYLINE
  5
92
330
7B
100
AcDbEntity
  8
0
  6
Continuous
 62
     0
370
    30
100
AcDbPolyline
 90
        9
 70
     0
 43
0.0
 10
84.152084
 20
769.767334
 10
84.106201
 20
769.744934
 10
84.069359
 20
769.726746
 10
84.041718
 20
769.712952
 10
84.023514
 20
769.703796
 10
84.015358
 20
769.699646
 10
84.020958
 20
769.702515
 10
84.010086
 20
769.696899
 10
84.000679
 20
769.692017
  0
LINE
  5
93
330
7B
100
AcDbEntity
  8
0
  6
Continuous
 62
     0
370
    30
100
AcDbLine
 10
142.677414
 20
573.228536
 30
0.0
 11
42.677414
 21
573.228536
 31
0.0
  0
LINE
  5
94
330
7B
100
AcDbEntity
  8
0
  6
Continuous
 62
     0
370
    30
100
AcDbLine
 10
142.677414
 20
690.228536
 30
0.0
 11
142.677414
 21
573.228536
 31
0.0
  0
LINE
  5
95
330
7B
100
AcDbEntity
  8
0
  6
Continuous
 62
     0
370
    30
100
AcDbLine
 10
42.677414
 20
690.228536
 30
0.0
 11
142.677414
 21
690.228536
 31
0.0
  0
LINE
  5
96
330
7B
100
AcDbEntity
  8
0
  6
Continuous
 62
     0
370
    30
100
AcDbLine
 10
42.677414
 20
573.228536
 30
0.0
 11
42.677414
 21
690.228536
 31
0.0
  0
LINE
  5
97
330
7B
100
AcDbEntity
  8
0
  6
Continuous
 62
     0
370
    30
100
AcDbLine
 10
92.67771
 20
662.057737
 30
0.0
 11
96.127757
 21
662.057737
 31
0.0
  0
LINE
  5
98
330
7B
100
AcDbEntity
  8
0
  6
Continuous
 62
     0
370
    30
100
AcDbLine
 10
89.227663
 20
662.057737
 30
0.0
 11
92.67771
 21
662.057737
 31
0.0
  0
LWPOLYLINE
  5
99
330
7B
100
AcDbEntity
  8
0
  6
Continuous
 62
     0
370
    30
100
AcDbPolyline
 90
       13
 70
     0
 43
0.0
 10
92.677711
 20
661.557739
 10
93.189911
 20
661.5578
 10
93.697281
 20
661.557861
 10
94.188927
 20
661.558044
 10
94.652107
 20
661.55835
 10
95.078796
 20
661.558533
 10
95.46405
 20
661.558289
 10
95.801193
 20
661.557922
 10
96.08461
 20
661.557739
 10
96.312103
 20
661.557739
 10
96.481018
 20
661.5578
 10
96.587669
 20
661.5578
 10
96.627701
 20
661.557739
  0
LWPOLYLINE
  5
9A
330
7B
100
AcDbEntity
  8
0
  6
Continuous
 62
     0
370
    30
100
AcDbPolyline
 90
       13
 70
     0
 43
0.0
 10
88.727722
 20
661.557739
 10
88.762894
 20
661.5578
 10
88.865181
 20
661.5578
 10
89.030006
 20
661.5578
 10
89.253639
 20
661.557739
 10
89.533333
 20
661.557922
 10
89.866974
 20
661.558289
 10
90.249207
 20
661.558533
 10
90.673256
 20
661.55835
 10
91.134132
 20
661.558044
 10
91.624245
 20
661.557861
 10
92.130959
 20
661.5578
 10
92.677711
 20
661.557739
  0
ARC
  5
9B
330
7B
100
AcDbEntity
  8
0
  6
Continuous
 62
     0
370
    30
100
AcDbCircle
 10
92.678006
 20
632.227737
 30
0.0
 40
21.50000000203893
100
AcDbArc
 50
269.999211
 51
90.000789
  0
ARC
  5
9C
330
7B
100
AcDbEntity
  8
0
  6
Continuous
 62
     0
370
    30
100
AcDbCircle
 10
92.677417
 20
632.227737
 30
0.0
 40
21.50000000199057
100
AcDbArc
 50
89.99922
 51
270.00078
  0
LWPOLYLINE
  5
9D
330
7B
100
AcDbEntity
  8
0
  6
Continuous
 62
     0
370
    30
100
AcDbPolyline
 90
       54
 70
     0
 43
0.0
 10
92.677711
 20
610.227722
 10
93.978592
 20
610.267029
 10
95.27684
 20
610.383972
 10
96.567612
 20
610.577454
 10
97.844917
 20
610.846313
 10
99.103325
 20
611.189453
 10
100.338654
 20
611.605896
 10
101.54689
 20
612.094788
 10
102.724007
 20
612.65509
 10
103.865929
 20
613.284973
 10
104.968521
 20
613.981384
 10
106.027634
 20
614.741394
 10
107.039177
 20
615.56189
 10
107.999619
 20
616.440308
 10
108.905884
 20
617.374329
 10
109.755478
 20
618.36084
 10
110.546135
 20
619.396484
 10
111.27504
 20
620.477478
 10
111.939178
 20
621.599854
 10
112.535553
 20
622.759644
 10
113.061516
 20
623.952759
 10
113.515594
 20
625.174927
 10
113.896576
 20
626.421814
 10
114.203239
 20
627.689026
 10
114.434525
 20
628.972229
 10
114.589622
 20
630.266846
 10
114.667755
 20
631.568237
 10
114.668159
 20
632.872009
 10
114.590858
 20
634.173523
 10
114.436592
 20
635.468201
 10
114.206169
 20
636.751526
 10
113.900398
 20
638.018982
 10
113.520348
 20
639.266113
 10
113.067223
 20
640.488647
 10
112.542229
 20
641.68219
 10
111.9468
 20
642.842468
 10
111.283554
 20
643.965332
 10
110.555443
 20
645.046936
 10
109.765457
 20
646.08313
 10
108.916382
 20
647.070068
 10
108.010498
 20
648.004456
 10
107.050354
 20
648.883179
 10
106.039139
 20
649.704102
 10
104.980453
 20
650.4646
 10
103.878387
 20
651.161804
 10
102.737045
 20
651.792664
 10
101.560547
 20
652.35437
 10
100.352928
 20
652.844849
 10
99.118126
 20
653.262878
 10
97.860107
 20
653.6073
 10
96.582985
 20
653.876892
 10
95.292236
 20
654.07074
 10
93.993958
 20
654.187927
 10
92.677711
 20
654.227722
  0
LWPOLYLINE
  5
9E
330
7B
100
AcDbEntity
  8
0
  6
Continuous
 62
     0
370
    30
100
AcDbPolyline
 90
       54
 70
     0
 43
0.0
 10
92.677711
 20
654.227722
 10
91.376816
 20
654.188843
 10
90.078484
 20
654.072571
 10
88.787605
 20
653.879639
 10
87.510292
 20
653.610901
 10
86.252022
 20
653.267395
 10
85.016922
 20
652.85022
 10
83.80896
 20
652.360596
 10
82.632072
 20
651.799744
 10
81.490288
 20
651.169617
 10
80.387733
 20
650.473206
 10
79.328514
 20
649.71344
 10
78.316719
 20
648.89325
 10
77.355949
 20
648.015137
 10
76.449409
 20
647.081421
 10
75.599648
 20
646.095032
 10
74.808945
 20
645.059448
 10
74.080093
 20
643.978394
 10
73.416061
 20
642.855957
 10
72.819817
 20
641.696106
 10
72.293976
 20
640.50293
 10
71.839996
 20
639.280701
 10
71.459076
 20
638.033813
 10
71.152428
 20
636.766602
 10
70.921104
 20
635.483398
 10
70.765938
 20
634.188843
 10
70.687721
 20
632.88739
 10
70.68721
 20
631.583679
 10
70.76442
 20
630.282166
 10
70.918617
 20
628.987488
 10
71.149002
 20
627.704102
 10
71.454788
 20
626.436646
 10
71.8349
 20
625.189514
 10
72.288124
 20
623.967041
 10
72.81324
 20
622.77356
 10
73.408791
 20
621.613342
 10
74.072151
 20
620.49054
 10
74.800308
 20
619.408997
 10
75.590256
 20
618.372803
 10
76.439171
 20
617.385681
 10
77.34478
 20
616.45105
 10
78.304596
 20
615.57196
 10
79.315552
 20
614.750732
 10
80.37413
 20
613.98999
 10
81.476227
 20
613.292786
 10
82.617714
 20
612.66217
 10
83.794434
 20
612.101013
 10
85.002327
 20
611.611267
 10
86.237366
 20
611.193909
 10
87.495522
 20
610.849915
 10
88.772629
 20
610.5802
 10
90.063278
 20
610.385803
 10
91.361473
 20
610.267944
 10
92.677711
 20
610.227722
  0
LWPOLYLINE
  5
9F
330
7B
100
AcDbEntity
  8
0
  6
Continuous
 62
     0
370
    30
100
AcDbPolyline
 90
       14
 70
     0
 43
0.0
 10
87.927063
 20
610.746765
 10
87.962563
 20
610.738953
 10
88.065559
 20
610.716614
 10
88.233902
 20
610.681213
 10
88.467072
 20
610.634399
 10
88.762398
 20
610.578979
 10
89.113297
 20
610.518433
 10
89.51255
 20
610.456604
 10
89.958092
 20
610.396484
 10
90.445168
 20
610.341309
 10
90.963867
 20
610.294556
 10
91.511162
 20
610.258789
 10
92.07663
 20
610.235962
 10
92.677711
 20
610.227722
  0
LWPOLYLINE
  5
A0
330
7B
100
AcDbEntity
  8
0
  6
Continuous
 62
     0
370
    30
100
AcDbPolyline
 90
       14
 70
     0
 43
0.0
 10
92.677711
 20
610.227722
 10
93.24913
 20
610.235168
 10
93.815163
 20
610.257263
 10
94.363739
 20
610.292419
 10
94.884003
 20
610.338623
 10
95.372917
 20
610.393494
 10
95.820824
 20
610.453369
 10
96.222504
 20
610.515198
 10
96.576057
 20
610.575928
 10
96.874481
 20
610.631714
 10
97.11097
 20
610.679016
 10
97.282715
 20
610.715088
 10
97.389114
 20
610.738159
 10
97.42836
 20
610.746765
  0
LWPOLYLINE
  5
A1
330
7B
100
AcDbEntity
  8
0
  6
Continuous
 62
     0
370
    30
100
AcDbPolyline
 90
       10
 70
     0
 43
0.0
 10
96.777931
 20
653.842285
 10
96.747696
 20
653.847961
 10
96.659561
 20
653.86438
 10
96.515274
 20
653.890442
 10
96.315353
 20
653.924927
 10
96.061821
 20
653.965881
 10
95.760902
 20
654.01062
 10
95.419044
 20
654.056458
 10
95.034492
 20
654.101074
 10
94.546135
 20
654.147522
  0
LWPOLYLINE
  5
A2
330
7B
100
AcDbEntity
  8
0
  6
Continuous
 62
     0
370
    30
100
AcDbPolyline
 90
       12
 70
     0
 43
0.0
 10
91.892166
 20
654.213562
 10
91.39431
 20
654.189575
 10
90.912987
 20
654.156067
 10
90.460983
 20
654.115479
 10
90.050774
 20
654.070496
 10
89.686607
 20
654.023499
 10
89.36554
 20
653.976929
 10
89.092369
 20
653.933655
 10
88.875023
 20
653.896606
 10
88.716217
 20
653.868103
 10
88.616623
 20
653.84967
 10
88.577324
 20
653.842224
  0
LINE
  5
A3
330
7B
100
AcDbEntity
  8
0
  6
Continuous
 62
     0
370
    30
100
AcDbLine
 10
88.72771
 20
661.557738
 30
0.0
 11
88.72771
 21
653.870492
 31
0.0
  0
LINE
  5
A4
330
7B
100
AcDbEntity
  8
0
  6
Continuous
 62
     0
370
    30
100
AcDbLine
 10
96.62771
 20
661.557738
 30
0.0
 11
96.62771
 21
653.870496
 31
0.0
  0
LINE
  5
A5
330
7B
100
AcDbEntity
  8
0
  6
Continuous
 62
     0
370
    30
100
AcDbLine
 10
96.127911
 20
662.057555
 30
0.0
 11
96.627659
 21
661.55781
 31
0.0
  0
LINE
  5
A6
330
7B
100
AcDbEntity
  8
0
  6
Continuous
 62
     0
370
    30
100
AcDbLine
 10
88.72776
 20
661.55781
 30
0.0
 11
89.227508
 21
662.057555
 31
0.0
  0
LINE
  5
A7
330
7B
100
AcDbEntity
  8
0
  6
Continuous
 62
     0
370
    30
100
AcDbLine
 10
132.677414
 20
892.228539
 30
0.0
 11
132.677414
 21
812.228539
 31
0.0
  0
LINE
  5
A8
330
7B
100
AcDbEntity
  8
0
  6
Continuous
 62
     0
370
    30
100
AcDbLine
 10
52.677414
 20
892.228539
 30
0.0
 11
132.677414
 21
892.228539
 31
0.0
  0
LINE
  5
A9
330
7B
100
AcDbEntity
  8
0
  6
Continuous
 62
     0
370
    30
100
AcDbLine
 10
52.677414
 20
812.228539
 30
0.0
 11
52.677414
 21
892.228539
 31
0.0
  0
LINE
  5
AA
330
7B
100
AcDbEntity
  8
0
  6
Continuous
 62
     0
370
    30
100
AcDbLine
 10
132.677414
 20
812.228539
 30
0.0
 11
52.677414
 21
812.228539
 31
0.0
  0
LWPOLYLINE
  5
AB
330
7B
100
AcDbEntity
  8
0
  6
Continuous
 62
     0
370
     0
100
AcDbPolyline
 90
       18
 70
     0
 43
0.0
 10
92.677414
 20
875.728577
 10
92.058685
 20
875.706848
 10
91.445885
 20
875.64386
 10
90.849129
 20
875.542297
 10
90.276245
 20
875.406128
 10
89.731026
 20
875.241272
 10
89.216805
 20
875.053406
 10
88.735596
 20
874.848755
 10
88.288872
 20
874.633301
 10
87.878304
 20
874.413208
 10
87.505859
 20
874.194092
 10
87.173607
 20
873.981873
 10
86.883957
 20
873.783936
 10
86.639473
 20
873.608032
 10
86.443169
 20
873.460999
 10
86.298531
 20
873.348816
 10
86.208916
 20
873.277344
 10
86.177414
 20
873.251587
  0
LWPOLYLINE
  5
AC
330
7B
100
AcDbEntity
  8
0
  6
Continuous
 62
     0
370
     0
100
AcDbPolyline
 90
       18
 70
     0
 43
0.0
 10
99.177368
 20
873.251587
 10
99.147148
 20
873.276306
 10
99.058739
 20
873.346924
 10
98.915237
 20
873.458252
 10
98.719986
 20
873.604614
 10
98.476463
 20
873.779968
 10
98.187714
 20
873.977539
 10
97.856316
 20
874.189453
 10
97.484711
 20
874.408508
 10
97.074951
 20
874.628723
 10
96.629028
 20
874.84436
 10
96.148575
 20
875.049377
 10
95.635025
 20
875.23761
 10
95.090378
 20
875.402954
 10
94.517982
 20
875.539551
 10
93.921661
 20
875.641907
 10
93.309113
 20
875.705811
 10
92.677414
 20
875.728577
  0
LINE
  5
AD
330
7B
100
AcDbEntity
  8
0
  6
Continuous
 62
     0
370
     0
100
AcDbLine
 10
92.677414
 20
887.22855
 30
0.0
 11
86.177414
 21
887.22855
 31
0.0
  0
LINE
  5
AE
330
7B
100
AcDbEntity
  8
0
  6
Continuous
 62
     0
370
     0
100
AcDbLine
 10
99.177414
 20
887.22855
 30
0.0
 11
92.677414
 21
887.22855
 31
0.0
  0
LINE
  5
AF
330
7B
100
AcDbEntity
  8
0
  6
Continuous
 62
     0
370
    30
100
AcDbLine
 10
92.677414
 20
887.72855
 30
0.0
 11
98.677496
 21
887.72855
 31
0.0
  0
LINE
  5
B0
330
7B
100
AcDbEntity
  8
0
  6
Continuous
 62
     0
370
    30
100
AcDbLine
 10
86.677333
 20
887.72855
 30
0.0
 11
92.677414
 21
887.72855
 31
0.0
  0
ARC
  5
B1
330
7B
100
AcDbEntity
  8
0
  6
Continuous
 62
     0
370
    30
100
AcDbCircle
 10
92.677414
 20
852.22855
 30
0.0
 40
19.50000000000001
100
AcDbArc
 50
90.0
 51
270.0
  0
ARC
  5
B2
330
7B
100
AcDbEntity
  8
0
  6
Continuous
 62
     0
370
    30
100
AcDbCircle
 10
92.677414
 20
852.22855
 30
0.0
 40
19.50000000000001
100
AcDbArc
 50
270.0
 51
90.0
  0
ARC
  5
B3
330
7B
100
AcDbEntity
  8
0
  6
Continuous
 62
     0
370
     0
100
AcDbCircle
 10
92.677673
 20
852.22855
 30
0.0
 40
19.00000000175913
100
AcDbArc
 50
269.99922
 51
90.00078
  0
ARC
  5
B4
330
7B
100
AcDbEntity
  8
0
  6
Continuous
 62
     0
370
     0
100
AcDbCircle
 10
92.677156
 20
852.22855
 30
0.0
 40
19.00000000175913
100
AcDbArc
 50
89.99922
 51
270.00078
  0
ARC
  5
B5
330
7B
100
AcDbEntity
  8
0
  6
Continuous
 62
     0
370
    30
100
AcDbCircle
 10
98.677412
 20
887.228547
 30
0.0
 40
0.5000028044128053
100
AcDbArc
 50
0.000321
 51
89.974932
  0
ARC
  5
B6
330
7B
100
AcDbEntity
  8
0
  6
Continuous
 62
     0
370
    30
100
AcDbCircle
 10
86.677418
 20
887.228547
 30
0.0
 40
0.5000034945590035
100
AcDbArc
 50
90.025147
 51
179.9996
  0
LINE
  5
B7
330
7B
100
AcDbEntity
  8
0
  6
Continuous
 62
     0
370
    30
100
AcDbLine
 10
86.177414
 20
873.250994
 30
0.0
 11
86.177414
 21
887.22855
 31
0.0
  0
LINE
  5
B8
330
7B
100
AcDbEntity
  8
0
  6
Continuous
 62
     0
370
    30
100
AcDbLine
 10
99.177414
 20
887.22855
 30
0.0
 11
99.177414
 21
873.250994
 31
0.0
  0
ARC
  5
B9
330
7B
100
AcDbEntity
  8
0
  6
Continuous
 62
     0
370
    30
100
AcDbCircle
 10
82.177385
 20
873.252355
 30
0.0
 40
4.000029629708703
100
AcDbArc
 50
297.117429
 51
359.989103
  0
ARC
  5
BA
330
7B
100
AcDbEntity
  8
0
  6
Continuous
 62
     0
370
    30
100
AcDbCircle
 10
103.177378
 20
873.252426
 30
0.0
 40
4.000009080169097
100
AcDbArc
 50
180.01183
 51
242.852295
  0
LWPOLYLINE
  5
BB
330
7B
100
AcDbEntity
  8
0
  6
Continuous
 62
     0
370
    30
100
AcDbPolyline
 90
        4
 70
     0
 43
0.0
 10
101.340424
 20
869.699219
 10
101.332863
 20
869.703125
 10
101.344223
 20
869.697266
 10
101.353828
 20
869.692261
  0
LINE
  5
BC
330
7B
100
AcDbEntity
  8
0
  6
Continuous
 62
     0
370
    30
100
AcDbLine
 10
101.290947
 20
869.724048
 30
0.0
 11
101.336445
 21
869.701226
 31
0.0
  0
LWPOLYLINE
  5
BD
330
7B
100
AcDbEntity
  8
0
  6
Continuous
 62
     0
370
    30
100
AcDbPolyline
 90
        9
 70
     0
 43
0.0
 10
84.152084
 20
869.767334
 10
84.106201
 20
869.744934
 10
84.069359
 20
869.726746
 10
84.041718
 20
869.712952
 10
84.023514
 20
869.703796
 10
84.015358
 20
869.699646
 10
84.020958
 20
869.702515
 10
84.010086
 20
869.696899
 10
84.000679
 20
869.692017
  0
LINE
  5
BE
330
7B
100
AcDbEntity
  8
0
  6
Continuous
 62
     0
370
    30
100
AcDbLine
 10
132.677414
 20
992.228539
 30
0.0
 11
132.677414
 21
912.228539
 31
0.0
  0
LINE
  5
BF
330
7B
100
AcDbEntity
  8
0
  6
Continuous
 62
     0
370
    30
100
AcDbLine
 10
52.677414
 20
992.228539
 30
0.0
 11
132.677414
 21
992.228539
 31
0.0
  0
LINE
  5
C0
330
7B
100
AcDbEntity
  8
0
  6
Continuous
 62
     0
370
    30
100
AcDbLine
 10
52.677414
 20
912.228539
 30
0.0
 11
52.677414
 21
992.228539
 31
0.0
  0
LINE
  5
C1
330
7B
100
AcDbEntity
  8
0
  6
Continuous
 62
     0
370
    30
100
AcDbLine
 10
132.677414
 20
912.228539
 30
0.0
 11
52.677414
 21
912.228539
 31
0.0
  0
LWPOLYLINE
  5
C2
330
7B
100
AcDbEntity
  8
0
  6
Continuous
 62
     0
370
     0
100
AcDbPolyline
 90
       18
 70
     0
 43
0.0
 10
92.677414
 20
975.728577
 10
92.058685
 20
975.706848
 10
91.445885
 20
975.64386
 10
90.849129
 20
975.542297
 10
90.276245
 20
975.406128
 10
89.731026
 20
975.241272
 10
89.216805
 20
975.053406
 10
88.735596
 20
974.848755
 10
88.288872
 20
974.633301
 10
87.878304
 20
974.413208
 10
87.505859
 20
974.194092
 10
87.173607
 20
973.981873
 10
86.883957
 20
973.783936
 10
86.639473
 20
973.608032
 10
86.443169
 20
973.460999
 10
86.298531
 20
973.348816
 10
86.208916
 20
973.277344
 10
86.177414
 20
973.251587
  0
LWPOLYLINE
  5
C3
330
7B
100
AcDbEntity
  8
0
  6
Continuous
 62
     0
370
     0
100
AcDbPolyline
 90
       18
 70
     0
 43
0.0
 10
99.177368
 20
973.251587
 10
99.147148
 20
973.276306
 10
99.058739
 20
973.346924
 10
98.915237
 20
973.458252
 10
98.719986
 20
973.604614
 10
98.476463
 20
973.779968
 10
98.187714
 20
973.977539
 10
97.856316
 20
974.189453
 10
97.484711
 20
974.408508
 10
97.074951
 20
974.628723
 10
96.629028
 20
974.84436
 10
96.148575
 20
975.049377
 10
95.635025
 20
975.23761
 10
95.090378
 20
975.402954
 10
94.517982
 20
975.539551
 10
93.921661
 20
975.641907
 10
93.309113
 20
975.705811
 10
92.677414
 20
975.728577
  0
LINE
  5
C4
330
7B
100
AcDbEntity
  8
0
  6
Continuous
 62
     0
370
     0
100
AcDbLine
 10
92.677414
 20
987.22855
 30
0.0
 11
86.177414
 21
987.22855
 31
0.0
  0
LINE
  5
C5
330
7B
100
AcDbEntity
  8
0
  6
Continuous
 62
     0
370
     0
100
AcDbLine
 10
99.177414
 20
987.22855
 30
0.0
 11
92.677414
 21
987.22855
 31
0.0
  0
LINE
  5
C6
330
7B
100
AcDbEntity
  8
0
  6
Continuous
 62
     0
370
    30
100
AcDbLine
 10
92.677414
 20
987.72855
 30
0.0
 11
98.677496
 21
987.72855
 31
0.0
  0
LINE
  5
C7
330
7B
100
AcDbEntity
  8
0
  6
Continuous
 62
     0
370
    30
100
AcDbLine
 10
86.677333
 20
987.72855
 30
0.0
 11
92.677414
 21
987.72855
 31
0.0
  0
ARC
  5
C8
330
7B
100
AcDbEntity
  8
0
  6
Continuous
 62
     0
370
    30
100
AcDbCircle
 10
92.677414
 20
952.22855
 30
0.0
 40
19.49999999999997
100
AcDbArc
 50
90.0
 51
270.0
  0
ARC
  5
C9
330
7B
100
AcDbEntity
  8
0
  6
Continuous
 62
     0
370
    30
100
AcDbCircle
 10
92.677414
 20
952.22855
 30
0.0
 40
19.49999999999997
100
AcDbArc
 50
270.0
 51
90.0
  0
ARC
  5
CA
330
7B
100
AcDbEntity
  8
0
  6
Continuous
 62
     0
370
     0
100
AcDbCircle
 10
92.677673
 20
952.22855
 30
0.0
 40
19.00000000175908
100
AcDbArc
 50
269.99922
 51
90.00078
  0
ARC
  5
CB
330
7B
100
AcDbEntity
  8
0
  6
Continuous
 62
     0
370
     0
100
AcDbCircle
 10
92.677156
 20
952.22855
 30
0.0
 40
19.00000000175906
100
AcDbArc
 50
89.99922
 51
270.00078
  0
ARC
  5
CC
330
7B
100
AcDbEntity
  8
0
  6
Continuous
 62
     0
370
    30
100
AcDbCircle
 10
98.677412
 20
987.228547
 30
0.0
 40
0.5000028044104028
100
AcDbArc
 50
0.000321
 51
89.974932
  0
ARC
  5
CD
330
7B
100
AcDbEntity
  8
0
  6
Continuous
 62
     0
370
    30
100
AcDbCircle
 10
86.677418
 20
987.228547
 30
0.0
 40
0.5000034945542561
100
AcDbArc
 50
90.025147
 51
179.9996
  0
LINE
  5
CE
330
7B
100
AcDbEntity
  8
0
  6
Continuous
 62
     0
370
    30
100
AcDbLine
 10
86.177414
 20
973.250994
 30
0.0
 11
86.177414
 21
987.22855
 31
0.0
  0
LINE
  5
CF
330
7B
100
AcDbEntity
  8
0
  6
Continuous
 62
     0
370
    30
100
AcDbLine
 10
99.177414
 20
987.22855
 30
0.0
 11
99.177414
 21
973.250994
 31
0.0
  0
ARC
  5
D0
330
7B
100
AcDbEntity
  8
0
  6
Continuous
 62
     0
370
    30
100
AcDbCircle
 10
82.177385
 20
973.252355
 30
0.0
 40
4.000029629712031
100
AcDbArc
 50
297.117429
 51
359.989103
  0
ARC
  5
D1
330
7B
100
AcDbEntity
  8
0
  6
Continuous
 62
     0
370
    30
100
AcDbCircle
 10
103.177378
 20
973.252426
 30
0.0
 40
4.000009080164803
100
AcDbArc
 50
180.01183
 51
242.852295
  0
LWPOLYLINE
  5
D2
330
7B
100
AcDbEntity
  8
0
  6
Continuous
 62
     0
370
    30
100
AcDbPolyline
 90
        4
 70
     0
 43
0.0
 10
101.340424
 20
969.699219
 10
101.332863
 20
969.703125
 10
101.344223
 20
969.697266
 10
101.353828
 20
969.692261
  0
LINE
  5
D3
330
7B
100
AcDbEntity
  8
0
  6
Continuous
 62
     0
370
    30
100
AcDbLine
 10
101.290947
 20
969.724048
 30
0.0
 11
101.336445
 21
969.701226
 31
0.0
  0
LWPOLYLINE
  5
D4
330
7B
100
AcDbEntity
  8
0
  6
Continuous
 62
     0
370
    30
100
AcDbPolyline
 90
        9
 70
     0
 43
0.0
 10
84.152084
 20
969.767334
 10
84.106201
 20
969.744934
 10
84.069359
 20
969.726746
 10
84.041718
 20
969.712952
 10
84.023514
 20
969.703796
 10
84.015358
 20
969.699646
 10
84.020958
 20
969.702515
 10
84.010086
 20
969.696899
 10
84.000679
 20
969.692017
  0
ENDBLK
  5
D6
330
7B
100
AcDbEntity
  8
0
100
AcDbBlockEnd
  0
BLOCK
  5
109
330
D8
100
AcDbEntity
  8
0
100
AcDbBlockBegin
  2
b
 70
     0
 10
14.697206
 20
419.429436
 30
0.0
  3
b
  1

  0
LINE
  5
D9
330
D8
100
AcDbEntity
  8
0
  6
Continuous
 62
     0
370
    30
100
AcDbLine
 10
142.677414
 20
472.831878
 30
0.0
 11
142.677414
 21
458.331878
 31
0.0
  0
LINE
  5
DA
330
D8
100
AcDbEntity
  8
0
  6
Continuous
 62
     0
370
    30
100
AcDbLine
 10
52.677414
 20
472.831878
 30
0.0
 11
42.677414
 21
472.831878
 31
0.0
  0
LINE
  5
DB
330
D8
100
AcDbEntity
  8
0
  6
Continuous
 62
     0
370
    30
100
AcDbLine
 10
142.677414
 20
472.831878
 30
0.0
 11
132.677414
 21
472.831878
 31
0.0
  0
LINE
  5
DC
330
D8
100
AcDbEntity
  8
0
  6
Continuous
 62
     0
370
    30
100
AcDbLine
 10
42.677414
 20
472.831878
 30
0.0
 11
42.677414
 21
458.331878
 31
0.0
  0
LINE
  5
DD
330
D8
100
AcDbEntity
  8
0
  6
Continuous
 62
     0
370
    30
100
AcDbLine
 10
132.677414
 20
458.331878
 30
0.0
 11
142.677414
 21
458.331878
 31
0.0
  0
LINE
  5
DE
330
D8
100
AcDbEntity
  8
0
  6
Continuous
 62
     0
370
    30
100
AcDbLine
 10
42.677414
 20
458.331878
 30
0.0
 11
52.677414
 21
458.331878
 31
0.0
  0
LINE
  5
DF
330
D8
100
AcDbEntity
  8
0
  6
Continuous
 62
     0
370
    30
100
AcDbLine
 10
111.677414
 20
457.831882
 30
0.0
 11
111.677414
 21
456.981886
 31
0.0
  0
LINE
  5
E0
330
D8
100
AcDbEntity
  8
0
  6
Continuous
 62
     0
370
    30
100
AcDbLine
 10
73.677414
 20
457.831882
 30
0.0
 11
73.677414
 21
456.981886
 31
0.0
  0
ARC
  5
E1
330
D8
100
AcDbEntity
  8
0
  6
Continuous
 62
     0
370
    30
100
AcDbCircle
 10
92.67774
 20
414.411838
 30
0.0
 40
3.449939342428887
100
AcDbArc
 50
269.999503
 51
9.510819
  0
ARC
  5
E2
330
D8
100
AcDbEntity
  8
0
  6
Continuous
 62
     0
370
    30
100
AcDbCircle
 10
92.67768
 20
414.411838
 30
0.0
 40
3.449939342429464
100
AcDbArc
 50
170.489181
 51
270.000497
  0
LWPOLYLINE
  5
E3
330
D8
100
AcDbEntity
  8
0
  6
Continuous
 62
     0
370
    30
100
AcDbPolyline
 90
       14
 70
     0
 43
0.0
 10
92.677711
 20
410.461884
 10
93.194107
 20
410.496735
 10
93.705513
 20
410.599701
 10
94.200729
 20
410.767914
 10
94.666725
 20
410.998047
 10
95.095459
 20
411.287079
 10
95.481834
 20
411.6315
 10
95.818962
 20
412.024689
 10
96.101288
 20
412.458649
 10
96.32663
 20
412.924805
 10
96.492172
 20
413.415314
 10
96.594086
 20
413.923096
 10
96.627663
 20
414.439697
 10
96.586128
 20
414.981873
  0
LWPOLYLINE
  5
E4
330
D8
100
AcDbEntity
  8
0
  6
Continuous
 62
     0
370
    30
100
AcDbPolyline
 90
       14
 70
     0
 43
0.0
 10
88.769287
 20
414.981873
 10
88.727959
 20
414.465729
 10
88.757973
 20
413.948914
 10
88.856575
 20
413.440491
 10
89.019012
 20
412.948914
 10
89.241432
 20
412.481384
 10
89.520943
 20
412.045593
 10
89.855408
 20
411.650146
 10
90.239487
 20
411.303101
 10
90.666222
 20
411.011169
 10
91.130478
 20
410.778015
 10
91.624519
 20
410.606628
 10
92.135437
 20
410.500305
 10
92.677711
 20
410.461884
  0
LINE
  5
E5
330
D8
100
AcDbEntity
  8
0
  6
Continuous
 62
     0
370
    30
100
AcDbLine
 10
114.178006
 20
405.4119
 30
0.0
 11
92.67771
 21
405.411899
 31
0.0
  0
LINE
  5
E6
330
D8
100
AcDbEntity
  8
0
  6
Continuous
 62
     0
370
    30
100
AcDbLine
 10
92.67771
 20
405.411899
 30
0.0
 11
71.177417
 21
405.4119
 31
0.0
  0
LINE
  5
E7
330
D8
100
AcDbEntity
  8
0
  6
Continuous
 62
     0
370
    30
100
AcDbLine
 10
114.677709
 20
405.911899
 30
0.0
 11
92.67771
 21
405.911899
 31
0.0
  0
LINE
  5
E8
330
D8
100
AcDbEntity
  8
0
  6
Continuous
 62
     0
370
    30
100
AcDbLine
 10
92.67771
 20
405.911899
 30
0.0
 11
70.67771
 21
405.911899
 31
0.0
  0
LINE
  5
E9
330
D8
100
AcDbEntity
  8
0
  6
Continuous
 62
     0
370
    30
100
AcDbLine
 10
114.67771
 20
455.4119
 30
0.0
 11
112.177414
 21
455.411899
 31
0.0
  0
LINE
  5
EA
330
D8
100
AcDbEntity
  8
0
  6
Continuous
 62
     0
370
    30
100
AcDbLine
 10
73.177414
 20
455.411899
 30
0.0
 11
70.67771
 21
455.4119
 31
0.0
  0
LWPOLYLINE
  5
EB
330
D8
100
AcDbEntity
  8
0
  6
Continuous
 62
     0
370
     0
100
AcDbPolyline
 90
       14
 70
     0
 43
0.0
 10
96.737236
 20
414.981873
 10
96.777771
 20
414.447479
 10
96.746643
 20
413.912476
 10
96.646812
 20
413.386078
 10
96.480362
 20
412.877441
 10
96.248207
 20
412.395782
 10
95.953964
 20
411.949768
 10
95.607086
 20
411.544678
 10
95.211411
 20
411.186188
 10
94.763977
 20
410.881226
 10
94.27359
 20
410.636108
 10
93.755424
 20
410.456726
 10
93.22435
 20
410.348602
 10
92.677742
 20
410.312286
  0
LWPOLYLINE
  5
EC
330
D8
100
AcDbEntity
  8
0
  6
Continuous
 62
     0
370
     0
100
AcDbPolyline
 90
       14
 70
     0
 43
0.0
 10
92.677742
 20
410.312286
 10
92.142609
 20
410.347107
 10
91.611366
 20
410.453644
 10
91.092743
 20
410.631531
 10
90.601585
 20
410.875275
 10
90.153084
 20
411.179016
 10
89.756325
 20
411.536499
 10
89.408371
 20
411.940643
 10
89.112846
 20
412.385803
 10
88.879387
 20
412.866852
 10
88.711578
 20
413.375031
 10
88.610222
 20
413.901154
 10
88.5774
 20
414.436066
 10
88.618088
 20
414.981873
  0
ARC
  5
ED
330
D8
100
AcDbEntity
  8
0
  6
Continuous
 62
     0
370
    30
100
AcDbCircle
 10
92.672633
 20
414.41331
 30
0.0
 40
3.95458386521784
100
AcDbArc
 50
311.35748
 51
358.273555
  0
ARC
  5
EE
330
D8
100
AcDbEntity
  8
0
  6
Continuous
 62
     0
370
    30
100
AcDbCircle
 10
92.680598
 20
414.412525
 30
0.0
 40
3.95254839638723
100
AcDbArc
 50
171.800094
 51
228.658442
  0
LINE
  5
EF
330
D8
100
AcDbEntity
  8
0
  6
Continuous
 62
     0
370
    30
100
AcDbLine
 10
114.67771
 20
455.4119
 30
0.0
 11
114.67771
 21
405.911899
 31
0.0
  0
LINE
  5
F0
330
D8
100
AcDbEntity
  8
0
  6
Continuous
 62
     0
370
    30
100
AcDbLine
 10
70.67771
 20
455.4119
 30
0.0
 11
70.67771
 21
405.911899
 31
0.0
  0
LINE
  5
F1
330
D8
100
AcDbEntity
  8
0
  6
Continuous
 62
     0
370
    30
100
AcDbLine
 10
114.178098
 20
405.412288
 30
0.0
 11
114.67771
 21
405.9119
 31
0.0
  0
LINE
  5
F2
330
D8
100
AcDbEntity
  8
0
  6
Continuous
 62
     0
370
    30
100
AcDbLine
 10
70.67771
 20
405.9119
 30
0.0
 11
71.177323
 21
405.412286
 31
0.0
  0
LINE
  5
F3
330
D8
100
AcDbEntity
  8
0
  6
Continuous
 62
     0
370
    30
100
AcDbLine
 10
132.677414
 20
472.831867
 30
0.0
 11
132.677414
 21
457.831867
 31
0.0
  0
LINE
  5
F4
330
D8
100
AcDbEntity
  8
0
  6
Continuous
 62
     0
370
    30
100
AcDbLine
 10
132.677414
 20
472.831867
 30
0.0
 11
52.677414
 21
472.831867
 31
0.0
  0
LINE
  5
F5
330
D8
100
AcDbEntity
  8
0
  6
Continuous
 62
     0
370
    30
100
AcDbLine
 10
52.677414
 20
472.831867
 30
0.0
 11
52.677414
 21
457.831867
 31
0.0
  0
LINE
  5
F6
330
D8
100
AcDbEntity
  8
0
  6
Continuous
 62
     0
370
    30
100
AcDbLine
 10
52.677414
 20
457.831867
 30
0.0
 11
132.677414
 21
457.831867
 31
0.0
  0
LINE
  5
F7
330
D8
100
AcDbEntity
  8
0
  6
Continuous
 62
     0
370
    30
100
AcDbLine
 10
100.677414
 20
457.831868
 30
0.0
 11
100.677414
 21
456.981872
 31
0.0
  0
LWPOLYLINE
  5
F8
330
D8
100
AcDbEntity
  8
0
  6
Continuous
 62
     0
370
     0
100
AcDbPolyline
 90
       41
 70
     0
 43
0.0
 10
92.677414
 20
419.481873
 10
93.439377
 20
419.522705
 10
94.194954
 20
419.64325
 10
94.932869
 20
419.840149
 10
95.642921
 20
420.109161
 10
96.320267
 20
420.444336
 10
96.960938
 20
420.839508
 10
97.561928
 20
421.288605
 10
98.121719
 20
421.786011
 10
98.638969
 20
422.32608
 10
99.11274
 20
422.904114
 10
99.542511
 20
423.516235
 10
99.92778
 20
424.15863
 10
100.268311
 20
424.827789
 10
100.564003
 20
425.520355
 10
100.814751
 20
426.232941
 10
101.020508
 20
426.96228
 10
101.181198
 20
427.705109
 10
101.296715
 20
428.45816
 10
101.366531
 20
429.218048
 10
101.390015
 20
429.981354
 10
101.366753
 20
430.744659
 10
101.297165
 20
431.504578
 10
101.181885
 20
432.25766
 10
101.021393
 20
433.00058
 10
100.815742
 20
433.72995
 10
100.564926
 20
434.442535
 10
100.269005
 20
435.13504
 10
99.928268
 20
435.804138
 10
99.542999
 20
436.446503
 10
99.113548
 20
437.058655
 10
98.640305
 20
437.636993
 10
98.12368
 20
438.177765
 10
97.564392
 20
438.675812
 10
96.963394
 20
439.124786
 10
96.321884
 20
439.518311
 10
95.643295
 20
439.851227
 10
94.932358
 20
440.118988
 10
94.194519
 20
440.316986
 10
93.439445
 20
440.439789
 10
92.677422
 20
440.481873
  0
LWPOLYLINE
  5
F9
330
D8
100
AcDbEntity
  8
0
  6
Continuous
 62
     0
370
     0
100
AcDbPolyline
 90
       41
 70
     0
 43
0.0
 10
92.677422
 20
440.481873
 10
91.915558
 20
440.439941
 10
91.160446
 20
440.317261
 10
90.422554
 20
440.119354
 10
89.711594
 20
439.851593
 10
89.032997
 20
439.518646
 10
88.391525
 20
439.125061
 10
87.790596
 20
438.676025
 10
87.231369
 20
438.177917
 10
86.714775
 20
437.637115
 10
86.241508
 20
437.058838
 10
85.812004
 20
436.446686
 10
85.426682
 20
435.804382
 10
85.085899
 20
435.135284
 10
84.789948
 20
434.44278
 10
84.539108
 20
433.730194
 10
84.333443
 20
433.000793
 10
84.172935
 20
432.257904
 10
84.057625
 20
431.504791
 10
83.988014
 20
430.744873
 10
83.964729
 20
429.981567
 10
83.98822
 20
429.218231
 10
84.058044
 20
428.458344
 10
84.173576
 20
427.705292
 10
84.334274
 20
426.962433
 10
84.540024
 20
426.233093
 10
84.790771
 20
425.520508
 10
85.086449
 20
424.827942
 10
85.426964
 20
424.158752
 10
85.812233
 20
423.516327
 10
86.241997
 20
422.904205
 10
86.715775
 20
422.326172
 10
87.233032
 20
421.786102
 10
87.792831
 20
421.288696
 10
88.393806
 20
420.839539
 10
89.034454
 20
420.444336
 10
89.711769
 20
420.10907
 10
90.421799
 20
419.839996
 10
91.159729
 20
419.643097
 10
91.915329
 20
419.522614
 10
92.677414
 20
419.481873
  0
ARC
  5
FA
330
D8
100
AcDbEntity
  8
0
  6
Continuous
 62
     0
370
    30
100
AcDbCircle
 10
92.677414
 20
429.98187
 30
0.0
 40
6.5
100
AcDbArc
 50
90.0
 51
270.0
  0
ARC
  5
FB
330
D8
100
AcDbEntity
  8
0
  6
Continuous
 62
     0
370
    30
100
AcDbCircle
 10
92.677414
 20
429.98187
 30
0.0
 40
6.5
100
AcDbArc
 50
270.0
 51
90.0
  0
ARC
  5
FC
330
D8
100
AcDbEntity
  8
0
  6
Continuous
 62
     0
370
     0
100
AcDbCircle
 10
92.677496
 20
429.98187
 30
0.0
 40
6.000000000555509
100
AcDbArc
 50
269.99922
 51
90.00078
  0
ARC
  5
FD
330
D8
100
AcDbEntity
  8
0
  6
Continuous
 62
     0
370
     0
100
AcDbCircle
 10
92.677333
 20
429.98187
 30
0.0
 40
6.000000000555501
100
AcDbArc
 50
89.99922
 51
270.00078
  0
LINE
  5
FE
330
D8
100
AcDbEntity
  8
0
  6
Continuous
 62
     0
370
     0
100
AcDbLine
 10
73.177414
 20
415.481872
 30
0.0
 11
92.677414
 21
415.481871
 31
0.0
  0
LINE
  5
FF
330
D8
100
AcDbEntity
  8
0
  6
Continuous
 62
     0
370
     0
100
AcDbLine
 10
92.677414
 20
415.481871
 30
0.0
 11
112.177414
 21
415.481872
 31
0.0
  0
LINE
  5
100
330
D8
100
AcDbEntity
  8
0
  6
Continuous
 62
     0
370
    30
100
AcDbLine
 10
112.177414
 20
456.981872
 30
0.0
 11
92.677414
 21
456.981871
 31
0.0
  0
LINE
  5
101
330
D8
100
AcDbEntity
  8
0
  6
Continuous
 62
     0
370
    30
100
AcDbLine
 10
92.677414
 20
456.981871
 30
0.0
 11
73.177414
 21
456.981872
 31
0.0
  0
LINE
  5
102
330
D8
100
AcDbEntity
  8
0
  6
Continuous
 62
     0
370
    30
100
AcDbLine
 10
111.677673
 20
414.981872
 30
0.0
 11
92.677414
 21
414.981871
 31
0.0
  0
LINE
  5
103
330
D8
100
AcDbEntity
  8
0
  6
Continuous
 62
     0
370
    30
100
AcDbLine
 10
92.677414
 20
414.981871
 30
0.0
 11
73.677156
 21
414.981872
 31
0.0
  0
ARC
  5
104
330
D8
100
AcDbEntity
  8
0
  6
Continuous
 62
     0
370
    30
100
AcDbCircle
 10
73.677417
 20
415.481875
 30
0.0
 40
0.5000029309053005
100
AcDbArc
 50
180.000337
 51
269.921302
  0
ARC
  5
105
330
D8
100
AcDbEntity
  8
0
  6
Continuous
 62
     0
370
    30
100
AcDbCircle
 10
111.677411
 20
415.481875
 30
0.0
 40
0.5000029309045426
100
AcDbArc
 50
270.078698
 51
359.999663
  0
LINE
  5
106
330
D8
100
AcDbEntity
  8
0
  6
Continuous
 62
     0
370
    30
100
AcDbLine
 10
73.177414
 20
415.481871
 30
0.0
 11
73.177414
 21
456.981872
 31
0.0
  0
LINE
  5
107
330
D8
100
AcDbEntity
  8
0
  6
Continuous
 62
     0
370
    30
100
AcDbLine
 10
112.177414
 20
415.481871
 30
0.0
 11
112.177414
 21
456.981872
 31
0.0
  0
LINE
  5
108
330
D8
100
AcDbEntity
  8
0
  6
Continuous
 62
     0
370
    30
100
AcDbLine
 10
84.677414
 20
457.831868
 30
0.0
 11
84.677414
 21
456.981872
 31
0.0
  0
ENDBLK
  5
10A
330
D8
100
AcDbEntity
  8
0
100
AcDbBlockEnd
  0
BLOCK
  5
178
330
10C
100
AcDbEntity
  8
0
100
AcDbBlockBegin
  2
c
 70
     0
 10
14.697206
 20
95.704857
 30
0.0
  3
c
  1

  0
LINE
  5
10D
330
10C
100
AcDbEntity
  8
0
  6
Continuous
 62
     0
370
    30
100
AcDbLine
 10
233.088707
 20
792.228508
 30
0.0
 11
248.088707
 21
792.228508
 31
0.0
  0
LINE
  5
10E
330
10C
100
AcDbEntity
  8
0
  6
Continuous
 62
     0
370
    30
100
AcDbLine
 10
233.088707
 20
792.228508
 30
0.0
 11
233.088707
 21
712.228508
 31
0.0
  0
LINE
  5
10F
330
10C
100
AcDbEntity
  8
0
  6
Continuous
 62
     0
370
    30
100
AcDbLine
 10
233.088707
 20
712.228508
 30
0.0
 11
248.088707
 21
712.228508
 31
0.0
  0
LINE
  5
110
330
10C
100
AcDbEntity
  8
0
  6
Continuous
 62
     0
370
    30
100
AcDbLine
 10
248.088707
 20
712.228508
 30
0.0
 11
248.088707
 21
792.228508
 31
0.0
  0
ARC
  5
111
330
10C
100
AcDbEntity
  8
0
  6
Continuous
 62
     0
370
    30
100
AcDbCircle
 10
286.438702
 20
775.728519
 30
0.0
 40
3.999999999999268
100
AcDbArc
 50
180.0
 51
270.0
  0
LWPOLYLINE
  5
112
330
10C
100
AcDbEntity
  8
0
  6
Continuous
 62
     0
370
     0
100
AcDbPolyline
 90
       34
 70
     0
 43
0.0
 10
282.43869
 20
775.728516
 10
282.406982
 20
775.705505
 10
282.313416
 20
775.638672
 10
282.16037
 20
775.531006
 10
281.951172
 20
775.387207
 10
281.690186
 20
775.213623
 10
281.381592
 20
775.016602
 10
281.0289
 20
774.802856
 10
280.635437
 20
774.579163
 10
280.203461
 20
774.35199
 10
279.734283
 20
774.127563
 10
279.229309
 20
773.91272
 10
278.690369
 20
773.71582
 10
278.119659
 20
773.545227
 10
277.521484
 20
773.407898
 10
276.901093
 20
773.310364
 10
276.266327
 20
773.258545
 10
275.626648
 20
773.257935
 10
274.991608
 20
773.308472
 10
274.370789
 20
773.404907
 10
273.772034
 20
773.541443
 10
273.200745
 20
773.711304
 10
272.661194
 20
773.907593
 10
272.155457
 20
774.121948
 10
271.68515
 20
774.34613
 10
271.25174
 20
774.573364
 10
270.856567
 20
774.797668
 10
270.502319
 20
775.012207
 10
270.192993
 20
775.209473
 10
269.932465
 20
775.382385
 10
269.723633
 20
775.525635
 10
269.569214
 20
775.634338
 10
269.472809
 20
775.703552
 10
269.43869
 20
775.728516
  0
LWPOLYLINE
  5
113
330
10C
100
AcDbEntity
  8
0
  6
Continuous
 62
     0
370
     0
100
AcDbPolyline
 90
       43
 70
     0
 43
0.0
 10
265.438721
 20
771.728516
 10
265.476715
 20
771.714233
 10
265.588135
 20
771.672974
 10
265.768219
 20
771.607483
 10
266.012238
 20
771.520447
 10
266.316101
 20
771.414612
 10
266.675934
 20
771.292725
 10
267.087524
 20
771.157776
 10
267.545563
 20
771.013428
 10
268.044464
 20
770.863708
 10
268.579071
 20
770.712158
 10
269.145935
 20
770.56189
 10
269.741882
 20
770.415649
 10
270.363861
 20
770.276367
 10
271.008942
 20
770.146606
 10
271.674255
 20
770.028992
 10
272.356964
 20
769.925903
 10
273.054169
 20
769.838684
 10
273.763092
 20
769.768677
 10
274.480835
 20
769.71698
 10
275.204498
 20
769.684998
 10
275.931152
 20
769.673828
 10
276.657806
 20
769.684448
 10
277.381531
 20
769.716003
 10
278.099426
 20
769.767334
 10
278.808502
 20
769.837097
 10
279.505951
 20
769.924072
 10
280.188965
 20
770.0271
 10
280.854736
 20
770.144592
 10
281.500366
 20
770.274292
 10
282.122986
 20
770.413452
 10
282.719574
 20
770.559326
 10
283.286987
 20
770.709167
 10
283.82193
 20
770.860168
 10
284.320892
 20
771.009338
 10
284.779358
 20
771.153381
 10
285.192474
 20
771.288818
 10
285.555328
 20
771.412048
 10
285.86264
 20
771.519653
 10
286.108948
 20
771.607849
 10
286.289307
 20
771.673462
 10
286.400177
 20
771.714233
 10
286.43869
 20
771.728516
  0
LINE
  5
114
330
10C
100
AcDbEntity
  8
0
  6
Continuous
 62
     0
370
    30
100
AcDbLine
 10
282.438702
 20
775.728519
 30
0.0
 11
282.438702
 21
787.228519
 31
0.0
  0
LWPOLYLINE
  5
115
330
10C
100
AcDbEntity
  8
0
  6
Continuous
 62
     0
370
     0
100
AcDbPolyline
 90
       30
 70
     0
 43
0.0
 10
282.43869
 20
787.228516
 10
282.406586
 20
787.228516
 10
282.305878
 20
787.228516
 10
282.131104
 20
787.228516
 10
281.878906
 20
787.228516
 10
281.548553
 20
787.228516
 10
281.142303
 20
787.228516
 10
280.665497
 20
787.228516
 10
280.126434
 20
787.228516
 10
279.535797
 20
787.228516
 10
278.906158
 20
787.228516
 10
278.250916
 20
787.228516
 10
277.583557
 20
787.228516
 10
276.916718
 20
787.228516
 10
276.26178
 20
787.228516
 10
275.621979
 20
787.228516
 10
274.967194
 20
787.228516
 10
274.300446
 20
787.228516
 10
273.633026
 20
787.228516
 10
272.9776
 20
787.228516
 10
272.347626
 20
787.228516
 10
271.756561
 20
787.228516
 10
271.216919
 20
787.228516
 10
270.739471
 20
787.228516
 10
270.332489
 20
787.228516
 10
270.001373
 20
787.228516
 10
269.748413
 20
787.228516
 10
269.572876
 20
787.228516
 10
269.471436
 20
787.228516
 10
269.43869
 20
787.228516
  0
LWPOLYLINE
  5
116
330
10C
100
AcDbEntity
  8
0
  6
Continuous
 62
     0
370
    30
100
AcDbPolyline
 90
       29
 70
     0
 43
0.0
 10
269.93869
 20
787.728516
 10
269.976349
 20
787.728516
 10
270.088776
 20
787.728516
 10
270.274536
 20
787.728516
 10
270.531586
 20
787.728516
 10
270.856232
 20
787.728516
 10
271.24469
 20
787.728516
 10
271.692169
 20
787.728516
 10
272.192749
 20
787.728516
 10
272.740417
 20
787.728516
 10
273.328247
 20
787.728516
 10
273.94873
 20
787.728516
 10
274.594238
 20
787.728516
 10
275.256622
 20
787.728516
 10
275.927551
 20
787.728516
 10
276.598572
 20
787.728516
 10
277.261383
 20
787.728516
 10
277.907593
 20
787.728516
 10
278.529022
 20
787.728516
 10
279.118073
 20
787.728516
 10
279.667175
 20
787.728516
 10
280.169434
 20
787.728516
 10
280.618774
 20
787.728516
 10
281.009277
 20
787.728516
 10
281.336121
 20
787.728516
 10
281.595428
 20
787.728516
 10
281.78363
 20
787.728516
 10
281.898499
 20
787.728516
 10
281.93869
 20
787.728516
  0
LINE
  5
117
330
10C
100
AcDbEntity
  8
0
  6
Continuous
 62
     0
370
    30
100
AcDbLine
 10
248.938702
 20
732.728519
 30
0.0
 11
274.038702
 21
732.728519
 31
0.0
  0
LWPOLYLINE
  5
118
330
10C
100
AcDbEntity
  8
0
  6
Continuous
 62
     0
370
     0
100
AcDbPolyline
 90
       27
 70
     0
 43
0.0
 10
274.038696
 20
732.728516
 10
274.076843
 20
732.738281
 10
274.188141
 20
732.767029
 10
274.372498
 20
732.812927
 10
274.625366
 20
732.873413
 10
274.94043
 20
732.945312
 10
275.318909
 20
733.023865
 10
275.755127
 20
733.104919
 10
276.237091
 20
733.18457
 10
276.760315
 20
733.257874
 10
277.320801
 20
733.319885
 10
277.90921
 20
733.366943
 10
278.516266
 20
733.396851
 10
279.132843
 20
733.407471
 10
279.749512
 20
733.397217
 10
280.356812
 20
733.367676
 10
280.945679
 20
733.320923
 10
281.506775
 20
733.259155
 10
282.030762
 20
733.186035
 10
282.513489
 20
733.106445
 10
282.950684
 20
733.025391
 10
283.330383
 20
732.946777
 10
283.646606
 20
732.874695
 10
283.900696
 20
732.813965
 10
284.086395
 20
732.7677
 10
284.199127
 20
732.738647
 10
284.238708
 20
732.728516
  0
LINE
  5
119
330
10C
100
AcDbEntity
  8
0
  6
Continuous
 62
     0
370
    30
100
AcDbLine
 10
284.238702
 20
732.728519
 30
0.0
 11
290.438702
 21
732.728519
 31
0.0
  0
LINE
  5
11A
330
10C
100
AcDbEntity
  8
0
  6
Continuous
 62
     0
370
     0
100
AcDbLine
 10
290.438702
 20
732.728519
 30
0.0
 11
290.438702
 21
771.728519
 31
0.0
  0
LINE
  5
11B
330
10C
100
AcDbEntity
  8
0
  6
Continuous
 62
     0
370
    30
100
AcDbLine
 10
248.938702
 20
771.728519
 30
0.0
 11
248.938702
 21
732.728519
 31
0.0
  0
LWPOLYLINE
  5
11C
330
10C
100
AcDbEntity
  8
0
  6
Continuous
 62
     0
370
    30
100
AcDbPolyline
 90
       50
 70
     0
 43
0.0
 10
290.93869
 20
771.228516
 10
290.93869
 20
771.189575
 10
290.93869
 20
771.07251
 10
290.93869
 20
770.878296
 10
290.93869
 20
770.607605
 10
290.93869
 20
770.261414
 10
290.93869
 20
769.840759
 10
290.93869
 20
769.347839
 10
290.93869
 20
768.784851
 10
290.93869
 20
768.154114
 10
290.93869
 20
767.457886
 10
290.93869
 20
766.69873
 10
290.93869
 20
765.880188
 10
290.93869
 20
765.005737
 10
290.93869
 20
764.078979
 10
290.93869
 20
763.103516
 10
290.93869
 20
762.08313
 10
290.93869
 20
761.022339
 10
290.93869
 20
759.925476
 10
290.93869
 20
758.79718
 10
290.93869
 20
757.641846
 10
290.93869
 20
756.464172
 10
290.93869
 20
755.269104
 10
290.93869
 20
754.061523
 10
290.93869
 20
752.846497
 10
290.93869
 20
751.628967
 10
290.93869
 20
750.413879
 10
290.93869
 20
749.206238
 10
290.93869
 20
748.010925
 10
290.93869
 20
746.832886
 10
290.93869
 20
745.677185
 10
290.93869
 20
744.548462
 10
290.93869
 20
743.451111
 10
290.93869
 20
742.389709
 10
290.93869
 20
741.368713
 10
290.93869
 20
740.392517
 10
290.93869
 20
739.464966
 10
290.93869
 20
738.589722
 10
290.93869
 20
737.770264
 10
290.93869
 20
737.010254
 10
290.93869
 20
736.312988
 10
290.93869
 20
735.681213
 10
290.93869
 20
735.117188
 10
290.93869
 20
734.62323
 10
290.93869
 20
734.201477
 10
290.93869
 20
733.854126
 10
290.93869
 20
733.582336
 10
290.93869
 20
733.386902
 10
290.93869
 20
733.268677
 10
290.93869
 20
733.228516
  0
ARC
  5
11D
330
10C
100
AcDbEntity
  8
0
  6
Continuous
 62
     0
370
    30
100
AcDbCircle
 10
290.438702
 20
733.228519
 30
0.0
 40
0.5000000000017195
100
AcDbArc
 50
270.0
 51
0.0
  0
ARC
  5
11E
330
10C
100
AcDbEntity
  8
0
  6
Continuous
 62
     0
370
    30
100
AcDbCircle
 10
281.938702
 20
787.228519
 30
0.0
 40
0.5000000000060751
100
AcDbArc
 50
0.0
 51
90.0
  0
LINE
  5
11F
330
10C
100
AcDbEntity
  8
0
  6
Continuous
 62
     0
370
    30
100
AcDbLine
 10
274.038702
 20
732.728519
 30
0.0
 11
284.238702
 21
732.728519
 31
0.0
  0
ARC
  5
120
330
10C
100
AcDbEntity
  8
0
  6
Continuous
 62
     0
370
    30
100
AcDbCircle
 10
269.938705
 20
787.228516
 30
0.0
 40
0.5000034422863466
100
AcDbArc
 50
90.000394
 51
179.999606
  0
ARC
  5
121
330
10C
100
AcDbEntity
  8
0
  6
Continuous
 62
     0
370
    30
100
AcDbCircle
 10
290.438698
 20
771.228516
 30
0.0
 40
0.5000034422852027
100
AcDbArc
 50
0.000394
 51
89.999606
  0
LINE
  5
122
330
10C
100
AcDbEntity
  8
0
  6
Continuous
 62
     0
370
    30
100
AcDbLine
 10
290.438702
 20
771.728519
 30
0.0
 11
286.438702
 21
771.728519
 31
0.0
  0
LINE
  5
123
330
10C
100
AcDbEntity
  8
0
  6
Continuous
 62
     0
370
    30
100
AcDbLine
 10
248.938701
 20
771.728519
 30
0.0
 11
265.438708
 21
771.728519
 31
0.0
  0
LINE
  5
124
330
10C
100
AcDbEntity
  8
0
  6
Continuous
 62
     0
370
    30
100
AcDbLine
 10
269.438702
 20
775.72852
 30
0.0
 11
269.438702
 21
787.22852
 31
0.0
  0
ARC
  5
125
330
10C
100
AcDbEntity
  8
0
  6
Continuous
 62
     0
370
    30
100
AcDbCircle
 10
265.438683
 20
775.728532
 30
0.0
 40
4.000019128004764
100
AcDbArc
 50
270.00035
 51
359.999828
  0
LINE
  5
126
330
10C
100
AcDbEntity
  8
0
  6
Continuous
 62
     0
370
    30
100
AcDbLine
 10
248.088705
 20
760.228606
 30
0.0
 11
248.938702
 21
760.228606
 31
0.0
  0
LINE
  5
127
330
10C
100
AcDbEntity
  8
0
  6
Continuous
 62
     0
370
    30
100
AcDbLine
 10
248.088705
 20
744.228606
 30
0.0
 11
248.938702
 21
744.228606
 31
0.0
  0
LINE
  5
128
330
10C
100
AcDbEntity
  8
0
  6
Continuous
 62
     0
370
    30
100
AcDbLine
 10
247.588709
 20
573.228505
 30
0.0
 11
233.088709
 21
573.228505
 31
0.0
  0
LINE
  5
129
330
10C
100
AcDbEntity
  8
0
  6
Continuous
 62
     0
370
    30
100
AcDbLine
 10
233.088709
 20
690.228505
 30
0.0
 11
247.588709
 21
690.228505
 31
0.0
  0
LINE
  5
12A
330
10C
100
AcDbEntity
  8
0
  6
Continuous
 62
     0
370
    30
100
AcDbLine
 10
247.588709
 20
573.228505
 30
0.0
 11
247.588709
 21
690.228505
 31
0.0
  0
LINE
  5
12B
330
10C
100
AcDbEntity
  8
0
  6
Continuous
 62
     0
370
    30
100
AcDbLine
 10
233.088709
 20
690.228505
 30
0.0
 11
233.088709
 21
573.228505
 31
0.0
  0
LINE
  5
12C
330
10C
100
AcDbEntity
  8
0
  6
Continuous
 62
     0
370
    30
100
AcDbLine
 10
247.588707
 20
651.228268
 30
0.0
 11
250.508688
 21
651.228268
 31
0.0
  0
LINE
  5
12D
330
10C
100
AcDbEntity
  8
0
  6
Continuous
 62
     0
370
    30
100
AcDbLine
 10
247.588707
 20
613.228268
 30
0.0
 11
250.508688
 21
613.228268
 31
0.0
  0
LWPOLYLINE
  5
12E
330
10C
100
AcDbEntity
  8
0
  6
Continuous
 62
     0
370
    30
100
AcDbPolyline
 90
       22
 70
     0
 43
0.0
 10
288.058685
 20
662.057678
 10
288.097168
 20
662.057678
 10
288.211609
 20
662.057678
 10
288.399689
 20
662.057678
 10
288.656921
 20
662.057678
 10
288.977844
 20
662.057678
 10
289.355133
 20
662.057678
 10
289.780457
 20
662.057678
 10
290.244293
 20
662.057678
 10
290.736298
 20
662.057678
 10
291.245544
 20
662.057678
 10
291.760651
 20
662.057678
 10
292.270142
 20
662.057678
 10
292.762634
 20
662.057678
 10
293.227203
 20
662.057678
 10
293.653473
 20
662.057678
 10
294.031891
 20
662.057678
 10
294.354126
 20
662.057678
 10
294.612793
 20
662.057678
 10
294.80246
 20
662.057678
 10
294.918518
 20
662.057678
 10
294.958679
 20
662.057678
  0
LINE
  5
12F
330
10C
100
AcDbEntity
  8
0
  6
Continuous
 62
     0
370
    30
100
AcDbLine
 10
294.958688
 20
662.057707
 30
0.0
 11
295.458688
 21
661.557707
 31
0.0
  0
LWPOLYLINE
  5
130
330
10C
100
AcDbEntity
  8
0
  6
Continuous
 62
     0
370
    30
100
AcDbPolyline
 90
       24
 70
     0
 43
0.0
 10
287.558685
 20
661.557678
 10
287.596924
 20
661.557739
 10
287.709839
 20
661.557739
 10
287.892517
 20
661.557739
 10
288.139557
 20
661.557739
 10
288.447754
 20
661.557739
 10
288.814056
 20
661.557678
 10
289.231384
 20
661.557739
 10
289.691071
 20
661.557739
 10
290.183624
 20
661.557739
 10
290.700317
 20
661.557739
 10
291.232361
 20
661.557739
 10
291.76944
 20
661.557739
 10
292.30127
 20
661.5578
 10
292.818054
 20
661.557739
 10
293.31134
 20
661.557739
 10
293.772919
 20
661.5578
 10
294.193268
 20
661.558167
 10
294.563263
 20
661.558472
 10
294.874908
 20
661.558411
 10
295.123688
 20
661.558044
 10
295.306305
 20
661.557861
 10
295.419067
 20
661.5578
 10
295.458679
 20
661.557678
  0
LWPOLYLINE
  5
131
330
10C
100
AcDbEntity
  8
0
  6
Continuous
 62
     0
370
    30
100
AcDbPolyline
 90
       53
 70
     0
 43
0.0
 10
300.508698
 20
653.727722
 10
300.508698
 20
653.688599
 10
300.508698
 20
653.570923
 10
300.508698
 20
653.37561
 10
300.508698
 20
653.103333
 10
300.508698
 20
652.754944
 10
300.508698
 20
652.33136
 10
300.508698
 20
651.83429
 10
300.508698
 20
651.26593
 10
300.508698
 20
650.628418
 10
300.508698
 20
649.923889
 10
300.508698
 20
649.154541
 10
300.508698
 20
648.323181
 10
300.508698
 20
647.433228
 10
300.508698
 20
646.488037
 10
300.508698
 20
645.490967
 10
300.508698
 20
644.445435
 10
300.508698
 20
643.355103
 10
300.508698
 20
642.224182
 10
300.508698
 20
641.056946
 10
300.508698
 20
639.857605
 10
300.508698
 20
638.630493
 10
300.508698
 20
637.379822
 10
300.508698
 20
636.110352
 10
300.508698
 20
634.826721
 10
300.508698
 20
633.533691
 10
300.508698
 20
632.235962
 10
300.508698
 20
630.938171
 10
300.508698
 20
629.64502
 10
300.508698
 20
628.361267
 10
300.508698
 20
627.091614
 10
300.508698
 20
625.840698
 10
300.508698
 20
624.61322
 10
300.508698
 20
623.413513
 10
300.508698
 20
622.24585
 10
300.508698
 20
621.114441
 10
300.508698
 20
620.02356
 10
300.508698
 20
618.977417
 10
300.508698
 20
617.979675
 10
300.508698
 20
617.033813
 10
300.508698
 20
616.143127
 10
300.508698
 20
615.311096
 10
300.508698
 20
614.540894
 10
300.508698
 20
613.83551
 10
300.508698
 20
613.197144
 10
300.508698
 20
612.62793
 10
300.508698
 20
612.129944
 10
300.508698
 20
611.705383
 10
300.508698
 20
611.356018
 10
300.508698
 20
611.082825
 10
300.508698
 20
610.886475
 10
300.508698
 20
610.767822
 10
300.508698
 20
610.727722
  0
LINE
  5
132
330
10C
100
AcDbEntity
  8
0
  6
Continuous
 62
     0
370
    30
100
AcDbLine
 10
300.508688
 20
610.727707
 30
0.0
 11
300.008688
 21
610.227707
 31
0.0
  0
LINE
  5
133
330
10C
100
AcDbEntity
  8
0
  6
Continuous
 62
     0
370
    30
100
AcDbLine
 10
300.008688
 20
654.227707
 30
0.0
 11
300.008688
 21
610.227707
 31
0.0
  0
LINE
  5
134
330
10C
100
AcDbEntity
  8
0
  6
Continuous
 62
     0
370
    30
100
AcDbLine
 10
286.758688
 20
610.227707
 30
0.0
 11
250.508688
 21
610.227707
 31
0.0
  0
LINE
  5
135
330
10C
100
AcDbEntity
  8
0
  6
Continuous
 62
     0
370
    30
100
AcDbLine
 10
250.508688
 20
654.227707
 30
0.0
 11
250.508688
 21
610.227707
 31
0.0
  0
LWPOLYLINE
  5
136
330
10C
100
AcDbEntity
  8
0
  6
Continuous
 62
     0
370
     0
100
AcDbPolyline
 90
       26
 70
     0
 43
0.0
 10
286.758698
 20
610.227722
 10
286.796448
 20
610.23584
 10
286.910278
 20
610.259827
 10
287.096497
 20
610.297913
 10
287.349854
 20
610.347656
 10
287.666534
 20
610.40625
 10
288.047516
 20
610.469543
 10
288.482941
 20
610.534058
 10
288.962585
 20
610.596191
 10
289.483032
 20
610.65155
 10
290.037262
 20
610.69635
 10
290.615234
 20
610.727844
 10
291.207611
 20
610.744568
 10
291.804871
 20
610.744629
 10
292.397339
 20
610.728088
 10
292.975464
 20
610.696655
 10
293.529907
 20
610.651978
 10
294.05069
 20
610.59668
 10
294.53067
 20
610.534607
 10
294.966492
 20
610.470093
 10
295.347961
 20
610.406738
 10
295.665161
 20
610.348145
 10
295.919037
 20
610.298279
 10
296.105835
 20
610.260132
 10
296.220276
 20
610.235962
 10
296.258698
 20
610.227722
  0
LINE
  5
137
330
10C
100
AcDbEntity
  8
0
  6
Continuous
 62
     0
370
    30
100
AcDbLine
 10
296.258688
 20
610.227707
 30
0.0
 11
300.008688
 21
610.227707
 31
0.0
  0
LWPOLYLINE
  5
138
330
10C
100
AcDbEntity
  8
0
  6
Continuous
 62
     0
370
     0
100
AcDbPolyline
 90
       25
 70
     0
 43
0.0
 10
295.608276
 20
654.227722
 10
295.573853
 20
654.221252
 10
295.468475
 20
654.20166
 10
295.29245
 20
654.170288
 10
295.051178
 20
654.130005
 10
294.750397
 20
654.08374
 10
294.396332
 20
654.034607
 10
293.99585
 20
653.985229
 10
293.554596
 20
653.938843
 10
293.077576
 20
653.899048
 10
292.573273
 20
653.868591
 10
292.05072
 20
653.849182
 10
291.518951
 20
653.842224
 10
290.986969
 20
653.848694
 10
290.463898
 20
653.867615
 10
289.95874
 20
653.897705
 10
289.48056
 20
653.937195
 10
289.037781
 20
653.983337
 10
288.63559
 20
654.032654
 10
288.279541
 20
654.081909
 10
287.976624
 20
654.128296
 10
287.733002
 20
654.168884
 10
287.554352
 20
654.200684
 10
287.446106
 20
654.220703
 10
287.408691
 20
654.227722
  0
LINE
  5
139
330
10C
100
AcDbEntity
  8
0
  6
Continuous
 62
     0
370
    30
100
AcDbLine
 10
295.458688
 20
654.227707
 30
0.0
 11
295.458688
 21
661.557707
 31
0.0
  0
LWPOLYLINE
  5
13A
330
10C
100
AcDbEntity
  8
0
  6
Continuous
 62
     0
370
    30
100
AcDbPolyline
 90
       24
 70
     0
 43
0.0
 10
287.558685
 20
654.227722
 10
287.595886
 20
654.220886
 10
287.705719
 20
654.201538
 10
287.885681
 20
654.171326
 10
288.132996
 20
654.131897
 10
288.44278
 20
654.086243
 10
288.808838
 20
654.037903
 10
289.225067
 20
653.990417
 10
289.684082
 20
653.947205
 10
290.177124
 20
653.911194
 10
290.695312
 20
653.885498
 10
291.229401
 20
653.872375
 10
291.768951
 20
653.872131
 10
292.303436
 20
653.884827
 10
292.822418
 20
653.910095
 10
293.316528
 20
653.945801
 10
293.776855
 20
653.988831
 10
294.19458
 20
654.036133
 10
294.562347
 20
654.084473
 10
294.874207
 20
654.13031
 10
295.124237
 20
654.170105
 10
295.307251
 20
654.200867
 10
295.419586
 20
654.220642
 10
295.458679
 20
654.227722
  0
LINE
  5
13B
330
10C
100
AcDbEntity
  8
0
  6
Continuous
 62
     0
370
    30
100
AcDbLine
 10
295.458688
 20
654.227707
 30
0.0
 11
295.608291
 21
654.227707
 31
0.0
  0
LINE
  5
13C
330
10C
100
AcDbEntity
  8
0
  6
Continuous
 62
     0
370
    30
100
AcDbLine
 10
287.558688
 20
661.557707
 30
0.0
 11
287.558688
 21
654.227707
 31
0.0
  0
LINE
  5
13D
330
10C
100
AcDbEntity
  8
0
  6
Continuous
 62
     0
370
    30
100
AcDbLine
 10
296.258688
 20
610.227707
 30
0.0
 11
286.758688
 21
610.227707
 31
0.0
  0
LINE
  5
13E
330
10C
100
AcDbEntity
  8
0
  6
Continuous
 62
     0
370
    30
100
AcDbLine
 10
250.508687
 20
654.227707
 30
0.0
 11
287.408688
 21
654.227707
 31
0.0
  0
LINE
  5
13F
330
10C
100
AcDbEntity
  8
0
  6
Continuous
 62
     0
370
    30
100
AcDbLine
 10
300.008689
 20
654.227707
 30
0.0
 11
295.608291
 21
654.227707
 31
0.0
  0
LINE
  5
140
330
10C
100
AcDbEntity
  8
0
  6
Continuous
 62
     0
370
    30
100
AcDbLine
 10
300.508688
 20
653.727707
 30
0.0
 11
300.008688
 21
654.227707
 31
0.0
  0
LINE
  5
141
330
10C
100
AcDbEntity
  8
0
  6
Continuous
 62
     0
370
    30
100
AcDbLine
 10
287.558688
 20
661.557707
 30
0.0
 11
288.058688
 21
662.057707
 31
0.0
  0
LINE
  5
142
330
10C
100
AcDbEntity
  8
0
  6
Continuous
 62
     0
370
    30
100
AcDbLine
 10
233.088707
 20
892.228508
 30
0.0
 11
248.088707
 21
892.228508
 31
0.0
  0
LINE
  5
143
330
10C
100
AcDbEntity
  8
0
  6
Continuous
 62
     0
370
    30
100
AcDbLine
 10
233.088707
 20
892.228508
 30
0.0
 11
233.088707
 21
812.228508
 31
0.0
  0
LINE
  5
144
330
10C
100
AcDbEntity
  8
0
  6
Continuous
 62
     0
370
    30
100
AcDbLine
 10
233.088707
 20
812.228508
 30
0.0
 11
248.088707
 21
812.228508
 31
0.0
  0
LINE
  5
145
330
10C
100
AcDbEntity
  8
0
  6
Continuous
 62
     0
370
    30
100
AcDbLine
 10
248.088707
 20
812.228508
 30
0.0
 11
248.088707
 21
892.228508
 31
0.0
  0
ARC
  5
146
330
10C
100
AcDbEntity
  8
0
  6
Continuous
 62
     0
370
    30
100
AcDbCircle
 10
286.438702
 20
875.728519
 30
0.0
 40
3.999999999997861
100
AcDbArc
 50
180.0
 51
270.0
  0
LWPOLYLINE
  5
147
330
10C
100
AcDbEntity
  8
0
  6
Continuous
 62
     0
370
     0
100
AcDbPolyline
 90
       34
 70
     0
 43
0.0
 10
282.43869
 20
875.728516
 10
282.406982
 20
875.705505
 10
282.313416
 20
875.638672
 10
282.16037
 20
875.531006
 10
281.951172
 20
875.387207
 10
281.690186
 20
875.213623
 10
281.381592
 20
875.016602
 10
281.0289
 20
874.802856
 10
280.635437
 20
874.579163
 10
280.203461
 20
874.35199
 10
279.734283
 20
874.127563
 10
279.229309
 20
873.91272
 10
278.690369
 20
873.71582
 10
278.119659
 20
873.545227
 10
277.521484
 20
873.407898
 10
276.901093
 20
873.310364
 10
276.266327
 20
873.258545
 10
275.626648
 20
873.257935
 10
274.991608
 20
873.308472
 10
274.370789
 20
873.404907
 10
273.772034
 20
873.541443
 10
273.200745
 20
873.711304
 10
272.661194
 20
873.907593
 10
272.155457
 20
874.121948
 10
271.68515
 20
874.34613
 10
271.25174
 20
874.573364
 10
270.856567
 20
874.797668
 10
270.502319
 20
875.012207
 10
270.192993
 20
875.209473
 10
269.932465
 20
875.382385
 10
269.723633
 20
875.525635
 10
269.569214
 20
875.634338
 10
269.472809
 20
875.703552
 10
269.43869
 20
875.728516
  0
LWPOLYLINE
  5
148
330
10C
100
AcDbEntity
  8
0
  6
Continuous
 62
     0
370
     0
100
AcDbPolyline
 90
       43
 70
     0
 43
0.0
 10
265.438721
 20
871.728516
 10
265.476715
 20
871.714233
 10
265.588135
 20
871.672974
 10
265.768219
 20
871.607483
 10
266.012238
 20
871.520447
 10
266.316101
 20
871.414612
 10
266.675934
 20
871.292725
 10
267.087524
 20
871.157776
 10
267.545563
 20
871.013428
 10
268.044464
 20
870.863708
 10
268.579071
 20
870.712158
 10
269.145935
 20
870.56189
 10
269.741882
 20
870.415649
 10
270.363861
 20
870.276367
 10
271.008942
 20
870.146606
 10
271.674255
 20
870.028992
 10
272.356964
 20
869.925903
 10
273.054169
 20
869.838684
 10
273.763092
 20
869.768677
 10
274.480835
 20
869.71698
 10
275.204498
 20
869.684998
 10
275.931152
 20
869.673828
 10
276.657806
 20
869.684448
 10
277.381531
 20
869.716003
 10
278.099426
 20
869.767334
 10
278.808502
 20
869.837097
 10
279.505951
 20
869.924072
 10
280.188965
 20
870.0271
 10
280.854736
 20
870.144592
 10
281.500366
 20
870.274292
 10
282.122986
 20
870.413452
 10
282.719574
 20
870.559326
 10
283.286987
 20
870.709167
 10
283.82193
 20
870.860168
 10
284.320892
 20
871.009338
 10
284.779358
 20
871.153381
 10
285.192474
 20
871.288818
 10
285.555328
 20
871.412048
 10
285.86264
 20
871.519653
 10
286.108948
 20
871.607849
 10
286.289307
 20
871.673462
 10
286.400177
 20
871.714233
 10
286.43869
 20
871.728516
  0
LINE
  5
149
330
10C
100
AcDbEntity
  8
0
  6
Continuous
 62
     0
370
    30
100
AcDbLine
 10
282.438702
 20
875.728519
 30
0.0
 11
282.438702
 21
887.228519
 31
0.0
  0
LWPOLYLINE
  5
14A
330
10C
100
AcDbEntity
  8
0
  6
Continuous
 62
     0
370
     0
100
AcDbPolyline
 90
       30
 70
     0
 43
0.0
 10
282.43869
 20
887.228516
 10
282.406586
 20
887.228516
 10
282.305878
 20
887.228516
 10
282.131104
 20
887.228516
 10
281.878906
 20
887.228516
 10
281.548553
 20
887.228516
 10
281.142303
 20
887.228516
 10
280.665497
 20
887.228516
 10
280.126434
 20
887.228516
 10
279.535797
 20
887.228516
 10
278.906158
 20
887.228516
 10
278.250916
 20
887.228516
 10
277.583557
 20
887.228516
 10
276.916718
 20
887.228516
 10
276.26178
 20
887.228516
 10
275.621979
 20
887.228516
 10
274.967194
 20
887.228516
 10
274.300446
 20
887.228516
 10
273.633026
 20
887.228516
 10
272.9776
 20
887.228516
 10
272.347626
 20
887.228516
 10
271.756561
 20
887.228516
 10
271.216919
 20
887.228516
 10
270.739471
 20
887.228516
 10
270.332489
 20
887.228516
 10
270.001373
 20
887.228516
 10
269.748413
 20
887.228516
 10
269.572876
 20
887.228516
 10
269.471436
 20
887.228516
 10
269.43869
 20
887.228516
  0
LWPOLYLINE
  5
14B
330
10C
100
AcDbEntity
  8
0
  6
Continuous
 62
     0
370
    30
100
AcDbPolyline
 90
       29
 70
     0
 43
0.0
 10
269.93869
 20
887.728516
 10
269.976349
 20
887.728516
 10
270.088776
 20
887.728516
 10
270.274536
 20
887.728516
 10
270.531586
 20
887.728516
 10
270.856232
 20
887.728516
 10
271.24469
 20
887.728516
 10
271.692169
 20
887.728516
 10
272.192749
 20
887.728516
 10
272.740417
 20
887.728516
 10
273.328247
 20
887.728516
 10
273.94873
 20
887.728516
 10
274.594238
 20
887.728516
 10
275.256622
 20
887.728516
 10
275.927551
 20
887.728516
 10
276.598572
 20
887.728516
 10
277.261383
 20
887.728516
 10
277.907593
 20
887.728516
 10
278.529022
 20
887.728516
 10
279.118073
 20
887.728516
 10
279.667175
 20
887.728516
 10
280.169434
 20
887.728516
 10
280.618774
 20
887.728516
 10
281.009277
 20
887.728516
 10
281.336121
 20
887.728516
 10
281.595428
 20
887.728516
 10
281.78363
 20
887.728516
 10
281.898499
 20
887.728516
 10
281.93869
 20
887.728516
  0
LINE
  5
14C
330
10C
100
AcDbEntity
  8
0
  6
Continuous
 62
     0
370
    30
100
AcDbLine
 10
248.938702
 20
832.728519
 30
0.0
 11
274.038702
 21
832.728519
 31
0.0
  0
LWPOLYLINE
  5
14D
330
10C
100
AcDbEntity
  8
0
  6
Continuous
 62
     0
370
     0
100
AcDbPolyline
 90
       27
 70
     0
 43
0.0
 10
274.038696
 20
832.728516
 10
274.076843
 20
832.738281
 10
274.188141
 20
832.767029
 10
274.372498
 20
832.812927
 10
274.625366
 20
832.873413
 10
274.94043
 20
832.945312
 10
275.318909
 20
833.023865
 10
275.755127
 20
833.104919
 10
276.237091
 20
833.18457
 10
276.760315
 20
833.257874
 10
277.320801
 20
833.319885
 10
277.90921
 20
833.366943
 10
278.516266
 20
833.396851
 10
279.132843
 20
833.407471
 10
279.749512
 20
833.397217
 10
280.356812
 20
833.367676
 10
280.945679
 20
833.320923
 10
281.506775
 20
833.259155
 10
282.030762
 20
833.186035
 10
282.513489
 20
833.106445
 10
282.950684
 20
833.025391
 10
283.330383
 20
832.946777
 10
283.646606
 20
832.874695
 10
283.900696
 20
832.813965
 10
284.086395
 20
832.7677
 10
284.199127
 20
832.738647
 10
284.238708
 20
832.728516
  0
LINE
  5
14E
330
10C
100
AcDbEntity
  8
0
  6
Continuous
 62
     0
370
    30
100
AcDbLine
 10
284.238702
 20
832.728519
 30
0.0
 11
290.438702
 21
832.728519
 31
0.0
  0
LINE
  5
14F
330
10C
100
AcDbEntity
  8
0
  6
Continuous
 62
     0
370
     0
100
AcDbLine
 10
290.438702
 20
832.728519
 30
0.0
 11
290.438702
 21
871.728519
 31
0.0
  0
LINE
  5
150
330
10C
100
AcDbEntity
  8
0
  6
Continuous
 62
     0
370
    30
100
AcDbLine
 10
248.938702
 20
871.728519
 30
0.0
 11
248.938702
 21
832.728519
 31
0.0
  0
LWPOLYLINE
  5
151
330
10C
100
AcDbEntity
  8
0
  6
Continuous
 62
     0
370
    30
100
AcDbPolyline
 90
       50
 70
     0
 43
0.0
 10
290.93869
 20
871.228516
 10
290.93869
 20
871.189575
 10
290.93869
 20
871.07251
 10
290.93869
 20
870.878296
 10
290.93869
 20
870.607605
 10
290.93869
 20
870.261414
 10
290.93869
 20
869.840759
 10
290.93869
 20
869.347839
 10
290.93869
 20
868.784851
 10
290.93869
 20
868.154114
 10
290.93869
 20
867.457886
 10
290.93869
 20
866.69873
 10
290.93869
 20
865.880188
 10
290.93869
 20
865.005737
 10
290.93869
 20
864.078979
 10
290.93869
 20
863.103516
 10
290.93869
 20
862.08313
 10
290.93869
 20
861.022339
 10
290.93869
 20
859.925476
 10
290.93869
 20
858.79718
 10
290.93869
 20
857.641846
 10
290.93869
 20
856.464172
 10
290.93869
 20
855.269104
 10
290.93869
 20
854.061523
 10
290.93869
 20
852.846497
 10
290.93869
 20
851.628967
 10
290.93869
 20
850.413879
 10
290.93869
 20
849.206238
 10
290.93869
 20
848.010925
 10
290.93869
 20
846.832886
 10
290.93869
 20
845.677185
 10
290.93869
 20
844.548462
 10
290.93869
 20
843.451111
 10
290.93869
 20
842.389709
 10
290.93869
 20
841.368713
 10
290.93869
 20
840.392517
 10
290.93869
 20
839.464966
 10
290.93869
 20
838.589722
 10
290.93869
 20
837.770264
 10
290.93869
 20
837.010254
 10
290.93869
 20
836.312988
 10
290.93869
 20
835.681213
 10
290.93869
 20
835.117188
 10
290.93869
 20
834.62323
 10
290.93869
 20
834.201477
 10
290.93869
 20
833.854126
 10
290.93869
 20
833.582336
 10
290.93869
 20
833.386902
 10
290.93869
 20
833.268677
 10
290.93869
 20
833.228516
  0
ARC
  5
152
330
10C
100
AcDbEntity
  8
0
  6
Continuous
 62
     0
370
    30
100
AcDbCircle
 10
290.438702
 20
833.228519
 30
0.0
 40
0.4999999999905498
100
AcDbArc
 50
270.0
 51
0.0
  0
ARC
  5
153
330
10C
100
AcDbEntity
  8
0
  6
Continuous
 62
     0
370
    30
100
AcDbCircle
 10
281.938702
 20
887.228519
 30
0.0
 40
0.4999999999765237
100
AcDbArc
 50
360.0
 51
90.0
  0
LINE
  5
154
330
10C
100
AcDbEntity
  8
0
  6
Continuous
 62
     0
370
    30
100
AcDbLine
 10
274.038702
 20
832.728519
 30
0.0
 11
284.238702
 21
832.728519
 31
0.0
  0
ARC
  5
155
330
10C
100
AcDbEntity
  8
0
  6
Continuous
 62
     0
370
    30
100
AcDbCircle
 10
269.938705
 20
887.228516
 30
0.0
 40
0.5000034422838597
100
AcDbArc
 50
90.000394
 51
179.999606
  0
ARC
  5
156
330
10C
100
AcDbEntity
  8
0
  6
Continuous
 62
     0
370
    30
100
AcDbCircle
 10
290.438698
 20
871.228516
 30
0.0
 40
0.5000034422816997
100
AcDbArc
 50
0.000394
 51
89.999606
  0
LINE
  5
157
330
10C
100
AcDbEntity
  8
0
  6
Continuous
 62
     0
370
    30
100
AcDbLine
 10
290.438702
 20
871.728519
 30
0.0
 11
286.438702
 21
871.728519
 31
0.0
  0
LINE
  5
158
330
10C
100
AcDbEntity
  8
0
  6
Continuous
 62
     0
370
    30
100
AcDbLine
 10
248.938701
 20
871.728519
 30
0.0
 11
265.438708
 21
871.728519
 31
0.0
  0
LINE
  5
159
330
10C
100
AcDbEntity
  8
0
  6
Continuous
 62
     0
370
    30
100
AcDbLine
 10
269.438702
 20
875.72852
 30
0.0
 11
269.438702
 21
887.22852
 31
0.0
  0
ARC
  5
15A
330
10C
100
AcDbEntity
  8
0
  6
Continuous
 62
     0
370
    30
100
AcDbCircle
 10
265.438683
 20
875.728532
 30
0.0
 40
4.00001912800394
100
AcDbArc
 50
270.00035
 51
359.999828
  0
LINE
  5
15B
330
10C
100
AcDbEntity
  8
0
  6
Continuous
 62
     0
370
    30
100
AcDbLine
 10
248.088705
 20
860.228606
 30
0.0
 11
248.938702
 21
860.228606
 31
0.0
  0
LINE
  5
15C
330
10C
100
AcDbEntity
  8
0
  6
Continuous
 62
     0
370
    30
100
AcDbLine
 10
248.088705
 20
844.228606
 30
0.0
 11
248.938702
 21
844.228606
 31
0.0
  0
LINE
  5
15D
330
10C
100
AcDbEntity
  8
0
  6
Continuous
 62
     0
370
    30
100
AcDbLine
 10
233.088707
 20
992.228508
 30
0.0
 11
248.088707
 21
992.228508
 31
0.0
  0
LINE
  5
15E
330
10C
100
AcDbEntity
  8
0
  6
Continuous
 62
     0
370
    30
100
AcDbLine
 10
233.088707
 20
992.228508
 30
0.0
 11
233.088707
 21
912.228508
 31
0.0
  0
LINE
  5
15F
330
10C
100
AcDbEntity
  8
0
  6
Continuous
 62
     0
370
    30
100
AcDbLine
 10
233.088707
 20
912.228508
 30
0.0
 11
248.088707
 21
912.228508
 31
0.0
  0
LINE
  5
160
330
10C
100
AcDbEntity
  8
0
  6
Continuous
 62
     0
370
    30
100
AcDbLine
 10
248.088707
 20
912.228508
 30
0.0
 11
248.088707
 21
992.228508
 31
0.0
  0
ARC
  5
161
330
10C
100
AcDbEntity
  8
0
  6
Continuous
 62
     0
370
    30
100
AcDbCircle
 10
286.438702
 20
975.728519
 30
0.0
 40
4.000000000001954
100
AcDbArc
 50
180.0
 51
270.0
  0
LWPOLYLINE
  5
162
330
10C
100
AcDbEntity
  8
0
  6
Continuous
 62
     0
370
     0
100
AcDbPolyline
 90
       34
 70
     0
 43
0.0
 10
282.43869
 20
975.728516
 10
282.406982
 20
975.705505
 10
282.313416
 20
975.638672
 10
282.16037
 20
975.531006
 10
281.951172
 20
975.387207
 10
281.690186
 20
975.213623
 10
281.381592
 20
975.016602
 10
281.0289
 20
974.802856
 10
280.635437
 20
974.579163
 10
280.203461
 20
974.35199
 10
279.734283
 20
974.127563
 10
279.229309
 20
973.91272
 10
278.690369
 20
973.71582
 10
278.119659
 20
973.545227
 10
277.521484
 20
973.407898
 10
276.901093
 20
973.310364
 10
276.266327
 20
973.258545
 10
275.626648
 20
973.257935
 10
274.991608
 20
973.308472
 10
274.370789
 20
973.404907
 10
273.772034
 20
973.541443
 10
273.200745
 20
973.711304
 10
272.661194
 20
973.907593
 10
272.155457
 20
974.121948
 10
271.68515
 20
974.34613
 10
271.25174
 20
974.573364
 10
270.856567
 20
974.797668
 10
270.502319
 20
975.012207
 10
270.192993
 20
975.209473
 10
269.932465
 20
975.382385
 10
269.723633
 20
975.525635
 10
269.569214
 20
975.634338
 10
269.472809
 20
975.703552
 10
269.43869
 20
975.728516
  0
LWPOLYLINE
  5
163
330
10C
100
AcDbEntity
  8
0
  6
Continuous
 62
     0
370
     0
100
AcDbPolyline
 90
       43
 70
     0
 43
0.0
 10
265.438721
 20
971.728516
 10
265.476715
 20
971.714233
 10
265.588135
 20
971.672974
 10
265.768219
 20
971.607483
 10
266.012238
 20
971.520447
 10
266.316101
 20
971.414612
 10
266.675934
 20
971.292725
 10
267.087524
 20
971.157776
 10
267.545563
 20
971.013428
 10
268.044464
 20
970.863708
 10
268.579071
 20
970.712158
 10
269.145935
 20
970.56189
 10
269.741882
 20
970.415649
 10
270.363861
 20
970.276367
 10
271.008942
 20
970.146606
 10
271.674255
 20
970.028992
 10
272.356964
 20
969.925903
 10
273.054169
 20
969.838684
 10
273.763092
 20
969.768677
 10
274.480835
 20
969.71698
 10
275.204498
 20
969.684998
 10
275.931152
 20
969.673828
 10
276.657806
 20
969.684448
 10
277.381531
 20
969.716003
 10
278.099426
 20
969.767334
 10
278.808502
 20
969.837097
 10
279.505951
 20
969.924072
 10
280.188965
 20
970.0271
 10
280.854736
 20
970.144592
 10
281.500366
 20
970.274292
 10
282.122986
 20
970.413452
 10
282.719574
 20
970.559326
 10
283.286987
 20
970.709167
 10
283.82193
 20
970.860168
 10
284.320892
 20
971.009338
 10
284.779358
 20
971.153381
 10
285.192474
 20
971.288818
 10
285.555328
 20
971.412048
 10
285.86264
 20
971.519653
 10
286.108948
 20
971.607849
 10
286.289307
 20
971.673462
 10
286.400177
 20
971.714233
 10
286.43869
 20
971.728516
  0
LINE
  5
164
330
10C
100
AcDbEntity
  8
0
  6
Continuous
 62
     0
370
    30
100
AcDbLine
 10
282.438702
 20
975.728519
 30
0.0
 11
282.438702
 21
987.228519
 31
0.0
  0
LWPOLYLINE
  5
165
330
10C
100
AcDbEntity
  8
0
  6
Continuous
 62
     0
370
     0
100
AcDbPolyline
 90
       30
 70
     0
 43
0.0
 10
282.43869
 20
987.228516
 10
282.406586
 20
987.228516
 10
282.305878
 20
987.228516
 10
282.131104
 20
987.228516
 10
281.878906
 20
987.228516
 10
281.548553
 20
987.228516
 10
281.142303
 20
987.228516
 10
280.665497
 20
987.228516
 10
280.126434
 20
987.228516
 10
279.535797
 20
987.228516
 10
278.906158
 20
987.228516
 10
278.250916
 20
987.228516
 10
277.583557
 20
987.228516
 10
276.916718
 20
987.228516
 10
276.26178
 20
987.228516
 10
275.621979
 20
987.228516
 10
274.967194
 20
987.228516
 10
274.300446
 20
987.228516
 10
273.633026
 20
987.228516
 10
272.9776
 20
987.228516
 10
272.347626
 20
987.228516
 10
271.756561
 20
987.228516
 10
271.216919
 20
987.228516
 10
270.739471
 20
987.228516
 10
270.332489
 20
987.228516
 10
270.001373
 20
987.228516
 10
269.748413
 20
987.228516
 10
269.572876
 20
987.228516
 10
269.471436
 20
987.228516
 10
269.43869
 20
987.228516
  0
LWPOLYLINE
  5
166
330
10C
100
AcDbEntity
  8
0
  6
Continuous
 62
     0
370
    30
100
AcDbPolyline
 90
       29
 70
     0
 43
0.0
 10
269.93869
 20
987.728516
 10
269.976349
 20
987.728516
 10
270.088776
 20
987.728516
 10
270.274536
 20
987.728516
 10
270.531586
 20
987.728516
 10
270.856232
 20
987.728516
 10
271.24469
 20
987.728516
 10
271.692169
 20
987.728516
 10
272.192749
 20
987.728516
 10
272.740417
 20
987.728516
 10
273.328247
 20
987.728516
 10
273.94873
 20
987.728516
 10
274.594238
 20
987.728516
 10
275.256622
 20
987.728516
 10
275.927551
 20
987.728516
 10
276.598572
 20
987.728516
 10
277.261383
 20
987.728516
 10
277.907593
 20
987.728516
 10
278.529022
 20
987.728516
 10
279.118073
 20
987.728516
 10
279.667175
 20
987.728516
 10
280.169434
 20
987.728516
 10
280.618774
 20
987.728516
 10
281.009277
 20
987.728516
 10
281.336121
 20
987.728516
 10
281.595428
 20
987.728516
 10
281.78363
 20
987.728516
 10
281.898499
 20
987.728516
 10
281.93869
 20
987.728516
  0
LINE
  5
167
330
10C
100
AcDbEntity
  8
0
  6
Continuous
 62
     0
370
    30
100
AcDbLine
 10
248.938702
 20
932.728519
 30
0.0
 11
274.038702
 21
932.728519
 31
0.0
  0
LWPOLYLINE
  5
168
330
10C
100
AcDbEntity
  8
0
  6
Continuous
 62
     0
370
     0
100
AcDbPolyline
 90
       27
 70
     0
 43
0.0
 10
274.038696
 20
932.728516
 10
274.076843
 20
932.738281
 10
274.188141
 20
932.767029
 10
274.372498
 20
932.812927
 10
274.625366
 20
932.873413
 10
274.94043
 20
932.945312
 10
275.318909
 20
933.023865
 10
275.755127
 20
933.104919
 10
276.237091
 20
933.18457
 10
276.760315
 20
933.257874
 10
277.320801
 20
933.319885
 10
277.90921
 20
933.366943
 10
278.516266
 20
933.396851
 10
279.132843
 20
933.407471
 10
279.749512
 20
933.397217
 10
280.356812
 20
933.367676
 10
280.945679
 20
933.320923
 10
281.506775
 20
933.259155
 10
282.030762
 20
933.186035
 10
282.513489
 20
933.106445
 10
282.950684
 20
933.025391
 10
283.330383
 20
932.946777
 10
283.646606
 20
932.874695
 10
283.900696
 20
932.813965
 10
284.086395
 20
932.7677
 10
284.199127
 20
932.738647
 10
284.238708
 20
932.728516
  0
LINE
  5
169
330
10C
100
AcDbEntity
  8
0
  6
Continuous
 62
     0
370
    30
100
AcDbLine
 10
284.238702
 20
932.728519
 30
0.0
 11
290.438702
 21
932.728519
 31
0.0
  0
LINE
  5
16A
330
10C
100
AcDbEntity
  8
0
  6
Continuous
 62
     0
370
     0
100
AcDbLine
 10
290.438702
 20
932.728519
 30
0.0
 11
290.438702
 21
971.728519
 31
0.0
  0
LINE
  5
16B
330
10C
100
AcDbEntity
  8
0
  6
Continuous
 62
     0
370
    30
100
AcDbLine
 10
248.938702
 20
971.728519
 30
0.0
 11
248.938702
 21
932.728519
 31
0.0
  0
LWPOLYLINE
  5
16C
330
10C
100
AcDbEntity
  8
0
  6
Continuous
 62
     0
370
    30
100
AcDbPolyline
 90
       50
 70
     0
 43
0.0
 10
290.93869
 20
971.228516
 10
290.93869
 20
971.189575
 10
290.93869
 20
971.07251
 10
290.93869
 20
970.878296
 10
290.93869
 20
970.607605
 10
290.93869
 20
970.261414
 10
290.93869
 20
969.840759
 10
290.93869
 20
969.347839
 10
290.93869
 20
968.784851
 10
290.93869
 20
968.154114
 10
290.93869
 20
967.457886
 10
290.93869
 20
966.69873
 10
290.93869
 20
965.880188
 10
290.93869
 20
965.005737
 10
290.93869
 20
964.078979
 10
290.93869
 20
963.103516
 10
290.93869
 20
962.08313
 10
290.93869
 20
961.022339
 10
290.93869
 20
959.925476
 10
290.93869
 20
958.79718
 10
290.93869
 20
957.641846
 10
290.93869
 20
956.464172
 10
290.93869
 20
955.269104
 10
290.93869
 20
954.061523
 10
290.93869
 20
952.846497
 10
290.93869
 20
951.628967
 10
290.93869
 20
950.413879
 10
290.93869
 20
949.206238
 10
290.93869
 20
948.010925
 10
290.93869
 20
946.832886
 10
290.93869
 20
945.677185
 10
290.93869
 20
944.548462
 10
290.93869
 20
943.451111
 10
290.93869
 20
942.389709
 10
290.93869
 20
941.368713
 10
290.93869
 20
940.392517
 10
290.93869
 20
939.464966
 10
290.93869
 20
938.589722
 10
290.93869
 20
937.770264
 10
290.93869
 20
937.010254
 10
290.93869
 20
936.312988
 10
290.93869
 20
935.681213
 10
290.93869
 20
935.117188
 10
290.93869
 20
934.62323
 10
290.93869
 20
934.201477
 10
290.93869
 20
933.854126
 10
290.93869
 20
933.582336
 10
290.93869
 20
933.386902
 10
290.93869
 20
933.268677
 10
290.93869
 20
933.228516
  0
ARC
  5
16D
330
10C
100
AcDbEntity
  8
0
  6
Continuous
 62
     0
370
    30
100
AcDbCircle
 10
290.438702
 20
933.228519
 30
0.0
 40
0.4999999999987068
100
AcDbArc
 50
270.0
 51
360.0
  0
ARC
  5
16E
330
10C
100
AcDbEntity
  8
0
  6
Continuous
 62
     0
370
    30
100
AcDbCircle
 10
281.938702
 20
987.228519
 30
0.0
 40
0.5000000000333955
100
AcDbArc
 50
0.0
 51
90.0
  0
LINE
  5
16F
330
10C
100
AcDbEntity
  8
0
  6
Continuous
 62
     0
370
    30
100
AcDbLine
 10
274.038702
 20
932.728519
 30
0.0
 11
284.238702
 21
932.728519
 31
0.0
  0
ARC
  5
170
330
10C
100
AcDbEntity
  8
0
  6
Continuous
 62
     0
370
    30
100
AcDbCircle
 10
269.938705
 20
987.228516
 30
0.0
 40
0.5000034422953137
100
AcDbArc
 50
90.000394
 51
179.999606
  0
ARC
  5
171
330
10C
100
AcDbEntity
  8
0
  6
Continuous
 62
     0
370
    30
100
AcDbCircle
 10
290.438698
 20
971.228516
 30
0.0
 40
0.500003442265357
100
AcDbArc
 50
0.000394
 51
89.999606
  0
LINE
  5
172
330
10C
100
AcDbEntity
  8
0
  6
Continuous
 62
     0
370
    30
100
AcDbLine
 10
290.438702
 20
971.728519
 30
0.0
 11
286.438702
 21
971.728519
 31
0.0
  0
LINE
  5
173
330
10C
100
AcDbEntity
  8
0
  6
Continuous
 62
     0
370
    30
100
AcDbLine
 10
248.938701
 20
971.728519
 30
0.0
 11
265.438708
 21
971.728519
 31
0.0
  0
LINE
  5
174
330
10C
100
AcDbEntity
  8
0
  6
Continuous
 62
     0
370
    30
100
AcDbLine
 10
269.438702
 20
975.72852
 30
0.0
 11
269.438702
 21
987.22852
 31
0.0
  0
ARC
  5
175
330
10C
100
AcDbEntity
  8
0
  6
Continuous
 62
     0
370
    30
100
AcDbCircle
 10
265.438683
 20
975.728532
 30
0.0
 40
4.000019128003833
100
AcDbArc
 50
270.00035
 51
359.999828
  0
LINE
  5
176
330
10C
100
AcDbEntity
  8
0
  6
Continuous
 62
     0
370
    30
100
AcDbLine
 10
248.088705
 20
960.228606
 30
0.0
 11
248.938702
 21
960.228606
 31
0.0
  0
LINE
  5
177
330
10C
100
AcDbEntity
  8
0
  6
Continuous
 62
     0
370
    30
100
AcDbLine
 10
248.088705
 20
944.228606
 30
0.0
 11
248.938702
 21
944.228606
 31
0.0
  0
ENDBLK
  5
179
330
10C
100
AcDbEntity
  8
0
100
AcDbBlockEnd
  0
BLOCK
  5
1E7
330
17B
100
AcDbEntity
  8
0
100
AcDbBlockBegin
  2
d
 70
     0
 10
-26.908981
 20
0.0
 30
0.0
  3
d
  1

  0
LINE
  5
17C
330
17B
100
AcDbEntity
  8
0
  6
Continuous
 62
     0
370
    30
100
AcDbLine
 10
-60.631609
 20
712.228516
 30
0.0
 11
-60.631609
 21
792.228516
 31
0.0
  0
LINE
  5
17D
330
17B
100
AcDbEntity
  8
0
  6
Continuous
 62
     0
370
    30
100
AcDbLine
 10
-60.631609
 20
792.228516
 30
0.0
 11
-75.631609
 21
792.228516
 31
0.0
  0
LINE
  5
17E
330
17B
100
AcDbEntity
  8
0
  6
Continuous
 62
     0
370
    30
100
AcDbLine
 10
-75.631609
 20
792.228516
 30
0.0
 11
-75.631609
 21
712.228516
 31
0.0
  0
LINE
  5
17F
330
17B
100
AcDbEntity
  8
0
  6
Continuous
 62
     0
370
    30
100
AcDbLine
 10
-75.631609
 20
712.228516
 30
0.0
 11
-60.631609
 21
712.228516
 31
0.0
  0
ARC
  5
180
330
17B
100
AcDbEntity
  8
0
  6
Continuous
 62
     0
370
    30
100
AcDbCircle
 10
-113.981604
 20
775.728527
 30
0.0
 40
3.99999999999951
100
AcDbArc
 50
270.0
 51
360.0
  0
LWPOLYLINE
  5
181
330
17B
100
AcDbEntity
  8
0
  6
Continuous
 62
     0
370
     0
100
AcDbPolyline
 90
       34
 70
     0
 43
0.0
 10
-96.981606
 20
775.728516
 10
-97.014221
 20
775.704651
 10
-97.109222
 20
775.636414
 10
-97.262306
 20
775.528564
 10
-97.469894
 20
775.386047
 10
-97.729233
 20
775.213806
 10
-98.037437
 20
775.017029
 10
-98.390678
 20
774.802795
 10
-98.784935
 20
774.578674
 10
-99.217491
 20
774.35144
 10
-99.686935
 20
774.127136
 10
-100.191856
 20
773.912476
 10
-100.730629
 20
773.715698
 10
-101.301216
 20
773.545044
 10
-101.899368
 20
773.407715
 10
-102.519768
 20
773.310242
 10
-103.154579
 20
773.258545
 10
-103.79425
 20
773.257935
 10
-104.429237
 20
773.308594
 10
-105.050049
 20
773.405151
 10
-105.648811
 20
773.541565
 10
-106.220215
 20
773.711487
 10
-106.759926
 20
773.907837
 10
-107.265701
 20
774.122314
 10
-107.735741
 20
774.346619
 10
-108.16861
 20
774.573853
 10
-108.563034
 20
774.797791
 10
-108.916748
 20
775.011841
 10
-109.226425
 20
775.20929
 10
-109.48851
 20
775.383423
 10
-109.698868
 20
775.527893
 10
-109.853256
 20
775.636353
 10
-109.948318
 20
775.704285
 10
-109.981606
 20
775.728516
  0
LWPOLYLINE
  5
182
330
17B
100
AcDbEntity
  8
0
  6
Continuous
 62
     0
370
     0
100
AcDbPolyline
 90
       43
 70
     0
 43
0.0
 10
-113.981606
 20
771.728516
 10
-113.944595
 20
771.714783
 10
-113.835205
 20
771.6745
 10
-113.656334
 20
771.609436
 10
-113.41143
 20
771.521667
 10
-113.105476
 20
771.414551
 10
-112.743835
 20
771.291626
 10
-112.331779
 20
771.156433
 10
-111.874252
 20
771.012512
 10
-111.376122
 20
770.863403
 10
-110.841942
 20
770.712463
 10
-110.275208
 20
770.562561
 10
-109.679207
 20
770.416565
 10
-109.057159
 20
770.277222
 10
-108.412003
 20
770.147278
 10
-107.746651
 20
770.029541
 10
-107.063988
 20
769.926208
 10
-106.366829
 20
769.838867
 10
-105.657974
 20
769.768738
 10
-104.940269
 20
769.717041
 10
-104.216637
 20
769.685059
 10
-103.490013
 20
769.67395
 10
-102.763351
 20
769.68457
 10
-102.039597
 20
769.716125
 10
-101.321693
 20
769.767395
 10
-100.612564
 20
769.836975
 10
-99.915062
 20
769.923828
 10
-99.232033
 20
770.026611
 10
-98.566315
 20
770.143921
 10
-97.920761
 20
770.273499
 10
-97.298233
 20
770.412598
 10
-96.701645
 20
770.558655
 10
-96.134087
 20
770.708801
 10
-95.598717
 20
770.860291
 10
-95.099037
 20
771.01001
 10
-94.640121
 20
771.154358
 10
-94.227547
 20
771.28949
 10
-93.866608
 20
771.411682
 10
-93.561493
 20
771.517944
 10
-93.316109
 20
771.60553
 10
-93.134506
 20
771.67157
 10
-93.021423
 20
771.713501
 10
-92.981613
 20
771.728516
  0
LINE
  5
183
330
17B
100
AcDbEntity
  8
0
  6
Continuous
 62
     0
370
    30
100
AcDbLine
 10
-109.981604
 20
775.728527
 30
0.0
 11
-109.981604
 21
787.228527
 31
0.0
  0
LINE
  5
184
330
17B
100
AcDbEntity
  8
0
  6
Continuous
 62
     0
370
     0
100
AcDbLine
 10
-96.981604
 20
787.228527
 30
0.0
 11
-109.981604
 21
787.228527
 31
0.0
  0
LWPOLYLINE
  5
185
330
17B
100
AcDbEntity
  8
0
  6
Continuous
 62
     0
370
    30
100
AcDbPolyline
 90
       29
 70
     0
 43
0.0
 10
-109.481606
 20
787.728516
 10
-109.443947
 20
787.728516
 10
-109.331528
 20
787.728516
 10
-109.145752
 20
787.728516
 10
-108.888733
 20
787.728516
 10
-108.564072
 20
787.728516
 10
-108.175629
 20
787.728516
 10
-107.728142
 20
787.728516
 10
-107.227547
 20
787.728516
 10
-106.679886
 20
787.728516
 10
-106.092049
 20
787.728516
 10
-105.471565
 20
787.728516
 10
-104.826065
 20
787.728516
 10
-104.163673
 20
787.728516
 10
-103.492767
 20
787.728516
 10
-102.821724
 20
787.728516
 10
-102.158913
 20
787.728516
 10
-101.512718
 20
787.728516
 10
-100.891281
 20
787.728516
 10
-100.302238
 20
787.728516
 10
-99.753128
 20
787.728516
 10
-99.25087
 20
787.728516
 10
-98.801521
 20
787.728516
 10
-98.411034
 20
787.728516
 10
-98.08419
 20
787.728516
 10
-97.82486
 20
787.728516
 10
-97.636681
 20
787.728516
 10
-97.521805
 20
787.728516
 10
-97.481606
 20
787.728516
  0
LINE
  5
186
330
17B
100
AcDbEntity
  8
0
  6
Continuous
 62
     0
370
    30
100
AcDbLine
 10
-76.481604
 20
732.728527
 30
0.0
 11
-101.581604
 21
732.728527
 31
0.0
  0
LINE
  5
187
330
17B
100
AcDbEntity
  8
0
  6
Continuous
 62
     0
370
    30
100
AcDbLine
 10
-111.781604
 20
732.728527
 30
0.0
 11
-117.981604
 21
732.728527
 31
0.0
  0
LINE
  5
188
330
17B
100
AcDbEntity
  8
0
  6
Continuous
 62
     0
370
     0
100
AcDbLine
 10
-117.981604
 20
771.728527
 30
0.0
 11
-117.981604
 21
732.728527
 31
0.0
  0
LWPOLYLINE
  5
189
330
17B
100
AcDbEntity
  8
0
  6
Continuous
 62
     0
370
     0
100
AcDbPolyline
 90
       27
 70
     0
 43
0.0
 10
-111.781601
 20
732.728516
 10
-111.743446
 20
732.738281
 10
-111.632126
 20
732.767029
 10
-111.447769
 20
732.812927
 10
-111.194901
 20
732.873413
 10
-110.87986
 20
732.945312
 10
-110.501358
 20
733.023926
 10
-110.065125
 20
733.104919
 10
-109.583183
 20
733.18457
 10
-109.059975
 20
733.257874
 10
-108.499489
 20
733.319885
 10
-107.911072
 20
733.367004
 10
-107.304016
 20
733.396851
 10
-106.687439
 20
733.407471
 10
-106.07077
 20
733.397217
 10
-105.463455
 20
733.367737
 10
-104.874611
 20
733.320923
 10
-104.313499
 20
733.259155
 10
-103.789513
 20
733.186035
 10
-103.306755
 20
733.106445
 10
-102.869568
 20
733.025452
 10
-102.489883
 20
732.946777
 10
-102.173683
 20
732.874695
 10
-101.919571
 20
732.813965
 10
-101.733864
 20
732.767761
 10
-101.621147
 20
732.738647
 10
-101.581604
 20
732.728516
  0
LINE
  5
18A
330
17B
100
AcDbEntity
  8
0
  6
Continuous
 62
     0
370
    30
100
AcDbLine
 10
-76.481604
 20
732.728527
 30
0.0
 11
-76.481604
 21
771.728527
 31
0.0
  0
LWPOLYLINE
  5
18B
330
17B
100
AcDbEntity
  8
0
  6
Continuous
 62
     0
370
    30
100
AcDbPolyline
 90
       50
 70
     0
 43
0.0
 10
-118.481606
 20
733.228516
 10
-118.481606
 20
733.267456
 10
-118.481606
 20
733.384521
 10
-118.481606
 20
733.578796
 10
-118.481606
 20
733.849426
 10
-118.481606
 20
734.195618
 10
-118.481606
 20
734.616272
 10
-118.481606
 20
735.109192
 10
-118.481606
 20
735.67218
 10
-118.481606
 20
736.302917
 10
-118.481606
 20
736.999146
 10
-118.481606
 20
737.758301
 10
-118.481606
 20
738.576843
 10
-118.481606
 20
739.451294
 10
-118.481606
 20
740.378052
 10
-118.481606
 20
741.353516
 10
-118.481606
 20
742.373901
 10
-118.481606
 20
743.434753
 10
-118.481606
 20
744.531555
 10
-118.481606
 20
745.659851
 10
-118.481606
 20
746.815186
 10
-118.481606
 20
747.992859
 10
-118.481606
 20
749.187988
 10
-118.481606
 20
750.395508
 10
-118.481606
 20
751.610535
 10
-118.481606
 20
752.828064
 10
-118.481606
 20
754.043152
 10
-118.481606
 20
755.250854
 10
-118.481606
 20
756.446167
 10
-118.481606
 20
757.624146
 10
-118.481606
 20
758.779846
 10
-118.481606
 20
759.90863
 10
-118.481606
 20
761.00592
 10
-118.481606
 20
762.067322
 10
-118.481606
 20
763.088318
 10
-118.481606
 20
764.064575
 10
-118.481606
 20
764.992065
 10
-118.481606
 20
765.86731
 10
-118.481606
 20
766.686768
 10
-118.481606
 20
767.446838
 10
-118.481606
 20
768.144043
 10
-118.481606
 20
768.775818
 10
-118.481606
 20
769.339844
 10
-118.481606
 20
769.833862
 10
-118.481606
 20
770.255554
 10
-118.481606
 20
770.602905
 10
-118.481606
 20
770.874756
 10
-118.481606
 20
771.07019
 10
-118.481606
 20
771.188354
 10
-118.481606
 20
771.228516
  0
ARC
  5
18C
330
17B
100
AcDbEntity
  8
0
  6
Continuous
 62
     0
370
    30
100
AcDbCircle
 10
-117.981604
 20
733.228527
 30
0.0
 40
0.4999999999957581
100
AcDbArc
 50
180.0
 51
270.0
  0
ARC
  5
18D
330
17B
100
AcDbEntity
  8
0
  6
Continuous
 62
     0
370
    30
100
AcDbCircle
 10
-109.481604
 20
787.228527
 30
0.0
 40
0.5000000000063309
100
AcDbArc
 50
90.0
 51
180.0
  0
LINE
  5
18E
330
17B
100
AcDbEntity
  8
0
  6
Continuous
 62
     0
370
    30
100
AcDbLine
 10
-101.581604
 20
732.728527
 30
0.0
 11
-111.781604
 21
732.728527
 31
0.0
  0
ARC
  5
18F
330
17B
100
AcDbEntity
  8
0
  6
Continuous
 62
     0
370
    30
100
AcDbCircle
 10
-97.481607
 20
787.228524
 30
0.0
 40
0.5000034422885564
100
AcDbArc
 50
0.000394
 51
89.999606
  0
ARC
  5
190
330
17B
100
AcDbEntity
  8
0
  6
Continuous
 62
     0
370
    30
100
AcDbCircle
 10
-117.9816
 20
771.228524
 30
0.0
 40
0.5000034422854585
100
AcDbArc
 50
90.000394
 51
179.999606
  0
LINE
  5
191
330
17B
100
AcDbEntity
  8
0
  6
Continuous
 62
     0
370
    30
100
AcDbLine
 10
-117.981604
 20
771.728527
 30
0.0
 11
-113.981604
 21
771.728527
 31
0.0
  0
LINE
  5
192
330
17B
100
AcDbEntity
  8
0
  6
Continuous
 62
     0
370
    30
100
AcDbLine
 10
-76.481603
 20
771.728527
 30
0.0
 11
-92.98161
 21
771.728527
 31
0.0
  0
LINE
  5
193
330
17B
100
AcDbEntity
  8
0
  6
Continuous
 62
     0
370
    30
100
AcDbLine
 10
-96.981604
 20
775.728527
 30
0.0
 11
-96.981604
 21
787.228527
 31
0.0
  0
ARC
  5
194
330
17B
100
AcDbEntity
  8
0
  6
Continuous
 62
     0
370
    30
100
AcDbCircle
 10
-92.981585
 20
775.728539
 30
0.0
 40
4.000019128058248
100
AcDbArc
 50
180.000172
 51
269.99965
  0
LINE
  5
195
330
17B
100
AcDbEntity
  8
0
  6
Continuous
 62
     0
370
    30
100
AcDbLine
 10
-75.631607
 20
760.228613
 30
0.0
 11
-76.481604
 21
760.228613
 31
0.0
  0
LINE
  5
196
330
17B
100
AcDbEntity
  8
0
  6
Continuous
 62
     0
370
    30
100
AcDbLine
 10
-75.631607
 20
744.228613
 30
0.0
 11
-76.481604
 21
744.228613
 31
0.0
  0
LINE
  5
197
330
17B
100
AcDbEntity
  8
0
  6
Continuous
 62
     0
370
    30
100
AcDbLine
 10
-60.631611
 20
573.228513
 30
0.0
 11
-75.131611
 21
573.228513
 31
0.0
  0
LINE
  5
198
330
17B
100
AcDbEntity
  8
0
  6
Continuous
 62
     0
370
    30
100
AcDbLine
 10
-60.631611
 20
573.228513
 30
0.0
 11
-60.631611
 21
690.228513
 31
0.0
  0
LINE
  5
199
330
17B
100
AcDbEntity
  8
0
  6
Continuous
 62
     0
370
    30
100
AcDbLine
 10
-60.631611
 20
690.228513
 30
0.0
 11
-75.131611
 21
690.228513
 31
0.0
  0
LINE
  5
19A
330
17B
100
AcDbEntity
  8
0
  6
Continuous
 62
     0
370
    30
100
AcDbLine
 10
-75.131611
 20
690.228513
 30
0.0
 11
-75.131611
 21
573.228513
 31
0.0
  0
LINE
  5
19B
330
17B
100
AcDbEntity
  8
0
  6
Continuous
 62
     0
370
    30
100
AcDbLine
 10
-75.131609
 20
651.228275
 30
0.0
 11
-78.05159
 21
651.228275
 31
0.0
  0
LINE
  5
19C
330
17B
100
AcDbEntity
  8
0
  6
Continuous
 62
     0
370
    30
100
AcDbLine
 10
-75.131609
 20
613.228275
 30
0.0
 11
-78.05159
 21
613.228275
 31
0.0
  0
LWPOLYLINE
  5
19D
330
17B
100
AcDbEntity
  8
0
  6
Continuous
 62
     0
370
    30
100
AcDbPolyline
 90
       22
 70
     0
 43
0.0
 10
-122.501587
 20
662.057739
 10
-122.463112
 20
662.057739
 10
-122.348671
 20
662.057739
 10
-122.160591
 20
662.057739
 10
-121.903351
 20
662.057739
 10
-121.58242
 20
662.057739
 10
-121.205147
 20
662.057739
 10
-120.779816
 20
662.057739
 10
-120.315987
 20
662.057739
 10
-119.823982
 20
662.057739
 10
-119.314728
 20
662.057739
 10
-118.799644
 20
662.057739
 10
-118.290138
 20
662.057739
 10
-117.797638
 20
662.057739
 10
-117.333084
 20
662.057739
 10
-116.906815
 20
662.057739
 10
-116.528397
 20
662.057739
 10
-116.206161
 20
662.057739
 10
-115.947472
 20
662.057739
 10
-115.757828
 20
662.057739
 10
-115.641754
 20
662.057739
 10
-115.601593
 20
662.057739
  0
LINE
  5
19E
330
17B
100
AcDbEntity
  8
0
  6
Continuous
 62
     0
370
    30
100
AcDbLine
 10
-122.50159
 20
662.057714
 30
0.0
 11
-123.00159
 21
661.557714
 31
0.0
  0
LWPOLYLINE
  5
19F
330
17B
100
AcDbEntity
  8
0
  6
Continuous
 62
     0
370
    30
100
AcDbPolyline
 90
       24
 70
     0
 43
0.0
 10
-123.001587
 20
661.557739
 10
-122.964096
 20
661.5578
 10
-122.853363
 20
661.557861
 10
-122.672668
 20
661.558044
 10
-122.425705
 20
661.558411
 10
-122.115776
 20
661.558533
 10
-121.747337
 20
661.558167
 10
-121.32827
 20
661.5578
 10
-120.867706
 20
661.557739
 10
-120.375198
 20
661.557739
 10
-119.858986
 20
661.5578
 10
-119.327446
 20
661.557739
 10
-118.790367
 20
661.557739
 10
-118.258049
 20
661.557739
 10
-117.740799
 20
661.557739
 10
-117.247444
 20
661.557739
 10
-116.786705
 20
661.557739
 10
-116.368057
 20
661.557739
 10
-116.000198
 20
661.557739
 10
-115.690308
 20
661.557739
 10
-115.441521
 20
661.557739
 10
-115.25695
 20
661.557739
 10
-115.142006
 20
661.557739
 10
-115.101593
 20
661.557739
  0
LWPOLYLINE
  5
1A0
330
17B
100
AcDbEntity
  8
0
  6
Continuous
 62
     0
370
    30
100
AcDbPolyline
 90
       53
 70
     0
 43
0.0
 10
-128.05159
 20
610.727722
 10
-128.05159
 20
610.766846
 10
-128.05159
 20
610.88446
 10
-128.05159
 20
611.079834
 10
-128.05159
 20
611.352112
 10
-128.05159
 20
611.7005
 10
-128.05159
 20
612.124084
 10
-128.05159
 20
612.621155
 10
-128.05159
 20
613.189514
 10
-128.05159
 20
613.827026
 10
-128.05159
 20
614.531555
 10
-128.05159
 20
615.300903
 10
-128.05159
 20
616.132202
 10
-128.05159
 20
617.022156
 10
-128.05159
 20
617.967346
 10
-128.05159
 20
618.964417
 10
-128.05159
 20
620.01001
 10
-128.05159
 20
621.100342
 10
-128.05159
 20
622.231201
 10
-128.05159
 20
623.398438
 10
-128.05159
 20
624.597778
 10
-128.05159
 20
625.824951
 10
-128.05159
 20
627.075562
 10
-128.05159
 20
628.345032
 10
-128.05159
 20
629.628662
 10
-128.05159
 20
630.921692
 10
-128.05159
 20
632.219482
 10
-128.05159
 20
633.517273
 10
-128.05159
 20
634.810364
 10
-128.05159
 20
636.094116
 10
-128.05159
 20
637.363831
 10
-128.05159
 20
638.614746
 10
-128.05159
 20
639.842224
 10
-128.05159
 20
641.041931
 10
-128.05159
 20
642.209595
 10
-128.05159
 20
643.341003
 10
-128.05159
 20
644.431824
 10
-128.05159
 20
645.478027
 10
-128.05159
 20
646.475708
 10
-128.05159
 20
647.42157
 10
-128.05159
 20
648.312256
 10
-128.05159
 20
649.144348
 10
-128.05159
 20
649.91449
 10
-128.05159
 20
650.619873
 10
-128.05159
 20
651.25824
 10
-128.05159
 20
651.827515
 10
-128.05159
 20
652.3255
 10
-128.05159
 20
652.750061
 10
-128.05159
 20
653.099365
 10
-128.05159
 20
653.37262
 10
-128.05159
 20
653.56897
 10
-128.05159
 20
653.687561
 10
-128.05159
 20
653.727722
  0
LINE
  5
1A1
330
17B
100
AcDbEntity
  8
0
  6
Continuous
 62
     0
370
    30
100
AcDbLine
 10
-128.05159
 20
610.727715
 30
0.0
 11
-127.55159
 21
610.227715
 31
0.0
  0
LINE
  5
1A2
330
17B
100
AcDbEntity
  8
0
  6
Continuous
 62
     0
370
    30
100
AcDbLine
 10
-127.55159
 20
610.227715
 30
0.0
 11
-127.55159
 21
654.227715
 31
0.0
  0
LINE
  5
1A3
330
17B
100
AcDbEntity
  8
0
  6
Continuous
 62
     0
370
    30
100
AcDbLine
 10
-114.30159
 20
610.227715
 30
0.0
 11
-78.05159
 21
610.227715
 31
0.0
  0
LINE
  5
1A4
330
17B
100
AcDbEntity
  8
0
  6
Continuous
 62
     0
370
    30
100
AcDbLine
 10
-78.05159
 20
610.227715
 30
0.0
 11
-78.05159
 21
654.227715
 31
0.0
  0
LINE
  5
1A5
330
17B
100
AcDbEntity
  8
0
  6
Continuous
 62
     0
370
    30
100
AcDbLine
 10
-123.80159
 20
610.227715
 30
0.0
 11
-127.55159
 21
610.227715
 31
0.0
  0
LWPOLYLINE
  5
1A6
330
17B
100
AcDbEntity
  8
0
  6
Continuous
 62
     0
370
     0
100
AcDbPolyline
 90
       26
 70
     0
 43
0.0
 10
-123.80159
 20
610.227722
 10
-123.763817
 20
610.23584
 10
-123.649986
 20
610.259827
 10
-123.46376
 20
610.297913
 10
-123.210419
 20
610.347656
 10
-122.89373
 20
610.40625
 10
-122.512756
 20
610.469543
 10
-122.077347
 20
610.534058
 10
-121.597687
 20
610.596191
 10
-121.077232
 20
610.65155
 10
-120.523018
 20
610.69635
 10
-119.945053
 20
610.727905
 10
-119.352669
 20
610.744568
 10
-118.755402
 20
610.744629
 10
-118.162933
 20
610.728088
 10
-117.584816
 20
610.696655
 10
-117.030357
 20
610.651978
 10
-116.50959
 20
610.59668
 10
-116.029602
 20
610.534607
 10
-115.593803
 20
610.470093
 10
-115.212318
 20
610.406799
 10
-114.895096
 20
610.348145
 10
-114.641212
 20
610.298279
 10
-114.454407
 20
610.260132
 10
-114.339966
 20
610.235962
 10
-114.30159
 20
610.227722
  0
LWPOLYLINE
  5
1A7
330
17B
100
AcDbEntity
  8
0
  6
Continuous
 62
     0
370
     0
100
AcDbPolyline
 90
       25
 70
     0
 43
0.0
 10
-114.951591
 20
654.227722
 10
-114.986267
 20
654.221252
 10
-115.091751
 20
654.201721
 10
-115.267769
 20
654.170288
 10
-115.50898
 20
654.130005
 10
-115.809708
 20
654.083801
 10
-116.163826
 20
654.034607
 10
-116.564293
 20
653.985229
 10
-117.005463
 20
653.938843
 10
-117.48243
 20
653.899048
 10
-117.986771
 20
653.868591
 10
-118.509338
 20
653.849243
 10
-119.041145
 20
653.842224
 10
-119.573135
 20
653.848694
 10
-120.096207
 20
653.867615
 10
-120.601387
 20
653.897705
 10
-121.079597
 20
653.937134
 10
-121.522369
 20
653.983337
 10
-121.924538
 20
654.032654
 10
-122.280525
 20
654.081909
 10
-122.583466
 20
654.128296
 10
-122.827171
 20
654.168884
 10
-123.005867
 20
654.200684
 10
-123.114044
 20
654.220703
 10
-123.151192
 20
654.227722
  0
LINE
  5
1A8
330
17B
100
AcDbEntity
  8
0
  6
Continuous
 62
     0
370
    30
100
AcDbLine
 10
-123.00159
 20
654.227715
 30
0.0
 11
-123.00159
 21
661.557714
 31
0.0
  0
LWPOLYLINE
  5
1A9
330
17B
100
AcDbEntity
  8
0
  6
Continuous
 62
     0
370
    30
100
AcDbPolyline
 90
       24
 70
     0
 43
0.0
 10
-123.001587
 20
654.227722
 10
-122.965103
 20
654.221008
 10
-122.855339
 20
654.20166
 10
-122.674751
 20
654.171326
 10
-122.427025
 20
654.131897
 10
-122.117249
 20
654.086243
 10
-121.751343
 20
654.037903
 10
-121.335274
 20
653.990417
 10
-120.876289
 20
653.947205
 10
-120.383217
 20
653.911194
 10
-119.864967
 20
653.885498
 10
-119.330864
 20
653.872375
 10
-118.791298
 20
653.872131
 10
-118.256851
 20
653.884827
 10
-117.73793
 20
653.910095
 10
-117.243851
 20
653.945801
 10
-116.783478
 20
653.988831
 10
-116.365616
 20
654.036194
 10
-115.997665
 20
654.084534
 10
-115.685814
 20
654.130371
 10
-115.436195
 20
654.170044
 10
-115.253807
 20
654.200684
 10
-115.141434
 20
654.220398
 10
-115.101593
 20
654.227722
  0
LINE
  5
1AA
330
17B
100
AcDbEntity
  8
0
  6
Continuous
 62
     0
370
    30
100
AcDbLine
 10
-123.00159
 20
654.227715
 30
0.0
 11
-123.151193
 21
654.227715
 31
0.0
  0
LINE
  5
1AB
330
17B
100
AcDbEntity
  8
0
  6
Continuous
 62
     0
370
    30
100
AcDbLine
 10
-115.10159
 20
661.557715
 30
0.0
 11
-115.10159
 21
654.227715
 31
0.0
  0
LINE
  5
1AC
330
17B
100
AcDbEntity
  8
0
  6
Continuous
 62
     0
370
    30
100
AcDbLine
 10
-123.80159
 20
610.227715
 30
0.0
 11
-114.30159
 21
610.227715
 31
0.0
  0
LINE
  5
1AD
330
17B
100
AcDbEntity
  8
0
  6
Continuous
 62
     0
370
    30
100
AcDbLine
 10
-78.051589
 20
654.227715
 30
0.0
 11
-114.95159
 21
654.227715
 31
0.0
  0
LINE
  5
1AE
330
17B
100
AcDbEntity
  8
0
  6
Continuous
 62
     0
370
    30
100
AcDbLine
 10
-127.551591
 20
654.227715
 30
0.0
 11
-123.151193
 21
654.227715
 31
0.0
  0
LINE
  5
1AF
330
17B
100
AcDbEntity
  8
0
  6
Continuous
 62
     0
370
    30
100
AcDbLine
 10
-128.05159
 20
653.727715
 30
0.0
 11
-127.55159
 21
654.227715
 31
0.0
  0
LINE
  5
1B0
330
17B
100
AcDbEntity
  8
0
  6
Continuous
 62
     0
370
    30
100
AcDbLine
 10
-115.10159
 20
661.557714
 30
0.0
 11
-115.60159
 21
662.057714
 31
0.0
  0
LINE
  5
1B1
330
17B
100
AcDbEntity
  8
0
  6
Continuous
 62
     0
370
    30
100
AcDbLine
 10
-60.631609
 20
812.228516
 30
0.0
 11
-60.631609
 21
892.228516
 31
0.0
  0
LINE
  5
1B2
330
17B
100
AcDbEntity
  8
0
  6
Continuous
 62
     0
370
    30
100
AcDbLine
 10
-60.631609
 20
892.228516
 30
0.0
 11
-75.631609
 21
892.228516
 31
0.0
  0
LINE
  5
1B3
330
17B
100
AcDbEntity
  8
0
  6
Continuous
 62
     0
370
    30
100
AcDbLine
 10
-75.631609
 20
892.228516
 30
0.0
 11
-75.631609
 21
812.228516
 31
0.0
  0
LINE
  5
1B4
330
17B
100
AcDbEntity
  8
0
  6
Continuous
 62
     0
370
    30
100
AcDbLine
 10
-75.631609
 20
812.228516
 30
0.0
 11
-60.631609
 21
812.228516
 31
0.0
  0
ARC
  5
1B5
330
17B
100
AcDbEntity
  8
0
  6
Continuous
 62
     0
370
    30
100
AcDbCircle
 10
-113.981604
 20
875.728527
 30
0.0
 40
3.999999999998629
100
AcDbArc
 50
270.0
 51
360.0
  0
LWPOLYLINE
  5
1B6
330
17B
100
AcDbEntity
  8
0
  6
Continuous
 62
     0
370
     0
100
AcDbPolyline
 90
       34
 70
     0
 43
0.0
 10
-96.981606
 20
875.728516
 10
-97.014221
 20
875.704651
 10
-97.109222
 20
875.636414
 10
-97.262306
 20
875.528564
 10
-97.469894
 20
875.386047
 10
-97.729233
 20
875.213806
 10
-98.037437
 20
875.017029
 10
-98.390678
 20
874.802795
 10
-98.784935
 20
874.578674
 10
-99.217491
 20
874.35144
 10
-99.686935
 20
874.127136
 10
-100.191856
 20
873.912476
 10
-100.730629
 20
873.715698
 10
-101.301216
 20
873.545044
 10
-101.899368
 20
873.407715
 10
-102.519768
 20
873.310242
 10
-103.154579
 20
873.258545
 10
-103.79425
 20
873.257935
 10
-104.429237
 20
873.308594
 10
-105.050049
 20
873.405151
 10
-105.648811
 20
873.541565
 10
-106.220215
 20
873.711487
 10
-106.759926
 20
873.907837
 10
-107.265701
 20
874.122314
 10
-107.735741
 20
874.346619
 10
-108.16861
 20
874.573853
 10
-108.563034
 20
874.797791
 10
-108.916748
 20
875.011841
 10
-109.226425
 20
875.20929
 10
-109.48851
 20
875.383423
 10
-109.698868
 20
875.527893
 10
-109.853256
 20
875.636353
 10
-109.948318
 20
875.704285
 10
-109.981606
 20
875.728516
  0
LWPOLYLINE
  5
1B7
330
17B
100
AcDbEntity
  8
0
  6
Continuous
 62
     0
370
     0
100
AcDbPolyline
 90
       43
 70
     0
 43
0.0
 10
-113.981606
 20
871.728516
 10
-113.944595
 20
871.714783
 10
-113.835205
 20
871.6745
 10
-113.656334
 20
871.609436
 10
-113.41143
 20
871.521667
 10
-113.105476
 20
871.414551
 10
-112.743835
 20
871.291626
 10
-112.331779
 20
871.156433
 10
-111.874252
 20
871.012512
 10
-111.376122
 20
870.863403
 10
-110.841942
 20
870.712463
 10
-110.275208
 20
870.562561
 10
-109.679207
 20
870.416565
 10
-109.057159
 20
870.277222
 10
-108.412003
 20
870.147278
 10
-107.746651
 20
870.029541
 10
-107.063988
 20
869.926208
 10
-106.366829
 20
869.838867
 10
-105.657974
 20
869.768738
 10
-104.940269
 20
869.717041
 10
-104.216637
 20
869.685059
 10
-103.490013
 20
869.67395
 10
-102.763351
 20
869.68457
 10
-102.039597
 20
869.716125
 10
-101.321693
 20
869.767395
 10
-100.612564
 20
869.836975
 10
-99.915062
 20
869.923828
 10
-99.232033
 20
870.026611
 10
-98.566315
 20
870.143921
 10
-97.920761
 20
870.273499
 10
-97.298233
 20
870.412598
 10
-96.701645
 20
870.558655
 10
-96.134087
 20
870.708801
 10
-95.598717
 20
870.860291
 10
-95.099037
 20
871.01001
 10
-94.640121
 20
871.154358
 10
-94.227547
 20
871.28949
 10
-93.866608
 20
871.411682
 10
-93.561493
 20
871.517944
 10
-93.316109
 20
871.60553
 10
-93.134506
 20
871.67157
 10
-93.021423
 20
871.713501
 10
-92.981613
 20
871.728516
  0
LINE
  5
1B8
330
17B
100
AcDbEntity
  8
0
  6
Continuous
 62
     0
370
    30
100
AcDbLine
 10
-109.981604
 20
875.728527
 30
0.0
 11
-109.981604
 21
887.228527
 31
0.0
  0
LINE
  5
1B9
330
17B
100
AcDbEntity
  8
0
  6
Continuous
 62
     0
370
     0
100
AcDbLine
 10
-96.981604
 20
887.228527
 30
0.0
 11
-109.981604
 21
887.228527
 31
0.0
  0
LWPOLYLINE
  5
1BA
330
17B
100
AcDbEntity
  8
0
  6
Continuous
 62
     0
370
    30
100
AcDbPolyline
 90
       29
 70
     0
 43
0.0
 10
-109.481606
 20
887.728516
 10
-109.443947
 20
887.728516
 10
-109.331528
 20
887.728516
 10
-109.145752
 20
887.728516
 10
-108.888733
 20
887.728516
 10
-108.564072
 20
887.728516
 10
-108.175629
 20
887.728516
 10
-107.728142
 20
887.728516
 10
-107.227547
 20
887.728516
 10
-106.679886
 20
887.728516
 10
-106.092049
 20
887.728516
 10
-105.471565
 20
887.728516
 10
-104.826065
 20
887.728516
 10
-104.163673
 20
887.728516
 10
-103.492767
 20
887.728516
 10
-102.821724
 20
887.728516
 10
-102.158913
 20
887.728516
 10
-101.512718
 20
887.728516
 10
-100.891281
 20
887.728516
 10
-100.302238
 20
887.728516
 10
-99.753128
 20
887.728516
 10
-99.25087
 20
887.728516
 10
-98.801521
 20
887.728516
 10
-98.411034
 20
887.728516
 10
-98.08419
 20
887.728516
 10
-97.82486
 20
887.728516
 10
-97.636681
 20
887.728516
 10
-97.521805
 20
887.728516
 10
-97.481606
 20
887.728516
  0
LINE
  5
1BB
330
17B
100
AcDbEntity
  8
0
  6
Continuous
 62
     0
370
    30
100
AcDbLine
 10
-76.481604
 20
832.728527
 30
0.0
 11
-101.581604
 21
832.728527
 31
0.0
  0
LINE
  5
1BC
330
17B
100
AcDbEntity
  8
0
  6
Continuous
 62
     0
370
    30
100
AcDbLine
 10
-111.781604
 20
832.728527
 30
0.0
 11
-117.981604
 21
832.728527
 31
0.0
  0
LINE
  5
1BD
330
17B
100
AcDbEntity
  8
0
  6
Continuous
 62
     0
370
     0
100
AcDbLine
 10
-117.981604
 20
871.728527
 30
0.0
 11
-117.981604
 21
832.728527
 31
0.0
  0
LWPOLYLINE
  5
1BE
330
17B
100
AcDbEntity
  8
0
  6
Continuous
 62
     0
370
     0
100
AcDbPolyline
 90
       27
 70
     0
 43
0.0
 10
-111.781601
 20
832.728516
 10
-111.743446
 20
832.738281
 10
-111.632126
 20
832.767029
 10
-111.447769
 20
832.812927
 10
-111.194901
 20
832.873413
 10
-110.87986
 20
832.945312
 10
-110.501358
 20
833.023926
 10
-110.065125
 20
833.104919
 10
-109.583183
 20
833.18457
 10
-109.059975
 20
833.257874
 10
-108.499489
 20
833.319885
 10
-107.911072
 20
833.367004
 10
-107.304016
 20
833.396851
 10
-106.687439
 20
833.407471
 10
-106.07077
 20
833.397217
 10
-105.463455
 20
833.367737
 10
-104.874611
 20
833.320923
 10
-104.313499
 20
833.259155
 10
-103.789513
 20
833.186035
 10
-103.306755
 20
833.106445
 10
-102.869568
 20
833.025452
 10
-102.489883
 20
832.946777
 10
-102.173683
 20
832.874695
 10
-101.919571
 20
832.813965
 10
-101.733864
 20
832.767761
 10
-101.621147
 20
832.738647
 10
-101.581604
 20
832.728516
  0
LINE
  5
1BF
330
17B
100
AcDbEntity
  8
0
  6
Continuous
 62
     0
370
    30
100
AcDbLine
 10
-76.481604
 20
832.728527
 30
0.0
 11
-76.481604
 21
871.728527
 31
0.0
  0
LWPOLYLINE
  5
1C0
330
17B
100
AcDbEntity
  8
0
  6
Continuous
 62
     0
370
    30
100
AcDbPolyline
 90
       50
 70
     0
 43
0.0
 10
-118.481606
 20
833.228516
 10
-118.481606
 20
833.267456
 10
-118.481606
 20
833.384521
 10
-118.481606
 20
833.578796
 10
-118.481606
 20
833.849426
 10
-118.481606
 20
834.195618
 10
-118.481606
 20
834.616272
 10
-118.481606
 20
835.109192
 10
-118.481606
 20
835.67218
 10
-118.481606
 20
836.302917
 10
-118.481606
 20
836.999146
 10
-118.481606
 20
837.758301
 10
-118.481606
 20
838.576843
 10
-118.481606
 20
839.451294
 10
-118.481606
 20
840.378052
 10
-118.481606
 20
841.353516
 10
-118.481606
 20
842.373901
 10
-118.481606
 20
843.434753
 10
-118.481606
 20
844.531555
 10
-118.481606
 20
845.659851
 10
-118.481606
 20
846.815186
 10
-118.481606
 20
847.992859
 10
-118.481606
 20
849.187988
 10
-118.481606
 20
850.395508
 10
-118.481606
 20
851.610535
 10
-118.481606
 20
852.828064
 10
-118.481606
 20
854.043152
 10
-118.481606
 20
855.250854
 10
-118.481606
 20
856.446167
 10
-118.481606
 20
857.624146
 10
-118.481606
 20
858.779846
 10
-118.481606
 20
859.90863
 10
-118.481606
 20
861.00592
 10
-118.481606
 20
862.067322
 10
-118.481606
 20
863.088318
 10
-118.481606
 20
864.064575
 10
-118.481606
 20
864.992065
 10
-118.481606
 20
865.86731
 10
-118.481606
 20
866.686768
 10
-118.481606
 20
867.446838
 10
-118.481606
 20
868.144043
 10
-118.481606
 20
868.775818
 10
-118.481606
 20
869.339844
 10
-118.481606
 20
869.833862
 10
-118.481606
 20
870.255554
 10
-118.481606
 20
870.602905
 10
-118.481606
 20
870.874756
 10
-118.481606
 20
871.07019
 10
-118.481606
 20
871.188354
 10
-118.481606
 20
871.228516
  0
ARC
  5
1C1
330
17B
100
AcDbEntity
  8
0
  6
Continuous
 62
     0
370
    30
100
AcDbCircle
 10
-117.981604
 20
833.228527
 30
0.0
 40
0.4999999999889511
100
AcDbArc
 50
180.0
 51
270.0
  0
ARC
  5
1C2
330
17B
100
AcDbEntity
  8
0
  6
Continuous
 62
     0
370
    30
100
AcDbCircle
 10
-109.481604
 20
887.228527
 30
0.0
 40
0.4999999999987494
100
AcDbArc
 50
90.0
 51
180.0
  0
LINE
  5
1C3
330
17B
100
AcDbEntity
  8
0
  6
Continuous
 62
     0
370
    30
100
AcDbLine
 10
-101.581604
 20
832.728527
 30
0.0
 11
-111.781604
 21
832.728527
 31
0.0
  0
ARC
  5
1C4
330
17B
100
AcDbEntity
  8
0
  6
Continuous
 62
     0
370
    30
100
AcDbCircle
 10
-97.481607
 20
887.228524
 30
0.0
 40
0.5000034422743455
100
AcDbArc
 50
0.000394
 51
89.999606
  0
ARC
  5
1C5
330
17B
100
AcDbEntity
  8
0
  6
Continuous
 62
     0
370
    30
100
AcDbCircle
 10
-117.9816
 20
871.228524
 30
0.0
 40
0.5000034422888762
100
AcDbArc
 50
90.000394
 51
179.999606
  0
LINE
  5
1C6
330
17B
100
AcDbEntity
  8
0
  6
Continuous
 62
     0
370
    30
100
AcDbLine
 10
-117.981604
 20
871.728527
 30
0.0
 11
-113.981604
 21
871.728527
 31
0.0
  0
LINE
  5
1C7
330
17B
100
AcDbEntity
  8
0
  6
Continuous
 62
     0
370
    30
100
AcDbLine
 10
-76.481603
 20
871.728527
 30
0.0
 11
-92.98161
 21
871.728527
 31
0.0
  0
LINE
  5
1C8
330
17B
100
AcDbEntity
  8
0
  6
Continuous
 62
     0
370
    30
100
AcDbLine
 10
-96.981604
 20
875.728527
 30
0.0
 11
-96.981604
 21
887.228527
 31
0.0
  0
ARC
  5
1C9
330
17B
100
AcDbEntity
  8
0
  6
Continuous
 62
     0
370
    30
100
AcDbCircle
 10
-92.981585
 20
875.728539
 30
0.0
 40
4.000019128057764
100
AcDbArc
 50
180.000172
 51
269.99965
  0
LINE
  5
1CA
330
17B
100
AcDbEntity
  8
0
  6
Continuous
 62
     0
370
    30
100
AcDbLine
 10
-75.631607
 20
860.228613
 30
0.0
 11
-76.481604
 21
860.228613
 31
0.0
  0
LINE
  5
1CB
330
17B
100
AcDbEntity
  8
0
  6
Continuous
 62
     0
370
    30
100
AcDbLine
 10
-75.631607
 20
844.228613
 30
0.0
 11
-76.481604
 21
844.228613
 31
0.0
  0
LINE
  5
1CC
330
17B
100
AcDbEntity
  8
0
  6
Continuous
 62
     0
370
    30
100
AcDbLine
 10
-60.631609
 20
912.228516
 30
0.0
 11
-60.631609
 21
992.228516
 31
0.0
  0
LINE
  5
1CD
330
17B
100
AcDbEntity
  8
0
  6
Continuous
 62
     0
370
    30
100
AcDbLine
 10
-60.631609
 20
992.228516
 30
0.0
 11
-75.631609
 21
992.228516
 31
0.0
  0
LINE
  5
1CE
330
17B
100
AcDbEntity
  8
0
  6
Continuous
 62
     0
370
    30
100
AcDbLine
 10
-75.631609
 20
992.228516
 30
0.0
 11
-75.631609
 21
912.228516
 31
0.0
  0
LINE
  5
1CF
330
17B
100
AcDbEntity
  8
0
  6
Continuous
 62
     0
370
    30
100
AcDbLine
 10
-75.631609
 20
912.228516
 30
0.0
 11
-60.631609
 21
912.228516
 31
0.0
  0
ARC
  5
1D0
330
17B
100
AcDbEntity
  8
0
  6
Continuous
 62
     0
370
    30
100
AcDbCircle
 10
-113.981604
 20
975.728527
 30
0.0
 40
4.000000000002778
100
AcDbArc
 50
270.0
 51
360.0
  0
LWPOLYLINE
  5
1D1
330
17B
100
AcDbEntity
  8
0
  6
Continuous
 62
     0
370
     0
100
AcDbPolyline
 90
       34
 70
     0
 43
0.0
 10
-96.981606
 20
975.728516
 10
-97.014221
 20
975.704651
 10
-97.109222
 20
975.636414
 10
-97.262306
 20
975.528564
 10
-97.469894
 20
975.386047
 10
-97.729233
 20
975.213806
 10
-98.037437
 20
975.017029
 10
-98.390678
 20
974.802795
 10
-98.784935
 20
974.578674
 10
-99.217491
 20
974.35144
 10
-99.686935
 20
974.127136
 10
-100.191856
 20
973.912476
 10
-100.730629
 20
973.715698
 10
-101.301216
 20
973.545044
 10
-101.899368
 20
973.407715
 10
-102.519768
 20
973.310242
 10
-103.154579
 20
973.258545
 10
-103.79425
 20
973.257935
 10
-104.429237
 20
973.308594
 10
-105.050049
 20
973.405151
 10
-105.648811
 20
973.541565
 10
-106.220215
 20
973.711487
 10
-106.759926
 20
973.907837
 10
-107.265701
 20
974.122314
 10
-107.735741
 20
974.346619
 10
-108.16861
 20
974.573853
 10
-108.563034
 20
974.797791
 10
-108.916748
 20
975.011841
 10
-109.226425
 20
975.20929
 10
-109.48851
 20
975.383423
 10
-109.698868
 20
975.527893
 10
-109.853256
 20
975.636353
 10
-109.948318
 20
975.704285
 10
-109.981606
 20
975.728516
  0
LWPOLYLINE
  5
1D2
330
17B
100
AcDbEntity
  8
0
  6
Continuous
 62
     0
370
     0
100
AcDbPolyline
 90
       43
 70
     0
 43
0.0
 10
-113.981606
 20
971.728516
 10
-113.944595
 20
971.714783
 10
-113.835205
 20
971.6745
 10
-113.656334
 20
971.609436
 10
-113.41143
 20
971.521667
 10
-113.105476
 20
971.414551
 10
-112.743835
 20
971.291626
 10
-112.331779
 20
971.156433
 10
-111.874252
 20
971.012512
 10
-111.376122
 20
970.863403
 10
-110.841942
 20
970.712463
 10
-110.275208
 20
970.562561
 10
-109.679207
 20
970.416565
 10
-109.057159
 20
970.277222
 10
-108.412003
 20
970.147278
 10
-107.746651
 20
970.029541
 10
-107.063988
 20
969.926208
 10
-106.366829
 20
969.838867
 10
-105.657974
 20
969.768738
 10
-104.940269
 20
969.717041
 10
-104.216637
 20
969.685059
 10
-103.490013
 20
969.67395
 10
-102.763351
 20
969.68457
 10
-102.039597
 20
969.716125
 10
-101.321693
 20
969.767395
 10
-100.612564
 20
969.836975
 10
-99.915062
 20
969.923828
 10
-99.232033
 20
970.026611
 10
-98.566315
 20
970.143921
 10
-97.920761
 20
970.273499
 10
-97.298233
 20
970.412598
 10
-96.701645
 20
970.558655
 10
-96.134087
 20
970.708801
 10
-95.598717
 20
970.860291
 10
-95.099037
 20
971.01001
 10
-94.640121
 20
971.154358
 10
-94.227547
 20
971.28949
 10
-93.866608
 20
971.411682
 10
-93.561493
 20
971.517944
 10
-93.316109
 20
971.60553
 10
-93.134506
 20
971.67157
 10
-93.021423
 20
971.713501
 10
-92.981613
 20
971.728516
  0
LINE
  5
1D3
330
17B
100
AcDbEntity
  8
0
  6
Continuous
 62
     0
370
    30
100
AcDbLine
 10
-109.981604
 20
975.728527
 30
0.0
 11
-109.981604
 21
987.228527
 31
0.0
  0
LINE
  5
1D4
330
17B
100
AcDbEntity
  8
0
  6
Continuous
 62
     0
370
     0
100
AcDbLine
 10
-96.981604
 20
987.228527
 30
0.0
 11
-109.981604
 21
987.228527
 31
0.0
  0
LWPOLYLINE
  5
1D5
330
17B
100
AcDbEntity
  8
0
  6
Continuous
 62
     0
370
    30
100
AcDbPolyline
 90
       29
 70
     0
 43
0.0
 10
-109.481606
 20
987.728516
 10
-109.443947
 20
987.728516
 10
-109.331528
 20
987.728516
 10
-109.145752
 20
987.728516
 10
-108.888733
 20
987.728516
 10
-108.564072
 20
987.728516
 10
-108.175629
 20
987.728516
 10
-107.728142
 20
987.728516
 10
-107.227547
 20
987.728516
 10
-106.679886
 20
987.728516
 10
-106.092049
 20
987.728516
 10
-105.471565
 20
987.728516
 10
-104.826065
 20
987.728516
 10
-104.163673
 20
987.728516
 10
-103.492767
 20
987.728516
 10
-102.821724
 20
987.728516
 10
-102.158913
 20
987.728516
 10
-101.512718
 20
987.728516
 10
-100.891281
 20
987.728516
 10
-100.302238
 20
987.728516
 10
-99.753128
 20
987.728516
 10
-99.25087
 20
987.728516
 10
-98.801521
 20
987.728516
 10
-98.411034
 20
987.728516
 10
-98.08419
 20
987.728516
 10
-97.82486
 20
987.728516
 10
-97.636681
 20
987.728516
 10
-97.521805
 20
987.728516
 10
-97.481606
 20
987.728516
  0
LINE
  5
1D6
330
17B
100
AcDbEntity
  8
0
  6
Continuous
 62
     0
370
    30
100
AcDbLine
 10
-76.481604
 20
932.728527
 30
0.0
 11
-101.581604
 21
932.728527
 31
0.0
  0
LINE
  5
1D7
330
17B
100
AcDbEntity
  8
0
  6
Continuous
 62
     0
370
    30
100
AcDbLine
 10
-111.781604
 20
932.728527
 30
0.0
 11
-117.981604
 21
932.728527
 31
0.0
  0
LINE
  5
1D8
330
17B
100
AcDbEntity
  8
0
  6
Continuous
 62
     0
370
     0
100
AcDbLine
 10
-117.981604
 20
971.728527
 30
0.0
 11
-117.981604
 21
932.728527
 31
0.0
  0
LWPOLYLINE
  5
1D9
330
17B
100
AcDbEntity
  8
0
  6
Continuous
 62
     0
370
     0
100
AcDbPolyline
 90
       27
 70
     0
 43
0.0
 10
-111.781601
 20
932.728516
 10
-111.743446
 20
932.738281
 10
-111.632126
 20
932.767029
 10
-111.447769
 20
932.812927
 10
-111.194901
 20
932.873413
 10
-110.87986
 20
932.945312
 10
-110.501358
 20
933.023926
 10
-110.065125
 20
933.104919
 10
-109.583183
 20
933.18457
 10
-109.059975
 20
933.257874
 10
-108.499489
 20
933.319885
 10
-107.911072
 20
933.367004
 10
-107.304016
 20
933.396851
 10
-106.687439
 20
933.407471
 10
-106.07077
 20
933.397217
 10
-105.463455
 20
933.367737
 10
-104.874611
 20
933.320923
 10
-104.313499
 20
933.259155
 10
-103.789513
 20
933.186035
 10
-103.306755
 20
933.106445
 10
-102.869568
 20
933.025452
 10
-102.489883
 20
932.946777
 10
-102.173683
 20
932.874695
 10
-101.919571
 20
932.813965
 10
-101.733864
 20
932.767761
 10
-101.621147
 20
932.738647
 10
-101.581604
 20
932.728516
  0
LINE
  5
1DA
330
17B
100
AcDbEntity
  8
0
  6
Continuous
 62
     0
370
    30
100
AcDbLine
 10
-76.481604
 20
932.728527
 30
0.0
 11
-76.481604
 21
971.728527
 31
0.0
  0
LWPOLYLINE
  5
1DB
330
17B
100
AcDbEntity
  8
0
  6
Continuous
 62
     0
370
    30
100
AcDbPolyline
 90
       50
 70
     0
 43
0.0
 10
-118.481606
 20
933.228516
 10
-118.481606
 20
933.267456
 10
-118.481606
 20
933.384521
 10
-118.481606
 20
933.578796
 10
-118.481606
 20
933.849426
 10
-118.481606
 20
934.195618
 10
-118.481606
 20
934.616272
 10
-118.481606
 20
935.109192
 10
-118.481606
 20
935.67218
 10
-118.481606
 20
936.302917
 10
-118.481606
 20
936.999146
 10
-118.481606
 20
937.758301
 10
-118.481606
 20
938.576843
 10
-118.481606
 20
939.451294
 10
-118.481606
 20
940.378052
 10
-118.481606
 20
941.353516
 10
-118.481606
 20
942.373901
 10
-118.481606
 20
943.434753
 10
-118.481606
 20
944.531555
 10
-118.481606
 20
945.659851
 10
-118.481606
 20
946.815186
 10
-118.481606
 20
947.992859
 10
-118.481606
 20
949.187988
 10
-118.481606
 20
950.395508
 10
-118.481606
 20
951.610535
 10
-118.481606
 20
952.828064
 10
-118.481606
 20
954.043152
 10
-118.481606
 20
955.250854
 10
-118.481606
 20
956.446167
 10
-118.481606
 20
957.624146
 10
-118.481606
 20
958.779846
 10
-118.481606
 20
959.90863
 10
-118.481606
 20
961.00592
 10
-118.481606
 20
962.067322
 10
-118.481606
 20
963.088318
 10
-118.481606
 20
964.064575
 10
-118.481606
 20
964.992065
 10
-118.481606
 20
965.86731
 10
-118.481606
 20
966.686768
 10
-118.481606
 20
967.446838
 10
-118.481606
 20
968.144043
 10
-118.481606
 20
968.775818
 10
-118.481606
 20
969.339844
 10
-118.481606
 20
969.833862
 10
-118.481606
 20
970.255554
 10
-118.481606
 20
970.602905
 10
-118.481606
 20
970.874756
 10
-118.481606
 20
971.07019
 10
-118.481606
 20
971.188354
 10
-118.481606
 20
971.228516
  0
ARC
  5
1DC
330
17B
100
AcDbEntity
  8
0
  6
Continuous
 62
     0
370
    30
100
AcDbCircle
 10
-117.981604
 20
933.228527
 30
0.0
 40
0.4999999999970797
100
AcDbArc
 50
180.0
 51
270.0
  0
ARC
  5
1DD
330
17B
100
AcDbEntity
  8
0
  6
Continuous
 62
     0
370
    30
100
AcDbCircle
 10
-109.481604
 20
987.228527
 30
0.0
 40
0.500000000020492
100
AcDbArc
 50
90.0
 51
180.0
  0
LINE
  5
1DE
330
17B
100
AcDbEntity
  8
0
  6
Continuous
 62
     0
370
    30
100
AcDbLine
 10
-101.581604
 20
932.728527
 30
0.0
 11
-111.781604
 21
932.728527
 31
0.0
  0
ARC
  5
1DF
330
17B
100
AcDbEntity
  8
0
  6
Continuous
 62
     0
370
    30
100
AcDbCircle
 10
-97.481607
 20
987.228524
 30
0.0
 40
0.5000034422906596
100
AcDbArc
 50
0.000394
 51
89.999606
  0
ARC
  5
1E0
330
17B
100
AcDbEntity
  8
0
  6
Continuous
 62
     0
370
    30
100
AcDbCircle
 10
-117.9816
 20
971.228524
 30
0.0
 40
0.500003442287583
100
AcDbArc
 50
90.000394
 51
179.999606
  0
LINE
  5
1E1
330
17B
100
AcDbEntity
  8
0
  6
Continuous
 62
     0
370
    30
100
AcDbLine
 10
-117.981604
 20
971.728527
 30
0.0
 11
-113.981604
 21
971.728527
 31
0.0
  0
LINE
  5
1E2
330
17B
100
AcDbEntity
  8
0
  6
Continuous
 62
     0
370
    30
100
AcDbLine
 10
-76.481603
 20
971.728527
 30
0.0
 11
-92.98161
 21
971.728527
 31
0.0
  0
LINE
  5
1E3
330
17B
100
AcDbEntity
  8
0
  6
Continuous
 62
     0
370
    30
100
AcDbLine
 10
-96.981604
 20
975.728527
 30
0.0
 11
-96.981604
 21
987.228527
 31
0.0
  0
ARC
  5
1E4
330
17B
100
AcDbEntity
  8
0
  6
Continuous
 62
     0
370
    30
100
AcDbCircle
 10
-92.981585
 20
975.728539
 30
0.0
 40
4.000019128054659
100
AcDbArc
 50
180.000172
 51
269.99965
  0
LINE
  5
1E5
330
17B
100
AcDbEntity
  8
0
  6
Continuous
 62
     0
370
    30
100
AcDbLine
 10
-75.631607
 20
960.228613
 30
0.0
 11
-76.481604
 21
960.228613
 31
0.0
  0
LINE
  5
1E6
330
17B
100
AcDbEntity
  8
0
  6
Continuous
 62
     0
370
    30
100
AcDbLine
 10
-75.631607
 20
944.228613
 30
0.0
 11
-76.481604
 21
944.228613
 31
0.0
  0
ENDBLK
  5
1E8
330
17B
100
AcDbEntity
  8
0
100
AcDbBlockEnd
  0
ENDSEC
  0
SECTION
  2
ENTITIES
  0
INSERT
  5
D7
330
1F
100
AcDbEntity
  8
0
  6
Continuous
 62
     7
420
 16250871
370
     0
100
AcDbBlockReference
  2
a
 10
14.697206
 20
95.704857
 30
0.0
  0
INSERT
  5
10B
330
1F
100
AcDbEntity
  8
0
  6
Continuous
 62
     7
420
 16250871
370
     0
100
AcDbBlockReference
  2
b
 10
14.697206
 20
419.429436
 30
0.0
  0
INSERT
  5
17A
330
1F
100
AcDbEntity
  8
0
  6
Continuous
 62
     7
420
 16250871
370
     0
100
AcDbBlockReference
  2
c
 10
14.697206
 20
95.704857
 30
0.0
  0
INSERT
  5
1E9
330
1F
100
AcDbEntity
  8
0
  6
Continuous
 62
     7
420
 16250871
370
     0
100
AcDbBlockReference
  2
d
 10
-26.908981
 20
0.0
 30
0.0
  0
ENDSEC
  0
SECTION
  2
OBJECTS
  0
DICTIONARY
  5
C
330
0
100
AcDbDictionary
281
     1
  3
ACAD_DETAILVIEWSTYLE
350
221
  3
ACAD_GROUP
350
D
  3
ACAD_LAYOUT
350
1A
  3
ACAD_MATERIAL
350
43
  3
ACAD_MLEADERSTYLE
350
6B
  3
ACAD_MLINESTYLE
350
17
  3
ACAD_PLOTSETTINGS
350
19
  3
ACAD_PLOTSTYLENAME
350
E
  3
ACAD_SCALELIST
350
47
  3
ACAD_SECTIONVIEWSTYLE
350
222
  3
ACAD_TABLESTYLE
350
69
  3
ACAD_VISUALSTYLE
350
2A
  3
ACDB_RECOMPOSE_DATA
350
21E
  3
AcDbVariableDictionary
350
1EA
  0
SUN
  5
6D
330
29
100
AcDbSun
 90
        1
290
     0
 63
     7
421
 16777215
 40
1.0
291
     1
 91
  2455826
 92
 54000000
292
     0
 70
     2
 71
   256
280
     1
  0
DICTIONARY
  5
221
102
{ACAD_REACTORS
330
C
102
}
330
C
100
AcDbDictionary
281
     1
  0
DICTIONARY
  5
D
102
{ACAD_REACTORS
330
C
102
}
330
C
100
AcDbDictionary
281
     1
  0
DICTIONARY
  5
1A
102
{ACAD_REACTORS
330
C
102
}
330
C
100
AcDbDictionary
281
     1
  3
Layout1
350
1E
  3
Layout2
350
26
  3
Model
350
22
  0
DICTIONARY
  5
43
102
{ACAD_REACTORS
330
C
102
}
330
C
100
AcDbDictionary
281
     1
  3
ByBlock
350
45
  3
ByLayer
350
44
  3
Global
350
46
  0
DICTIONARY
  5
6B
102
{ACAD_REACTORS
330
C
102
}
330
C
100
AcDbDictionary
281
     1
  3
Standard
350
6C
  0
DICTIONARY
  5
17
102
{ACAD_REACTORS
330
C
102
}
330
C
100
AcDbDictionary
281
     1
  3
Standard
350
18
  0
DICTIONARY
  5
19
102
{ACAD_REACTORS
330
C
102
}
330
C
100
AcDbDictionary
281
     1
  0
ACDBDICTIONARYWDFLT
  5
E
102
{ACAD_REACTORS
330
C
102
}
330
C
100
AcDbDictionary
281
     1
  3
Normal
350
F
100
AcDbDictionaryWithDefault
340
F
  0
DICTIONARY
  5
47
102
{ACAD_REACTORS
330
C
102
}
330
C
100
AcDbDictionary
281
     1
  3
A0
350
48
  3
A1
350
49
  3
A2
350
4A
  3
A3
350
4B
  3
A4
350
4C
  3
A5
350
4D
  3
A6
350
4E
  3
A7
350
4F
  3
A8
350
50
  3
A9
350
51
  3
B0
350
52
  3
B1
350
53
  3
B2
350
54
  3
B3
350
55
  3
B4
350
56
  3
B5
350
57
  3
B6
350
58
  3
B7
350
59
  3
B8
350
5A
  3
B9
350
5B
  3
C0
350
5C
  3
C1
350
5D
  3
C2
350
5E
  3
C3
350
5F
  3
C4
350
60
  3
C5
350
61
  3
C6
350
62
  3
C7
350
63
  3
C8
350
64
  3
C9
350
65
  3
D0
350
66
  3
D1
350
67
  3
D2
350
68
  0
DICTIONARY
  5
222
102
{ACAD_REACTORS
330
C
102
}
330
C
100
AcDbDictionary
281
     1
  0
DICTIONARY
  5
69
102
{ACAD_REACTORS
330
C
102
}
330
C
100
AcDbDictionary
281
     1
  3
Standard
350
6A
  0
DICTIONARY
  5
2A
102
{ACAD_REACTORS
330
C
102
}
330
C
100
AcDbDictionary
281
     1
  3
2dWireframe
350
2F
  3
Basic
350
32
  3
Brighten
350
36
  3
ColorChange
350
3A
  3
Conceptual
350
34
  3
Dim
350
35
  3
EdgeColorOff
350
3D
  3
Facepattern
350
39
  3
Flat
350
2B
  3
FlatWithEdges
350
2C
  3
Gouraud
350
2D
  3
GouraudWithEdges
350
2E
  3
Hidden
350
31
  3
JitterOff
350
3B
  3
Linepattern
350
38
  3
OverhangOff
350
3C
  3
Realistic
350
33
  3
Shaded
350
42
  3
Shaded with edges
350
41
  3
Shades of Gray
350
3E
  3
Sketchy
350
3F
  3
Thicken
350
37
  3
Wireframe
350
30
  3
X-Ray
350
40
  0
XRECORD
  5
21E
102
{ACAD_REACTORS
330
C
102
}
330
C
100
AcDbXrecord
280
     1
 90
        1
330
6A
  0
DICTIONARY
  5
1EA
102
{ACAD_REACTORS
330
C
102
}
330
C
100
AcDbDictionary
281
     1
  3
CANNOSCALE
350
1EB
  3
CMLEADERSTYLE
350
220
  3
CTABLESTYLE
350
21F
  0
LAYOUT
  5
1E
102
{ACAD_REACTORS
330
1A
102
}
330
1A
100
AcDbPlotSettings
  1

  2
none_device
  4

  6

 40
0.0
 41
0.0
 42
0.0
 43
0.0
 44
0.0
 45
0.0
 46
0.0
 47
0.0
 48
0.0
 49
0.0
140
0.0
141
0.0
142
1.0
143
1.0
 70
   688
 72
     1
 73
     0
 74
     5
  7

 75
    16
 76
     0
 77
     2
 78
   300
147
1.0
148
0.0
149
0.0
100
AcDbLayout
  1
Layout1
 70
     1
 71
     1
 10
0.0
 20
0.0
 11
420.0
 21
297.0
 12
0.0
 22
0.0
 32
0.0
 14
1.000000E+20
 24
1.000000E+20
 34
1.000000E+20
 15
-1.000000E+20
 25
-1.000000E+20
 35
-1.000000E+20
146
0.0
 13
0.0
 23
0.0
 33
0.0
 16
1.0
 26
0.0
 36
0.0
 17
0.0
 27
1.0
 37
0.0
 76
     0
330
1B
  0
LAYOUT
  5
26
102
{ACAD_REACTORS
330
1A
102
}
330
1A
100
AcDbPlotSettings
  1

  2
none_device
  4

  6

 40
0.0
 41
0.0
 42
0.0
 43
0.0
 44
0.0
 45
0.0
 46
0.0
 47
0.0
 48
0.0
 49
0.0
140
0.0
141
0.0
142
1.0
143
1.0
 70
   688
 72
     1
 73
     0
 74
     5
  7

 75
    16
 76
     0
 77
     2
 78
   300
147
1.0
148
0.0
149
0.0
100
AcDbLayout
  1
Layout2
 70
     1
 71
     2
 10
0.0
 20
0.0
 11
0.0
 21
0.0
 12
0.0
 22
0.0
 32
0.0
 14
0.0
 24
0.0
 34
0.0
 15
0.0
 25
0.0
 35
0.0
146
0.0
 13
0.0
 23
0.0
 33
0.0
 16
1.0
 26
0.0
 36
0.0
 17
0.0
 27
1.0
 37
0.0
 76
     0
330
23
  0
LAYOUT
  5
22
102
{ACAD_REACTORS
330
1A
102
}
330
1A
100
AcDbPlotSettings
  1

  2
none_device
  4
Letter_(8.50_x_11.00_Inches)
  6

 40
6.35
 41
6.35
 42
6.350005
 43
6.350005
 44
215.9
 45
279.4
 46
0.0
 47
0.0
 48
0.0
 49
0.0
140
0.0
141
0.0
142
1.0
143
1.0
 70
  1712
 72
     1
 73
     0
 74
     0
  7

 75
     0
 76
     0
 77
     2
 78
   300
147
1.0
148
0.0
149
0.0
100
AcDbLayout
  1
Model
 70
     1
 71
     0
 10
0.0
 20
0.0
 11
420.0
 21
297.0
 12
0.0
 22
0.0
 32
0.0
 14
1.000000E+20
 24
1.000000E+20
 34
1.000000E+20
 15
-1.000000E+20
 25
-1.000000E+20
 35
-1.000000E+20
146
0.0
 13
0.0
 23
0.0
 33
0.0
 16
1.0
 26
0.0
 36
0.0
 17
0.0
 27
1.0
 37
0.0
 76
     0
330
1F
331
29
  0
MATERIAL
  5
45
102
{ACAD_REACTORS
330
43
102
}
330
43
100
AcDbMaterial
  1
ByBlock
 72
     1
 94
      127
  0
MATERIAL
  5
44
102
{ACAD_REACTORS
330
43
102
}
330
43
100
AcDbMaterial
  1
ByLayer
 72
     1
 94
      127
  0
MATERIAL
  5
46
102
{ACAD_REACTORS
330
43
102
}
330
43
100
AcDbMaterial
  1
Global
 72
     1
 94
      127
  0
MLEADERSTYLE
  5
6C
102
{ACAD_REACTORS
330
6B
102
}
330
6B
100
AcDbMLeaderStyle
179
     2
170
     2
171
     1
172
     0
 90
        2
 40
0.0
 41
0.0
173
     1
 91
-1056964608
340
14
 92
       -2
290
     1
 42
2.0
291
     1
 43
8.0
  3
Standard
341
0
 44
4.0
300

342
11
174
     1
178
     6
175
     1
176
     0
 93
-1056964608
 45
4.0
292
     0
297
     0
 46
4.0
343
0
 94
-1056964608
 47
1.0
 49
1.0
140
1.0
293
     1
141
0.0
294
     1
177
     0
142
1.0
295
     0
296
     0
143
3.75
271
     0
272
     9
273
     9
  0
MLINESTYLE
  5
18
102
{ACAD_REACTORS
330
17
102
}
330
17
100
AcDbMlineStyle
  2
Standard
 70
     0
  3

 62
   256
 51
90.0
 52
90.0
 71
     2
 49
0.5
 62
   256
  6
BYLAYER
 49
-0.5
 62
   256
  6
BYLAYER
  0
ACDBPLACEHOLDER
  5
F
102
{ACAD_REACTORS
330
E
102
}
330
E
  0
SCALE
  5
48
102
{ACAD_REACTORS
330
47
102
}
330
47
100
AcDbScale
 70
     0
300
1:1
140
1.0
141
1.0
290
     1
  0
SCALE
  5
49
102
{ACAD_REACTORS
330
47
102
}
330
47
100
AcDbScale
 70
     0
300
1:2
140
1.0
141
2.0
290
     0
  0
SCALE
  5
4A
102
{ACAD_REACTORS
330
47
102
}
330
47
100
AcDbScale
 70
     0
300
1:4
140
1.0
141
4.0
290
     0
  0
SCALE
  5
4B
102
{ACAD_REACTORS
330
47
102
}
330
47
100
AcDbScale
 70
     0
300
1:5
140
1.0
141
5.0
290
     0
  0
SCALE
  5
4C
102
{ACAD_REACTORS
330
47
102
}
330
47
100
AcDbScale
 70
     0
300
1:8
140
1.0
141
8.0
290
     0
  0
SCALE
  5
4D
102
{ACAD_REACTORS
330
47
102
}
330
47
100
AcDbScale
 70
     0
300
1:10
140
1.0
141
10.0
290
     0
  0
SCALE
  5
4E
102
{ACAD_REACTORS
330
47
102
}
330
47
100
AcDbScale
 70
     0
300
1:16
140
1.0
141
16.0
290
     0
  0
SCALE
  5
4F
102
{ACAD_REACTORS
330
47
102
}
330
47
100
AcDbScale
 70
     0
300
1:20
140
1.0
141
20.0
290
     0
  0
SCALE
  5
50
102
{ACAD_REACTORS
330
47
102
}
330
47
100
AcDbScale
 70
     0
300
1:30
140
1.0
141
30.0
290
     0
  0
SCALE
  5
51
102
{ACAD_REACTORS
330
47
102
}
330
47
100
AcDbScale
 70
     0
300
1:40
140
1.0
141
40.0
290
     0
  0
SCALE
  5
52
102
{ACAD_REACTORS
330
47
102
}
330
47
100
AcDbScale
 70
     0
300
1:50
140
1.0
141
50.0
290
     0
  0
SCALE
  5
53
102
{ACAD_REACTORS
330
47
102
}
330
47
100
AcDbScale
 70
     0
300
1:100
140
1.0
141
100.0
290
     0
  0
SCALE
  5
54
102
{ACAD_REACTORS
330
47
102
}
330
47
100
AcDbScale
 70
     0
300
2:1
140
2.0
141
1.0
290
     0
  0
SCALE
  5
55
102
{ACAD_REACTORS
330
47
102
}
330
47
100
AcDbScale
 70
     0
300
4:1
140
4.0
141
1.0
290
     0
  0
SCALE
  5
56
102
{ACAD_REACTORS
330
47
102
}
330
47
100
AcDbScale
 70
     0
300
8:1
140
8.0
141
1.0
290
     0
  0
SCALE
  5
57
102
{ACAD_REACTORS
330
47
102
}
330
47
100
AcDbScale
 70
     0
300
10:1
140
10.0
141
1.0
290
     0
  0
SCALE
  5
58
102
{ACAD_REACTORS
330
47
102
}
330
47
100
AcDbScale
 70
     0
300
100:1
140
100.0
141
1.0
290
     0
  0
SCALE
  5
59
102
{ACAD_REACTORS
330
47
102
}
330
47
100
AcDbScale
 70
     0
300
1/128" = 1'-0"
140
0.007812
141
12.0
290
     0
  0
SCALE
  5
5A
102
{ACAD_REACTORS
330
47
102
}
330
47
100
AcDbScale
 70
     0
300
1/64" = 1'-0"
140
0.015625
141
12.0
290
     0
  0
SCALE
  5
5B
102
{ACAD_REACTORS
330
47
102
}
330
47
100
AcDbScale
 70
     0
300
1/32" = 1'-0"
140
0.03125
141
12.0
290
     0
  0
SCALE
  5
5C
102
{ACAD_REACTORS
330
47
102
}
330
47
100
AcDbScale
 70
     0
300
1/16" = 1'-0"
140
0.0625
141
12.0
290
     0
  0
SCALE
  5
5D
102
{ACAD_REACTORS
330
47
102
}
330
47
100
AcDbScale
 70
     0
300
3/32" = 1'-0"
140
0.09375
141
12.0
290
     0
  0
SCALE
  5
5E
102
{ACAD_REACTORS
330
47
102
}
330
47
100
AcDbScale
 70
     0
300
1/8" = 1'-0"
140
0.125
141
12.0
290
     0
  0
SCALE
  5
5F
102
{ACAD_REACTORS
330
47
102
}
330
47
100
AcDbScale
 70
     0
300
3/16" = 1'-0"
140
0.1875
141
12.0
290
     0
  0
SCALE
  5
60
102
{ACAD_REACTORS
330
47
102
}
330
47
100
AcDbScale
 70
     0
300
1/4" = 1'-0"
140
0.25
141
12.0
290
     0
  0
SCALE
  5
61
102
{ACAD_REACTORS
330
47
102
}
330
47
100
AcDbScale
 70
     0
300
3/8" = 1'-0"
140
0.375
141
12.0
290
     0
  0
SCALE
  5
62
102
{ACAD_REACTORS
330
47
102
}
330
47
100
AcDbScale
 70
     0
300
1/2" = 1'-0"
140
0.5
141
12.0
290
     0
  0
SCALE
  5
63
102
{ACAD_REACTORS
330
47
102
}
330
47
100
AcDbScale
 70
     0
300
3/4" = 1'-0"
140
0.75
141
12.0
290
     0
  0
SCALE
  5
64
102
{ACAD_REACTORS
330
47
102
}
330
47
100
AcDbScale
 70
     0
300
1" = 1'-0"
140
1.0
141
12.0
290
     0
  0
SCALE
  5
65
102
{ACAD_REACTORS
330
47
102
}
330
47
100
AcDbScale
 70
     0
300
1-1/2" = 1'-0"
140
1.5
141
12.0
290
     0
  0
SCALE
  5
66
102
{ACAD_REACTORS
330
47
102
}
330
47
100
AcDbScale
 70
     0
300
3" = 1'-0"
140
3.0
141
12.0
290
     0
  0
SCALE
  5
67
102
{ACAD_REACTORS
330
47
102
}
330
47
100
AcDbScale
 70
     0
300
6" = 1'-0"
140
6.0
141
12.0
290
     0
  0
SCALE
  5
68
102
{ACAD_REACTORS
330
47
102
}
330
47
100
AcDbScale
 70
     0
300
1'-0" = 1'-0"
140
12.0
141
12.0
290
     0
  0
TABLESTYLE
  5
6A
102
{ACAD_REACTORS
330
69
102
}
102
{ACAD_XDICTIONARY
360
21C
102
}
330
69
100
AcDbTableStyle
  3
Standard
 70
     0
 71
     0
 40
0.06
 41
0.06
280
     0
281
     0
  7
Standard
140
4.5
170
     2
 62
     0
 63
   257
283
     0
 90
        4
 91
        0
  1

274
    -2
284
     1
 64
     0
275
    -2
285
     1
 65
     0
276
    -2
286
     1
 66
     0
277
    -2
287
     1
 67
     0
278
    -2
288
     1
 68
     0
279
    -2
289
     1
 69
     0
  7
Standard
140
6.0
170
     5
 62
     0
 63
   257
283
     0
 90
        4
 91
        0
  1

274
    -2
284
     1
 64
     0
275
    -2
285
     1
 65
     0
276
    -2
286
     1
 66
     0
277
    -2
287
     1
 67
     0
278
    -2
288
     1
 68
     0
279
    -2
289
     1
 69
     0
  7
Standard
140
4.5
170
     5
 62
     0
 63
   257
283
     0
 90
        4
 91
        0
  1

274
    -2
284
     1
 64
     0
275
    -2
285
     1
 65
     0
276
    -2
286
     1
 66
     0
277
    -2
287
     1
 67
     0
278
    -2
288
     1
 68
     0
279
    -2
289
     1
 69
     0
  0
VISUALSTYLE
  5
2F
102
{ACAD_REACTORS
330
2A
102
}
102
{ACAD_XDICTIONARY
360
1F4
102
}
330
2A
100
AcDbVisualStyle
  2
2dWireframe
 70
     4
177
     2
291
     0
 71
     0
176
     1
 72
     2
176
     1
 73
     0
176
     1
 90
        0
176
     1
 40
0.6
176
     1
 41
30.0
176
     1
 62
     5
 63
     7
421
 16777215
176
     1
 74
     1
176
     1
 91
        4
176
     1
 64
     7
176
     1
 65
   257
176
     1
 75
     1
176
     1
175
     1
176
     1
 42
1.0
176
     1
 92
        0
176
     1
 66
   257
176
     1
 43
1.0
176
     1
 76
     1
176
     1
 77
     6
176
     1
 78
     2
176
     1
 67
     7
176
     1
 79
     5
176
     1
170
     0
176
     1
171
     0
176
     1
290
     0
176
     1
 93
        1
176
     1
 44
0.0
176
     1
173
     0
176
     1
  0
VISUALSTYLE
  5
32
102
{ACAD_REACTORS
330
2A
102
}
102
{ACAD_XDICTIONARY
360
1FA
102
}
330
2A
100
AcDbVisualStyle
  2
Basic
 70
     7
177
     2
291
     1
 71
     1
176
     1
 72
     0
176
     1
 73
     1
176
     1
 90
        0
176
     1
 40
0.6
176
     1
 41
30.0
176
     1
 62
     5
 63
     7
421
 16777215
176
     1
 74
     0
176
     1
 91
        4
176
     1
 64
     7
176
     1
 65
   257
176
     1
 75
     1
176
     1
175
     1
176
     1
 42
1.0
176
     1
 92
        8
176
     1
 66
     7
176
     1
 43
1.0
176
     1
 76
     1
176
     1
 77
     6
176
     1
 78
     2
176
     1
 67
     7
176
     1
 79
     5
176
     1
170
     0
176
     1
171
     0
176
     1
290
     0
176
     1
 93
        1
176
     1
 44
0.0
176
     1
173
     0
176
     1
  0
VISUALSTYLE
  5
36
102
{ACAD_REACTORS
330
2A
102
}
102
{ACAD_XDICTIONARY
360
202
102
}
330
2A
100
AcDbVisualStyle
  2
Brighten
 70
    12
177
     2
291
     1
 71
     2
176
     1
 72
     2
176
     1
 73
     0
176
     1
 90
        0
176
     1
 40
0.6
176
     1
 41
30.0
176
     1
 62
     5
 63
     7
421
 16777215
176
     1
 74
     1
176
     1
 91
        4
176
     1
 64
     7
176
     1
 65
   257
176
     1
 75
     1
176
     1
175
     1
176
     1
 42
1.0
176
     1
 92
        8
176
     1
 66
     7
176
     1
 43
1.0
176
     1
 76
     1
176
     1
 77
     6
176
     1
 78
     2
176
     1
 67
     7
176
     1
 79
     5
176
     1
170
     0
176
     1
171
     0
176
     1
290
     0
176
     1
 93
        1
176
     1
 44
50.0
176
     1
173
     0
176
     1
  0
VISUALSTYLE
  5
3A
102
{ACAD_REACTORS
330
2A
102
}
102
{ACAD_XDICTIONARY
360
20A
102
}
330
2A
100
AcDbVisualStyle
  2
ColorChange
 70
    16
177
     2
291
     1
 71
     2
176
     1
 72
     2
176
     1
 73
     3
176
     1
 90
        0
176
     1
 40
0.6
176
     1
 41
30.0
176
     1
 62
     5
 63
     8
421
  8421504
176
     1
 74
     1
176
     1
 91
        4
176
     1
 64
     7
176
     1
 65
   257
176
     1
 75
     1
176
     1
175
     1
176
     1
 42
1.0
176
     1
 92
        8
176
     1
 66
     8
424
  8421504
176
     1
 43
1.0
176
     1
 76
     1
176
     1
 77
     6
176
     1
 78
     2
176
     1
 67
     7
176
     1
 79
     5
176
     1
170
     0
176
     1
171
     0
176
     1
290
     0
176
     1
 93
        1
176
     1
 44
0.0
176
     1
173
     0
176
     1
  0
VISUALSTYLE
  5
34
102
{ACAD_REACTORS
330
2A
102
}
102
{ACAD_XDICTIONARY
360
1FE
102
}
330
2A
100
AcDbVisualStyle
  2
Conceptual
 70
     9
177
     2
291
     0
 71
     3
176
     1
 72
     2
176
     1
 73
     0
176
     1
 90
        0
176
     1
 40
0.6
176
     1
 41
30.0
176
     1
 62
     5
 63
     7
421
 16777215
176
     1
 74
     2
176
     1
 91
        2
176
     1
 64
     7
176
     1
 65
   257
176
     1
 75
     1
176
     1
175
     1
176
     1
 42
179.0
176
     1
 92
        8
176
     1
 66
     7
176
     1
 43
1.0
176
     1
 76
     1
176
     1
 77
     6
176
     1
 78
     2
176
     1
 67
     7
176
     1
 79
     3
176
     1
170
     0
176
     1
171
     0
176
     1
290
     0
176
     1
 93
        1
176
     1
 44
0.0
176
     1
173
     0
176
     1
  0
VISUALSTYLE
  5
35
102
{ACAD_REACTORS
330
2A
102
}
102
{ACAD_XDICTIONARY
360
200
102
}
330
2A
100
AcDbVisualStyle
  2
Dim
 70
    11
177
     2
291
     1
 71
     2
176
     1
 72
     2
176
     1
 73
     0
176
     1
 90
        0
176
     1
 40
0.6
176
     1
 41
30.0
176
     1
 62
     5
 63
     7
421
 16777215
176
     1
 74
     1
176
     1
 91
        4
176
     1
 64
     7
176
     1
 65
   257
176
     1
 75
     1
176
     1
175
     1
176
     1
 42
1.0
176
     1
 92
        8
176
     1
 66
     7
176
     1
 43
1.0
176
     1
 76
     1
176
     1
 77
     6
176
     1
 78
     2
176
     1
 67
     7
176
     1
 79
     5
176
     1
170
     0
176
     1
171
     0
176
     1
290
     0
176
     1
 93
        1
176
     1
 44
-50.0
176
     1
173
     0
176
     1
  0
VISUALSTYLE
  5
3D
102
{ACAD_REACTORS
330
2A
102
}
102
{ACAD_XDICTIONARY
360
210
102
}
330
2A
100
AcDbVisualStyle
  2
EdgeColorOff
 70
    22
177
     2
291
     1
 71
     2
176
     0
 72
     2
176
     0
 73
     0
176
     0
 90
        0
176
     0
 40
0.6
176
     0
 41
30.0
176
     0
 62
     5
 63
     7
421
 16777215
176
     0
 74
     1
176
     0
 91
        4
176
     0
 64
     7
176
     0
 65
   257
176
     0
 75
     1
176
     0
175
     1
176
     0
 42
1.0
176
     0
 92
        8
176
     2
 66
     7
176
     0
 43
1.0
176
     0
 76
     1
176
     0
 77
     6
176
     0
 78
     2
176
     0
 67
     7
176
     0
 79
     5
176
     0
170
     0
176
     0
171
     0
176
     0
290
     0
176
     0
 93
        1
176
     0
 44
0.0
176
     0
173
     0
176
     0
  0
VISUALSTYLE
  5
39
102
{ACAD_REACTORS
330
2A
102
}
102
{ACAD_XDICTIONARY
360
208
102
}
330
2A
100
AcDbVisualStyle
  2
Facepattern
 70
    15
177
     2
291
     1
 71
     2
176
     1
 72
     2
176
     1
 73
     0
176
     1
 90
        0
176
     1
 40
0.6
176
     1
 41
30.0
176
     1
 62
     5
 63
     7
421
 16777215
176
     1
 74
     1
176
     1
 91
        4
176
     1
 64
     7
176
     1
 65
   257
176
     1
 75
     1
176
     1
175
     1
176
     1
 42
1.0
176
     1
 92
        8
176
     1
 66
     7
176
     1
 43
1.0
176
     1
 76
     1
176
     1
 77
     6
176
     1
 78
     2
176
     1
 67
     7
176
     1
 79
     5
176
     1
170
     0
176
     1
171
     0
176
     1
290
     0
176
     1
 93
        1
176
     1
 44
0.0
176
     1
173
     0
176
     1
  0
VISUALSTYLE
  5
2B
102
{ACAD_REACTORS
330
2A
102
}
102
{ACAD_XDICTIONARY
360
1EC
102
}
330
2A
100
AcDbVisualStyle
  2
Flat
 70
     0
177
     2
291
     1
 71
     2
176
     1
 72
     1
176
     1
 73
     1
176
     1
 90
        2
176
     1
 40
0.6
176
     1
 41
30.0
176
     1
 62
     5
 63
     7
421
 16777215
176
     1
 74
     0
176
     1
 91
        0
176
     1
 64
     7
176
     1
 65
   257
176
     1
 75
     1
176
     1
175
     1
176
     1
 42
1.0
176
     1
 92
        8
176
     1
 66
     7
176
     1
 43
1.0
176
     1
 76
     1
176
     1
 77
     6
176
     1
 78
     2
176
     1
 67
     7
176
     1
 79
     5
176
     1
170
     0
176
     1
171
     0
176
     1
290
     0
176
     1
 93
       13
176
     1
 44
0.0
176
     1
173
     0
176
     1
  0
VISUALSTYLE
  5
2C
102
{ACAD_REACTORS
330
2A
102
}
102
{ACAD_XDICTIONARY
360
1EE
102
}
330
2A
100
AcDbVisualStyle
  2
FlatWithEdges
 70
     1
177
     2
291
     1
 71
     2
176
     1
 72
     1
176
     1
 73
     1
176
     1
 90
        2
176
     1
 40
0.6
176
     1
 41
30.0
176
     1
 62
     5
 63
     7
421
 16777215
176
     1
 74
     1
176
     1
 91
        0
176
     1
 64
     7
176
     1
 65
   257
176
     1
 75
     1
176
     1
175
     1
176
     1
 42
1.0
176
     1
 92
        0
176
     1
 66
   257
176
     1
 43
1.0
176
     1
 76
     1
176
     1
 77
     6
176
     1
 78
     2
176
     1
 67
     7
176
     1
 79
     5
176
     1
170
     0
176
     1
171
     0
176
     1
290
     0
176
     1
 93
       13
176
     1
 44
0.0
176
     1
173
     0
176
     1
  0
VISUALSTYLE
  5
2D
102
{ACAD_REACTORS
330
2A
102
}
102
{ACAD_XDICTIONARY
360
1F0
102
}
330
2A
100
AcDbVisualStyle
  2
Gouraud
 70
     2
177
     2
291
     1
 71
     2
176
     1
 72
     2
176
     1
 73
     1
176
     1
 90
        2
176
     1
 40
0.6
176
     1
 41
30.0
176
     1
 62
     5
 63
     7
421
 16777215
176
     1
 74
     0
176
     1
 91
        0
176
     1
 64
     7
176
     1
 65
   257
176
     1
 75
     1
176
     1
175
     1
176
     1
 42
1.0
176
     1
 92
        0
176
     1
 66
     7
176
     1
 43
1.0
176
     1
 76
     1
176
     1
 77
     6
176
     1
 78
     2
176
     1
 67
     7
176
     1
 79
     5
176
     1
170
     0
176
     1
171
     0
176
     1
290
     0
176
     1
 93
       13
176
     1
 44
0.0
176
     1
173
     0
176
     1
  0
VISUALSTYLE
  5
2E
102
{ACAD_REACTORS
330
2A
102
}
102
{ACAD_XDICTIONARY
360
1F2
102
}
330
2A
100
AcDbVisualStyle
  2
GouraudWithEdges
 70
     3
177
     2
291
     1
 71
     2
176
     1
 72
     2
176
     1
 73
     1
176
     1
 90
        2
176
     1
 40
0.6
176
     1
 41
30.0
176
     1
 62
     5
 63
     7
421
 16777215
176
     1
 74
     1
176
     1
 91
        0
176
     1
 64
     7
176
     1
 65
   257
176
     1
 75
     1
176
     1
175
     1
176
     1
 42
1.0
176
     1
 92
        0
176
     1
 66
   257
176
     1
 43
1.0
176
     1
 76
     1
176
     1
 77
     6
176
     1
 78
     2
176
     1
 67
     7
176
     1
 79
     5
176
     1
170
     0
176
     1
171
     0
176
     1
290
     0
176
     1
 93
       13
176
     1
 44
0.0
176
     1
173
     0
176
     1
  0
VISUALSTYLE
  5
31
102
{ACAD_REACTORS
330
2A
102
}
102
{ACAD_XDICTIONARY
360
1F8
102
}
330
2A
100
AcDbVisualStyle
  2
Hidden
 70
     6
177
     2
291
     0
 71
     1
176
     1
 72
     2
176
     1
 73
     2
176
     1
 90
        0
176
     1
 40
0.6
176
     1
 41
30.0
176
     1
 62
     5
 63
     7
421
 16777215
176
     1
 74
     2
176
     1
 91
        2
176
     1
 64
     7
176
     1
 65
   257
176
     1
 75
     2
176
     1
175
     1
176
     1
 42
40.0
176
     1
 92
        0
176
     1
 66
   257
176
     1
 43
1.0
176
     1
 76
     1
176
     1
 77
     6
176
     1
 78
     2
176
     1
 67
     7
176
     1
 79
     3
176
     1
170
     0
176
     1
171
     0
176
     1
290
     0
176
     1
 93
        1
176
     1
 44
0.0
176
     1
173
     0
176
     1
  0
VISUALSTYLE
  5
3B
102
{ACAD_REACTORS
330
2A
102
}
102
{ACAD_XDICTIONARY
360
20C
102
}
330
2A
100
AcDbVisualStyle
  2
JitterOff
 70
    20
177
     2
291
     1
 71
     2
176
     0
 72
     2
176
     0
 73
     0
176
     0
 90
        0
176
     0
 40
0.6
176
     0
 41
30.0
176
     0
 62
     5
 63
     7
421
 16777215
176
     0
 74
     1
176
     0
 91
        4
176
     0
 64
     7
176
     0
 65
   257
176
     0
 75
     1
176
     0
175
     1
176
     0
 42
1.0
176
     0
 92
       10
176
     2
 66
     7
176
     0
 43
1.0
176
     0
 76
     1
176
     0
 77
     6
176
     0
 78
     2
176
     0
 67
     7
176
     0
 79
     5
176
     0
170
     0
176
     0
171
     0
176
     0
290
     0
176
     0
 93
        1
176
     0
 44
0.0
176
     0
173
     0
176
     0
  0
VISUALSTYLE
  5
38
102
{ACAD_REACTORS
330
2A
102
}
102
{ACAD_XDICTIONARY
360
206
102
}
330
2A
100
AcDbVisualStyle
  2
Linepattern
 70
    14
177
     2
291
     1
 71
     2
176
     1
 72
     2
176
     1
 73
     0
176
     1
 90
        0
176
     1
 40
0.6
176
     1
 41
30.0
176
     1
 62
     5
 63
     7
421
 16777215
176
     1
 74
     1
176
     1
 91
        4
176
     1
 64
     7
176
     1
 65
   257
176
     1
 75
     7
176
     1
175
     7
176
     1
 42
1.0
176
     1
 92
        8
176
     1
 66
     7
176
     1
 43
1.0
176
     1
 76
     1
176
     1
 77
     6
176
     1
 78
     2
176
     1
 67
     7
176
     1
 79
     5
176
     1
170
     0
176
     1
171
     0
176
     1
290
     0
176
     1
 93
        1
176
     1
 44
0.0
176
     1
173
     0
176
     1
  0
VISUALSTYLE
  5
3C
102
{ACAD_REACTORS
330
2A
102
}
102
{ACAD_XDICTIONARY
360
20E
102
}
330
2A
100
AcDbVisualStyle
  2
OverhangOff
 70
    21
177
     2
291
     1
 71
     2
176
     0
 72
     2
176
     0
 73
     0
176
     0
 90
        0
176
     0
 40
0.6
176
     0
 41
30.0
176
     0
 62
     5
 63
     7
421
 16777215
176
     0
 74
     1
176
     0
 91
        4
176
     0
 64
     7
176
     0
 65
   257
176
     0
 75
     1
176
     0
175
     1
176
     0
 42
1.0
176
     0
 92
        9
176
     2
 66
     7
176
     0
 43
1.0
176
     0
 76
     1
176
     0
 77
     6
176
     0
 78
     2
176
     0
 67
     7
176
     0
 79
     5
176
     0
170
     0
176
     0
171
     0
176
     0
290
     0
176
     0
 93
        1
176
     0
 44
0.0
176
     0
173
     0
176
     0
  0
VISUALSTYLE
  5
33
102
{ACAD_REACTORS
330
2A
102
}
102
{ACAD_XDICTIONARY
360
1FC
102
}
330
2A
100
AcDbVisualStyle
  2
Realistic
 70
     8
177
     2
291
     0
 71
     2
176
     1
 72
     3
176
     1
 73
     0
176
     1
 90
        2
176
     1
 40
0.6
176
     1
 41
30.0
176
     1
 62
     5
 63
     7
421
 16777215
176
     1
 74
     0
176
     1
 91
        0
176
     1
 64
     7
176
     1
 65
   257
176
     1
 75
     1
176
     1
175
     1
176
     1
 42
1.0
176
     1
 92
        8
176
     1
 66
   257
176
     1
 43
1.0
176
     1
 76
     1
176
     1
 77
     6
176
     1
 78
     2
176
     1
 67
     7
176
     1
 79
     3
176
     1
170
     0
176
     1
171
     0
176
     1
290
     0
176
     1
 93
       13
176
     1
 44
0.0
176
     1
173
     0
176
     1
  0
VISUALSTYLE
  5
42
102
{ACAD_REACTORS
330
2A
102
}
102
{ACAD_XDICTIONARY
360
21A
102
}
330
2A
100
AcDbVisualStyle
  2
Shaded
 70
    27
177
     2
291
     0
 71
     2
176
     1
 72
     2
176
     1
 73
     1
176
     1
 90
        2
176
     1
 40
0.6
176
     1
 41
30.0
176
     1
 62
     5
 63
     7
421
 16777215
176
     1
 74
     0
176
     1
 91
        4
176
     1
 64
     7
176
     1
 65
   257
176
     1
 75
     1
176
     1
175
     1
176
     1
 42
1.0
176
     1
 92
        8
176
     1
 66
   257
176
     1
 43
1.0
176
     1
 76
     1
176
     1
 77
     6
176
     1
 78
     2
176
     1
 67
     8
425
  7895160
176
     1
 79
     3
176
     1
170
     0
176
     1
171
     0
176
     1
290
     0
176
     1
 93
        5
176
     1
 44
0.0
176
     1
173
     0
176
     1
  0
VISUALSTYLE
  5
41
102
{ACAD_REACTORS
330
2A
102
}
102
{ACAD_XDICTIONARY
360
218
102
}
330
2A
100
AcDbVisualStyle
  2
Shaded with edges
 70
    26
177
     2
291
     0
 71
     2
176
     1
 72
     2
176
     1
 73
     1
176
     1
 90
        2
176
     1
 40
0.6
176
     1
 41
30.0
176
     1
 62
     5
 63
     7
421
 16777215
176
     1
 74
     1
176
     1
 91
       10
176
     1
 64
     7
176
     1
 65
   257
176
     1
 75
     2
176
     1
175
     1
176
     1
 42
1.0
176
     1
 92
        8
176
     1
 66
   257
176
     1
 43
1.0
176
     1
 76
     1
176
     1
 77
     6
176
     1
 78
     2
176
     1
 67
     7
176
     1
 79
     3
176
     1
170
     0
176
     1
171
     0
176
     1
290
     0
176
     1
 93
        5
176
     1
 44
0.0
176
     1
173
     0
176
     1
  0
VISUALSTYLE
  5
3E
102
{ACAD_REACTORS
330
2A
102
}
102
{ACAD_XDICTIONARY
360
212
102
}
330
2A
100
AcDbVisualStyle
  2
Shades of Gray
 70
    23
177
     2
291
     0
 71
     2
176
     1
 72
     2
176
     1
 73
     3
176
     1
 90
        0
176
     1
 40
0.6
176
     1
 41
30.0
176
     1
 62
     5
 63
     7
421
 16777215
176
     1
 74
     2
176
     1
 91
        2
176
     1
 64
     7
176
     1
 65
     7
176
     1
 75
     1
176
     1
175
     1
176
     1
 42
40.0
176
     1
 92
        8
176
     1
 66
     7
176
     1
 43
1.0
176
     1
 76
     1
176
     1
 77
     6
176
     1
 78
     2
176
     1
 67
     7
176
     1
 79
     3
176
     1
170
     0
176
     1
171
     0
176
     1
290
     0
176
     1
 93
        1
176
     1
 44
0.0
176
     1
173
     0
176
     1
  0
VISUALSTYLE
  5
3F
102
{ACAD_REACTORS
330
2A
102
}
102
{ACAD_XDICTIONARY
360
214
102
}
330
2A
100
AcDbVisualStyle
  2
Sketchy
 70
    24
177
     2
291
     0
 71
     1
176
     1
 72
     2
176
     1
 73
     2
176
     1
 90
        0
176
     1
 40
0.6
176
     1
 41
30.0
176
     1
 62
     5
 63
     7
421
 16777215
176
     1
 74
     2
176
     1
 91
        2
176
     1
 64
     7
176
     1
 65
     7
176
     1
 75
     1
176
     1
175
     1
176
     1
 42
40.0
176
     1
 92
       11
176
     1
 66
     7
176
     1
 43
1.0
176
     1
 76
     1
176
     1
 77
     6
176
     1
 78
     2
176
     1
 67
     7
176
     1
 79
     6
176
     1
170
     0
176
     1
171
     0
176
     1
290
     0
176
     1
 93
        1
176
     1
 44
0.0
176
     1
173
     0
176
     1
  0
VISUALSTYLE
  5
37
102
{ACAD_REACTORS
330
2A
102
}
102
{ACAD_XDICTIONARY
360
204
102
}
330
2A
100
AcDbVisualStyle
  2
Thicken
 70
    13
177
     2
291
     1
 71
     2
176
     1
 72
     2
176
     1
 73
     0
176
     1
 90
        0
176
     1
 40
0.6
176
     1
 41
30.0
176
     1
 62
     5
 63
     7
421
 16777215
176
     1
 74
     1
176
     1
 91
        4
176
     1
 64
     7
176
     1
 65
   257
176
     1
 75
     1
176
     1
175
     1
176
     1
 42
1.0
176
     1
 92
       12
176
     1
 66
     7
176
     1
 43
1.0
176
     1
 76
     1
176
     1
 77
     6
176
     1
 78
     2
176
     1
 67
     7
176
     1
 79
     5
176
     1
170
     0
176
     1
171
     0
176
     1
290
     0
176
     1
 93
        1
176
     1
 44
0.0
176
     1
173
     0
176
     1
  0
VISUALSTYLE
  5
30
102
{ACAD_REACTORS
330
2A
102
}
102
{ACAD_XDICTIONARY
360
1F6
102
}
330
2A
100
AcDbVisualStyle
  2
Wireframe
 70
     5
177
     2
291
     0
 71
     0
176
     1
 72
     2
176
     1
 73
     0
176
     1
 90
        0
176
     1
 40
0.6
176
     1
 41
30.0
176
     1
 62
     5
 63
     7
421
 16777215
176
     1
 74
     1
176
     1
 91
        4
176
     1
 64
     7
176
     1
 65
   257
176
     1
 75
     1
176
     1
175
     1
176
     1
 42
1.0
176
     1
 92
        0
176
     1
 66
   257
176
     1
 43
1.0
176
     1
 76
     1
176
     1
 77
     6
176
     1
 78
     2
176
     1
 67
     7
176
     1
 79
     3
176
     1
170
     0
176
     1
171
     0
176
     1
290
     0
176
     1
 93
        1
176
     1
 44
0.0
176
     1
173
     0
176
     1
  0
VISUALSTYLE
  5
40
102
{ACAD_REACTORS
330
2A
102
}
102
{ACAD_XDICTIONARY
360
216
102
}
330
2A
100
AcDbVisualStyle
  2
X-Ray
 70
    25
177
     2
291
     0
 71
     2
176
     1
 72
     2
176
     1
 73
     1
176
     1
 90
        1
176
     1
 40
0.5
176
     1
 41
30.0
176
     1
 62
     5
 63
     7
421
 16777215
176
     1
 74
     1
176
     1
 91
        0
176
     1
 64
     7
176
     1
 65
   257
176
     1
 75
     1
176
     1
175
     1
176
     1
 42
1.0
176
     1
 92
        8
176
     1
 66
     7
176
     1
 43
1.0
176
     1
 76
     1
176
     1
 77
     6
176
     1
 78
     2
176
     1
 67
     7
176
     1
 79
     3
176
     1
170
     0
176
     1
171
     0
176
     1
290
     0
176
     1
 93
       13
176
     1
 44
0.0
176
     1
173
     0
176
     1
  0
DICTIONARYVAR
  5
1EB
102
{ACAD_REACTORS
330
1EA
102
}
330
1EA
100
DictionaryVariables
280
     0
  1
1:1
  0
DICTIONARYVAR
  5
220
102
{ACAD_REACTORS
330
1EA
102
}
330
1EA
100
DictionaryVariables
280
     0
  1
Standard
  0
DICTIONARYVAR
  5
21F
102
{ACAD_REACTORS
330
1EA
102
}
330
1EA
100
DictionaryVariables
280
     0
  1
Standard
  0
DICTIONARY
  5
21C
330
6A
100
AcDbDictionary
280
     1
281
     1
  3
ACAD_ROUNDTRIP_2008_TABLESTYLE_CELLSTYLEMAP
360
21D
  0
DICTIONARY
  5
1F4
330
2F
100
AcDbDictionary
280
     1
281
     1
  3
ACAD_XREC_ROUNDTRIP
360
1F5
  0
DICTIONARY
  5
1FA
330
32
100
AcDbDictionary
280
     1
281
     1
  3
ACAD_XREC_ROUNDTRIP
360
1FB
  0
DICTIONARY
  5
202
330
36
100
AcDbDictionary
280
     1
281
     1
  3
ACAD_XREC_ROUNDTRIP
360
203
  0
DICTIONARY
  5
20A
330
3A
100
AcDbDictionary
280
     1
281
     1
  3
ACAD_XREC_ROUNDTRIP
360
20B
  0
DICTIONARY
  5
1FE
330
34
100
AcDbDictionary
280
     1
281
     1
  3
ACAD_XREC_ROUNDTRIP
360
1FF
  0
DICTIONARY
  5
200
330
35
100
AcDbDictionary
280
     1
281
     1
  3
ACAD_XREC_ROUNDTRIP
360
201
  0
DICTIONARY
  5
210
330
3D
100
AcDbDictionary
280
     1
281
     1
  3
ACAD_XREC_ROUNDTRIP
360
211
  0
DICTIONARY
  5
208
330
39
100
AcDbDictionary
280
     1
281
     1
  3
ACAD_XREC_ROUNDTRIP
360
209
  0
DICTIONARY
  5
1EC
330
2B
100
AcDbDictionary
280
     1
281
     1
  3
ACAD_XREC_ROUNDTRIP
360
1ED
  0
DICTIONARY
  5
1EE
330
2C
100
AcDbDictionary
280
     1
281
     1
  3
ACAD_XREC_ROUNDTRIP
360
1EF
  0
DICTIONARY
  5
1F0
330
2D
100
AcDbDictionary
280
     1
281
     1
  3
ACAD_XREC_ROUNDTRIP
360
1F1
  0
DICTIONARY
  5
1F2
330
2E
100
AcDbDictionary
280
     1
281
     1
  3
ACAD_XREC_ROUNDTRIP
360
1F3
  0
DICTIONARY
  5
1F8
330
31
100
AcDbDictionary
280
     1
281
     1
  3
ACAD_XREC_ROUNDTRIP
360
1F9
  0
DICTIONARY
  5
20C
330
3B
100
AcDbDictionary
280
     1
281
     1
  3
ACAD_XREC_ROUNDTRIP
360
20D
  0
DICTIONARY
  5
206
330
38
100
AcDbDictionary
280
     1
281
     1
  3
ACAD_XREC_ROUNDTRIP
360
207
  0
DICTIONARY
  5
20E
330
3C
100
AcDbDictionary
280
     1
281
     1
  3
ACAD_XREC_ROUNDTRIP
360
20F
  0
DICTIONARY
  5
1FC
330
33
100
AcDbDictionary
280
     1
281
     1
  3
ACAD_XREC_ROUNDTRIP
360
1FD
  0
DICTIONARY
  5
21A
330
42
100
AcDbDictionary
280
     1
281
     1
  3
ACAD_XREC_ROUNDTRIP
360
21B
  0
DICTIONARY
  5
218
330
41
100
AcDbDictionary
280
     1
281
     1
  3
ACAD_XREC_ROUNDTRIP
360
219
  0
DICTIONARY
  5
212
330
3E
100
AcDbDictionary
280
     1
281
     1
  3
ACAD_XREC_ROUNDTRIP
360
213
  0
DICTIONARY
  5
214
330
3F
100
AcDbDictionary
280
     1
281
     1
  3
ACAD_XREC_ROUNDTRIP
360
215
  0
DICTIONARY
  5
204
330
37
100
AcDbDictionary
280
     1
281
     1
  3
ACAD_XREC_ROUNDTRIP
360
205
  0
DICTIONARY
  5
1F6
330
30
100
AcDbDictionary
280
     1
281
     1
  3
ACAD_XREC_ROUNDTRIP
360
1F7
  0
DICTIONARY
  5
216
330
40
100
AcDbDictionary
280
     1
281
     1
  3
ACAD_XREC_ROUNDTRIP
360
217
  0
CELLSTYLEMAP
  5
21D
102
{ACAD_REACTORS
330
21C
102
}
330
21C
100
AcDbCellStyleMap
 90
        3
300
CELLSTYLE
  1
TABLEFORMAT_BEGIN
 90
        5
170
     1
 91
        0
 92
    32768
 62
   257
 93
        1
300
CONTENTFORMAT
  1
CONTENTFORMAT_BEGIN
 90
        0
 91
        0
 92
        4
 93
        0
300

 40
0.0
140
1.0
 94
        5
 62
     0
340
11
144
6.0
309
CONTENTFORMAT_END
171
     1
301
MARGIN
  1
CELLMARGIN_BEGIN
 40
1.5
 40
1.5
 40
1.5
 40
1.5
 40
1.5
 40
1.5
309
CELLMARGIN_END
 94
        6
 95
        1
302
GRIDFORMAT
  1
GRIDFORMAT_BEGIN
 90
        0
 91
        1
 62
     0
 92
       -2
340
14
 93
        0
 40
0.045
309
GRIDFORMAT_END
 95
        2
302
GRIDFORMAT
  1
GRIDFORMAT_BEGIN
 90
        0
 91
        1
 62
     0
 92
       -2
340
14
 93
        0
 40
0.045
309
GRIDFORMAT_END
 95
        4
302
GRIDFORMAT
  1
GRIDFORMAT_BEGIN
 90
        0
 91
        1
 62
     0
 92
       -2
340
14
 93
        0
 40
0.045
309
GRIDFORMAT_END
 95
        8
302
GRIDFORMAT
  1
GRIDFORMAT_BEGIN
 90
        0
 91
        1
 62
     0
 92
       -2
340
14
 93
        0
 40
0.045
309
GRIDFORMAT_END
 95
       16
302
GRIDFORMAT
  1
GRIDFORMAT_BEGIN
 90
        0
 91
        1
 62
     0
 92
       -2
340
14
 93
        0
 40
0.045
309
GRIDFORMAT_END
 95
       32
302
GRIDFORMAT
  1
GRIDFORMAT_BEGIN
 90
        0
 91
        1
 62
     0
 92
       -2
340
14
 93
        0
 40
0.045
309
GRIDFORMAT_END
309
TABLEFORMAT_END
  1
CELLSTYLE_BEGIN
 90
        1
 91
        1
300
_TITLE
309
CELLSTYLE_END
300
CELLSTYLE
  1
TABLEFORMAT_BEGIN
 90
        5
170
     1
 91
        0
 92
        0
 62
   257
 93
        1
300
CONTENTFORMAT
  1
CONTENTFORMAT_BEGIN
 90
        0
 91
        0
 92
        4
 93
        0
300

 40
0.0
140
1.0
 94
        5
 62
     0
340
11
144
4.5
309
CONTENTFORMAT_END
171
     1
301
MARGIN
  1
CELLMARGIN_BEGIN
 40
1.5
 40
1.5
 40
1.5
 40
1.5
 40
1.5
 40
1.5
309
CELLMARGIN_END
 94
        6
 95
        1
302
GRIDFORMAT
  1
GRIDFORMAT_BEGIN
 90
        0
 91
        1
 62
     0
 92
       -2
340
14
 93
        0
 40
0.045
309
GRIDFORMAT_END
 95
        2
302
GRIDFORMAT
  1
GRIDFORMAT_BEGIN
 90
        0
 91
        1
 62
     0
 92
       -2
340
14
 93
        0
 40
0.045
309
GRIDFORMAT_END
 95
        4
302
GRIDFORMAT
  1
GRIDFORMAT_BEGIN
 90
        0
 91
        1
 62
     0
 92
       -2
340
14
 93
        0
 40
0.045
309
GRIDFORMAT_END
 95
        8
302
GRIDFORMAT
  1
GRIDFORMAT_BEGIN
 90
        0
 91
        1
 62
     0
 92
       -2
340
14
 93
        0
 40
0.045
309
GRIDFORMAT_END
 95
       16
302
GRIDFORMAT
  1
GRIDFORMAT_BEGIN
 90
        0
 91
        1
 62
     0
 92
       -2
340
14
 93
        0
 40
0.045
309
GRIDFORMAT_END
 95
       32
302
GRIDFORMAT
  1
GRIDFORMAT_BEGIN
 90
        0
 91
        1
 62
     0
 92
       -2
340
14
 93
        0
 40
0.045
309
GRIDFORMAT_END
309
TABLEFORMAT_END
  1
CELLSTYLE_BEGIN
 90
        2
 91
        1
300
_HEADER
309
CELLSTYLE_END
300
CELLSTYLE
  1
TABLEFORMAT_BEGIN
 90
        5
170
     1
 91
        0
 92
        0
 62
   257
 93
        1
300
CONTENTFORMAT
  1
CONTENTFORMAT_BEGIN
 90
        0
 91
        0
 92
        4
 93
        0
300

 40
0.0
140
1.0
 94
        2
 62
     0
340
11
144
4.5
309
CONTENTFORMAT_END
171
     1
301
MARGIN
  1
CELLMARGIN_BEGIN
 40
1.5
 40
1.5
 40
1.5
 40
1.5
 40
1.5
 40
1.5
309
CELLMARGIN_END
 94
        6
 95
        1
302
GRIDFORMAT
  1
GRIDFORMAT_BEGIN
 90
        0
 91
        1
 62
     0
 92
       -2
340
14
 93
        0
 40
0.045
309
GRIDFORMAT_END
 95
        2
302
GRIDFORMAT
  1
GRIDFORMAT_BEGIN
 90
        0
 91
        1
 62
     0
 92
       -2
340
14
 93
        0
 40
0.045
309
GRIDFORMAT_END
 95
        4
302
GRIDFORMAT
  1
GRIDFORMAT_BEGIN
 90
        0
 91
        1
 62
     0
 92
       -2
340
14
 93
        0
 40
0.045
309
GRIDFORMAT_END
 95
        8
302
GRIDFORMAT
  1
GRIDFORMAT_BEGIN
 90
        0
 91
        1
 62
     0
 92
       -2
340
14
 93
        0
 40
0.045
309
GRIDFORMAT_END
 95
       16
302
GRIDFORMAT
  1
GRIDFORMAT_BEGIN
 90
        0
 91
        1
 62
     0
 92
       -2
340
14
 93
        0
 40
0.045
309
GRIDFORMAT_END
 95
       32
302
GRIDFORMAT
  1
GRIDFORMAT_BEGIN
 90
        0
 91
        1
 62
     0
 92
       -2
340
14
 93
        0
 40
0.045
309
GRIDFORMAT_END
309
TABLEFORMAT_END
  1
CELLSTYLE_BEGIN
 90
        3
 91
        2
300
_DATA
309
CELLSTYLE_END
  0
XRECORD
  5
1F5
102
{ACAD_REACTORS
330
1F4
102
}
330
1F4
100
AcDbXrecord
280
     1
102
RTVSPost2010Prop28
280
     1
102
RTVSPost2010PropOp28
 70
     1
102
RTVSPost2010Prop29
280
     1
102
RTVSPost2010PropOp29
 70
     1
102
RTVSPost2010Prop30
280
     0
102
RTVSPost2010PropOp30
 70
     1
102
RTVSPost2010Prop31
280
     0
102
RTVSPost2010PropOp31
 70
     1
102
RTVSPost2010Prop32
280
     0
102
RTVSPost2010PropOp32
 70
     1
102
RTVSPost2010Prop33
280
     0
102
RTVSPost2010PropOp33
 70
     1
102
RTVSPost2010Prop34
280
     0
102
RTVSPost2010PropOp34
 70
     1
102
RTVSPost2010Prop35
280
     0
102
RTVSPost2010PropOp35
 70
     1
102
RTVSPost2010Prop36
280
     0
102
RTVSPost2010PropOp36
 70
     1
102
RTVSPost2010Prop37
 90
       50
102
RTVSPost2010PropOp37
 70
     1
102
RTVSPost2010Prop38
140
0.0
102
RTVSPost2010PropOp38
 70
     1
102
RTVSPost2010Prop39
140
1.0
102
RTVSPost2010PropOp39
 70
     1
102
RTVSPost2010Prop40
 90
        0
102
RTVSPost2010PropOp40
 70
     1
102
RTVSPost2010Prop41ColorIndex
 90
       18
102
RTVSPost2010Prop41ColorRGB
 90
        0
102
RTVSPost2010PropOp41
 70
     1
102
RTVSPost2010Prop42
 90
       50
102
RTVSPost2010PropOp42
 70
     1
102
RTVSPost2010Prop43
 90
        3
102
RTVSPost2010PropOp43
 70
     1
102
RTVSPost2010Prop44ColorIndex
 90
        5
102
RTVSPost2010Prop44ColorRGB
 90
      255
102
RTVSPost2010PropOp44
 70
     1
102
RTVSPost2010Prop45
280
     0
102
RTVSPost2010PropOp45
 70
     1
102
RTVSPost2010Prop46
 90
       50
102
RTVSPost2010PropOp46
 70
     1
102
RTVSPost2010Prop47
 90
       50
102
RTVSPost2010PropOp47
 70
     1
102
RTVSPost2010Prop48
 90
       50
102
RTVSPost2010PropOp48
 70
     1
102
RTVSPost2010Prop49
280
     0
102
RTVSPost2010PropOp49
 70
     1
102
RTVSPost2010Prop50
 90
       50
102
RTVSPost2010PropOp50
 70
     1
102
RTVSPost2010Prop51ColorIndex
 90
      256
102
RTVSPost2010Prop51ColorRGB
 90
-16777216
102
RTVSPost2010PropOp51
 70
     0
102
RTVSPost2010Prop52
140
1.0
102
RTVSPost2010PropOp52
 70
     0
102
RTVSPost2010Prop53
 90
        2
102
RTVSPost2010PropOp53
 70
     1
102
RTVSPost2010Prop54
  1
strokes_ogs.tif
102
RTVSPost2010PropOp54
 70
     1
102
RTVSPost2010Prop55
280
     0
102
RTVSPost2010PropOp55
 70
     1
102
RTVSPost2010Prop56
140
1.0
102
RTVSPost2010PropOp56
 70
     1
102
RTVSPost2010Prop57
140
1.0
102
RTVSPost2010PropOp57
 70
     1
  0
XRECORD
  5
1FB
102
{ACAD_REACTORS
330
1FA
102
}
330
1FA
100
AcDbXrecord
280
     1
102
RTVSPost2010Prop28
280
     0
102
RTVSPost2010PropOp28
 70
     1
102
RTVSPost2010Prop29
280
     1
102
RTVSPost2010PropOp29
 70
     1
102
RTVSPost2010Prop30
280
     1
102
RTVSPost2010PropOp30
 70
     1
102
RTVSPost2010Prop31
280
     0
102
RTVSPost2010PropOp31
 70
     1
102
RTVSPost2010Prop32
280
     0
102
RTVSPost2010PropOp32
 70
     1
102
RTVSPost2010Prop33
280
     0
102
RTVSPost2010PropOp33
 70
     1
102
RTVSPost2010Prop34
280
     0
102
RTVSPost2010PropOp34
 70
     1
102
RTVSPost2010Prop35
280
     0
102
RTVSPost2010PropOp35
 70
     1
102
RTVSPost2010Prop36
280
     0
102
RTVSPost2010PropOp36
 70
     1
102
RTVSPost2010Prop37
 90
       50
102
RTVSPost2010PropOp37
 70
     1
102
RTVSPost2010Prop38
140
0.0
102
RTVSPost2010PropOp38
 70
     1
102
RTVSPost2010Prop39
140
1.0
102
RTVSPost2010PropOp39
 70
     1
102
RTVSPost2010Prop40
 90
        0
102
RTVSPost2010PropOp40
 70
     1
102
RTVSPost2010Prop41ColorIndex
 90
       18
102
RTVSPost2010Prop41ColorRGB
 90
        0
102
RTVSPost2010PropOp41
 70
     1
102
RTVSPost2010Prop42
 90
       50
102
RTVSPost2010PropOp42
 70
     1
102
RTVSPost2010Prop43
 90
        3
102
RTVSPost2010PropOp43
 70
     1
102
RTVSPost2010Prop44ColorIndex
 90
        5
102
RTVSPost2010Prop44ColorRGB
 90
      255
102
RTVSPost2010PropOp44
 70
     1
102
RTVSPost2010Prop45
280
     0
102
RTVSPost2010PropOp45
 70
     1
102
RTVSPost2010Prop46
 90
       50
102
RTVSPost2010PropOp46
 70
     1
102
RTVSPost2010Prop47
 90
       50
102
RTVSPost2010PropOp47
 70
     1
102
RTVSPost2010Prop48
 90
       50
102
RTVSPost2010PropOp48
 70
     1
102
RTVSPost2010Prop49
280
     0
102
RTVSPost2010PropOp49
 70
     1
102
RTVSPost2010Prop50
 90
       50
102
RTVSPost2010PropOp50
 70
     1
102
RTVSPost2010Prop51ColorIndex
 90
      256
102
RTVSPost2010Prop51ColorRGB
 90
-16777216
102
RTVSPost2010PropOp51
 70
     0
102
RTVSPost2010Prop52
140
1.0
102
RTVSPost2010PropOp52
 70
     0
102
RTVSPost2010Prop53
 90
        2
102
RTVSPost2010PropOp53
 70
     1
102
RTVSPost2010Prop54
  1
strokes_ogs.tif
102
RTVSPost2010PropOp54
 70
     1
102
RTVSPost2010Prop55
280
     0
102
RTVSPost2010PropOp55
 70
     1
102
RTVSPost2010Prop56
140
1.0
102
RTVSPost2010PropOp56
 70
     1
102
RTVSPost2010Prop57
140
1.0
102
RTVSPost2010PropOp57
 70
     1
  0
XRECORD
  5
203
102
{ACAD_REACTORS
330
202
102
}
330
202
100
AcDbXrecord
280
     1
102
RTVSPost2010Prop28
280
     0
102
RTVSPost2010PropOp28
 70
     1
102
RTVSPost2010Prop29
280
     1
102
RTVSPost2010PropOp29
 70
     1
102
RTVSPost2010Prop30
280
     1
102
RTVSPost2010PropOp30
 70
     1
102
RTVSPost2010Prop31
280
     0
102
RTVSPost2010PropOp31
 70
     1
102
RTVSPost2010Prop32
280
     0
102
RTVSPost2010PropOp32
 70
     1
102
RTVSPost2010Prop33
280
     0
102
RTVSPost2010PropOp33
 70
     1
102
RTVSPost2010Prop34
280
     0
102
RTVSPost2010PropOp34
 70
     1
102
RTVSPost2010Prop35
280
     0
102
RTVSPost2010PropOp35
 70
     1
102
RTVSPost2010Prop36
280
     0
102
RTVSPost2010PropOp36
 70
     1
102
RTVSPost2010Prop37
 90
       50
102
RTVSPost2010PropOp37
 70
     1
102
RTVSPost2010Prop38
140
0.0
102
RTVSPost2010PropOp38
 70
     1
102
RTVSPost2010Prop39
140
1.0
102
RTVSPost2010PropOp39
 70
     1
102
RTVSPost2010Prop40
 90
        0
102
RTVSPost2010PropOp40
 70
     1
102
RTVSPost2010Prop41ColorIndex
 90
       18
102
RTVSPost2010Prop41ColorRGB
 90
        0
102
RTVSPost2010PropOp41
 70
     1
102
RTVSPost2010Prop42
 90
       50
102
RTVSPost2010PropOp42
 70
     1
102
RTVSPost2010Prop43
 90
        3
102
RTVSPost2010PropOp43
 70
     1
102
RTVSPost2010Prop44ColorIndex
 90
        5
102
RTVSPost2010Prop44ColorRGB
 90
      255
102
RTVSPost2010PropOp44
 70
     1
102
RTVSPost2010Prop45
280
     0
102
RTVSPost2010PropOp45
 70
     1
102
RTVSPost2010Prop46
 90
       50
102
RTVSPost2010PropOp46
 70
     1
102
RTVSPost2010Prop47
 90
       50
102
RTVSPost2010PropOp47
 70
     1
102
RTVSPost2010Prop48
 90
       50
102
RTVSPost2010PropOp48
 70
     1
102
RTVSPost2010Prop49
280
     0
102
RTVSPost2010PropOp49
 70
     1
102
RTVSPost2010Prop50
 90
       50
102
RTVSPost2010PropOp50
 70
     1
102
RTVSPost2010Prop51ColorIndex
 90
      256
102
RTVSPost2010Prop51ColorRGB
 90
-16777216
102
RTVSPost2010PropOp51
 70
     0
102
RTVSPost2010Prop52
140
1.0
102
RTVSPost2010PropOp52
 70
     0
102
RTVSPost2010Prop53
 90
        2
102
RTVSPost2010PropOp53
 70
     1
102
RTVSPost2010Prop54
  1
strokes_ogs.tif
102
RTVSPost2010PropOp54
 70
     1
102
RTVSPost2010Prop55
280
     0
102
RTVSPost2010PropOp55
 70
     1
102
RTVSPost2010Prop56
140
1.0
102
RTVSPost2010PropOp56
 70
     1
102
RTVSPost2010Prop57
140
1.0
102
RTVSPost2010PropOp57
 70
     1
  0
XRECORD
  5
20B
102
{ACAD_REACTORS
330
20A
102
}
330
20A
100
AcDbXrecord
280
     1
102
RTVSPost2010Prop28
280
     0
102
RTVSPost2010PropOp28
 70
     1
102
RTVSPost2010Prop29
280
     1
102
RTVSPost2010PropOp29
 70
     1
102
RTVSPost2010Prop30
280
     1
102
RTVSPost2010PropOp30
 70
     1
102
RTVSPost2010Prop31
280
     0
102
RTVSPost2010PropOp31
 70
     1
102
RTVSPost2010Prop32
280
     0
102
RTVSPost2010PropOp32
 70
     1
102
RTVSPost2010Prop33
280
     0
102
RTVSPost2010PropOp33
 70
     1
102
RTVSPost2010Prop34
280
     0
102
RTVSPost2010PropOp34
 70
     1
102
RTVSPost2010Prop35
280
     0
102
RTVSPost2010PropOp35
 70
     1
102
RTVSPost2010Prop36
280
     0
102
RTVSPost2010PropOp36
 70
     1
102
RTVSPost2010Prop37
 90
       50
102
RTVSPost2010PropOp37
 70
     1
102
RTVSPost2010Prop38
140
0.0
102
RTVSPost2010PropOp38
 70
     1
102
RTVSPost2010Prop39
140
1.0
102
RTVSPost2010PropOp39
 70
     1
102
RTVSPost2010Prop40
 90
        0
102
RTVSPost2010PropOp40
 70
     1
102
RTVSPost2010Prop41ColorIndex
 90
       18
102
RTVSPost2010Prop41ColorRGB
 90
        0
102
RTVSPost2010PropOp41
 70
     1
102
RTVSPost2010Prop42
 90
       50
102
RTVSPost2010PropOp42
 70
     1
102
RTVSPost2010Prop43
 90
        3
102
RTVSPost2010PropOp43
 70
     1
102
RTVSPost2010Prop44ColorIndex
 90
        5
102
RTVSPost2010Prop44ColorRGB
 90
      255
102
RTVSPost2010PropOp44
 70
     1
102
RTVSPost2010Prop45
280
     0
102
RTVSPost2010PropOp45
 70
     1
102
RTVSPost2010Prop46
 90
       50
102
RTVSPost2010PropOp46
 70
     1
102
RTVSPost2010Prop47
 90
       50
102
RTVSPost2010PropOp47
 70
     1
102
RTVSPost2010Prop48
 90
       50
102
RTVSPost2010PropOp48
 70
     1
102
RTVSPost2010Prop49
280
     0
102
RTVSPost2010PropOp49
 70
     1
102
RTVSPost2010Prop50
 90
       50
102
RTVSPost2010PropOp50
 70
     1
102
RTVSPost2010Prop51ColorIndex
 90
      256
102
RTVSPost2010Prop51ColorRGB
 90
-16777216
102
RTVSPost2010PropOp51
 70
     0
102
RTVSPost2010Prop52
140
1.0
102
RTVSPost2010PropOp52
 70
     0
102
RTVSPost2010Prop53
 90
        2
102
RTVSPost2010PropOp53
 70
     1
102
RTVSPost2010Prop54
  1
strokes_ogs.tif
102
RTVSPost2010PropOp54
 70
     1
102
RTVSPost2010Prop55
280
     0
102
RTVSPost2010PropOp55
 70
     1
102
RTVSPost2010Prop56
140
1.0
102
RTVSPost2010PropOp56
 70
     1
102
RTVSPost2010Prop57
140
1.0
102
RTVSPost2010PropOp57
 70
     1
  0
XRECORD
  5
1FF
102
{ACAD_REACTORS
330
1FE
102
}
330
1FE
100
AcDbXrecord
280
     1
102
RTVSPost2010Prop28
280
     0
102
RTVSPost2010PropOp28
 70
     1
102
RTVSPost2010Prop29
280
     1
102
RTVSPost2010PropOp29
 70
     1
102
RTVSPost2010Prop30
280
     1
102
RTVSPost2010PropOp30
 70
     1
102
RTVSPost2010Prop31
280
     0
102
RTVSPost2010PropOp31
 70
     1
102
RTVSPost2010Prop32
280
     0
102
RTVSPost2010PropOp32
 70
     1
102
RTVSPost2010Prop33
280
     0
102
RTVSPost2010PropOp33
 70
     1
102
RTVSPost2010Prop34
280
     0
102
RTVSPost2010PropOp34
 70
     1
102
RTVSPost2010Prop35
280
     0
102
RTVSPost2010PropOp35
 70
     1
102
RTVSPost2010Prop36
280
     0
102
RTVSPost2010PropOp36
 70
     1
102
RTVSPost2010Prop37
 90
       50
102
RTVSPost2010PropOp37
 70
     1
102
RTVSPost2010Prop38
140
0.0
102
RTVSPost2010PropOp38
 70
     1
102
RTVSPost2010Prop39
140
1.0
102
RTVSPost2010PropOp39
 70
     1
102
RTVSPost2010Prop40
 90
        0
102
RTVSPost2010PropOp40
 70
     1
102
RTVSPost2010Prop41ColorIndex
 90
       18
102
RTVSPost2010Prop41ColorRGB
 90
        0
102
RTVSPost2010PropOp41
 70
     1
102
RTVSPost2010Prop42
 90
       50
102
RTVSPost2010PropOp42
 70
     1
102
RTVSPost2010Prop43
 90
        3
102
RTVSPost2010PropOp43
 70
     1
102
RTVSPost2010Prop44ColorIndex
 90
        5
102
RTVSPost2010Prop44ColorRGB
 90
      255
102
RTVSPost2010PropOp44
 70
     1
102
RTVSPost2010Prop45
280
     0
102
RTVSPost2010PropOp45
 70
     1
102
RTVSPost2010Prop46
 90
       50
102
RTVSPost2010PropOp46
 70
     1
102
RTVSPost2010Prop47
 90
       50
102
RTVSPost2010PropOp47
 70
     1
102
RTVSPost2010Prop48
 90
       50
102
RTVSPost2010PropOp48
 70
     1
102
RTVSPost2010Prop49
280
     0
102
RTVSPost2010PropOp49
 70
     1
102
RTVSPost2010Prop50
 90
       50
102
RTVSPost2010PropOp50
 70
     1
102
RTVSPost2010Prop51ColorIndex
 90
      256
102
RTVSPost2010Prop51ColorRGB
 90
-16777216
102
RTVSPost2010PropOp51
 70
     0
102
RTVSPost2010Prop52
140
1.0
102
RTVSPost2010PropOp52
 70
     0
102
RTVSPost2010Prop53
 90
        2
102
RTVSPost2010PropOp53
 70
     1
102
RTVSPost2010Prop54
  1
strokes_ogs.tif
102
RTVSPost2010PropOp54
 70
     1
102
RTVSPost2010Prop55
280
     0
102
RTVSPost2010PropOp55
 70
     1
102
RTVSPost2010Prop56
140
1.0
102
RTVSPost2010PropOp56
 70
     1
102
RTVSPost2010Prop57
140
1.0
102
RTVSPost2010PropOp57
 70
     1
  0
XRECORD
  5
201
102
{ACAD_REACTORS
330
200
102
}
330
200
100
AcDbXrecord
280
     1
102
RTVSPost2010Prop28
280
     0
102
RTVSPost2010PropOp28
 70
     1
102
RTVSPost2010Prop29
280
     1
102
RTVSPost2010PropOp29
 70
     1
102
RTVSPost2010Prop30
280
     1
102
RTVSPost2010PropOp30
 70
     1
102
RTVSPost2010Prop31
280
     0
102
RTVSPost2010PropOp31
 70
     1
102
RTVSPost2010Prop32
280
     0
102
RTVSPost2010PropOp32
 70
     1
102
RTVSPost2010Prop33
280
     0
102
RTVSPost2010PropOp33
 70
     1
102
RTVSPost2010Prop34
280
     0
102
RTVSPost2010PropOp34
 70
     1
102
RTVSPost2010Prop35
280
     0
102
RTVSPost2010PropOp35
 70
     1
102
RTVSPost2010Prop36
280
     0
102
RTVSPost2010PropOp36
 70
     1
102
RTVSPost2010Prop37
 90
       50
102
RTVSPost2010PropOp37
 70
     1
102
RTVSPost2010Prop38
140
0.0
102
RTVSPost2010PropOp38
 70
     1
102
RTVSPost2010Prop39
140
1.0
102
RTVSPost2010PropOp39
 70
     1
102
RTVSPost2010Prop40
 90
        0
102
RTVSPost2010PropOp40
 70
     1
102
RTVSPost2010Prop41ColorIndex
 90
       18
102
RTVSPost2010Prop41ColorRGB
 90
        0
102
RTVSPost2010PropOp41
 70
     1
102
RTVSPost2010Prop42
 90
       50
102
RTVSPost2010PropOp42
 70
     1
102
RTVSPost2010Prop43
 90
        3
102
RTVSPost2010PropOp43
 70
     1
102
RTVSPost2010Prop44ColorIndex
 90
        5
102
RTVSPost2010Prop44ColorRGB
 90
      255
102
RTVSPost2010PropOp44
 70
     1
102
RTVSPost2010Prop45
280
     0
102
RTVSPost2010PropOp45
 70
     1
102
RTVSPost2010Prop46
 90
       50
102
RTVSPost2010PropOp46
 70
     1
102
RTVSPost2010Prop47
 90
       50
102
RTVSPost2010PropOp47
 70
     1
102
RTVSPost2010Prop48
 90
       50
102
RTVSPost2010PropOp48
 70
     1
102
RTVSPost2010Prop49
280
     0
102
RTVSPost2010PropOp49
 70
     1
102
RTVSPost2010Prop50
 90
       50
102
RTVSPost2010PropOp50
 70
     1
102
RTVSPost2010Prop51ColorIndex
 90
      256
102
RTVSPost2010Prop51ColorRGB
 90
-16777216
102
RTVSPost2010PropOp51
 70
     0
102
RTVSPost2010Prop52
140
1.0
102
RTVSPost2010PropOp52
 70
     0
102
RTVSPost2010Prop53
 90
        2
102
RTVSPost2010PropOp53
 70
     1
102
RTVSPost2010Prop54
  1
strokes_ogs.tif
102
RTVSPost2010PropOp54
 70
     1
102
RTVSPost2010Prop55
280
     0
102
RTVSPost2010PropOp55
 70
     1
102
RTVSPost2010Prop56
140
1.0
102
RTVSPost2010PropOp56
 70
     1
102
RTVSPost2010Prop57
140
1.0
102
RTVSPost2010PropOp57
 70
     1
  0
XRECORD
  5
211
102
{ACAD_REACTORS
330
210
102
}
330
210
100
AcDbXrecord
280
     1
102
RTVSPost2010Prop28
280
     0
102
RTVSPost2010PropOp28
 70
     0
102
RTVSPost2010Prop29
280
     1
102
RTVSPost2010PropOp29
 70
     0
102
RTVSPost2010Prop30
280
     1
102
RTVSPost2010PropOp30
 70
     0
102
RTVSPost2010Prop31
280
     0
102
RTVSPost2010PropOp31
 70
     0
102
RTVSPost2010Prop32
280
     0
102
RTVSPost2010PropOp32
 70
     0
102
RTVSPost2010Prop33
280
     0
102
RTVSPost2010PropOp33
 70
     0
102
RTVSPost2010Prop34
280
     0
102
RTVSPost2010PropOp34
 70
     0
102
RTVSPost2010Prop35
280
     0
102
RTVSPost2010PropOp35
 70
     0
102
RTVSPost2010Prop36
280
     0
102
RTVSPost2010PropOp36
 70
     0
102
RTVSPost2010Prop37
 90
       50
102
RTVSPost2010PropOp37
 70
     0
102
RTVSPost2010Prop38
140
0.0
102
RTVSPost2010PropOp38
 70
     0
102
RTVSPost2010Prop39
140
1.0
102
RTVSPost2010PropOp39
 70
     0
102
RTVSPost2010Prop40
 90
        0
102
RTVSPost2010PropOp40
 70
     0
102
RTVSPost2010Prop41ColorIndex
 90
       18
102
RTVSPost2010Prop41ColorRGB
 90
        0
102
RTVSPost2010PropOp41
 70
     0
102
RTVSPost2010Prop42
 90
       50
102
RTVSPost2010PropOp42
 70
     0
102
RTVSPost2010Prop43
 90
        3
102
RTVSPost2010PropOp43
 70
     0
102
RTVSPost2010Prop44ColorIndex
 90
        5
102
RTVSPost2010Prop44ColorRGB
 90
      255
102
RTVSPost2010PropOp44
 70
     0
102
RTVSPost2010Prop45
280
     0
102
RTVSPost2010PropOp45
 70
     0
102
RTVSPost2010Prop46
 90
       50
102
RTVSPost2010PropOp46
 70
     0
102
RTVSPost2010Prop47
 90
       50
102
RTVSPost2010PropOp47
 70
     0
102
RTVSPost2010Prop48
 90
       50
102
RTVSPost2010PropOp48
 70
     0
102
RTVSPost2010Prop49
280
     0
102
RTVSPost2010PropOp49
 70
     0
102
RTVSPost2010Prop50
 90
       50
102
RTVSPost2010PropOp50
 70
     0
102
RTVSPost2010Prop51ColorIndex
 90
      256
102
RTVSPost2010Prop51ColorRGB
 90
-16777216
102
RTVSPost2010PropOp51
 70
     0
102
RTVSPost2010Prop52
140
1.0
102
RTVSPost2010PropOp52
 70
     0
102
RTVSPost2010Prop53
 90
        2
102
RTVSPost2010PropOp53
 70
     0
102
RTVSPost2010Prop54
  1
strokes_ogs.tif
102
RTVSPost2010PropOp54
 70
     0
102
RTVSPost2010Prop55
280
     0
102
RTVSPost2010PropOp55
 70
     0
102
RTVSPost2010Prop56
140
1.0
102
RTVSPost2010PropOp56
 70
     0
102
RTVSPost2010Prop57
140
1.0
102
RTVSPost2010PropOp57
 70
     0
  0
XRECORD
  5
209
102
{ACAD_REACTORS
330
208
102
}
330
208
100
AcDbXrecord
280
     1
102
RTVSPost2010Prop28
280
     0
102
RTVSPost2010PropOp28
 70
     1
102
RTVSPost2010Prop29
280
     1
102
RTVSPost2010PropOp29
 70
     1
102
RTVSPost2010Prop30
280
     1
102
RTVSPost2010PropOp30
 70
     1
102
RTVSPost2010Prop31
280
     0
102
RTVSPost2010PropOp31
 70
     1
102
RTVSPost2010Prop32
280
     0
102
RTVSPost2010PropOp32
 70
     1
102
RTVSPost2010Prop33
280
     0
102
RTVSPost2010PropOp33
 70
     1
102
RTVSPost2010Prop34
280
     0
102
RTVSPost2010PropOp34
 70
     1
102
RTVSPost2010Prop35
280
     0
102
RTVSPost2010PropOp35
 70
     1
102
RTVSPost2010Prop36
280
     0
102
RTVSPost2010PropOp36
 70
     1
102
RTVSPost2010Prop37
 90
       50
102
RTVSPost2010PropOp37
 70
     1
102
RTVSPost2010Prop38
140
0.0
102
RTVSPost2010PropOp38
 70
     1
102
RTVSPost2010Prop39
140
1.0
102
RTVSPost2010PropOp39
 70
     1
102
RTVSPost2010Prop40
 90
        0
102
RTVSPost2010PropOp40
 70
     1
102
RTVSPost2010Prop41ColorIndex
 90
       18
102
RTVSPost2010Prop41ColorRGB
 90
        0
102
RTVSPost2010PropOp41
 70
     1
102
RTVSPost2010Prop42
 90
       50
102
RTVSPost2010PropOp42
 70
     1
102
RTVSPost2010Prop43
 90
        3
102
RTVSPost2010PropOp43
 70
     1
102
RTVSPost2010Prop44ColorIndex
 90
        5
102
RTVSPost2010Prop44ColorRGB
 90
      255
102
RTVSPost2010PropOp44
 70
     1
102
RTVSPost2010Prop45
280
     0
102
RTVSPost2010PropOp45
 70
     1
102
RTVSPost2010Prop46
 90
       50
102
RTVSPost2010PropOp46
 70
     1
102
RTVSPost2010Prop47
 90
       50
102
RTVSPost2010PropOp47
 70
     1
102
RTVSPost2010Prop48
 90
       50
102
RTVSPost2010PropOp48
 70
     1
102
RTVSPost2010Prop49
280
     0
102
RTVSPost2010PropOp49
 70
     1
102
RTVSPost2010Prop50
 90
       50
102
RTVSPost2010PropOp50
 70
     1
102
RTVSPost2010Prop51ColorIndex
 90
      256
102
RTVSPost2010Prop51ColorRGB
 90
-16777216
102
RTVSPost2010PropOp51
 70
     0
102
RTVSPost2010Prop52
140
1.0
102
RTVSPost2010PropOp52
 70
     0
102
RTVSPost2010Prop53
 90
        2
102
RTVSPost2010PropOp53
 70
     1
102
RTVSPost2010Prop54
  1
strokes_ogs.tif
102
RTVSPost2010PropOp54
 70
     1
102
RTVSPost2010Prop55
280
     0
102
RTVSPost2010PropOp55
 70
     1
102
RTVSPost2010Prop56
140
1.0
102
RTVSPost2010PropOp56
 70
     1
102
RTVSPost2010Prop57
140
1.0
102
RTVSPost2010PropOp57
 70
     1
  0
XRECORD
  5
1ED
102
{ACAD_REACTORS
330
1EC
102
}
330
1EC
100
AcDbXrecord
280
     1
102
RTVSPost2010Prop28
280
     0
102
RTVSPost2010PropOp28
 70
     1
102
RTVSPost2010Prop29
280
     1
102
RTVSPost2010PropOp29
 70
     1
102
RTVSPost2010Prop30
280
     1
102
RTVSPost2010PropOp30
 70
     1
102
RTVSPost2010Prop31
280
     0
102
RTVSPost2010PropOp31
 70
     1
102
RTVSPost2010Prop32
280
     0
102
RTVSPost2010PropOp32
 70
     1
102
RTVSPost2010Prop33
280
     0
102
RTVSPost2010PropOp33
 70
     1
102
RTVSPost2010Prop34
280
     0
102
RTVSPost2010PropOp34
 70
     1
102
RTVSPost2010Prop35
280
     0
102
RTVSPost2010PropOp35
 70
     1
102
RTVSPost2010Prop36
280
     0
102
RTVSPost2010PropOp36
 70
     1
102
RTVSPost2010Prop37
 90
       50
102
RTVSPost2010PropOp37
 70
     1
102
RTVSPost2010Prop38
140
0.0
102
RTVSPost2010PropOp38
 70
     1
102
RTVSPost2010Prop39
140
1.0
102
RTVSPost2010PropOp39
 70
     1
102
RTVSPost2010Prop40
 90
        0
102
RTVSPost2010PropOp40
 70
     1
102
RTVSPost2010Prop41ColorIndex
 90
       18
102
RTVSPost2010Prop41ColorRGB
 90
        0
102
RTVSPost2010PropOp41
 70
     1
102
RTVSPost2010Prop42
 90
       50
102
RTVSPost2010PropOp42
 70
     1
102
RTVSPost2010Prop43
 90
        3
102
RTVSPost2010PropOp43
 70
     1
102
RTVSPost2010Prop44ColorIndex
 90
        5
102
RTVSPost2010Prop44ColorRGB
 90
      255
102
RTVSPost2010PropOp44
 70
     1
102
RTVSPost2010Prop45
280
     0
102
RTVSPost2010PropOp45
 70
     1
102
RTVSPost2010Prop46
 90
       50
102
RTVSPost2010PropOp46
 70
     1
102
RTVSPost2010Prop47
 90
       50
102
RTVSPost2010PropOp47
 70
     1
102
RTVSPost2010Prop48
 90
       50
102
RTVSPost2010PropOp48
 70
     1
102
RTVSPost2010Prop49
280
     0
102
RTVSPost2010PropOp49
 70
     1
102
RTVSPost2010Prop50
 90
       50
102
RTVSPost2010PropOp50
 70
     1
102
RTVSPost2010Prop51ColorIndex
 90
      256
102
RTVSPost2010Prop51ColorRGB
 90
-16777216
102
RTVSPost2010PropOp51
 70
     0
102
RTVSPost2010Prop52
140
1.0
102
RTVSPost2010PropOp52
 70
     0
102
RTVSPost2010Prop53
 90
        2
102
RTVSPost2010PropOp53
 70
     1
102
RTVSPost2010Prop54
  1
strokes_ogs.tif
102
RTVSPost2010PropOp54
 70
     1
102
RTVSPost2010Prop55
280
     0
102
RTVSPost2010PropOp55
 70
     1
102
RTVSPost2010Prop56
140
1.0
102
RTVSPost2010PropOp56
 70
     1
102
RTVSPost2010Prop57
140
1.0
102
RTVSPost2010PropOp57
 70
     1
  0
XRECORD
  5
1EF
102
{ACAD_REACTORS
330
1EE
102
}
330
1EE
100
AcDbXrecord
280
     1
102
RTVSPost2010Prop28
280
     0
102
RTVSPost2010PropOp28
 70
     1
102
RTVSPost2010Prop29
280
     1
102
RTVSPost2010PropOp29
 70
     1
102
RTVSPost2010Prop30
280
     1
102
RTVSPost2010PropOp30
 70
     1
102
RTVSPost2010Prop31
280
     0
102
RTVSPost2010PropOp31
 70
     1
102
RTVSPost2010Prop32
280
     0
102
RTVSPost2010PropOp32
 70
     1
102
RTVSPost2010Prop33
280
     0
102
RTVSPost2010PropOp33
 70
     1
102
RTVSPost2010Prop34
280
     0
102
RTVSPost2010PropOp34
 70
     1
102
RTVSPost2010Prop35
280
     0
102
RTVSPost2010PropOp35
 70
     1
102
RTVSPost2010Prop36
280
     0
102
RTVSPost2010PropOp36
 70
     1
102
RTVSPost2010Prop37
 90
       50
102
RTVSPost2010PropOp37
 70
     1
102
RTVSPost2010Prop38
140
0.0
102
RTVSPost2010PropOp38
 70
     1
102
RTVSPost2010Prop39
140
1.0
102
RTVSPost2010PropOp39
 70
     1
102
RTVSPost2010Prop40
 90
        0
102
RTVSPost2010PropOp40
 70
     1
102
RTVSPost2010Prop41ColorIndex
 90
       18
102
RTVSPost2010Prop41ColorRGB
 90
        0
102
RTVSPost2010PropOp41
 70
     1
102
RTVSPost2010Prop42
 90
       50
102
RTVSPost2010PropOp42
 70
     1
102
RTVSPost2010Prop43
 90
        3
102
RTVSPost2010PropOp43
 70
     1
102
RTVSPost2010Prop44ColorIndex
 90
        5
102
RTVSPost2010Prop44ColorRGB
 90
      255
102
RTVSPost2010PropOp44
 70
     1
102
RTVSPost2010Prop45
280
     0
102
RTVSPost2010PropOp45
 70
     1
102
RTVSPost2010Prop46
 90
       50
102
RTVSPost2010PropOp46
 70
     1
102
RTVSPost2010Prop47
 90
       50
102
RTVSPost2010PropOp47
 70
     1
102
RTVSPost2010Prop48
 90
       50
102
RTVSPost2010PropOp48
 70
     1
102
RTVSPost2010Prop49
280
     0
102
RTVSPost2010PropOp49
 70
     1
102
RTVSPost2010Prop50
 90
       50
102
RTVSPost2010PropOp50
 70
     1
102
RTVSPost2010Prop51ColorIndex
 90
      256
102
RTVSPost2010Prop51ColorRGB
 90
-16777216
102
RTVSPost2010PropOp51
 70
     0
102
RTVSPost2010Prop52
140
1.0
102
RTVSPost2010PropOp52
 70
     0
102
RTVSPost2010Prop53
 90
        2
102
RTVSPost2010PropOp53
 70
     1
102
RTVSPost2010Prop54
  1
strokes_ogs.tif
102
RTVSPost2010PropOp54
 70
     1
102
RTVSPost2010Prop55
280
     0
102
RTVSPost2010PropOp55
 70
     1
102
RTVSPost2010Prop56
140
1.0
102
RTVSPost2010PropOp56
 70
     1
102
RTVSPost2010Prop57
140
1.0
102
RTVSPost2010PropOp57
 70
     1
  0
XRECORD
  5
1F1
102
{ACAD_REACTORS
330
1F0
102
}
330
1F0
100
AcDbXrecord
280
     1
102
RTVSPost2010Prop28
280
     0
102
RTVSPost2010PropOp28
 70
     1
102
RTVSPost2010Prop29
280
     1
102
RTVSPost2010PropOp29
 70
     1
102
RTVSPost2010Prop30
280
     1
102
RTVSPost2010PropOp30
 70
     1
102
RTVSPost2010Prop31
280
     0
102
RTVSPost2010PropOp31
 70
     1
102
RTVSPost2010Prop32
280
     0
102
RTVSPost2010PropOp32
 70
     1
102
RTVSPost2010Prop33
280
     0
102
RTVSPost2010PropOp33
 70
     1
102
RTVSPost2010Prop34
280
     0
102
RTVSPost2010PropOp34
 70
     1
102
RTVSPost2010Prop35
280
     0
102
RTVSPost2010PropOp35
 70
     1
102
RTVSPost2010Prop36
280
     0
102
RTVSPost2010PropOp36
 70
     1
102
RTVSPost2010Prop37
 90
       50
102
RTVSPost2010PropOp37
 70
     1
102
RTVSPost2010Prop38
140
0.0
102
RTVSPost2010PropOp38
 70
     1
102
RTVSPost2010Prop39
140
1.0
102
RTVSPost2010PropOp39
 70
     1
102
RTVSPost2010Prop40
 90
        0
102
RTVSPost2010PropOp40
 70
     1
102
RTVSPost2010Prop41ColorIndex
 90
       18
102
RTVSPost2010Prop41ColorRGB
 90
        0
102
RTVSPost2010PropOp41
 70
     1
102
RTVSPost2010Prop42
 90
       50
102
RTVSPost2010PropOp42
 70
     1
102
RTVSPost2010Prop43
 90
        3
102
RTVSPost2010PropOp43
 70
     1
102
RTVSPost2010Prop44ColorIndex
 90
        5
102
RTVSPost2010Prop44ColorRGB
 90
      255
102
RTVSPost2010PropOp44
 70
     1
102
RTVSPost2010Prop45
280
     0
102
RTVSPost2010PropOp45
 70
     1
102
RTVSPost2010Prop46
 90
       50
102
RTVSPost2010PropOp46
 70
     1
102
RTVSPost2010Prop47
 90
       50
102
RTVSPost2010PropOp47
 70
     1
102
RTVSPost2010Prop48
 90
       50
102
RTVSPost2010PropOp48
 70
     1
102
RTVSPost2010Prop49
280
     0
102
RTVSPost2010PropOp49
 70
     1
102
RTVSPost2010Prop50
 90
       50
102
RTVSPost2010PropOp50
 70
     1
102
RTVSPost2010Prop51ColorIndex
 90
      256
102
RTVSPost2010Prop51ColorRGB
 90
-16777216
102
RTVSPost2010PropOp51
 70
     0
102
RTVSPost2010Prop52
140
1.0
102
RTVSPost2010PropOp52
 70
     0
102
RTVSPost2010Prop53
 90
        2
102
RTVSPost2010PropOp53
 70
     1
102
RTVSPost2010Prop54
  1
strokes_ogs.tif
102
RTVSPost2010PropOp54
 70
     1
102
RTVSPost2010Prop55
280
     0
102
RTVSPost2010PropOp55
 70
     1
102
RTVSPost2010Prop56
140
1.0
102
RTVSPost2010PropOp56
 70
     1
102
RTVSPost2010Prop57
140
1.0
102
RTVSPost2010PropOp57
 70
     1
  0
XRECORD
  5
1F3
102
{ACAD_REACTORS
330
1F2
102
}
330
1F2
100
AcDbXrecord
280
     1
102
RTVSPost2010Prop28
280
     0
102
RTVSPost2010PropOp28
 70
     1
102
RTVSPost2010Prop29
280
     1
102
RTVSPost2010PropOp29
 70
     1
102
RTVSPost2010Prop30
280
     1
102
RTVSPost2010PropOp30
 70
     1
102
RTVSPost2010Prop31
280
     0
102
RTVSPost2010PropOp31
 70
     1
102
RTVSPost2010Prop32
280
     0
102
RTVSPost2010PropOp32
 70
     1
102
RTVSPost2010Prop33
280
     0
102
RTVSPost2010PropOp33
 70
     1
102
RTVSPost2010Prop34
280
     0
102
RTVSPost2010PropOp34
 70
     1
102
RTVSPost2010Prop35
280
     0
102
RTVSPost2010PropOp35
 70
     1
102
RTVSPost2010Prop36
280
     0
102
RTVSPost2010PropOp36
 70
     1
102
RTVSPost2010Prop37
 90
       50
102
RTVSPost2010PropOp37
 70
     1
102
RTVSPost2010Prop38
140
0.0
102
RTVSPost2010PropOp38
 70
     1
102
RTVSPost2010Prop39
140
1.0
102
RTVSPost2010PropOp39
 70
     1
102
RTVSPost2010Prop40
 90
        0
102
RTVSPost2010PropOp40
 70
     1
102
RTVSPost2010Prop41ColorIndex
 90
       18
102
RTVSPost2010Prop41ColorRGB
 90
        0
102
RTVSPost2010PropOp41
 70
     1
102
RTVSPost2010Prop42
 90
       50
102
RTVSPost2010PropOp42
 70
     1
102
RTVSPost2010Prop43
 90
        3
102
RTVSPost2010PropOp43
 70
     1
102
RTVSPost2010Prop44ColorIndex
 90
        5
102
RTVSPost2010Prop44ColorRGB
 90
      255
102
RTVSPost2010PropOp44
 70
     1
102
RTVSPost2010Prop45
280
     0
102
RTVSPost2010PropOp45
 70
     1
102
RTVSPost2010Prop46
 90
       50
102
RTVSPost2010PropOp46
 70
     1
102
RTVSPost2010Prop47
 90
       50
102
RTVSPost2010PropOp47
 70
     1
102
RTVSPost2010Prop48
 90
       50
102
RTVSPost2010PropOp48
 70
     1
102
RTVSPost2010Prop49
280
     0
102
RTVSPost2010PropOp49
 70
     1
102
RTVSPost2010Prop50
 90
       50
102
RTVSPost2010PropOp50
 70
     1
102
RTVSPost2010Prop51ColorIndex
 90
      256
102
RTVSPost2010Prop51ColorRGB
 90
-16777216
102
RTVSPost2010PropOp51
 70
     0
102
RTVSPost2010Prop52
140
1.0
102
RTVSPost2010PropOp52
 70
     0
102
RTVSPost2010Prop53
 90
        2
102
RTVSPost2010PropOp53
 70
     1
102
RTVSPost2010Prop54
  1
strokes_ogs.tif
102
RTVSPost2010PropOp54
 70
     1
102
RTVSPost2010Prop55
280
     0
102
RTVSPost2010PropOp55
 70
     1
102
RTVSPost2010Prop56
140
1.0
102
RTVSPost2010PropOp56
 70
     1
102
RTVSPost2010Prop57
140
1.0
102
RTVSPost2010PropOp57
 70
     1
  0
XRECORD
  5
1F9
102
{ACAD_REACTORS
330
1F8
102
}
330
1F8
100
AcDbXrecord
280
     1
102
RTVSPost2010Prop28
280
     0
102
RTVSPost2010PropOp28
 70
     1
102
RTVSPost2010Prop29
280
     1
102
RTVSPost2010PropOp29
 70
     1
102
RTVSPost2010Prop30
280
     1
102
RTVSPost2010PropOp30
 70
     1
102
RTVSPost2010Prop31
280
     0
102
RTVSPost2010PropOp31
 70
     1
102
RTVSPost2010Prop32
280
     0
102
RTVSPost2010PropOp32
 70
     1
102
RTVSPost2010Prop33
280
     0
102
RTVSPost2010PropOp33
 70
     1
102
RTVSPost2010Prop34
280
     0
102
RTVSPost2010PropOp34
 70
     1
102
RTVSPost2010Prop35
280
     0
102
RTVSPost2010PropOp35
 70
     1
102
RTVSPost2010Prop36
280
     0
102
RTVSPost2010PropOp36
 70
     1
102
RTVSPost2010Prop37
 90
       50
102
RTVSPost2010PropOp37
 70
     1
102
RTVSPost2010Prop38
140
0.0
102
RTVSPost2010PropOp38
 70
     1
102
RTVSPost2010Prop39
140
1.0
102
RTVSPost2010PropOp39
 70
     1
102
RTVSPost2010Prop40
 90
        0
102
RTVSPost2010PropOp40
 70
     1
102
RTVSPost2010Prop41ColorIndex
 90
       18
102
RTVSPost2010Prop41ColorRGB
 90
        0
102
RTVSPost2010PropOp41
 70
     1
102
RTVSPost2010Prop42
 90
       50
102
RTVSPost2010PropOp42
 70
     1
102
RTVSPost2010Prop43
 90
        3
102
RTVSPost2010PropOp43
 70
     1
102
RTVSPost2010Prop44ColorIndex
 90
        5
102
RTVSPost2010Prop44ColorRGB
 90
      255
102
RTVSPost2010PropOp44
 70
     1
102
RTVSPost2010Prop45
280
     0
102
RTVSPost2010PropOp45
 70
     1
102
RTVSPost2010Prop46
 90
       50
102
RTVSPost2010PropOp46
 70
     1
102
RTVSPost2010Prop47
 90
       50
102
RTVSPost2010PropOp47
 70
     1
102
RTVSPost2010Prop48
 90
       50
102
RTVSPost2010PropOp48
 70
     1
102
RTVSPost2010Prop49
280
     0
102
RTVSPost2010PropOp49
 70
     1
102
RTVSPost2010Prop50
 90
       50
102
RTVSPost2010PropOp50
 70
     1
102
RTVSPost2010Prop51ColorIndex
 90
      256
102
RTVSPost2010Prop51ColorRGB
 90
-16777216
102
RTVSPost2010PropOp51
 70
     0
102
RTVSPost2010Prop52
140
1.0
102
RTVSPost2010PropOp52
 70
     0
102
RTVSPost2010Prop53
 90
        2
102
RTVSPost2010PropOp53
 70
     1
102
RTVSPost2010Prop54
  1
strokes_ogs.tif
102
RTVSPost2010PropOp54
 70
     1
102
RTVSPost2010Prop55
280
     0
102
RTVSPost2010PropOp55
 70
     1
102
RTVSPost2010Prop56
140
1.0
102
RTVSPost2010PropOp56
 70
     1
102
RTVSPost2010Prop57
140
1.0
102
RTVSPost2010PropOp57
 70
     1
  0
XRECORD
  5
20D
102
{ACAD_REACTORS
330
20C
102
}
330
20C
100
AcDbXrecord
280
     1
102
RTVSPost2010Prop28
280
     0
102
RTVSPost2010PropOp28
 70
     0
102
RTVSPost2010Prop29
280
     1
102
RTVSPost2010PropOp29
 70
     0
102
RTVSPost2010Prop30
280
     1
102
RTVSPost2010PropOp30
 70
     0
102
RTVSPost2010Prop31
280
     0
102
RTVSPost2010PropOp31
 70
     0
102
RTVSPost2010Prop32
280
     0
102
RTVSPost2010PropOp32
 70
     0
102
RTVSPost2010Prop33
280
     0
102
RTVSPost2010PropOp33
 70
     0
102
RTVSPost2010Prop34
280
     0
102
RTVSPost2010PropOp34
 70
     0
102
RTVSPost2010Prop35
280
     0
102
RTVSPost2010PropOp35
 70
     0
102
RTVSPost2010Prop36
280
     0
102
RTVSPost2010PropOp36
 70
     0
102
RTVSPost2010Prop37
 90
       50
102
RTVSPost2010PropOp37
 70
     0
102
RTVSPost2010Prop38
140
0.0
102
RTVSPost2010PropOp38
 70
     0
102
RTVSPost2010Prop39
140
1.0
102
RTVSPost2010PropOp39
 70
     0
102
RTVSPost2010Prop40
 90
        0
102
RTVSPost2010PropOp40
 70
     0
102
RTVSPost2010Prop41ColorIndex
 90
       18
102
RTVSPost2010Prop41ColorRGB
 90
        0
102
RTVSPost2010PropOp41
 70
     0
102
RTVSPost2010Prop42
 90
       50
102
RTVSPost2010PropOp42
 70
     0
102
RTVSPost2010Prop43
 90
        3
102
RTVSPost2010PropOp43
 70
     0
102
RTVSPost2010Prop44ColorIndex
 90
        5
102
RTVSPost2010Prop44ColorRGB
 90
      255
102
RTVSPost2010PropOp44
 70
     0
102
RTVSPost2010Prop45
280
     0
102
RTVSPost2010PropOp45
 70
     0
102
RTVSPost2010Prop46
 90
       50
102
RTVSPost2010PropOp46
 70
     0
102
RTVSPost2010Prop47
 90
       50
102
RTVSPost2010PropOp47
 70
     0
102
RTVSPost2010Prop48
 90
       50
102
RTVSPost2010PropOp48
 70
     0
102
RTVSPost2010Prop49
280
     0
102
RTVSPost2010PropOp49
 70
     0
102
RTVSPost2010Prop50
 90
       50
102
RTVSPost2010PropOp50
 70
     0
102
RTVSPost2010Prop51ColorIndex
 90
      256
102
RTVSPost2010Prop51ColorRGB
 90
-16777216
102
RTVSPost2010PropOp51
 70
     0
102
RTVSPost2010Prop52
140
1.0
102
RTVSPost2010PropOp52
 70
     0
102
RTVSPost2010Prop53
 90
        2
102
RTVSPost2010PropOp53
 70
     0
102
RTVSPost2010Prop54
  1
strokes_ogs.tif
102
RTVSPost2010PropOp54
 70
     0
102
RTVSPost2010Prop55
280
     0
102
RTVSPost2010PropOp55
 70
     0
102
RTVSPost2010Prop56
140
1.0
102
RTVSPost2010PropOp56
 70
     0
102
RTVSPost2010Prop57
140
1.0
102
RTVSPost2010PropOp57
 70
     0
  0
XRECORD
  5
207
102
{ACAD_REACTORS
330
206
102
}
330
206
100
AcDbXrecord
280
     1
102
RTVSPost2010Prop28
280
     0
102
RTVSPost2010PropOp28
 70
     1
102
RTVSPost2010Prop29
280
     1
102
RTVSPost2010PropOp29
 70
     1
102
RTVSPost2010Prop30
280
     1
102
RTVSPost2010PropOp30
 70
     1
102
RTVSPost2010Prop31
280
     0
102
RTVSPost2010PropOp31
 70
     1
102
RTVSPost2010Prop32
280
     0
102
RTVSPost2010PropOp32
 70
     1
102
RTVSPost2010Prop33
280
     0
102
RTVSPost2010PropOp33
 70
     1
102
RTVSPost2010Prop34
280
     0
102
RTVSPost2010PropOp34
 70
     1
102
RTVSPost2010Prop35
280
     0
102
RTVSPost2010PropOp35
 70
     1
102
RTVSPost2010Prop36
280
     0
102
RTVSPost2010PropOp36
 70
     1
102
RTVSPost2010Prop37
 90
       50
102
RTVSPost2010PropOp37
 70
     1
102
RTVSPost2010Prop38
140
0.0
102
RTVSPost2010PropOp38
 70
     1
102
RTVSPost2010Prop39
140
1.0
102
RTVSPost2010PropOp39
 70
     1
102
RTVSPost2010Prop40
 90
        0
102
RTVSPost2010PropOp40
 70
     1
102
RTVSPost2010Prop41ColorIndex
 90
       18
102
RTVSPost2010Prop41ColorRGB
 90
        0
102
RTVSPost2010PropOp41
 70
     1
102
RTVSPost2010Prop42
 90
       50
102
RTVSPost2010PropOp42
 70
     1
102
RTVSPost2010Prop43
 90
        3
102
RTVSPost2010PropOp43
 70
     1
102
RTVSPost2010Prop44ColorIndex
 90
        5
102
RTVSPost2010Prop44ColorRGB
 90
      255
102
RTVSPost2010PropOp44
 70
     1
102
RTVSPost2010Prop45
280
     0
102
RTVSPost2010PropOp45
 70
     1
102
RTVSPost2010Prop46
 90
       50
102
RTVSPost2010PropOp46
 70
     1
102
RTVSPost2010Prop47
 90
       50
102
RTVSPost2010PropOp47
 70
     1
102
RTVSPost2010Prop48
 90
       50
102
RTVSPost2010PropOp48
 70
     1
102
RTVSPost2010Prop49
280
     0
102
RTVSPost2010PropOp49
 70
     1
102
RTVSPost2010Prop50
 90
       50
102
RTVSPost2010PropOp50
 70
     1
102
RTVSPost2010Prop51ColorIndex
 90
      256
102
RTVSPost2010Prop51ColorRGB
 90
-16777216
102
RTVSPost2010PropOp51
 70
     0
102
RTVSPost2010Prop52
140
1.0
102
RTVSPost2010PropOp52
 70
     0
102
RTVSPost2010Prop53
 90
        2
102
RTVSPost2010PropOp53
 70
     1
102
RTVSPost2010Prop54
  1
strokes_ogs.tif
102
RTVSPost2010PropOp54
 70
     1
102
RTVSPost2010Prop55
280
     0
102
RTVSPost2010PropOp55
 70
     1
102
RTVSPost2010Prop56
140
1.0
102
RTVSPost2010PropOp56
 70
     1
102
RTVSPost2010Prop57
140
1.0
102
RTVSPost2010PropOp57
 70
     1
  0
XRECORD
  5
20F
102
{ACAD_REACTORS
330
20E
102
}
330
20E
100
AcDbXrecord
280
     1
102
RTVSPost2010Prop28
280
     0
102
RTVSPost2010PropOp28
 70
     0
102
RTVSPost2010Prop29
280
     1
102
RTVSPost2010PropOp29
 70
     0
102
RTVSPost2010Prop30
280
     1
102
RTVSPost2010PropOp30
 70
     0
102
RTVSPost2010Prop31
280
     0
102
RTVSPost2010PropOp31
 70
     0
102
RTVSPost2010Prop32
280
     0
102
RTVSPost2010PropOp32
 70
     0
102
RTVSPost2010Prop33
280
     0
102
RTVSPost2010PropOp33
 70
     0
102
RTVSPost2010Prop34
280
     0
102
RTVSPost2010PropOp34
 70
     0
102
RTVSPost2010Prop35
280
     0
102
RTVSPost2010PropOp35
 70
     0
102
RTVSPost2010Prop36
280
     0
102
RTVSPost2010PropOp36
 70
     0
102
RTVSPost2010Prop37
 90
       50
102
RTVSPost2010PropOp37
 70
     0
102
RTVSPost2010Prop38
140
0.0
102
RTVSPost2010PropOp38
 70
     0
102
RTVSPost2010Prop39
140
1.0
102
RTVSPost2010PropOp39
 70
     0
102
RTVSPost2010Prop40
 90
        0
102
RTVSPost2010PropOp40
 70
     0
102
RTVSPost2010Prop41ColorIndex
 90
       18
102
RTVSPost2010Prop41ColorRGB
 90
        0
102
RTVSPost2010PropOp41
 70
     0
102
RTVSPost2010Prop42
 90
       50
102
RTVSPost2010PropOp42
 70
     0
102
RTVSPost2010Prop43
 90
        3
102
RTVSPost2010PropOp43
 70
     0
102
RTVSPost2010Prop44ColorIndex
 90
        5
102
RTVSPost2010Prop44ColorRGB
 90
      255
102
RTVSPost2010PropOp44
 70
     0
102
RTVSPost2010Prop45
280
     0
102
RTVSPost2010PropOp45
 70
     0
102
RTVSPost2010Prop46
 90
       50
102
RTVSPost2010PropOp46
 70
     0
102
RTVSPost2010Prop47
 90
       50
102
RTVSPost2010PropOp47
 70
     0
102
RTVSPost2010Prop48
 90
       50
102
RTVSPost2010PropOp48
 70
     0
102
RTVSPost2010Prop49
280
     0
102
RTVSPost2010PropOp49
 70
     0
102
RTVSPost2010Prop50
 90
       50
102
RTVSPost2010PropOp50
 70
     0
102
RTVSPost2010Prop51ColorIndex
 90
      256
102
RTVSPost2010Prop51ColorRGB
 90
-16777216
102
RTVSPost2010PropOp51
 70
     0
102
RTVSPost2010Prop52
140
1.0
102
RTVSPost2010PropOp52
 70
     0
102
RTVSPost2010Prop53
 90
        2
102
RTVSPost2010PropOp53
 70
     0
102
RTVSPost2010Prop54
  1
strokes_ogs.tif
102
RTVSPost2010PropOp54
 70
     0
102
RTVSPost2010Prop55
280
     0
102
RTVSPost2010PropOp55
 70
     0
102
RTVSPost2010Prop56
140
1.0
102
RTVSPost2010PropOp56
 70
     0
102
RTVSPost2010Prop57
140
1.0
102
RTVSPost2010PropOp57
 70
     0
  0
XRECORD
  5
1FD
102
{ACAD_REACTORS
330
1FC
102
}
330
1FC
100
AcDbXrecord
280
     1
102
RTVSPost2010Prop28
280
     0
102
RTVSPost2010PropOp28
 70
     1
102
RTVSPost2010Prop29
280
     1
102
RTVSPost2010PropOp29
 70
     1
102
RTVSPost2010Prop30
280
     1
102
RTVSPost2010PropOp30
 70
     1
102
RTVSPost2010Prop31
280
     0
102
RTVSPost2010PropOp31
 70
     1
102
RTVSPost2010Prop32
280
     0
102
RTVSPost2010PropOp32
 70
     1
102
RTVSPost2010Prop33
280
     0
102
RTVSPost2010PropOp33
 70
     1
102
RTVSPost2010Prop34
280
     0
102
RTVSPost2010PropOp34
 70
     1
102
RTVSPost2010Prop35
280
     0
102
RTVSPost2010PropOp35
 70
     1
102
RTVSPost2010Prop36
280
     0
102
RTVSPost2010PropOp36
 70
     1
102
RTVSPost2010Prop37
 90
       50
102
RTVSPost2010PropOp37
 70
     1
102
RTVSPost2010Prop38
140
0.0
102
RTVSPost2010PropOp38
 70
     1
102
RTVSPost2010Prop39
140
1.0
102
RTVSPost2010PropOp39
 70
     1
102
RTVSPost2010Prop40
 90
        0
102
RTVSPost2010PropOp40
 70
     1
102
RTVSPost2010Prop41ColorIndex
 90
       18
102
RTVSPost2010Prop41ColorRGB
 90
        0
102
RTVSPost2010PropOp41
 70
     1
102
RTVSPost2010Prop42
 90
       50
102
RTVSPost2010PropOp42
 70
     1
102
RTVSPost2010Prop43
 90
        3
102
RTVSPost2010PropOp43
 70
     1
102
RTVSPost2010Prop44ColorIndex
 90
        5
102
RTVSPost2010Prop44ColorRGB
 90
      255
102
RTVSPost2010PropOp44
 70
     1
102
RTVSPost2010Prop45
280
     0
102
RTVSPost2010PropOp45
 70
     1
102
RTVSPost2010Prop46
 90
       50
102
RTVSPost2010PropOp46
 70
     1
102
RTVSPost2010Prop47
 90
       50
102
RTVSPost2010PropOp47
 70
     1
102
RTVSPost2010Prop48
 90
       50
102
RTVSPost2010PropOp48
 70
     1
102
RTVSPost2010Prop49
280
     0
102
RTVSPost2010PropOp49
 70
     1
102
RTVSPost2010Prop50
 90
       50
102
RTVSPost2010PropOp50
 70
     1
102
RTVSPost2010Prop51ColorIndex
 90
      256
102
RTVSPost2010Prop51ColorRGB
 90
-16777216
102
RTVSPost2010PropOp51
 70
     0
102
RTVSPost2010Prop52
140
1.0
102
RTVSPost2010PropOp52
 70
     0
102
RTVSPost2010Prop53
 90
        2
102
RTVSPost2010PropOp53
 70
     1
102
RTVSPost2010Prop54
  1
strokes_ogs.tif
102
RTVSPost2010PropOp54
 70
     1
102
RTVSPost2010Prop55
280
     0
102
RTVSPost2010PropOp55
 70
     1
102
RTVSPost2010Prop56
140
1.0
102
RTVSPost2010PropOp56
 70
     1
102
RTVSPost2010Prop57
140
1.0
102
RTVSPost2010PropOp57
 70
     1
  0
XRECORD
  5
21B
102
{ACAD_REACTORS
330
21A
102
}
330
21A
100
AcDbXrecord
280
     1
102
RTVSPost2010Prop28
280
     0
102
RTVSPost2010PropOp28
 70
     1
102
RTVSPost2010Prop29
280
     1
102
RTVSPost2010PropOp29
 70
     1
102
RTVSPost2010Prop30
280
     1
102
RTVSPost2010PropOp30
 70
     1
102
RTVSPost2010Prop31
280
     0
102
RTVSPost2010PropOp31
 70
     1
102
RTVSPost2010Prop32
280
     0
102
RTVSPost2010PropOp32
 70
     1
102
RTVSPost2010Prop33
280
     0
102
RTVSPost2010PropOp33
 70
     1
102
RTVSPost2010Prop34
280
     0
102
RTVSPost2010PropOp34
 70
     1
102
RTVSPost2010Prop35
280
     0
102
RTVSPost2010PropOp35
 70
     1
102
RTVSPost2010Prop36
280
     0
102
RTVSPost2010PropOp36
 70
     1
102
RTVSPost2010Prop37
 90
       50
102
RTVSPost2010PropOp37
 70
     1
102
RTVSPost2010Prop38
140
0.0
102
RTVSPost2010PropOp38
 70
     1
102
RTVSPost2010Prop39
140
1.0
102
RTVSPost2010PropOp39
 70
     1
102
RTVSPost2010Prop40
 90
        0
102
RTVSPost2010PropOp40
 70
     1
102
RTVSPost2010Prop41ColorIndex
 90
       18
102
RTVSPost2010Prop41ColorRGB
 90
        0
102
RTVSPost2010PropOp41
 70
     1
102
RTVSPost2010Prop42
 90
       50
102
RTVSPost2010PropOp42
 70
     1
102
RTVSPost2010Prop43
 90
        3
102
RTVSPost2010PropOp43
 70
     1
102
RTVSPost2010Prop44ColorIndex
 90
        5
102
RTVSPost2010Prop44ColorRGB
 90
      255
102
RTVSPost2010PropOp44
 70
     1
102
RTVSPost2010Prop45
280
     0
102
RTVSPost2010PropOp45
 70
     1
102
RTVSPost2010Prop46
 90
       50
102
RTVSPost2010PropOp46
 70
     1
102
RTVSPost2010Prop47
 90
       50
102
RTVSPost2010PropOp47
 70
     1
102
RTVSPost2010Prop48
 90
       50
102
RTVSPost2010PropOp48
 70
     1
102
RTVSPost2010Prop49
280
     0
102
RTVSPost2010PropOp49
 70
     1
102
RTVSPost2010Prop50
 90
       50
102
RTVSPost2010PropOp50
 70
     1
102
RTVSPost2010Prop51ColorIndex
 90
      256
102
RTVSPost2010Prop51ColorRGB
 90
-16777216
102
RTVSPost2010PropOp51
 70
     0
102
RTVSPost2010Prop52
140
1.0
102
RTVSPost2010PropOp52
 70
     0
102
RTVSPost2010Prop53
 90
        2
102
RTVSPost2010PropOp53
 70
     1
102
RTVSPost2010Prop54
  1
strokes_ogs.tif
102
RTVSPost2010PropOp54
 70
     1
102
RTVSPost2010Prop55
280
     0
102
RTVSPost2010PropOp55
 70
     1
102
RTVSPost2010Prop56
140
1.0
102
RTVSPost2010PropOp56
 70
     1
102
RTVSPost2010Prop57
140
1.0
102
RTVSPost2010PropOp57
 70
     1
  0
XRECORD
  5
219
102
{ACAD_REACTORS
330
218
102
}
330
218
100
AcDbXrecord
280
     1
102
RTVSPost2010Prop28
280
     0
102
RTVSPost2010PropOp28
 70
     1
102
RTVSPost2010Prop29
280
     1
102
RTVSPost2010PropOp29
 70
     1
102
RTVSPost2010Prop30
280
     1
102
RTVSPost2010PropOp30
 70
     1
102
RTVSPost2010Prop31
280
     0
102
RTVSPost2010PropOp31
 70
     1
102
RTVSPost2010Prop32
280
     0
102
RTVSPost2010PropOp32
 70
     1
102
RTVSPost2010Prop33
280
     0
102
RTVSPost2010PropOp33
 70
     1
102
RTVSPost2010Prop34
280
     0
102
RTVSPost2010PropOp34
 70
     1
102
RTVSPost2010Prop35
280
     0
102
RTVSPost2010PropOp35
 70
     1
102
RTVSPost2010Prop36
280
     0
102
RTVSPost2010PropOp36
 70
     1
102
RTVSPost2010Prop37
 90
       50
102
RTVSPost2010PropOp37
 70
     1
102
RTVSPost2010Prop38
140
0.0
102
RTVSPost2010PropOp38
 70
     1
102
RTVSPost2010Prop39
140
1.0
102
RTVSPost2010PropOp39
 70
     1
102
RTVSPost2010Prop40
 90
        0
102
RTVSPost2010PropOp40
 70
     1
102
RTVSPost2010Prop41ColorIndex
 90
       18
102
RTVSPost2010Prop41ColorRGB
 90
        0
102
RTVSPost2010PropOp41
 70
     1
102
RTVSPost2010Prop42
 90
       50
102
RTVSPost2010PropOp42
 70
     1
102
RTVSPost2010Prop43
 90
        3
102
RTVSPost2010PropOp43
 70
     1
102
RTVSPost2010Prop44ColorIndex
 90
        5
102
RTVSPost2010Prop44ColorRGB
 90
      255
102
RTVSPost2010PropOp44
 70
     1
102
RTVSPost2010Prop45
280
     0
102
RTVSPost2010PropOp45
 70
     1
102
RTVSPost2010Prop46
 90
       50
102
RTVSPost2010PropOp46
 70
     1
102
RTVSPost2010Prop47
 90
       50
102
RTVSPost2010PropOp47
 70
     1
102
RTVSPost2010Prop48
 90
       50
102
RTVSPost2010PropOp48
 70
     1
102
RTVSPost2010Prop49
280
     0
102
RTVSPost2010PropOp49
 70
     1
102
RTVSPost2010Prop50
 90
       50
102
RTVSPost2010PropOp50
 70
     1
102
RTVSPost2010Prop51ColorIndex
 90
      256
102
RTVSPost2010Prop51ColorRGB
 90
-16777216
102
RTVSPost2010PropOp51
 70
     0
102
RTVSPost2010Prop52
140
1.0
102
RTVSPost2010PropOp52
 70
     0
102
RTVSPost2010Prop53
 90
        2
102
RTVSPost2010PropOp53
 70
     1
102
RTVSPost2010Prop54
  1
strokes_ogs.tif
102
RTVSPost2010PropOp54
 70
     1
102
RTVSPost2010Prop55
280
     0
102
RTVSPost2010PropOp55
 70
     1
102
RTVSPost2010Prop56
140
1.0
102
RTVSPost2010PropOp56
 70
     1
102
RTVSPost2010Prop57
140
1.0
102
RTVSPost2010PropOp57
 70
     1
  0
XRECORD
  5
213
102
{ACAD_REACTORS
330
212
102
}
330
212
100
AcDbXrecord
280
     1
102
RTVSPost2010Prop28
280
     0
102
RTVSPost2010PropOp28
 70
     1
102
RTVSPost2010Prop29
280
     1
102
RTVSPost2010PropOp29
 70
     1
102
RTVSPost2010Prop30
280
     1
102
RTVSPost2010PropOp30
 70
     1
102
RTVSPost2010Prop31
280
     0
102
RTVSPost2010PropOp31
 70
     1
102
RTVSPost2010Prop32
280
     0
102
RTVSPost2010PropOp32
 70
     1
102
RTVSPost2010Prop33
280
     0
102
RTVSPost2010PropOp33
 70
     1
102
RTVSPost2010Prop34
280
     0
102
RTVSPost2010PropOp34
 70
     1
102
RTVSPost2010Prop35
280
     0
102
RTVSPost2010PropOp35
 70
     1
102
RTVSPost2010Prop36
280
     0
102
RTVSPost2010PropOp36
 70
     1
102
RTVSPost2010Prop37
 90
       50
102
RTVSPost2010PropOp37
 70
     1
102
RTVSPost2010Prop38
140
0.0
102
RTVSPost2010PropOp38
 70
     1
102
RTVSPost2010Prop39
140
1.0
102
RTVSPost2010PropOp39
 70
     1
102
RTVSPost2010Prop40
 90
        0
102
RTVSPost2010PropOp40
 70
     1
102
RTVSPost2010Prop41ColorIndex
 90
       18
102
RTVSPost2010Prop41ColorRGB
 90
        0
102
RTVSPost2010PropOp41
 70
     1
102
RTVSPost2010Prop42
 90
       50
102
RTVSPost2010PropOp42
 70
     1
102
RTVSPost2010Prop43
 90
        3
102
RTVSPost2010PropOp43
 70
     1
102
RTVSPost2010Prop44ColorIndex
 90
        5
102
RTVSPost2010Prop44ColorRGB
 90
      255
102
RTVSPost2010PropOp44
 70
     1
102
RTVSPost2010Prop45
280
     0
102
RTVSPost2010PropOp45
 70
     1
102
RTVSPost2010Prop46
 90
       50
102
RTVSPost2010PropOp46
 70
     1
102
RTVSPost2010Prop47
 90
       50
102
RTVSPost2010PropOp47
 70
     1
102
RTVSPost2010Prop48
 90
       50
102
RTVSPost2010PropOp48
 70
     1
102
RTVSPost2010Prop49
280
     0
102
RTVSPost2010PropOp49
 70
     1
102
RTVSPost2010Prop50
 90
       50
102
RTVSPost2010PropOp50
 70
     1
102
RTVSPost2010Prop51ColorIndex
 90
      256
102
RTVSPost2010Prop51ColorRGB
 90
-16777216
102
RTVSPost2010PropOp51
 70
     0
102
RTVSPost2010Prop52
140
1.0
102
RTVSPost2010PropOp52
 70
     0
102
RTVSPost2010Prop53
 90
        2
102
RTVSPost2010PropOp53
 70
     1
102
RTVSPost2010Prop54
  1
strokes_ogs.tif
102
RTVSPost2010PropOp54
 70
     1
102
RTVSPost2010Prop55
280
     0
102
RTVSPost2010PropOp55
 70
     1
102
RTVSPost2010Prop56
140
1.0
102
RTVSPost2010PropOp56
 70
     1
102
RTVSPost2010Prop57
140
1.0
102
RTVSPost2010PropOp57
 70
     1
  0
XRECORD
  5
215
102
{ACAD_REACTORS
330
214
102
}
330
214
100
AcDbXrecord
280
     1
102
RTVSPost2010Prop28
280
     0
102
RTVSPost2010PropOp28
 70
     1
102
RTVSPost2010Prop29
280
     1
102
RTVSPost2010PropOp29
 70
     1
102
RTVSPost2010Prop30
280
     1
102
RTVSPost2010PropOp30
 70
     1
102
RTVSPost2010Prop31
280
     0
102
RTVSPost2010PropOp31
 70
     1
102
RTVSPost2010Prop32
280
     0
102
RTVSPost2010PropOp32
 70
     1
102
RTVSPost2010Prop33
280
     0
102
RTVSPost2010PropOp33
 70
     1
102
RTVSPost2010Prop34
280
     0
102
RTVSPost2010PropOp34
 70
     1
102
RTVSPost2010Prop35
280
     0
102
RTVSPost2010PropOp35
 70
     1
102
RTVSPost2010Prop36
280
     0
102
RTVSPost2010PropOp36
 70
     1
102
RTVSPost2010Prop37
 90
       50
102
RTVSPost2010PropOp37
 70
     1
102
RTVSPost2010Prop38
140
0.0
102
RTVSPost2010PropOp38
 70
     1
102
RTVSPost2010Prop39
140
1.0
102
RTVSPost2010PropOp39
 70
     1
102
RTVSPost2010Prop40
 90
        0
102
RTVSPost2010PropOp40
 70
     1
102
RTVSPost2010Prop41ColorIndex
 90
       18
102
RTVSPost2010Prop41ColorRGB
 90
        0
102
RTVSPost2010PropOp41
 70
     1
102
RTVSPost2010Prop42
 90
       50
102
RTVSPost2010PropOp42
 70
     1
102
RTVSPost2010Prop43
 90
        3
102
RTVSPost2010PropOp43
 70
     1
102
RTVSPost2010Prop44ColorIndex
 90
        5
102
RTVSPost2010Prop44ColorRGB
 90
      255
102
RTVSPost2010PropOp44
 70
     1
102
RTVSPost2010Prop45
280
     0
102
RTVSPost2010PropOp45
 70
     1
102
RTVSPost2010Prop46
 90
       50
102
RTVSPost2010PropOp46
 70
     1
102
RTVSPost2010Prop47
 90
       50
102
RTVSPost2010PropOp47
 70
     1
102
RTVSPost2010Prop48
 90
       50
102
RTVSPost2010PropOp48
 70
     1
102
RTVSPost2010Prop49
280
     0
102
RTVSPost2010PropOp49
 70
     1
102
RTVSPost2010Prop50
 90
       50
102
RTVSPost2010PropOp50
 70
     1
102
RTVSPost2010Prop51ColorIndex
 90
      256
102
RTVSPost2010Prop51ColorRGB
 90
-16777216
102
RTVSPost2010PropOp51
 70
     0
102
RTVSPost2010Prop52
140
1.0
102
RTVSPost2010PropOp52
 70
     0
102
RTVSPost2010Prop53
 90
        2
102
RTVSPost2010PropOp53
 70
     1
102
RTVSPost2010Prop54
  1
strokes_ogs.tif
102
RTVSPost2010PropOp54
 70
     1
102
RTVSPost2010Prop55
280
     0
102
RTVSPost2010PropOp55
 70
     1
102
RTVSPost2010Prop56
140
1.0
102
RTVSPost2010PropOp56
 70
     1
102
RTVSPost2010Prop57
140
1.0
102
RTVSPost2010PropOp57
 70
     1
  0
XRECORD
  5
205
102
{ACAD_REACTORS
330
204
102
}
330
204
100
AcDbXrecord
280
     1
102
RTVSPost2010Prop28
280
     0
102
RTVSPost2010PropOp28
 70
     1
102
RTVSPost2010Prop29
280
     1
102
RTVSPost2010PropOp29
 70
     1
102
RTVSPost2010Prop30
280
     1
102
RTVSPost2010PropOp30
 70
     1
102
RTVSPost2010Prop31
280
     0
102
RTVSPost2010PropOp31
 70
     1
102
RTVSPost2010Prop32
280
     0
102
RTVSPost2010PropOp32
 70
     1
102
RTVSPost2010Prop33
280
     0
102
RTVSPost2010PropOp33
 70
     1
102
RTVSPost2010Prop34
280
     0
102
RTVSPost2010PropOp34
 70
     1
102
RTVSPost2010Prop35
280
     0
102
RTVSPost2010PropOp35
 70
     1
102
RTVSPost2010Prop36
280
     0
102
RTVSPost2010PropOp36
 70
     1
102
RTVSPost2010Prop37
 90
       50
102
RTVSPost2010PropOp37
 70
     1
102
RTVSPost2010Prop38
140
0.0
102
RTVSPost2010PropOp38
 70
     1
102
RTVSPost2010Prop39
140
1.0
102
RTVSPost2010PropOp39
 70
     1
102
RTVSPost2010Prop40
 90
        0
102
RTVSPost2010PropOp40
 70
     1
102
RTVSPost2010Prop41ColorIndex
 90
       18
102
RTVSPost2010Prop41ColorRGB
 90
        0
102
RTVSPost2010PropOp41
 70
     1
102
RTVSPost2010Prop42
 90
       50
102
RTVSPost2010PropOp42
 70
     1
102
RTVSPost2010Prop43
 90
        3
102
RTVSPost2010PropOp43
 70
     1
102
RTVSPost2010Prop44ColorIndex
 90
        5
102
RTVSPost2010Prop44ColorRGB
 90
      255
102
RTVSPost2010PropOp44
 70
     1
102
RTVSPost2010Prop45
280
     0
102
RTVSPost2010PropOp45
 70
     1
102
RTVSPost2010Prop46
 90
       50
102
RTVSPost2010PropOp46
 70
     1
102
RTVSPost2010Prop47
 90
       50
102
RTVSPost2010PropOp47
 70
     1
102
RTVSPost2010Prop48
 90
       50
102
RTVSPost2010PropOp48
 70
     1
102
RTVSPost2010Prop49
280
     0
102
RTVSPost2010PropOp49
 70
     1
102
RTVSPost2010Prop50
 90
       50
102
RTVSPost2010PropOp50
 70
     1
102
RTVSPost2010Prop51ColorIndex
 90
      256
102
RTVSPost2010Prop51ColorRGB
 90
-16777216
102
RTVSPost2010PropOp51
 70
     0
102
RTVSPost2010Prop52
140
1.0
102
RTVSPost2010PropOp52
 70
     0
102
RTVSPost2010Prop53
 90
        2
102
RTVSPost2010PropOp53
 70
     1
102
RTVSPost2010Prop54
  1
strokes_ogs.tif
102
RTVSPost2010PropOp54
 70
     1
102
RTVSPost2010Prop55
280
     0
102
RTVSPost2010PropOp55
 70
     1
102
RTVSPost2010Prop56
140
1.0
102
RTVSPost2010PropOp56
 70
     1
102
RTVSPost2010Prop57
140
1.0
102
RTVSPost2010PropOp57
 70
     1
  0
XRECORD
  5
1F7
102
{ACAD_REACTORS
330
1F6
102
}
330
1F6
100
AcDbXrecord
280
     1
102
RTVSPost2010Prop28
280
     0
102
RTVSPost2010PropOp28
 70
     1
102
RTVSPost2010Prop29
280
     1
102
RTVSPost2010PropOp29
 70
     1
102
RTVSPost2010Prop30
280
     1
102
RTVSPost2010PropOp30
 70
     1
102
RTVSPost2010Prop31
280
     0
102
RTVSPost2010PropOp31
 70
     1
102
RTVSPost2010Prop32
280
     0
102
RTVSPost2010PropOp32
 70
     1
102
RTVSPost2010Prop33
280
     0
102
RTVSPost2010PropOp33
 70
     1
102
RTVSPost2010Prop34
280
     0
102
RTVSPost2010PropOp34
 70
     1
102
RTVSPost2010Prop35
280
     0
102
RTVSPost2010PropOp35
 70
     1
102
RTVSPost2010Prop36
280
     0
102
RTVSPost2010PropOp36
 70
     1
102
RTVSPost2010Prop37
 90
       50
102
RTVSPost2010PropOp37
 70
     1
102
RTVSPost2010Prop38
140
0.0
102
RTVSPost2010PropOp38
 70
     1
102
RTVSPost2010Prop39
140
1.0
102
RTVSPost2010PropOp39
 70
     1
102
RTVSPost2010Prop40
 90
        0
102
RTVSPost2010PropOp40
 70
     1
102
RTVSPost2010Prop41ColorIndex
 90
       18
102
RTVSPost2010Prop41ColorRGB
 90
        0
102
RTVSPost2010PropOp41
 70
     1
102
RTVSPost2010Prop42
 90
       50
102
RTVSPost2010PropOp42
 70
     1
102
RTVSPost2010Prop43
 90
        3
102
RTVSPost2010PropOp43
 70
     1
102
RTVSPost2010Prop44ColorIndex
 90
        5
102
RTVSPost2010Prop44ColorRGB
 90
      255
102
RTVSPost2010PropOp44
 70
     1
102
RTVSPost2010Prop45
280
     0
102
RTVSPost2010PropOp45
 70
     1
102
RTVSPost2010Prop46
 90
       50
102
RTVSPost2010PropOp46
 70
     1
102
RTVSPost2010Prop47
 90
       50
102
RTVSPost2010PropOp47
 70
     1
102
RTVSPost2010Prop48
 90
       50
102
RTVSPost2010PropOp48
 70
     1
102
RTVSPost2010Prop49
280
     0
102
RTVSPost2010PropOp49
 70
     1
102
RTVSPost2010Prop50
 90
       50
102
RTVSPost2010PropOp50
 70
     1
102
RTVSPost2010Prop51ColorIndex
 90
      256
102
RTVSPost2010Prop51ColorRGB
 90
-16777216
102
RTVSPost2010PropOp51
 70
     0
102
RTVSPost2010Prop52
140
1.0
102
RTVSPost2010PropOp52
 70
     0
102
RTVSPost2010Prop53
 90
        2
102
RTVSPost2010PropOp53
 70
     1
102
RTVSPost2010Prop54
  1
strokes_ogs.tif
102
RTVSPost2010PropOp54
 70
     1
102
RTVSPost2010Prop55
280
     0
102
RTVSPost2010PropOp55
 70
     1
102
RTVSPost2010Prop56
140
1.0
102
RTVSPost2010PropOp56
 70
     1
102
RTVSPost2010Prop57
140
1.0
102
RTVSPost2010PropOp57
 70
     1
  0
XRECORD
  5
217
102
{ACAD_REACTORS
330
216
102
}
330
216
100
AcDbXrecord
280
     1
102
RTVSPost2010Prop28
280
     0
102
RTVSPost2010PropOp28
 70
     1
102
RTVSPost2010Prop29
280
     1
102
RTVSPost2010PropOp29
 70
     1
102
RTVSPost2010Prop30
280
     1
102
RTVSPost2010PropOp30
 70
     1
102
RTVSPost2010Prop31
280
     0
102
RTVSPost2010PropOp31
 70
     1
102
RTVSPost2010Prop32
280
     0
102
RTVSPost2010PropOp32
 70
     1
102
RTVSPost2010Prop33
280
     0
102
RTVSPost2010PropOp33
 70
     1
102
RTVSPost2010Prop34
280
     0
102
RTVSPost2010PropOp34
 70
     1
102
RTVSPost2010Prop35
280
     0
102
RTVSPost2010PropOp35
 70
     1
102
RTVSPost2010Prop36
280
     0
102
RTVSPost2010PropOp36
 70
     1
102
RTVSPost2010Prop37
 90
       50
102
RTVSPost2010PropOp37
 70
     1
102
RTVSPost2010Prop38
140
0.0
102
RTVSPost2010PropOp38
 70
     1
102
RTVSPost2010Prop39
140
1.0
102
RTVSPost2010PropOp39
 70
     1
102
RTVSPost2010Prop40
 90
        0
102
RTVSPost2010PropOp40
 70
     1
102
RTVSPost2010Prop41ColorIndex
 90
       18
102
RTVSPost2010Prop41ColorRGB
 90
        0
102
RTVSPost2010PropOp41
 70
     1
102
RTVSPost2010Prop42
 90
       50
102
RTVSPost2010PropOp42
 70
     1
102
RTVSPost2010Prop43
 90
        3
102
RTVSPost2010PropOp43
 70
     1
102
RTVSPost2010Prop44ColorIndex
 90
        5
102
RTVSPost2010Prop44ColorRGB
 90
      255
102
RTVSPost2010PropOp44
 70
     1
102
RTVSPost2010Prop45
280
     0
102
RTVSPost2010PropOp45
 70
     1
102
RTVSPost2010Prop46
 90
       50
102
RTVSPost2010PropOp46
 70
     1
102
RTVSPost2010Prop47
 90
       50
102
RTVSPost2010PropOp47
 70
     1
102
RTVSPost2010Prop48
 90
       50
102
RTVSPost2010PropOp48
 70
     1
102
RTVSPost2010Prop49
280
     0
102
RTVSPost2010PropOp49
 70
     1
102
RTVSPost2010Prop50
 90
       50
102
RTVSPost2010PropOp50
 70
     1
102
RTVSPost2010Prop51ColorIndex
 90
      256
102
RTVSPost2010Prop51ColorRGB
 90
-16777216
102
RTVSPost2010PropOp51
 70
     0
102
RTVSPost2010Prop52
140
1.0
102
RTVSPost2010PropOp52
 70
     0
102
RTVSPost2010Prop53
 90
        2
102
RTVSPost2010PropOp53
 70
     1
102
RTVSPost2010Prop54
  1
strokes_ogs.tif
102
RTVSPost2010PropOp54
 70
     1
102
RTVSPost2010Prop55
280
     0
102
RTVSPost2010PropOp55
 70
     1
102
RTVSPost2010Prop56
140
1.0
102
RTVSPost2010PropOp56
 70
     1
102
RTVSPost2010Prop57
140
1.0
102
RTVSPost2010PropOp57
 70
     1
  0
ENDSEC
  0
EOF
